  0
SECTION
  2
HEADER
  9
$ACADVER
  1
AC1015
  9
$ACADMAINTVER
 70
    20
  9
$DWGCODEPAGE
  3
ANSI_932
  9
$INSBASE
 10
0.0
 20
0.0
 30
0.0
  9
$EXTMIN
 10
9.9999975266385
 20
10.0
 30
0.0
  9
$EXTMAX
 10
756.2650109432166
 20
543.8662455919565
 30
0.0
  9
$LIMMIN
 10
0.0000015376081137
 20
-0.0000001931532552
  9
$LIMMAX
 10
842.000001537608
 20
580.4696967765435
  9
$ORTHOMODE
 70
     1
  9
$REGENMODE
 70
     1
  9
$FILLMODE
 70
     1
  9
$QTEXTMODE
 70
     0
  9
$MIRRTEXT
 70
     1
  9
$LTSCALE
 40
1.0
  9
$ATTMODE
 70
     1
  9
$TEXTSIZE
 40
2.5
  9
$TRACEWID
 40
1.0
  9
$TEXTSTYLE
  7
STANDARD
  9
$CLAYER
  8
0
  9
$CELTYPE
  6
BYLAYER
  9
$CECOLOR
 62
   256
  9
$CELTSCALE
 40
1.0
  9
$DISPSILH
 70
     0
  9
$DIMSCALE
 40
1.0
  9
$DIMASZ
 40
3.0
  9
$DIMEXO
 40
1.0
  9
$DIMDLI
 40
10.0
  9
$DIMRND
 40
0.0
  9
$DIMDLE
 40
0.0
  9
$DIMEXE
 40
1.0
  9
$DIMTP
 40
0.0
  9
$DIMTM
 40
0.0
  9
$DIMTXT
 40
3.2
  9
$DIMCEN
 40
0.0
  9
$DIMTSZ
 40
0.0
  9
$DIMTOL
 70
     0
  9
$DIMLIM
 70
     0
  9
$DIMTIH
 70
     0
  9
$DIMTOH
 70
     0
  9
$DIMSE1
 70
     0
  9
$DIMSE2
 70
     0
  9
$DIMTAD
 70
     3
  9
$DIMZIN
 70
     8
  9
$DIMBLK
  1

  9
$DIMASO
 70
     1
  9
$DIMSHO
 70
     1
  9
$DIMPOST
  1

  9
$DIMAPOST
  1

  9
$DIMALT
 70
     0
  9
$DIMALTD
 70
     2
  9
$DIMALTF
 40
25.4
  9
$DIMLFAC
 40
1.0
  9
$DIMTOFL
 70
     1
  9
$DIMTVP
 40
0.0
  9
$DIMTIX
 70
     0
  9
$DIMSOXD
 70
     0
  9
$DIMSAH
 70
     1
  9
$DIMBLK1
  1
OPEN
  9
$DIMBLK2
  1
OPEN
  9
$DIMSTYLE
  2
STANDARD
  9
$DIMCLRD
 70
     0
  9
$DIMCLRE
 70
     0
  9
$DIMCLRT
 70
     0
  9
$DIMTFAC
 40
1.0
  9
$DIMGAP
 40
1.0
  9
$DIMJUST
 70
     0
  9
$DIMSD1
 70
     0
  9
$DIMSD2
 70
     0
  9
$DIMTOLJ
 70
     1
  9
$DIMTZIN
 70
     0
  9
$DIMALTZ
 70
     0
  9
$DIMALTTZ
 70
     0
  9
$DIMUPT
 70
     0
  9
$DIMDEC
 70
     4
  9
$DIMTDEC
 70
     4
  9
$DIMALTU
 70
     2
  9
$DIMALTTD
 70
     2
  9
$DIMTXSTY
  7
STANDARD
  9
$DIMAUNIT
 70
     0
  9
$DIMADEC
 70
     0
  9
$DIMALTRND
 40
0.0
  9
$DIMAZIN
 70
     0
  9
$DIMDSEP
 70
    46
  9
$DIMATFIT
 70
     3
  9
$DIMFRAC
 70
     0
  9
$DIMLDRBLK
  1
OPEN
  9
$DIMLUNIT
 70
     2
  9
$DIMLWD
 70
    -2
  9
$DIMLWE
 70
    -2
  9
$DIMTMOVE
 70
     0
  9
$LUNITS
 70
     2
  9
$LUPREC
 70
     4
  9
$SKETCHINC
 40
1.0
  9
$FILLETRAD
 40
0.0
  9
$AUNITS
 70
     0
  9
$AUPREC
 70
     0
  9
$MENU
  1
.
  9
$ELEVATION
 40
0.0
  9
$PELEVATION
 40
0.0
  9
$THICKNESS
 40
0.0
  9
$LIMCHECK
 70
     0
  9
$CHAMFERA
 40
10.0
  9
$CHAMFERB
 40
10.0
  9
$CHAMFERC
 40
20.0
  9
$CHAMFERD
 40
0.0
  9
$SKPOLY
 70
     0
  9
$TDCREATE
 40
2453811.402924803
  9
$TDUCREATE
 40
2453811.027924803
  9
$TDUPDATE
 40
2457192.692065394
  9
$TDUUPDATE
 40
2457192.317065394
  9
$TDINDWG
 40
0.1062857639
  9
$TDUSRTIMER
 40
0.1062857407
  9
$USRTIMER
 70
     1
  9
$ANGBASE
 50
0.0
  9
$ANGDIR
 70
     0
  9
$PDMODE
 70
     0
  9
$PDSIZE
 40
0.0
  9
$PLINEWID
 40
0.0
  9
$SPLFRAME
 70
     0
  9
$SPLINETYPE
 70
     6
  9
$SPLINESEGS
 70
     8
  9
$HANDSEED
  5
18AA
  9
$SURFTAB1
 70
     6
  9
$SURFTAB2
 70
     6
  9
$SURFTYPE
 70
     6
  9
$SURFU
 70
     6
  9
$SURFV
 70
     6
  9
$UCSBASE
  2

  9
$UCSNAME
  2

  9
$UCSORG
 10
0.0
 20
0.0
 30
0.0
  9
$UCSXDIR
 10
1.0
 20
0.0
 30
0.0
  9
$UCSYDIR
 10
0.0
 20
1.0
 30
0.0
  9
$UCSORTHOREF
  2

  9
$UCSORTHOVIEW
 70
     0
  9
$UCSORGTOP
 10
0.0
 20
0.0
 30
0.0
  9
$UCSORGBOTTOM
 10
0.0
 20
0.0
 30
0.0
  9
$UCSORGLEFT
 10
0.0
 20
0.0
 30
0.0
  9
$UCSORGRIGHT
 10
0.0
 20
0.0
 30
0.0
  9
$UCSORGFRONT
 10
0.0
 20
0.0
 30
0.0
  9
$UCSORGBACK
 10
0.0
 20
0.0
 30
0.0
  9
$PUCSBASE
  2

  9
$PUCSNAME
  2

  9
$PUCSORG
 10
0.0
 20
0.0
 30
0.0
  9
$PUCSXDIR
 10
1.0
 20
0.0
 30
0.0
  9
$PUCSYDIR
 10
0.0
 20
1.0
 30
0.0
  9
$PUCSORTHOREF
  2

  9
$PUCSORTHOVIEW
 70
     0
  9
$PUCSORGTOP
 10
0.0
 20
0.0
 30
0.0
  9
$PUCSORGBOTTOM
 10
0.0
 20
0.0
 30
0.0
  9
$PUCSORGLEFT
 10
0.0
 20
0.0
 30
0.0
  9
$PUCSORGRIGHT
 10
0.0
 20
0.0
 30
0.0
  9
$PUCSORGFRONT
 10
0.0
 20
0.0
 30
0.0
  9
$PUCSORGBACK
 10
0.0
 20
0.0
 30
0.0
  9
$USERI1
 70
     0
  9
$USERI2
 70
     0
  9
$USERI3
 70
     0
  9
$USERI4
 70
     0
  9
$USERI5
 70
     0
  9
$USERR1
 40
0.0
  9
$USERR2
 40
0.0
  9
$USERR3
 40
0.0
  9
$USERR4
 40
0.0
  9
$USERR5
 40
0.0
  9
$WORLDVIEW
 70
     1
  9
$SHADEDGE
 70
     3
  9
$SHADEDIF
 70
    70
  9
$TILEMODE
 70
     1
  9
$MAXACTVP
 70
    48
  9
$PINSBASE
 10
0.0
 20
0.0
 30
0.0
  9
$PLIMCHECK
 70
     0
  9
$PEXTMIN
 10
1.000000000000000E+20
 20
1.000000000000000E+20
 30
1.000000000000000E+20
  9
$PEXTMAX
 10
-1.000000000000000E+20
 20
-1.000000000000000E+20
 30
-1.000000000000000E+20
  9
$PLIMMIN
 10
0.0
 20
0.0
  9
$PLIMMAX
 10
420.0
 20
297.0
  9
$UNITMODE
 70
     0
  9
$VISRETAIN
 70
     1
  9
$PLINEGEN
 70
     0
  9
$PSLTSCALE
 70
     1
  9
$TREEDEPTH
 70
  3020
  9
$CMLSTYLE
  2
STANDARD
  9
$CMLJUST
 70
     0
  9
$CMLSCALE
 40
20.0
  9
$PROXYGRAPHICS
 70
     1
  9
$MEASUREMENT
 70
     0
  9
$CELWEIGHT
370
    -1
  9
$ENDCAPS
280
     0
  9
$JOINSTYLE
280
     0
  9
$LWDISPLAY
290
     0
  9
$INSUNITS
 70
     0
  9
$HYPERLINKBASE
  1

  9
$STYLESHEET
  1

  9
$XEDIT
290
     1
  9
$CEPSNTYPE
380
     0
  9
$PSTYLEMODE
290
     1
  9
$FINGERPRINTGUID
  2
{7DBA2C9A-4E41-4F3D-B71D-962245F2F0FA}
  9
$VERSIONGUID
  2
{17104266-A84D-429D-831C-F1CBBD7750C4}
  9
$EXTNAMES
290
     1
  9
$PSVPSCALE
 40
0.0
  9
$OLESTARTUP
290
     0
  0
ENDSEC
  0
SECTION
  2
CLASSES
  0
CLASS
  1
ACDBDICTIONARYWDFLT
  2
AcDbDictionaryWithDefault
  3
ObjectDBX Classes
 90
        0
280
     0
281
     0
  0
CLASS
  1
ACDBPLACEHOLDER
  2
AcDbPlaceHolder
  3
ObjectDBX Classes
 90
        0
280
     0
281
     0
  0
CLASS
  1
LAYOUT
  2
AcDbLayout
  3
ObjectDBX Classes
 90
        0
280
     0
281
     0
  0
CLASS
  1
DICTIONARYVAR
  2
AcDbDictionaryVar
  3
ObjectDBX Classes
 90
        0
280
     0
281
     0
  0
CLASS
  1
MATERIAL
  2
AcDbMaterial
  3
ObjectDBX Classes
 90
     1153
280
     0
281
     0
  0
CLASS
  1
VISUALSTYLE
  2
AcDbVisualStyle
  3
ObjectDBX Classes
 90
     4095
280
     0
281
     0
  0
CLASS
  1
TABLESTYLE
  2
AcDbTableStyle
  3
ObjectDBX Classes
 90
     4095
280
     0
281
     0
  0
CLASS
  1
SCALE
  2
AcDbScale
  3
ObjectDBX Classes
 90
     1153
280
     0
281
     0
  0
CLASS
  1
MLEADERSTYLE
  2
AcDbMLeaderStyle
  3
ACDB_MLEADERSTYLE_CLASS
 90
     4095
280
     0
281
     0
  0
CLASS
  1
ACDBSECTIONVIEWSTYLE
  2
AcDbSectionViewStyle
  3
ObjectDBX Classes
 90
     1025
280
     0
281
     0
  0
CLASS
  1
ACDBDETAILVIEWSTYLE
  2
AcDbDetailViewStyle
  3
ObjectDBX Classes
 90
     1025
280
     0
281
     0
  0
CLASS
  1
CELLSTYLEMAP
  2
AcDbCellStyleMap
  3
ObjectDBX Classes
 90
     1152
280
     0
281
     0
  0
ENDSEC
  0
SECTION
  2
TABLES
  0
TABLE
  2
VPORT
  5
8
330
0
100
AcDbSymbolTable
 70
     1
  0
VPORT
  5
17B2
330
8
100
AcDbSymbolTableRecord
100
AcDbViewportTableRecord
  2
*ACTIVE
 70
     0
 10
0.0
 20
0.0
 11
1.0
 21
1.0
 12
461.1694999258186
 22
290.2348482916952
 13
0.0
 23
0.0
 14
10.0
 24
10.0
 15
10.0
 25
10.0
 16
0.0
 26
0.0
 36
1.0
 17
0.0
 27
0.0
 37
0.0
 40
584.7961791831355
 41
2.35006605019815
 42
50.0
 43
0.0
 44
0.0
 50
0.0
 51
0.0
 71
     0
 72
   100
 73
     1
 74
     0
 75
     0
 76
     0
 77
     0
 78
     0
281
     0
 65
     1
110
0.0
120
0.0
130
0.0
111
1.0
121
0.0
131
0.0
112
0.0
122
1.0
132
0.0
 79
     0
146
0.0
1001
ACAD_NAV_VCDISPLAY
1070
     3
  0
ENDTAB
  0
TABLE
  2
LTYPE
  5
5
330
0
100
AcDbSymbolTable
 70
     4
  0
LTYPE
  5
12
330
5
100
AcDbSymbolTableRecord
100
AcDbLinetypeTableRecord
  2
BYBLOCK
 70
     0
  3

 72
    65
 73
     0
 40
0.0
  0
LTYPE
  5
13
330
5
100
AcDbSymbolTableRecord
100
AcDbLinetypeTableRecord
  2
BYLAYER
 70
     0
  3

 72
    65
 73
     0
 40
0.0
  0
LTYPE
  5
14
330
5
100
AcDbSymbolTableRecord
100
AcDbLinetypeTableRecord
  2
CONTINUOUS
 70
     0
  3
Solid line
 72
    65
 73
     0
 40
0.0
  0
LTYPE
  5
4B
330
5
100
AcDbSymbolTableRecord
100
AcDbLinetypeTableRecord
  2
DASHED
 70
     0
  3
Dashed __ __ __ __ __ __ __ __ __ __ __ __ __ _
 72
    65
 73
     2
 40
19.04999999999999
 49
12.7
 74
     0
 49
-6.349999999999997
 74
     0
  0
LTYPE
  5
4C
330
5
100
AcDbSymbolTableRecord
100
AcDbLinetypeTableRecord
  2
CENTER
 70
     0
  3
Center ____ _ ____ _ ____ _ ____ _ ____ _ ____
 72
    65
 73
     4
 40
50.8
 49
31.75
 74
     0
 49
-6.349999999999997
 74
     0
 49
6.349999999999997
 74
     0
 49
-6.349999999999997
 74
     0
  0
LTYPE
  5
4D
330
5
100
AcDbSymbolTableRecord
100
AcDbLinetypeTableRecord
  2
PHANTOM
 70
     0
  3
Phantom ______  __  __  ______  __  __  ______
 72
    65
 73
     6
 40
63.5
 49
31.75
 74
     0
 49
-6.349999999999997
 74
     0
 49
6.349999999999997
 74
     0
 49
-6.349999999999997
 74
     0
 49
6.349999999999997
 74
     0
 49
-6.349999999999997
 74
     0
  0
ENDTAB
  0
TABLE
  2
LAYER
  5
2
330
0
100
AcDbSymbolTable
 70
     8
  0
LAYER
  5
E
102
{ACAD_XDICTIONARY
360
180E
102
}
330
2
100
AcDbSymbolTableRecord
100
AcDbLayerTableRecord
  2
0
 70
     0
 62
     7
  6
CONTINUOUS
370
    -3
390
17BB
  0
LAYER
  5
4E
102
{ACAD_XDICTIONARY
360
1810
102
}
330
2
100
AcDbSymbolTableRecord
100
AcDbLayerTableRecord
  2
4
 70
     0
 62
     1
  6
CENTER
370
    -3
390
17BB
  0
LAYER
  5
4F
102
{ACAD_XDICTIONARY
360
1812
102
}
330
2
100
AcDbSymbolTableRecord
100
AcDbLayerTableRecord
  2
5
 70
     0
 62
     6
  6
PHANTOM
370
    -3
390
17BB
  0
LAYER
  5
50
102
{ACAD_XDICTIONARY
360
1814
102
}
330
2
100
AcDbSymbolTableRecord
100
AcDbLayerTableRecord
  2
1
 70
     0
 62
     7
  6
CONTINUOUS
370
    -3
390
17BB
  0
LAYER
  5
51
102
{ACAD_XDICTIONARY
360
1816
102
}
330
2
100
AcDbSymbolTableRecord
100
AcDbLayerTableRecord
  2
2
 70
     0
 62
     4
  6
CONTINUOUS
370
    -3
390
17BB
  0
LAYER
  5
52
102
{ACAD_XDICTIONARY
360
1818
102
}
330
2
100
AcDbSymbolTableRecord
100
AcDbLayerTableRecord
  2
3
 70
     0
 62
     2
  6
DASHED
370
    -3
390
17BB
  0
LAYER
  5
53
102
{ACAD_XDICTIONARY
360
181A
102
}
330
2
100
AcDbSymbolTableRecord
100
AcDbLayerTableRecord
  2
6
 70
     0
 62
     5
  6
CONTINUOUS
370
    -3
390
17BB
  0
LAYER
  5
54
102
{ACAD_XDICTIONARY
360
181C
102
}
330
2
100
AcDbSymbolTableRecord
100
AcDbLayerTableRecord
  2
7
 70
     0
 62
     3
  6
CONTINUOUS
370
    -3
390
17BB
  0
ENDTAB
  0
TABLE
  2
STYLE
  5
3
330
0
100
AcDbSymbolTable
 70
     1
  0
STYLE
  5
F
330
3
100
AcDbSymbolTableRecord
100
AcDbTextStyleTableRecord
  2
STANDARD
 70
     0
 40
0.0
 41
1.0
 50
0.0
 71
     0
 42
2.5
  3
simplex.shx
  4

  0
ENDTAB
  0
TABLE
  2
VIEW
  5
6
330
0
100
AcDbSymbolTable
 70
     0
  0
ENDTAB
  0
TABLE
  2
UCS
  5
7
330
0
100
AcDbSymbolTable
 70
     0
  0
ENDTAB
  0
TABLE
  2
APPID
  5
9
330
0
100
AcDbSymbolTable
 70
     6
  0
APPID
  5
10
330
9
100
AcDbSymbolTableRecord
100
AcDbRegAppTableRecord
  2
ACAD
 70
     0
  0
APPID
  5
3E
330
9
100
AcDbSymbolTableRecord
100
AcDbRegAppTableRecord
  2
CONTENTTABDATA
 70
     0
  0
APPID
  5
3F
330
9
100
AcDbSymbolTableRecord
100
AcDbRegAppTableRecord
  2
CONTENTCURRENTTAB
 70
     0
  0
APPID
  5
180C
330
9
100
AcDbSymbolTableRecord
100
AcDbRegAppTableRecord
  2
ACAD_EXEMPT_FROM_CAD_STANDARDS
 70
     0
  0
APPID
  5
1828
330
9
100
AcDbSymbolTableRecord
100
AcDbRegAppTableRecord
  2
ACAD_NAV_VCDISPLAY
 70
     0
  0
APPID
  5
1861
330
9
100
AcDbSymbolTableRecord
100
AcDbRegAppTableRecord
  2
ACAD_MLEADERVER
 70
     0
  0
ENDTAB
  0
TABLE
  2
DIMSTYLE
  5
A
330
0
100
AcDbSymbolTable
 70
     1
100
AcDbDimStyleTable
 71
     0
  0
DIMSTYLE
105
1D
330
A
100
AcDbSymbolTableRecord
100
AcDbDimStyleTableRecord
  2
STANDARD
 70
     0
 41
3.0
 42
1.0
 43
10.0
 44
1.0
 73
     0
 74
     0
 77
     3
 78
     8
140
3.2
141
0.0
147
1.0
172
     1
173
     1
340
F
341
2E
343
2E
344
2E
  0
ENDTAB
  0
TABLE
  2
BLOCK_RECORD
  5
1
330
0
100
AcDbSymbolTable
 70
     1
  0
BLOCK_RECORD
  5
18
102
{ACAD_XDICTIONARY
360
17B5
102
}
330
1
100
AcDbSymbolTableRecord
100
AcDbBlockTableRecord
  2
*MODEL_SPACE
340
1809
  0
BLOCK_RECORD
  5
15
102
{ACAD_XDICTIONARY
360
17B3
102
}
330
1
100
AcDbSymbolTableRecord
100
AcDbBlockTableRecord
  2
*PAPER_SPACE
340
180A
  0
BLOCK_RECORD
  5
2E
330
1
100
AcDbSymbolTableRecord
100
AcDbBlockTableRecord
  2
_OPEN
340
0
  0
ENDTAB
  0
ENDSEC
  0
SECTION
  2
BLOCKS
  0
BLOCK
  5
19
330
18
100
AcDbEntity
  8
0
100
AcDbBlockBegin
  2
*MODEL_SPACE
 70
     0
 10
0.0
 20
0.0
 30
0.0
  3
*MODEL_SPACE
  1

  0
ENDBLK
  5
1A
330
18
100
AcDbEntity
  8
0
100
AcDbBlockEnd
  0
BLOCK
  5
16
330
15
100
AcDbEntity
 67
     1
  8
0
100
AcDbBlockBegin
  2
*PAPER_SPACE
 70
     0
 10
0.0
 20
0.0
 30
0.0
  3
*PAPER_SPACE
  1

  0
ENDBLK
  5
17
330
15
100
AcDbEntity
 67
     1
  8
0
100
AcDbBlockEnd
  0
BLOCK
  5
2F
330
2E
100
AcDbEntity
  8
0
100
AcDbBlockBegin
  2
_OPEN
 70
     0
 10
0.0
 20
0.0
 30
0.0
  3
_OPEN
  1

  0
LINE
  5
30
330
2E
100
AcDbEntity
  8
0
  6
ByBlock
 62
     0
100
AcDbLine
 10
-1.0
 20
0.1666666666666666
 30
0.0
 11
0.0
 21
0.0
 31
0.0
  0
LINE
  5
31
330
2E
100
AcDbEntity
  8
0
  6
ByBlock
 62
     0
100
AcDbLine
 10
0.0
 20
0.0
 30
0.0
 11
-1.0
 21
-0.1666666666666666
 31
0.0
  0
LINE
  5
32
330
2E
100
AcDbEntity
  8
0
  6
ByBlock
 62
     0
100
AcDbLine
 10
0.0
 20
0.0
 30
0.0
 11
-1.0
 21
0.0
 31
0.0
  0
ENDBLK
  5
33
330
2E
100
AcDbEntity
  8
0
100
AcDbBlockEnd
  0
ENDSEC
  0
SECTION
  2
ENTITIES
  0
TEXT
  5
63
330
18
100
AcDbEntity
  8
4
  6
CENTER
 48
0.25
100
AcDbText
 10
23.97950852663849
 20
10.0
 30
0.0
 40
1.399999999999999
  1
4
100
AcDbText
  0
TEXT
  5
64
330
18
100
AcDbEntity
  8
7
  6
Continuous
 48
0.25
100
AcDbText
 10
9.999997526638502
 20
26.0000007607689
 30
0.0
 40
3.0
  1
CODE No.19065
100
AcDbText
  0
TEXT
  5
65
330
18
100
AcDbEntity
  8
7
  6
Continuous
 48
0.25
100
AcDbText
 10
9.999997526638502
 20
18.00000076076889
 30
0.0
 40
3.0
  1
TYPE No.TCA-TE130N16WS (TE130N16WS)
100
AcDbText
  0
TEXT
  5
66
330
18
100
AcDbEntity
  8
1
  6
Continuous
 48
0.25
100
AcDbText
 10
9.999997526638502
 20
10.00000076076889
 30
0.0
 40
1.399999999999999
  1
LAYER
100
AcDbText
  0
TEXT
  5
67
330
18
100
AcDbEntity
  8
2
  6
Continuous
 48
0.25
100
AcDbText
 10
19.9795085266385
 20
10.0
 30
0.0
 40
1.399999999999999
  1
2
100
AcDbText
  0
TEXT
  5
69
330
18
100
AcDbEntity
  8
1
  6
Continuous
 48
0.25
100
AcDbText
 10
17.9795085266385
 20
10.0
 30
0.0
 40
1.399999999999999
  1
1
100
AcDbText
  0
TEXT
  5
6A
330
18
100
AcDbEntity
  8
5
  6
PHANTOM
 48
0.25
100
AcDbText
 10
25.9795085266385
 20
10.0
 30
0.0
 40
1.399999999999999
  1
5
100
AcDbText
  0
TEXT
  5
6B
330
18
100
AcDbEntity
  8
6
  6
Continuous
 48
0.25
100
AcDbText
 10
27.9795085266385
 20
10.0
 30
0.0
 40
1.399999999999999
  1
6
100
AcDbText
  0
TEXT
  5
6C
330
18
100
AcDbEntity
  8
7
  6
Continuous
 48
0.25
100
AcDbText
 10
29.9795085266385
 20
10.0
 30
0.0
 40
1.399999999999999
  1
7
100
AcDbText
  0
CIRCLE
  5
3F8
330
18
100
AcDbEntity
  8
2
  6
Continuous
100
AcDbCircle
 10
284.7984781878136
 20
499.5639345919563
 30
0.0
 40
6.917500000000018
  0
CIRCLE
  5
3F9
330
18
100
AcDbEntity
  8
1
  6
Continuous
100
AcDbCircle
 10
284.7984781878136
 20
499.5639345919563
 30
0.0
 40
8.0
  0
LINE
  5
3FA
330
18
100
AcDbEntity
  8
1
  6
Continuous
100
AcDbLine
 10
291.5808081878136
 20
489.0639345919565
 30
0.0
 11
278.0161481878136
 21
489.0639345919565
 31
0.0
  0
LINE
  5
3FB
330
18
100
AcDbEntity
  8
1
  6
Continuous
100
AcDbLine
 10
291.5808081878136
 20
510.0639345919565
 30
0.0
 11
278.0161481878136
 21
510.0639345919565
 31
0.0
  0
CIRCLE
  5
3FE
330
18
100
AcDbEntity
  8
1
  6
Continuous
100
AcDbCircle
 10
284.7984781878136
 20
499.5639345919563
 30
0.0
 40
19.0
  0
LINE
  5
401
330
18
100
AcDbEntity
  8
4
  6
CENTER
 48
0.5
100
AcDbLine
 10
164.7984781878136
 20
499.5639345919563
 30
0.0
 11
324.7984781878135
 21
499.5639345919563
 31
0.0
  0
ARC
  5
402
330
18
100
AcDbEntity
  8
1
  6
Continuous
100
AcDbCircle
 10
284.7984781878136
 20
499.5639345919563
 30
0.0
 40
11.5
100
AcDbArc
 50
294.0706150000469
 51
65.92938500002081
  0
ARC
  5
403
330
18
100
AcDbEntity
  8
1
  6
Continuous
100
AcDbCircle
 10
284.7984781878136
 20
499.5639345919563
 30
0.0
 40
12.5
100
AcDbArc
 50
302.8598800000443
 51
57.14012000002256
  0
LINE
  5
404
330
18
100
AcDbEntity
  8
1
  6
Continuous
100
AcDbLine
 10
314.7984781878136
 20
512.0639345919563
 30
0.0
 11
314.7984781878136
 21
487.0639345919563
 31
0.0
  0
LINE
  5
407
330
18
100
AcDbEntity
  8
4
  6
CENTER
 48
0.5
100
AcDbLine
 10
284.7984781878136
 20
477.5639345919564
 30
0.0
 11
284.7984781878136
 21
521.5639345919563
 31
0.0
  0
LINE
  5
409
330
18
100
AcDbEntity
  8
1
  6
Continuous
100
AcDbLine
 10
314.7984781878136
 20
487.0639345919563
 30
0.0
 11
299.1075662090679
 21
487.0639345919563
 31
0.0
  0
LINE
  5
40F
330
18
100
AcDbEntity
  8
1
  6
Continuous
100
AcDbLine
 10
314.7984781878136
 20
512.0639345919563
 30
0.0
 11
299.1075662090677
 21
512.0639345919563
 31
0.0
  0
ARC
  5
413
330
18
100
AcDbEntity
  8
1
  6
Continuous
100
AcDbCircle
 10
284.7984781878136
 20
499.5639345919563
 30
0.0
 40
11.5
100
AcDbArc
 50
114.0706150000828
 51
245.9293850000559
  0
ARC
  5
414
330
18
100
AcDbEntity
  8
1
  6
Continuous
100
AcDbCircle
 10
284.7984781878136
 20
499.5639345919563
 30
0.0
 40
12.5
100
AcDbArc
 50
122.8598800000787
 51
237.1401200000569
  0
LINE
  5
415
330
18
100
AcDbEntity
  8
4
  6
CENTER
 48
0.5
100
AcDbLine
 10
249.7984781878136
 20
455.2616245919565
 30
0.0
 11
249.7984781878136
 21
543.8662455919565
 31
0.0
  0
LINE
  5
417
330
18
100
AcDbEntity
  8
1
  6
Continuous
100
AcDbLine
 10
270.4893901665595
 20
487.0639345919563
 30
0.0
 11
194.1333423366733
 21
487.0639345919563
 31
0.0
  0
LINE
  5
41B
330
18
100
AcDbEntity
  8
1
  6
Continuous
100
AcDbLine
 10
259.7984781878136
 20
485.0639345919563
 30
0.0
 11
259.7984781878136
 21
487.0639345919563
 31
0.0
  0
LINE
  5
41C
330
18
100
AcDbEntity
  8
1
  6
Continuous
100
AcDbLine
 10
239.7984781878136
 20
487.0639345919563
 30
0.0
 11
239.7984781878136
 21
485.0639345919563
 31
0.0
  0
LINE
  5
41F
330
18
100
AcDbEntity
  8
1
  6
Continuous
100
AcDbLine
 10
270.4893901665594
 20
512.0639345919563
 30
0.0
 11
194.1333459321093
 21
512.0639345919563
 31
0.0
  0
LINE
  5
422
330
18
100
AcDbEntity
  8
1
  6
Continuous
100
AcDbLine
 10
259.7984781878136
 20
514.0639345919565
 30
0.0
 11
259.7984781878136
 21
512.0639345919563
 31
0.0
  0
LINE
  5
423
330
18
100
AcDbEntity
  8
1
  6
Continuous
100
AcDbLine
 10
239.7984781878136
 20
512.0639345919563
 30
0.0
 11
239.7984781878136
 21
514.0639345919565
 31
0.0
  0
ARC
  5
425
330
18
100
AcDbEntity
  8
1
  6
Continuous
100
AcDbCircle
 10
262.7984781878136
 20
355.7770325919565
 30
0.0
 40
3.0
100
AcDbArc
 50
258.9785500000544
 51
0.0000000000342043
  0
LINE
  5
426
330
18
100
AcDbEntity
  8
1
  6
Continuous
100
AcDbLine
 10
303.7984781878137
 20
329.7866145919565
 30
0.0
 11
303.7984781878136
 21
356.0312465919565
 31
0.0
  0
LINE
  5
428
330
18
100
AcDbEntity
  8
4
  6
CENTER
 48
0.5
100
AcDbLine
 10
284.7984781878136
 20
246.5312465919565
 30
0.0
 11
284.7984781878136
 21
404.0312465919564
 31
0.0
  0
ARC
  5
42A
330
18
100
AcDbEntity
  8
1
  6
Continuous
100
AcDbCircle
 10
249.7984781878136
 20
289.0312465919564
 30
0.0
 40
68.0
100
AcDbArc
 50
46.83176000002667
 51
69.8017920000225
  0
CIRCLE
  5
42B
330
18
100
AcDbEntity
  8
1
  6
Continuous
100
AcDbCircle
 10
249.7984781878136
 20
289.0312465919564
 30
0.0
 40
57.0
  0
CIRCLE
  5
42C
330
18
100
AcDbEntity
  8
1
  6
Continuous
100
AcDbCircle
 10
249.7984781878136
 20
289.0312465919564
 30
0.0
 40
51.5
  0
CIRCLE
  5
42D
330
18
100
AcDbEntity
  8
1
  6
Continuous
100
AcDbCircle
 10
249.7984781878136
 20
289.0312465919564
 30
0.0
 40
45.49999999999999
  0
CIRCLE
  5
42E
330
18
100
AcDbEntity
  8
1
  6
Continuous
100
AcDbCircle
 10
249.7984781878136
 20
289.0312465919564
 30
0.0
 40
40.0
  0
CIRCLE
  5
42F
330
18
100
AcDbEntity
  8
1
  6
Continuous
100
AcDbCircle
 10
249.7984781878136
 20
289.0312465919564
 30
0.0
 40
65.0
  0
LINE
  5
433
330
18
100
AcDbEntity
  8
4
  6
CENTER
 48
0.5
100
AcDbLine
 10
174.7984781878136
 20
289.0312465919564
 30
0.0
 11
324.7984781878136
 21
289.0312465919564
 31
0.0
  0
LINE
  5
438
330
18
100
AcDbEntity
  8
1
  6
Continuous
100
AcDbLine
 10
296.3201971878137
 20
338.6269085919565
 30
0.0
 11
296.3201971878137
 21
334.4265075919565
 31
0.0
  0
ARC
  5
439
330
18
100
AcDbEntity
  8
1
  6
Continuous
100
AcDbCircle
 10
319.7984781878136
 20
329.7866145919565
 30
0.0
 40
16.0
100
AcDbArc
 50
180.0
 51
210.2088000000631
  0
LINE
  5
43B
330
18
100
AcDbEntity
  8
1
  6
Continuous
100
AcDbLine
 10
273.2767591878137
 20
352.8495065919565
 30
0.0
 11
273.2767591878137
 21
349.6428815919565
 31
0.0
  0
LINE
  5
43C
330
18
100
AcDbEntity
  8
1
  6
Continuous
100
AcDbLine
 10
265.7984781878136
 20
357.2312465919565
 30
0.0
 11
303.7984781878136
 21
357.2312465919565
 31
0.0
  0
LINE
  5
43D
330
18
100
AcDbEntity
  8
1
  6
Continuous
100
AcDbLine
 10
265.7984781878136
 20
356.0312465919565
 30
0.0
 11
303.7984781878136
 21
356.0312465919565
 31
0.0
  0
LINE
  5
43E
330
18
100
AcDbEntity
  8
1
  6
Continuous
100
AcDbLine
 10
273.2984781878136
 20
369.0312465919565
 30
0.0
 11
296.2984781878135
 21
369.0312465919565
 31
0.0
  0
LINE
  5
441
330
18
100
AcDbEntity
  8
1
  6
Continuous
100
AcDbLine
 10
300.7984781878136
 20
361.0312465919566
 30
0.0
 11
268.7984781878136
 21
361.0312465919566
 31
0.0
  0
ARC
  5
446
330
18
100
AcDbEntity
  8
1
  6
Continuous
100
AcDbCircle
 10
288.798478493775
 20
365.0312466684468
 30
0.0
 40
8.499999694038516
100
AcDbArc
 50
331.9275125486186
 51
28.07248745145031
  0
ARC
  5
447
330
18
100
AcDbEntity
  8
1
  6
Continuous
100
AcDbCircle
 10
300.7984781878136
 20
358.0312465919565
 30
0.0
 40
3.0
100
AcDbArc
 50
0.0000000000342043
 51
90.00000000001628
  0
LINE
  5
448
330
18
100
AcDbEntity
  8
1
  6
Continuous
100
AcDbLine
 10
303.7984781878136
 20
357.2312465919565
 30
0.0
 11
303.7984781878136
 21
358.0312465919565
 31
0.0
  0
LINE
  5
449
330
18
100
AcDbEntity
  8
1
  6
Continuous
100
AcDbLine
 10
300.7984781878136
 20
357.2312465919565
 30
0.0
 11
300.7984781878136
 21
356.0312465919565
 31
0.0
  0
ARC
  5
450
330
18
100
AcDbEntity
  8
1
  6
Continuous
100
AcDbCircle
 10
268.7984781878136
 20
358.0312465919565
 30
0.0
 40
3.0
100
AcDbArc
 50
90.00000000001628
 51
180.0
  0
LINE
  5
451
330
18
100
AcDbEntity
  8
1
  6
Continuous
100
AcDbLine
 10
268.7984781878136
 20
357.2312465919565
 30
0.0
 11
268.7984781878136
 21
356.0312465919565
 31
0.0
  0
LINE
  5
452
330
18
100
AcDbEntity
  8
1
  6
Continuous
100
AcDbLine
 10
265.7984781878136
 20
357.2312465919565
 30
0.0
 11
265.7984781878136
 21
358.0312465919565
 31
0.0
  0
LINE
  5
453
330
18
100
AcDbEntity
  8
1
  6
Continuous
100
AcDbLine
 10
265.7984781878136
 20
355.7770325919565
 30
0.0
 11
265.7984781878136
 21
356.0312465919565
 31
0.0
  0
LINE
  5
457
330
18
100
AcDbEntity
  8
1
  6
Continuous
100
AcDbLine
 10
44.06521181011203
 20
354.0312465919565
 30
0.0
 11
44.06521181011203
 21
356.0312465919565
 31
0.0
  0
ARC
  5
45A
330
18
100
AcDbEntity
  8
1
  6
Continuous
100
AcDbCircle
 10
38.26521181011207
 20
348.0312465919565
 30
0.0
 40
6.0
100
AcDbArc
 50
90.00000000001628
 51
180.0
  0
ARC
  5
45B
330
18
100
AcDbEntity
  8
1
  6
Continuous
100
AcDbCircle
 10
48.56521181011203
 20
353.0312465919565
 30
0.0
 40
1.0
100
AcDbArc
 50
0.0000000000342043
 51
90.00000000001628
  0
LINE
  5
45D
330
18
100
AcDbEntity
  8
4
  6
CENTER
 48
0.5
100
AcDbLine
 10
64.06521181011203
 20
246.5312465919565
 30
0.0
 11
64.06521181011214
 21
404.0312465919566
 31
0.0
  0
LINE
  5
460
330
18
100
AcDbEntity
  8
1
  6
Continuous
100
AcDbLine
 10
51.56521181011203
 20
256.5312465919565
 30
0.0
 11
76.56521181011214
 21
256.5312465919565
 31
0.0
  0
LINE
  5
461
330
18
100
AcDbEntity
  8
1
  6
Continuous
100
AcDbLine
 10
51.56521181011203
 20
354.0312465919565
 30
0.0
 11
76.56521181011214
 21
354.0312465919565
 31
0.0
  0
LINE
  5
462
330
18
100
AcDbEntity
  8
4
  6
CENTER
 48
0.5
100
AcDbLine
 10
109.1637068101121
 20
289.0312465919564
 30
0.0
 11
18.96290181011204
 21
289.0312465919564
 31
0.0
  0
ARC
  5
46F
330
18
100
AcDbEntity
  8
1
  6
Continuous
100
AcDbCircle
 10
278.962901810112
 20
289.0312465919564
 30
0.0
 40
250.0
100
AcDbArc
 50
170.6769980000713
 51
189.3230020000673
  0
LINE
  5
470
330
18
100
AcDbEntity
  8
1
  6
Continuous
100
AcDbLine
 10
49.56521181011202
 20
225.0312465919565
 30
0.0
 11
49.56521181011202
 21
353.0312465919565
 31
0.0
  0
LINE
  5
471
330
18
100
AcDbEntity
  8
1
  6
Continuous
100
AcDbLine
 10
32.26521181011207
 20
348.0312465919565
 30
0.0
 11
32.26521181011207
 21
230.0312465919565
 31
0.0
  0
LINE
  5
472
330
18
100
AcDbEntity
  8
1
  6
Continuous
100
AcDbLine
 10
51.56521181011203
 20
256.5312465919565
 30
0.0
 11
51.56521181011203
 21
345.1460015206705
 31
0.0
  0
LINE
  5
473
330
18
100
AcDbEntity
  8
1
  6
Continuous
100
AcDbLine
 10
48.56521181011203
 20
224.0312465919565
 30
0.0
 11
38.26521181011207
 21
224.0312465919565
 31
0.0
  0
ARC
  5
474
330
18
100
AcDbEntity
  8
1
  6
Continuous
100
AcDbCircle
 10
48.56521181011203
 20
225.0312465919565
 30
0.0
 40
1.0
100
AcDbArc
 50
270.0000000000521
 51
0.0000000000342043
  0
ARC
  5
475
330
18
100
AcDbEntity
  8
1
  6
Continuous
100
AcDbCircle
 10
38.26521181011207
 20
230.0312465919565
 30
0.0
 40
6.0
100
AcDbArc
 50
180.0000000000684
 51
270.0000000000521
  0
LINE
  5
476
330
18
100
AcDbEntity
  8
1
  6
Continuous
100
AcDbLine
 10
51.56521181011203
 20
279.0312465919565
 30
0.0
 11
49.56521181011202
 21
279.0312465919565
 31
0.0
  0
LINE
  5
479
330
18
100
AcDbEntity
  8
1
  6
Continuous
100
AcDbLine
 10
51.56521181011203
 20
299.0312465919565
 30
0.0
 11
49.56521181011202
 21
299.0312465919565
 31
0.0
  0
LINE
  5
47A
330
18
100
AcDbEntity
  8
1
  6
Continuous
100
AcDbLine
 10
48.56521181011203
 20
354.0312465919565
 30
0.0
 11
38.26521181011207
 21
354.0312465919565
 31
0.0
  0
LINE
  5
47B
330
18
100
AcDbEntity
  8
1
  6
Continuous
100
AcDbLine
 10
44.06521181011203
 20
356.0312465919565
 30
0.0
 11
84.06521181011203
 21
356.0312465919565
 31
0.0
  0
LINE
  5
47C
330
18
100
AcDbEntity
  8
1
  6
Continuous
100
AcDbLine
 10
44.06521181011203
 20
357.2312465919565
 30
0.0
 11
84.06521181011203
 21
357.2312465919565
 31
0.0
  0
LINE
  5
47E
330
18
100
AcDbEntity
  8
1
  6
Continuous
100
AcDbLine
 10
54.56521181011202
 20
369.0312465919565
 30
0.0
 11
73.56521181011203
 21
369.0312465919565
 31
0.0
  0
LINE
  5
47F
330
18
100
AcDbEntity
  8
1
  6
Continuous
100
AcDbLine
 10
81.06521181011203
 20
361.0312465919565
 30
0.0
 11
47.06521181011202
 21
361.0312465919566
 31
0.0
  0
LINE
  5
48B
330
18
100
AcDbEntity
  8
1
  6
Continuous
100
AcDbLine
 10
51.56521181011203
 20
355.1220935919565
 30
0.0
 11
44.06521181011203
 21
355.1220935919565
 31
0.0
  0
LINE
  5
48C
330
18
100
AcDbEntity
  8
1
  6
Continuous
100
AcDbLine
 10
48.06521181011202
 20
357.2312465919565
 30
0.0
 11
48.06521181011202
 21
356.0312465919565
 31
0.0
  0
LINE
  5
48D
330
18
100
AcDbEntity
  8
1
  6
Continuous
100
AcDbLine
 10
44.06521181011203
 20
357.2312465919565
 30
0.0
 11
44.06521181011203
 21
358.0312465919565
 31
0.0
  0
ARC
  5
48E
330
18
100
AcDbEntity
  8
1
  6
Continuous
100
AcDbCircle
 10
47.06521181011202
 20
358.0312465919565
 30
0.0
 40
3.0
100
AcDbArc
 50
90.00000000001628
 51
180.0
  0
LINE
  5
493
330
18
100
AcDbEntity
  8
4
  6
CENTER
 48
0.5
100
AcDbLine
 10
249.7984781878136
 20
364.0312465919564
 30
0.0
 11
249.7984781878136
 21
214.0312465919565
 31
0.0
  0
LINE
  5
495
330
18
100
AcDbEntity
  8
1
  6
Continuous
100
AcDbLine
 10
57.06521181011202
 20
394.0312465919565
 30
0.0
 11
71.06521181011214
 21
394.0312465919565
 31
0.0
  0
LINE
  5
496
330
18
100
AcDbEntity
  8
1
  6
Continuous
100
AcDbLine
 10
56.06521181011203
 20
393.0312465919564
 30
0.0
 11
72.06521181011225
 21
393.0312465919564
 31
0.0
  0
LINE
  5
497
330
18
100
AcDbEntity
  8
1
  6
Continuous
100
AcDbLine
 10
56.06521181011203
 20
371.0312465919565
 30
0.0
 11
72.06521181011203
 21
371.0312465919565
 31
0.0
  0
LINE
  5
49B
330
18
100
AcDbEntity
  8
1
  6
Continuous
100
AcDbLine
 10
72.06521181011203
 20
393.0312465919564
 30
0.0
 11
72.06521181011203
 21
369.0312465919565
 31
0.0
  0
LINE
  5
49C
330
18
100
AcDbEntity
  8
1
  6
Continuous
100
AcDbLine
 10
71.06521181011203
 20
394.0312465919565
 30
0.0
 11
72.06521181011203
 21
393.0312465919564
 31
0.0
  0
LINE
  5
49E
330
18
100
AcDbEntity
  8
1
  6
Continuous
100
AcDbLine
 10
56.06521181011203
 20
393.0312465919564
 30
0.0
 11
57.06521181011202
 21
394.0312465919565
 31
0.0
  0
LINE
  5
49F
330
18
100
AcDbEntity
  8
1
  6
Continuous
100
AcDbLine
 10
56.06521181011203
 20
369.0312465919565
 30
0.0
 11
56.06521181011203
 21
393.0312465919564
 31
0.0
  0
LINE
  5
4A0
330
18
100
AcDbEntity
  8
1
  6
Continuous
100
AcDbLine
 10
277.7984781878136
 20
394.0312465919565
 30
0.0
 11
291.7984781878136
 21
394.0312465919565
 31
0.0
  0
LINE
  5
4A1
330
18
100
AcDbEntity
  8
1
  6
Continuous
100
AcDbLine
 10
276.7984781878136
 20
393.0312465919564
 30
0.0
 11
292.7984781878136
 21
393.0312465919564
 31
0.0
  0
LINE
  5
4A2
330
18
100
AcDbEntity
  8
1
  6
Continuous
100
AcDbLine
 10
276.7984781878136
 20
371.0312465919565
 30
0.0
 11
292.7984781878136
 21
371.0312465919565
 31
0.0
  0
LINE
  5
4A4
330
18
100
AcDbEntity
  8
2
  6
Continuous
100
AcDbLine
 10
277.8809781878136
 20
371.0312465919565
 30
0.0
 11
277.8809781878136
 21
394.0312465919565
 31
0.0
  0
LINE
  5
4A6
330
18
100
AcDbEntity
  8
1
  6
Continuous
100
AcDbLine
 10
292.7984781878136
 20
393.0312465919564
 30
0.0
 11
292.7984781878136
 21
369.0312465919565
 31
0.0
  0
LINE
  5
4A7
330
18
100
AcDbEntity
  8
1
  6
Continuous
100
AcDbLine
 10
291.7984781878136
 20
394.0312465919565
 30
0.0
 11
292.7984781878136
 21
393.0312465919564
 31
0.0
  0
LINE
  5
4A9
330
18
100
AcDbEntity
  8
1
  6
Continuous
100
AcDbLine
 10
276.7984781878136
 20
393.0312465919564
 30
0.0
 11
277.7984781878136
 21
394.0312465919565
 31
0.0
  0
LINE
  5
4AA
330
18
100
AcDbEntity
  8
1
  6
Continuous
100
AcDbLine
 10
276.7984781878136
 20
369.0312465919565
 30
0.0
 11
276.7984781878136
 21
393.0312465919564
 31
0.0
  0
ARC
  5
4AF
330
18
100
AcDbEntity
  8
1
  6
Continuous
100
AcDbCircle
 10
280.7984778818522
 20
365.0312466684468
 30
0.0
 40
8.499999694038516
100
AcDbArc
 50
151.9275125485497
 51
208.0724874513813
  0
ARC
  5
4B1
330
18
100
AcDbEntity
  8
1
  6
Continuous
100
AcDbCircle
 10
283.0808084937751
 20
365.0312466684468
 30
0.0
 40
8.499999694038516
100
AcDbArc
 50
331.9275125486186
 51
28.07248745145031
  0
ARC
  5
4B2
330
18
100
AcDbEntity
  8
1
  6
Continuous
100
AcDbCircle
 10
286.5161478818521
 20
365.0312466684468
 30
0.0
 40
8.499999694038516
100
AcDbArc
 50
151.9275125485497
 51
208.0724874513813
  0
LINE
  5
4B3
330
18
100
AcDbEntity
  8
2
  6
Continuous
100
AcDbLine
 10
291.7159781878136
 20
371.0312465919565
 30
0.0
 11
291.7159781878136
 21
394.0312465919565
 31
0.0
  0
LINE
  5
4B5
330
18
100
AcDbEntity
  8
2
  6
Continuous
100
AcDbLine
 10
70.98271181011217
 20
371.0312465919565
 30
0.0
 11
70.98271181011217
 21
394.0312465919565
 31
0.0
  0
LINE
  5
4B6
330
18
100
AcDbEntity
  8
2
  6
Continuous
100
AcDbLine
 10
57.14771181011212
 20
371.0312465919565
 30
0.0
 11
57.14771181011212
 21
394.0312465919565
 31
0.0
  0
LINE
  5
4B7
330
18
100
AcDbEntity
  8
1
  6
Continuous
100
AcDbLine
 10
53.56521181011203
 20
368.0312465919564
 30
0.0
 11
53.56521181011203
 21
362.0312465919566
 31
0.0
  0
LINE
  5
4B8
330
18
100
AcDbEntity
  8
1
  6
Continuous
100
AcDbLine
 10
74.56521181011203
 20
368.0312465919564
 30
0.0
 11
74.56521181011203
 21
362.0312465919564
 31
0.0
  0
ARC
  5
4BA
330
18
100
AcDbEntity
  8
1
  6
Continuous
100
AcDbCircle
 10
54.56521181011202
 20
368.0312465919564
 30
0.0
 40
1.0
100
AcDbArc
 50
90.0
 51
180.0
  0
ARC
  5
4BB
330
18
100
AcDbEntity
  8
1
  6
Continuous
100
AcDbCircle
 10
73.56521181011203
 20
368.0312465919564
 30
0.0
 40
1.0
100
AcDbArc
 50
0.0
 51
90.0
  0
ARC
  5
4BC
330
18
100
AcDbEntity
  8
1
  6
Continuous
100
AcDbCircle
 10
73.56521181011203
 20
362.0312465919564
 30
0.0
 40
1.0
100
AcDbArc
 50
270.0
 51
0.0
  0
ARC
  5
4BD
330
18
100
AcDbEntity
  8
1
  6
Continuous
100
AcDbCircle
 10
54.56521181011202
 20
362.0312465919566
 30
0.0
 40
1.0
100
AcDbArc
 50
180.0
 51
270.0
  0
LINE
  5
4CC
330
18
100
AcDbEntity
  8
1
  6
Continuous
100
AcDbLine
 10
76.56521181011214
 20
256.5312465919565
 30
0.0
 11
76.56521181011214
 21
345.1460007111105
 31
0.0
  0
LINE
  5
4CD
330
18
100
AcDbEntity
  8
1
  6
Continuous
100
AcDbLine
 10
95.8652118101121
 20
348.0312465919565
 30
0.0
 11
95.8652118101121
 21
230.0312465919565
 31
0.0
  0
LINE
  5
4CE
330
18
100
AcDbEntity
  8
1
  6
Continuous
100
AcDbLine
 10
78.56521181011214
 20
225.0312465919565
 30
0.0
 11
78.56521181011214
 21
353.0312465919565
 31
0.0
  0
ARC
  5
4CF
330
18
100
AcDbEntity
  8
1
  6
Continuous
100
AcDbCircle
 10
-150.8324781898877
 20
289.0312465919564
 30
0.0
 40
250.0
100
AcDbArc
 50
350.6769979999326
 51
9.323001999928678
  0
LINE
  5
4D0
330
18
100
AcDbEntity
  8
1
  6
Continuous
100
AcDbLine
 10
79.56521181011215
 20
224.0312465919565
 30
0.0
 11
89.86521181011211
 21
224.0312465919565
 31
0.0
  0
ARC
  5
4D1
330
18
100
AcDbEntity
  8
1
  6
Continuous
100
AcDbCircle
 10
89.86521181011211
 20
230.0312465919565
 30
0.0
 40
6.0
100
AcDbArc
 50
269.9999999999478
 51
359.9999999999316
  0
ARC
  5
4D2
330
18
100
AcDbEntity
  8
1
  6
Continuous
100
AcDbCircle
 10
79.56521181011215
 20
225.0312465919565
 30
0.0
 40
1.0
100
AcDbArc
 50
179.9999999999658
 51
269.9999999999478
  0
LINE
  5
4D3
330
18
100
AcDbEntity
  8
1
  6
Continuous
100
AcDbLine
 10
76.56521181011214
 20
279.0312465919565
 30
0.0
 11
78.56521181011214
 21
279.0312465919565
 31
0.0
  0
LINE
  5
4D4
330
18
100
AcDbEntity
  8
1
  6
Continuous
100
AcDbLine
 10
76.56521181011214
 20
299.0312465919565
 30
0.0
 11
78.56521181011214
 21
299.0312465919565
 31
0.0
  0
LINE
  5
4D5
330
18
100
AcDbEntity
  8
1
  6
Continuous
100
AcDbLine
 10
79.56521181011215
 20
354.0312465919565
 30
0.0
 11
89.86521181011211
 21
354.0312465919565
 31
0.0
  0
ARC
  5
4D6
330
18
100
AcDbEntity
  8
1
  6
Continuous
100
AcDbCircle
 10
89.86521181011211
 20
348.0312465919565
 30
0.0
 40
6.0
100
AcDbArc
 50
0.000000000000007
 51
89.99999999998371
  0
LINE
  5
4D7
330
18
100
AcDbEntity
  8
1
  6
Continuous
100
AcDbLine
 10
76.56521181011214
 20
355.1220935919565
 30
0.0
 11
84.06521181011214
 21
355.1220935919565
 31
0.0
  0
ARC
  5
4D8
330
18
100
AcDbEntity
  8
1
  6
Continuous
100
AcDbCircle
 10
81.06521181011215
 20
358.0312465919565
 30
0.0
 40
3.0
100
AcDbArc
 50
0.000000000000007
 51
89.99999999998371
  0
LINE
  5
4D9
330
18
100
AcDbEntity
  8
1
  6
Continuous
100
AcDbLine
 10
84.06521181011214
 20
357.2312465919565
 30
0.0
 11
84.06521181011214
 21
358.0312465919565
 31
0.0
  0
LINE
  5
4DA
330
18
100
AcDbEntity
  8
1
  6
Continuous
100
AcDbLine
 10
80.06521181011214
 20
357.2312465919565
 30
0.0
 11
80.06521181011214
 21
356.0312465919565
 31
0.0
  0
ARC
  5
4DB
330
18
100
AcDbEntity
  8
1
  6
Continuous
100
AcDbCircle
 10
79.56521181011215
 20
353.0312465919565
 30
0.0
 40
1.0
100
AcDbArc
 50
89.99999999998371
 51
179.9999999999658
  0
LINE
  5
4DC
330
18
100
AcDbEntity
  8
1
  6
Continuous
100
AcDbLine
 10
84.06521181011214
 20
354.0312465919565
 30
0.0
 11
84.06521181011214
 21
356.0312465919565
 31
0.0
  0
ARC
  5
600
330
18
100
AcDbEntity
  8
1
  6
Continuous
100
AcDbCircle
 10
249.7984781878136
 20
714.4616245919561
 30
0.0
 40
250.0
100
AcDbArc
 50
260.6769979999326
 51
279.3230019999286
  0
LINE
  5
601
330
18
100
AcDbEntity
  8
1
  6
Continuous
100
AcDbLine
 10
185.7984781878135
 20
485.0639345919563
 30
0.0
 11
272.5204490300052
 21
485.0639345919563
 31
0.0
  0
LINE
  5
602
330
18
100
AcDbEntity
  8
1
  6
Continuous
100
AcDbLine
 10
308.7984781878136
 20
467.7639345919564
 30
0.0
 11
190.7984781878134
 21
467.7639345919564
 31
0.0
  0
LINE
  5
605
330
18
100
AcDbEntity
  8
1
  6
Continuous
100
AcDbLine
 10
308.7984781878136
 20
531.3639345919563
 30
0.0
 11
190.7984781878136
 21
531.3639345919564
 31
0.0
  0
LINE
  5
606
330
18
100
AcDbEntity
  8
1
  6
Continuous
100
AcDbLine
 10
185.7984781878135
 20
514.0639345919565
 30
0.0
 11
272.5204490300047
 21
514.0639345919565
 31
0.0
  0
ARC
  5
607
330
18
100
AcDbEntity
  8
1
  6
Continuous
100
AcDbCircle
 10
249.7984781878135
 20
284.6662445919563
 30
0.0
 40
250.0
100
AcDbArc
 50
80.67699800007131
 51
99.32300200006736
  0
LINE
  5
60B
330
18
100
AcDbEntity
  8
1
  6
Continuous
100
AcDbLine
 10
184.7984781878135
 20
515.0639345919564
 30
0.0
 11
184.7984781878135
 21
525.3639345919564
 31
0.0
  0
ARC
  5
60C
330
18
100
AcDbEntity
  8
1
  6
Continuous
100
AcDbCircle
 10
190.7984781878136
 20
525.3639345919562
 30
0.0
 40
6.0
100
AcDbArc
 50
90.0000000000684
 51
180.0000000000521
  0
ARC
  5
60D
330
18
100
AcDbEntity
  8
1
  6
Continuous
100
AcDbCircle
 10
185.7984781878136
 20
515.0639345919564
 30
0.0
 40
1.0
100
AcDbArc
 50
180.0000000000521
 51
270.0000000000342
  0
LINE
  5
60E
330
18
100
AcDbEntity
  8
1
  6
Continuous
100
AcDbLine
 10
184.7984781878135
 20
484.0639345919563
 30
0.0
 11
184.7984781878135
 21
473.7639345919563
 31
0.0
  0
ARC
  5
60F
330
18
100
AcDbEntity
  8
1
  6
Continuous
100
AcDbCircle
 10
185.7984781878136
 20
484.0639345919563
 30
0.0
 40
1.0
100
AcDbArc
 50
89.9999999999658
 51
179.9999999999479
  0
ARC
  5
610
330
18
100
AcDbEntity
  8
1
  6
Continuous
100
AcDbCircle
 10
190.7984781878136
 20
473.7639345919563
 30
0.0
 40
6.0
100
AcDbArc
 50
179.9999999999479
 51
269.9999999999316
  0
ARC
  5
61D
330
18
100
AcDbEntity
  8
1
  6
Continuous
100
AcDbCircle
 10
308.7984781878136
 20
525.3639345919562
 30
0.0
 40
6.0
100
AcDbArc
 50
0.0000000000162717
 51
89.99999999999998
  0
LINE
  5
829
330
18
100
AcDbEntity
  8
1
  6
Continuous
100
AcDbLine
 10
297.076507345622
 20
485.0639345919563
 30
0.0
 11
313.7984781878136
 21
485.0639345919563
 31
0.0
  0
LINE
  5
82A
330
18
100
AcDbEntity
  8
1
  6
Continuous
100
AcDbLine
 10
297.0765073456225
 20
514.0639345919565
 30
0.0
 11
313.7984781878136
 21
514.0639345919563
 31
0.0
  0
ARC
  5
82B
330
18
100
AcDbEntity
  8
1
  6
Continuous
100
AcDbCircle
 10
313.7984781878136
 20
515.0639345919564
 30
0.0
 40
1.0
100
AcDbArc
 50
269.9999999999657
 51
359.9999999999478
  0
LINE
  5
82C
330
18
100
AcDbEntity
  8
1
  6
Continuous
100
AcDbLine
 10
314.7984781878137
 20
515.0639345919564
 30
0.0
 11
314.7984781878137
 21
525.3639345919564
 31
0.0
  0
ARC
  5
82D
330
18
100
AcDbEntity
  8
1
  6
Continuous
100
AcDbCircle
 10
313.7984781878136
 20
484.0639345919563
 30
0.0
 40
1.0
100
AcDbArc
 50
0.0000000000521172
 51
90.00000000003421
  0
LINE
  5
82E
330
18
100
AcDbEntity
  8
1
  6
Continuous
100
AcDbLine
 10
314.7984781878137
 20
484.0639345919563
 30
0.0
 11
314.7984781878137
 21
473.7639345919563
 31
0.0
  0
ARC
  5
82F
330
18
100
AcDbEntity
  8
1
  6
Continuous
100
AcDbCircle
 10
308.7984781878136
 20
473.7639345919563
 30
0.0
 40
6.0
100
AcDbArc
 50
270.0000000000684
 51
0.0000000000521172
  0
LINE
  5
9BB
330
18
100
AcDbEntity
  8
4
  6
CENTER
 48
0.5
100
AcDbLine
 10
465.5317445655152
 20
246.5312465919565
 30
0.0
 11
465.5317445655152
 21
404.0312465919566
 31
0.0
  0
LINE
  5
9BD
330
18
100
AcDbEntity
  8
1
  6
Continuous
100
AcDbLine
 10
481.5317445655153
 20
357.2312465919565
 30
0.0
 11
481.5317445655153
 21
356.0312465919565
 31
0.0
  0
LINE
  5
9BE
330
18
100
AcDbEntity
  8
1
  6
Continuous
100
AcDbLine
 10
449.5317445655151
 20
357.2312465919565
 30
0.0
 11
449.5317445655151
 21
356.0312465919565
 31
0.0
  0
LINE
  5
9BF
330
18
100
AcDbEntity
  8
1
  6
Continuous
100
AcDbLine
 10
445.531744565515
 20
354.0312465919565
 30
0.0
 11
439.7317445655152
 21
354.0312465919565
 31
0.0
  0
LINE
  5
9C0
330
18
100
AcDbEntity
  8
1
  6
Continuous
100
AcDbLine
 10
450.031744565515
 20
224.0312465919565
 30
0.0
 11
439.7317445655152
 21
224.0312465919565
 31
0.0
  0
LINE
  5
9C2
330
18
100
AcDbEntity
  8
4
  6
CENTER
 48
0.5
100
AcDbLine
 10
420.4332495655152
 20
289.0312465919564
 30
0.0
 11
510.6340545655152
 21
289.0312465919564
 31
0.0
  0
LINE
  5
9C3
330
18
100
AcDbEntity
  8
1
  6
Continuous
100
AcDbLine
 10
480.0317445655152
 20
225.0312465919565
 30
0.0
 11
480.0317445655151
 21
340.3492466212659
 31
0.0
  0
LINE
  5
9C4
330
18
100
AcDbEntity
  8
1
  6
Continuous
100
AcDbLine
 10
497.3317445655152
 20
348.0312465919565
 30
0.0
 11
497.3317445655152
 21
230.0312465919565
 31
0.0
  0
LINE
  5
9C5
330
18
100
AcDbEntity
  8
1
  6
Continuous
100
AcDbLine
 10
451.0317445655151
 20
225.0312465919565
 30
0.0
 11
451.0317445655148
 21
340.349246621266
 31
0.0
  0
LINE
  5
9C8
330
18
100
AcDbEntity
  8
1
  6
Continuous
100
AcDbLine
 10
481.0317445655153
 20
224.0312465919565
 30
0.0
 11
491.3317445655152
 21
224.0312465919565
 31
0.0
  0
ARC
  5
9C9
330
18
100
AcDbEntity
  8
1
  6
Continuous
100
AcDbCircle
 10
491.3317445655152
 20
230.0312465919565
 30
0.0
 40
6.0
100
AcDbArc
 50
269.9999999999478
 51
359.9999999999316
  0
ARC
  5
9CA
330
18
100
AcDbEntity
  8
1
  6
Continuous
100
AcDbCircle
 10
481.0317445655153
 20
225.0312465919565
 30
0.0
 40
1.0
100
AcDbArc
 50
179.9999999999658
 51
269.9999999999478
  0
ARC
  5
9CB
330
18
100
AcDbEntity
  8
1
  6
Continuous
100
AcDbCircle
 10
450.031744565515
 20
225.0312465919565
 30
0.0
 40
1.0
100
AcDbArc
 50
270.0000000000521
 51
0.0000000000342043
  0
LINE
  5
9CC
330
18
100
AcDbEntity
  8
1
  6
Continuous
100
AcDbLine
 10
478.0317445655152
 20
256.5312465919565
 30
0.0
 11
478.0317445655152
 21
281.0312465919565
 31
0.0
  0
LINE
  5
9CD
330
18
100
AcDbEntity
  8
1
  6
Continuous
100
AcDbLine
 10
453.0317445655152
 20
256.5312465919565
 30
0.0
 11
453.0317445655151
 21
281.0312465919565
 31
0.0
  0
ARC
  5
9CE
330
18
100
AcDbEntity
  8
1
  6
Continuous
100
AcDbCircle
 10
250.6340545655152
 20
289.0312465919564
 30
0.0
 40
250.0
100
AcDbArc
 50
350.6769979999326
 51
9.323001999928678
  0
LINE
  5
9CF
330
18
100
AcDbEntity
  8
1
  6
Continuous
100
AcDbLine
 10
478.0317445655152
 20
256.5312465919565
 30
0.0
 11
453.0317445655152
 21
256.5312465919565
 31
0.0
  0
LINE
  5
9D0
330
18
100
AcDbEntity
  8
1
  6
Continuous
100
AcDbLine
 10
478.0317445655152
 20
279.0312465919565
 30
0.0
 11
480.0317445655152
 21
279.0312465919565
 31
0.0
  0
LINE
  5
9D1
330
18
100
AcDbEntity
  8
1
  6
Continuous
100
AcDbLine
 10
478.0317445655152
 20
299.0312465919565
 30
0.0
 11
480.0317445655152
 21
299.0312465919565
 31
0.0
  0
LINE
  5
9D2
330
18
100
AcDbEntity
  8
1
  6
Continuous
100
AcDbLine
 10
453.0317445655152
 20
279.0312465919565
 30
0.0
 11
451.0317445655151
 21
279.0312465919565
 31
0.0
  0
LINE
  5
9D3
330
18
100
AcDbEntity
  8
1
  6
Continuous
100
AcDbLine
 10
453.0317445655152
 20
299.0312465919565
 30
0.0
 11
451.0317445655151
 21
299.0312465919565
 31
0.0
  0
LINE
  5
9D4
330
18
100
AcDbEntity
  8
1
  6
Continuous
100
AcDbLine
 10
485.5317445655153
 20
356.0312465919565
 30
0.0
 11
445.5317445655152
 21
356.0312465919565
 31
0.0
  0
LINE
  5
9D6
330
18
100
AcDbEntity
  8
1
  6
Continuous
100
AcDbLine
 10
485.5317445655153
 20
354.0312465919565
 30
0.0
 11
491.3317445655152
 21
354.0312465919565
 31
0.0
  0
ARC
  5
9D7
330
18
100
AcDbEntity
  8
1
  6
Continuous
100
AcDbCircle
 10
491.3317445655152
 20
348.0312465919565
 30
0.0
 40
6.0
100
AcDbArc
 50
0.000000000000007
 51
89.99999999998371
  0
LINE
  5
9D9
330
18
100
AcDbEntity
  8
1
  6
Continuous
100
AcDbLine
 10
485.5317445655153
 20
347.3321899805501
 30
0.0
 11
485.5317445655153
 21
356.0312465919565
 31
0.0
  0
LINE
  5
9DC
330
18
100
AcDbEntity
  8
1
  6
Continuous
100
AcDbLine
 10
445.5317445655152
 20
347.3321899805498
 30
0.0
 11
445.531744565515
 21
356.0312465919565
 31
0.0
  0
LINE
  5
9DE
330
18
100
AcDbEntity
  8
1
  6
Continuous
100
AcDbLine
 10
433.7317445655152
 20
348.0312465919565
 30
0.0
 11
433.7317445655152
 21
230.0312465919565
 31
0.0
  0
ARC
  5
9E0
330
18
100
AcDbEntity
  8
1
  6
Continuous
100
AcDbCircle
 10
439.7317445655152
 20
230.0312465919565
 30
0.0
 40
6.0
100
AcDbArc
 50
180.0000000000684
 51
270.0000000000521
  0
ARC
  5
9E1
330
18
100
AcDbEntity
  8
1
  6
Continuous
100
AcDbCircle
 10
680.4294345655152
 20
289.0312465919564
 30
0.0
 40
250.0
100
AcDbArc
 50
170.6769980000713
 51
189.3230020000673
  0
ARC
  5
9E2
330
18
100
AcDbEntity
  8
1
  6
Continuous
100
AcDbCircle
 10
439.7317445655152
 20
348.0312465919565
 30
0.0
 40
6.0
100
AcDbArc
 50
90.00000000001627
 51
180.0
  0
ARC
  5
9E8
330
18
100
AcDbEntity
  8
1
  6
Continuous
100
AcDbCircle
 10
475.0317445655152
 20
362.0312465919566
 30
0.0
 40
1.0
100
AcDbArc
 50
270.0
 51
0.000000000000007
  0
ARC
  5
9E9
330
18
100
AcDbEntity
  8
1
  6
Continuous
100
AcDbCircle
 10
475.0317445655152
 20
368.0312465919564
 30
0.0
 40
1.0
100
AcDbArc
 50
0.000000000000007
 51
90.0
  0
LINE
  5
9EA
330
18
100
AcDbEntity
  8
1
  6
Continuous
100
AcDbLine
 10
485.5317445655153
 20
357.2312465919565
 30
0.0
 11
445.5317445655152
 21
357.2312465919565
 31
0.0
  0
LINE
  5
9EB
330
18
100
AcDbEntity
  8
1
  6
Continuous
100
AcDbLine
 10
448.5317445655153
 20
361.0312465919565
 30
0.0
 11
482.5317445655151
 21
361.0312465919566
 31
0.0
  0
ARC
  5
9EC
330
18
100
AcDbEntity
  8
1
  6
Continuous
100
AcDbCircle
 10
482.5317445655151
 20
358.0312465919565
 30
0.0
 40
3.0
100
AcDbArc
 50
0.000000000000007
 51
89.99999999998371
  0
LINE
  5
9ED
330
18
100
AcDbEntity
  8
1
  6
Continuous
100
AcDbLine
 10
485.5317445655153
 20
357.2312465919565
 30
0.0
 11
485.5317445655153
 21
358.0312465919565
 31
0.0
  0
LINE
  5
9EE
330
18
100
AcDbEntity
  8
1
  6
Continuous
100
AcDbLine
 10
476.0317445655153
 20
368.0312465919564
 30
0.0
 11
476.0317445655153
 21
362.0312465919566
 31
0.0
  0
LINE
  5
9EF
330
18
100
AcDbEntity
  8
1
  6
Continuous
100
AcDbLine
 10
457.5317445655151
 20
393.0312465919564
 30
0.0
 11
457.5317445655151
 21
369.0312465919565
 31
0.0
  0
LINE
  5
9F0
330
18
100
AcDbEntity
  8
2
  6
Continuous
100
AcDbLine
 10
458.6142445655151
 20
371.0312465919565
 30
0.0
 11
458.6142445655151
 21
394.0312465919565
 31
0.0
  0
LINE
  5
9F1
330
18
100
AcDbEntity
  8
1
  6
Continuous
100
AcDbLine
 10
473.5317445655153
 20
369.0312465919565
 30
0.0
 11
473.5317445655153
 21
393.0312465919564
 31
0.0
  0
LINE
  5
9F2
330
18
100
AcDbEntity
  8
2
  6
Continuous
100
AcDbLine
 10
472.4492445655151
 20
371.0312465919565
 30
0.0
 11
472.4492445655151
 21
394.0312465919565
 31
0.0
  0
LINE
  5
9F3
330
18
100
AcDbEntity
  8
1
  6
Continuous
100
AcDbLine
 10
473.5317445655153
 20
371.0312465919565
 30
0.0
 11
457.5317445655151
 21
371.0312465919565
 31
0.0
  0
LINE
  5
9F4
330
18
100
AcDbEntity
  8
1
  6
Continuous
100
AcDbLine
 10
475.0317445655152
 20
369.0312465919565
 30
0.0
 11
456.0317445655153
 21
369.0312465919565
 31
0.0
  0
LINE
  5
9F5
330
18
100
AcDbEntity
  8
1
  6
Continuous
100
AcDbLine
 10
455.0317445655152
 20
368.0312465919564
 30
0.0
 11
455.0317445655152
 21
362.0312465919564
 31
0.0
  0
ARC
  5
9F6
330
18
100
AcDbEntity
  8
1
  6
Continuous
100
AcDbCircle
 10
456.0317445655153
 20
362.0312465919564
 30
0.0
 40
1.0
100
AcDbArc
 50
180.0
 51
270.0
  0
ARC
  5
9F7
330
18
100
AcDbEntity
  8
1
  6
Continuous
100
AcDbCircle
 10
456.0317445655153
 20
368.0312465919564
 30
0.0
 40
1.0
100
AcDbArc
 50
90.0
 51
180.0
  0
LINE
  5
9F8
330
18
100
AcDbEntity
  8
1
  6
Continuous
100
AcDbLine
 10
445.531744565515
 20
357.2312465919565
 30
0.0
 11
445.531744565515
 21
358.0312465919565
 31
0.0
  0
ARC
  5
9F9
330
18
100
AcDbEntity
  8
1
  6
Continuous
100
AcDbCircle
 10
448.5317445655152
 20
358.0312465919565
 30
0.0
 40
3.0
100
AcDbArc
 50
90.00000000001627
 51
180.0
  0
LINE
  5
9FA
330
18
100
AcDbEntity
  8
1
  6
Continuous
100
AcDbLine
 10
472.5317445655153
 20
394.0312465919565
 30
0.0
 11
458.5317445655149
 21
394.0312465919565
 31
0.0
  0
LINE
  5
9FB
330
18
100
AcDbEntity
  8
1
  6
Continuous
100
AcDbLine
 10
473.5317445655153
 20
393.0312465919564
 30
0.0
 11
457.5317445655151
 21
393.0312465919564
 31
0.0
  0
LINE
  5
9FC
330
18
100
AcDbEntity
  8
1
  6
Continuous
100
AcDbLine
 10
473.5317445655153
 20
393.0312465919564
 30
0.0
 11
472.5317445655153
 21
394.0312465919565
 31
0.0
  0
LINE
  5
9FD
330
18
100
AcDbEntity
  8
1
  6
Continuous
100
AcDbLine
 10
458.5317445655152
 20
394.0312465919565
 30
0.0
 11
457.5317445655151
 21
393.0312465919564
 31
0.0
  0
LINE
  5
AD8
330
18
100
AcDbEntity
  8
1
  6
Continuous
100
AcDbLine
 10
185.7984781878135
 20
63.99855859195668
 30
0.0
 11
313.7984781878136
 21
63.99855859195676
 31
0.0
  0
LINE
  5
AD9
330
18
100
AcDbEntity
  8
1
  6
Continuous
100
AcDbLine
 10
185.7984781878135
 20
92.9985585919568
 30
0.0
 11
313.7984781878136
 21
92.9985585919568
 31
0.0
  0
LINE
  5
ADA
330
18
100
AcDbEntity
  8
1
  6
Continuous
100
AcDbLine
 10
308.7984781878136
 20
46.69855859195684
 30
0.0
 11
190.7984781878136
 21
46.69855859195672
 31
0.0
  0
LINE
  5
ADB
330
18
100
AcDbEntity
  8
1
  6
Continuous
100
AcDbLine
 10
308.7984781878136
 20
110.2985585919567
 30
0.0
 11
190.7984781878134
 21
110.2985585919567
 31
0.0
  0
LINE
  5
ADC
330
18
100
AcDbEntity
  8
1
  6
Continuous
100
AcDbLine
 10
314.7984781878135
 20
65.99855859195669
 30
0.0
 11
288.3691924020849
 21
65.99855859195668
 31
0.0
  0
LINE
  5
ADD
330
18
100
AcDbEntity
  8
1
  6
Continuous
100
AcDbLine
 10
314.7984781878135
 20
90.9985585919567
 30
0.0
 11
288.3691924020851
 21
90.99855859195669
 31
0.0
  0
LINE
  5
ADE
330
18
100
AcDbEntity
  8
4
  6
CENTER
 48
0.5
100
AcDbLine
 10
164.7984781878136
 20
78.49855859195669
 30
0.0
 11
324.7984781878135
 21
78.49855859195672
 31
0.0
  0
LINE
  5
ADF
330
18
100
AcDbEntity
  8
1
  6
Continuous
100
AcDbLine
 10
184.7984781878135
 20
62.99855859195668
 30
0.0
 11
184.7984781878135
 21
52.69855859195672
 31
0.0
  0
LINE
  5
AE1
330
18
100
AcDbEntity
  8
1
  6
Continuous
100
AcDbLine
 10
184.7984781878136
 20
65.99855859195661
 30
0.0
 11
184.7984781878136
 21
90.9985585919566
 31
0.0
  0
LINE
  5
AE2
330
18
100
AcDbEntity
  8
1
  6
Continuous
100
AcDbLine
 10
184.7984781878135
 20
93.9985585919568
 30
0.0
 11
184.7984781878135
 21
104.2985585919567
 31
0.0
  0
ARC
  5
AE3
330
18
100
AcDbEntity
  8
1
  6
Continuous
100
AcDbCircle
 10
190.7984781878136
 20
104.2985585919567
 30
0.0
 40
6.0
100
AcDbArc
 50
90.0000000000684
 51
180.0000000000521
  0
ARC
  5
AE4
330
18
100
AcDbEntity
  8
1
  6
Continuous
100
AcDbCircle
 10
185.7984781878136
 20
93.9985585919568
 30
0.0
 40
1.0
100
AcDbArc
 50
180.0000000000521
 51
270.0000000000342
  0
ARC
  5
AE5
330
18
100
AcDbEntity
  8
1
  6
Continuous
100
AcDbCircle
 10
185.7984781878136
 20
62.99855859195679
 30
0.0
 40
1.0
100
AcDbArc
 50
89.9999999999658
 51
179.9999999999479
  0
ARC
  5
AE6
330
18
100
AcDbEntity
  8
1
  6
Continuous
100
AcDbCircle
 10
190.7984781878136
 20
52.69855859195684
 30
0.0
 40
6.0
100
AcDbArc
 50
179.9999999999479
 51
269.9999999999316
  0
ARC
  5
AEB
330
18
100
AcDbEntity
  8
1
  6
Continuous
100
AcDbCircle
 10
249.7984781878136
 20
-136.3991314080432
 30
0.0
 40
250.0
100
AcDbArc
 50
80.67699800007131
 51
99.32300200006736
  0
LINE
  5
AEC
330
18
100
AcDbEntity
  8
4
  6
CENTER
 48
0.5
100
AcDbLine
 10
249.7984781878136
 20
122.8008685919566
 30
0.0
 11
249.7984781878136
 21
34.19624759195653
 31
0.0
  0
ARC
  5
AED
330
18
100
AcDbEntity
  8
1
  6
Continuous
100
AcDbCircle
 10
284.7984781878136
 20
78.49855859195662
 30
0.0
 40
19.0
100
AcDbArc
 50
310.256612576352
 51
318.860489585101
  0
ARC
  5
AEE
330
18
100
AcDbEntity
  8
1
  6
Continuous
100
AcDbCircle
 10
249.7984781878135
 20
293.3962485919568
 30
0.0
 40
250.0
100
AcDbArc
 50
260.6769979999326
 51
279.3230019999286
  0
LINE
  5
AEF
330
18
100
AcDbEntity
  8
1
  6
Continuous
100
AcDbLine
 10
239.7984781878136
 20
90.9985585919566
 30
0.0
 11
239.7984781878136
 21
92.9985585919568
 31
0.0
  0
LINE
  5
AF0
330
18
100
AcDbEntity
  8
1
  6
Continuous
100
AcDbLine
 10
259.7984781878136
 20
92.9985585919568
 30
0.0
 11
259.7984781878136
 21
90.9985585919566
 31
0.0
  0
LINE
  5
AF1
330
18
100
AcDbEntity
  8
1
  6
Continuous
100
AcDbLine
 10
239.7984781878136
 20
65.99855859195661
 30
0.0
 11
239.7984781878136
 21
63.99855859195674
 31
0.0
  0
LINE
  5
AF2
330
18
100
AcDbEntity
  8
1
  6
Continuous
100
AcDbLine
 10
259.7984781878136
 20
63.99855859195674
 30
0.0
 11
259.7984781878136
 21
65.99855859195661
 31
0.0
  0
LINE
  5
AF3
330
18
100
AcDbEntity
  8
1
  6
Continuous
100
AcDbLine
 10
314.7984781878137
 20
62.99855859195668
 30
0.0
 11
314.7984781878137
 21
52.69855859195672
 31
0.0
  0
LINE
  5
AFE
330
18
100
AcDbEntity
  8
4
  6
CENTER
 48
0.5
100
AcDbLine
 10
284.7984781878136
 20
100.4985585919566
 30
0.0
 11
284.7984781878136
 21
56.49855859195668
 31
0.0
  0
LINE
  5
B01
330
18
100
AcDbEntity
  8
1
  6
Continuous
100
AcDbLine
 10
314.7984781878136
 20
65.99855859195661
 30
0.0
 11
314.7984781878136
 21
90.9985585919566
 31
0.0
  0
LINE
  5
B02
330
18
100
AcDbEntity
  8
1
  6
Continuous
100
AcDbLine
 10
314.7984781878137
 20
93.9985585919568
 30
0.0
 11
314.7984781878137
 21
104.2985585919567
 31
0.0
  0
ARC
  5
B03
330
18
100
AcDbEntity
  8
1
  6
Continuous
100
AcDbCircle
 10
308.7984781878136
 20
104.2985585919567
 30
0.0
 40
6.0
100
AcDbArc
 50
359.9999999999478
 51
89.99999999993162
  0
ARC
  5
B04
330
18
100
AcDbEntity
  8
1
  6
Continuous
100
AcDbCircle
 10
313.7984781878136
 20
93.9985585919568
 30
0.0
 40
1.0
100
AcDbArc
 50
269.9999999999657
 51
359.9999999999478
  0
ARC
  5
B05
330
18
100
AcDbEntity
  8
1
  6
Continuous
100
AcDbCircle
 10
313.7984781878136
 20
62.99855859195679
 30
0.0
 40
1.0
100
AcDbArc
 50
0.0000000000521242
 51
90.00000000003421
  0
ARC
  5
B06
330
18
100
AcDbEntity
  8
1
  6
Continuous
100
AcDbCircle
 10
308.7984781878136
 20
52.69855859195684
 30
0.0
 40
6.0
100
AcDbArc
 50
270.0
 51
359.9999999999837
  0
ARC
  5
BC2
330
18
100
AcDbEntity
  8
1
  6
Continuous
100
AcDbCircle
 10
284.7984781878136
 20
78.49855859195662
 30
0.0
 40
19.0
100
AcDbArc
 50
41.13951041489939
 51
49.74338742364924
  0
ARC
  5
BC3
330
18
100
AcDbEntity
  8
1
  6
Continuous
100
AcDbCircle
 10
284.7984781878136
 20
78.49855859195662
 30
0.0
 40
19.0
100
AcDbArc
 50
221.1395104148989
 51
229.7433874236479
  0
ARC
  5
BC4
330
18
100
AcDbEntity
  8
1
  6
Continuous
100
AcDbCircle
 10
284.7984781878136
 20
78.49855859195662
 30
0.0
 40
19.0
100
AcDbArc
 50
130.2566125763507
 51
138.8604895851006
  0
LINE
  5
BC6
330
18
100
AcDbEntity
  8
1
  6
Continuous
100
AcDbLine
 10
193.5068269418252
 20
90.9985585919566
 30
0.0
 11
193.5068269418252
 21
65.99855859195661
 31
0.0
  0
LINE
  5
BC7
330
18
100
AcDbEntity
  8
1
  6
Continuous
100
AcDbLine
 10
196.5068269418251
 20
90.9985585919566
 30
0.0
 11
196.5068269418251
 21
84.99855859195669
 31
0.0
  0
LINE
  5
BC8
330
18
100
AcDbEntity
  8
1
  6
Continuous
100
AcDbLine
 10
205.5068269418252
 20
84.99855859195667
 30
0.0
 11
205.5068269418251
 21
71.99855859195669
 31
0.0
  0
LINE
  5
BC9
330
18
100
AcDbEntity
  8
1
  6
Continuous
100
AcDbLine
 10
196.5068269418252
 20
84.99855859195667
 30
0.0
 11
205.5068269418252
 21
84.99855859195667
 31
0.0
  0
LINE
  5
BCA
330
18
100
AcDbEntity
  8
1
  6
Continuous
100
AcDbLine
 10
196.5068269418252
 20
71.99855859195669
 30
0.0
 11
205.5068269418251
 21
71.99855859195669
 31
0.0
  0
LINE
  5
BCB
330
18
100
AcDbEntity
  8
1
  6
Continuous
100
AcDbLine
 10
196.5068269418252
 20
71.99855859195669
 30
0.0
 11
196.5068269418252
 21
65.99855859195661
 31
0.0
  0
LINE
  5
BCC
330
18
100
AcDbEntity
  8
1
  6
Continuous
100
AcDbLine
 10
302.7984781878136
 20
90.99855859195669
 30
0.0
 11
302.7984781878136
 21
65.99855859195668
 31
0.0
  0
LINE
  5
BCD
330
18
100
AcDbEntity
  8
1
  6
Continuous
100
AcDbLine
 10
311.7984781878137
 20
71.99855859195672
 30
0.0
 11
311.7984781878137
 21
65.99855859195668
 31
0.0
  0
LINE
  5
BCE
330
18
100
AcDbEntity
  8
1
  6
Continuous
100
AcDbLine
 10
311.7984781878137
 20
71.99855859195669
 30
0.0
 11
302.7984781878136
 21
71.99855859195672
 31
0.0
  0
LINE
  5
BCF
330
18
100
AcDbEntity
  8
1
  6
Continuous
100
AcDbLine
 10
311.7984781878137
 20
84.99855859195672
 30
0.0
 11
302.7984781878136
 21
84.99855859195672
 31
0.0
  0
LINE
  5
BD0
330
18
100
AcDbEntity
  8
1
  6
Continuous
100
AcDbLine
 10
311.7984781878137
 20
90.99855859195663
 30
0.0
 11
311.7984781878137
 21
84.99855859195672
 31
0.0
  0
LINE
  5
BD2
330
18
100
AcDbEntity
  8
1
  6
Continuous
100
AcDbLine
 10
265.506826941825
 20
90.99855859195669
 30
0.0
 11
265.5068269418252
 21
65.99855859195668
 31
0.0
  0
LINE
  5
BD3
330
18
100
AcDbEntity
  8
1
  6
Continuous
100
AcDbLine
 10
235.506826941825
 20
90.99855859195669
 30
0.0
 11
235.5068269418252
 21
65.99855859195668
 31
0.0
  0
LINE
  5
C2F
330
18
100
AcDbEntity
  8
1
  6
Continuous
100
AcDbLine
 10
291.7266814180892
 20
78.49855859195672
 30
0.0
 11
288.2625798029514
 21
72.49855859195672
 31
0.0
  0
LINE
  5
C30
330
18
100
AcDbEntity
  8
1
  6
Continuous
100
AcDbLine
 10
288.2625798029513
 20
84.49855859195672
 30
0.0
 11
281.3343765726758
 21
84.4985585919567
 31
0.0
  0
LINE
  5
C33
330
18
100
AcDbEntity
  8
1
  6
Continuous
100
AcDbLine
 10
291.7266814180892
 20
78.49855859195669
 30
0.0
 11
288.2625798029514
 21
84.4985585919567
 31
0.0
  0
LINE
  5
C34
330
18
100
AcDbEntity
  8
1
  6
Continuous
100
AcDbLine
 10
288.2625798029513
 20
72.49855859195669
 30
0.0
 11
281.3343765726758
 21
72.49855859195669
 31
0.0
  0
LINE
  5
C35
330
18
100
AcDbEntity
  8
1
  6
Continuous
100
AcDbLine
 10
277.870274957538
 20
78.49855859195669
 30
0.0
 11
281.3343765726758
 21
84.4985585919567
 31
0.0
  0
LINE
  5
C36
330
18
100
AcDbEntity
  8
1
  6
Continuous
100
AcDbLine
 10
277.870274957538
 20
78.49855859195672
 30
0.0
 11
281.3343765726758
 21
72.49855859195672
 31
0.0
  0
ARC
  5
C37
330
18
100
AcDbEntity
  8
1
  6
Continuous
100
AcDbCircle
 10
284.7984781878136
 20
78.49855859195672
 30
0.0
 40
10.0
100
AcDbArc
 50
320.3530804840429
 51
219.646919515957
  0
ARC
  5
C38
330
18
100
AcDbEntity
  8
1
  6
Continuous
100
AcDbCircle
 10
284.7984781878136
 20
78.49855859195672
 30
0.0
 40
7.799999999999998
100
AcDbArc
 50
115.6580701531175
 51
174.3419286053666
  0
LINE
  5
C57
330
18
100
AcDbEntity
  8
1
  6
Continuous
100
AcDbLine
 10
279.8710353934307
 20
75.03313986321727
 30
0.0
 11
278.2437797369975
 21
72.21464950598556
 31
0.0
  0
ARC
  5
C6D
330
18
100
AcDbEntity
  8
1
  6
Continuous
100
AcDbCircle
 10
277.6375619068476
 20
72.56464942371143
 30
0.0
 40
0.7
100
AcDbArc
 50
219.6469195159567
 51
330.0000077760152
  0
LINE
  5
C6F
330
18
100
AcDbEntity
  8
1
  6
Continuous
100
AcDbLine
 10
282.381966271467
 20
85.13787096358788
 30
0.0
 11
282.6146568277061
 21
84.4985585919567
 31
0.0
  0
ARC
  5
C71
330
18
100
AcDbEntity
  8
1
  6
Continuous
100
AcDbCircle
 10
291.9593944687796
 20
72.56464942371143
 30
0.0
 40
0.7
100
AcDbArc
 50
209.9999922239847
 51
320.3530804840432
  0
LINE
  5
C72
330
18
100
AcDbEntity
  8
1
  6
Continuous
100
AcDbLine
 10
277.870274957538
 20
78.49855859195672
 30
0.0
 11
277.7330694947511
 21
78.49855859195672
 31
0.0
  0
ARC
  5
C73
330
18
100
AcDbEntity
  8
1
  6
Continuous
100
AcDbCircle
 10
277.7330694947511
 20
79.19855859195672
 30
0.0
 40
0.7
100
AcDbArc
 50
174.3419286053666
 51
269.9999999999953
  0
ARC
  5
C74
330
18
100
AcDbEntity
  8
1
  6
Continuous
100
AcDbCircle
 10
281.7241813980842
 20
84.89845696995173
 30
0.0
 40
0.7
100
AcDbArc
 50
19.99999070670209
 51
115.6580701531181
  0
LINE
  5
C75
330
18
100
AcDbEntity
  8
1
  6
Continuous
100
AcDbLine
 10
289.7259209821966
 20
75.03313986321727
 30
0.0
 11
291.3531766386297
 21
72.21464950598556
 31
0.0
  0
LINE
  5
C76
330
18
100
AcDbEntity
  8
1
  6
Continuous
100
AcDbLine
 10
291.7266814180892
 20
78.49855859195672
 30
0.0
 11
291.8638868808761
 21
78.49855859195672
 31
0.0
  0
ARC
  5
C77
330
18
100
AcDbEntity
  8
1
  6
Continuous
100
AcDbCircle
 10
291.8638868808761
 20
79.19855859195672
 30
0.0
 40
0.7
100
AcDbArc
 50
270.0000000000045
 51
5.658071394633316
  0
ARC
  5
C78
330
18
100
AcDbEntity
  8
1
  6
Continuous
100
AcDbCircle
 10
284.7984781878136
 20
78.49855859195672
 30
0.0
 40
7.799999999999998
100
AcDbArc
 50
5.658071394633267
 51
64.34192984688239
  0
LINE
  5
C79
330
18
100
AcDbEntity
  8
1
  6
Continuous
100
AcDbLine
 10
287.2149901041602
 20
85.13787096358788
 30
0.0
 11
286.9822995479211
 21
84.4985585919567
 31
0.0
  0
ARC
  5
C7A
330
18
100
AcDbEntity
  8
1
  6
Continuous
100
AcDbCircle
 10
287.872774977543
 20
84.89845696995173
 30
0.0
 40
0.7
100
AcDbArc
 50
64.34192984688182
 51
160.0000092932979
  0
ARC
  5
C8A
330
18
100
AcDbEntity
  8
1
  6
Continuous
100
AcDbCircle
 10
459.4742452920516
 20
362.1984851348056
 30
0.0
 40
30.0
100
AcDbArc
 50
308.2127538462736
 51
330.2944259204607
  0
ARC
  5
C8B
330
18
100
AcDbEntity
  8
1
  6
Continuous
100
AcDbCircle
 10
471.5892438389786
 20
362.1984851348056
 30
0.0
 40
30.0
100
AcDbArc
 50
209.7055740795398
 51
231.7872461537263
  0
ARC
  5
C8F
330
18
100
AcDbEntity
  8
1
  6
Continuous
100
AcDbCircle
 10
465.5317445655152
 20
329.7361716515103
 30
0.0
 40
8.0
100
AcDbArc
 50
212.6195088508005
 51
327.3804911491987
  0
LINE
  5
C90
330
18
100
AcDbEntity
  8
1
  6
Continuous
100
AcDbLine
 10
478.0317445655152
 20
334.4265075919565
 30
0.0
 11
472.2698957665415
 21
325.4237108236178
 31
0.0
  0
LINE
  5
C91
330
18
100
AcDbEntity
  8
1
  6
Continuous
100
AcDbLine
 10
453.0317445655152
 20
334.4265075919565
 30
0.0
 11
458.7935933644886
 21
325.423710823618
 31
0.0
  0
LINE
  5
C95
330
18
100
AcDbEntity
  8
1
  6
Continuous
100
AcDbLine
 10
478.0317445655152
 20
289.0312465919564
 30
0.0
 11
453.0317445655152
 21
289.0312465919564
 31
0.0
  0
LINE
  5
C96
330
18
100
AcDbEntity
  8
1
  6
Continuous
100
AcDbLine
 10
478.0317445655152
 20
267.5312465919565
 30
0.0
 11
453.0317445655152
 21
267.5312465919565
 31
0.0
  0
LINE
  5
C97
330
18
100
AcDbEntity
  8
1
  6
Continuous
100
AcDbLine
 10
478.0317445655152
 20
270.5312465919565
 30
0.0
 11
453.0317445655152
 21
270.5312465919565
 31
0.0
  0
LINE
  5
C98
330
18
100
AcDbEntity
  8
1
  6
Continuous
100
AcDbLine
 10
472.0317445655153
 20
267.5312465919565
 30
0.0
 11
472.0317445655153
 21
256.5312465919563
 31
0.0
  0
LINE
  5
C99
330
18
100
AcDbEntity
  8
1
  6
Continuous
100
AcDbLine
 10
459.0317445655152
 20
267.5312465919565
 30
0.0
 11
459.0317445655152
 21
256.5312465919564
 31
0.0
  0
LINE
  5
CA0
330
18
100
AcDbEntity
  8
1
  6
Continuous
100
AcDbLine
 10
471.5317445655152
 20
273.5312465919566
 30
0.0
 11
459.5317445655153
 21
273.5312465919566
 31
0.0
  0
LINE
  5
CA1
330
18
100
AcDbEntity
  8
1
  6
Continuous
100
AcDbLine
 10
471.5317445655152
 20
280.0312465919566
 30
0.0
 11
471.5317445655152
 21
273.5312465919566
 31
0.0
  0
LINE
  5
CA2
330
18
100
AcDbEntity
  8
1
  6
Continuous
100
AcDbLine
 10
459.5317445655155
 20
280.0312465919566
 30
0.0
 11
459.5317445655153
 21
273.5312465919566
 31
0.0
  0
ARC
  5
CAA
330
18
100
AcDbEntity
  8
1
  6
Continuous
100
AcDbCircle
 10
468.5317445655153
 20
282.1963101014168
 30
0.0
 40
8.665063509460161
100
AcDbArc
 50
249.7438419995821
 51
290.2561580004178
  0
ARC
  5
CAB
330
18
100
AcDbEntity
  8
1
  6
Continuous
100
AcDbCircle
 10
462.5317445655152
 20
282.1963101014168
 30
0.0
 40
8.665063509460161
100
AcDbArc
 50
249.7438419995821
 51
290.2561580004178
  0
LINE
  5
CAC
330
18
100
AcDbEntity
  8
1
  6
Continuous
100
AcDbLine
 10
465.5317445655152
 20
274.067144976819
 30
0.0
 11
465.5317445655152
 21
280.0312465919565
 31
0.0
  0
LINE
  5
14CC
330
18
100
AcDbEntity
  8
1
  6
Continuous
100
AcDbLine
 10
199.8483701878136
 20
511.5639345919563
 30
0.0
 11
181.6800451878135
 21
513.1534575919564
 31
0.0
  0
LINE
  5
14CF
330
18
100
AcDbEntity
  8
1
  6
Continuous
100
AcDbLine
 10
199.8483701878136
 20
487.5639345919564
 30
0.0
 11
181.6800451878135
 21
485.9744125919564
 31
0.0
  0
ARC
  5
14EF
330
18
100
AcDbEntity
  8
1
  6
Continuous
100
AcDbCircle
 10
215.8483701878136
 20
493.5639345919565
 30
0.0
 40
6.0
100
AcDbArc
 50
270.0000000000521
 51
0.0000000000342043
  0
ARC
  5
14F0
330
18
100
AcDbEntity
  8
1
  6
Continuous
100
AcDbCircle
 10
212.3483701878136
 20
493.5639345919565
 30
0.0
 40
6.0
100
AcDbArc
 50
270.0000000000521
 51
0.0000000000342043
  0
LINE
  5
14F2
330
18
100
AcDbEntity
  8
1
  6
Continuous
100
AcDbLine
 10
199.8483701878136
 20
487.5639345919564
 30
0.0
 11
215.8483701878136
 21
487.5639345919564
 31
0.0
  0
LINE
  5
14F3
330
18
100
AcDbEntity
  8
1
  6
Continuous
100
AcDbLine
 10
222.2359761878136
 20
485.0639345919563
 30
0.0
 11
222.2359761878136
 21
487.0639345919563
 31
0.0
  0
LINE
  5
14F4
330
18
100
AcDbEntity
  8
1
  6
Continuous
100
AcDbLine
 10
213.8195201878135
 20
485.0639345919563
 30
0.0
 11
213.8195201878135
 21
487.0639345919563
 31
0.0
  0
LINE
  5
14F5
330
18
100
AcDbEntity
  8
1
  6
Continuous
100
AcDbLine
 10
217.6397091878135
 20
485.0639345919563
 30
0.0
 11
217.6397091878135
 21
487.0639345919563
 31
0.0
  0
LINE
  5
14F6
330
18
100
AcDbEntity
  8
1
  6
Continuous
100
AcDbLine
 10
208.5973661878134
 20
485.0639345919563
 30
0.0
 11
208.5973661878134
 21
487.0639345919563
 31
0.0
  0
LINE
  5
14F7
330
18
100
AcDbEntity
  8
1
  6
Continuous
100
AcDbLine
 10
205.3418321878135
 20
485.0639345919563
 30
0.0
 11
205.3418321878135
 21
487.0639345919563
 31
0.0
  0
LINE
  5
14F8
330
18
100
AcDbEntity
  8
1
  6
Continuous
100
AcDbLine
 10
210.7060101878135
 20
485.0639345919563
 30
0.0
 11
210.7060101878135
 21
487.0639345919563
 31
0.0
  0
LINE
  5
14F9
330
18
100
AcDbEntity
  8
1
  6
Continuous
100
AcDbLine
 10
203.4094271878135
 20
485.0639345919563
 30
0.0
 11
203.4094271878135
 21
487.0639345919563
 31
0.0
  0
ARC
  5
14FB
330
18
100
AcDbEntity
  8
1
  6
Continuous
100
AcDbCircle
 10
215.8483701878136
 20
505.5639345919565
 30
0.0
 40
6.0
100
AcDbArc
 50
0.0000000000342043
 51
90.00000000001303
  0
ARC
  5
14FC
330
18
100
AcDbEntity
  8
1
  6
Continuous
100
AcDbCircle
 10
212.3483701878136
 20
505.5639345919565
 30
0.0
 40
6.0
100
AcDbArc
 50
0.0000000000342043
 51
90.00000000001303
  0
LINE
  5
14FD
330
18
100
AcDbEntity
  8
1
  6
Continuous
100
AcDbLine
 10
221.8483701878136
 20
505.5639345919565
 30
0.0
 11
221.8483701878136
 21
493.5639345919565
 31
0.0
  0
LINE
  5
14FE
330
18
100
AcDbEntity
  8
1
  6
Continuous
100
AcDbLine
 10
218.3483701878136
 20
505.5639345919565
 30
0.0
 11
218.3483701878136
 21
493.5639345919565
 31
0.0
  0
LINE
  5
14FF
330
18
100
AcDbEntity
  8
1
  6
Continuous
100
AcDbLine
 10
199.8483701878136
 20
511.5639345919563
 30
0.0
 11
215.8483701878136
 21
511.5639345919563
 31
0.0
  0
LINE
  5
1500
330
18
100
AcDbEntity
  8
1
  6
Continuous
100
AcDbLine
 10
222.2359761878136
 20
512.0639345919563
 30
0.0
 11
222.2359761878136
 21
514.0639345919565
 31
0.0
  0
LINE
  5
1501
330
18
100
AcDbEntity
  8
1
  6
Continuous
100
AcDbLine
 10
213.8195201878135
 20
512.0639345919563
 30
0.0
 11
213.8195201878135
 21
514.0639345919565
 31
0.0
  0
LINE
  5
1502
330
18
100
AcDbEntity
  8
1
  6
Continuous
100
AcDbLine
 10
217.6397091878135
 20
512.0639345919563
 30
0.0
 11
217.6397091878135
 21
514.0639345919565
 31
0.0
  0
LINE
  5
1503
330
18
100
AcDbEntity
  8
1
  6
Continuous
100
AcDbLine
 10
205.3418321878135
 20
512.0639345919563
 30
0.0
 11
205.3418321878135
 21
514.0639345919565
 31
0.0
  0
LINE
  5
1504
330
18
100
AcDbEntity
  8
1
  6
Continuous
100
AcDbLine
 10
208.5973661878134
 20
512.0639345919563
 30
0.0
 11
208.5973661878134
 21
514.0639345919565
 31
0.0
  0
LINE
  5
1505
330
18
100
AcDbEntity
  8
1
  6
Continuous
100
AcDbLine
 10
210.7060101878135
 20
512.0639345919563
 30
0.0
 11
210.7060101878135
 21
514.0639345919565
 31
0.0
  0
LINE
  5
1506
330
18
100
AcDbEntity
  8
1
  6
Continuous
100
AcDbLine
 10
203.4094271878135
 20
512.0639345919563
 30
0.0
 11
203.4094271878135
 21
514.0639345919565
 31
0.0
  0
ARC
  5
1509
330
18
100
AcDbEntity
  8
1
  6
Continuous
100
AcDbCircle
 10
181.1571101878135
 20
491.9515805919566
 30
0.0
 40
6.0
100
AcDbArc
 50
184.6450420000676
 51
275.0000000000521
  0
ARC
  5
150C
330
18
100
AcDbEntity
  8
1
  6
Continuous
100
AcDbCircle
 10
181.1571101878135
 20
507.1762885919564
 30
0.0
 40
6.0
100
AcDbArc
 50
85.00000000001337
 51
175.3549580000004
  0
ARC
  5
150D
330
18
100
AcDbEntity
  8
1
  6
Continuous
100
AcDbCircle
 10
274.8483701878136
 20
499.5639345919563
 30
0.0
 40
100.0
100
AcDbArc
 50
175.3549580000696
 51
184.6450420000676
  0
LINE
  5
1523
330
18
100
AcDbEntity
  8
1
  6
Continuous
100
AcDbLine
 10
76.56139581011219
 20
317.5093775919565
 30
0.0
 11
71.81521181011209
 21
317.5093775919565
 31
0.0
  0
ARC
  5
1526
330
18
100
AcDbEntity
  8
1
  6
Continuous
100
AcDbCircle
 10
64.06521181011211
 20
443.8954205919563
 30
0.0
 40
100.0
100
AcDbArc
 50
263.7189410000573
 51
276.2810590000475
  0
ARC
  5
1527
330
18
100
AcDbEntity
  8
1
  6
Continuous
100
AcDbCircle
 10
64.06521181011211
 20
448.2731255919564
 30
0.0
 40
100.0
100
AcDbArc
 50
263.7189410000573
 51
276.2810590000475
  0
LINE
  5
152C
330
18
100
AcDbEntity
  8
1
  6
Continuous
100
AcDbLine
 10
76.56139581011219
 20
316.8104895919565
 30
0.0
 11
78.56139581011219
 21
316.8104895919565
 31
0.0
  0
LINE
  5
152D
330
18
100
AcDbEntity
  8
1
  6
Continuous
100
AcDbLine
 10
76.06521181011209
 20
317.5093775919565
 30
0.0
 11
76.06521181011209
 21
344.8179125919565
 31
0.0
  0
LINE
  5
152E
330
18
100
AcDbEntity
  8
1
  6
Continuous
100
AcDbLine
 10
76.56139581011219
 20
323.5447945919565
 30
0.0
 11
78.56139581011219
 21
323.5447945919565
 31
0.0
  0
LINE
  5
152F
330
18
100
AcDbEntity
  8
1
  6
Continuous
100
AcDbLine
 10
76.56139581011219
 20
326.2954925919565
 30
0.0
 11
78.56139581011219
 21
326.2954925919565
 31
0.0
  0
LINE
  5
1530
330
18
100
AcDbEntity
  8
1
  6
Continuous
100
AcDbLine
 10
76.56139581011219
 20
323.2013755919565
 30
0.0
 11
78.56139581011219
 21
323.2013755919565
 31
0.0
  0
LINE
  5
1531
330
18
100
AcDbEntity
  8
1
  6
Continuous
100
AcDbLine
 10
76.56139581011219
 20
318.3685365919564
 30
0.0
 11
78.56139581011219
 21
318.3685365919564
 31
0.0
  0
LINE
  5
1532
330
18
100
AcDbEntity
  8
1
  6
Continuous
100
AcDbLine
 10
76.56139581011219
 20
329.6167945919565
 30
0.0
 11
78.56139581011219
 21
329.6167945919565
 31
0.0
  0
LINE
  5
1533
330
18
100
AcDbEntity
  8
1
  6
Continuous
100
AcDbLine
 10
76.56139581011219
 20
330.3701795919565
 30
0.0
 11
78.56139581011219
 21
330.3701795919565
 31
0.0
  0
LINE
  5
1536
330
18
100
AcDbEntity
  8
1
  6
Continuous
100
AcDbLine
 10
77.67756681011208
 20
347.4776945919565
 30
0.0
 11
77.67756681011208
 21
351.8553985919565
 31
0.0
  0
ARC
  5
1537
330
18
100
AcDbEntity
  8
1
  6
Continuous
100
AcDbCircle
 10
74.67756681011208
 20
351.8553985919565
 30
0.0
 40
3.0
100
AcDbArc
 50
276.2810590000475
 51
0.0000000000342043
  0
LINE
  5
1538
330
18
100
AcDbEntity
  8
1
  6
Continuous
100
AcDbLine
 10
76.56139581011219
 20
340.0525855919565
 30
0.0
 11
76.06521181011209
 21
340.0525855919565
 31
0.0
  0
ARC
  5
1539
330
18
100
AcDbEntity
  8
1
  6
Continuous
100
AcDbCircle
 10
74.67756681011208
 20
347.4776945919565
 30
0.0
 40
3.0
100
AcDbArc
 50
276.2810590000475
 51
0.0000000000342043
  0
LINE
  5
153E
330
18
100
AcDbEntity
  8
1
  6
Continuous
100
AcDbLine
 10
77.67756681011208
 20
351.8553985919565
 30
0.0
 11
77.49591081011209
 21
351.9083555919565
 31
0.0
  0
ARC
  5
153F
330
18
100
AcDbEntity
  8
1
  6
Continuous
100
AcDbCircle
 10
78.05565181011214
 20
353.8284305919566
 30
0.0
 40
2.0
100
AcDbArc
 50
206.6985290000632
 51
253.7475360000571
  0
ARC
  5
1542
330
18
100
AcDbEntity
  8
1
  6
Continuous
100
AcDbCircle
 10
74.48211981011225
 20
352.0312465919565
 30
0.0
 40
2.0
100
AcDbArc
 50
26.69852900002973
 51
90.00000000001303
  0
LINE
  5
1547
330
18
100
AcDbEntity
  8
1
  6
Continuous
100
AcDbLine
 10
51.56521181011211
 20
316.8104895919565
 30
0.0
 11
49.5652118101121
 21
316.8104895919565
 31
0.0
  0
LINE
  5
1549
330
18
100
AcDbEntity
  8
1
  6
Continuous
100
AcDbLine
 10
52.0652118101121
 20
317.5093775919565
 30
0.0
 11
52.0652118101121
 21
344.8179125919565
 31
0.0
  0
LINE
  5
154A
330
18
100
AcDbEntity
  8
1
  6
Continuous
100
AcDbLine
 10
71.81521181011209
 20
340.0525855919565
 30
0.0
 11
71.81521181011209
 21
317.5093775919565
 31
0.0
  0
LINE
  5
154B
330
18
100
AcDbEntity
  8
1
  6
Continuous
100
AcDbLine
 10
56.3152118101121
 20
340.0525855919565
 30
0.0
 11
56.3152118101121
 21
317.5093775919565
 31
0.0
  0
LINE
  5
154C
330
18
100
AcDbEntity
  8
1
  6
Continuous
100
AcDbLine
 10
72.06521181011209
 20
317.5093775919565
 30
0.0
 11
72.06521181011209
 21
344.2159345919565
 31
0.0
  0
LINE
  5
154D
330
18
100
AcDbEntity
  8
1
  6
Continuous
100
AcDbLine
 10
56.0652118101121
 20
317.5093775919565
 30
0.0
 11
56.0652118101121
 21
344.2159345919565
 31
0.0
  0
LINE
  5
154E
330
18
100
AcDbEntity
  8
1
  6
Continuous
100
AcDbLine
 10
51.56521181011211
 20
326.2954925919565
 30
0.0
 11
49.5652118101121
 21
326.2954925919565
 31
0.0
  0
LINE
  5
154F
330
18
100
AcDbEntity
  8
1
  6
Continuous
100
AcDbLine
 10
51.56521181011211
 20
323.5447945919565
 30
0.0
 11
49.5652118101121
 21
323.5447945919565
 31
0.0
  0
LINE
  5
1550
330
18
100
AcDbEntity
  8
1
  6
Continuous
100
AcDbLine
 10
51.56521181011211
 20
323.2013755919565
 30
0.0
 11
49.5652118101121
 21
323.2013755919565
 31
0.0
  0
LINE
  5
1551
330
18
100
AcDbEntity
  8
1
  6
Continuous
100
AcDbLine
 10
51.56521181011211
 20
318.3685365919564
 30
0.0
 11
49.5652118101121
 21
318.3685365919564
 31
0.0
  0
LINE
  5
1552
330
18
100
AcDbEntity
  8
1
  6
Continuous
100
AcDbLine
 10
51.56521181011211
 20
317.5093775919565
 30
0.0
 11
56.3152118101121
 21
317.5093775919565
 31
0.0
  0
LINE
  5
1553
330
18
100
AcDbEntity
  8
1
  6
Continuous
100
AcDbLine
 10
51.56521181011211
 20
330.3701795919565
 30
0.0
 11
49.5652118101121
 21
330.3701795919565
 31
0.0
  0
LINE
  5
1554
330
18
100
AcDbEntity
  8
1
  6
Continuous
100
AcDbLine
 10
51.56521181011211
 20
329.6167945919565
 30
0.0
 11
49.5652118101121
 21
329.6167945919565
 31
0.0
  0
LINE
  5
1555
330
18
100
AcDbEntity
  8
1
  6
Continuous
100
AcDbLine
 10
72.06521181011209
 20
340.0525855919565
 30
0.0
 11
71.81521181011209
 21
340.0525855919565
 31
0.0
  0
LINE
  5
1556
330
18
100
AcDbEntity
  8
1
  6
Continuous
100
AcDbLine
 10
50.45285781011223
 20
347.4776945919565
 30
0.0
 11
50.45285781011223
 21
351.8553985919565
 31
0.0
  0
ARC
  5
1557
330
18
100
AcDbEntity
  8
1
  6
Continuous
100
AcDbCircle
 10
53.45285781011224
 20
351.8553985919565
 30
0.0
 40
3.0
100
AcDbArc
 50
180.0000000000684
 51
263.7189410000573
  0
LINE
  5
1558
330
18
100
AcDbEntity
  8
1
  6
Continuous
100
AcDbLine
 10
52.0652118101121
 20
340.0525855919565
 30
0.0
 11
51.56521181011211
 21
340.0525855919565
 31
0.0
  0
ARC
  5
1559
330
18
100
AcDbEntity
  8
1
  6
Continuous
100
AcDbCircle
 10
53.45285781011224
 20
347.4776945919565
 30
0.0
 40
3.0
100
AcDbArc
 50
180.0000000000684
 51
263.7189410000573
  0
LINE
  5
155A
330
18
100
AcDbEntity
  8
1
  6
Continuous
100
AcDbLine
 10
56.3152118101121
 20
340.0525855919565
 30
0.0
 11
56.0652118101121
 21
340.0525855919565
 31
0.0
  0
LINE
  5
155D
330
18
100
AcDbEntity
  8
1
  6
Continuous
100
AcDbLine
 10
50.45285781011223
 20
351.8553985919565
 30
0.0
 11
50.63364581011214
 21
351.9080185919565
 31
0.0
  0
ARC
  5
155E
330
18
100
AcDbEntity
  8
1
  6
Continuous
100
AcDbCircle
 10
50.07472381011218
 20
353.8283325919565
 30
0.0
 40
2.0
100
AcDbArc
 50
286.2280450000445
 51
333.3030450000368
  0
ARC
  5
1560
330
18
100
AcDbEntity
  8
1
  6
Continuous
100
AcDbCircle
 10
53.64830481011207
 20
352.0312465919565
 30
0.0
 40
2.0
100
AcDbArc
 50
90.00000000001303
 51
153.3030450000047
  0
ARC
  5
1570
330
18
100
AcDbEntity
  8
5
  6
PHANTOM
 48
0.2
100
AcDbCircle
 10
204.8483701878136
 20
324.1380515919566
 30
0.0
 40
14.0
100
AcDbArc
 50
81.08209100001563
 51
135.9347350000073
  0
ARC
  5
1571
330
18
100
AcDbEntity
  8
1
  6
Continuous
100
AcDbCircle
 10
193.7057281878135
 20
333.3320475919565
 30
0.0
 40
4.0
100
AcDbArc
 50
337.0092330000368
 51
70.00000000002412
  0
ARC
  5
1572
330
18
100
AcDbEntity
  8
1
  6
Continuous
100
AcDbCircle
 10
193.8108121878135
 20
426.5900765919566
 30
0.0
 40
84.50000000000001
100
AcDbArc
 50
270.0251680000568
 51
283.324456000049
  0
ARC
  5
1573
330
18
100
AcDbEntity
  8
1
  6
Continuous
100
AcDbCircle
 10
193.8108121878135
 20
426.5900765919566
 30
0.0
 40
80.0
100
AcDbArc
 50
258.0616520000605
 51
282.2800560000515
  0
ARC
  5
158B
330
18
100
AcDbEntity
  8
1
  6
Continuous
100
AcDbCircle
 10
206.5936771878134
 20
327.8638885919565
 30
0.0
 40
10.0
100
AcDbArc
 50
157.0092330000032
 51
187.8210799999991
  0
ARC
  5
158C
330
18
100
AcDbEntity
  8
1
  6
Continuous
100
AcDbCircle
 10
207.8483701878135
 20
362.1001785919566
 30
0.0
 40
14.0
100
AcDbArc
 50
282.2800560000515
 51
318.5903780000421
  0
ARC
  5
158D
330
18
100
AcDbEntity
  8
1
  6
Continuous
100
AcDbCircle
 10
215.4909701878134
 20
339.8776525919565
 30
0.0
 40
5.0
100
AcDbArc
 50
108.9787260000103
 51
168.4895070000024
  0
ARC
  5
158E
330
18
100
AcDbEntity
  8
1
  6
Continuous
100
AcDbCircle
 10
207.8483701878135
 20
362.1001785919566
 30
0.0
 40
18.5
100
AcDbArc
 50
288.9787260000509
 51
316.6582420000411
  0
ARC
  5
158F
330
18
100
AcDbEntity
  8
1
  6
Continuous
100
AcDbCircle
 10
219.8483701878135
 20
351.5171735919565
 30
0.0
 40
2.0
100
AcDbArc
 50
0.0000000000342043
 51
138.5903780000053
  0
ARC
  5
1591
330
18
100
AcDbEntity
  8
1
  6
Continuous
100
AcDbCircle
 10
219.8483701878135
 20
350.7754265919565
 30
0.0
 40
2.0
100
AcDbArc
 50
316.6582420000411
 51
0.0000000000342043
  0
LINE
  5
1592
330
18
100
AcDbEntity
  8
1
  6
Continuous
100
AcDbLine
 10
221.8483701878135
 20
350.7754265919565
 30
0.0
 11
221.8483701878135
 21
351.5171735919565
 31
0.0
  0
ARC
  5
159E
330
18
100
AcDbEntity
  8
5
  6
PHANTOM
 48
0.2
100
AcDbCircle
 10
102.0361691878134
 20
331.0587865919565
 30
0.0
 40
80.0
100
AcDbArc
 50
338.0616520000401
 51
2.280056000033368
  0
ARC
  5
159F
330
18
100
AcDbEntity
  8
5
  6
PHANTOM
 48
0.2
100
AcDbCircle
 10
193.8591521878134
 20
314.7612115919565
 30
0.0
 40
4.0
100
AcDbArc
 50
123.3049540000123
 51
150.0000000000069
  0
ARC
  5
15A0
330
18
100
AcDbEntity
  8
5
  6
PHANTOM
 48
0.2
100
AcDbCircle
 10
102.0361691878134
 20
331.0587865919565
 30
0.0
 40
84.50000000000001
100
AcDbArc
 50
350.025168000036
 51
3.324456000033424
  0
ARC
  5
15A1
330
18
100
AcDbEntity
  8
5
  6
PHANTOM
 48
0.2
100
AcDbCircle
 10
178.6014761878135
 20
300.3341415919565
 30
0.0
 40
2.0
100
AcDbArc
 50
260.0000000000608
 51
338.1350610000366
  0
ARC
  5
15A2
330
18
100
AcDbEntity
  8
5
  6
PHANTOM
 48
0.2
100
AcDbCircle
 10
102.0361691878134
 20
331.0587865919565
 30
0.0
 40
84.50000000000001
100
AcDbArc
 50
338.1350610000366
 51
350.025168000036
  0
LINE
  5
15A3
330
18
100
AcDbEntity
  8
5
  6
PHANTOM
 48
0.2
100
AcDbLine
 10
180.3335271878134
 20
299.3341415919565
 30
0.0
 11
190.3950501878135
 21
316.7612115919565
 31
0.0
  0
LINE
  5
15A4
330
18
100
AcDbEntity
  8
5
  6
PHANTOM
 48
0.2
100
AcDbLine
 10
178.2541791878135
 20
298.3645265919565
 30
0.0
 11
177.7509581878135
 21
298.4532575919565
 31
0.0
  0
ARC
  5
15A5
330
18
100
AcDbEntity
  8
5
  6
PHANTOM
 48
0.2
100
AcDbCircle
 10
178.0982541878135
 20
300.4228735919565
 30
0.0
 40
2.0
100
AcDbArc
 50
158.0616520000751
 51
260.0000000000608
  0
ARC
  5
15A6
330
18
100
AcDbEntity
  8
5
  6
PHANTOM
 48
0.2
100
AcDbCircle
 10
167.9839171878135
 20
333.6845285919565
 30
0.0
 40
14.0
100
AcDbArc
 50
2.280056000033368
 51
38.59037800003108
  0
ARC
  5
15A7
330
18
100
AcDbEntity
  8
5
  6
PHANTOM
 48
0.2
100
AcDbCircle
 10
167.9839171878135
 20
333.6845285919565
 30
0.0
 40
18.5
100
AcDbArc
 50
8.978726000032349
 51
36.65824200002353
  0
LINE
  5
15A8
330
18
100
AcDbEntity
  8
1
  6
Continuous
100
AcDbLine
 10
176.1643291878135
 20
343.9733055919565
 30
0.0
 11
195.0738081878134
 21
337.0908175919566
 31
0.0
  0
ARC
  5
15A9
330
18
100
AcDbEntity
  8
5
  6
PHANTOM
 48
0.2
100
AcDbCircle
 10
191.1959561878135
 20
337.3521205919566
 30
0.0
 40
5.0
100
AcDbArc
 50
188.9787260000661
 51
315.9347350000428
  0
ARC
  5
15AA
330
18
100
AcDbEntity
  8
5
  6
PHANTOM
 48
0.2
100
AcDbCircle
 10
180.4899211878136
 20
343.6645025919565
 30
0.0
 40
2.0
100
AcDbArc
 50
80.00000000008737
 51
218.5903780000608
  0
ARC
  5
15AB
330
18
100
AcDbEntity
  8
1
  6
Continuous
100
AcDbCircle
 10
193.8108121878135
 20
426.5900765919566
 30
0.0
 40
84.50000000000001
100
AcDbArc
 50
258.135061000055
 51
270.0251680000568
  0
LINE
  5
15AC
330
18
100
AcDbEntity
  8
5
  6
PHANTOM
 48
0.2
100
AcDbLine
 10
181.5676951878136
 20
345.5053145919565
 30
0.0
 11
180.8372171878135
 21
345.6341175919565
 31
0.0
  0
ARC
  5
15AD
330
18
100
AcDbEntity
  8
5
  6
PHANTOM
 48
0.2
100
AcDbCircle
 10
181.2203981878134
 20
343.5356995919566
 30
0.0
 40
2.0
100
AcDbArc
 50
36.65824200002353
 51
80.00000000002119
  0
ARC
  5
15AE
330
18
100
AcDbEntity
  8
5
  6
PHANTOM
 48
0.2
100
AcDbCircle
 10
181.2203981878134
 20
343.5356995919566
 30
0.0
 40
2.0
100
AcDbArc
 50
36.65824200002353
 51
80.00000000002119
  0
LINE
  5
15AF
330
18
100
AcDbEntity
  8
1
  6
Continuous
100
AcDbLine
 10
174.8483701878135
 20
345.8526905919565
 30
0.0
 11
174.8483701878135
 21
346.3636745919565
 31
0.0
  0
ARC
  5
15B0
330
18
100
AcDbEntity
  8
1
  6
Continuous
100
AcDbCircle
 10
176.8483701878135
 20
346.3636745919565
 30
0.0
 40
2.0
100
AcDbArc
 50
78.06165200008734
 51
180.0000000000684
  0
ARC
  5
15B1
330
18
100
AcDbEntity
  8
1
  6
Continuous
100
AcDbCircle
 10
176.8483701878135
 20
345.8526905919565
 30
0.0
 40
2.0
100
AcDbArc
 50
180.0000000000684
 51
258.135061000055
  0
TEXT
  5
15DD
330
18
100
AcDbEntity
  8
3
  6
DASHED
 48
0.25
100
AcDbText
 10
21.9795085266385
 20
10.0
 30
0.0
 40
1.399999999999999
  1
3
100
AcDbText
  0
LINE
  5
1608
330
18
100
AcDbEntity
  8
1
  6
Continuous
100
AcDbLine
 10
51.56521181011203
 20
352.4947488781025
 30
0.0
 11
51.56521181011203
 21
355.1220935919564
 31
0.0
  0
LINE
  5
1609
330
18
100
AcDbEntity
  8
1
  6
Continuous
100
AcDbLine
 10
76.56521181011214
 20
352.4947932325518
 30
0.0
 11
76.56521181011214
 21
355.1220935919564
 31
0.0
  0
LINE
  5
160A
330
18
100
AcDbEntity
  8
1
  6
Continuous
100
AcDbLine
 10
453.0317445655152
 20
330.3701795919565
 30
0.0
 11
451.0317445655153
 21
330.3701795919565
 31
0.0
  0
LINE
  5
160B
330
18
100
AcDbEntity
  8
1
  6
Continuous
100
AcDbLine
 10
453.0317445655152
 20
316.8104895919565
 30
0.0
 11
451.0317445655153
 21
316.8104895919565
 31
0.0
  0
LINE
  5
160C
330
18
100
AcDbEntity
  8
1
  6
Continuous
100
AcDbLine
 10
478.0279285655155
 20
316.8104895919565
 30
0.0
 11
480.0279285655155
 21
316.8104895919565
 31
0.0
  0
LINE
  5
160D
330
18
100
AcDbEntity
  8
1
  6
Continuous
100
AcDbLine
 10
478.0279285655155
 20
330.3701795919565
 30
0.0
 11
480.0279285655155
 21
330.3701795919565
 31
0.0
  0
LINE
  5
160E
330
18
100
AcDbEntity
  8
1
  6
Continuous
100
AcDbLine
 10
203.4094271878135
 20
90.99855859195669
 30
0.0
 11
203.4094271878135
 21
92.99855859195671
 31
0.0
  0
LINE
  5
160F
330
18
100
AcDbEntity
  8
1
  6
Continuous
100
AcDbLine
 10
203.4094271878135
 20
63.99855859195651
 30
0.0
 11
203.4094271878135
 21
65.99855859195668
 31
0.0
  0
LINE
  5
1610
330
18
100
AcDbEntity
  8
1
  6
Continuous
100
AcDbLine
 10
222.2359761878136
 20
63.99855859195651
 30
0.0
 11
222.2359761878136
 21
65.99855859195668
 31
0.0
  0
LINE
  5
1611
330
18
100
AcDbEntity
  8
1
  6
Continuous
100
AcDbLine
 10
222.2359761878136
 20
90.99855859195669
 30
0.0
 11
222.2359761878136
 21
92.99855859195671
 31
0.0
  0
CIRCLE
  5
1614
330
18
100
AcDbEntity
  8
1
  6
Continuous
100
AcDbCircle
 10
284.7984781878136
 20
78.49855859195672
 30
0.0
 40
13.0
  0
LINE
  5
1615
330
18
100
AcDbEntity
  8
1
  6
Continuous
100
AcDbLine
 10
281.2277639735423
 20
65.99855859195668
 30
0.0
 11
184.7984781878136
 21
65.99855859195661
 31
0.0
  0
LINE
  5
1616
330
18
100
AcDbEntity
  8
1
  6
Continuous
100
AcDbLine
 10
281.227763973542
 20
90.99855859195669
 30
0.0
 11
184.7984781878136
 21
90.9985585919566
 31
0.0
  0
ARC
  5
161A
330
18
100
AcDbEntity
  8
1
  6
Continuous
100
AcDbCircle
 10
284.7984781878136
 20
78.49855859195672
 30
0.0
 40
9.5
100
AcDbArc
 50
223.7368678626851
 51
245.9576715809455
  0
LINE
  5
161B
330
18
100
AcDbEntity
  8
1
  6
Continuous
100
AcDbLine
 10
294.7483525588798
 20
79.49855859195672
 30
0.0
 11
297.7599595846293
 21
79.49855859195672
 31
0.0
  0
LINE
  5
161C
330
18
100
AcDbEntity
  8
1
  6
Continuous
100
AcDbLine
 10
294.7483525588798
 20
77.49855859195672
 30
0.0
 11
297.7599595846293
 21
77.49855859195672
 31
0.0
  0
LINE
  5
161E
330
18
100
AcDbEntity
  8
1
  6
Continuous
100
AcDbLine
 10
292.2603103936094
 20
85.15596500380727
 30
0.0
 11
294.6967516578198
 21
86.92614319924325
 31
0.0
  0
LINE
  5
161F
330
18
100
AcDbEntity
  8
1
  6
Continuous
100
AcDbLine
 10
293.4358808981944
 20
83.53793101505734
 30
0.0
 11
295.8723221624047
 21
85.30810921049335
 31
0.0
  0
LINE
  5
1620
330
18
100
AcDbEntity
  8
1
  6
Continuous
100
AcDbLine
 10
286.9221019440737
 20
88.27046844325234
 30
0.0
 11
287.8527396954093
 21
91.13467692961163
 31
0.0
  0
LINE
  5
1621
330
18
100
AcDbEntity
  8
1
  6
Continuous
100
AcDbLine
 10
288.8242149766639
 20
87.65243445450243
 30
0.0
 11
289.7548527279996
 21
90.51664294086174
 31
0.0
  0
LINE
  5
1622
330
18
100
AcDbEntity
  8
1
  6
Continuous
100
AcDbLine
 10
280.7727413989632
 20
87.65243445450243
 30
0.0
 11
279.8421036476276
 21
90.5166429408618
 31
0.0
  0
LINE
  5
1623
330
18
100
AcDbEntity
  8
1
  6
Continuous
100
AcDbLine
 10
282.6748544315536
 20
88.27046844325234
 30
0.0
 11
281.744216680218
 21
91.13467692961171
 31
0.0
  0
LINE
  5
1624
330
18
100
AcDbEntity
  8
1
  6
Continuous
100
AcDbLine
 10
276.1610754774329
 20
83.53793101505736
 30
0.0
 11
273.7246342132225
 21
85.30810921049331
 31
0.0
  0
LINE
  5
1625
330
18
100
AcDbEntity
  8
1
  6
Continuous
100
AcDbLine
 10
277.3366459820179
 20
85.15596500380729
 30
0.0
 11
274.9002047178075
 21
86.92614319924322
 31
0.0
  0
LINE
  5
1626
330
18
100
AcDbEntity
  8
1
  6
Continuous
100
AcDbLine
 10
274.8486038167474
 20
77.49855859195675
 30
0.0
 11
271.8369967909978
 21
77.49855859195675
 31
0.0
  0
LINE
  5
1627
330
18
100
AcDbEntity
  8
1
  6
Continuous
100
AcDbLine
 10
274.8486038167474
 20
79.49855859195675
 30
0.0
 11
271.8369967909978
 21
79.49855859195675
 31
0.0
  0
LINE
  5
1628
330
18
100
AcDbEntity
  8
1
  6
Continuous
100
AcDbLine
 10
277.4177306825265
 20
71.90006366339641
 30
0.0
 11
274.9002047178074
 21
70.07097398467028
 31
0.0
  0
LINE
  5
1629
330
18
100
AcDbEntity
  8
1
  6
Continuous
100
AcDbLine
 10
276.1610754774329
 20
73.45918616885611
 30
0.0
 11
273.7246342132225
 21
71.68900797342015
 31
0.0
  0
LINE
  5
162A
330
18
100
AcDbEntity
  8
1
  6
Continuous
100
AcDbLine
 10
282.8301826140008
 20
69.20469973063825
 30
0.0
 11
281.744216680218
 21
65.86244025430183
 31
0.0
  0
LINE
  5
162B
330
18
100
AcDbEntity
  8
1
  6
Continuous
100
AcDbLine
 10
280.9280695814104
 20
69.82273371938815
 30
0.0
 11
279.8421036476276
 21
66.48047424305167
 31
0.0
  0
LINE
  5
162C
330
18
100
AcDbEntity
  8
1
  6
Continuous
100
AcDbLine
 10
288.6688867942168
 20
69.82273371938814
 30
0.0
 11
289.7548527279995
 21
66.48047424305167
 31
0.0
  0
LINE
  5
162D
330
18
100
AcDbEntity
  8
1
  6
Continuous
100
AcDbLine
 10
286.7667737616264
 20
69.20469973063823
 30
0.0
 11
287.8527396954092
 21
65.86244025430183
 31
0.0
  0
LINE
  5
162E
330
18
100
AcDbEntity
  8
1
  6
Continuous
100
AcDbLine
 10
293.4358808981944
 20
73.45918616885612
 30
0.0
 11
295.8723221624047
 21
71.68900797342009
 31
0.0
  0
LINE
  5
162F
330
18
100
AcDbEntity
  8
1
  6
Continuous
100
AcDbLine
 10
292.1792256931007
 20
71.90006366339638
 30
0.0
 11
294.6967516578198
 21
70.07097398467021
 31
0.0
  0
ARC
  5
1630
330
18
100
AcDbEntity
  8
1
  6
Continuous
100
AcDbCircle
 10
284.7984781878136
 20
78.49855859195672
 30
0.0
 40
9.5
100
AcDbArc
 50
294.0423284190543
 51
316.2631321373148
  0
ARC
  5
1631
330
18
100
AcDbEntity
  8
1
  6
Continuous
100
AcDbCircle
 10
284.7984781878136
 20
78.49855859195672
 30
0.0
 40
9.5
100
AcDbArc
 50
258.0423284190541
 51
281.9576715809458
  0
LINE
  5
1632
330
18
100
AcDbEntity
  8
1
  6
Continuous
100
AcDbLine
 10
478.5317445655151
 20
288.0312465919565
 30
0.0
 11
452.5317445655152
 21
288.0312465919565
 31
0.0
  0
LINE
  5
1633
330
18
100
AcDbEntity
  8
1
  6
Continuous
100
AcDbLine
 10
478.5317445655151
 20
281.0312465919565
 30
0.0
 11
452.5317445655152
 21
281.0312465919565
 31
0.0
  0
LINE
  5
1668
330
18
100
AcDbEntity
  8
1
  6
Continuous
100
AcDbLine
 10
472.1656537337604
 20
280.0312465919565
 30
0.0
 11
455.5317445655153
 21
280.0312465919566
 31
0.0
  0
LINE
  5
1669
330
18
100
AcDbEntity
  8
1
  6
Continuous
100
AcDbLine
 10
455.5317445655153
 20
280.0312465919566
 30
0.0
 11
455.5317445655153
 21
281.0312465919565
 31
0.0
  0
LINE
  5
166A
330
18
100
AcDbEntity
  8
1
  6
Continuous
100
AcDbLine
 10
472.1656537337604
 20
280.0312465919565
 30
0.0
 11
472.1656537337604
 21
281.0312465919565
 31
0.0
  0
LINE
  5
166B
330
18
100
AcDbEntity
  8
1
  6
Continuous
100
AcDbLine
 10
452.5317445655152
 20
281.0312465919565
 30
0.0
 11
452.5317445655152
 21
294.0312465919565
 31
0.0
  0
LINE
  5
166C
330
18
100
AcDbEntity
  8
1
  6
Continuous
100
AcDbLine
 10
478.5317445655151
 20
281.0312465919565
 30
0.0
 11
478.5317445655151
 21
294.0312465919565
 31
0.0
  0
LINE
  5
166D
330
18
100
AcDbEntity
  8
1
  6
Continuous
100
AcDbLine
 10
478.5317445655151
 20
294.0312465919565
 30
0.0
 11
478.0317445655152
 21
294.0312465919563
 31
0.0
  0
LINE
  5
166E
330
18
100
AcDbEntity
  8
1
  6
Continuous
100
AcDbLine
 10
453.0317445655151
 20
294.0312465919563
 30
0.0
 11
452.5317445655152
 21
294.0312465919565
 31
0.0
  0
LINE
  5
166F
330
18
100
AcDbEntity
  8
1
  6
Continuous
100
AcDbLine
 10
453.0317445655152
 20
289.0312465919566
 30
0.0
 11
453.0317445655152
 21
338.6269085919565
 31
0.0
  0
LINE
  5
1670
330
18
100
AcDbEntity
  8
1
  6
Continuous
100
AcDbLine
 10
478.0317445655152
 20
289.0312465919566
 30
0.0
 11
478.0317445655152
 21
338.6269085919565
 31
0.0
  0
LINE
  5
1671
330
18
100
AcDbEntity
  8
1
  6
Continuous
100
AcDbLine
 10
466.5317445655152
 20
281.0312465919565
 30
0.0
 11
466.5317445655152
 21
288.0312465919565
 31
0.0
  0
LINE
  5
1672
330
18
100
AcDbEntity
  8
1
  6
Continuous
100
AcDbLine
 10
464.5317445655153
 20
281.0312465919565
 30
0.0
 11
464.5317445655153
 21
288.0312465919565
 31
0.0
  0
LINE
  5
1673
330
18
100
AcDbEntity
  8
1
  6
Continuous
100
AcDbLine
 10
458.7221939469785
 20
281.0312465919565
 30
0.0
 11
458.7221939469785
 21
288.0312465919565
 31
0.0
  0
LINE
  5
1674
330
18
100
AcDbEntity
  8
1
  6
Continuous
100
AcDbLine
 10
457.1041599582286
 20
281.0312465919565
 30
0.0
 11
457.1041599582286
 21
288.0312465919565
 31
0.0
  0
LINE
  5
1675
330
18
100
AcDbEntity
  8
1
  6
Continuous
100
AcDbLine
 10
453.5136602166101
 20
281.0312465919565
 30
0.0
 11
453.5136602166101
 21
288.0312465919565
 31
0.0
  0
LINE
  5
1676
330
18
100
AcDbEntity
  8
1
  6
Continuous
100
AcDbLine
 10
452.8956262278604
 20
281.0312465919565
 30
0.0
 11
452.8956262278604
 21
288.0312465919565
 31
0.0
  0
LINE
  5
1677
330
18
100
AcDbEntity
  8
1
  6
Continuous
100
AcDbLine
 10
473.9593291728017
 20
281.0312465919565
 30
0.0
 11
473.9593291728017
 21
288.0312465919565
 31
0.0
  0
LINE
  5
1678
330
18
100
AcDbEntity
  8
1
  6
Continuous
100
AcDbLine
 10
472.3412951840516
 20
281.0312465919565
 30
0.0
 11
472.3412951840518
 21
288.0312465919565
 31
0.0
  0
LINE
  5
1679
330
18
100
AcDbEntity
  8
1
  6
Continuous
100
AcDbLine
 10
477.5498289144203
 20
281.0312465919565
 30
0.0
 11
477.5498289144203
 21
288.0312465919565
 31
0.0
  0
LINE
  5
167A
330
18
100
AcDbEntity
  8
1
  6
Continuous
100
AcDbLine
 10
478.16786290317
 20
281.0312465919565
 30
0.0
 11
478.16786290317
 21
288.0312465919565
 31
0.0
  0
LINE
  5
1682
330
18
100
AcDbEntity
  8
4
  6
CENTER
 48
0.5
100
AcDbLine
 10
681.2650109432166
 20
364.0312465919564
 30
0.0
 11
681.2650109432166
 21
214.0312465919565
 31
0.0
  0
CIRCLE
  5
1683
330
18
100
AcDbEntity
  8
1
  6
Continuous
100
AcDbCircle
 10
681.2650109432166
 20
289.0312465919564
 30
0.0
 40
65.0
  0
CIRCLE
  5
1684
330
18
100
AcDbEntity
  8
1
  6
Continuous
100
AcDbCircle
 10
681.2650109432166
 20
289.0312465919564
 30
0.0
 40
40.0
  0
CIRCLE
  5
1685
330
18
100
AcDbEntity
  8
1
  6
Continuous
100
AcDbCircle
 10
681.2650109432166
 20
289.0312465919564
 30
0.0
 40
45.49999999999999
  0
CIRCLE
  5
1686
330
18
100
AcDbEntity
  8
1
  6
Continuous
100
AcDbCircle
 10
681.2650109432166
 20
289.0312465919564
 30
0.0
 40
51.5
  0
CIRCLE
  5
1687
330
18
100
AcDbEntity
  8
1
  6
Continuous
100
AcDbCircle
 10
681.2650109432166
 20
289.0312465919564
 30
0.0
 40
57.0
  0
LINE
  5
1688
330
18
100
AcDbEntity
  8
4
  6
CENTER
 48
0.5
100
AcDbLine
 10
646.2650109432168
 20
246.5312465919565
 30
0.0
 11
646.2650109432168
 21
404.0312465919564
 31
0.0
  0
LINE
  5
168A
330
18
100
AcDbEntity
  8
4
  6
CENTER
 48
0.5
100
AcDbLine
 10
756.2650109432166
 20
289.0312465919564
 30
0.0
 11
606.2650109432166
 21
289.0312465919564
 31
0.0
  0
LINE
  5
168D
330
18
100
AcDbEntity
  8
2
  6
Continuous
100
AcDbLine
 10
639.3475109432166
 20
371.0312465919565
 30
0.0
 11
639.3475109432166
 21
394.0312465919565
 31
0.0
  0
LINE
  5
168E
330
18
100
AcDbEntity
  8
1
  6
Continuous
100
AcDbLine
 10
638.2650109432168
 20
393.0312465919564
 30
0.0
 11
638.2650109432168
 21
369.0312465919565
 31
0.0
  0
LINE
  5
168F
330
18
100
AcDbEntity
  8
1
  6
Continuous
100
AcDbLine
 10
654.2650109432166
 20
369.0312465919565
 30
0.0
 11
654.2650109432166
 21
393.0312465919564
 31
0.0
  0
LINE
  5
1690
330
18
100
AcDbEntity
  8
2
  6
Continuous
100
AcDbLine
 10
653.1825109432165
 20
371.0312465919565
 30
0.0
 11
653.1825109432165
 21
394.0312465919565
 31
0.0
  0
LINE
  5
1692
330
18
100
AcDbEntity
  8
1
  6
Continuous
100
AcDbLine
 10
754.8991599432167
 20
343.9733055919565
 30
0.0
 11
735.9896809432167
 21
337.0908175919566
 31
0.0
  0
ARC
  5
1693
330
18
100
AcDbEntity
  8
1
  6
Continuous
100
AcDbCircle
 10
737.2526769432165
 20
426.5900765919566
 30
0.0
 40
84.50000000000001
100
AcDbArc
 50
269.9748319999432
 51
281.8649389999448
  0
ARC
  5
1694
330
18
100
AcDbEntity
  8
1
  6
Continuous
100
AcDbCircle
 10
737.2526769432165
 20
426.5900765919566
 30
0.0
 40
80.0
100
AcDbArc
 50
257.7199439999485
 51
281.9383479999394
  0
ARC
  5
169E
330
18
100
AcDbEntity
  8
1
  6
Continuous
100
AcDbCircle
 10
754.2151189432167
 20
346.3636745919565
 30
0.0
 40
2.0
100
AcDbArc
 50
359.9999999999316
 51
101.9383479999125
  0
ARC
  5
169F
330
18
100
AcDbEntity
  8
1
  6
Continuous
100
AcDbCircle
 10
754.2151189432167
 20
345.8526905919565
 30
0.0
 40
2.0
100
AcDbArc
 50
281.8649389999448
 51
359.9999999999316
  0
LINE
  5
16A0
330
18
100
AcDbEntity
  8
1
  6
Continuous
100
AcDbLine
 10
756.2151189432166
 20
345.8526905919565
 30
0.0
 11
756.2151189432166
 21
346.3636745919565
 31
0.0
  0
ARC
  5
16A7
330
18
100
AcDbEntity
  8
1
  6
Continuous
100
AcDbCircle
 10
737.3577609432167
 20
333.3320475919565
 30
0.0
 40
4.0
100
AcDbArc
 50
109.9999999999758
 51
202.9907669999631
  0
LINE
  5
16A8
330
18
100
AcDbEntity
  8
1
  6
Continuous
100
AcDbLine
 10
634.7432919432166
 20
338.6269085919565
 30
0.0
 11
634.7432919432166
 21
334.4265075919565
 31
0.0
  0
LINE
  5
16A9
330
18
100
AcDbEntity
  8
1
  6
Continuous
100
AcDbLine
 10
627.2650109432166
 20
329.7866145919565
 30
0.0
 11
627.2650109432166
 21
356.0312465919565
 31
0.0
  0
ARC
  5
16AA
330
18
100
AcDbEntity
  8
1
  6
Continuous
100
AcDbCircle
 10
724.4698119432165
 20
327.8638885919565
 30
0.0
 40
10.0
100
AcDbArc
 50
352.1789200000009
 51
22.99076699999675
  0
ARC
  5
16AB
330
18
100
AcDbEntity
  8
1
  6
Continuous
100
AcDbCircle
 10
611.2650109432166
 20
329.7866145919565
 30
0.0
 40
16.0
100
AcDbArc
 50
329.7911999999369
 51
0.000000000000007
  0
ARC
  5
16AC
330
18
100
AcDbEntity
  8
1
  6
Continuous
100
AcDbCircle
 10
723.2151189432165
 20
362.1001785919566
 30
0.0
 40
18.5
100
AcDbArc
 50
223.3417579999588
 51
251.021273999949
  0
ARC
  5
16AD
330
18
100
AcDbEntity
  8
1
  6
Continuous
100
AcDbCircle
 10
715.5725189432167
 20
339.8776525919565
 30
0.0
 40
5.0
100
AcDbArc
 50
11.51049299999763
 51
71.02127399998969
  0
ARC
  5
16AE
330
18
100
AcDbEntity
  8
1
  6
Continuous
100
AcDbCircle
 10
737.2526769432165
 20
426.5900765919566
 30
0.0
 40
84.50000000000001
100
AcDbArc
 50
256.6755439999509
 51
269.9748319999432
  0
ARC
  5
16AF
330
18
100
AcDbEntity
  8
1
  6
Continuous
100
AcDbCircle
 10
711.2151189432165
 20
351.5171735919565
 30
0.0
 40
2.0
100
AcDbArc
 50
41.40962199999464
 51
179.9999999999658
  0
ARC
  5
16B0
330
18
100
AcDbEntity
  8
1
  6
Continuous
100
AcDbCircle
 10
711.2151189432165
 20
350.7754265919565
 30
0.0
 40
2.0
100
AcDbArc
 50
179.9999999999658
 51
223.3417579999588
  0
LINE
  5
16B1
330
18
100
AcDbEntity
  8
1
  6
Continuous
100
AcDbLine
 10
709.2151189432167
 20
350.7754265919565
 30
0.0
 11
709.2151189432167
 21
351.5171735919565
 31
0.0
  0
ARC
  5
16B2
330
18
100
AcDbEntity
  8
1
  6
Continuous
100
AcDbCircle
 10
723.2151189432165
 20
362.1001785919566
 30
0.0
 40
14.0
100
AcDbArc
 50
221.4096219999579
 51
257.7199439999485
  0
ARC
  5
16B3
330
18
100
AcDbEntity
  8
1
  6
Continuous
100
AcDbCircle
 10
630.2650109432168
 20
358.0312465919565
 30
0.0
 40
3.0
100
AcDbArc
 50
89.99999999998371
 51
179.9999999999658
  0
ARC
  5
16B4
330
18
100
AcDbEntity
  8
1
  6
Continuous
100
AcDbCircle
 10
662.2650109432166
 20
358.0312465919565
 30
0.0
 40
3.0
100
AcDbArc
 50
0.000000000000007
 51
89.99999999998371
  0
LINE
  5
16B5
330
18
100
AcDbEntity
  8
1
  6
Continuous
100
AcDbLine
 10
665.2650109432166
 20
356.0312465919565
 30
0.0
 11
627.2650109432166
 21
356.0312465919565
 31
0.0
  0
LINE
  5
16B6
330
18
100
AcDbEntity
  8
1
  6
Continuous
100
AcDbLine
 10
665.2650109432166
 20
357.2312465919565
 30
0.0
 11
627.2650109432166
 21
357.2312465919565
 31
0.0
  0
ARC
  5
16B7
330
18
100
AcDbEntity
  8
1
  6
Continuous
100
AcDbCircle
 10
681.2650109432166
 20
289.0312465919564
 30
0.0
 40
68.0
100
AcDbArc
 50
110.1982079999774
 51
133.1682399999733
  0
LINE
  5
16B8
330
18
100
AcDbEntity
  8
1
  6
Continuous
100
AcDbLine
 10
657.7867299432166
 20
352.8495065919565
 30
0.0
 11
657.7867299432166
 21
349.6428815919565
 31
0.0
  0
LINE
  5
16B9
330
18
100
AcDbEntity
  8
1
  6
Continuous
100
AcDbLine
 10
665.2650109432166
 20
355.7770325919565
 30
0.0
 11
665.2650109432166
 21
356.0312465919565
 31
0.0
  0
LINE
  5
16BA
330
18
100
AcDbEntity
  8
1
  6
Continuous
100
AcDbLine
 10
665.2650109432166
 20
357.2312465919565
 30
0.0
 11
665.2650109432166
 21
358.0312465919565
 31
0.0
  0
LINE
  5
16BB
330
18
100
AcDbEntity
  8
1
  6
Continuous
100
AcDbLine
 10
662.2650109432166
 20
357.2312465919565
 30
0.0
 11
662.2650109432166
 21
356.0312465919565
 31
0.0
  0
ARC
  5
16BC
330
18
100
AcDbEntity
  8
1
  6
Continuous
100
AcDbCircle
 10
668.2650109432167
 20
355.7770325919565
 30
0.0
 40
3.0
100
AcDbArc
 50
179.9999999999658
 51
281.0214499999455
  0
LINE
  5
16BD
330
18
100
AcDbEntity
  8
1
  6
Continuous
100
AcDbLine
 10
630.2650109432168
 20
357.2312465919565
 30
0.0
 11
630.2650109432168
 21
356.0312465919565
 31
0.0
  0
LINE
  5
16BE
330
18
100
AcDbEntity
  8
1
  6
Continuous
100
AcDbLine
 10
627.2650109432166
 20
357.2312465919565
 30
0.0
 11
627.2650109432166
 21
358.0312465919565
 31
0.0
  0
LINE
  5
16BF
330
18
100
AcDbEntity
  8
1
  6
Continuous
100
AcDbLine
 10
630.2650109432168
 20
361.0312465919566
 30
0.0
 11
662.2650109432166
 21
361.0312465919566
 31
0.0
  0
LINE
  5
16C0
330
18
100
AcDbEntity
  8
1
  6
Continuous
100
AcDbLine
 10
657.7650109432164
 20
369.0312465919565
 30
0.0
 11
634.7650109432168
 21
369.0312465919565
 31
0.0
  0
ARC
  5
16C1
330
18
100
AcDbEntity
  8
1
  6
Continuous
100
AcDbCircle
 10
650.2650112491782
 20
365.0312466684468
 30
0.0
 40
8.499999694038516
100
AcDbArc
 50
331.9275125486186
 51
28.0724874514503
  0
ARC
  5
16C2
330
18
100
AcDbEntity
  8
1
  6
Continuous
100
AcDbCircle
 10
644.5473412491781
 20
365.0312466684468
 30
0.0
 40
8.499999694038516
100
AcDbArc
 50
331.9275125486186
 51
28.0724874514503
  0
ARC
  5
16C3
330
18
100
AcDbEntity
  8
1
  6
Continuous
100
AcDbCircle
 10
647.982680637255
 20
365.0312466684468
 30
0.0
 40
8.499999694038516
100
AcDbArc
 50
151.9275125485497
 51
208.0724874513813
  0
LINE
  5
16C4
330
18
100
AcDbEntity
  8
1
  6
Continuous
100
AcDbLine
 10
654.2650109432166
 20
371.0312465919565
 30
0.0
 11
638.2650109432168
 21
371.0312465919565
 31
0.0
  0
ARC
  5
16C5
330
18
100
AcDbEntity
  8
1
  6
Continuous
100
AcDbCircle
 10
642.2650106372552
 20
365.0312466684468
 30
0.0
 40
8.499999694038516
100
AcDbArc
 50
151.9275125485497
 51
208.0724874513813
  0
LINE
  5
16C8
330
18
100
AcDbEntity
  8
1
  6
Continuous
100
AcDbLine
 10
654.2650109432166
 20
393.0312465919564
 30
0.0
 11
638.2650109432168
 21
393.0312465919564
 31
0.0
  0
LINE
  5
16C9
330
18
100
AcDbEntity
  8
1
  6
Continuous
100
AcDbLine
 10
653.2650109432166
 20
394.0312465919565
 30
0.0
 11
639.2650109432167
 21
394.0312465919565
 31
0.0
  0
LINE
  5
16CA
330
18
100
AcDbEntity
  8
1
  6
Continuous
100
AcDbLine
 10
654.2650109432166
 20
393.0312465919564
 30
0.0
 11
653.2650109432166
 21
394.0312465919565
 31
0.0
  0
LINE
  5
16CB
330
18
100
AcDbEntity
  8
1
  6
Continuous
100
AcDbLine
 10
639.2650109432167
 20
394.0312465919565
 30
0.0
 11
638.2650109432168
 21
393.0312465919564
 31
0.0
  0
LINE
  5
177D
330
18
100
AcDbEntity
  8
1
  6
Continuous
100
AcDbLine
 10
194.1333423366712
 20
65.99855859195663
 30
0.0
 11
181.6800451878138
 21
64.90903659195686
 31
0.0
  0
LINE
  5
177E
330
18
100
AcDbEntity
  8
1
  6
Continuous
100
AcDbLine
 10
194.1333459321123
 20
90.9985585919566
 30
0.0
 11
181.6800451878138
 21
92.08808159195696
 31
0.0
  0
ARC
  5
177F
330
18
100
AcDbEntity
  8
1
  6
Continuous
100
AcDbCircle
 10
274.8483701878139
 20
78.49855859195685
 30
0.0
 40
100.0
100
AcDbArc
 50
175.3549580000696
 51
184.6450420000676
  0
ARC
  5
1780
330
18
100
AcDbEntity
  8
1
  6
Continuous
100
AcDbCircle
 10
181.1571101878138
 20
70.88620459195698
 30
0.0
 40
6.0
100
AcDbArc
 50
184.6450420000676
 51
275.0000000000521
  0
ARC
  5
1781
330
18
100
AcDbEntity
  8
1
  6
Continuous
100
AcDbCircle
 10
185.7984781878139
 20
62.99855859195673
 30
0.0
 40
1.0
100
AcDbArc
 50
89.9999999999658
 51
179.9999999999479
  0
ARC
  5
1782
330
18
100
AcDbEntity
  8
1
  6
Continuous
100
AcDbCircle
 10
181.1571101878138
 20
86.11091259195694
 30
0.0
 40
6.0
100
AcDbArc
 50
85.00000000001337
 51
175.3549580000004
  0
ARC
  5
1783
330
18
100
AcDbEntity
  8
1
  6
Continuous
100
AcDbCircle
 10
185.7984781878139
 20
93.99855859195671
 30
0.0
 40
1.0
100
AcDbArc
 50
180.0000000000521
 51
270.0000000000342
  0
ENDSEC
  0
SECTION
  2
OBJECTS
  0
DICTIONARY
  5
C
330
0
100
AcDbDictionary
281
     1
  3
ACAD_CIP_PREVIOUS_PRODUCT_INFO
350
180B
  3
ACAD_COLOR
350
17EE
  3
ACAD_DETAILVIEWSTYLE
350
1807
  3
ACAD_GROUP
350
D
  3
ACAD_LAYOUT
350
94
  3
ACAD_MATERIAL
350
17BC
  3
ACAD_MLEADERSTYLE
350
1803
  3
ACAD_MLINESTYLE
350
1B
  3
ACAD_PLOTSETTINGS
350
95
  3
ACAD_PLOTSTYLENAME
350
17BA
  3
ACAD_SCALELIST
350
17F1
  3
ACAD_SECTIONVIEWSTYLE
350
1805
  3
ACAD_TABLESTYLE
350
17EF
  3
ACAD_VISUALSTYLE
350
17D5
  3
ACDB_RECOMPOSE_DATA
350
186F
  3
AcDbVariableDictionary
350
181E
  3
CONTENTDICTIONARY
350
3D
  3
DWGPROPS
350
1870
  0
DICTIONARY
  5
180E
330
E
100
AcDbDictionary
280
     1
281
     1
  3
ADSK_XREC_LAYER_RECONCILED
360
180F
  0
DICTIONARY
  5
1810
330
4E
100
AcDbDictionary
280
     1
281
     1
  3
ADSK_XREC_LAYER_RECONCILED
360
1811
  0
DICTIONARY
  5
1812
330
4F
100
AcDbDictionary
280
     1
281
     1
  3
ADSK_XREC_LAYER_RECONCILED
360
1813
  0
DICTIONARY
  5
1814
330
50
100
AcDbDictionary
280
     1
281
     1
  3
ADSK_XREC_LAYER_RECONCILED
360
1815
  0
DICTIONARY
  5
1816
330
51
100
AcDbDictionary
280
     1
281
     1
  3
ADSK_XREC_LAYER_RECONCILED
360
1817
  0
DICTIONARY
  5
1818
330
52
100
AcDbDictionary
280
     1
281
     1
  3
ADSK_XREC_LAYER_RECONCILED
360
1819
  0
DICTIONARY
  5
181A
330
53
100
AcDbDictionary
280
     1
281
     1
  3
ADSK_XREC_LAYER_RECONCILED
360
181B
  0
DICTIONARY
  5
181C
330
54
100
AcDbDictionary
280
     1
281
     1
  3
ADSK_XREC_LAYER_RECONCILED
360
181D
  0
DICTIONARY
  5
17B5
330
18
100
AcDbDictionary
281
     1
  3
ACAD_LAYOUTSELFREF
350
17B6
  0
DICTIONARY
  5
17B3
330
15
100
AcDbDictionary
281
     1
  3
ACAD_LAYOUTSELFREF
350
17B4
  0
XRECORD
  5
180B
102
{ACAD_REACTORS
330
C
102
}
330
C
100
AcDbXrecord
280
     1
300
ACDLT
300
2014
300
ACDLT_F_S
  0
DICTIONARY
  5
17EE
102
{ACAD_REACTORS
330
C
102
}
330
C
100
AcDbDictionary
281
     1
  0
DICTIONARY
  5
1807
102
{ACAD_REACTORS
330
C
102
}
330
C
100
AcDbDictionary
281
     1
  3
Imperial24
350
1808
  0
DICTIONARY
  5
D
102
{ACAD_REACTORS
330
C
102
}
330
C
100
AcDbDictionary
281
     1
  0
DICTIONARY
  5
94
102
{ACAD_REACTORS
330
C
102
}
330
C
100
AcDbDictionary
281
     1
  3
Model
350
1809
  3
レイアウト1
350
180A
  0
DICTIONARY
  5
17BC
102
{ACAD_REACTORS
330
C
102
}
330
C
100
AcDbDictionary
281
     1
  3
ByBlock
350
17C5
  3
ByLayer
350
17BD
  3
Global
350
17CD
  0
DICTIONARY
  5
1803
102
{ACAD_REACTORS
330
C
102
}
330
C
100
AcDbDictionary
281
     1
  3
Standard
350
1804
  0
DICTIONARY
  5
1B
102
{ACAD_REACTORS
330
C
102
}
330
C
100
AcDbDictionary
281
     1
  3
STANDARD
350
1C
  0
DICTIONARY
  5
95
102
{ACAD_REACTORS
330
C
102
}
330
C
100
AcDbDictionary
281
     1
  0
ACDBDICTIONARYWDFLT
  5
17BA
102
{ACAD_REACTORS
330
C
102
}
330
C
100
AcDbDictionary
281
     1
  3
Normal
350
17BB
100
AcDbDictionaryWithDefault
340
17BB
  0
DICTIONARY
  5
17F1
102
{ACAD_REACTORS
330
C
102
}
330
C
100
AcDbDictionary
281
     1
  3
A0
350
17F2
  3
A1
350
17F3
  3
A2
350
17F4
  3
A3
350
17F5
  3
A4
350
17F6
  3
A5
350
17F7
  3
A6
350
17F8
  3
A7
350
17F9
  3
A8
350
17FA
  3
A9
350
17FB
  3
B0
350
17FC
  3
B1
350
17FD
  3
B2
350
17FE
  3
B3
350
17FF
  3
B4
350
1800
  3
B5
350
1801
  3
B6
350
1802
  0
DICTIONARY
  5
1805
102
{ACAD_REACTORS
330
C
102
}
330
C
100
AcDbDictionary
281
     1
  3
Imperial24
350
1806
  0
DICTIONARY
  5
17EF
102
{ACAD_REACTORS
330
C
102
}
330
C
100
AcDbDictionary
281
     1
  3
Standard
350
17F0
  0
DICTIONARY
  5
17D5
102
{ACAD_REACTORS
330
C
102
}
330
C
100
AcDbDictionary
281
     1
  3
2dWireframe
350
17DB
  3
Basic
350
17DA
  3
Brighten
350
17E1
  3
ColorChange
350
17E5
  3
Conceptual
350
17DE
  3
Dim
350
17E0
  3
EdgeColorOff
350
17ED
  3
Facepattern
350
17E4
  3
Flat
350
17D6
  3
FlatWithEdges
350
17D7
  3
Gouraud
350
17D8
  3
GouraudWithEdges
350
17D9
  3
Hidden
350
17DD
  3
JitterOff
350
17EB
  3
Linepattern
350
17E3
  3
OverhangOff
350
17EC
  3
Realistic
350
17DF
  3
Shaded
350
17EA
  3
Shaded with edges
350
17E9
  3
Shades of Gray
350
17E6
  3
Sketchy
350
17E7
  3
Thicken
350
17E2
  3
Wireframe
350
17DC
  3
X-Ray
350
17E8
  0
XRECORD
  5
186F
102
{ACAD_REACTORS
330
C
102
}
330
C
100
AcDbXrecord
280
     1
 90
        1
330
17F0
  0
DICTIONARY
  5
181E
102
{ACAD_REACTORS
330
C
102
}
330
C
100
AcDbDictionary
281
     1
  3
CANNOSCALE
350
1823
  3
CMLEADERSTYLE
350
1820
  3
CTABLESTYLE
350
181F
  3
CVIEWDETAILSTYLE
350
1821
  3
CVIEWSECTIONSTYLE
350
1822
  3
DIMASSOC
350
1826
  3
INDEXCTL
350
1825
  3
SORTENTS
350
1824
  3
XCLIPFRAME
350
186D
  0
DICTIONARY
  5
3D
102
{ACAD_REACTORS
330
C
102
}
330
C
100
AcDbDictionary
281
     1
  0
XRECORD
  5
1870
102
{ACAD_REACTORS
330
C
102
}
330
C
100
AcDbXrecord
280
     1
  1
DWGPROPS COOKIE
  2

  3

  4

  6

  7

  8
Yoshitsune
  9

300
=
301
=
302
=
303
=
304
=
305
=
306
=
307
=
308
=
309
=
 40
0.1062850925925926
 41
2453811.402924803
 42
2457192.692065394
  1

 90
        0
  0
XRECORD
  5
180F
102
{ACAD_REACTORS
330
180E
102
}
330
180E
100
AcDbXrecord
280
     1
290
     1
  0
XRECORD
  5
1811
102
{ACAD_REACTORS
330
1810
102
}
330
1810
100
AcDbXrecord
280
     1
290
     1
  0
XRECORD
  5
1813
102
{ACAD_REACTORS
330
1812
102
}
330
1812
100
AcDbXrecord
280
     1
290
     1
  0
XRECORD
  5
1815
102
{ACAD_REACTORS
330
1814
102
}
330
1814
100
AcDbXrecord
280
     1
290
     1
  0
XRECORD
  5
1817
102
{ACAD_REACTORS
330
1816
102
}
330
1816
100
AcDbXrecord
280
     1
290
     1
  0
XRECORD
  5
1819
102
{ACAD_REACTORS
330
1818
102
}
330
1818
100
AcDbXrecord
280
     1
290
     1
  0
XRECORD
  5
181B
102
{ACAD_REACTORS
330
181A
102
}
330
181A
100
AcDbXrecord
280
     1
290
     1
  0
XRECORD
  5
181D
102
{ACAD_REACTORS
330
181C
102
}
330
181C
100
AcDbXrecord
280
     1
290
     1
  0
XRECORD
  5
17B6
102
{ACAD_REACTORS
330
17B5
102
}
330
17B5
100
AcDbXrecord
280
     1
340
18
  0
XRECORD
  5
17B4
102
{ACAD_REACTORS
330
17B3
102
}
330
17B3
100
AcDbXrecord
280
     1
340
15
  0
ACDBDETAILVIEWSTYLE
  5
1808
102
{ACAD_XDICTIONARY
360
18A4
102
}
102
{ACAD_REACTORS
330
1807
102
}
330
1807
100
AcDbModelDocViewStyle
 70
     0
  3
Imperial24
290
     0
100
AcDbDetailViewStyle
 70
     0
 71
     0
 90
        3
 71
     1
340
F
 40
0.24
340
0
 40
0.24
300

 40
0.36
280
     3
 71
     2
340
14
 90
       25
 71
     3
340
F
 40
0.24
 90
        1
 40
0.75
 90
        1
300
%<\AcVar ViewType \f "%tc1">% %<\AcVar ViewDetailId>%\PSCALE %<\AcVar ViewScale \f "%sn">%
 71
     4
340
14
 90
       25
340
14
 90
       25
280
     0
  0
LAYOUT
  5
1809
102
{ACAD_XDICTIONARY
360
18A6
102
}
102
{ACAD_REACTORS
330
94
102
}
330
94
100
AcDbPlotSettings
  1

  2
Canon LBP9100C
  4

  6

 40
0.0
 41
0.0
 42
0.0
 43
0.0
 44
0.0
 45
0.0
 46
0.0
 47
0.0
 48
0.0
 49
0.0
140
0.0
141
0.0
142
1.0
143
1.0
 70
  1712
 72
     0
 73
     0
 74
     0
  7

 75
     0
147
1.0
148
0.0
149
0.0
100
AcDbLayout
  1
Model
 70
     1
 71
     0
 10
0.0
 20
0.0
 11
12.0
 21
9.0
 12
0.0
 22
0.0
 32
0.0
 14
0.0
 24
0.0
 34
0.0
 15
0.0
 25
0.0
 35
0.0
146
0.0
 13
0.0
 23
0.0
 33
0.0
 16
1.0
 26
0.0
 36
0.0
 17
0.0
 27
1.0
 37
0.0
 76
     0
330
18
331
17B2
  0
LAYOUT
  5
180A
102
{ACAD_XDICTIONARY
360
18A8
102
}
102
{ACAD_REACTORS
330
94
102
}
330
94
100
AcDbPlotSettings
  1

  2
Canon LBP9100C
  4

  6

 40
0.0
 41
0.0
 42
0.0
 43
0.0
 44
0.0
 45
0.0
 46
0.0
 47
0.0
 48
0.0
 49
0.0
140
0.0
141
0.0
142
1.0
143
1.0
 70
   688
 72
     0
 73
     0
 74
     5
  7

 75
    16
147
1.0
148
0.0
149
0.0
100
AcDbLayout
  1
レイアウト1
 70
     1
 71
     1
 10
0.0
 20
0.0
 11
420.0
 21
297.0
 12
0.0
 22
0.0
 32
0.0
 14
1.000000000000000E+20
 24
1.000000000000000E+20
 34
1.000000000000000E+20
 15
-1.000000000000000E+20
 25
-1.000000000000000E+20
 35
-1.000000000000000E+20
146
0.0
 13
0.0
 23
0.0
 33
0.0
 16
1.0
 26
0.0
 36
0.0
 17
0.0
 27
1.0
 37
0.0
 76
     0
330
15
  0
MATERIAL
  5
17C5
102
{ACAD_XDICTIONARY
360
17C6
102
}
102
{ACAD_REACTORS
330
17BC
102
}
330
17BC
100
AcDbMaterial
  1
ByBlock
 72
     0
 43
0.0208333333333333
 43
0.0
 43
0.0
 43
0.0
 43
0.0
 43
0.0208333333333333
 43
0.0
 43
0.0
 43
0.0
 43
0.0
 43
1.0
 43
0.0
 43
0.0
 43
0.0
 43
0.0
 43
1.0
 77
     0
 47
0.0208333333333333
 47
0.0
 47
0.0
 47
0.0
 47
0.0
 47
0.0208333333333333
 47
0.0
 47
0.0
 47
0.0
 47
0.0
 47
1.0
 47
0.0
 47
0.0
 47
0.0
 47
0.0
 47
1.0
171
     0
 49
0.0208333333333333
 49
0.0
 49
0.0
 49
0.0
 49
0.0
 49
0.0208333333333333
 49
0.0
 49
0.0
 49
0.0
 49
0.0
 49
1.0
 49
0.0
 49
0.0
 49
0.0
 49
0.0
 49
1.0
175
     0
142
0.0208333333333333
142
0.0
142
0.0
142
0.0
142
0.0
142
0.0208333333333333
142
0.0
142
0.0
142
0.0
142
0.0
142
1.0
142
0.0
142
0.0
142
0.0
142
0.0
142
1.0
179
     0
144
0.0208333333333333
144
0.0
144
0.0
144
0.0
144
0.0
144
0.0208333333333333
144
0.0
144
0.0
144
0.0
144
0.0
144
1.0
144
0.0
144
0.0
144
0.0
144
0.0
144
1.0
147
0.0208333333333333
147
0.0
147
0.0
147
0.0
147
0.0
147
0.0208333333333333
147
0.0
147
0.0
147
0.0
147
0.0
147
1.0
147
0.0
147
0.0
147
0.0
147
0.0
147
1.0
  0
MATERIAL
  5
17BD
102
{ACAD_XDICTIONARY
360
17BE
102
}
102
{ACAD_REACTORS
330
17BC
102
}
330
17BC
100
AcDbMaterial
  1
ByLayer
 72
     0
 43
0.0208333333333333
 43
0.0
 43
0.0
 43
0.0
 43
0.0
 43
0.0208333333333333
 43
0.0
 43
0.0
 43
0.0
 43
0.0
 43
1.0
 43
0.0
 43
0.0
 43
0.0
 43
0.0
 43
1.0
 77
     0
 47
0.0208333333333333
 47
0.0
 47
0.0
 47
0.0
 47
0.0
 47
0.0208333333333333
 47
0.0
 47
0.0
 47
0.0
 47
0.0
 47
1.0
 47
0.0
 47
0.0
 47
0.0
 47
0.0
 47
1.0
171
     0
 49
0.0208333333333333
 49
0.0
 49
0.0
 49
0.0
 49
0.0
 49
0.0208333333333333
 49
0.0
 49
0.0
 49
0.0
 49
0.0
 49
1.0
 49
0.0
 49
0.0
 49
0.0
 49
0.0
 49
1.0
175
     0
142
0.0208333333333333
142
0.0
142
0.0
142
0.0
142
0.0
142
0.0208333333333333
142
0.0
142
0.0
142
0.0
142
0.0
142
1.0
142
0.0
142
0.0
142
0.0
142
0.0
142
1.0
179
     0
144
0.0208333333333333
144
0.0
144
0.0
144
0.0
144
0.0
144
0.0208333333333333
144
0.0
144
0.0
144
0.0
144
0.0
144
1.0
144
0.0
144
0.0
144
0.0
144
0.0
144
1.0
147
0.0208333333333333
147
0.0
147
0.0
147
0.0
147
0.0
147
0.0208333333333333
147
0.0
147
0.0
147
0.0
147
0.0
147
1.0
147
0.0
147
0.0
147
0.0
147
0.0
147
1.0
  0
MATERIAL
  5
17CD
102
{ACAD_XDICTIONARY
360
17CE
102
}
102
{ACAD_REACTORS
330
17BC
102
}
330
17BC
100
AcDbMaterial
  1
Global
 72
     0
 43
0.0208333333333333
 43
0.0
 43
0.0
 43
0.0
 43
0.0
 43
0.0208333333333333
 43
0.0
 43
0.0
 43
0.0
 43
0.0
 43
1.0
 43
0.0
 43
0.0
 43
0.0
 43
0.0
 43
1.0
 77
     0
 47
0.0208333333333333
 47
0.0
 47
0.0
 47
0.0
 47
0.0
 47
0.0208333333333333
 47
0.0
 47
0.0
 47
0.0
 47
0.0
 47
1.0
 47
0.0
 47
0.0
 47
0.0
 47
0.0
 47
1.0
171
     0
 49
0.0208333333333333
 49
0.0
 49
0.0
 49
0.0
 49
0.0
 49
0.0208333333333333
 49
0.0
 49
0.0
 49
0.0
 49
0.0
 49
1.0
 49
0.0
 49
0.0
 49
0.0
 49
0.0
 49
1.0
175
     0
142
0.0208333333333333
142
0.0
142
0.0
142
0.0
142
0.0
142
0.0208333333333333
142
0.0
142
0.0
142
0.0
142
0.0
142
1.0
142
0.0
142
0.0
142
0.0
142
0.0
142
1.0
179
     0
144
0.0208333333333333
144
0.0
144
0.0
144
0.0
144
0.0
144
0.0208333333333333
144
0.0
144
0.0
144
0.0
144
0.0
144
1.0
144
0.0
144
0.0
144
0.0
144
0.0
144
1.0
147
0.0208333333333333
147
0.0
147
0.0
147
0.0
147
0.0
147
0.0208333333333333
147
0.0
147
0.0
147
0.0
147
0.0
147
1.0
147
0.0
147
0.0
147
0.0
147
0.0
147
1.0
  0
MLEADERSTYLE
  5
1804
102
{ACAD_REACTORS
330
1803
102
}
330
1803
100
AcDbMLeaderStyle
170
     2
171
     1
172
     0
 90
        2
 40
0.0
 41
0.0
173
     1
 91
-1056964608
340
12
 92
       -2
290
     1
 42
0.09
291
     1
 43
0.36
  3
Standard
 44
0.18
300

342
F
174
     1
178
     6
175
     1
176
     0
 93
-1056964608
 45
0.18
292
     0
297
     0
 46
0.18
 94
-1056964608
 47
1.0
 49
1.0
140
1.0
293
     1
141
0.0
294
     1
177
     0
142
1.0
295
     0
296
     0
143
0.125
1001
ACAD_MLEADERVER
1070
     2
  0
MLINESTYLE
  5
1C
102
{ACAD_REACTORS
330
1B
102
}
330
1B
100
AcDbMlineStyle
  2
STANDARD
 70
     0
  3

 62
   256
 51
90.0
 52
90.0
 71
     2
 49
0.5
 62
   256
  6
BYLAYER
 49
-0.5
 62
   256
  6
BYLAYER
  0
ACDBPLACEHOLDER
  5
17BB
102
{ACAD_REACTORS
330
17BA
102
}
330
17BA
  0
SCALE
  5
17F2
102
{ACAD_REACTORS
330
17F1
102
}
330
17F1
100
AcDbScale
 70
     0
300
1:1
140
1.0
141
1.0
290
     1
  0
SCALE
  5
17F3
102
{ACAD_REACTORS
330
17F1
102
}
330
17F1
100
AcDbScale
 70
     0
300
1/128" = 1'-0"
140
0.0078125
141
12.0
290
     0
  0
SCALE
  5
17F4
102
{ACAD_REACTORS
330
17F1
102
}
330
17F1
100
AcDbScale
 70
     0
300
1/64" = 1'-0"
140
0.015625
141
12.0
290
     0
  0
SCALE
  5
17F5
102
{ACAD_REACTORS
330
17F1
102
}
330
17F1
100
AcDbScale
 70
     0
300
1/32" = 1'-0"
140
0.03125
141
12.0
290
     0
  0
SCALE
  5
17F6
102
{ACAD_REACTORS
330
17F1
102
}
330
17F1
100
AcDbScale
 70
     0
300
1/16" = 1'-0"
140
0.0625
141
12.0
290
     0
  0
SCALE
  5
17F7
102
{ACAD_REACTORS
330
17F1
102
}
330
17F1
100
AcDbScale
 70
     0
300
3/32" = 1'-0"
140
0.09375
141
12.0
290
     0
  0
SCALE
  5
17F8
102
{ACAD_REACTORS
330
17F1
102
}
330
17F1
100
AcDbScale
 70
     0
300
1/8" = 1'-0"
140
0.125
141
12.0
290
     0
  0
SCALE
  5
17F9
102
{ACAD_REACTORS
330
17F1
102
}
330
17F1
100
AcDbScale
 70
     0
300
3/16" = 1'-0"
140
0.1875
141
12.0
290
     0
  0
SCALE
  5
17FA
102
{ACAD_REACTORS
330
17F1
102
}
330
17F1
100
AcDbScale
 70
     0
300
1/4" = 1'-0"
140
0.25
141
12.0
290
     0
  0
SCALE
  5
17FB
102
{ACAD_REACTORS
330
17F1
102
}
330
17F1
100
AcDbScale
 70
     0
300
3/8" = 1'-0"
140
0.375
141
12.0
290
     0
  0
SCALE
  5
17FC
102
{ACAD_REACTORS
330
17F1
102
}
330
17F1
100
AcDbScale
 70
     0
300
1/2" = 1'-0"
140
0.5
141
12.0
290
     0
  0
SCALE
  5
17FD
102
{ACAD_REACTORS
330
17F1
102
}
330
17F1
100
AcDbScale
 70
     0
300
3/4" = 1'-0"
140
0.75
141
12.0
290
     0
  0
SCALE
  5
17FE
102
{ACAD_REACTORS
330
17F1
102
}
330
17F1
100
AcDbScale
 70
     0
300
1" = 1'-0"
140
1.0
141
12.0
290
     0
  0
SCALE
  5
17FF
102
{ACAD_REACTORS
330
17F1
102
}
330
17F1
100
AcDbScale
 70
     0
300
1-1/2" = 1'-0"
140
1.5
141
12.0
290
     0
  0
SCALE
  5
1800
102
{ACAD_REACTORS
330
17F1
102
}
330
17F1
100
AcDbScale
 70
     0
300
3" = 1'-0"
140
3.0
141
12.0
290
     0
  0
SCALE
  5
1801
102
{ACAD_REACTORS
330
17F1
102
}
330
17F1
100
AcDbScale
 70
     0
300
6" = 1'-0"
140
6.0
141
12.0
290
     0
  0
SCALE
  5
1802
102
{ACAD_REACTORS
330
17F1
102
}
330
17F1
100
AcDbScale
 70
     0
300
1'-0" = 1'-0"
140
12.0
141
12.0
290
     0
  0
ACDBSECTIONVIEWSTYLE
  5
1806
102
{ACAD_XDICTIONARY
360
18A2
102
}
102
{ACAD_REACTORS
330
1805
102
}
330
1805
100
AcDbModelDocViewStyle
 70
     0
  3
Imperial24
290
     0
100
AcDbSectionViewStyle
 70
     0
 71
     0
 90
       78
 71
     1
340
F
 40
0.24
340
0
340
0
 40
0.24
300
I, O, Q, S, X, Z
 40
0.48
 90
        3
 40
0.18
 90
        1
 71
     2
340
14
 90
       25
340
14
 90
       50
 40
0.24
 40
0.0
 40
0.24
 71
     3
340
F
 40
0.24
 90
        1
 40
0.75
 90
        1
300
%<\AcVar ViewType \f "%tc1">% %<\AcVar ViewSectionStartId>%-%<\AcVar ViewSectionEndId>%\PSCALE %<\AcVar ViewScale \f "%sn">%
 71
     4
300
ANSI31
 40
1.0
 90
        0
290
     0
290
     0
 90
        6
 40
0.0
 40
1.570796326794896
 40
0.2617993877991494
 40
1.308996938995747
 40
-0.2617993877991494
 40
1.832595714594045
  0
TABLESTYLE
  5
17F0
102
{ACAD_XDICTIONARY
360
1829
102
}
102
{ACAD_REACTORS
330
17EF
102
}
330
17EF
100
AcDbTableStyle
  3
Standard
 70
     0
 71
     0
 40
0.06
 41
0.06
280
     0
281
     0
  7
STANDARD
140
0.18
170
     2
 62
     0
 63
     7
283
     0
274
    -2
284
     1
 64
     0
275
    -2
285
     1
 65
     0
276
    -2
286
     1
 66
     0
277
    -2
287
     1
 67
     0
278
    -2
288
     1
 68
     0
279
    -2
289
     1
 69
     0
  7
STANDARD
140
0.25
170
     5
 62
     0
 63
     7
283
     0
274
    -2
284
     1
 64
     0
275
    -2
285
     1
 65
     0
276
    -2
286
     1
 66
     0
277
    -2
287
     1
 67
     0
278
    -2
288
     1
 68
     0
279
    -2
289
     1
 69
     0
  7
STANDARD
140
0.18
170
     5
 62
     0
 63
     7
283
     0
274
    -2
284
     1
 64
     0
275
    -2
285
     1
 65
     0
276
    -2
286
     1
 66
     0
277
    -2
287
     1
 67
     0
278
    -2
288
     1
 68
     0
279
    -2
289
     1
 69
     0
  0
VISUALSTYLE
  5
17DB
102
{ACAD_XDICTIONARY
360
187B
102
}
102
{ACAD_REACTORS
330
17D5
102
}
330
17D5
100
AcDbVisualStyle
  2

 70
     4
 71
     0
 72
     2
 73
     0
 90
        0
 40
-0.6
 41
-30.0
 62
     5
 63
     7
 74
     1
 91
        4
 64
     7
 65
   257
 75
     1
175
     1
 42
1.0
 92
        0
 66
   257
 43
1.0
 76
     1
 77
     6
 78
     2
 67
     7
 79
     5
170
     0
171
     0
290
     0
174
     0
 93
        1
 44
0.0
173
     0
291
     0
 45
0.0
1001
ACAD
1000
AcDbSavedByObjectVersion
1070
     0
  0
VISUALSTYLE
  5
17DA
102
{ACAD_XDICTIONARY
360
1879
102
}
102
{ACAD_REACTORS
330
17D5
102
}
330
17D5
100
AcDbVisualStyle
  2

 70
     7
 71
     1
 72
     0
 73
     1
 90
        0
 40
-0.6
 41
-30.0
 62
     5
 63
     7
 74
     0
 91
        4
 64
     7
 65
   257
 75
     1
175
     1
 42
1.0
 92
        8
 66
     7
 43
1.0
 76
     1
 77
     6
 78
     2
 67
     7
 79
     5
170
     0
171
     0
290
     0
174
     0
 93
        1
 44
0.0
173
     0
291
     1
 45
0.0
1001
ACAD
1000
AcDbSavedByObjectVersion
1070
     0
  0
VISUALSTYLE
  5
17E1
102
{ACAD_XDICTIONARY
360
1887
102
}
102
{ACAD_REACTORS
330
17D5
102
}
330
17D5
100
AcDbVisualStyle
  2

 70
    12
 71
     2
 72
     2
 73
     0
 90
        0
 40
-0.6
 41
-30.0
 62
     5
 63
     7
 74
     1
 91
        4
 64
     7
 65
   257
 75
     1
175
     1
 42
1.0
 92
        8
 66
     7
 43
1.0
 76
     1
 77
     6
 78
     2
 67
     7
 79
     5
170
     0
171
     0
290
     0
174
     0
 93
        1
 44
50.0
173
     0
291
     1
 45
0.0
1001
ACAD
1000
AcDbSavedByObjectVersion
1070
     0
  0
VISUALSTYLE
  5
17E5
102
{ACAD_XDICTIONARY
360
188F
102
}
102
{ACAD_REACTORS
330
17D5
102
}
330
17D5
100
AcDbVisualStyle
  2

 70
    16
 71
     2
 72
     2
 73
     3
 90
        0
 40
-0.6
 41
-30.0
 62
     5
 63
     8
 74
     1
 91
        4
 64
     7
 65
   257
 75
     1
175
     1
 42
1.0
 92
        8
 66
     8
 43
1.0
 76
     1
 77
     6
 78
     2
 67
     7
 79
     5
170
     0
171
     0
290
     0
174
     0
 93
        1
 44
0.0
173
     0
291
     1
 45
0.0
1001
ACAD
1000
AcDbSavedByObjectVersion
1070
     0
  0
VISUALSTYLE
  5
17DE
102
{ACAD_XDICTIONARY
360
1881
102
}
102
{ACAD_REACTORS
330
17D5
102
}
330
17D5
100
AcDbVisualStyle
  2

 70
     9
 71
     3
 72
     2
 73
     0
 90
        0
 40
-0.6
 41
-30.0
 62
     5
 63
     7
 74
     2
 91
        2
 64
     7
 65
   257
 75
     1
175
     1
 42
179.0
 92
        8
 66
     7
 43
1.0
 76
     1
 77
     6
 78
     2
 67
     7
 79
     3
170
     0
171
     0
290
     0
174
     0
 93
        1
 44
0.0
173
     0
291
     0
 45
0.0
1001
ACAD
1000
AcDbSavedByObjectVersion
1070
     0
  0
VISUALSTYLE
  5
17E0
102
{ACAD_XDICTIONARY
360
1885
102
}
102
{ACAD_REACTORS
330
17D5
102
}
330
17D5
100
AcDbVisualStyle
  2

 70
    11
 71
     2
 72
     2
 73
     0
 90
        0
 40
-0.6
 41
-30.0
 62
     5
 63
     7
 74
     1
 91
        4
 64
     7
 65
   257
 75
     1
175
     1
 42
1.0
 92
        8
 66
     7
 43
1.0
 76
     1
 77
     6
 78
     2
 67
     7
 79
     5
170
     0
171
     0
290
     0
174
     0
 93
        1
 44
-50.0
173
     0
291
     1
 45
0.0
1001
ACAD
1000
AcDbSavedByObjectVersion
1070
     0
  0
VISUALSTYLE
  5
17ED
102
{ACAD_XDICTIONARY
360
189F
102
}
102
{ACAD_REACTORS
330
17D5
102
}
330
17D5
100
AcDbVisualStyle
  2

 70
    22
 71
     2
 72
     2
 73
     0
 90
        0
 40
-0.6
 41
-30.0
 62
     5
 63
     7
 74
     1
 91
        4
 64
     7
 65
   257
 75
     1
175
     1
 42
1.0
 92
        8
 66
     7
 43
1.0
 76
     1
 77
     6
 78
     2
 67
     7
 79
     5
170
     0
171
     0
290
     0
174
     0
 93
        1
 44
0.0
173
     0
291
     1
 45
0.0
1001
ACAD
1000
AcDbSavedByObjectVersion
1070
     0
  0
VISUALSTYLE
  5
17E4
102
{ACAD_XDICTIONARY
360
188D
102
}
102
{ACAD_REACTORS
330
17D5
102
}
330
17D5
100
AcDbVisualStyle
  2

 70
    15
 71
     2
 72
     2
 73
     0
 90
        0
 40
-0.6
 41
-30.0
 62
     5
 63
     7
 74
     1
 91
        4
 64
     7
 65
   257
 75
     1
175
     1
 42
1.0
 92
        8
 66
     7
 43
1.0
 76
     1
 77
     6
 78
     2
 67
     7
 79
     5
170
     0
171
     0
290
     0
174
     0
 93
        1
 44
0.0
173
     0
291
     1
 45
0.0
1001
ACAD
1000
AcDbSavedByObjectVersion
1070
     0
  0
VISUALSTYLE
  5
17D6
102
{ACAD_XDICTIONARY
360
1871
102
}
102
{ACAD_REACTORS
330
17D5
102
}
330
17D5
100
AcDbVisualStyle
  2

 70
     0
 71
     2
 72
     1
 73
     1
 90
        2
 40
-0.6
 41
30.0
 62
     5
 63
     7
 74
     0
 91
        0
 64
     7
 65
   257
 75
     1
175
     1
 42
1.0
 92
        8
 66
     7
 43
1.0
 76
     1
 77
     6
 78
     2
 67
     7
 79
     5
170
     0
171
     0
290
     0
174
     0
 93
       13
 44
0.0
173
     0
291
     1
 45
0.0
1001
ACAD
1000
AcDbSavedByObjectVersion
1070
     0
  0
VISUALSTYLE
  5
17D7
102
{ACAD_XDICTIONARY
360
1873
102
}
102
{ACAD_REACTORS
330
17D5
102
}
330
17D5
100
AcDbVisualStyle
  2

 70
     1
 71
     2
 72
     1
 73
     1
 90
        2
 40
-0.6
 41
30.0
 62
     5
 63
     7
 74
     1
 91
        0
 64
     7
 65
   257
 75
     1
175
     1
 42
1.0
 92
        0
 66
   257
 43
1.0
 76
     1
 77
     6
 78
     2
 67
     7
 79
     5
170
     0
171
     0
290
     0
174
     0
 93
       13
 44
0.0
173
     0
291
     1
 45
0.0
1001
ACAD
1000
AcDbSavedByObjectVersion
1070
     0
  0
VISUALSTYLE
  5
17D8
102
{ACAD_XDICTIONARY
360
1875
102
}
102
{ACAD_REACTORS
330
17D5
102
}
330
17D5
100
AcDbVisualStyle
  2

 70
     2
 71
     2
 72
     2
 73
     1
 90
        2
 40
-0.6
 41
30.0
 62
     5
 63
     7
 74
     0
 91
        0
 64
     7
 65
   257
 75
     1
175
     1
 42
1.0
 92
        0
 66
     7
 43
1.0
 76
     1
 77
     6
 78
     2
 67
     7
 79
     5
170
     0
171
     0
290
     0
174
     0
 93
       13
 44
0.0
173
     0
291
     1
 45
0.0
1001
ACAD
1000
AcDbSavedByObjectVersion
1070
     0
  0
VISUALSTYLE
  5
17D9
102
{ACAD_XDICTIONARY
360
1877
102
}
102
{ACAD_REACTORS
330
17D5
102
}
330
17D5
100
AcDbVisualStyle
  2

 70
     3
 71
     2
 72
     2
 73
     1
 90
        2
 40
-0.6
 41
30.0
 62
     5
 63
     7
 74
     1
 91
        0
 64
     7
 65
   257
 75
     1
175
     1
 42
1.0
 92
        0
 66
   257
 43
1.0
 76
     1
 77
     6
 78
     2
 67
     7
 79
     5
170
     0
171
     0
290
     0
174
     0
 93
       13
 44
0.0
173
     0
291
     1
 45
0.0
1001
ACAD
1000
AcDbSavedByObjectVersion
1070
     0
  0
VISUALSTYLE
  5
17DD
102
{ACAD_XDICTIONARY
360
187F
102
}
102
{ACAD_REACTORS
330
17D5
102
}
330
17D5
100
AcDbVisualStyle
  2

 70
     6
 71
     1
 72
     2
 73
     2
 90
        0
 40
-0.6
 41
-30.0
 62
     5
 63
     7
 74
     2
 91
        2
 64
     7
 65
   257
 75
     2
175
     1
 42
40.0
 92
        0
 66
   257
 43
1.0
 76
     1
 77
     6
 78
     2
 67
     7
 79
     3
170
     0
171
     0
290
     0
174
     0
 93
        1
 44
0.0
173
     0
291
     0
 45
0.0
1001
ACAD
1000
AcDbSavedByObjectVersion
1070
     0
  0
VISUALSTYLE
  5
17EB
102
{ACAD_XDICTIONARY
360
189B
102
}
102
{ACAD_REACTORS
330
17D5
102
}
330
17D5
100
AcDbVisualStyle
  2

 70
    20
 71
     2
 72
     2
 73
     0
 90
        0
 40
-0.6
 41
-30.0
 62
     5
 63
     7
 74
     1
 91
        4
 64
     7
 65
   257
 75
     1
175
     1
 42
1.0
 92
       10
 66
     7
 43
1.0
 76
     1
 77
     6
 78
     2
 67
     7
 79
     5
170
     0
171
     0
290
     0
174
     0
 93
        1
 44
0.0
173
     0
291
     1
 45
0.0
1001
ACAD
1000
AcDbSavedByObjectVersion
1070
     0
  0
VISUALSTYLE
  5
17E3
102
{ACAD_XDICTIONARY
360
188B
102
}
102
{ACAD_REACTORS
330
17D5
102
}
330
17D5
100
AcDbVisualStyle
  2

 70
    14
 71
     2
 72
     2
 73
     0
 90
        0
 40
-0.6
 41
-30.0
 62
     5
 63
     7
 74
     1
 91
        4
 64
     7
 65
   257
 75
     7
175
     7
 42
1.0
 92
        8
 66
     7
 43
1.0
 76
     1
 77
     6
 78
     2
 67
     7
 79
     5
170
     0
171
     0
290
     0
174
     0
 93
        1
 44
0.0
173
     0
291
     1
 45
0.0
1001
ACAD
1000
AcDbSavedByObjectVersion
1070
     0
  0
VISUALSTYLE
  5
17EC
102
{ACAD_XDICTIONARY
360
189D
102
}
102
{ACAD_REACTORS
330
17D5
102
}
330
17D5
100
AcDbVisualStyle
  2

 70
    21
 71
     2
 72
     2
 73
     0
 90
        0
 40
-0.6
 41
-30.0
 62
     5
 63
     7
 74
     1
 91
        4
 64
     7
 65
   257
 75
     1
175
     1
 42
1.0
 92
        9
 66
     7
 43
1.0
 76
     1
 77
     6
 78
     2
 67
     7
 79
     5
170
     0
171
     0
290
     0
174
     0
 93
        1
 44
0.0
173
     0
291
     1
 45
0.0
1001
ACAD
1000
AcDbSavedByObjectVersion
1070
     0
  0
VISUALSTYLE
  5
17DF
102
{ACAD_XDICTIONARY
360
1883
102
}
102
{ACAD_REACTORS
330
17D5
102
}
330
17D5
100
AcDbVisualStyle
  2

 70
     8
 71
     2
 72
     3
 73
     0
 90
        2
 40
-0.6
 41
30.0
 62
     5
 63
     7
 74
     0
 91
        0
 64
     7
 65
   257
 75
     1
175
     1
 42
1.0
 92
        8
 66
   257
 43
1.0
 76
     1
 77
     6
 78
     2
 67
     7
 79
     3
170
     0
171
     0
290
     0
174
     0
 93
       13
 44
0.0
173
     0
291
     0
 45
0.0
1001
ACAD
1000
AcDbSavedByObjectVersion
1070
     0
  0
VISUALSTYLE
  5
17EA
102
{ACAD_XDICTIONARY
360
1899
102
}
102
{ACAD_REACTORS
330
17D5
102
}
330
17D5
100
AcDbVisualStyle
  2

 70
    27
 71
     2
 72
     2
 73
     1
 90
        2
 40
-0.6
 41
30.0
 62
     5
 63
     7
 74
     0
 91
        4
 64
     7
 65
   257
 75
     1
175
     1
 42
1.0
 92
        8
 66
   257
 43
1.0
 76
     1
 77
     6
 78
     2
 67
     8
 79
     3
170
     0
171
     0
290
     0
174
     0
 93
        5
 44
0.0
173
     0
291
     0
 45
0.0
1001
ACAD
1000
AcDbSavedByObjectVersion
1070
     0
  0
VISUALSTYLE
  5
17E9
102
{ACAD_XDICTIONARY
360
1897
102
}
102
{ACAD_REACTORS
330
17D5
102
}
330
17D5
100
AcDbVisualStyle
  2

 70
    26
 71
     2
 72
     2
 73
     1
 90
        2
 40
-0.6
 41
30.0
 62
     5
 63
     7
 74
     1
 91
       10
 64
     7
 65
   257
 75
     2
175
     1
 42
1.0
 92
        8
 66
   257
 43
1.0
 76
     1
 77
     6
 78
     2
 67
     7
 79
     3
170
     0
171
     0
290
     0
174
     0
 93
        5
 44
0.0
173
     0
291
     0
 45
0.0
1001
ACAD
1000
AcDbSavedByObjectVersion
1070
     0
  0
VISUALSTYLE
  5
17E6
102
{ACAD_XDICTIONARY
360
1891
102
}
102
{ACAD_REACTORS
330
17D5
102
}
330
17D5
100
AcDbVisualStyle
  2

 70
    23
 71
     2
 72
     2
 73
     3
 90
        0
 40
-0.6
 41
-30.0
 62
     5
 63
     7
 74
     2
 91
        2
 64
     7
 65
     7
 75
     1
175
     1
 42
40.0
 92
        8
 66
     7
 43
1.0
 76
     1
 77
     6
 78
     2
 67
     7
 79
     3
170
     0
171
     0
290
     0
174
     0
 93
        1
 44
0.0
173
     0
291
     0
 45
0.0
1001
ACAD
1000
AcDbSavedByObjectVersion
1070
     0
  0
VISUALSTYLE
  5
17E7
102
{ACAD_XDICTIONARY
360
1893
102
}
102
{ACAD_REACTORS
330
17D5
102
}
330
17D5
100
AcDbVisualStyle
  2

 70
    24
 71
     1
 72
     2
 73
     2
 90
        0
 40
-0.6
 41
-30.0
 62
     5
 63
     7
 74
     2
 91
        2
 64
     7
 65
     7
 75
     1
175
     1
 42
40.0
 92
       11
 66
     7
 43
1.0
 76
     1
 77
     6
 78
     2
 67
     7
 79
     6
170
     0
171
     0
290
     0
174
     0
 93
        1
 44
0.0
173
     0
291
     0
 45
0.0
1001
ACAD
1000
AcDbSavedByObjectVersion
1070
     0
  0
VISUALSTYLE
  5
17E2
102
{ACAD_XDICTIONARY
360
1889
102
}
102
{ACAD_REACTORS
330
17D5
102
}
330
17D5
100
AcDbVisualStyle
  2

 70
    13
 71
     2
 72
     2
 73
     0
 90
        0
 40
-0.6
 41
-30.0
 62
     5
 63
     7
 74
     1
 91
        4
 64
     7
 65
   257
 75
     1
175
     1
 42
1.0
 92
       12
 66
     7
 43
1.0
 76
     1
 77
     6
 78
     2
 67
     7
 79
     5
170
     0
171
     0
290
     0
174
     0
 93
        1
 44
0.0
173
     0
291
     1
 45
0.0
1001
ACAD
1000
AcDbSavedByObjectVersion
1070
     0
  0
VISUALSTYLE
  5
17DC
102
{ACAD_XDICTIONARY
360
187D
102
}
102
{ACAD_REACTORS
330
17D5
102
}
330
17D5
100
AcDbVisualStyle
  2

 70
     5
 71
     0
 72
     2
 73
     0
 90
        0
 40
-0.6
 41
-30.0
 62
     5
 63
     7
 74
     1
 91
        4
 64
     7
 65
   257
 75
     1
175
     1
 42
1.0
 92
        0
 66
   257
 43
1.0
 76
     1
 77
     6
 78
     2
 67
     7
 79
     3
170
     0
171
     0
290
     0
174
     0
 93
        1
 44
0.0
173
     0
291
     0
 45
0.0
1001
ACAD
1000
AcDbSavedByObjectVersion
1070
     0
  0
VISUALSTYLE
  5
17E8
102
{ACAD_XDICTIONARY
360
1895
102
}
102
{ACAD_REACTORS
330
17D5
102
}
330
17D5
100
AcDbVisualStyle
  2

 70
    25
 71
     2
 72
     2
 73
     1
 90
        1
 40
0.5
 41
-30.0
 62
     5
 63
     7
 74
     1
 91
        0
 64
     7
 65
   257
 75
     1
175
     1
 42
1.0
 92
        8
 66
     7
 43
1.0
 76
     1
 77
     6
 78
     2
 67
     7
 79
     3
170
     0
171
     0
290
     0
174
     0
 93
       13
 44
0.0
173
     0
291
     0
 45
0.0
1001
ACAD
1000
AcDbSavedByObjectVersion
1070
     0
  0
DICTIONARYVAR
  5
1823
102
{ACAD_REACTORS
330
181E
102
}
330
181E
100
DictionaryVariables
280
     0
  1
1:1
  0
DICTIONARYVAR
  5
1820
102
{ACAD_REACTORS
330
181E
102
}
330
181E
100
DictionaryVariables
280
     0
  1
STANDARD
  0
DICTIONARYVAR
  5
181F
102
{ACAD_REACTORS
330
181E
102
}
330
181E
100
DictionaryVariables
280
     0
  1
STANDARD
  0
DICTIONARYVAR
  5
1821
102
{ACAD_REACTORS
330
181E
102
}
330
181E
100
DictionaryVariables
280
     0
  1
Imperial24
  0
DICTIONARYVAR
  5
1822
102
{ACAD_REACTORS
330
181E
102
}
330
181E
100
DictionaryVariables
280
     0
  1
Imperial24
  0
DICTIONARYVAR
  5
1826
102
{ACAD_REACTORS
330
181E
102
}
330
181E
100
DictionaryVariables
280
     0
  1
1
  0
DICTIONARYVAR
  5
1825
102
{ACAD_REACTORS
330
181E
102
}
330
181E
100
DictionaryVariables
280
     0
  1
0
  0
DICTIONARYVAR
  5
1824
102
{ACAD_REACTORS
330
181E
102
}
330
181E
100
DictionaryVariables
280
     0
  1
127
  0
DICTIONARYVAR
  5
186D
102
{ACAD_REACTORS
330
181E
102
}
330
181E
100
DictionaryVariables
280
     0
  1
2
  0
DICTIONARY
  5
18A4
330
1808
100
AcDbDictionary
280
     1
281
     1
  3
ACAD_XREC_ROUNDTRIP
360
18A5
  0
DICTIONARY
  5
18A6
330
1809
100
AcDbDictionary
280
     1
281
     1
  3
ACAD_XREC_ROUNDTRIP
360
18A7
  0
DICTIONARY
  5
18A8
330
180A
100
AcDbDictionary
280
     1
281
     1
  3
ACAD_XREC_ROUNDTRIP
360
18A9
  0
DICTIONARY
  5
17C6
330
17C5
100
AcDbDictionary
280
     1
281
     1
  3
ACAD_XREC_ROUNDTRIP
360
182E
  3
BUMPTILE
360
17C8
  3
DIFFUSETILE
360
17C7
  3
OPACITYTILE
360
17CB
  3
REFLECTIONTILE
360
17CA
  3
REFRACTIONTILE
360
17CC
  3
SPECULARTILE
360
17C9
  0
DICTIONARY
  5
17BE
330
17BD
100
AcDbDictionary
280
     1
281
     1
  3
ACAD_XREC_ROUNDTRIP
360
182D
  3
BUMPTILE
360
17C0
  3
DIFFUSETILE
360
17BF
  3
OPACITYTILE
360
17C3
  3
REFLECTIONTILE
360
17C2
  3
REFRACTIONTILE
360
17C4
  3
SPECULARTILE
360
17C1
  0
DICTIONARY
  5
17CE
330
17CD
100
AcDbDictionary
280
     1
281
     1
  3
ACAD_XREC_ROUNDTRIP
360
182F
  3
BUMPTILE
360
17D0
  3
DIFFUSETILE
360
17CF
  3
OPACITYTILE
360
17D3
  3
REFLECTIONTILE
360
17D2
  3
REFRACTIONTILE
360
17D4
  3
SPECULARTILE
360
17D1
  0
DICTIONARY
  5
18A2
330
1806
100
AcDbDictionary
280
     1
281
     1
  3
ACAD_XREC_ROUNDTRIP
360
18A3
  0
DICTIONARY
  5
1829
330
17F0
100
AcDbDictionary
280
     1
281
     1
  3
ACAD_ROUNDTRIP_2008_TABLESTYLE_CELLSTYLEMAP
360
186E
  3
ACAD_XREC_ROUNDTRIP
360
18A1
  0
DICTIONARY
  5
187B
330
17DB
100
AcDbDictionary
280
     1
281
     1
  3
ACAD_XREC_ROUNDTRIP
360
187C
  0
DICTIONARY
  5
1879
330
17DA
100
AcDbDictionary
280
     1
281
     1
  3
ACAD_XREC_ROUNDTRIP
360
187A
  0
DICTIONARY
  5
1887
330
17E1
100
AcDbDictionary
280
     1
281
     1
  3
ACAD_XREC_ROUNDTRIP
360
1888
  0
DICTIONARY
  5
188F
330
17E5
100
AcDbDictionary
280
     1
281
     1
  3
ACAD_XREC_ROUNDTRIP
360
1890
  0
DICTIONARY
  5
1881
330
17DE
100
AcDbDictionary
280
     1
281
     1
  3
ACAD_XREC_ROUNDTRIP
360
1882
  0
DICTIONARY
  5
1885
330
17E0
100
AcDbDictionary
280
     1
281
     1
  3
ACAD_XREC_ROUNDTRIP
360
1886
  0
DICTIONARY
  5
189F
330
17ED
100
AcDbDictionary
280
     1
281
     1
  3
ACAD_XREC_ROUNDTRIP
360
18A0
  0
DICTIONARY
  5
188D
330
17E4
100
AcDbDictionary
280
     1
281
     1
  3
ACAD_XREC_ROUNDTRIP
360
188E
  0
DICTIONARY
  5
1871
330
17D6
100
AcDbDictionary
280
     1
281
     1
  3
ACAD_XREC_ROUNDTRIP
360
1872
  0
DICTIONARY
  5
1873
330
17D7
100
AcDbDictionary
280
     1
281
     1
  3
ACAD_XREC_ROUNDTRIP
360
1874
  0
DICTIONARY
  5
1875
330
17D8
100
AcDbDictionary
280
     1
281
     1
  3
ACAD_XREC_ROUNDTRIP
360
1876
  0
DICTIONARY
  5
1877
330
17D9
100
AcDbDictionary
280
     1
281
     1
  3
ACAD_XREC_ROUNDTRIP
360
1878
  0
DICTIONARY
  5
187F
330
17DD
100
AcDbDictionary
280
     1
281
     1
  3
ACAD_XREC_ROUNDTRIP
360
1880
  0
DICTIONARY
  5
189B
330
17EB
100
AcDbDictionary
280
     1
281
     1
  3
ACAD_XREC_ROUNDTRIP
360
189C
  0
DICTIONARY
  5
188B
330
17E3
100
AcDbDictionary
280
     1
281
     1
  3
ACAD_XREC_ROUNDTRIP
360
188C
  0
DICTIONARY
  5
189D
330
17EC
100
AcDbDictionary
280
     1
281
     1
  3
ACAD_XREC_ROUNDTRIP
360
189E
  0
DICTIONARY
  5
1883
330
17DF
100
AcDbDictionary
280
     1
281
     1
  3
ACAD_XREC_ROUNDTRIP
360
1884
  0
DICTIONARY
  5
1899
330
17EA
100
AcDbDictionary
280
     1
281
     1
  3
ACAD_XREC_ROUNDTRIP
360
189A
  0
DICTIONARY
  5
1897
330
17E9
100
AcDbDictionary
280
     1
281
     1
  3
ACAD_XREC_ROUNDTRIP
360
1898
  0
DICTIONARY
  5
1891
330
17E6
100
AcDbDictionary
280
     1
281
     1
  3
ACAD_XREC_ROUNDTRIP
360
1892
  0
DICTIONARY
  5
1893
330
17E7
100
AcDbDictionary
280
     1
281
     1
  3
ACAD_XREC_ROUNDTRIP
360
1894
  0
DICTIONARY
  5
1889
330
17E2
100
AcDbDictionary
280
     1
281
     1
  3
ACAD_XREC_ROUNDTRIP
360
188A
  0
DICTIONARY
  5
187D
330
17DC
100
AcDbDictionary
280
     1
281
     1
  3
ACAD_XREC_ROUNDTRIP
360
187E
  0
DICTIONARY
  5
1895
330
17E8
100
AcDbDictionary
280
     1
281
     1
  3
ACAD_XREC_ROUNDTRIP
360
1896
  0
XRECORD
  5
18A5
102
{ACAD_REACTORS
330
18A4
102
}
330
18A4
100
AcDbXrecord
280
     1
102
DISPLAYNAME
  1
Imperial24
102
FLAGS
 90
        0
  0
XRECORD
  5
18A7
102
{ACAD_REACTORS
330
18A6
102
}
330
18A6
100
AcDbXrecord
280
     1
102
SHADEPLOT
 70
     0
102
SHADEPLOTRESLEVEL
 70
     2
102
SHADEPLOTCUSTOMDPI
 70
   300
  0
XRECORD
  5
18A9
102
{ACAD_REACTORS
330
18A8
102
}
330
18A8
100
AcDbXrecord
280
     1
102
SHADEPLOT
 70
     0
102
SHADEPLOTRESLEVEL
 70
     2
102
SHADEPLOTCUSTOMDPI
 70
   300
  0
XRECORD
  5
182E
102
{ACAD_REACTORS
330
17C6
102
}
330
17C6
100
AcDbXrecord
280
     1
102
MATERIAL
148
0.0
149
0.0
149
0.0
 93
        0
 94
      127
282
     0
 72
     0
 77
     0
171
     0
175
     0
179
     0
273
     0
  0
XRECORD
  5
17C8
102
{ACAD_REACTORS
330
17C6
102
}
330
17C6
100
AcDbXrecord
280
     1
270
     1
271
     1
  0
XRECORD
  5
17C7
102
{ACAD_REACTORS
330
17C6
102
}
330
17C6
100
AcDbXrecord
280
     1
270
     1
271
     1
  0
XRECORD
  5
17CB
102
{ACAD_REACTORS
330
17C6
102
}
330
17C6
100
AcDbXrecord
280
     1
270
     1
271
     1
  0
XRECORD
  5
17CA
102
{ACAD_REACTORS
330
17C6
102
}
330
17C6
100
AcDbXrecord
280
     1
270
     1
271
     1
  0
XRECORD
  5
17CC
102
{ACAD_REACTORS
330
17C6
102
}
330
17C6
100
AcDbXrecord
280
     1
270
     1
271
     1
  0
XRECORD
  5
17C9
102
{ACAD_REACTORS
330
17C6
102
}
330
17C6
100
AcDbXrecord
280
     1
270
     1
271
     1
  0
XRECORD
  5
182D
102
{ACAD_REACTORS
330
17BE
102
}
330
17BE
100
AcDbXrecord
280
     1
102
MATERIAL
148
0.0
149
0.0
149
0.0
 93
        0
 94
      127
282
     0
 72
     0
 77
     0
171
     0
175
     0
179
     0
273
     0
  0
XRECORD
  5
17C0
102
{ACAD_REACTORS
330
17BE
102
}
330
17BE
100
AcDbXrecord
280
     1
270
     1
271
     1
  0
XRECORD
  5
17BF
102
{ACAD_REACTORS
330
17BE
102
}
330
17BE
100
AcDbXrecord
280
     1
270
     1
271
     1
  0
XRECORD
  5
17C3
102
{ACAD_REACTORS
330
17BE
102
}
330
17BE
100
AcDbXrecord
280
     1
270
     1
271
     1
  0
XRECORD
  5
17C2
102
{ACAD_REACTORS
330
17BE
102
}
330
17BE
100
AcDbXrecord
280
     1
270
     1
271
     1
  0
XRECORD
  5
17C4
102
{ACAD_REACTORS
330
17BE
102
}
330
17BE
100
AcDbXrecord
280
     1
270
     1
271
     1
  0
XRECORD
  5
17C1
102
{ACAD_REACTORS
330
17BE
102
}
330
17BE
100
AcDbXrecord
280
     1
270
     1
271
     1
  0
XRECORD
  5
182F
102
{ACAD_REACTORS
330
17CE
102
}
330
17CE
100
AcDbXrecord
280
     1
102
MATERIAL
148
0.0
149
0.0
149
0.0
 93
        0
 94
      127
282
     0
 72
     0
 77
     0
171
     0
175
     0
179
     0
273
     0
  0
XRECORD
  5
17D0
102
{ACAD_REACTORS
330
17CE
102
}
330
17CE
100
AcDbXrecord
280
     1
270
     1
271
     1
  0
XRECORD
  5
17CF
102
{ACAD_REACTORS
330
17CE
102
}
330
17CE
100
AcDbXrecord
280
     1
270
     1
271
     1
  0
XRECORD
  5
17D3
102
{ACAD_REACTORS
330
17CE
102
}
330
17CE
100
AcDbXrecord
280
     1
270
     1
271
     1
  0
XRECORD
  5
17D2
102
{ACAD_REACTORS
330
17CE
102
}
330
17CE
100
AcDbXrecord
280
     1
270
     1
271
     1
  0
XRECORD
  5
17D4
102
{ACAD_REACTORS
330
17CE
102
}
330
17CE
100
AcDbXrecord
280
     1
270
     1
271
     1
  0
XRECORD
  5
17D1
102
{ACAD_REACTORS
330
17CE
102
}
330
17CE
100
AcDbXrecord
280
     1
270
     1
271
     1
  0
XRECORD
  5
18A3
102
{ACAD_REACTORS
330
18A2
102
}
330
18A2
100
AcDbXrecord
280
     1
102
DISPLAYNAME
  1
Imperial24
102
FLAGS
 90
        0
  0
CELLSTYLEMAP
  5
186E
102
{ACAD_REACTORS
330
1829
102
}
330
1829
100
AcDbCellStyleMap
 90
        3
300
CELLSTYLE
  1
TABLEFORMAT_BEGIN
 90
        5
170
     1
 91
        0
 92
    32768
 62
   257
 93
        1
300
CONTENTFORMAT
  1
CONTENTFORMAT_BEGIN
 90
        0
 91
        0
 92
      512
 93
        0
300

 40
0.0
140
1.0
 94
        5
 62
     0
340
F
144
0.25
309
CONTENTFORMAT_END
171
     1
301
MARGIN
  1
CELLMARGIN_BEGIN
 40
0.06
 40
0.06
 40
0.06
 40
0.06
 40
0.18
 40
0.18
309
CELLMARGIN_END
 94
        6
 95
        1
302
GRIDFORMAT
  1
GRIDFORMAT_BEGIN
 90
        0
 91
        1
 62
     0
 92
       -2
340
0
 93
        0
 40
0.045
309
GRIDFORMAT_END
 95
        2
302
GRIDFORMAT
  1
GRIDFORMAT_BEGIN
 90
        0
 91
        1
 62
     0
 92
       -2
340
0
 93
        0
 40
0.045
309
GRIDFORMAT_END
 95
        4
302
GRIDFORMAT
  1
GRIDFORMAT_BEGIN
 90
        0
 91
        1
 62
     0
 92
       -2
340
0
 93
        0
 40
0.045
309
GRIDFORMAT_END
 95
        8
302
GRIDFORMAT
  1
GRIDFORMAT_BEGIN
 90
        0
 91
        1
 62
     0
 92
       -2
340
0
 93
        0
 40
0.045
309
GRIDFORMAT_END
 95
       16
302
GRIDFORMAT
  1
GRIDFORMAT_BEGIN
 90
        0
 91
        1
 62
     0
 92
       -2
340
0
 93
        0
 40
0.045
309
GRIDFORMAT_END
 95
       32
302
GRIDFORMAT
  1
GRIDFORMAT_BEGIN
 90
        0
 91
        1
 62
     0
 92
       -2
340
0
 93
        0
 40
0.045
309
GRIDFORMAT_END
309
TABLEFORMAT_END
  1
CELLSTYLE_BEGIN
 90
        1
 91
        1
300
_TITLE
309
CELLSTYLE_END
300
CELLSTYLE
  1
TABLEFORMAT_BEGIN
 90
        5
170
     1
 91
        0
 92
        0
 62
   257
 93
        1
300
CONTENTFORMAT
  1
CONTENTFORMAT_BEGIN
 90
        0
 91
        0
 92
      512
 93
        0
300

 40
0.0
140
1.0
 94
        5
 62
     0
340
F
144
0.18
309
CONTENTFORMAT_END
171
     1
301
MARGIN
  1
CELLMARGIN_BEGIN
 40
0.06
 40
0.06
 40
0.06
 40
0.06
 40
0.18
 40
0.18
309
CELLMARGIN_END
 94
        6
 95
        1
302
GRIDFORMAT
  1
GRIDFORMAT_BEGIN
 90
        0
 91
        1
 62
     0
 92
       -2
340
0
 93
        0
 40
0.045
309
GRIDFORMAT_END
 95
        2
302
GRIDFORMAT
  1
GRIDFORMAT_BEGIN
 90
        0
 91
        1
 62
     0
 92
       -2
340
0
 93
        0
 40
0.045
309
GRIDFORMAT_END
 95
        4
302
GRIDFORMAT
  1
GRIDFORMAT_BEGIN
 90
        0
 91
        1
 62
     0
 92
       -2
340
0
 93
        0
 40
0.045
309
GRIDFORMAT_END
 95
        8
302
GRIDFORMAT
  1
GRIDFORMAT_BEGIN
 90
        0
 91
        1
 62
     0
 92
       -2
340
0
 93
        0
 40
0.045
309
GRIDFORMAT_END
 95
       16
302
GRIDFORMAT
  1
GRIDFORMAT_BEGIN
 90
        0
 91
        1
 62
     0
 92
       -2
340
0
 93
        0
 40
0.045
309
GRIDFORMAT_END
 95
       32
302
GRIDFORMAT
  1
GRIDFORMAT_BEGIN
 90
        0
 91
        1
 62
     0
 92
       -2
340
0
 93
        0
 40
0.045
309
GRIDFORMAT_END
309
TABLEFORMAT_END
  1
CELLSTYLE_BEGIN
 90
        2
 91
        1
300
_HEADER
309
CELLSTYLE_END
300
CELLSTYLE
  1
TABLEFORMAT_BEGIN
 90
        5
170
     1
 91
        0
 92
        0
 62
   257
 93
        1
300
CONTENTFORMAT
  1
CONTENTFORMAT_BEGIN
 90
        0
 91
        0
 92
      512
 93
        0
300

 40
0.0
140
1.0
 94
        2
 62
     0
340
F
144
0.18
309
CONTENTFORMAT_END
171
     1
301
MARGIN
  1
CELLMARGIN_BEGIN
 40
0.06
 40
0.06
 40
0.06
 40
0.06
 40
0.18
 40
0.18
309
CELLMARGIN_END
 94
        6
 95
        1
302
GRIDFORMAT
  1
GRIDFORMAT_BEGIN
 90
        0
 91
        1
 62
     0
 92
       -2
340
0
 93
        0
 40
0.045
309
GRIDFORMAT_END
 95
        2
302
GRIDFORMAT
  1
GRIDFORMAT_BEGIN
 90
        0
 91
        1
 62
     0
 92
       -2
340
0
 93
        0
 40
0.045
309
GRIDFORMAT_END
 95
        4
302
GRIDFORMAT
  1
GRIDFORMAT_BEGIN
 90
        0
 91
        1
 62
     0
 92
       -2
340
0
 93
        0
 40
0.045
309
GRIDFORMAT_END
 95
        8
302
GRIDFORMAT
  1
GRIDFORMAT_BEGIN
 90
        0
 91
        1
 62
     0
 92
       -2
340
0
 93
        0
 40
0.045
309
GRIDFORMAT_END
 95
       16
302
GRIDFORMAT
  1
GRIDFORMAT_BEGIN
 90
        0
 91
        1
 62
     0
 92
       -2
340
0
 93
        0
 40
0.045
309
GRIDFORMAT_END
 95
       32
302
GRIDFORMAT
  1
GRIDFORMAT_BEGIN
 90
        0
 91
        1
 62
     0
 92
       -2
340
0
 93
        0
 40
0.045
309
GRIDFORMAT_END
309
TABLEFORMAT_END
  1
CELLSTYLE_BEGIN
 90
        3
 91
        2
300
_DATA
309
CELLSTYLE_END
  0
XRECORD
  5
18A1
102
{ACAD_REACTORS
330
1829
102
}
330
1829
100
AcDbXrecord
280
     1
102
ACAD_ROUNDTRIP_PRE2007_TABLESTYLE
 90
      512
 91
        0
  1

 92
      512
 93
        0
  2

 94
      512
 95
        0
  3

  0
XRECORD
  5
187C
102
{ACAD_REACTORS
330
187B
102
}
330
187B
100
AcDbXrecord
280
     1
102
RTVSPost2010Prop28
280
     1
102
RTVSPost2010PropOp28
 70
     1
102
RTVSPost2010Prop29
280
     1
102
RTVSPost2010PropOp29
 70
     1
102
RTVSPost2010Prop30
280
     0
102
RTVSPost2010PropOp30
 70
     1
102
RTVSPost2010Prop31
280
     0
102
RTVSPost2010PropOp31
 70
     1
102
RTVSPost2010Prop32
280
     0
102
RTVSPost2010PropOp32
 70
     1
102
RTVSPost2010Prop33
280
     0
102
RTVSPost2010PropOp33
 70
     1
102
RTVSPost2010Prop34
280
     0
102
RTVSPost2010PropOp34
 70
     1
102
RTVSPost2010Prop35
280
     0
102
RTVSPost2010PropOp35
 70
     1
102
RTVSPost2010Prop36
280
     0
102
RTVSPost2010PropOp36
 70
     1
102
RTVSPost2010Prop37
 90
       50
102
RTVSPost2010PropOp37
 70
     1
102
RTVSPost2010Prop38
140
0.0
102
RTVSPost2010PropOp38
 70
     1
102
RTVSPost2010Prop39
140
1.0
102
RTVSPost2010PropOp39
 70
     1
102
RTVSPost2010Prop40
 90
        0
102
RTVSPost2010PropOp40
 70
     1
102
RTVSPost2010Prop41ColorIndex
 90
       18
102
RTVSPost2010Prop41ColorRGB
 90
        0
102
RTVSPost2010PropOp41
 70
     1
102
RTVSPost2010Prop42
 90
       50
102
RTVSPost2010PropOp42
 70
     1
102
RTVSPost2010Prop43
 90
        3
102
RTVSPost2010PropOp43
 70
     1
102
RTVSPost2010Prop44ColorIndex
 90
        5
102
RTVSPost2010Prop44ColorRGB
 90
      255
102
RTVSPost2010PropOp44
 70
     1
102
RTVSPost2010Prop45
280
     0
102
RTVSPost2010PropOp45
 70
     1
102
RTVSPost2010Prop46
 90
       50
102
RTVSPost2010PropOp46
 70
     1
102
RTVSPost2010Prop47
 90
       50
102
RTVSPost2010PropOp47
 70
     1
102
RTVSPost2010Prop48
 90
       50
102
RTVSPost2010PropOp48
 70
     1
102
RTVSPost2010Prop49
280
     0
102
RTVSPost2010PropOp49
 70
     1
102
RTVSPost2010Prop50
 90
       50
102
RTVSPost2010PropOp50
 70
     1
102
RTVSPost2010Prop51ColorIndex
 90
      256
102
RTVSPost2010Prop51ColorRGB
 90
-16777216
102
RTVSPost2010PropOp51
 70
     0
102
RTVSPost2010Prop52
140
1.0
102
RTVSPost2010PropOp52
 70
     0
102
RTVSPost2010Prop53
 90
        2
102
RTVSPost2010PropOp53
 70
     1
102
RTVSPost2010Prop54
  1
strokes_ogs.tif
102
RTVSPost2010PropOp54
 70
     1
102
RTVSPost2010Prop55
280
     0
102
RTVSPost2010PropOp55
 70
     1
102
RTVSPost2010Prop56
140
1.0
102
RTVSPost2010PropOp56
 70
     1
102
RTVSPost2010Prop57
140
1.0
102
RTVSPost2010PropOp57
 70
     1
102
RTVSPropertyOp0
 70
     1
102
RTVSPropertyOp1
 70
     1
102
RTVSPropertyOp2
 70
     1
102
RTVSPropertyOp3
 70
     1
102
RTVSPropertyOp4
 70
     1
102
RTVSPropertyOp5
 70
     1
102
RTVSPropertyOp6
 70
     1
102
RTVSPropertyOp7
 70
     1
102
RTVSPropertyOp8
 70
     1
102
RTVSPropertyOp9
 70
     1
102
RTVSPropertyOp10
 70
     1
102
RTVSPropertyOp11
 70
     1
102
RTVSPropertyOp12
 70
     1
102
RTVSPropertyOp13
 70
     1
102
RTVSPropertyOp14
 70
     1
102
RTVSPropertyOp15
 70
     1
102
RTVSPropertyOp16
 70
     1
102
RTVSPropertyOp17
 70
     1
102
RTVSPropertyOp18
 70
     1
102
RTVSPropertyOp19
 70
     1
102
RTVSPropertyOp20
 70
     1
102
RTVSPropertyOp21
 70
     1
102
RTVSPropertyOp22
 70
     1
102
RTVSPropertyOp23
 70
     1
102
RTVSPropertyOp24
 70
     1
102
RTVSPropertyOp25
 70
     1
102
RTVSPropertyOp26
 70
     1
102
RTVSPropertyOp27
 70
     1
102
RTVSPropertyOp28
 70
     1
102
RTVSPropertyOp29
 70
     1
102
RTVSPropertyOp30
 70
     1
102
RTVSPropertyOp31
 70
     1
102
RTVSPropertyOp32
 70
     1
102
RTVSPropertyOp33
 70
     1
102
RTVSPropertyOp34
 70
     1
102
RTVSPropertyOp35
 70
     1
102
RTVSPropertyOp36
 70
     1
102
RTVSPropertyOp37
 70
     1
102
RTVSPropertyOp38
 70
     1
102
RTVSPropertyOp39
 70
     1
102
RTVSPropertyOp40
 70
     1
102
RTVSPropertyOp41
 70
     1
102
RTVSPropertyOp42
 70
     1
102
RTVSPropertyOp43
 70
     1
102
RTVSPropertyOp44
 70
     1
102
RTVSPropertyOp45
 70
     1
102
RTVSPropertyOp46
 70
     1
102
RTVSPropertyOp47
 70
     1
102
RTVSPropertyOp48
 70
     1
102
RTVSPropertyOp49
 70
     1
102
RTVSPropertyOp50
 70
     1
102
RTVSPropertyOp51
 70
     0
102
RTVSPropertyOp52
 70
     0
102
RTVSPropertyOp53
 70
     1
102
RTVSPropertyOp54
 70
     1
102
RTVSPropertyOp55
 70
     1
102
RTVSPropertyOp56
 70
     1
102
RTVSPropertyOp57
 70
     1
102
RTVSPropertyOp58
 70
     1
102
RTVSPropertyOp59
 70
     1
102
RTVSPropertyOp60
 70
     1
102
RTVSPropertyOp61
 70
     1
102
RTVSPropertyOp62
 70
     1
  0
XRECORD
  5
187A
102
{ACAD_REACTORS
330
1879
102
}
330
1879
100
AcDbXrecord
280
     1
102
RTVSPost2010Prop28
280
     0
102
RTVSPost2010PropOp28
 70
     1
102
RTVSPost2010Prop29
280
     1
102
RTVSPost2010PropOp29
 70
     1
102
RTVSPost2010Prop30
280
     1
102
RTVSPost2010PropOp30
 70
     1
102
RTVSPost2010Prop31
280
     0
102
RTVSPost2010PropOp31
 70
     1
102
RTVSPost2010Prop32
280
     0
102
RTVSPost2010PropOp32
 70
     1
102
RTVSPost2010Prop33
280
     0
102
RTVSPost2010PropOp33
 70
     1
102
RTVSPost2010Prop34
280
     0
102
RTVSPost2010PropOp34
 70
     1
102
RTVSPost2010Prop35
280
     0
102
RTVSPost2010PropOp35
 70
     1
102
RTVSPost2010Prop36
280
     0
102
RTVSPost2010PropOp36
 70
     1
102
RTVSPost2010Prop37
 90
       50
102
RTVSPost2010PropOp37
 70
     1
102
RTVSPost2010Prop38
140
0.0
102
RTVSPost2010PropOp38
 70
     1
102
RTVSPost2010Prop39
140
1.0
102
RTVSPost2010PropOp39
 70
     1
102
RTVSPost2010Prop40
 90
        0
102
RTVSPost2010PropOp40
 70
     1
102
RTVSPost2010Prop41ColorIndex
 90
       18
102
RTVSPost2010Prop41ColorRGB
 90
        0
102
RTVSPost2010PropOp41
 70
     1
102
RTVSPost2010Prop42
 90
       50
102
RTVSPost2010PropOp42
 70
     1
102
RTVSPost2010Prop43
 90
        3
102
RTVSPost2010PropOp43
 70
     1
102
RTVSPost2010Prop44ColorIndex
 90
        5
102
RTVSPost2010Prop44ColorRGB
 90
      255
102
RTVSPost2010PropOp44
 70
     1
102
RTVSPost2010Prop45
280
     0
102
RTVSPost2010PropOp45
 70
     1
102
RTVSPost2010Prop46
 90
       50
102
RTVSPost2010PropOp46
 70
     1
102
RTVSPost2010Prop47
 90
       50
102
RTVSPost2010PropOp47
 70
     1
102
RTVSPost2010Prop48
 90
       50
102
RTVSPost2010PropOp48
 70
     1
102
RTVSPost2010Prop49
280
     0
102
RTVSPost2010PropOp49
 70
     1
102
RTVSPost2010Prop50
 90
       50
102
RTVSPost2010PropOp50
 70
     1
102
RTVSPost2010Prop51ColorIndex
 90
      256
102
RTVSPost2010Prop51ColorRGB
 90
-16777216
102
RTVSPost2010PropOp51
 70
     0
102
RTVSPost2010Prop52
140
1.0
102
RTVSPost2010PropOp52
 70
     0
102
RTVSPost2010Prop53
 90
        2
102
RTVSPost2010PropOp53
 70
     1
102
RTVSPost2010Prop54
  1
strokes_ogs.tif
102
RTVSPost2010PropOp54
 70
     1
102
RTVSPost2010Prop55
280
     0
102
RTVSPost2010PropOp55
 70
     1
102
RTVSPost2010Prop56
140
1.0
102
RTVSPost2010PropOp56
 70
     1
102
RTVSPost2010Prop57
140
1.0
102
RTVSPost2010PropOp57
 70
     1
102
RTVSPropertyOp0
 70
     1
102
RTVSPropertyOp1
 70
     1
102
RTVSPropertyOp2
 70
     1
102
RTVSPropertyOp3
 70
     1
102
RTVSPropertyOp4
 70
     1
102
RTVSPropertyOp5
 70
     1
102
RTVSPropertyOp6
 70
     1
102
RTVSPropertyOp7
 70
     1
102
RTVSPropertyOp8
 70
     1
102
RTVSPropertyOp9
 70
     1
102
RTVSPropertyOp10
 70
     1
102
RTVSPropertyOp11
 70
     1
102
RTVSPropertyOp12
 70
     1
102
RTVSPropertyOp13
 70
     1
102
RTVSPropertyOp14
 70
     1
102
RTVSPropertyOp15
 70
     1
102
RTVSPropertyOp16
 70
     1
102
RTVSPropertyOp17
 70
     1
102
RTVSPropertyOp18
 70
     1
102
RTVSPropertyOp19
 70
     1
102
RTVSPropertyOp20
 70
     1
102
RTVSPropertyOp21
 70
     1
102
RTVSPropertyOp22
 70
     1
102
RTVSPropertyOp23
 70
     1
102
RTVSPropertyOp24
 70
     1
102
RTVSPropertyOp25
 70
     1
102
RTVSPropertyOp26
 70
     1
102
RTVSPropertyOp27
 70
     1
102
RTVSPropertyOp28
 70
     1
102
RTVSPropertyOp29
 70
     1
102
RTVSPropertyOp30
 70
     1
102
RTVSPropertyOp31
 70
     1
102
RTVSPropertyOp32
 70
     1
102
RTVSPropertyOp33
 70
     1
102
RTVSPropertyOp34
 70
     1
102
RTVSPropertyOp35
 70
     1
102
RTVSPropertyOp36
 70
     1
102
RTVSPropertyOp37
 70
     1
102
RTVSPropertyOp38
 70
     1
102
RTVSPropertyOp39
 70
     1
102
RTVSPropertyOp40
 70
     1
102
RTVSPropertyOp41
 70
     1
102
RTVSPropertyOp42
 70
     1
102
RTVSPropertyOp43
 70
     1
102
RTVSPropertyOp44
 70
     1
102
RTVSPropertyOp45
 70
     1
102
RTVSPropertyOp46
 70
     1
102
RTVSPropertyOp47
 70
     1
102
RTVSPropertyOp48
 70
     1
102
RTVSPropertyOp49
 70
     1
102
RTVSPropertyOp50
 70
     1
102
RTVSPropertyOp51
 70
     0
102
RTVSPropertyOp52
 70
     0
102
RTVSPropertyOp53
 70
     1
102
RTVSPropertyOp54
 70
     1
102
RTVSPropertyOp55
 70
     1
102
RTVSPropertyOp56
 70
     1
102
RTVSPropertyOp57
 70
     1
102
RTVSPropertyOp58
 70
     1
102
RTVSPropertyOp59
 70
     1
102
RTVSPropertyOp60
 70
     1
102
RTVSPropertyOp61
 70
     1
102
RTVSPropertyOp62
 70
     1
  0
XRECORD
  5
1888
102
{ACAD_REACTORS
330
1887
102
}
330
1887
100
AcDbXrecord
280
     1
102
RTVSPost2010Prop28
280
     0
102
RTVSPost2010PropOp28
 70
     1
102
RTVSPost2010Prop29
280
     1
102
RTVSPost2010PropOp29
 70
     1
102
RTVSPost2010Prop30
280
     1
102
RTVSPost2010PropOp30
 70
     1
102
RTVSPost2010Prop31
280
     0
102
RTVSPost2010PropOp31
 70
     1
102
RTVSPost2010Prop32
280
     0
102
RTVSPost2010PropOp32
 70
     1
102
RTVSPost2010Prop33
280
     0
102
RTVSPost2010PropOp33
 70
     1
102
RTVSPost2010Prop34
280
     0
102
RTVSPost2010PropOp34
 70
     1
102
RTVSPost2010Prop35
280
     0
102
RTVSPost2010PropOp35
 70
     1
102
RTVSPost2010Prop36
280
     0
102
RTVSPost2010PropOp36
 70
     1
102
RTVSPost2010Prop37
 90
       50
102
RTVSPost2010PropOp37
 70
     1
102
RTVSPost2010Prop38
140
0.0
102
RTVSPost2010PropOp38
 70
     1
102
RTVSPost2010Prop39
140
1.0
102
RTVSPost2010PropOp39
 70
     1
102
RTVSPost2010Prop40
 90
        0
102
RTVSPost2010PropOp40
 70
     1
102
RTVSPost2010Prop41ColorIndex
 90
       18
102
RTVSPost2010Prop41ColorRGB
 90
        0
102
RTVSPost2010PropOp41
 70
     1
102
RTVSPost2010Prop42
 90
       50
102
RTVSPost2010PropOp42
 70
     1
102
RTVSPost2010Prop43
 90
        3
102
RTVSPost2010PropOp43
 70
     1
102
RTVSPost2010Prop44ColorIndex
 90
        5
102
RTVSPost2010Prop44ColorRGB
 90
      255
102
RTVSPost2010PropOp44
 70
     1
102
RTVSPost2010Prop45
280
     0
102
RTVSPost2010PropOp45
 70
     1
102
RTVSPost2010Prop46
 90
       50
102
RTVSPost2010PropOp46
 70
     1
102
RTVSPost2010Prop47
 90
       50
102
RTVSPost2010PropOp47
 70
     1
102
RTVSPost2010Prop48
 90
       50
102
RTVSPost2010PropOp48
 70
     1
102
RTVSPost2010Prop49
280
     0
102
RTVSPost2010PropOp49
 70
     1
102
RTVSPost2010Prop50
 90
       50
102
RTVSPost2010PropOp50
 70
     1
102
RTVSPost2010Prop51ColorIndex
 90
      256
102
RTVSPost2010Prop51ColorRGB
 90
-16777216
102
RTVSPost2010PropOp51
 70
     0
102
RTVSPost2010Prop52
140
1.0
102
RTVSPost2010PropOp52
 70
     0
102
RTVSPost2010Prop53
 90
        2
102
RTVSPost2010PropOp53
 70
     1
102
RTVSPost2010Prop54
  1
strokes_ogs.tif
102
RTVSPost2010PropOp54
 70
     1
102
RTVSPost2010Prop55
280
     0
102
RTVSPost2010PropOp55
 70
     1
102
RTVSPost2010Prop56
140
1.0
102
RTVSPost2010PropOp56
 70
     1
102
RTVSPost2010Prop57
140
1.0
102
RTVSPost2010PropOp57
 70
     1
102
RTVSPropertyOp0
 70
     1
102
RTVSPropertyOp1
 70
     1
102
RTVSPropertyOp2
 70
     1
102
RTVSPropertyOp3
 70
     1
102
RTVSPropertyOp4
 70
     1
102
RTVSPropertyOp5
 70
     1
102
RTVSPropertyOp6
 70
     1
102
RTVSPropertyOp7
 70
     1
102
RTVSPropertyOp8
 70
     1
102
RTVSPropertyOp9
 70
     1
102
RTVSPropertyOp10
 70
     1
102
RTVSPropertyOp11
 70
     1
102
RTVSPropertyOp12
 70
     1
102
RTVSPropertyOp13
 70
     1
102
RTVSPropertyOp14
 70
     1
102
RTVSPropertyOp15
 70
     1
102
RTVSPropertyOp16
 70
     1
102
RTVSPropertyOp17
 70
     1
102
RTVSPropertyOp18
 70
     1
102
RTVSPropertyOp19
 70
     1
102
RTVSPropertyOp20
 70
     1
102
RTVSPropertyOp21
 70
     1
102
RTVSPropertyOp22
 70
     1
102
RTVSPropertyOp23
 70
     1
102
RTVSPropertyOp24
 70
     1
102
RTVSPropertyOp25
 70
     1
102
RTVSPropertyOp26
 70
     1
102
RTVSPropertyOp27
 70
     1
102
RTVSPropertyOp28
 70
     1
102
RTVSPropertyOp29
 70
     1
102
RTVSPropertyOp30
 70
     1
102
RTVSPropertyOp31
 70
     1
102
RTVSPropertyOp32
 70
     1
102
RTVSPropertyOp33
 70
     1
102
RTVSPropertyOp34
 70
     1
102
RTVSPropertyOp35
 70
     1
102
RTVSPropertyOp36
 70
     1
102
RTVSPropertyOp37
 70
     1
102
RTVSPropertyOp38
 70
     1
102
RTVSPropertyOp39
 70
     1
102
RTVSPropertyOp40
 70
     1
102
RTVSPropertyOp41
 70
     1
102
RTVSPropertyOp42
 70
     1
102
RTVSPropertyOp43
 70
     1
102
RTVSPropertyOp44
 70
     1
102
RTVSPropertyOp45
 70
     1
102
RTVSPropertyOp46
 70
     1
102
RTVSPropertyOp47
 70
     1
102
RTVSPropertyOp48
 70
     1
102
RTVSPropertyOp49
 70
     1
102
RTVSPropertyOp50
 70
     1
102
RTVSPropertyOp51
 70
     0
102
RTVSPropertyOp52
 70
     0
102
RTVSPropertyOp53
 70
     1
102
RTVSPropertyOp54
 70
     1
102
RTVSPropertyOp55
 70
     1
102
RTVSPropertyOp56
 70
     1
102
RTVSPropertyOp57
 70
     1
102
RTVSPropertyOp58
 70
     1
102
RTVSPropertyOp59
 70
     1
102
RTVSPropertyOp60
 70
     1
102
RTVSPropertyOp61
 70
     1
102
RTVSPropertyOp62
 70
     1
  0
XRECORD
  5
1890
102
{ACAD_REACTORS
330
188F
102
}
330
188F
100
AcDbXrecord
280
     1
102
RTVSPost2010Prop28
280
     0
102
RTVSPost2010PropOp28
 70
     1
102
RTVSPost2010Prop29
280
     1
102
RTVSPost2010PropOp29
 70
     1
102
RTVSPost2010Prop30
280
     1
102
RTVSPost2010PropOp30
 70
     1
102
RTVSPost2010Prop31
280
     0
102
RTVSPost2010PropOp31
 70
     1
102
RTVSPost2010Prop32
280
     0
102
RTVSPost2010PropOp32
 70
     1
102
RTVSPost2010Prop33
280
     0
102
RTVSPost2010PropOp33
 70
     1
102
RTVSPost2010Prop34
280
     0
102
RTVSPost2010PropOp34
 70
     1
102
RTVSPost2010Prop35
280
     0
102
RTVSPost2010PropOp35
 70
     1
102
RTVSPost2010Prop36
280
     0
102
RTVSPost2010PropOp36
 70
     1
102
RTVSPost2010Prop37
 90
       50
102
RTVSPost2010PropOp37
 70
     1
102
RTVSPost2010Prop38
140
0.0
102
RTVSPost2010PropOp38
 70
     1
102
RTVSPost2010Prop39
140
1.0
102
RTVSPost2010PropOp39
 70
     1
102
RTVSPost2010Prop40
 90
        0
102
RTVSPost2010PropOp40
 70
     1
102
RTVSPost2010Prop41ColorIndex
 90
       18
102
RTVSPost2010Prop41ColorRGB
 90
        0
102
RTVSPost2010PropOp41
 70
     1
102
RTVSPost2010Prop42
 90
       50
102
RTVSPost2010PropOp42
 70
     1
102
RTVSPost2010Prop43
 90
        3
102
RTVSPost2010PropOp43
 70
     1
102
RTVSPost2010Prop44ColorIndex
 90
        5
102
RTVSPost2010Prop44ColorRGB
 90
      255
102
RTVSPost2010PropOp44
 70
     1
102
RTVSPost2010Prop45
280
     0
102
RTVSPost2010PropOp45
 70
     1
102
RTVSPost2010Prop46
 90
       50
102
RTVSPost2010PropOp46
 70
     1
102
RTVSPost2010Prop47
 90
       50
102
RTVSPost2010PropOp47
 70
     1
102
RTVSPost2010Prop48
 90
       50
102
RTVSPost2010PropOp48
 70
     1
102
RTVSPost2010Prop49
280
     0
102
RTVSPost2010PropOp49
 70
     1
102
RTVSPost2010Prop50
 90
       50
102
RTVSPost2010PropOp50
 70
     1
102
RTVSPost2010Prop51ColorIndex
 90
      256
102
RTVSPost2010Prop51ColorRGB
 90
-16777216
102
RTVSPost2010PropOp51
 70
     0
102
RTVSPost2010Prop52
140
1.0
102
RTVSPost2010PropOp52
 70
     0
102
RTVSPost2010Prop53
 90
        2
102
RTVSPost2010PropOp53
 70
     1
102
RTVSPost2010Prop54
  1
strokes_ogs.tif
102
RTVSPost2010PropOp54
 70
     1
102
RTVSPost2010Prop55
280
     0
102
RTVSPost2010PropOp55
 70
     1
102
RTVSPost2010Prop56
140
1.0
102
RTVSPost2010PropOp56
 70
     1
102
RTVSPost2010Prop57
140
1.0
102
RTVSPost2010PropOp57
 70
     1
102
RTVSPropertyOp0
 70
     1
102
RTVSPropertyOp1
 70
     1
102
RTVSPropertyOp2
 70
     1
102
RTVSPropertyOp3
 70
     1
102
RTVSPropertyOp4
 70
     1
102
RTVSPropertyOp5
 70
     1
102
RTVSPropertyOp6
 70
     1
102
RTVSPropertyOp7
 70
     1
102
RTVSPropertyOp8
 70
     1
102
RTVSPropertyOp9
 70
     1
102
RTVSPropertyOp10
 70
     1
102
RTVSPropertyOp11
 70
     1
102
RTVSPropertyOp12
 70
     1
102
RTVSPropertyOp13
 70
     1
102
RTVSPropertyOp14
 70
     1
102
RTVSPropertyOp15
 70
     1
102
RTVSPropertyOp16
 70
     1
102
RTVSPropertyOp17
 70
     1
102
RTVSPropertyOp18
 70
     1
102
RTVSPropertyOp19
 70
     1
102
RTVSPropertyOp20
 70
     1
102
RTVSPropertyOp21
 70
     1
102
RTVSPropertyOp22
 70
     1
102
RTVSPropertyOp23
 70
     1
102
RTVSPropertyOp24
 70
     1
102
RTVSPropertyOp25
 70
     1
102
RTVSPropertyOp26
 70
     1
102
RTVSPropertyOp27
 70
     1
102
RTVSPropertyOp28
 70
     1
102
RTVSPropertyOp29
 70
     1
102
RTVSPropertyOp30
 70
     1
102
RTVSPropertyOp31
 70
     1
102
RTVSPropertyOp32
 70
     1
102
RTVSPropertyOp33
 70
     1
102
RTVSPropertyOp34
 70
     1
102
RTVSPropertyOp35
 70
     1
102
RTVSPropertyOp36
 70
     1
102
RTVSPropertyOp37
 70
     1
102
RTVSPropertyOp38
 70
     1
102
RTVSPropertyOp39
 70
     1
102
RTVSPropertyOp40
 70
     1
102
RTVSPropertyOp41
 70
     1
102
RTVSPropertyOp42
 70
     1
102
RTVSPropertyOp43
 70
     1
102
RTVSPropertyOp44
 70
     1
102
RTVSPropertyOp45
 70
     1
102
RTVSPropertyOp46
 70
     1
102
RTVSPropertyOp47
 70
     1
102
RTVSPropertyOp48
 70
     1
102
RTVSPropertyOp49
 70
     1
102
RTVSPropertyOp50
 70
     1
102
RTVSPropertyOp51
 70
     0
102
RTVSPropertyOp52
 70
     0
102
RTVSPropertyOp53
 70
     1
102
RTVSPropertyOp54
 70
     1
102
RTVSPropertyOp55
 70
     1
102
RTVSPropertyOp56
 70
     1
102
RTVSPropertyOp57
 70
     1
102
RTVSPropertyOp58
 70
     1
102
RTVSPropertyOp59
 70
     1
102
RTVSPropertyOp60
 70
     1
102
RTVSPropertyOp61
 70
     1
102
RTVSPropertyOp62
 70
     1
  0
XRECORD
  5
1882
102
{ACAD_REACTORS
330
1881
102
}
330
1881
100
AcDbXrecord
280
     1
102
RTVSPost2010Prop28
280
     0
102
RTVSPost2010PropOp28
 70
     1
102
RTVSPost2010Prop29
280
     1
102
RTVSPost2010PropOp29
 70
     1
102
RTVSPost2010Prop30
280
     1
102
RTVSPost2010PropOp30
 70
     1
102
RTVSPost2010Prop31
280
     0
102
RTVSPost2010PropOp31
 70
     1
102
RTVSPost2010Prop32
280
     0
102
RTVSPost2010PropOp32
 70
     1
102
RTVSPost2010Prop33
280
     0
102
RTVSPost2010PropOp33
 70
     1
102
RTVSPost2010Prop34
280
     0
102
RTVSPost2010PropOp34
 70
     1
102
RTVSPost2010Prop35
280
     0
102
RTVSPost2010PropOp35
 70
     1
102
RTVSPost2010Prop36
280
     0
102
RTVSPost2010PropOp36
 70
     1
102
RTVSPost2010Prop37
 90
       50
102
RTVSPost2010PropOp37
 70
     1
102
RTVSPost2010Prop38
140
0.0
102
RTVSPost2010PropOp38
 70
     1
102
RTVSPost2010Prop39
140
1.0
102
RTVSPost2010PropOp39
 70
     1
102
RTVSPost2010Prop40
 90
        0
102
RTVSPost2010PropOp40
 70
     1
102
RTVSPost2010Prop41ColorIndex
 90
       18
102
RTVSPost2010Prop41ColorRGB
 90
        0
102
RTVSPost2010PropOp41
 70
     1
102
RTVSPost2010Prop42
 90
       50
102
RTVSPost2010PropOp42
 70
     1
102
RTVSPost2010Prop43
 90
        3
102
RTVSPost2010PropOp43
 70
     1
102
RTVSPost2010Prop44ColorIndex
 90
        5
102
RTVSPost2010Prop44ColorRGB
 90
      255
102
RTVSPost2010PropOp44
 70
     1
102
RTVSPost2010Prop45
280
     0
102
RTVSPost2010PropOp45
 70
     1
102
RTVSPost2010Prop46
 90
       50
102
RTVSPost2010PropOp46
 70
     1
102
RTVSPost2010Prop47
 90
       50
102
RTVSPost2010PropOp47
 70
     1
102
RTVSPost2010Prop48
 90
       50
102
RTVSPost2010PropOp48
 70
     1
102
RTVSPost2010Prop49
280
     0
102
RTVSPost2010PropOp49
 70
     1
102
RTVSPost2010Prop50
 90
       50
102
RTVSPost2010PropOp50
 70
     1
102
RTVSPost2010Prop51ColorIndex
 90
      256
102
RTVSPost2010Prop51ColorRGB
 90
-16777216
102
RTVSPost2010PropOp51
 70
     0
102
RTVSPost2010Prop52
140
1.0
102
RTVSPost2010PropOp52
 70
     0
102
RTVSPost2010Prop53
 90
        2
102
RTVSPost2010PropOp53
 70
     1
102
RTVSPost2010Prop54
  1
strokes_ogs.tif
102
RTVSPost2010PropOp54
 70
     1
102
RTVSPost2010Prop55
280
     0
102
RTVSPost2010PropOp55
 70
     1
102
RTVSPost2010Prop56
140
1.0
102
RTVSPost2010PropOp56
 70
     1
102
RTVSPost2010Prop57
140
1.0
102
RTVSPost2010PropOp57
 70
     1
102
RTVSPropertyOp0
 70
     1
102
RTVSPropertyOp1
 70
     1
102
RTVSPropertyOp2
 70
     1
102
RTVSPropertyOp3
 70
     1
102
RTVSPropertyOp4
 70
     1
102
RTVSPropertyOp5
 70
     1
102
RTVSPropertyOp6
 70
     1
102
RTVSPropertyOp7
 70
     1
102
RTVSPropertyOp8
 70
     1
102
RTVSPropertyOp9
 70
     1
102
RTVSPropertyOp10
 70
     1
102
RTVSPropertyOp11
 70
     1
102
RTVSPropertyOp12
 70
     1
102
RTVSPropertyOp13
 70
     1
102
RTVSPropertyOp14
 70
     1
102
RTVSPropertyOp15
 70
     1
102
RTVSPropertyOp16
 70
     1
102
RTVSPropertyOp17
 70
     1
102
RTVSPropertyOp18
 70
     1
102
RTVSPropertyOp19
 70
     1
102
RTVSPropertyOp20
 70
     1
102
RTVSPropertyOp21
 70
     1
102
RTVSPropertyOp22
 70
     1
102
RTVSPropertyOp23
 70
     1
102
RTVSPropertyOp24
 70
     1
102
RTVSPropertyOp25
 70
     1
102
RTVSPropertyOp26
 70
     1
102
RTVSPropertyOp27
 70
     1
102
RTVSPropertyOp28
 70
     1
102
RTVSPropertyOp29
 70
     1
102
RTVSPropertyOp30
 70
     1
102
RTVSPropertyOp31
 70
     1
102
RTVSPropertyOp32
 70
     1
102
RTVSPropertyOp33
 70
     1
102
RTVSPropertyOp34
 70
     1
102
RTVSPropertyOp35
 70
     1
102
RTVSPropertyOp36
 70
     1
102
RTVSPropertyOp37
 70
     1
102
RTVSPropertyOp38
 70
     1
102
RTVSPropertyOp39
 70
     1
102
RTVSPropertyOp40
 70
     1
102
RTVSPropertyOp41
 70
     1
102
RTVSPropertyOp42
 70
     1
102
RTVSPropertyOp43
 70
     1
102
RTVSPropertyOp44
 70
     1
102
RTVSPropertyOp45
 70
     1
102
RTVSPropertyOp46
 70
     1
102
RTVSPropertyOp47
 70
     1
102
RTVSPropertyOp48
 70
     1
102
RTVSPropertyOp49
 70
     1
102
RTVSPropertyOp50
 70
     1
102
RTVSPropertyOp51
 70
     0
102
RTVSPropertyOp52
 70
     0
102
RTVSPropertyOp53
 70
     1
102
RTVSPropertyOp54
 70
     1
102
RTVSPropertyOp55
 70
     1
102
RTVSPropertyOp56
 70
     1
102
RTVSPropertyOp57
 70
     1
102
RTVSPropertyOp58
 70
     1
102
RTVSPropertyOp59
 70
     1
102
RTVSPropertyOp60
 70
     1
102
RTVSPropertyOp61
 70
     1
102
RTVSPropertyOp62
 70
     1
  0
XRECORD
  5
1886
102
{ACAD_REACTORS
330
1885
102
}
330
1885
100
AcDbXrecord
280
     1
102
RTVSPost2010Prop28
280
     0
102
RTVSPost2010PropOp28
 70
     1
102
RTVSPost2010Prop29
280
     1
102
RTVSPost2010PropOp29
 70
     1
102
RTVSPost2010Prop30
280
     1
102
RTVSPost2010PropOp30
 70
     1
102
RTVSPost2010Prop31
280
     0
102
RTVSPost2010PropOp31
 70
     1
102
RTVSPost2010Prop32
280
     0
102
RTVSPost2010PropOp32
 70
     1
102
RTVSPost2010Prop33
280
     0
102
RTVSPost2010PropOp33
 70
     1
102
RTVSPost2010Prop34
280
     0
102
RTVSPost2010PropOp34
 70
     1
102
RTVSPost2010Prop35
280
     0
102
RTVSPost2010PropOp35
 70
     1
102
RTVSPost2010Prop36
280
     0
102
RTVSPost2010PropOp36
 70
     1
102
RTVSPost2010Prop37
 90
       50
102
RTVSPost2010PropOp37
 70
     1
102
RTVSPost2010Prop38
140
0.0
102
RTVSPost2010PropOp38
 70
     1
102
RTVSPost2010Prop39
140
1.0
102
RTVSPost2010PropOp39
 70
     1
102
RTVSPost2010Prop40
 90
        0
102
RTVSPost2010PropOp40
 70
     1
102
RTVSPost2010Prop41ColorIndex
 90
       18
102
RTVSPost2010Prop41ColorRGB
 90
        0
102
RTVSPost2010PropOp41
 70
     1
102
RTVSPost2010Prop42
 90
       50
102
RTVSPost2010PropOp42
 70
     1
102
RTVSPost2010Prop43
 90
        3
102
RTVSPost2010PropOp43
 70
     1
102
RTVSPost2010Prop44ColorIndex
 90
        5
102
RTVSPost2010Prop44ColorRGB
 90
      255
102
RTVSPost2010PropOp44
 70
     1
102
RTVSPost2010Prop45
280
     0
102
RTVSPost2010PropOp45
 70
     1
102
RTVSPost2010Prop46
 90
       50
102
RTVSPost2010PropOp46
 70
     1
102
RTVSPost2010Prop47
 90
       50
102
RTVSPost2010PropOp47
 70
     1
102
RTVSPost2010Prop48
 90
       50
102
RTVSPost2010PropOp48
 70
     1
102
RTVSPost2010Prop49
280
     0
102
RTVSPost2010PropOp49
 70
     1
102
RTVSPost2010Prop50
 90
       50
102
RTVSPost2010PropOp50
 70
     1
102
RTVSPost2010Prop51ColorIndex
 90
      256
102
RTVSPost2010Prop51ColorRGB
 90
-16777216
102
RTVSPost2010PropOp51
 70
     0
102
RTVSPost2010Prop52
140
1.0
102
RTVSPost2010PropOp52
 70
     0
102
RTVSPost2010Prop53
 90
        2
102
RTVSPost2010PropOp53
 70
     1
102
RTVSPost2010Prop54
  1
strokes_ogs.tif
102
RTVSPost2010PropOp54
 70
     1
102
RTVSPost2010Prop55
280
     0
102
RTVSPost2010PropOp55
 70
     1
102
RTVSPost2010Prop56
140
1.0
102
RTVSPost2010PropOp56
 70
     1
102
RTVSPost2010Prop57
140
1.0
102
RTVSPost2010PropOp57
 70
     1
102
RTVSPropertyOp0
 70
     1
102
RTVSPropertyOp1
 70
     1
102
RTVSPropertyOp2
 70
     1
102
RTVSPropertyOp3
 70
     1
102
RTVSPropertyOp4
 70
     1
102
RTVSPropertyOp5
 70
     1
102
RTVSPropertyOp6
 70
     1
102
RTVSPropertyOp7
 70
     1
102
RTVSPropertyOp8
 70
     1
102
RTVSPropertyOp9
 70
     1
102
RTVSPropertyOp10
 70
     1
102
RTVSPropertyOp11
 70
     1
102
RTVSPropertyOp12
 70
     1
102
RTVSPropertyOp13
 70
     1
102
RTVSPropertyOp14
 70
     1
102
RTVSPropertyOp15
 70
     1
102
RTVSPropertyOp16
 70
     1
102
RTVSPropertyOp17
 70
     1
102
RTVSPropertyOp18
 70
     1
102
RTVSPropertyOp19
 70
     1
102
RTVSPropertyOp20
 70
     1
102
RTVSPropertyOp21
 70
     1
102
RTVSPropertyOp22
 70
     1
102
RTVSPropertyOp23
 70
     1
102
RTVSPropertyOp24
 70
     1
102
RTVSPropertyOp25
 70
     1
102
RTVSPropertyOp26
 70
     1
102
RTVSPropertyOp27
 70
     1
102
RTVSPropertyOp28
 70
     1
102
RTVSPropertyOp29
 70
     1
102
RTVSPropertyOp30
 70
     1
102
RTVSPropertyOp31
 70
     1
102
RTVSPropertyOp32
 70
     1
102
RTVSPropertyOp33
 70
     1
102
RTVSPropertyOp34
 70
     1
102
RTVSPropertyOp35
 70
     1
102
RTVSPropertyOp36
 70
     1
102
RTVSPropertyOp37
 70
     1
102
RTVSPropertyOp38
 70
     1
102
RTVSPropertyOp39
 70
     1
102
RTVSPropertyOp40
 70
     1
102
RTVSPropertyOp41
 70
     1
102
RTVSPropertyOp42
 70
     1
102
RTVSPropertyOp43
 70
     1
102
RTVSPropertyOp44
 70
     1
102
RTVSPropertyOp45
 70
     1
102
RTVSPropertyOp46
 70
     1
102
RTVSPropertyOp47
 70
     1
102
RTVSPropertyOp48
 70
     1
102
RTVSPropertyOp49
 70
     1
102
RTVSPropertyOp50
 70
     1
102
RTVSPropertyOp51
 70
     0
102
RTVSPropertyOp52
 70
     0
102
RTVSPropertyOp53
 70
     1
102
RTVSPropertyOp54
 70
     1
102
RTVSPropertyOp55
 70
     1
102
RTVSPropertyOp56
 70
     1
102
RTVSPropertyOp57
 70
     1
102
RTVSPropertyOp58
 70
     1
102
RTVSPropertyOp59
 70
     1
102
RTVSPropertyOp60
 70
     1
102
RTVSPropertyOp61
 70
     1
102
RTVSPropertyOp62
 70
     1
  0
XRECORD
  5
18A0
102
{ACAD_REACTORS
330
189F
102
}
330
189F
100
AcDbXrecord
280
     1
102
RTVSPost2010Prop28
280
     0
102
RTVSPost2010PropOp28
 70
     1
102
RTVSPost2010Prop29
280
     1
102
RTVSPost2010PropOp29
 70
     1
102
RTVSPost2010Prop30
280
     1
102
RTVSPost2010PropOp30
 70
     1
102
RTVSPost2010Prop31
280
     0
102
RTVSPost2010PropOp31
 70
     1
102
RTVSPost2010Prop32
280
     0
102
RTVSPost2010PropOp32
 70
     1
102
RTVSPost2010Prop33
280
     0
102
RTVSPost2010PropOp33
 70
     1
102
RTVSPost2010Prop34
280
     0
102
RTVSPost2010PropOp34
 70
     1
102
RTVSPost2010Prop35
280
     0
102
RTVSPost2010PropOp35
 70
     1
102
RTVSPost2010Prop36
280
     0
102
RTVSPost2010PropOp36
 70
     1
102
RTVSPost2010Prop37
 90
       50
102
RTVSPost2010PropOp37
 70
     0
102
RTVSPost2010Prop38
140
0.0
102
RTVSPost2010PropOp38
 70
     0
102
RTVSPost2010Prop39
140
1.0
102
RTVSPost2010PropOp39
 70
     0
102
RTVSPost2010Prop40
 90
        0
102
RTVSPost2010PropOp40
 70
     0
102
RTVSPost2010Prop41ColorIndex
 90
       18
102
RTVSPost2010Prop41ColorRGB
 90
        0
102
RTVSPost2010PropOp41
 70
     0
102
RTVSPost2010Prop42
 90
       50
102
RTVSPost2010PropOp42
 70
     0
102
RTVSPost2010Prop43
 90
        3
102
RTVSPost2010PropOp43
 70
     0
102
RTVSPost2010Prop44ColorIndex
 90
        5
102
RTVSPost2010Prop44ColorRGB
 90
      255
102
RTVSPost2010PropOp44
 70
     0
102
RTVSPost2010Prop45
280
     0
102
RTVSPost2010PropOp45
 70
     1
102
RTVSPost2010Prop46
 90
       50
102
RTVSPost2010PropOp46
 70
     0
102
RTVSPost2010Prop47
 90
       50
102
RTVSPost2010PropOp47
 70
     0
102
RTVSPost2010Prop48
 90
       50
102
RTVSPost2010PropOp48
 70
     0
102
RTVSPost2010Prop49
280
     0
102
RTVSPost2010PropOp49
 70
     1
102
RTVSPost2010Prop50
 90
       50
102
RTVSPost2010PropOp50
 70
     0
102
RTVSPost2010Prop51ColorIndex
 90
      256
102
RTVSPost2010Prop51ColorRGB
 90
-16777216
102
RTVSPost2010PropOp51
 70
     0
102
RTVSPost2010Prop52
140
1.0
102
RTVSPost2010PropOp52
 70
     0
102
RTVSPost2010Prop53
 90
        2
102
RTVSPost2010PropOp53
 70
     0
102
RTVSPost2010Prop54
  1
strokes_ogs.tif
102
RTVSPost2010PropOp54
 70
     0
102
RTVSPost2010Prop55
280
     0
102
RTVSPost2010PropOp55
 70
     1
102
RTVSPost2010Prop56
140
1.0
102
RTVSPost2010PropOp56
 70
     0
102
RTVSPost2010Prop57
140
1.0
102
RTVSPost2010PropOp57
 70
     0
102
RTVSPropertyOp0
 70
     0
102
RTVSPropertyOp1
 70
     0
102
RTVSPropertyOp2
 70
     0
102
RTVSPropertyOp3
 70
     0
102
RTVSPropertyOp4
 70
     0
102
RTVSPropertyOp5
 70
     0
102
RTVSPropertyOp6
 70
     0
102
RTVSPropertyOp7
 70
     0
102
RTVSPropertyOp8
 70
     0
102
RTVSPropertyOp9
 70
     0
102
RTVSPropertyOp10
 70
     0
102
RTVSPropertyOp11
 70
     0
102
RTVSPropertyOp12
 70
     0
102
RTVSPropertyOp13
 70
     0
102
RTVSPropertyOp14
 70
     2
102
RTVSPropertyOp15
 70
     0
102
RTVSPropertyOp16
 70
     0
102
RTVSPropertyOp17
 70
     0
102
RTVSPropertyOp18
 70
     0
102
RTVSPropertyOp19
 70
     0
102
RTVSPropertyOp20
 70
     0
102
RTVSPropertyOp21
 70
     0
102
RTVSPropertyOp22
 70
     0
102
RTVSPropertyOp23
 70
     0
102
RTVSPropertyOp24
 70
     0
102
RTVSPropertyOp25
 70
     0
102
RTVSPropertyOp26
 70
     0
102
RTVSPropertyOp27
 70
     0
102
RTVSPropertyOp28
 70
     1
102
RTVSPropertyOp29
 70
     1
102
RTVSPropertyOp30
 70
     1
102
RTVSPropertyOp31
 70
     1
102
RTVSPropertyOp32
 70
     1
102
RTVSPropertyOp33
 70
     1
102
RTVSPropertyOp34
 70
     1
102
RTVSPropertyOp35
 70
     1
102
RTVSPropertyOp36
 70
     1
102
RTVSPropertyOp37
 70
     0
102
RTVSPropertyOp38
 70
     0
102
RTVSPropertyOp39
 70
     0
102
RTVSPropertyOp40
 70
     0
102
RTVSPropertyOp41
 70
     0
102
RTVSPropertyOp42
 70
     0
102
RTVSPropertyOp43
 70
     0
102
RTVSPropertyOp44
 70
     0
102
RTVSPropertyOp45
 70
     1
102
RTVSPropertyOp46
 70
     0
102
RTVSPropertyOp47
 70
     0
102
RTVSPropertyOp48
 70
     0
102
RTVSPropertyOp49
 70
     1
102
RTVSPropertyOp50
 70
     0
102
RTVSPropertyOp51
 70
     0
102
RTVSPropertyOp52
 70
     0
102
RTVSPropertyOp53
 70
     0
102
RTVSPropertyOp54
 70
     0
102
RTVSPropertyOp55
 70
     1
102
RTVSPropertyOp56
 70
     0
102
RTVSPropertyOp57
 70
     0
102
RTVSPropertyOp58
 70
     0
102
RTVSPropertyOp59
 70
     0
102
RTVSPropertyOp60
 70
     0
102
RTVSPropertyOp61
 70
     0
102
RTVSPropertyOp62
 70
     0
  0
XRECORD
  5
188E
102
{ACAD_REACTORS
330
188D
102
}
330
188D
100
AcDbXrecord
280
     1
102
RTVSPost2010Prop28
280
     0
102
RTVSPost2010PropOp28
 70
     1
102
RTVSPost2010Prop29
280
     1
102
RTVSPost2010PropOp29
 70
     1
102
RTVSPost2010Prop30
280
     1
102
RTVSPost2010PropOp30
 70
     1
102
RTVSPost2010Prop31
280
     0
102
RTVSPost2010PropOp31
 70
     1
102
RTVSPost2010Prop32
280
     0
102
RTVSPost2010PropOp32
 70
     1
102
RTVSPost2010Prop33
280
     0
102
RTVSPost2010PropOp33
 70
     1
102
RTVSPost2010Prop34
280
     0
102
RTVSPost2010PropOp34
 70
     1
102
RTVSPost2010Prop35
280
     0
102
RTVSPost2010PropOp35
 70
     1
102
RTVSPost2010Prop36
280
     0
102
RTVSPost2010PropOp36
 70
     1
102
RTVSPost2010Prop37
 90
       50
102
RTVSPost2010PropOp37
 70
     1
102
RTVSPost2010Prop38
140
0.0
102
RTVSPost2010PropOp38
 70
     1
102
RTVSPost2010Prop39
140
1.0
102
RTVSPost2010PropOp39
 70
     1
102
RTVSPost2010Prop40
 90
        0
102
RTVSPost2010PropOp40
 70
     1
102
RTVSPost2010Prop41ColorIndex
 90
       18
102
RTVSPost2010Prop41ColorRGB
 90
        0
102
RTVSPost2010PropOp41
 70
     1
102
RTVSPost2010Prop42
 90
       50
102
RTVSPost2010PropOp42
 70
     1
102
RTVSPost2010Prop43
 90
        3
102
RTVSPost2010PropOp43
 70
     1
102
RTVSPost2010Prop44ColorIndex
 90
        5
102
RTVSPost2010Prop44ColorRGB
 90
      255
102
RTVSPost2010PropOp44
 70
     1
102
RTVSPost2010Prop45
280
     0
102
RTVSPost2010PropOp45
 70
     1
102
RTVSPost2010Prop46
 90
       50
102
RTVSPost2010PropOp46
 70
     1
102
RTVSPost2010Prop47
 90
       50
102
RTVSPost2010PropOp47
 70
     1
102
RTVSPost2010Prop48
 90
       50
102
RTVSPost2010PropOp48
 70
     1
102
RTVSPost2010Prop49
280
     0
102
RTVSPost2010PropOp49
 70
     1
102
RTVSPost2010Prop50
 90
       50
102
RTVSPost2010PropOp50
 70
     1
102
RTVSPost2010Prop51ColorIndex
 90
      256
102
RTVSPost2010Prop51ColorRGB
 90
-16777216
102
RTVSPost2010PropOp51
 70
     0
102
RTVSPost2010Prop52
140
1.0
102
RTVSPost2010PropOp52
 70
     0
102
RTVSPost2010Prop53
 90
        2
102
RTVSPost2010PropOp53
 70
     1
102
RTVSPost2010Prop54
  1
strokes_ogs.tif
102
RTVSPost2010PropOp54
 70
     1
102
RTVSPost2010Prop55
280
     0
102
RTVSPost2010PropOp55
 70
     1
102
RTVSPost2010Prop56
140
1.0
102
RTVSPost2010PropOp56
 70
     1
102
RTVSPost2010Prop57
140
1.0
102
RTVSPost2010PropOp57
 70
     1
102
RTVSPropertyOp0
 70
     1
102
RTVSPropertyOp1
 70
     1
102
RTVSPropertyOp2
 70
     1
102
RTVSPropertyOp3
 70
     1
102
RTVSPropertyOp4
 70
     1
102
RTVSPropertyOp5
 70
     1
102
RTVSPropertyOp6
 70
     1
102
RTVSPropertyOp7
 70
     1
102
RTVSPropertyOp8
 70
     1
102
RTVSPropertyOp9
 70
     1
102
RTVSPropertyOp10
 70
     1
102
RTVSPropertyOp11
 70
     1
102
RTVSPropertyOp12
 70
     1
102
RTVSPropertyOp13
 70
     1
102
RTVSPropertyOp14
 70
     1
102
RTVSPropertyOp15
 70
     1
102
RTVSPropertyOp16
 70
     1
102
RTVSPropertyOp17
 70
     1
102
RTVSPropertyOp18
 70
     1
102
RTVSPropertyOp19
 70
     1
102
RTVSPropertyOp20
 70
     1
102
RTVSPropertyOp21
 70
     1
102
RTVSPropertyOp22
 70
     1
102
RTVSPropertyOp23
 70
     1
102
RTVSPropertyOp24
 70
     1
102
RTVSPropertyOp25
 70
     1
102
RTVSPropertyOp26
 70
     1
102
RTVSPropertyOp27
 70
     1
102
RTVSPropertyOp28
 70
     1
102
RTVSPropertyOp29
 70
     1
102
RTVSPropertyOp30
 70
     1
102
RTVSPropertyOp31
 70
     1
102
RTVSPropertyOp32
 70
     1
102
RTVSPropertyOp33
 70
     1
102
RTVSPropertyOp34
 70
     1
102
RTVSPropertyOp35
 70
     1
102
RTVSPropertyOp36
 70
     1
102
RTVSPropertyOp37
 70
     1
102
RTVSPropertyOp38
 70
     1
102
RTVSPropertyOp39
 70
     1
102
RTVSPropertyOp40
 70
     1
102
RTVSPropertyOp41
 70
     1
102
RTVSPropertyOp42
 70
     1
102
RTVSPropertyOp43
 70
     1
102
RTVSPropertyOp44
 70
     1
102
RTVSPropertyOp45
 70
     1
102
RTVSPropertyOp46
 70
     1
102
RTVSPropertyOp47
 70
     1
102
RTVSPropertyOp48
 70
     1
102
RTVSPropertyOp49
 70
     1
102
RTVSPropertyOp50
 70
     1
102
RTVSPropertyOp51
 70
     0
102
RTVSPropertyOp52
 70
     0
102
RTVSPropertyOp53
 70
     1
102
RTVSPropertyOp54
 70
     1
102
RTVSPropertyOp55
 70
     1
102
RTVSPropertyOp56
 70
     1
102
RTVSPropertyOp57
 70
     1
102
RTVSPropertyOp58
 70
     1
102
RTVSPropertyOp59
 70
     1
102
RTVSPropertyOp60
 70
     1
102
RTVSPropertyOp61
 70
     1
102
RTVSPropertyOp62
 70
     1
  0
XRECORD
  5
1872
102
{ACAD_REACTORS
330
1871
102
}
330
1871
100
AcDbXrecord
280
     1
102
RTVSPost2010Prop28
280
     0
102
RTVSPost2010PropOp28
 70
     1
102
RTVSPost2010Prop29
280
     1
102
RTVSPost2010PropOp29
 70
     1
102
RTVSPost2010Prop30
280
     1
102
RTVSPost2010PropOp30
 70
     1
102
RTVSPost2010Prop31
280
     0
102
RTVSPost2010PropOp31
 70
     1
102
RTVSPost2010Prop32
280
     0
102
RTVSPost2010PropOp32
 70
     1
102
RTVSPost2010Prop33
280
     0
102
RTVSPost2010PropOp33
 70
     1
102
RTVSPost2010Prop34
280
     0
102
RTVSPost2010PropOp34
 70
     1
102
RTVSPost2010Prop35
280
     0
102
RTVSPost2010PropOp35
 70
     1
102
RTVSPost2010Prop36
280
     0
102
RTVSPost2010PropOp36
 70
     1
102
RTVSPost2010Prop37
 90
       50
102
RTVSPost2010PropOp37
 70
     1
102
RTVSPost2010Prop38
140
0.0
102
RTVSPost2010PropOp38
 70
     1
102
RTVSPost2010Prop39
140
1.0
102
RTVSPost2010PropOp39
 70
     1
102
RTVSPost2010Prop40
 90
        0
102
RTVSPost2010PropOp40
 70
     1
102
RTVSPost2010Prop41ColorIndex
 90
       18
102
RTVSPost2010Prop41ColorRGB
 90
        0
102
RTVSPost2010PropOp41
 70
     1
102
RTVSPost2010Prop42
 90
       50
102
RTVSPost2010PropOp42
 70
     1
102
RTVSPost2010Prop43
 90
        3
102
RTVSPost2010PropOp43
 70
     1
102
RTVSPost2010Prop44ColorIndex
 90
        5
102
RTVSPost2010Prop44ColorRGB
 90
      255
102
RTVSPost2010PropOp44
 70
     1
102
RTVSPost2010Prop45
280
     0
102
RTVSPost2010PropOp45
 70
     1
102
RTVSPost2010Prop46
 90
       50
102
RTVSPost2010PropOp46
 70
     1
102
RTVSPost2010Prop47
 90
       50
102
RTVSPost2010PropOp47
 70
     1
102
RTVSPost2010Prop48
 90
       50
102
RTVSPost2010PropOp48
 70
     1
102
RTVSPost2010Prop49
280
     0
102
RTVSPost2010PropOp49
 70
     1
102
RTVSPost2010Prop50
 90
       50
102
RTVSPost2010PropOp50
 70
     1
102
RTVSPost2010Prop51ColorIndex
 90
      256
102
RTVSPost2010Prop51ColorRGB
 90
-16777216
102
RTVSPost2010PropOp51
 70
     0
102
RTVSPost2010Prop52
140
1.0
102
RTVSPost2010PropOp52
 70
     0
102
RTVSPost2010Prop53
 90
        2
102
RTVSPost2010PropOp53
 70
     1
102
RTVSPost2010Prop54
  1
strokes_ogs.tif
102
RTVSPost2010PropOp54
 70
     1
102
RTVSPost2010Prop55
280
     0
102
RTVSPost2010PropOp55
 70
     1
102
RTVSPost2010Prop56
140
1.0
102
RTVSPost2010PropOp56
 70
     1
102
RTVSPost2010Prop57
140
1.0
102
RTVSPost2010PropOp57
 70
     1
102
RTVSPropertyOp0
 70
     1
102
RTVSPropertyOp1
 70
     1
102
RTVSPropertyOp2
 70
     1
102
RTVSPropertyOp3
 70
     1
102
RTVSPropertyOp4
 70
     1
102
RTVSPropertyOp5
 70
     1
102
RTVSPropertyOp6
 70
     1
102
RTVSPropertyOp7
 70
     1
102
RTVSPropertyOp8
 70
     1
102
RTVSPropertyOp9
 70
     1
102
RTVSPropertyOp10
 70
     1
102
RTVSPropertyOp11
 70
     1
102
RTVSPropertyOp12
 70
     1
102
RTVSPropertyOp13
 70
     1
102
RTVSPropertyOp14
 70
     1
102
RTVSPropertyOp15
 70
     1
102
RTVSPropertyOp16
 70
     1
102
RTVSPropertyOp17
 70
     1
102
RTVSPropertyOp18
 70
     1
102
RTVSPropertyOp19
 70
     1
102
RTVSPropertyOp20
 70
     1
102
RTVSPropertyOp21
 70
     1
102
RTVSPropertyOp22
 70
     1
102
RTVSPropertyOp23
 70
     1
102
RTVSPropertyOp24
 70
     1
102
RTVSPropertyOp25
 70
     1
102
RTVSPropertyOp26
 70
     1
102
RTVSPropertyOp27
 70
     1
102
RTVSPropertyOp28
 70
     1
102
RTVSPropertyOp29
 70
     1
102
RTVSPropertyOp30
 70
     1
102
RTVSPropertyOp31
 70
     1
102
RTVSPropertyOp32
 70
     1
102
RTVSPropertyOp33
 70
     1
102
RTVSPropertyOp34
 70
     1
102
RTVSPropertyOp35
 70
     1
102
RTVSPropertyOp36
 70
     1
102
RTVSPropertyOp37
 70
     1
102
RTVSPropertyOp38
 70
     1
102
RTVSPropertyOp39
 70
     1
102
RTVSPropertyOp40
 70
     1
102
RTVSPropertyOp41
 70
     1
102
RTVSPropertyOp42
 70
     1
102
RTVSPropertyOp43
 70
     1
102
RTVSPropertyOp44
 70
     1
102
RTVSPropertyOp45
 70
     1
102
RTVSPropertyOp46
 70
     1
102
RTVSPropertyOp47
 70
     1
102
RTVSPropertyOp48
 70
     1
102
RTVSPropertyOp49
 70
     1
102
RTVSPropertyOp50
 70
     1
102
RTVSPropertyOp51
 70
     0
102
RTVSPropertyOp52
 70
     0
102
RTVSPropertyOp53
 70
     1
102
RTVSPropertyOp54
 70
     1
102
RTVSPropertyOp55
 70
     1
102
RTVSPropertyOp56
 70
     1
102
RTVSPropertyOp57
 70
     1
102
RTVSPropertyOp58
 70
     1
102
RTVSPropertyOp59
 70
     1
102
RTVSPropertyOp60
 70
     1
102
RTVSPropertyOp61
 70
     1
102
RTVSPropertyOp62
 70
     1
  0
XRECORD
  5
1874
102
{ACAD_REACTORS
330
1873
102
}
330
1873
100
AcDbXrecord
280
     1
102
RTVSPost2010Prop28
280
     0
102
RTVSPost2010PropOp28
 70
     1
102
RTVSPost2010Prop29
280
     1
102
RTVSPost2010PropOp29
 70
     1
102
RTVSPost2010Prop30
280
     1
102
RTVSPost2010PropOp30
 70
     1
102
RTVSPost2010Prop31
280
     0
102
RTVSPost2010PropOp31
 70
     1
102
RTVSPost2010Prop32
280
     0
102
RTVSPost2010PropOp32
 70
     1
102
RTVSPost2010Prop33
280
     0
102
RTVSPost2010PropOp33
 70
     1
102
RTVSPost2010Prop34
280
     0
102
RTVSPost2010PropOp34
 70
     1
102
RTVSPost2010Prop35
280
     0
102
RTVSPost2010PropOp35
 70
     1
102
RTVSPost2010Prop36
280
     0
102
RTVSPost2010PropOp36
 70
     1
102
RTVSPost2010Prop37
 90
       50
102
RTVSPost2010PropOp37
 70
     1
102
RTVSPost2010Prop38
140
0.0
102
RTVSPost2010PropOp38
 70
     1
102
RTVSPost2010Prop39
140
1.0
102
RTVSPost2010PropOp39
 70
     1
102
RTVSPost2010Prop40
 90
        0
102
RTVSPost2010PropOp40
 70
     1
102
RTVSPost2010Prop41ColorIndex
 90
       18
102
RTVSPost2010Prop41ColorRGB
 90
        0
102
RTVSPost2010PropOp41
 70
     1
102
RTVSPost2010Prop42
 90
       50
102
RTVSPost2010PropOp42
 70
     1
102
RTVSPost2010Prop43
 90
        3
102
RTVSPost2010PropOp43
 70
     1
102
RTVSPost2010Prop44ColorIndex
 90
        5
102
RTVSPost2010Prop44ColorRGB
 90
      255
102
RTVSPost2010PropOp44
 70
     1
102
RTVSPost2010Prop45
280
     0
102
RTVSPost2010PropOp45
 70
     1
102
RTVSPost2010Prop46
 90
       50
102
RTVSPost2010PropOp46
 70
     1
102
RTVSPost2010Prop47
 90
       50
102
RTVSPost2010PropOp47
 70
     1
102
RTVSPost2010Prop48
 90
       50
102
RTVSPost2010PropOp48
 70
     1
102
RTVSPost2010Prop49
280
     0
102
RTVSPost2010PropOp49
 70
     1
102
RTVSPost2010Prop50
 90
       50
102
RTVSPost2010PropOp50
 70
     1
102
RTVSPost2010Prop51ColorIndex
 90
      256
102
RTVSPost2010Prop51ColorRGB
 90
-16777216
102
RTVSPost2010PropOp51
 70
     0
102
RTVSPost2010Prop52
140
1.0
102
RTVSPost2010PropOp52
 70
     0
102
RTVSPost2010Prop53
 90
        2
102
RTVSPost2010PropOp53
 70
     1
102
RTVSPost2010Prop54
  1
strokes_ogs.tif
102
RTVSPost2010PropOp54
 70
     1
102
RTVSPost2010Prop55
280
     0
102
RTVSPost2010PropOp55
 70
     1
102
RTVSPost2010Prop56
140
1.0
102
RTVSPost2010PropOp56
 70
     1
102
RTVSPost2010Prop57
140
1.0
102
RTVSPost2010PropOp57
 70
     1
102
RTVSPropertyOp0
 70
     1
102
RTVSPropertyOp1
 70
     1
102
RTVSPropertyOp2
 70
     1
102
RTVSPropertyOp3
 70
     1
102
RTVSPropertyOp4
 70
     1
102
RTVSPropertyOp5
 70
     1
102
RTVSPropertyOp6
 70
     1
102
RTVSPropertyOp7
 70
     1
102
RTVSPropertyOp8
 70
     1
102
RTVSPropertyOp9
 70
     1
102
RTVSPropertyOp10
 70
     1
102
RTVSPropertyOp11
 70
     1
102
RTVSPropertyOp12
 70
     1
102
RTVSPropertyOp13
 70
     1
102
RTVSPropertyOp14
 70
     1
102
RTVSPropertyOp15
 70
     1
102
RTVSPropertyOp16
 70
     1
102
RTVSPropertyOp17
 70
     1
102
RTVSPropertyOp18
 70
     1
102
RTVSPropertyOp19
 70
     1
102
RTVSPropertyOp20
 70
     1
102
RTVSPropertyOp21
 70
     1
102
RTVSPropertyOp22
 70
     1
102
RTVSPropertyOp23
 70
     1
102
RTVSPropertyOp24
 70
     1
102
RTVSPropertyOp25
 70
     1
102
RTVSPropertyOp26
 70
     1
102
RTVSPropertyOp27
 70
     1
102
RTVSPropertyOp28
 70
     1
102
RTVSPropertyOp29
 70
     1
102
RTVSPropertyOp30
 70
     1
102
RTVSPropertyOp31
 70
     1
102
RTVSPropertyOp32
 70
     1
102
RTVSPropertyOp33
 70
     1
102
RTVSPropertyOp34
 70
     1
102
RTVSPropertyOp35
 70
     1
102
RTVSPropertyOp36
 70
     1
102
RTVSPropertyOp37
 70
     1
102
RTVSPropertyOp38
 70
     1
102
RTVSPropertyOp39
 70
     1
102
RTVSPropertyOp40
 70
     1
102
RTVSPropertyOp41
 70
     1
102
RTVSPropertyOp42
 70
     1
102
RTVSPropertyOp43
 70
     1
102
RTVSPropertyOp44
 70
     1
102
RTVSPropertyOp45
 70
     1
102
RTVSPropertyOp46
 70
     1
102
RTVSPropertyOp47
 70
     1
102
RTVSPropertyOp48
 70
     1
102
RTVSPropertyOp49
 70
     1
102
RTVSPropertyOp50
 70
     1
102
RTVSPropertyOp51
 70
     0
102
RTVSPropertyOp52
 70
     0
102
RTVSPropertyOp53
 70
     1
102
RTVSPropertyOp54
 70
     1
102
RTVSPropertyOp55
 70
     1
102
RTVSPropertyOp56
 70
     1
102
RTVSPropertyOp57
 70
     1
102
RTVSPropertyOp58
 70
     1
102
RTVSPropertyOp59
 70
     1
102
RTVSPropertyOp60
 70
     1
102
RTVSPropertyOp61
 70
     1
102
RTVSPropertyOp62
 70
     1
  0
XRECORD
  5
1876
102
{ACAD_REACTORS
330
1875
102
}
330
1875
100
AcDbXrecord
280
     1
102
RTVSPost2010Prop28
280
     0
102
RTVSPost2010PropOp28
 70
     1
102
RTVSPost2010Prop29
280
     1
102
RTVSPost2010PropOp29
 70
     1
102
RTVSPost2010Prop30
280
     1
102
RTVSPost2010PropOp30
 70
     1
102
RTVSPost2010Prop31
280
     0
102
RTVSPost2010PropOp31
 70
     1
102
RTVSPost2010Prop32
280
     0
102
RTVSPost2010PropOp32
 70
     1
102
RTVSPost2010Prop33
280
     0
102
RTVSPost2010PropOp33
 70
     1
102
RTVSPost2010Prop34
280
     0
102
RTVSPost2010PropOp34
 70
     1
102
RTVSPost2010Prop35
280
     0
102
RTVSPost2010PropOp35
 70
     1
102
RTVSPost2010Prop36
280
     0
102
RTVSPost2010PropOp36
 70
     1
102
RTVSPost2010Prop37
 90
       50
102
RTVSPost2010PropOp37
 70
     1
102
RTVSPost2010Prop38
140
0.0
102
RTVSPost2010PropOp38
 70
     1
102
RTVSPost2010Prop39
140
1.0
102
RTVSPost2010PropOp39
 70
     1
102
RTVSPost2010Prop40
 90
        0
102
RTVSPost2010PropOp40
 70
     1
102
RTVSPost2010Prop41ColorIndex
 90
       18
102
RTVSPost2010Prop41ColorRGB
 90
        0
102
RTVSPost2010PropOp41
 70
     1
102
RTVSPost2010Prop42
 90
       50
102
RTVSPost2010PropOp42
 70
     1
102
RTVSPost2010Prop43
 90
        3
102
RTVSPost2010PropOp43
 70
     1
102
RTVSPost2010Prop44ColorIndex
 90
        5
102
RTVSPost2010Prop44ColorRGB
 90
      255
102
RTVSPost2010PropOp44
 70
     1
102
RTVSPost2010Prop45
280
     0
102
RTVSPost2010PropOp45
 70
     1
102
RTVSPost2010Prop46
 90
       50
102
RTVSPost2010PropOp46
 70
     1
102
RTVSPost2010Prop47
 90
       50
102
RTVSPost2010PropOp47
 70
     1
102
RTVSPost2010Prop48
 90
       50
102
RTVSPost2010PropOp48
 70
     1
102
RTVSPost2010Prop49
280
     0
102
RTVSPost2010PropOp49
 70
     1
102
RTVSPost2010Prop50
 90
       50
102
RTVSPost2010PropOp50
 70
     1
102
RTVSPost2010Prop51ColorIndex
 90
      256
102
RTVSPost2010Prop51ColorRGB
 90
-16777216
102
RTVSPost2010PropOp51
 70
     0
102
RTVSPost2010Prop52
140
1.0
102
RTVSPost2010PropOp52
 70
     0
102
RTVSPost2010Prop53
 90
        2
102
RTVSPost2010PropOp53
 70
     1
102
RTVSPost2010Prop54
  1
strokes_ogs.tif
102
RTVSPost2010PropOp54
 70
     1
102
RTVSPost2010Prop55
280
     0
102
RTVSPost2010PropOp55
 70
     1
102
RTVSPost2010Prop56
140
1.0
102
RTVSPost2010PropOp56
 70
     1
102
RTVSPost2010Prop57
140
1.0
102
RTVSPost2010PropOp57
 70
     1
102
RTVSPropertyOp0
 70
     1
102
RTVSPropertyOp1
 70
     1
102
RTVSPropertyOp2
 70
     1
102
RTVSPropertyOp3
 70
     1
102
RTVSPropertyOp4
 70
     1
102
RTVSPropertyOp5
 70
     1
102
RTVSPropertyOp6
 70
     1
102
RTVSPropertyOp7
 70
     1
102
RTVSPropertyOp8
 70
     1
102
RTVSPropertyOp9
 70
     1
102
RTVSPropertyOp10
 70
     1
102
RTVSPropertyOp11
 70
     1
102
RTVSPropertyOp12
 70
     1
102
RTVSPropertyOp13
 70
     1
102
RTVSPropertyOp14
 70
     1
102
RTVSPropertyOp15
 70
     1
102
RTVSPropertyOp16
 70
     1
102
RTVSPropertyOp17
 70
     1
102
RTVSPropertyOp18
 70
     1
102
RTVSPropertyOp19
 70
     1
102
RTVSPropertyOp20
 70
     1
102
RTVSPropertyOp21
 70
     1
102
RTVSPropertyOp22
 70
     1
102
RTVSPropertyOp23
 70
     1
102
RTVSPropertyOp24
 70
     1
102
RTVSPropertyOp25
 70
     1
102
RTVSPropertyOp26
 70
     1
102
RTVSPropertyOp27
 70
     1
102
RTVSPropertyOp28
 70
     1
102
RTVSPropertyOp29
 70
     1
102
RTVSPropertyOp30
 70
     1
102
RTVSPropertyOp31
 70
     1
102
RTVSPropertyOp32
 70
     1
102
RTVSPropertyOp33
 70
     1
102
RTVSPropertyOp34
 70
     1
102
RTVSPropertyOp35
 70
     1
102
RTVSPropertyOp36
 70
     1
102
RTVSPropertyOp37
 70
     1
102
RTVSPropertyOp38
 70
     1
102
RTVSPropertyOp39
 70
     1
102
RTVSPropertyOp40
 70
     1
102
RTVSPropertyOp41
 70
     1
102
RTVSPropertyOp42
 70
     1
102
RTVSPropertyOp43
 70
     1
102
RTVSPropertyOp44
 70
     1
102
RTVSPropertyOp45
 70
     1
102
RTVSPropertyOp46
 70
     1
102
RTVSPropertyOp47
 70
     1
102
RTVSPropertyOp48
 70
     1
102
RTVSPropertyOp49
 70
     1
102
RTVSPropertyOp50
 70
     1
102
RTVSPropertyOp51
 70
     0
102
RTVSPropertyOp52
 70
     0
102
RTVSPropertyOp53
 70
     1
102
RTVSPropertyOp54
 70
     1
102
RTVSPropertyOp55
 70
     1
102
RTVSPropertyOp56
 70
     1
102
RTVSPropertyOp57
 70
     1
102
RTVSPropertyOp58
 70
     1
102
RTVSPropertyOp59
 70
     1
102
RTVSPropertyOp60
 70
     1
102
RTVSPropertyOp61
 70
     1
102
RTVSPropertyOp62
 70
     1
  0
XRECORD
  5
1878
102
{ACAD_REACTORS
330
1877
102
}
330
1877
100
AcDbXrecord
280
     1
102
RTVSPost2010Prop28
280
     0
102
RTVSPost2010PropOp28
 70
     1
102
RTVSPost2010Prop29
280
     1
102
RTVSPost2010PropOp29
 70
     1
102
RTVSPost2010Prop30
280
     1
102
RTVSPost2010PropOp30
 70
     1
102
RTVSPost2010Prop31
280
     0
102
RTVSPost2010PropOp31
 70
     1
102
RTVSPost2010Prop32
280
     0
102
RTVSPost2010PropOp32
 70
     1
102
RTVSPost2010Prop33
280
     0
102
RTVSPost2010PropOp33
 70
     1
102
RTVSPost2010Prop34
280
     0
102
RTVSPost2010PropOp34
 70
     1
102
RTVSPost2010Prop35
280
     0
102
RTVSPost2010PropOp35
 70
     1
102
RTVSPost2010Prop36
280
     0
102
RTVSPost2010PropOp36
 70
     1
102
RTVSPost2010Prop37
 90
       50
102
RTVSPost2010PropOp37
 70
     1
102
RTVSPost2010Prop38
140
0.0
102
RTVSPost2010PropOp38
 70
     1
102
RTVSPost2010Prop39
140
1.0
102
RTVSPost2010PropOp39
 70
     1
102
RTVSPost2010Prop40
 90
        0
102
RTVSPost2010PropOp40
 70
     1
102
RTVSPost2010Prop41ColorIndex
 90
       18
102
RTVSPost2010Prop41ColorRGB
 90
        0
102
RTVSPost2010PropOp41
 70
     1
102
RTVSPost2010Prop42
 90
       50
102
RTVSPost2010PropOp42
 70
     1
102
RTVSPost2010Prop43
 90
        3
102
RTVSPost2010PropOp43
 70
     1
102
RTVSPost2010Prop44ColorIndex
 90
        5
102
RTVSPost2010Prop44ColorRGB
 90
      255
102
RTVSPost2010PropOp44
 70
     1
102
RTVSPost2010Prop45
280
     0
102
RTVSPost2010PropOp45
 70
     1
102
RTVSPost2010Prop46
 90
       50
102
RTVSPost2010PropOp46
 70
     1
102
RTVSPost2010Prop47
 90
       50
102
RTVSPost2010PropOp47
 70
     1
102
RTVSPost2010Prop48
 90
       50
102
RTVSPost2010PropOp48
 70
     1
102
RTVSPost2010Prop49
280
     0
102
RTVSPost2010PropOp49
 70
     1
102
RTVSPost2010Prop50
 90
       50
102
RTVSPost2010PropOp50
 70
     1
102
RTVSPost2010Prop51ColorIndex
 90
      256
102
RTVSPost2010Prop51ColorRGB
 90
-16777216
102
RTVSPost2010PropOp51
 70
     0
102
RTVSPost2010Prop52
140
1.0
102
RTVSPost2010PropOp52
 70
     0
102
RTVSPost2010Prop53
 90
        2
102
RTVSPost2010PropOp53
 70
     1
102
RTVSPost2010Prop54
  1
strokes_ogs.tif
102
RTVSPost2010PropOp54
 70
     1
102
RTVSPost2010Prop55
280
     0
102
RTVSPost2010PropOp55
 70
     1
102
RTVSPost2010Prop56
140
1.0
102
RTVSPost2010PropOp56
 70
     1
102
RTVSPost2010Prop57
140
1.0
102
RTVSPost2010PropOp57
 70
     1
102
RTVSPropertyOp0
 70
     1
102
RTVSPropertyOp1
 70
     1
102
RTVSPropertyOp2
 70
     1
102
RTVSPropertyOp3
 70
     1
102
RTVSPropertyOp4
 70
     1
102
RTVSPropertyOp5
 70
     1
102
RTVSPropertyOp6
 70
     1
102
RTVSPropertyOp7
 70
     1
102
RTVSPropertyOp8
 70
     1
102
RTVSPropertyOp9
 70
     1
102
RTVSPropertyOp10
 70
     1
102
RTVSPropertyOp11
 70
     1
102
RTVSPropertyOp12
 70
     1
102
RTVSPropertyOp13
 70
     1
102
RTVSPropertyOp14
 70
     1
102
RTVSPropertyOp15
 70
     1
102
RTVSPropertyOp16
 70
     1
102
RTVSPropertyOp17
 70
     1
102
RTVSPropertyOp18
 70
     1
102
RTVSPropertyOp19
 70
     1
102
RTVSPropertyOp20
 70
     1
102
RTVSPropertyOp21
 70
     1
102
RTVSPropertyOp22
 70
     1
102
RTVSPropertyOp23
 70
     1
102
RTVSPropertyOp24
 70
     1
102
RTVSPropertyOp25
 70
     1
102
RTVSPropertyOp26
 70
     1
102
RTVSPropertyOp27
 70
     1
102
RTVSPropertyOp28
 70
     1
102
RTVSPropertyOp29
 70
     1
102
RTVSPropertyOp30
 70
     1
102
RTVSPropertyOp31
 70
     1
102
RTVSPropertyOp32
 70
     1
102
RTVSPropertyOp33
 70
     1
102
RTVSPropertyOp34
 70
     1
102
RTVSPropertyOp35
 70
     1
102
RTVSPropertyOp36
 70
     1
102
RTVSPropertyOp37
 70
     1
102
RTVSPropertyOp38
 70
     1
102
RTVSPropertyOp39
 70
     1
102
RTVSPropertyOp40
 70
     1
102
RTVSPropertyOp41
 70
     1
102
RTVSPropertyOp42
 70
     1
102
RTVSPropertyOp43
 70
     1
102
RTVSPropertyOp44
 70
     1
102
RTVSPropertyOp45
 70
     1
102
RTVSPropertyOp46
 70
     1
102
RTVSPropertyOp47
 70
     1
102
RTVSPropertyOp48
 70
     1
102
RTVSPropertyOp49
 70
     1
102
RTVSPropertyOp50
 70
     1
102
RTVSPropertyOp51
 70
     0
102
RTVSPropertyOp52
 70
     0
102
RTVSPropertyOp53
 70
     1
102
RTVSPropertyOp54
 70
     1
102
RTVSPropertyOp55
 70
     1
102
RTVSPropertyOp56
 70
     1
102
RTVSPropertyOp57
 70
     1
102
RTVSPropertyOp58
 70
     1
102
RTVSPropertyOp59
 70
     1
102
RTVSPropertyOp60
 70
     1
102
RTVSPropertyOp61
 70
     1
102
RTVSPropertyOp62
 70
     1
  0
XRECORD
  5
1880
102
{ACAD_REACTORS
330
187F
102
}
330
187F
100
AcDbXrecord
280
     1
102
RTVSPost2010Prop28
280
     0
102
RTVSPost2010PropOp28
 70
     1
102
RTVSPost2010Prop29
280
     1
102
RTVSPost2010PropOp29
 70
     1
102
RTVSPost2010Prop30
280
     1
102
RTVSPost2010PropOp30
 70
     1
102
RTVSPost2010Prop31
280
     0
102
RTVSPost2010PropOp31
 70
     1
102
RTVSPost2010Prop32
280
     0
102
RTVSPost2010PropOp32
 70
     1
102
RTVSPost2010Prop33
280
     0
102
RTVSPost2010PropOp33
 70
     1
102
RTVSPost2010Prop34
280
     0
102
RTVSPost2010PropOp34
 70
     1
102
RTVSPost2010Prop35
280
     0
102
RTVSPost2010PropOp35
 70
     1
102
RTVSPost2010Prop36
280
     0
102
RTVSPost2010PropOp36
 70
     1
102
RTVSPost2010Prop37
 90
       50
102
RTVSPost2010PropOp37
 70
     1
102
RTVSPost2010Prop38
140
0.0
102
RTVSPost2010PropOp38
 70
     1
102
RTVSPost2010Prop39
140
1.0
102
RTVSPost2010PropOp39
 70
     1
102
RTVSPost2010Prop40
 90
        0
102
RTVSPost2010PropOp40
 70
     1
102
RTVSPost2010Prop41ColorIndex
 90
       18
102
RTVSPost2010Prop41ColorRGB
 90
        0
102
RTVSPost2010PropOp41
 70
     1
102
RTVSPost2010Prop42
 90
       50
102
RTVSPost2010PropOp42
 70
     1
102
RTVSPost2010Prop43
 90
        3
102
RTVSPost2010PropOp43
 70
     1
102
RTVSPost2010Prop44ColorIndex
 90
        5
102
RTVSPost2010Prop44ColorRGB
 90
      255
102
RTVSPost2010PropOp44
 70
     1
102
RTVSPost2010Prop45
280
     0
102
RTVSPost2010PropOp45
 70
     1
102
RTVSPost2010Prop46
 90
       50
102
RTVSPost2010PropOp46
 70
     1
102
RTVSPost2010Prop47
 90
       50
102
RTVSPost2010PropOp47
 70
     1
102
RTVSPost2010Prop48
 90
       50
102
RTVSPost2010PropOp48
 70
     1
102
RTVSPost2010Prop49
280
     0
102
RTVSPost2010PropOp49
 70
     1
102
RTVSPost2010Prop50
 90
       50
102
RTVSPost2010PropOp50
 70
     1
102
RTVSPost2010Prop51ColorIndex
 90
      256
102
RTVSPost2010Prop51ColorRGB
 90
-16777216
102
RTVSPost2010PropOp51
 70
     0
102
RTVSPost2010Prop52
140
1.0
102
RTVSPost2010PropOp52
 70
     0
102
RTVSPost2010Prop53
 90
        2
102
RTVSPost2010PropOp53
 70
     1
102
RTVSPost2010Prop54
  1
strokes_ogs.tif
102
RTVSPost2010PropOp54
 70
     1
102
RTVSPost2010Prop55
280
     0
102
RTVSPost2010PropOp55
 70
     1
102
RTVSPost2010Prop56
140
1.0
102
RTVSPost2010PropOp56
 70
     1
102
RTVSPost2010Prop57
140
1.0
102
RTVSPost2010PropOp57
 70
     1
102
RTVSPropertyOp0
 70
     1
102
RTVSPropertyOp1
 70
     1
102
RTVSPropertyOp2
 70
     1
102
RTVSPropertyOp3
 70
     1
102
RTVSPropertyOp4
 70
     1
102
RTVSPropertyOp5
 70
     1
102
RTVSPropertyOp6
 70
     1
102
RTVSPropertyOp7
 70
     1
102
RTVSPropertyOp8
 70
     1
102
RTVSPropertyOp9
 70
     1
102
RTVSPropertyOp10
 70
     1
102
RTVSPropertyOp11
 70
     1
102
RTVSPropertyOp12
 70
     1
102
RTVSPropertyOp13
 70
     1
102
RTVSPropertyOp14
 70
     1
102
RTVSPropertyOp15
 70
     1
102
RTVSPropertyOp16
 70
     1
102
RTVSPropertyOp17
 70
     1
102
RTVSPropertyOp18
 70
     1
102
RTVSPropertyOp19
 70
     1
102
RTVSPropertyOp20
 70
     1
102
RTVSPropertyOp21
 70
     1
102
RTVSPropertyOp22
 70
     1
102
RTVSPropertyOp23
 70
     1
102
RTVSPropertyOp24
 70
     1
102
RTVSPropertyOp25
 70
     1
102
RTVSPropertyOp26
 70
     1
102
RTVSPropertyOp27
 70
     1
102
RTVSPropertyOp28
 70
     1
102
RTVSPropertyOp29
 70
     1
102
RTVSPropertyOp30
 70
     1
102
RTVSPropertyOp31
 70
     1
102
RTVSPropertyOp32
 70
     1
102
RTVSPropertyOp33
 70
     1
102
RTVSPropertyOp34
 70
     1
102
RTVSPropertyOp35
 70
     1
102
RTVSPropertyOp36
 70
     1
102
RTVSPropertyOp37
 70
     1
102
RTVSPropertyOp38
 70
     1
102
RTVSPropertyOp39
 70
     1
102
RTVSPropertyOp40
 70
     1
102
RTVSPropertyOp41
 70
     1
102
RTVSPropertyOp42
 70
     1
102
RTVSPropertyOp43
 70
     1
102
RTVSPropertyOp44
 70
     1
102
RTVSPropertyOp45
 70
     1
102
RTVSPropertyOp46
 70
     1
102
RTVSPropertyOp47
 70
     1
102
RTVSPropertyOp48
 70
     1
102
RTVSPropertyOp49
 70
     1
102
RTVSPropertyOp50
 70
     1
102
RTVSPropertyOp51
 70
     0
102
RTVSPropertyOp52
 70
     0
102
RTVSPropertyOp53
 70
     1
102
RTVSPropertyOp54
 70
     1
102
RTVSPropertyOp55
 70
     1
102
RTVSPropertyOp56
 70
     1
102
RTVSPropertyOp57
 70
     1
102
RTVSPropertyOp58
 70
     1
102
RTVSPropertyOp59
 70
     1
102
RTVSPropertyOp60
 70
     1
102
RTVSPropertyOp61
 70
     1
102
RTVSPropertyOp62
 70
     1
  0
XRECORD
  5
189C
102
{ACAD_REACTORS
330
189B
102
}
330
189B
100
AcDbXrecord
280
     1
102
RTVSPost2010Prop28
280
     0
102
RTVSPost2010PropOp28
 70
     1
102
RTVSPost2010Prop29
280
     1
102
RTVSPost2010PropOp29
 70
     1
102
RTVSPost2010Prop30
280
     1
102
RTVSPost2010PropOp30
 70
     1
102
RTVSPost2010Prop31
280
     0
102
RTVSPost2010PropOp31
 70
     1
102
RTVSPost2010Prop32
280
     0
102
RTVSPost2010PropOp32
 70
     1
102
RTVSPost2010Prop33
280
     0
102
RTVSPost2010PropOp33
 70
     1
102
RTVSPost2010Prop34
280
     0
102
RTVSPost2010PropOp34
 70
     1
102
RTVSPost2010Prop35
280
     0
102
RTVSPost2010PropOp35
 70
     1
102
RTVSPost2010Prop36
280
     0
102
RTVSPost2010PropOp36
 70
     1
102
RTVSPost2010Prop37
 90
       50
102
RTVSPost2010PropOp37
 70
     0
102
RTVSPost2010Prop38
140
0.0
102
RTVSPost2010PropOp38
 70
     0
102
RTVSPost2010Prop39
140
1.0
102
RTVSPost2010PropOp39
 70
     0
102
RTVSPost2010Prop40
 90
        0
102
RTVSPost2010PropOp40
 70
     0
102
RTVSPost2010Prop41ColorIndex
 90
       18
102
RTVSPost2010Prop41ColorRGB
 90
        0
102
RTVSPost2010PropOp41
 70
     0
102
RTVSPost2010Prop42
 90
       50
102
RTVSPost2010PropOp42
 70
     0
102
RTVSPost2010Prop43
 90
        3
102
RTVSPost2010PropOp43
 70
     0
102
RTVSPost2010Prop44ColorIndex
 90
        5
102
RTVSPost2010Prop44ColorRGB
 90
      255
102
RTVSPost2010PropOp44
 70
     0
102
RTVSPost2010Prop45
280
     0
102
RTVSPost2010PropOp45
 70
     1
102
RTVSPost2010Prop46
 90
       50
102
RTVSPost2010PropOp46
 70
     0
102
RTVSPost2010Prop47
 90
       50
102
RTVSPost2010PropOp47
 70
     0
102
RTVSPost2010Prop48
 90
       50
102
RTVSPost2010PropOp48
 70
     0
102
RTVSPost2010Prop49
280
     0
102
RTVSPost2010PropOp49
 70
     1
102
RTVSPost2010Prop50
 90
       50
102
RTVSPost2010PropOp50
 70
     0
102
RTVSPost2010Prop51ColorIndex
 90
      256
102
RTVSPost2010Prop51ColorRGB
 90
-16777216
102
RTVSPost2010PropOp51
 70
     0
102
RTVSPost2010Prop52
140
1.0
102
RTVSPost2010PropOp52
 70
     0
102
RTVSPost2010Prop53
 90
        2
102
RTVSPost2010PropOp53
 70
     0
102
RTVSPost2010Prop54
  1
strokes_ogs.tif
102
RTVSPost2010PropOp54
 70
     0
102
RTVSPost2010Prop55
280
     0
102
RTVSPost2010PropOp55
 70
     1
102
RTVSPost2010Prop56
140
1.0
102
RTVSPost2010PropOp56
 70
     0
102
RTVSPost2010Prop57
140
1.0
102
RTVSPost2010PropOp57
 70
     0
102
RTVSPropertyOp0
 70
     0
102
RTVSPropertyOp1
 70
     0
102
RTVSPropertyOp2
 70
     0
102
RTVSPropertyOp3
 70
     0
102
RTVSPropertyOp4
 70
     0
102
RTVSPropertyOp5
 70
     0
102
RTVSPropertyOp6
 70
     0
102
RTVSPropertyOp7
 70
     0
102
RTVSPropertyOp8
 70
     0
102
RTVSPropertyOp9
 70
     0
102
RTVSPropertyOp10
 70
     0
102
RTVSPropertyOp11
 70
     0
102
RTVSPropertyOp12
 70
     0
102
RTVSPropertyOp13
 70
     0
102
RTVSPropertyOp14
 70
     2
102
RTVSPropertyOp15
 70
     0
102
RTVSPropertyOp16
 70
     0
102
RTVSPropertyOp17
 70
     0
102
RTVSPropertyOp18
 70
     0
102
RTVSPropertyOp19
 70
     0
102
RTVSPropertyOp20
 70
     0
102
RTVSPropertyOp21
 70
     0
102
RTVSPropertyOp22
 70
     0
102
RTVSPropertyOp23
 70
     0
102
RTVSPropertyOp24
 70
     0
102
RTVSPropertyOp25
 70
     0
102
RTVSPropertyOp26
 70
     0
102
RTVSPropertyOp27
 70
     0
102
RTVSPropertyOp28
 70
     1
102
RTVSPropertyOp29
 70
     1
102
RTVSPropertyOp30
 70
     1
102
RTVSPropertyOp31
 70
     1
102
RTVSPropertyOp32
 70
     1
102
RTVSPropertyOp33
 70
     1
102
RTVSPropertyOp34
 70
     1
102
RTVSPropertyOp35
 70
     1
102
RTVSPropertyOp36
 70
     1
102
RTVSPropertyOp37
 70
     0
102
RTVSPropertyOp38
 70
     0
102
RTVSPropertyOp39
 70
     0
102
RTVSPropertyOp40
 70
     0
102
RTVSPropertyOp41
 70
     0
102
RTVSPropertyOp42
 70
     0
102
RTVSPropertyOp43
 70
     0
102
RTVSPropertyOp44
 70
     0
102
RTVSPropertyOp45
 70
     1
102
RTVSPropertyOp46
 70
     0
102
RTVSPropertyOp47
 70
     0
102
RTVSPropertyOp48
 70
     0
102
RTVSPropertyOp49
 70
     1
102
RTVSPropertyOp50
 70
     0
102
RTVSPropertyOp51
 70
     0
102
RTVSPropertyOp52
 70
     0
102
RTVSPropertyOp53
 70
     0
102
RTVSPropertyOp54
 70
     0
102
RTVSPropertyOp55
 70
     1
102
RTVSPropertyOp56
 70
     0
102
RTVSPropertyOp57
 70
     0
102
RTVSPropertyOp58
 70
     0
102
RTVSPropertyOp59
 70
     0
102
RTVSPropertyOp60
 70
     0
102
RTVSPropertyOp61
 70
     0
102
RTVSPropertyOp62
 70
     0
  0
XRECORD
  5
188C
102
{ACAD_REACTORS
330
188B
102
}
330
188B
100
AcDbXrecord
280
     1
102
RTVSPost2010Prop28
280
     0
102
RTVSPost2010PropOp28
 70
     1
102
RTVSPost2010Prop29
280
     1
102
RTVSPost2010PropOp29
 70
     1
102
RTVSPost2010Prop30
280
     1
102
RTVSPost2010PropOp30
 70
     1
102
RTVSPost2010Prop31
280
     0
102
RTVSPost2010PropOp31
 70
     1
102
RTVSPost2010Prop32
280
     0
102
RTVSPost2010PropOp32
 70
     1
102
RTVSPost2010Prop33
280
     0
102
RTVSPost2010PropOp33
 70
     1
102
RTVSPost2010Prop34
280
     0
102
RTVSPost2010PropOp34
 70
     1
102
RTVSPost2010Prop35
280
     0
102
RTVSPost2010PropOp35
 70
     1
102
RTVSPost2010Prop36
280
     0
102
RTVSPost2010PropOp36
 70
     1
102
RTVSPost2010Prop37
 90
       50
102
RTVSPost2010PropOp37
 70
     1
102
RTVSPost2010Prop38
140
0.0
102
RTVSPost2010PropOp38
 70
     1
102
RTVSPost2010Prop39
140
1.0
102
RTVSPost2010PropOp39
 70
     1
102
RTVSPost2010Prop40
 90
        0
102
RTVSPost2010PropOp40
 70
     1
102
RTVSPost2010Prop41ColorIndex
 90
       18
102
RTVSPost2010Prop41ColorRGB
 90
        0
102
RTVSPost2010PropOp41
 70
     1
102
RTVSPost2010Prop42
 90
       50
102
RTVSPost2010PropOp42
 70
     1
102
RTVSPost2010Prop43
 90
        3
102
RTVSPost2010PropOp43
 70
     1
102
RTVSPost2010Prop44ColorIndex
 90
        5
102
RTVSPost2010Prop44ColorRGB
 90
      255
102
RTVSPost2010PropOp44
 70
     1
102
RTVSPost2010Prop45
280
     0
102
RTVSPost2010PropOp45
 70
     1
102
RTVSPost2010Prop46
 90
       50
102
RTVSPost2010PropOp46
 70
     1
102
RTVSPost2010Prop47
 90
       50
102
RTVSPost2010PropOp47
 70
     1
102
RTVSPost2010Prop48
 90
       50
102
RTVSPost2010PropOp48
 70
     1
102
RTVSPost2010Prop49
280
     0
102
RTVSPost2010PropOp49
 70
     1
102
RTVSPost2010Prop50
 90
       50
102
RTVSPost2010PropOp50
 70
     1
102
RTVSPost2010Prop51ColorIndex
 90
      256
102
RTVSPost2010Prop51ColorRGB
 90
-16777216
102
RTVSPost2010PropOp51
 70
     0
102
RTVSPost2010Prop52
140
1.0
102
RTVSPost2010PropOp52
 70
     0
102
RTVSPost2010Prop53
 90
        2
102
RTVSPost2010PropOp53
 70
     1
102
RTVSPost2010Prop54
  1
strokes_ogs.tif
102
RTVSPost2010PropOp54
 70
     1
102
RTVSPost2010Prop55
280
     0
102
RTVSPost2010PropOp55
 70
     1
102
RTVSPost2010Prop56
140
1.0
102
RTVSPost2010PropOp56
 70
     1
102
RTVSPost2010Prop57
140
1.0
102
RTVSPost2010PropOp57
 70
     1
102
RTVSPropertyOp0
 70
     1
102
RTVSPropertyOp1
 70
     1
102
RTVSPropertyOp2
 70
     1
102
RTVSPropertyOp3
 70
     1
102
RTVSPropertyOp4
 70
     1
102
RTVSPropertyOp5
 70
     1
102
RTVSPropertyOp6
 70
     1
102
RTVSPropertyOp7
 70
     1
102
RTVSPropertyOp8
 70
     1
102
RTVSPropertyOp9
 70
     1
102
RTVSPropertyOp10
 70
     1
102
RTVSPropertyOp11
 70
     1
102
RTVSPropertyOp12
 70
     1
102
RTVSPropertyOp13
 70
     1
102
RTVSPropertyOp14
 70
     1
102
RTVSPropertyOp15
 70
     1
102
RTVSPropertyOp16
 70
     1
102
RTVSPropertyOp17
 70
     1
102
RTVSPropertyOp18
 70
     1
102
RTVSPropertyOp19
 70
     1
102
RTVSPropertyOp20
 70
     1
102
RTVSPropertyOp21
 70
     1
102
RTVSPropertyOp22
 70
     1
102
RTVSPropertyOp23
 70
     1
102
RTVSPropertyOp24
 70
     1
102
RTVSPropertyOp25
 70
     1
102
RTVSPropertyOp26
 70
     1
102
RTVSPropertyOp27
 70
     1
102
RTVSPropertyOp28
 70
     1
102
RTVSPropertyOp29
 70
     1
102
RTVSPropertyOp30
 70
     1
102
RTVSPropertyOp31
 70
     1
102
RTVSPropertyOp32
 70
     1
102
RTVSPropertyOp33
 70
     1
102
RTVSPropertyOp34
 70
     1
102
RTVSPropertyOp35
 70
     1
102
RTVSPropertyOp36
 70
     1
102
RTVSPropertyOp37
 70
     1
102
RTVSPropertyOp38
 70
     1
102
RTVSPropertyOp39
 70
     1
102
RTVSPropertyOp40
 70
     1
102
RTVSPropertyOp41
 70
     1
102
RTVSPropertyOp42
 70
     1
102
RTVSPropertyOp43
 70
     1
102
RTVSPropertyOp44
 70
     1
102
RTVSPropertyOp45
 70
     1
102
RTVSPropertyOp46
 70
     1
102
RTVSPropertyOp47
 70
     1
102
RTVSPropertyOp48
 70
     1
102
RTVSPropertyOp49
 70
     1
102
RTVSPropertyOp50
 70
     1
102
RTVSPropertyOp51
 70
     0
102
RTVSPropertyOp52
 70
     0
102
RTVSPropertyOp53
 70
     1
102
RTVSPropertyOp54
 70
     1
102
RTVSPropertyOp55
 70
     1
102
RTVSPropertyOp56
 70
     1
102
RTVSPropertyOp57
 70
     1
102
RTVSPropertyOp58
 70
     1
102
RTVSPropertyOp59
 70
     1
102
RTVSPropertyOp60
 70
     1
102
RTVSPropertyOp61
 70
     1
102
RTVSPropertyOp62
 70
     1
  0
XRECORD
  5
189E
102
{ACAD_REACTORS
330
189D
102
}
330
189D
100
AcDbXrecord
280
     1
102
RTVSPost2010Prop28
280
     0
102
RTVSPost2010PropOp28
 70
     1
102
RTVSPost2010Prop29
280
     1
102
RTVSPost2010PropOp29
 70
     1
102
RTVSPost2010Prop30
280
     1
102
RTVSPost2010PropOp30
 70
     1
102
RTVSPost2010Prop31
280
     0
102
RTVSPost2010PropOp31
 70
     1
102
RTVSPost2010Prop32
280
     0
102
RTVSPost2010PropOp32
 70
     1
102
RTVSPost2010Prop33
280
     0
102
RTVSPost2010PropOp33
 70
     1
102
RTVSPost2010Prop34
280
     0
102
RTVSPost2010PropOp34
 70
     1
102
RTVSPost2010Prop35
280
     0
102
RTVSPost2010PropOp35
 70
     1
102
RTVSPost2010Prop36
280
     0
102
RTVSPost2010PropOp36
 70
     1
102
RTVSPost2010Prop37
 90
       50
102
RTVSPost2010PropOp37
 70
     0
102
RTVSPost2010Prop38
140
0.0
102
RTVSPost2010PropOp38
 70
     0
102
RTVSPost2010Prop39
140
1.0
102
RTVSPost2010PropOp39
 70
     0
102
RTVSPost2010Prop40
 90
        0
102
RTVSPost2010PropOp40
 70
     0
102
RTVSPost2010Prop41ColorIndex
 90
       18
102
RTVSPost2010Prop41ColorRGB
 90
        0
102
RTVSPost2010PropOp41
 70
     0
102
RTVSPost2010Prop42
 90
       50
102
RTVSPost2010PropOp42
 70
     0
102
RTVSPost2010Prop43
 90
        3
102
RTVSPost2010PropOp43
 70
     0
102
RTVSPost2010Prop44ColorIndex
 90
        5
102
RTVSPost2010Prop44ColorRGB
 90
      255
102
RTVSPost2010PropOp44
 70
     0
102
RTVSPost2010Prop45
280
     0
102
RTVSPost2010PropOp45
 70
     1
102
RTVSPost2010Prop46
 90
       50
102
RTVSPost2010PropOp46
 70
     0
102
RTVSPost2010Prop47
 90
       50
102
RTVSPost2010PropOp47
 70
     0
102
RTVSPost2010Prop48
 90
       50
102
RTVSPost2010PropOp48
 70
     0
102
RTVSPost2010Prop49
280
     0
102
RTVSPost2010PropOp49
 70
     1
102
RTVSPost2010Prop50
 90
       50
102
RTVSPost2010PropOp50
 70
     0
102
RTVSPost2010Prop51ColorIndex
 90
      256
102
RTVSPost2010Prop51ColorRGB
 90
-16777216
102
RTVSPost2010PropOp51
 70
     0
102
RTVSPost2010Prop52
140
1.0
102
RTVSPost2010PropOp52
 70
     0
102
RTVSPost2010Prop53
 90
        2
102
RTVSPost2010PropOp53
 70
     0
102
RTVSPost2010Prop54
  1
strokes_ogs.tif
102
RTVSPost2010PropOp54
 70
     0
102
RTVSPost2010Prop55
280
     0
102
RTVSPost2010PropOp55
 70
     1
102
RTVSPost2010Prop56
140
1.0
102
RTVSPost2010PropOp56
 70
     0
102
RTVSPost2010Prop57
140
1.0
102
RTVSPost2010PropOp57
 70
     0
102
RTVSPropertyOp0
 70
     0
102
RTVSPropertyOp1
 70
     0
102
RTVSPropertyOp2
 70
     0
102
RTVSPropertyOp3
 70
     0
102
RTVSPropertyOp4
 70
     0
102
RTVSPropertyOp5
 70
     0
102
RTVSPropertyOp6
 70
     0
102
RTVSPropertyOp7
 70
     0
102
RTVSPropertyOp8
 70
     0
102
RTVSPropertyOp9
 70
     0
102
RTVSPropertyOp10
 70
     0
102
RTVSPropertyOp11
 70
     0
102
RTVSPropertyOp12
 70
     0
102
RTVSPropertyOp13
 70
     0
102
RTVSPropertyOp14
 70
     2
102
RTVSPropertyOp15
 70
     0
102
RTVSPropertyOp16
 70
     0
102
RTVSPropertyOp17
 70
     0
102
RTVSPropertyOp18
 70
     0
102
RTVSPropertyOp19
 70
     0
102
RTVSPropertyOp20
 70
     0
102
RTVSPropertyOp21
 70
     0
102
RTVSPropertyOp22
 70
     0
102
RTVSPropertyOp23
 70
     0
102
RTVSPropertyOp24
 70
     0
102
RTVSPropertyOp25
 70
     0
102
RTVSPropertyOp26
 70
     0
102
RTVSPropertyOp27
 70
     0
102
RTVSPropertyOp28
 70
     1
102
RTVSPropertyOp29
 70
     1
102
RTVSPropertyOp30
 70
     1
102
RTVSPropertyOp31
 70
     1
102
RTVSPropertyOp32
 70
     1
102
RTVSPropertyOp33
 70
     1
102
RTVSPropertyOp34
 70
     1
102
RTVSPropertyOp35
 70
     1
102
RTVSPropertyOp36
 70
     1
102
RTVSPropertyOp37
 70
     0
102
RTVSPropertyOp38
 70
     0
102
RTVSPropertyOp39
 70
     0
102
RTVSPropertyOp40
 70
     0
102
RTVSPropertyOp41
 70
     0
102
RTVSPropertyOp42
 70
     0
102
RTVSPropertyOp43
 70
     0
102
RTVSPropertyOp44
 70
     0
102
RTVSPropertyOp45
 70
     1
102
RTVSPropertyOp46
 70
     0
102
RTVSPropertyOp47
 70
     0
102
RTVSPropertyOp48
 70
     0
102
RTVSPropertyOp49
 70
     1
102
RTVSPropertyOp50
 70
     0
102
RTVSPropertyOp51
 70
     0
102
RTVSPropertyOp52
 70
     0
102
RTVSPropertyOp53
 70
     0
102
RTVSPropertyOp54
 70
     0
102
RTVSPropertyOp55
 70
     1
102
RTVSPropertyOp56
 70
     0
102
RTVSPropertyOp57
 70
     0
102
RTVSPropertyOp58
 70
     0
102
RTVSPropertyOp59
 70
     0
102
RTVSPropertyOp60
 70
     0
102
RTVSPropertyOp61
 70
     0
102
RTVSPropertyOp62
 70
     0
  0
XRECORD
  5
1884
102
{ACAD_REACTORS
330
1883
102
}
330
1883
100
AcDbXrecord
280
     1
102
RTVSPost2010Prop28
280
     0
102
RTVSPost2010PropOp28
 70
     1
102
RTVSPost2010Prop29
280
     1
102
RTVSPost2010PropOp29
 70
     1
102
RTVSPost2010Prop30
280
     1
102
RTVSPost2010PropOp30
 70
     1
102
RTVSPost2010Prop31
280
     0
102
RTVSPost2010PropOp31
 70
     1
102
RTVSPost2010Prop32
280
     0
102
RTVSPost2010PropOp32
 70
     1
102
RTVSPost2010Prop33
280
     0
102
RTVSPost2010PropOp33
 70
     1
102
RTVSPost2010Prop34
280
     0
102
RTVSPost2010PropOp34
 70
     1
102
RTVSPost2010Prop35
280
     0
102
RTVSPost2010PropOp35
 70
     1
102
RTVSPost2010Prop36
280
     0
102
RTVSPost2010PropOp36
 70
     1
102
RTVSPost2010Prop37
 90
       50
102
RTVSPost2010PropOp37
 70
     1
102
RTVSPost2010Prop38
140
0.0
102
RTVSPost2010PropOp38
 70
     1
102
RTVSPost2010Prop39
140
1.0
102
RTVSPost2010PropOp39
 70
     1
102
RTVSPost2010Prop40
 90
        0
102
RTVSPost2010PropOp40
 70
     1
102
RTVSPost2010Prop41ColorIndex
 90
       18
102
RTVSPost2010Prop41ColorRGB
 90
        0
102
RTVSPost2010PropOp41
 70
     1
102
RTVSPost2010Prop42
 90
       50
102
RTVSPost2010PropOp42
 70
     1
102
RTVSPost2010Prop43
 90
        3
102
RTVSPost2010PropOp43
 70
     1
102
RTVSPost2010Prop44ColorIndex
 90
        5
102
RTVSPost2010Prop44ColorRGB
 90
      255
102
RTVSPost2010PropOp44
 70
     1
102
RTVSPost2010Prop45
280
     0
102
RTVSPost2010PropOp45
 70
     1
102
RTVSPost2010Prop46
 90
       50
102
RTVSPost2010PropOp46
 70
     1
102
RTVSPost2010Prop47
 90
       50
102
RTVSPost2010PropOp47
 70
     1
102
RTVSPost2010Prop48
 90
       50
102
RTVSPost2010PropOp48
 70
     1
102
RTVSPost2010Prop49
280
     0
102
RTVSPost2010PropOp49
 70
     1
102
RTVSPost2010Prop50
 90
       50
102
RTVSPost2010PropOp50
 70
     1
102
RTVSPost2010Prop51ColorIndex
 90
      256
102
RTVSPost2010Prop51ColorRGB
 90
-16777216
102
RTVSPost2010PropOp51
 70
     0
102
RTVSPost2010Prop52
140
1.0
102
RTVSPost2010PropOp52
 70
     0
102
RTVSPost2010Prop53
 90
        2
102
RTVSPost2010PropOp53
 70
     1
102
RTVSPost2010Prop54
  1
strokes_ogs.tif
102
RTVSPost2010PropOp54
 70
     1
102
RTVSPost2010Prop55
280
     0
102
RTVSPost2010PropOp55
 70
     1
102
RTVSPost2010Prop56
140
1.0
102
RTVSPost2010PropOp56
 70
     1
102
RTVSPost2010Prop57
140
1.0
102
RTVSPost2010PropOp57
 70
     1
102
RTVSPropertyOp0
 70
     1
102
RTVSPropertyOp1
 70
     1
102
RTVSPropertyOp2
 70
     1
102
RTVSPropertyOp3
 70
     1
102
RTVSPropertyOp4
 70
     1
102
RTVSPropertyOp5
 70
     1
102
RTVSPropertyOp6
 70
     1
102
RTVSPropertyOp7
 70
     1
102
RTVSPropertyOp8
 70
     1
102
RTVSPropertyOp9
 70
     1
102
RTVSPropertyOp10
 70
     1
102
RTVSPropertyOp11
 70
     1
102
RTVSPropertyOp12
 70
     1
102
RTVSPropertyOp13
 70
     1
102
RTVSPropertyOp14
 70
     1
102
RTVSPropertyOp15
 70
     1
102
RTVSPropertyOp16
 70
     1
102
RTVSPropertyOp17
 70
     1
102
RTVSPropertyOp18
 70
     1
102
RTVSPropertyOp19
 70
     1
102
RTVSPropertyOp20
 70
     1
102
RTVSPropertyOp21
 70
     1
102
RTVSPropertyOp22
 70
     1
102
RTVSPropertyOp23
 70
     1
102
RTVSPropertyOp24
 70
     1
102
RTVSPropertyOp25
 70
     1
102
RTVSPropertyOp26
 70
     1
102
RTVSPropertyOp27
 70
     1
102
RTVSPropertyOp28
 70
     1
102
RTVSPropertyOp29
 70
     1
102
RTVSPropertyOp30
 70
     1
102
RTVSPropertyOp31
 70
     1
102
RTVSPropertyOp32
 70
     1
102
RTVSPropertyOp33
 70
     1
102
RTVSPropertyOp34
 70
     1
102
RTVSPropertyOp35
 70
     1
102
RTVSPropertyOp36
 70
     1
102
RTVSPropertyOp37
 70
     1
102
RTVSPropertyOp38
 70
     1
102
RTVSPropertyOp39
 70
     1
102
RTVSPropertyOp40
 70
     1
102
RTVSPropertyOp41
 70
     1
102
RTVSPropertyOp42
 70
     1
102
RTVSPropertyOp43
 70
     1
102
RTVSPropertyOp44
 70
     1
102
RTVSPropertyOp45
 70
     1
102
RTVSPropertyOp46
 70
     1
102
RTVSPropertyOp47
 70
     1
102
RTVSPropertyOp48
 70
     1
102
RTVSPropertyOp49
 70
     1
102
RTVSPropertyOp50
 70
     1
102
RTVSPropertyOp51
 70
     0
102
RTVSPropertyOp52
 70
     0
102
RTVSPropertyOp53
 70
     1
102
RTVSPropertyOp54
 70
     1
102
RTVSPropertyOp55
 70
     1
102
RTVSPropertyOp56
 70
     1
102
RTVSPropertyOp57
 70
     1
102
RTVSPropertyOp58
 70
     1
102
RTVSPropertyOp59
 70
     1
102
RTVSPropertyOp60
 70
     1
102
RTVSPropertyOp61
 70
     1
102
RTVSPropertyOp62
 70
     1
  0
XRECORD
  5
189A
102
{ACAD_REACTORS
330
1899
102
}
330
1899
100
AcDbXrecord
280
     1
102
RTVSPost2010Prop28
280
     0
102
RTVSPost2010PropOp28
 70
     1
102
RTVSPost2010Prop29
280
     1
102
RTVSPost2010PropOp29
 70
     1
102
RTVSPost2010Prop30
280
     1
102
RTVSPost2010PropOp30
 70
     1
102
RTVSPost2010Prop31
280
     0
102
RTVSPost2010PropOp31
 70
     1
102
RTVSPost2010Prop32
280
     0
102
RTVSPost2010PropOp32
 70
     1
102
RTVSPost2010Prop33
280
     0
102
RTVSPost2010PropOp33
 70
     1
102
RTVSPost2010Prop34
280
     0
102
RTVSPost2010PropOp34
 70
     1
102
RTVSPost2010Prop35
280
     0
102
RTVSPost2010PropOp35
 70
     1
102
RTVSPost2010Prop36
280
     0
102
RTVSPost2010PropOp36
 70
     1
102
RTVSPost2010Prop37
 90
       50
102
RTVSPost2010PropOp37
 70
     1
102
RTVSPost2010Prop38
140
0.0
102
RTVSPost2010PropOp38
 70
     1
102
RTVSPost2010Prop39
140
1.0
102
RTVSPost2010PropOp39
 70
     1
102
RTVSPost2010Prop40
 90
        0
102
RTVSPost2010PropOp40
 70
     1
102
RTVSPost2010Prop41ColorIndex
 90
       18
102
RTVSPost2010Prop41ColorRGB
 90
        0
102
RTVSPost2010PropOp41
 70
     1
102
RTVSPost2010Prop42
 90
       50
102
RTVSPost2010PropOp42
 70
     1
102
RTVSPost2010Prop43
 90
        3
102
RTVSPost2010PropOp43
 70
     1
102
RTVSPost2010Prop44ColorIndex
 90
        5
102
RTVSPost2010Prop44ColorRGB
 90
      255
102
RTVSPost2010PropOp44
 70
     1
102
RTVSPost2010Prop45
280
     0
102
RTVSPost2010PropOp45
 70
     1
102
RTVSPost2010Prop46
 90
       50
102
RTVSPost2010PropOp46
 70
     1
102
RTVSPost2010Prop47
 90
       50
102
RTVSPost2010PropOp47
 70
     1
102
RTVSPost2010Prop48
 90
       50
102
RTVSPost2010PropOp48
 70
     1
102
RTVSPost2010Prop49
280
     0
102
RTVSPost2010PropOp49
 70
     1
102
RTVSPost2010Prop50
 90
       50
102
RTVSPost2010PropOp50
 70
     1
102
RTVSPost2010Prop51ColorIndex
 90
      256
102
RTVSPost2010Prop51ColorRGB
 90
-16777216
102
RTVSPost2010PropOp51
 70
     0
102
RTVSPost2010Prop52
140
1.0
102
RTVSPost2010PropOp52
 70
     0
102
RTVSPost2010Prop53
 90
        2
102
RTVSPost2010PropOp53
 70
     1
102
RTVSPost2010Prop54
  1
strokes_ogs.tif
102
RTVSPost2010PropOp54
 70
     1
102
RTVSPost2010Prop55
280
     0
102
RTVSPost2010PropOp55
 70
     1
102
RTVSPost2010Prop56
140
1.0
102
RTVSPost2010PropOp56
 70
     1
102
RTVSPost2010Prop57
140
1.0
102
RTVSPost2010PropOp57
 70
     1
102
RTVSPropertyOp0
 70
     1
102
RTVSPropertyOp1
 70
     1
102
RTVSPropertyOp2
 70
     1
102
RTVSPropertyOp3
 70
     1
102
RTVSPropertyOp4
 70
     1
102
RTVSPropertyOp5
 70
     1
102
RTVSPropertyOp6
 70
     1
102
RTVSPropertyOp7
 70
     1
102
RTVSPropertyOp8
 70
     1
102
RTVSPropertyOp9
 70
     1
102
RTVSPropertyOp10
 70
     1
102
RTVSPropertyOp11
 70
     1
102
RTVSPropertyOp12
 70
     1
102
RTVSPropertyOp13
 70
     1
102
RTVSPropertyOp14
 70
     1
102
RTVSPropertyOp15
 70
     1
102
RTVSPropertyOp16
 70
     1
102
RTVSPropertyOp17
 70
     1
102
RTVSPropertyOp18
 70
     1
102
RTVSPropertyOp19
 70
     1
102
RTVSPropertyOp20
 70
     1
102
RTVSPropertyOp21
 70
     1
102
RTVSPropertyOp22
 70
     1
102
RTVSPropertyOp23
 70
     1
102
RTVSPropertyOp24
 70
     1
102
RTVSPropertyOp25
 70
     1
102
RTVSPropertyOp26
 70
     1
102
RTVSPropertyOp27
 70
     1
102
RTVSPropertyOp28
 70
     1
102
RTVSPropertyOp29
 70
     1
102
RTVSPropertyOp30
 70
     1
102
RTVSPropertyOp31
 70
     1
102
RTVSPropertyOp32
 70
     1
102
RTVSPropertyOp33
 70
     1
102
RTVSPropertyOp34
 70
     1
102
RTVSPropertyOp35
 70
     1
102
RTVSPropertyOp36
 70
     1
102
RTVSPropertyOp37
 70
     1
102
RTVSPropertyOp38
 70
     1
102
RTVSPropertyOp39
 70
     1
102
RTVSPropertyOp40
 70
     1
102
RTVSPropertyOp41
 70
     1
102
RTVSPropertyOp42
 70
     1
102
RTVSPropertyOp43
 70
     1
102
RTVSPropertyOp44
 70
     1
102
RTVSPropertyOp45
 70
     1
102
RTVSPropertyOp46
 70
     1
102
RTVSPropertyOp47
 70
     1
102
RTVSPropertyOp48
 70
     1
102
RTVSPropertyOp49
 70
     1
102
RTVSPropertyOp50
 70
     1
102
RTVSPropertyOp51
 70
     0
102
RTVSPropertyOp52
 70
     0
102
RTVSPropertyOp53
 70
     1
102
RTVSPropertyOp54
 70
     1
102
RTVSPropertyOp55
 70
     1
102
RTVSPropertyOp56
 70
     1
102
RTVSPropertyOp57
 70
     1
102
RTVSPropertyOp58
 70
     1
102
RTVSPropertyOp59
 70
     1
102
RTVSPropertyOp60
 70
     1
102
RTVSPropertyOp61
 70
     1
102
RTVSPropertyOp62
 70
     1
  0
XRECORD
  5
1898
102
{ACAD_REACTORS
330
1897
102
}
330
1897
100
AcDbXrecord
280
     1
102
RTVSPost2010Prop28
280
     0
102
RTVSPost2010PropOp28
 70
     1
102
RTVSPost2010Prop29
280
     1
102
RTVSPost2010PropOp29
 70
     1
102
RTVSPost2010Prop30
280
     1
102
RTVSPost2010PropOp30
 70
     1
102
RTVSPost2010Prop31
280
     0
102
RTVSPost2010PropOp31
 70
     1
102
RTVSPost2010Prop32
280
     0
102
RTVSPost2010PropOp32
 70
     1
102
RTVSPost2010Prop33
280
     0
102
RTVSPost2010PropOp33
 70
     1
102
RTVSPost2010Prop34
280
     0
102
RTVSPost2010PropOp34
 70
     1
102
RTVSPost2010Prop35
280
     0
102
RTVSPost2010PropOp35
 70
     1
102
RTVSPost2010Prop36
280
     0
102
RTVSPost2010PropOp36
 70
     1
102
RTVSPost2010Prop37
 90
       50
102
RTVSPost2010PropOp37
 70
     1
102
RTVSPost2010Prop38
140
0.0
102
RTVSPost2010PropOp38
 70
     1
102
RTVSPost2010Prop39
140
1.0
102
RTVSPost2010PropOp39
 70
     1
102
RTVSPost2010Prop40
 90
        0
102
RTVSPost2010PropOp40
 70
     1
102
RTVSPost2010Prop41ColorIndex
 90
       18
102
RTVSPost2010Prop41ColorRGB
 90
        0
102
RTVSPost2010PropOp41
 70
     1
102
RTVSPost2010Prop42
 90
       50
102
RTVSPost2010PropOp42
 70
     1
102
RTVSPost2010Prop43
 90
        3
102
RTVSPost2010PropOp43
 70
     1
102
RTVSPost2010Prop44ColorIndex
 90
        5
102
RTVSPost2010Prop44ColorRGB
 90
      255
102
RTVSPost2010PropOp44
 70
     1
102
RTVSPost2010Prop45
280
     0
102
RTVSPost2010PropOp45
 70
     1
102
RTVSPost2010Prop46
 90
       50
102
RTVSPost2010PropOp46
 70
     1
102
RTVSPost2010Prop47
 90
       50
102
RTVSPost2010PropOp47
 70
     1
102
RTVSPost2010Prop48
 90
       50
102
RTVSPost2010PropOp48
 70
     1
102
RTVSPost2010Prop49
280
     0
102
RTVSPost2010PropOp49
 70
     1
102
RTVSPost2010Prop50
 90
       50
102
RTVSPost2010PropOp50
 70
     1
102
RTVSPost2010Prop51ColorIndex
 90
      256
102
RTVSPost2010Prop51ColorRGB
 90
-16777216
102
RTVSPost2010PropOp51
 70
     0
102
RTVSPost2010Prop52
140
1.0
102
RTVSPost2010PropOp52
 70
     0
102
RTVSPost2010Prop53
 90
        2
102
RTVSPost2010PropOp53
 70
     1
102
RTVSPost2010Prop54
  1
strokes_ogs.tif
102
RTVSPost2010PropOp54
 70
     1
102
RTVSPost2010Prop55
280
     0
102
RTVSPost2010PropOp55
 70
     1
102
RTVSPost2010Prop56
140
1.0
102
RTVSPost2010PropOp56
 70
     1
102
RTVSPost2010Prop57
140
1.0
102
RTVSPost2010PropOp57
 70
     1
102
RTVSPropertyOp0
 70
     1
102
RTVSPropertyOp1
 70
     1
102
RTVSPropertyOp2
 70
     1
102
RTVSPropertyOp3
 70
     1
102
RTVSPropertyOp4
 70
     1
102
RTVSPropertyOp5
 70
     1
102
RTVSPropertyOp6
 70
     1
102
RTVSPropertyOp7
 70
     1
102
RTVSPropertyOp8
 70
     1
102
RTVSPropertyOp9
 70
     1
102
RTVSPropertyOp10
 70
     1
102
RTVSPropertyOp11
 70
     1
102
RTVSPropertyOp12
 70
     1
102
RTVSPropertyOp13
 70
     1
102
RTVSPropertyOp14
 70
     1
102
RTVSPropertyOp15
 70
     1
102
RTVSPropertyOp16
 70
     1
102
RTVSPropertyOp17
 70
     1
102
RTVSPropertyOp18
 70
     1
102
RTVSPropertyOp19
 70
     1
102
RTVSPropertyOp20
 70
     1
102
RTVSPropertyOp21
 70
     1
102
RTVSPropertyOp22
 70
     1
102
RTVSPropertyOp23
 70
     1
102
RTVSPropertyOp24
 70
     1
102
RTVSPropertyOp25
 70
     1
102
RTVSPropertyOp26
 70
     1
102
RTVSPropertyOp27
 70
     1
102
RTVSPropertyOp28
 70
     1
102
RTVSPropertyOp29
 70
     1
102
RTVSPropertyOp30
 70
     1
102
RTVSPropertyOp31
 70
     1
102
RTVSPropertyOp32
 70
     1
102
RTVSPropertyOp33
 70
     1
102
RTVSPropertyOp34
 70
     1
102
RTVSPropertyOp35
 70
     1
102
RTVSPropertyOp36
 70
     1
102
RTVSPropertyOp37
 70
     1
102
RTVSPropertyOp38
 70
     1
102
RTVSPropertyOp39
 70
     1
102
RTVSPropertyOp40
 70
     1
102
RTVSPropertyOp41
 70
     1
102
RTVSPropertyOp42
 70
     1
102
RTVSPropertyOp43
 70
     1
102
RTVSPropertyOp44
 70
     1
102
RTVSPropertyOp45
 70
     1
102
RTVSPropertyOp46
 70
     1
102
RTVSPropertyOp47
 70
     1
102
RTVSPropertyOp48
 70
     1
102
RTVSPropertyOp49
 70
     1
102
RTVSPropertyOp50
 70
     1
102
RTVSPropertyOp51
 70
     0
102
RTVSPropertyOp52
 70
     0
102
RTVSPropertyOp53
 70
     1
102
RTVSPropertyOp54
 70
     1
102
RTVSPropertyOp55
 70
     1
102
RTVSPropertyOp56
 70
     1
102
RTVSPropertyOp57
 70
     1
102
RTVSPropertyOp58
 70
     1
102
RTVSPropertyOp59
 70
     1
102
RTVSPropertyOp60
 70
     1
102
RTVSPropertyOp61
 70
     1
102
RTVSPropertyOp62
 70
     1
  0
XRECORD
  5
1892
102
{ACAD_REACTORS
330
1891
102
}
330
1891
100
AcDbXrecord
280
     1
102
RTVSPost2010Prop28
280
     0
102
RTVSPost2010PropOp28
 70
     1
102
RTVSPost2010Prop29
280
     1
102
RTVSPost2010PropOp29
 70
     1
102
RTVSPost2010Prop30
280
     1
102
RTVSPost2010PropOp30
 70
     1
102
RTVSPost2010Prop31
280
     0
102
RTVSPost2010PropOp31
 70
     1
102
RTVSPost2010Prop32
280
     0
102
RTVSPost2010PropOp32
 70
     1
102
RTVSPost2010Prop33
280
     0
102
RTVSPost2010PropOp33
 70
     1
102
RTVSPost2010Prop34
280
     0
102
RTVSPost2010PropOp34
 70
     1
102
RTVSPost2010Prop35
280
     0
102
RTVSPost2010PropOp35
 70
     1
102
RTVSPost2010Prop36
280
     0
102
RTVSPost2010PropOp36
 70
     1
102
RTVSPost2010Prop37
 90
       50
102
RTVSPost2010PropOp37
 70
     1
102
RTVSPost2010Prop38
140
0.0
102
RTVSPost2010PropOp38
 70
     1
102
RTVSPost2010Prop39
140
1.0
102
RTVSPost2010PropOp39
 70
     1
102
RTVSPost2010Prop40
 90
        0
102
RTVSPost2010PropOp40
 70
     1
102
RTVSPost2010Prop41ColorIndex
 90
       18
102
RTVSPost2010Prop41ColorRGB
 90
        0
102
RTVSPost2010PropOp41
 70
     1
102
RTVSPost2010Prop42
 90
       50
102
RTVSPost2010PropOp42
 70
     1
102
RTVSPost2010Prop43
 90
        3
102
RTVSPost2010PropOp43
 70
     1
102
RTVSPost2010Prop44ColorIndex
 90
        5
102
RTVSPost2010Prop44ColorRGB
 90
      255
102
RTVSPost2010PropOp44
 70
     1
102
RTVSPost2010Prop45
280
     0
102
RTVSPost2010PropOp45
 70
     1
102
RTVSPost2010Prop46
 90
       50
102
RTVSPost2010PropOp46
 70
     1
102
RTVSPost2010Prop47
 90
       50
102
RTVSPost2010PropOp47
 70
     1
102
RTVSPost2010Prop48
 90
       50
102
RTVSPost2010PropOp48
 70
     1
102
RTVSPost2010Prop49
280
     0
102
RTVSPost2010PropOp49
 70
     1
102
RTVSPost2010Prop50
 90
       50
102
RTVSPost2010PropOp50
 70
     1
102
RTVSPost2010Prop51ColorIndex
 90
      256
102
RTVSPost2010Prop51ColorRGB
 90
-16777216
102
RTVSPost2010PropOp51
 70
     0
102
RTVSPost2010Prop52
140
1.0
102
RTVSPost2010PropOp52
 70
     0
102
RTVSPost2010Prop53
 90
        2
102
RTVSPost2010PropOp53
 70
     1
102
RTVSPost2010Prop54
  1
strokes_ogs.tif
102
RTVSPost2010PropOp54
 70
     1
102
RTVSPost2010Prop55
280
     0
102
RTVSPost2010PropOp55
 70
     1
102
RTVSPost2010Prop56
140
1.0
102
RTVSPost2010PropOp56
 70
     1
102
RTVSPost2010Prop57
140
1.0
102
RTVSPost2010PropOp57
 70
     1
102
RTVSPropertyOp0
 70
     1
102
RTVSPropertyOp1
 70
     1
102
RTVSPropertyOp2
 70
     1
102
RTVSPropertyOp3
 70
     1
102
RTVSPropertyOp4
 70
     1
102
RTVSPropertyOp5
 70
     1
102
RTVSPropertyOp6
 70
     1
102
RTVSPropertyOp7
 70
     1
102
RTVSPropertyOp8
 70
     1
102
RTVSPropertyOp9
 70
     1
102
RTVSPropertyOp10
 70
     1
102
RTVSPropertyOp11
 70
     1
102
RTVSPropertyOp12
 70
     1
102
RTVSPropertyOp13
 70
     1
102
RTVSPropertyOp14
 70
     1
102
RTVSPropertyOp15
 70
     1
102
RTVSPropertyOp16
 70
     1
102
RTVSPropertyOp17
 70
     1
102
RTVSPropertyOp18
 70
     1
102
RTVSPropertyOp19
 70
     1
102
RTVSPropertyOp20
 70
     1
102
RTVSPropertyOp21
 70
     1
102
RTVSPropertyOp22
 70
     1
102
RTVSPropertyOp23
 70
     1
102
RTVSPropertyOp24
 70
     1
102
RTVSPropertyOp25
 70
     1
102
RTVSPropertyOp26
 70
     1
102
RTVSPropertyOp27
 70
     1
102
RTVSPropertyOp28
 70
     1
102
RTVSPropertyOp29
 70
     1
102
RTVSPropertyOp30
 70
     1
102
RTVSPropertyOp31
 70
     1
102
RTVSPropertyOp32
 70
     1
102
RTVSPropertyOp33
 70
     1
102
RTVSPropertyOp34
 70
     1
102
RTVSPropertyOp35
 70
     1
102
RTVSPropertyOp36
 70
     1
102
RTVSPropertyOp37
 70
     1
102
RTVSPropertyOp38
 70
     1
102
RTVSPropertyOp39
 70
     1
102
RTVSPropertyOp40
 70
     1
102
RTVSPropertyOp41
 70
     1
102
RTVSPropertyOp42
 70
     1
102
RTVSPropertyOp43
 70
     1
102
RTVSPropertyOp44
 70
     1
102
RTVSPropertyOp45
 70
     1
102
RTVSPropertyOp46
 70
     1
102
RTVSPropertyOp47
 70
     1
102
RTVSPropertyOp48
 70
     1
102
RTVSPropertyOp49
 70
     1
102
RTVSPropertyOp50
 70
     1
102
RTVSPropertyOp51
 70
     0
102
RTVSPropertyOp52
 70
     0
102
RTVSPropertyOp53
 70
     1
102
RTVSPropertyOp54
 70
     1
102
RTVSPropertyOp55
 70
     1
102
RTVSPropertyOp56
 70
     1
102
RTVSPropertyOp57
 70
     1
102
RTVSPropertyOp58
 70
     1
102
RTVSPropertyOp59
 70
     1
102
RTVSPropertyOp60
 70
     1
102
RTVSPropertyOp61
 70
     1
102
RTVSPropertyOp62
 70
     1
  0
XRECORD
  5
1894
102
{ACAD_REACTORS
330
1893
102
}
330
1893
100
AcDbXrecord
280
     1
102
RTVSPost2010Prop28
280
     0
102
RTVSPost2010PropOp28
 70
     1
102
RTVSPost2010Prop29
280
     1
102
RTVSPost2010PropOp29
 70
     1
102
RTVSPost2010Prop30
280
     1
102
RTVSPost2010PropOp30
 70
     1
102
RTVSPost2010Prop31
280
     0
102
RTVSPost2010PropOp31
 70
     1
102
RTVSPost2010Prop32
280
     0
102
RTVSPost2010PropOp32
 70
     1
102
RTVSPost2010Prop33
280
     0
102
RTVSPost2010PropOp33
 70
     1
102
RTVSPost2010Prop34
280
     0
102
RTVSPost2010PropOp34
 70
     1
102
RTVSPost2010Prop35
280
     0
102
RTVSPost2010PropOp35
 70
     1
102
RTVSPost2010Prop36
280
     0
102
RTVSPost2010PropOp36
 70
     1
102
RTVSPost2010Prop37
 90
       50
102
RTVSPost2010PropOp37
 70
     1
102
RTVSPost2010Prop38
140
0.0
102
RTVSPost2010PropOp38
 70
     1
102
RTVSPost2010Prop39
140
1.0
102
RTVSPost2010PropOp39
 70
     1
102
RTVSPost2010Prop40
 90
        0
102
RTVSPost2010PropOp40
 70
     1
102
RTVSPost2010Prop41ColorIndex
 90
       18
102
RTVSPost2010Prop41ColorRGB
 90
        0
102
RTVSPost2010PropOp41
 70
     1
102
RTVSPost2010Prop42
 90
       50
102
RTVSPost2010PropOp42
 70
     1
102
RTVSPost2010Prop43
 90
        3
102
RTVSPost2010PropOp43
 70
     1
102
RTVSPost2010Prop44ColorIndex
 90
        5
102
RTVSPost2010Prop44ColorRGB
 90
      255
102
RTVSPost2010PropOp44
 70
     1
102
RTVSPost2010Prop45
280
     0
102
RTVSPost2010PropOp45
 70
     1
102
RTVSPost2010Prop46
 90
       50
102
RTVSPost2010PropOp46
 70
     1
102
RTVSPost2010Prop47
 90
       50
102
RTVSPost2010PropOp47
 70
     1
102
RTVSPost2010Prop48
 90
       50
102
RTVSPost2010PropOp48
 70
     1
102
RTVSPost2010Prop49
280
     0
102
RTVSPost2010PropOp49
 70
     1
102
RTVSPost2010Prop50
 90
       50
102
RTVSPost2010PropOp50
 70
     1
102
RTVSPost2010Prop51ColorIndex
 90
      256
102
RTVSPost2010Prop51ColorRGB
 90
-16777216
102
RTVSPost2010PropOp51
 70
     0
102
RTVSPost2010Prop52
140
1.0
102
RTVSPost2010PropOp52
 70
     0
102
RTVSPost2010Prop53
 90
        2
102
RTVSPost2010PropOp53
 70
     1
102
RTVSPost2010Prop54
  1
strokes_ogs.tif
102
RTVSPost2010PropOp54
 70
     1
102
RTVSPost2010Prop55
280
     0
102
RTVSPost2010PropOp55
 70
     1
102
RTVSPost2010Prop56
140
1.0
102
RTVSPost2010PropOp56
 70
     1
102
RTVSPost2010Prop57
140
1.0
102
RTVSPost2010PropOp57
 70
     1
102
RTVSPropertyOp0
 70
     1
102
RTVSPropertyOp1
 70
     1
102
RTVSPropertyOp2
 70
     1
102
RTVSPropertyOp3
 70
     1
102
RTVSPropertyOp4
 70
     1
102
RTVSPropertyOp5
 70
     1
102
RTVSPropertyOp6
 70
     1
102
RTVSPropertyOp7
 70
     1
102
RTVSPropertyOp8
 70
     1
102
RTVSPropertyOp9
 70
     1
102
RTVSPropertyOp10
 70
     1
102
RTVSPropertyOp11
 70
     1
102
RTVSPropertyOp12
 70
     1
102
RTVSPropertyOp13
 70
     1
102
RTVSPropertyOp14
 70
     1
102
RTVSPropertyOp15
 70
     1
102
RTVSPropertyOp16
 70
     1
102
RTVSPropertyOp17
 70
     1
102
RTVSPropertyOp18
 70
     1
102
RTVSPropertyOp19
 70
     1
102
RTVSPropertyOp20
 70
     1
102
RTVSPropertyOp21
 70
     1
102
RTVSPropertyOp22
 70
     1
102
RTVSPropertyOp23
 70
     1
102
RTVSPropertyOp24
 70
     1
102
RTVSPropertyOp25
 70
     1
102
RTVSPropertyOp26
 70
     1
102
RTVSPropertyOp27
 70
     1
102
RTVSPropertyOp28
 70
     1
102
RTVSPropertyOp29
 70
     1
102
RTVSPropertyOp30
 70
     1
102
RTVSPropertyOp31
 70
     1
102
RTVSPropertyOp32
 70
     1
102
RTVSPropertyOp33
 70
     1
102
RTVSPropertyOp34
 70
     1
102
RTVSPropertyOp35
 70
     1
102
RTVSPropertyOp36
 70
     1
102
RTVSPropertyOp37
 70
     1
102
RTVSPropertyOp38
 70
     1
102
RTVSPropertyOp39
 70
     1
102
RTVSPropertyOp40
 70
     1
102
RTVSPropertyOp41
 70
     1
102
RTVSPropertyOp42
 70
     1
102
RTVSPropertyOp43
 70
     1
102
RTVSPropertyOp44
 70
     1
102
RTVSPropertyOp45
 70
     1
102
RTVSPropertyOp46
 70
     1
102
RTVSPropertyOp47
 70
     1
102
RTVSPropertyOp48
 70
     1
102
RTVSPropertyOp49
 70
     1
102
RTVSPropertyOp50
 70
     1
102
RTVSPropertyOp51
 70
     0
102
RTVSPropertyOp52
 70
     0
102
RTVSPropertyOp53
 70
     1
102
RTVSPropertyOp54
 70
     1
102
RTVSPropertyOp55
 70
     1
102
RTVSPropertyOp56
 70
     1
102
RTVSPropertyOp57
 70
     1
102
RTVSPropertyOp58
 70
     1
102
RTVSPropertyOp59
 70
     1
102
RTVSPropertyOp60
 70
     1
102
RTVSPropertyOp61
 70
     1
102
RTVSPropertyOp62
 70
     1
  0
XRECORD
  5
188A
102
{ACAD_REACTORS
330
1889
102
}
330
1889
100
AcDbXrecord
280
     1
102
RTVSPost2010Prop28
280
     0
102
RTVSPost2010PropOp28
 70
     1
102
RTVSPost2010Prop29
280
     1
102
RTVSPost2010PropOp29
 70
     1
102
RTVSPost2010Prop30
280
     1
102
RTVSPost2010PropOp30
 70
     1
102
RTVSPost2010Prop31
280
     0
102
RTVSPost2010PropOp31
 70
     1
102
RTVSPost2010Prop32
280
     0
102
RTVSPost2010PropOp32
 70
     1
102
RTVSPost2010Prop33
280
     0
102
RTVSPost2010PropOp33
 70
     1
102
RTVSPost2010Prop34
280
     0
102
RTVSPost2010PropOp34
 70
     1
102
RTVSPost2010Prop35
280
     0
102
RTVSPost2010PropOp35
 70
     1
102
RTVSPost2010Prop36
280
     0
102
RTVSPost2010PropOp36
 70
     1
102
RTVSPost2010Prop37
 90
       50
102
RTVSPost2010PropOp37
 70
     1
102
RTVSPost2010Prop38
140
0.0
102
RTVSPost2010PropOp38
 70
     1
102
RTVSPost2010Prop39
140
1.0
102
RTVSPost2010PropOp39
 70
     1
102
RTVSPost2010Prop40
 90
        0
102
RTVSPost2010PropOp40
 70
     1
102
RTVSPost2010Prop41ColorIndex
 90
       18
102
RTVSPost2010Prop41ColorRGB
 90
        0
102
RTVSPost2010PropOp41
 70
     1
102
RTVSPost2010Prop42
 90
       50
102
RTVSPost2010PropOp42
 70
     1
102
RTVSPost2010Prop43
 90
        3
102
RTVSPost2010PropOp43
 70
     1
102
RTVSPost2010Prop44ColorIndex
 90
        5
102
RTVSPost2010Prop44ColorRGB
 90
      255
102
RTVSPost2010PropOp44
 70
     1
102
RTVSPost2010Prop45
280
     0
102
RTVSPost2010PropOp45
 70
     1
102
RTVSPost2010Prop46
 90
       50
102
RTVSPost2010PropOp46
 70
     1
102
RTVSPost2010Prop47
 90
       50
102
RTVSPost2010PropOp47
 70
     1
102
RTVSPost2010Prop48
 90
       50
102
RTVSPost2010PropOp48
 70
     1
102
RTVSPost2010Prop49
280
     0
102
RTVSPost2010PropOp49
 70
     1
102
RTVSPost2010Prop50
 90
       50
102
RTVSPost2010PropOp50
 70
     1
102
RTVSPost2010Prop51ColorIndex
 90
      256
102
RTVSPost2010Prop51ColorRGB
 90
-16777216
102
RTVSPost2010PropOp51
 70
     0
102
RTVSPost2010Prop52
140
1.0
102
RTVSPost2010PropOp52
 70
     0
102
RTVSPost2010Prop53
 90
        2
102
RTVSPost2010PropOp53
 70
     1
102
RTVSPost2010Prop54
  1
strokes_ogs.tif
102
RTVSPost2010PropOp54
 70
     1
102
RTVSPost2010Prop55
280
     0
102
RTVSPost2010PropOp55
 70
     1
102
RTVSPost2010Prop56
140
1.0
102
RTVSPost2010PropOp56
 70
     1
102
RTVSPost2010Prop57
140
1.0
102
RTVSPost2010PropOp57
 70
     1
102
RTVSPropertyOp0
 70
     1
102
RTVSPropertyOp1
 70
     1
102
RTVSPropertyOp2
 70
     1
102
RTVSPropertyOp3
 70
     1
102
RTVSPropertyOp4
 70
     1
102
RTVSPropertyOp5
 70
     1
102
RTVSPropertyOp6
 70
     1
102
RTVSPropertyOp7
 70
     1
102
RTVSPropertyOp8
 70
     1
102
RTVSPropertyOp9
 70
     1
102
RTVSPropertyOp10
 70
     1
102
RTVSPropertyOp11
 70
     1
102
RTVSPropertyOp12
 70
     1
102
RTVSPropertyOp13
 70
     1
102
RTVSPropertyOp14
 70
     1
102
RTVSPropertyOp15
 70
     1
102
RTVSPropertyOp16
 70
     1
102
RTVSPropertyOp17
 70
     1
102
RTVSPropertyOp18
 70
     1
102
RTVSPropertyOp19
 70
     1
102
RTVSPropertyOp20
 70
     1
102
RTVSPropertyOp21
 70
     1
102
RTVSPropertyOp22
 70
     1
102
RTVSPropertyOp23
 70
     1
102
RTVSPropertyOp24
 70
     1
102
RTVSPropertyOp25
 70
     1
102
RTVSPropertyOp26
 70
     1
102
RTVSPropertyOp27
 70
     1
102
RTVSPropertyOp28
 70
     1
102
RTVSPropertyOp29
 70
     1
102
RTVSPropertyOp30
 70
     1
102
RTVSPropertyOp31
 70
     1
102
RTVSPropertyOp32
 70
     1
102
RTVSPropertyOp33
 70
     1
102
RTVSPropertyOp34
 70
     1
102
RTVSPropertyOp35
 70
     1
102
RTVSPropertyOp36
 70
     1
102
RTVSPropertyOp37
 70
     1
102
RTVSPropertyOp38
 70
     1
102
RTVSPropertyOp39
 70
     1
102
RTVSPropertyOp40
 70
     1
102
RTVSPropertyOp41
 70
     1
102
RTVSPropertyOp42
 70
     1
102
RTVSPropertyOp43
 70
     1
102
RTVSPropertyOp44
 70
     1
102
RTVSPropertyOp45
 70
     1
102
RTVSPropertyOp46
 70
     1
102
RTVSPropertyOp47
 70
     1
102
RTVSPropertyOp48
 70
     1
102
RTVSPropertyOp49
 70
     1
102
RTVSPropertyOp50
 70
     1
102
RTVSPropertyOp51
 70
     0
102
RTVSPropertyOp52
 70
     0
102
RTVSPropertyOp53
 70
     1
102
RTVSPropertyOp54
 70
     1
102
RTVSPropertyOp55
 70
     1
102
RTVSPropertyOp56
 70
     1
102
RTVSPropertyOp57
 70
     1
102
RTVSPropertyOp58
 70
     1
102
RTVSPropertyOp59
 70
     1
102
RTVSPropertyOp60
 70
     1
102
RTVSPropertyOp61
 70
     1
102
RTVSPropertyOp62
 70
     1
  0
XRECORD
  5
187E
102
{ACAD_REACTORS
330
187D
102
}
330
187D
100
AcDbXrecord
280
     1
102
RTVSPost2010Prop28
280
     0
102
RTVSPost2010PropOp28
 70
     1
102
RTVSPost2010Prop29
280
     1
102
RTVSPost2010PropOp29
 70
     1
102
RTVSPost2010Prop30
280
     1
102
RTVSPost2010PropOp30
 70
     1
102
RTVSPost2010Prop31
280
     0
102
RTVSPost2010PropOp31
 70
     1
102
RTVSPost2010Prop32
280
     0
102
RTVSPost2010PropOp32
 70
     1
102
RTVSPost2010Prop33
280
     0
102
RTVSPost2010PropOp33
 70
     1
102
RTVSPost2010Prop34
280
     0
102
RTVSPost2010PropOp34
 70
     1
102
RTVSPost2010Prop35
280
     0
102
RTVSPost2010PropOp35
 70
     1
102
RTVSPost2010Prop36
280
     0
102
RTVSPost2010PropOp36
 70
     1
102
RTVSPost2010Prop37
 90
       50
102
RTVSPost2010PropOp37
 70
     1
102
RTVSPost2010Prop38
140
0.0
102
RTVSPost2010PropOp38
 70
     1
102
RTVSPost2010Prop39
140
1.0
102
RTVSPost2010PropOp39
 70
     1
102
RTVSPost2010Prop40
 90
        0
102
RTVSPost2010PropOp40
 70
     1
102
RTVSPost2010Prop41ColorIndex
 90
       18
102
RTVSPost2010Prop41ColorRGB
 90
        0
102
RTVSPost2010PropOp41
 70
     1
102
RTVSPost2010Prop42
 90
       50
102
RTVSPost2010PropOp42
 70
     1
102
RTVSPost2010Prop43
 90
        3
102
RTVSPost2010PropOp43
 70
     1
102
RTVSPost2010Prop44ColorIndex
 90
        5
102
RTVSPost2010Prop44ColorRGB
 90
      255
102
RTVSPost2010PropOp44
 70
     1
102
RTVSPost2010Prop45
280
     0
102
RTVSPost2010PropOp45
 70
     1
102
RTVSPost2010Prop46
 90
       50
102
RTVSPost2010PropOp46
 70
     1
102
RTVSPost2010Prop47
 90
       50
102
RTVSPost2010PropOp47
 70
     1
102
RTVSPost2010Prop48
 90
       50
102
RTVSPost2010PropOp48
 70
     1
102
RTVSPost2010Prop49
280
     0
102
RTVSPost2010PropOp49
 70
     1
102
RTVSPost2010Prop50
 90
       50
102
RTVSPost2010PropOp50
 70
     1
102
RTVSPost2010Prop51ColorIndex
 90
      256
102
RTVSPost2010Prop51ColorRGB
 90
-16777216
102
RTVSPost2010PropOp51
 70
     0
102
RTVSPost2010Prop52
140
1.0
102
RTVSPost2010PropOp52
 70
     0
102
RTVSPost2010Prop53
 90
        2
102
RTVSPost2010PropOp53
 70
     1
102
RTVSPost2010Prop54
  1
strokes_ogs.tif
102
RTVSPost2010PropOp54
 70
     1
102
RTVSPost2010Prop55
280
     0
102
RTVSPost2010PropOp55
 70
     1
102
RTVSPost2010Prop56
140
1.0
102
RTVSPost2010PropOp56
 70
     1
102
RTVSPost2010Prop57
140
1.0
102
RTVSPost2010PropOp57
 70
     1
102
RTVSPropertyOp0
 70
     1
102
RTVSPropertyOp1
 70
     1
102
RTVSPropertyOp2
 70
     1
102
RTVSPropertyOp3
 70
     1
102
RTVSPropertyOp4
 70
     1
102
RTVSPropertyOp5
 70
     1
102
RTVSPropertyOp6
 70
     1
102
RTVSPropertyOp7
 70
     1
102
RTVSPropertyOp8
 70
     1
102
RTVSPropertyOp9
 70
     1
102
RTVSPropertyOp10
 70
     1
102
RTVSPropertyOp11
 70
     1
102
RTVSPropertyOp12
 70
     1
102
RTVSPropertyOp13
 70
     1
102
RTVSPropertyOp14
 70
     1
102
RTVSPropertyOp15
 70
     1
102
RTVSPropertyOp16
 70
     1
102
RTVSPropertyOp17
 70
     1
102
RTVSPropertyOp18
 70
     1
102
RTVSPropertyOp19
 70
     1
102
RTVSPropertyOp20
 70
     1
102
RTVSPropertyOp21
 70
     1
102
RTVSPropertyOp22
 70
     1
102
RTVSPropertyOp23
 70
     1
102
RTVSPropertyOp24
 70
     1
102
RTVSPropertyOp25
 70
     1
102
RTVSPropertyOp26
 70
     1
102
RTVSPropertyOp27
 70
     1
102
RTVSPropertyOp28
 70
     1
102
RTVSPropertyOp29
 70
     1
102
RTVSPropertyOp30
 70
     1
102
RTVSPropertyOp31
 70
     1
102
RTVSPropertyOp32
 70
     1
102
RTVSPropertyOp33
 70
     1
102
RTVSPropertyOp34
 70
     1
102
RTVSPropertyOp35
 70
     1
102
RTVSPropertyOp36
 70
     1
102
RTVSPropertyOp37
 70
     1
102
RTVSPropertyOp38
 70
     1
102
RTVSPropertyOp39
 70
     1
102
RTVSPropertyOp40
 70
     1
102
RTVSPropertyOp41
 70
     1
102
RTVSPropertyOp42
 70
     1
102
RTVSPropertyOp43
 70
     1
102
RTVSPropertyOp44
 70
     1
102
RTVSPropertyOp45
 70
     1
102
RTVSPropertyOp46
 70
     1
102
RTVSPropertyOp47
 70
     1
102
RTVSPropertyOp48
 70
     1
102
RTVSPropertyOp49
 70
     1
102
RTVSPropertyOp50
 70
     1
102
RTVSPropertyOp51
 70
     0
102
RTVSPropertyOp52
 70
     0
102
RTVSPropertyOp53
 70
     1
102
RTVSPropertyOp54
 70
     1
102
RTVSPropertyOp55
 70
     1
102
RTVSPropertyOp56
 70
     1
102
RTVSPropertyOp57
 70
     1
102
RTVSPropertyOp58
 70
     1
102
RTVSPropertyOp59
 70
     1
102
RTVSPropertyOp60
 70
     1
102
RTVSPropertyOp61
 70
     1
102
RTVSPropertyOp62
 70
     1
  0
XRECORD
  5
1896
102
{ACAD_REACTORS
330
1895
102
}
330
1895
100
AcDbXrecord
280
     1
102
RTVSPost2010Prop28
280
     0
102
RTVSPost2010PropOp28
 70
     1
102
RTVSPost2010Prop29
280
     1
102
RTVSPost2010PropOp29
 70
     1
102
RTVSPost2010Prop30
280
     1
102
RTVSPost2010PropOp30
 70
     1
102
RTVSPost2010Prop31
280
     0
102
RTVSPost2010PropOp31
 70
     1
102
RTVSPost2010Prop32
280
     0
102
RTVSPost2010PropOp32
 70
     1
102
RTVSPost2010Prop33
280
     0
102
RTVSPost2010PropOp33
 70
     1
102
RTVSPost2010Prop34
280
     0
102
RTVSPost2010PropOp34
 70
     1
102
RTVSPost2010Prop35
280
     0
102
RTVSPost2010PropOp35
 70
     1
102
RTVSPost2010Prop36
280
     0
102
RTVSPost2010PropOp36
 70
     1
102
RTVSPost2010Prop37
 90
       50
102
RTVSPost2010PropOp37
 70
     1
102
RTVSPost2010Prop38
140
0.0
102
RTVSPost2010PropOp38
 70
     1
102
RTVSPost2010Prop39
140
1.0
102
RTVSPost2010PropOp39
 70
     1
102
RTVSPost2010Prop40
 90
        0
102
RTVSPost2010PropOp40
 70
     1
102
RTVSPost2010Prop41ColorIndex
 90
       18
102
RTVSPost2010Prop41ColorRGB
 90
        0
102
RTVSPost2010PropOp41
 70
     1
102
RTVSPost2010Prop42
 90
       50
102
RTVSPost2010PropOp42
 70
     1
102
RTVSPost2010Prop43
 90
        3
102
RTVSPost2010PropOp43
 70
     1
102
RTVSPost2010Prop44ColorIndex
 90
        5
102
RTVSPost2010Prop44ColorRGB
 90
      255
102
RTVSPost2010PropOp44
 70
     1
102
RTVSPost2010Prop45
280
     0
102
RTVSPost2010PropOp45
 70
     1
102
RTVSPost2010Prop46
 90
       50
102
RTVSPost2010PropOp46
 70
     1
102
RTVSPost2010Prop47
 90
       50
102
RTVSPost2010PropOp47
 70
     1
102
RTVSPost2010Prop48
 90
       50
102
RTVSPost2010PropOp48
 70
     1
102
RTVSPost2010Prop49
280
     0
102
RTVSPost2010PropOp49
 70
     1
102
RTVSPost2010Prop50
 90
       50
102
RTVSPost2010PropOp50
 70
     1
102
RTVSPost2010Prop51ColorIndex
 90
      256
102
RTVSPost2010Prop51ColorRGB
 90
-16777216
102
RTVSPost2010PropOp51
 70
     0
102
RTVSPost2010Prop52
140
1.0
102
RTVSPost2010PropOp52
 70
     0
102
RTVSPost2010Prop53
 90
        2
102
RTVSPost2010PropOp53
 70
     1
102
RTVSPost2010Prop54
  1
strokes_ogs.tif
102
RTVSPost2010PropOp54
 70
     1
102
RTVSPost2010Prop55
280
     0
102
RTVSPost2010PropOp55
 70
     1
102
RTVSPost2010Prop56
140
1.0
102
RTVSPost2010PropOp56
 70
     1
102
RTVSPost2010Prop57
140
1.0
102
RTVSPost2010PropOp57
 70
     1
102
RTVSPropertyOp0
 70
     1
102
RTVSPropertyOp1
 70
     1
102
RTVSPropertyOp2
 70
     1
102
RTVSPropertyOp3
 70
     1
102
RTVSPropertyOp4
 70
     1
102
RTVSPropertyOp5
 70
     1
102
RTVSPropertyOp6
 70
     1
102
RTVSPropertyOp7
 70
     1
102
RTVSPropertyOp8
 70
     1
102
RTVSPropertyOp9
 70
     1
102
RTVSPropertyOp10
 70
     1
102
RTVSPropertyOp11
 70
     1
102
RTVSPropertyOp12
 70
     1
102
RTVSPropertyOp13
 70
     1
102
RTVSPropertyOp14
 70
     1
102
RTVSPropertyOp15
 70
     1
102
RTVSPropertyOp16
 70
     1
102
RTVSPropertyOp17
 70
     1
102
RTVSPropertyOp18
 70
     1
102
RTVSPropertyOp19
 70
     1
102
RTVSPropertyOp20
 70
     1
102
RTVSPropertyOp21
 70
     1
102
RTVSPropertyOp22
 70
     1
102
RTVSPropertyOp23
 70
     1
102
RTVSPropertyOp24
 70
     1
102
RTVSPropertyOp25
 70
     1
102
RTVSPropertyOp26
 70
     1
102
RTVSPropertyOp27
 70
     1
102
RTVSPropertyOp28
 70
     1
102
RTVSPropertyOp29
 70
     1
102
RTVSPropertyOp30
 70
     1
102
RTVSPropertyOp31
 70
     1
102
RTVSPropertyOp32
 70
     1
102
RTVSPropertyOp33
 70
     1
102
RTVSPropertyOp34
 70
     1
102
RTVSPropertyOp35
 70
     1
102
RTVSPropertyOp36
 70
     1
102
RTVSPropertyOp37
 70
     1
102
RTVSPropertyOp38
 70
     1
102
RTVSPropertyOp39
 70
     1
102
RTVSPropertyOp40
 70
     1
102
RTVSPropertyOp41
 70
     1
102
RTVSPropertyOp42
 70
     1
102
RTVSPropertyOp43
 70
     1
102
RTVSPropertyOp44
 70
     1
102
RTVSPropertyOp45
 70
     1
102
RTVSPropertyOp46
 70
     1
102
RTVSPropertyOp47
 70
     1
102
RTVSPropertyOp48
 70
     1
102
RTVSPropertyOp49
 70
     1
102
RTVSPropertyOp50
 70
     1
102
RTVSPropertyOp51
 70
     0
102
RTVSPropertyOp52
 70
     0
102
RTVSPropertyOp53
 70
     1
102
RTVSPropertyOp54
 70
     1
102
RTVSPropertyOp55
 70
     1
102
RTVSPropertyOp56
 70
     1
102
RTVSPropertyOp57
 70
     1
102
RTVSPropertyOp58
 70
     1
102
RTVSPropertyOp59
 70
     1
102
RTVSPropertyOp60
 70
     1
102
RTVSPropertyOp61
 70
     1
102
RTVSPropertyOp62
 70
     1
  0
ENDSEC
  0
EOF
