  0
SECTION
  2
HEADER
  9
$ACADVER
  1
AC1015
  9
$ACADMAINTVER
 70
    20
  9
$DWGCODEPAGE
  3
ANSI_932
  9
$INSBASE
 10
0.0
 20
0.0
 30
0.0
  9
$EXTMIN
 10
9.99995
 20
9.999999999999998
 30
0.0
  9
$EXTMAX
 10
420.7995949999999
 20
295.708032
 30
0.0
  9
$LIMMIN
 10
0.0
 20
0.0
  9
$LIMMAX
 10
495.0
 20
341.25
  9
$ORTHOMODE
 70
     1
  9
$REGENMODE
 70
     1
  9
$FILLMODE
 70
     1
  9
$QTEXTMODE
 70
     0
  9
$MIRRTEXT
 70
     1
  9
$LTSCALE
 40
20.0
  9
$ATTMODE
 70
     1
  9
$TEXTSIZE
 40
5.0
  9
$TRACEWID
 40
1.0
  9
$TEXTSTYLE
  7
STANDARD
  9
$CLAYER
  8
0
  9
$CELTYPE
  6
BYLAYER
  9
$CECOLOR
 62
   256
  9
$CELTSCALE
 40
1.0
  9
$DISPSILH
 70
     0
  9
$DIMSCALE
 40
1.0
  9
$DIMASZ
 40
3.0
  9
$DIMEXO
 40
1.0
  9
$DIMDLI
 40
10.0
  9
$DIMRND
 40
0.0
  9
$DIMDLE
 40
0.0
  9
$DIMEXE
 40
1.0
  9
$DIMTP
 40
0.0
  9
$DIMTM
 40
0.0
  9
$DIMTXT
 40
3.2
  9
$DIMCEN
 40
0.0
  9
$DIMTSZ
 40
0.0
  9
$DIMTOL
 70
     0
  9
$DIMLIM
 70
     0
  9
$DIMTIH
 70
     0
  9
$DIMTOH
 70
     0
  9
$DIMSE1
 70
     0
  9
$DIMSE2
 70
     0
  9
$DIMTAD
 70
     3
  9
$DIMZIN
 70
     8
  9
$DIMBLK
  1

  9
$DIMASO
 70
     1
  9
$DIMSHO
 70
     1
  9
$DIMPOST
  1

  9
$DIMAPOST
  1

  9
$DIMALT
 70
     0
  9
$DIMALTD
 70
     2
  9
$DIMALTF
 40
25.4
  9
$DIMLFAC
 40
1.0
  9
$DIMTOFL
 70
     1
  9
$DIMTVP
 40
0.0
  9
$DIMTIX
 70
     0
  9
$DIMSOXD
 70
     0
  9
$DIMSAH
 70
     1
  9
$DIMBLK1
  1
OPEN
  9
$DIMBLK2
  1
OPEN
  9
$DIMSTYLE
  2
STANDARD
  9
$DIMCLRD
 70
     0
  9
$DIMCLRE
 70
     0
  9
$DIMCLRT
 70
     0
  9
$DIMTFAC
 40
1.0
  9
$DIMGAP
 40
1.0
  9
$DIMJUST
 70
     0
  9
$DIMSD1
 70
     0
  9
$DIMSD2
 70
     0
  9
$DIMTOLJ
 70
     1
  9
$DIMTZIN
 70
     0
  9
$DIMALTZ
 70
     0
  9
$DIMALTTZ
 70
     0
  9
$DIMUPT
 70
     0
  9
$DIMDEC
 70
     4
  9
$DIMTDEC
 70
     4
  9
$DIMALTU
 70
     2
  9
$DIMALTTD
 70
     2
  9
$DIMTXSTY
  7
STANDARD
  9
$DIMAUNIT
 70
     0
  9
$DIMADEC
 70
     0
  9
$DIMALTRND
 40
0.0
  9
$DIMAZIN
 70
     0
  9
$DIMDSEP
 70
    46
  9
$DIMATFIT
 70
     3
  9
$DIMFRAC
 70
     0
  9
$DIMLDRBLK
  1
OPEN
  9
$DIMLUNIT
 70
     2
  9
$DIMLWD
 70
    -2
  9
$DIMLWE
 70
    -2
  9
$DIMTMOVE
 70
     0
  9
$LUNITS
 70
     2
  9
$LUPREC
 70
     4
  9
$SKETCHINC
 40
1.0
  9
$FILLETRAD
 40
0.3
  9
$AUNITS
 70
     0
  9
$AUPREC
 70
     2
  9
$MENU
  1
.
  9
$ELEVATION
 40
0.0
  9
$PELEVATION
 40
0.0
  9
$THICKNESS
 40
0.0
  9
$LIMCHECK
 70
     0
  9
$CHAMFERA
 40
10.0
  9
$CHAMFERB
 40
10.0
  9
$CHAMFERC
 40
0.0
  9
$CHAMFERD
 40
0.0
  9
$SKPOLY
 70
     0
  9
$TDCREATE
 40
2451301.386065741
  9
$TDUCREATE
 40
2451301.011065741
  9
$TDUPDATE
 40
2457192.692121053
  9
$TDUUPDATE
 40
2457192.317121053
  9
$TDINDWG
 40
0.0031439236
  9
$TDUSRTIMER
 40
0.0031432407
  9
$USRTIMER
 70
     1
  9
$ANGBASE
 50
0.0
  9
$ANGDIR
 70
     0
  9
$PDMODE
 70
    34
  9
$PDSIZE
 40
0.0
  9
$PLINEWID
 40
0.0
  9
$SPLFRAME
 70
     0
  9
$SPLINETYPE
 70
     6
  9
$SPLINESEGS
 70
     8
  9
$HANDSEED
  5
CA4C
  9
$SURFTAB1
 70
     6
  9
$SURFTAB2
 70
     6
  9
$SURFTYPE
 70
     6
  9
$SURFU
 70
     6
  9
$SURFV
 70
     6
  9
$UCSBASE
  2

  9
$UCSNAME
  2

  9
$UCSORG
 10
0.0
 20
0.0
 30
0.0
  9
$UCSXDIR
 10
1.0
 20
0.0
 30
0.0
  9
$UCSYDIR
 10
0.0
 20
1.0
 30
0.0
  9
$UCSORTHOREF
  2

  9
$UCSORTHOVIEW
 70
     0
  9
$UCSORGTOP
 10
0.0
 20
0.0
 30
0.0
  9
$UCSORGBOTTOM
 10
0.0
 20
0.0
 30
0.0
  9
$UCSORGLEFT
 10
0.0
 20
0.0
 30
0.0
  9
$UCSORGRIGHT
 10
0.0
 20
0.0
 30
0.0
  9
$UCSORGFRONT
 10
0.0
 20
0.0
 30
0.0
  9
$UCSORGBACK
 10
0.0
 20
0.0
 30
0.0
  9
$PUCSBASE
  2

  9
$PUCSNAME
  2

  9
$PUCSORG
 10
0.0
 20
0.0
 30
0.0
  9
$PUCSXDIR
 10
1.0
 20
0.0
 30
0.0
  9
$PUCSYDIR
 10
0.0
 20
1.0
 30
0.0
  9
$PUCSORTHOREF
  2

  9
$PUCSORTHOVIEW
 70
     0
  9
$PUCSORGTOP
 10
0.0
 20
0.0
 30
0.0
  9
$PUCSORGBOTTOM
 10
0.0
 20
0.0
 30
0.0
  9
$PUCSORGLEFT
 10
0.0
 20
0.0
 30
0.0
  9
$PUCSORGRIGHT
 10
0.0
 20
0.0
 30
0.0
  9
$PUCSORGFRONT
 10
0.0
 20
0.0
 30
0.0
  9
$PUCSORGBACK
 10
0.0
 20
0.0
 30
0.0
  9
$USERI1
 70
     0
  9
$USERI2
 70
     0
  9
$USERI3
 70
     0
  9
$USERI4
 70
     0
  9
$USERI5
 70
     0
  9
$USERR1
 40
0.0
  9
$USERR2
 40
0.0
  9
$USERR3
 40
0.0
  9
$USERR4
 40
0.0
  9
$USERR5
 40
0.0
  9
$WORLDVIEW
 70
     1
  9
$SHADEDGE
 70
     3
  9
$SHADEDIF
 70
    70
  9
$TILEMODE
 70
     1
  9
$MAXACTVP
 70
    16
  9
$PINSBASE
 10
0.0
 20
0.0
 30
0.0
  9
$PLIMCHECK
 70
     0
  9
$PEXTMIN
 10
1.000000000000000E+20
 20
1.000000000000000E+20
 30
1.000000000000000E+20
  9
$PEXTMAX
 10
-1.000000000000000E+20
 20
-1.000000000000000E+20
 30
-1.000000000000000E+20
  9
$PLIMMIN
 10
0.0
 20
0.0
  9
$PLIMMAX
 10
420.0
 20
297.0
  9
$UNITMODE
 70
     0
  9
$VISRETAIN
 70
     0
  9
$PLINEGEN
 70
     0
  9
$PSLTSCALE
 70
     0
  9
$TREEDEPTH
 70
  3020
  9
$CMLSTYLE
  2
STANDARD
  9
$CMLJUST
 70
     0
  9
$CMLSCALE
 40
1.0
  9
$PROXYGRAPHICS
 70
     1
  9
$MEASUREMENT
 70
     0
  9
$CELWEIGHT
370
    -1
  9
$ENDCAPS
280
     0
  9
$JOINSTYLE
280
     0
  9
$LWDISPLAY
290
     0
  9
$INSUNITS
 70
     0
  9
$HYPERLINKBASE
  1

  9
$STYLESHEET
  1

  9
$XEDIT
290
     1
  9
$CEPSNTYPE
380
     0
  9
$PSTYLEMODE
290
     1
  9
$FINGERPRINTGUID
  2
{F6B3EAF6-39F6-4DD5-A2A5-2D46B81C8D01}
  9
$VERSIONGUID
  2
{353AE457-C9AC-4475-8B21-C483C4FFD491}
  9
$EXTNAMES
290
     1
  9
$PSVPSCALE
 40
0.0
  9
$OLESTARTUP
290
     0
  0
ENDSEC
  0
SECTION
  2
CLASSES
  0
CLASS
  1
ACDBDICTIONARYWDFLT
  2
AcDbDictionaryWithDefault
  3
ObjectDBX Classes
 90
        0
280
     0
281
     0
  0
CLASS
  1
ACDBPLACEHOLDER
  2
AcDbPlaceHolder
  3
ObjectDBX Classes
 90
        0
280
     0
281
     0
  0
CLASS
  1
LAYOUT
  2
AcDbLayout
  3
ObjectDBX Classes
 90
        0
280
     0
281
     0
  0
CLASS
  1
DICTIONARYVAR
  2
AcDbDictionaryVar
  3
ObjectDBX Classes
 90
        0
280
     0
281
     0
  0
CLASS
  1
MATERIAL
  2
AcDbMaterial
  3
ObjectDBX Classes
 90
     1153
280
     0
281
     0
  0
CLASS
  1
VISUALSTYLE
  2
AcDbVisualStyle
  3
ObjectDBX Classes
 90
     4095
280
     0
281
     0
  0
CLASS
  1
TABLESTYLE
  2
AcDbTableStyle
  3
ObjectDBX Classes
 90
     4095
280
     0
281
     0
  0
CLASS
  1
SCALE
  2
AcDbScale
  3
ObjectDBX Classes
 90
     1153
280
     0
281
     0
  0
CLASS
  1
MLEADERSTYLE
  2
AcDbMLeaderStyle
  3
ACDB_MLEADERSTYLE_CLASS
 90
     4095
280
     0
281
     0
  0
CLASS
  1
ACDBSECTIONVIEWSTYLE
  2
AcDbSectionViewStyle
  3
ObjectDBX Classes
 90
     1025
280
     0
281
     0
  0
CLASS
  1
ACDBDETAILVIEWSTYLE
  2
AcDbDetailViewStyle
  3
ObjectDBX Classes
 90
     1025
280
     0
281
     0
  0
CLASS
  1
CELLSTYLEMAP
  2
AcDbCellStyleMap
  3
ObjectDBX Classes
 90
     1152
280
     0
281
     0
  0
ENDSEC
  0
SECTION
  2
TABLES
  0
TABLE
  2
VPORT
  5
C704
330
0
100
AcDbSymbolTable
 70
     1
  0
VPORT
  5
C952
330
C704
100
AcDbSymbolTableRecord
100
AcDbViewportTableRecord
  2
*ACTIVE
 70
     0
 10
0.0
 20
0.0
 11
1.0
 21
1.0
 12
271.1150851569648
 22
170.625
 13
0.0
 23
0.0
 14
10.0
 24
10.0
 15
10.0
 25
10.0
 16
0.0
 26
0.0
 36
1.0
 17
0.0
 27
0.0
 37
0.0
 40
343.7934782608696
 41
2.35006605019815
 42
50.0
 43
0.0
 44
0.0
 50
0.0
 51
0.0
 71
     0
 72
   100
 73
     1
 74
     0
 75
     0
 76
     0
 77
     0
 78
     0
281
     0
 65
     1
110
0.0
120
0.0
130
0.0
111
1.0
121
0.0
131
0.0
112
0.0
122
1.0
132
0.0
 79
     0
146
0.0
1001
ACAD_NAV_VCDISPLAY
1070
     3
  0
ENDTAB
  0
TABLE
  2
LTYPE
  5
C701
330
0
100
AcDbSymbolTable
 70
     4
  0
LTYPE
  5
C70F
330
C701
100
AcDbSymbolTableRecord
100
AcDbLinetypeTableRecord
  2
BYBLOCK
 70
     0
  3

 72
    65
 73
     0
 40
0.0
  0
LTYPE
  5
C710
330
C701
100
AcDbSymbolTableRecord
100
AcDbLinetypeTableRecord
  2
BYLAYER
 70
     0
  3

 72
    65
 73
     0
 40
0.0
  0
LTYPE
  5
C711
330
C701
100
AcDbSymbolTableRecord
100
AcDbLinetypeTableRecord
  2
CONTINUOUS
 70
     0
  3
Solid line
 72
    65
 73
     0
 40
0.0
  0
LTYPE
  5
C71F
330
C701
100
AcDbSymbolTableRecord
100
AcDbLinetypeTableRecord
  2
DASHED
 70
     0
  3
__ __ __ __ __ __ __ __ __ __ __ __ __ __ __ __
 72
    65
 73
     2
 40
0.75
 49
0.5
 74
     0
 49
-0.25
 74
     0
  0
LTYPE
  5
C720
330
C701
100
AcDbSymbolTableRecord
100
AcDbLinetypeTableRecord
  2
CENTER
 70
     0
  3
____ _ ____ _ ____ _ ____ _ ____ _ ____ _ ____ 
 72
    65
 73
     4
 40
2.0
 49
1.25
 74
     0
 49
-0.25
 74
     0
 49
0.25
 74
     0
 49
-0.25
 74
     0
  0
LTYPE
  5
C721
330
C701
100
AcDbSymbolTableRecord
100
AcDbLinetypeTableRecord
  2
PHANTOM
 70
     0
  3
______  __  __  ______  __  __  ______  __  __ 
 72
    65
 73
     6
 40
2.5
 49
1.25
 74
     0
 49
-0.25
 74
     0
 49
0.25
 74
     0
 49
-0.25
 74
     0
 49
0.25
 74
     0
 49
-0.25
 74
     0
  0
ENDTAB
  0
TABLE
  2
LAYER
  5
C6FE
330
0
100
AcDbSymbolTable
 70
     8
  0
LAYER
  5
C70C
102
{ACAD_XDICTIONARY
360
C9AF
102
}
330
C6FE
100
AcDbSymbolTableRecord
100
AcDbLayerTableRecord
  2
0
 70
     0
 62
     7
  6
CONTINUOUS
370
    -3
390
C95B
  0
LAYER
  5
C722
102
{ACAD_XDICTIONARY
360
C9B1
102
}
330
C6FE
100
AcDbSymbolTableRecord
100
AcDbLayerTableRecord
  2
4
 70
     0
 62
     1
  6
CENTER
370
    -3
390
C95B
  0
LAYER
  5
C723
102
{ACAD_XDICTIONARY
360
C9B3
102
}
330
C6FE
100
AcDbSymbolTableRecord
100
AcDbLayerTableRecord
  2
5
 70
     0
 62
     6
  6
PHANTOM
370
    -3
390
C95B
  0
LAYER
  5
C724
102
{ACAD_XDICTIONARY
360
C9B5
102
}
330
C6FE
100
AcDbSymbolTableRecord
100
AcDbLayerTableRecord
  2
1
 70
     0
 62
     7
  6
CONTINUOUS
370
    -3
390
C95B
  0
LAYER
  5
C725
102
{ACAD_XDICTIONARY
360
C9B7
102
}
330
C6FE
100
AcDbSymbolTableRecord
100
AcDbLayerTableRecord
  2
2
 70
     0
 62
     4
  6
CONTINUOUS
370
    -3
390
C95B
  0
LAYER
  5
C726
102
{ACAD_XDICTIONARY
360
C9B9
102
}
330
C6FE
100
AcDbSymbolTableRecord
100
AcDbLayerTableRecord
  2
3
 70
     0
 62
     2
  6
DASHED
370
    -3
390
C95B
  0
LAYER
  5
C727
102
{ACAD_XDICTIONARY
360
C9BB
102
}
330
C6FE
100
AcDbSymbolTableRecord
100
AcDbLayerTableRecord
  2
6
 70
     0
 62
     5
  6
CONTINUOUS
370
    -3
390
C95B
  0
LAYER
  5
C728
102
{ACAD_XDICTIONARY
360
C9BD
102
}
330
C6FE
100
AcDbSymbolTableRecord
100
AcDbLayerTableRecord
  2
7
 70
     0
 62
     3
  6
CONTINUOUS
370
    -3
390
C95B
  0
ENDTAB
  0
TABLE
  2
STYLE
  5
C6FF
330
0
100
AcDbSymbolTable
 70
     1
  0
STYLE
  5
C70D
330
C6FF
100
AcDbSymbolTableRecord
100
AcDbTextStyleTableRecord
  2
STANDARD
 70
     0
 40
0.0
 41
1.0
 50
0.0
 71
     0
 42
5.0
  3
txt
  4

  0
ENDTAB
  0
TABLE
  2
VIEW
  5
C702
330
0
100
AcDbSymbolTable
 70
     2
  0
VIEW
  5
C729
330
C702
100
AcDbSymbolTableRecord
100
AcDbViewTableRecord
  2
7
 70
     0
 40
113.5991649999999
 10
207.7781589999999
 20
100.5444229999999
 41
223.824098
 11
0.0
 21
0.0
 31
1.0
 12
0.0
 22
0.0
 32
0.0
 42
50.0
 43
0.0
 44
0.0
 50
0.0
 71
     0
281
     0
 72
     0
  0
VIEW
  5
C72A
330
C702
100
AcDbSymbolTableRecord
100
AcDbViewTableRecord
  2
6
 70
     0
 40
267.146964
 10
253.9720659999999
 20
125.781695
 41
526.35887
 11
0.0
 21
0.0
 31
1.0
 12
0.0
 22
0.0
 32
0.0
 42
50.0
 43
0.0
 44
0.0
 50
0.0
 71
     0
281
     0
 72
     0
  0
ENDTAB
  0
TABLE
  2
UCS
  5
C703
330
0
100
AcDbSymbolTable
 70
     0
  0
ENDTAB
  0
TABLE
  2
APPID
  5
C705
330
0
100
AcDbSymbolTable
 70
     4
  0
APPID
  5
C70E
330
C705
100
AcDbSymbolTableRecord
100
AcDbRegAppTableRecord
  2
ACAD
 70
     0
  0
APPID
  5
C9AD
330
C705
100
AcDbSymbolTableRecord
100
AcDbRegAppTableRecord
  2
ACAD_EXEMPT_FROM_CAD_STANDARDS
 70
     0
  0
APPID
  5
C9C9
330
C705
100
AcDbSymbolTableRecord
100
AcDbRegAppTableRecord
  2
ACAD_NAV_VCDISPLAY
 70
     0
  0
APPID
  5
CA02
330
C705
100
AcDbSymbolTableRecord
100
AcDbRegAppTableRecord
  2
ACAD_MLEADERVER
 70
     0
  0
ENDTAB
  0
TABLE
  2
DIMSTYLE
  5
C706
330
0
100
AcDbSymbolTable
 70
     1
100
AcDbDimStyleTable
 71
     0
  0
DIMSTYLE
105
C72C
330
C706
100
AcDbSymbolTableRecord
100
AcDbDimStyleTableRecord
  2
STANDARD
 70
     0
 41
3.0
 42
1.0
 43
10.0
 44
1.0
 73
     0
 74
     0
 77
     3
 78
     8
140
3.2
141
0.0
147
1.0
172
     1
173
     1
284
     8
285
     8
286
     8
340
C70D
  0
ENDTAB
  0
TABLE
  2
BLOCK_RECORD
  5
C6FD
330
0
100
AcDbSymbolTable
 70
     1
  0
BLOCK_RECORD
  5
C71A
102
{ACAD_XDICTIONARY
360
C955
102
}
330
C6FD
100
AcDbSymbolTableRecord
100
AcDbBlockTableRecord
  2
*MODEL_SPACE
340
C9A9
  0
BLOCK_RECORD
  5
C716
102
{ACAD_XDICTIONARY
360
C953
102
}
330
C6FD
100
AcDbSymbolTableRecord
100
AcDbBlockTableRecord
  2
*PAPER_SPACE
340
C9AA
  0
BLOCK_RECORD
  5
C734
330
C6FD
100
AcDbSymbolTableRecord
100
AcDbBlockTableRecord
  2
_OPEN
340
0
  0
ENDTAB
  0
ENDSEC
  0
SECTION
  2
BLOCKS
  0
BLOCK
  5
C71B
330
C71A
100
AcDbEntity
  8
0
100
AcDbBlockBegin
  2
*MODEL_SPACE
 70
     0
 10
0.0
 20
0.0
 30
0.0
  3
*MODEL_SPACE
  1

  0
ENDBLK
  5
C71C
330
C71A
100
AcDbEntity
  8
0
100
AcDbBlockEnd
  0
BLOCK
  5
C717
330
C716
100
AcDbEntity
 67
     1
  8
0
100
AcDbBlockBegin
  2
*PAPER_SPACE
 70
     0
 10
0.0
 20
0.0
 30
0.0
  3
*PAPER_SPACE
  1

  0
ENDBLK
  5
C718
330
C716
100
AcDbEntity
 67
     1
  8
0
100
AcDbBlockEnd
  0
BLOCK
  5
C735
330
C734
100
AcDbEntity
  8
0
100
AcDbBlockBegin
  2
_OPEN
 70
     0
 10
0.0
 20
0.0
 30
0.0
  3
_OPEN
  1

  0
LINE
  5
C736
330
C734
100
AcDbEntity
  8
0
  6
ByBlock
 62
     0
100
AcDbLine
 10
-1.0
 20
0.166667
 30
0.0
 11
0.0
 21
0.0
 31
0.0
  0
LINE
  5
C737
330
C734
100
AcDbEntity
  8
0
  6
ByBlock
 62
     0
100
AcDbLine
 10
0.0
 20
0.0
 30
0.0
 11
-1.0
 21
-0.166667
 31
0.0
  0
LINE
  5
C738
330
C734
100
AcDbEntity
  8
0
  6
ByBlock
 62
     0
100
AcDbLine
 10
0.0
 20
0.0
 30
0.0
 11
-1.0
 21
0.0
 31
0.0
  0
ENDBLK
  5
C739
330
C734
100
AcDbEntity
  8
0
100
AcDbBlockEnd
  0
ENDSEC
  0
SECTION
  2
ENTITIES
  0
TEXT
  5
C73A
330
C71A
100
AcDbEntity
  8
6
  6
Continuous
100
AcDbText
 10
27.97945
 20
10.0487
 30
0.0
 40
1.399999999999999
  1
6
 41
1.069393
100
AcDbText
  0
TEXT
  5
C73B
330
C71A
100
AcDbEntity
  8
1
  6
Continuous
100
AcDbText
 10
17.97945
 20
10.0487
 30
0.0
 40
1.399999999999999
  1
1
 41
1.069393
100
AcDbText
  0
TEXT
  5
C73C
330
C71A
100
AcDbEntity
  8
1
  6
Continuous
100
AcDbText
 10
9.99995
 20
10.0
 30
0.0
 40
1.399999999999999
  1
LAYER
 41
1.009912999999996
100
AcDbText
  0
TEXT
  5
C73D
330
C71A
100
AcDbEntity
  8
2
  6
Continuous
100
AcDbText
 10
19.97944999999998
 20
10.0487
 30
0.0
 40
1.399999999999999
  1
2
 41
1.069393
100
AcDbText
  0
TEXT
  5
C73E
330
C71A
100
AcDbEntity
  8
3
  6
DASHED
100
AcDbText
 10
21.97945
 20
10.0487
 30
0.0
 40
1.399999999999999
  1
3
 41
1.069393
100
AcDbText
  0
TEXT
  5
C73F
330
C71A
100
AcDbEntity
  8
4
  6
CENTER
100
AcDbText
 10
23.97944999999999
 20
10.0487
 30
0.0
 40
1.399999999999999
  1
4
 41
1.069393
100
AcDbText
  0
TEXT
  5
C740
330
C71A
100
AcDbEntity
  8
5
  6
PHANTOM
100
AcDbText
 10
25.97945
 20
10.0487
 30
0.0
 40
1.399999999999999
  1
5
 41
1.069393
100
AcDbText
  0
TEXT
  5
C741
330
C71A
100
AcDbEntity
  8
7
  6
Continuous
100
AcDbText
 10
10.00005
 20
26.0
 30
0.0
 40
3.0
  1
CODE No.19010
 41
1.003962999999999
100
AcDbText
  0
TEXT
  5
C742
330
C71A
100
AcDbEntity
  8
7
  6
Continuous
100
AcDbText
 10
10.00005
 20
18.0
 30
0.0
 40
3.0
  1
TYPE No.TCA-TE50N12S (TE50N12S)
 41
1.002350999999997
100
AcDbText
  0
TEXT
  5
C743
330
C71A
100
AcDbEntity
  8
7
  6
Continuous
100
AcDbText
 10
29.97944999999999
 20
10.0487
 30
0.0
 40
1.399999999999999
  1
7
 41
1.069393
100
AcDbText
  0
LINE
  5
C744
330
C71A
100
AcDbEntity
  8
1
  6
Continuous
100
AcDbLine
 10
139.9864279999998
 20
255.2080319999999
 30
0.0
 11
139.9864279999998
 21
249.8634809999999
 31
0.0
  0
LINE
  5
C745
330
C71A
100
AcDbEntity
  8
1
  6
Continuous
100
AcDbLine
 10
189.9864279999999
 20
255.2080319999999
 30
0.0
 11
189.9864279999999
 21
249.8634809999999
 31
0.0
  0
LINE
  5
C746
330
C71A
100
AcDbEntity
  8
4
  6
CENTER
100
AcDbLine
 10
164.9864279999999
 20
295.708032
 30
0.0
 11
164.9864279999999
 21
236.7080319999999
 31
0.0
  0
LINE
  5
C747
330
C71A
100
AcDbEntity
  8
1
  6
Continuous
100
AcDbLine
 10
184.7523149999999
 20
245.1261
 30
0.0
 11
145.220542
 21
245.1261
 31
0.0
  0
LINE
  5
C748
330
C71A
100
AcDbEntity
  8
1
  6
Continuous
100
AcDbLine
 10
148.3200889999999
 20
244.138054
 30
0.0
 11
181.6527679999999
 21
244.138054
 31
0.0
  0
LINE
  5
C749
330
C71A
100
AcDbEntity
  8
1
  6
Continuous
100
AcDbLine
 10
147.6322619999999
 20
244.863929
 30
0.0
 11
182.340595
 21
244.863929
 31
0.0
  0
LINE
  5
C74A
330
C71A
100
AcDbEntity
  8
1
  6
Continuous
100
AcDbLine
 10
180.086428
 20
243.7080319999998
 30
0.0
 11
149.886428
 21
243.7080319999998
 31
0.0
  0
LINE
  5
C74B
330
C71A
100
AcDbEntity
  8
4
  6
CENTER
100
AcDbLine
 10
194.9864279999999
 20
155.2080319999998
 30
0.0
 11
134.986428
 21
155.2080319999998
 31
0.0
  0
CIRCLE
  5
C74C
330
C71A
100
AcDbEntity
  8
1
  6
Continuous
100
AcDbCircle
 10
164.9864279999999
 20
155.2080319999998
 30
0.0
 40
21.0
  0
CIRCLE
  5
C74D
330
C71A
100
AcDbEntity
  8
1
  6
Continuous
100
AcDbCircle
 10
164.9864279999999
 20
155.2080319999998
 30
0.0
 40
19.5
  0
CIRCLE
  5
C74E
330
C71A
100
AcDbEntity
  8
1
  6
Continuous
100
AcDbCircle
 10
164.9864279999999
 20
155.2080319999998
 30
0.0
 40
25.0
  0
CIRCLE
  5
C74F
330
C71A
100
AcDbEntity
  8
1
  6
Continuous
100
AcDbCircle
 10
164.9864279999999
 20
155.2080319999998
 30
0.0
 40
15.09999999999999
  0
CIRCLE
  5
C750
330
C71A
100
AcDbEntity
  8
1
  6
Continuous
100
AcDbCircle
 10
164.9864279999999
 20
155.2080319999998
 30
0.0
 40
17.0
  0
LINE
  5
C751
330
C71A
100
AcDbEntity
  8
4
  6
CENTER
100
AcDbLine
 10
181.986428
 20
142.7284649999998
 30
0.0
 11
181.986428
 21
211.7080319999999
 31
0.0
  0
LINE
  5
C752
330
C71A
100
AcDbEntity
  8
4
  6
CENTER
100
AcDbLine
 10
164.9864279999999
 20
125.208032
 30
0.0
 11
164.9864279999999
 21
185.2080319999998
 31
0.0
  0
LINE
  5
C753
330
C71A
100
AcDbEntity
  8
4
  6
CENTER
100
AcDbLine
 10
181.986428
 20
54.50803199999999
 30
0.0
 11
181.986428
 21
76.90803199999997
 31
0.0
  0
LINE
  5
C754
330
C71A
100
AcDbEntity
  8
1
  6
Continuous
100
AcDbLine
 10
179.677027
 20
69.70803199999997
 30
0.0
 11
184.295829
 21
69.70803199999997
 31
0.0
  0
LINE
  5
C755
330
C71A
100
AcDbEntity
  8
1
  6
Continuous
100
AcDbLine
 10
184.295829
 20
61.70803199999999
 30
0.0
 11
179.677027
 21
61.70803199999999
 31
0.0
  0
LINE
  5
C756
330
C71A
100
AcDbEntity
  8
4
  6
CENTER
100
AcDbLine
 10
197.486428
 20
65.70803199999999
 30
0.0
 11
128.5673209999999
 21
65.70803199999999
 31
0.0
  0
LINE
  5
C757
330
C71A
100
AcDbEntity
  8
1
  6
Continuous
100
AcDbLine
 10
184.295829
 20
69.70803199999997
 30
0.0
 11
186.605231
 21
65.70803199999999
 31
0.0
  0
LINE
  5
C758
330
C71A
100
AcDbEntity
  8
1
  6
Continuous
100
AcDbLine
 10
186.605231
 20
65.70803199999999
 30
0.0
 11
184.295829
 21
61.70803199999999
 31
0.0
  0
LINE
  5
C759
330
C71A
100
AcDbEntity
  8
1
  6
Continuous
100
AcDbLine
 10
177.367626
 20
65.70803199999999
 30
0.0
 11
179.677027
 21
69.70803199999997
 31
0.0
  0
LINE
  5
C75A
330
C71A
100
AcDbEntity
  8
1
  6
Continuous
100
AcDbLine
 10
179.677027
 20
61.70803199999999
 30
0.0
 11
177.367626
 21
65.70803199999999
 31
0.0
  0
LINE
  5
C75B
330
C71A
100
AcDbEntity
  8
1
  6
Continuous
100
AcDbLine
 10
190.541798
 20
180.7667539999999
 30
0.0
 11
192.3930119999999
 21
149.296115
 31
0.0
  0
LINE
  5
C75C
330
C71A
100
AcDbEntity
  8
1
  6
Continuous
100
AcDbLine
 10
190.8956
 20
147.7080319999998
 30
0.0
 11
188.834908
 21
147.7080319999998
 31
0.0
  0
ARC
  5
C75D
330
C71A
100
AcDbEntity
  8
1
  6
Continuous
100
AcDbCircle
 10
190.8956
 20
149.208032
 30
0.0
 40
1.5
100
AcDbArc
 50
270.0
 51
3.366461
  0
LINE
  5
C75E
330
C71A
100
AcDbEntity
  8
1
  6
Continuous
100
AcDbLine
 10
172.9864289999999
 20
187.708032
 30
0.0
 11
190.9864279999999
 21
187.708032
 31
0.0
  0
LINE
  5
C75F
330
C71A
100
AcDbEntity
  8
1
  6
Continuous
100
AcDbLine
 10
172.9864279999999
 20
181.708032
 30
0.0
 11
190.9864279999999
 21
181.708032
 31
0.0
  0
ARC
  5
C760
330
C71A
100
AcDbEntity
  8
1
  6
Continuous
100
AcDbCircle
 10
188.340677
 20
184.708032
 30
0.0
 40
4.0
100
AcDbArc
 50
311.409622
 51
48.590378
  0
ARC
  5
C761
330
C71A
100
AcDbEntity
  8
1
  6
Continuous
100
AcDbCircle
 10
189.543523
 20
180.708032
 30
0.0
 40
1.0
100
AcDbArc
 50
3.366461
 51
90.0
  0
ARC
  5
C762
330
C71A
100
AcDbEntity
  8
1
  6
Continuous
100
AcDbCircle
 10
182.2987169999999
 20
184.708032
 30
0.0
 40
4.0
100
AcDbArc
 50
311.409622
 51
48.590378
  0
ARC
  5
C763
330
C71A
100
AcDbEntity
  8
1
  6
Continuous
100
AcDbCircle
 10
170.2235509999999
 20
181.3193929999999
 30
0.0
 40
3.319657999999998
100
AcDbArc
 50
316.0631799999998
 51
349.3876109999998
  0
ARC
  5
C764
330
C71A
100
AcDbEntity
  8
1
  6
Continuous
100
AcDbCircle
 10
181.6741399999999
 20
184.708032
 30
0.0
 40
4.0
100
AcDbArc
 50
131.4096219999999
 51
228.5903779999999
  0
ARC
  5
C765
330
C71A
100
AcDbEntity
  8
1
  6
Continuous
100
AcDbCircle
 10
175.63218
 20
184.708032
 30
0.0
 40
4.0
100
AcDbArc
 50
131.4096219999999
 51
228.5903779999999
  0
ARC
  5
C766
330
C71A
100
AcDbEntity
  8
1
  6
Continuous
100
AcDbCircle
 10
174.4864279999999
 20
180.708032
 30
0.0
 40
1.0
100
AcDbArc
 50
90.0
 51
180.0
  0
ARC
  5
C767
330
C71A
100
AcDbEntity
  8
1
  6
Continuous
100
AcDbCircle
 10
185.986428
 20
249.8634809999999
 30
0.0
 40
4.0
100
AcDbArc
 50
292.024313
 51
0.0
  0
ARC
  5
C768
330
C71A
100
AcDbEntity
  8
1
  6
Continuous
100
AcDbCircle
 10
164.9864279999999
 20
301.7768699999999
 30
0.0
 40
60.0
100
AcDbArc
 50
289.23427
 51
292.024313
  0
ARC
  5
C769
330
C71A
100
AcDbEntity
  8
1
  6
Continuous
100
AcDbCircle
 10
164.9864279999999
 20
301.7768699999999
 30
0.0
 40
59.5
100
AcDbArc
 50
286.957763
 51
287.8029259999999
  0
LINE
  5
C76A
330
C71A
100
AcDbEntity
  8
1
  6
Continuous
100
AcDbLine
 10
27.98538999999999
 20
174.9739179999999
 30
0.0
 11
27.98538999999999
 21
135.442146
 31
0.0
  0
LINE
  5
C76B
330
C71A
100
AcDbEntity
  8
1
  6
Continuous
100
AcDbLine
 10
70.149253
 20
174.9739179999999
 30
0.0
 11
70.149253
 21
135.442146
 31
0.0
  0
ARC
  5
C76C
330
C71A
100
AcDbEntity
  8
1
  6
Continuous
100
AcDbCircle
 10
13.49848299999999
 20
155.2080319999998
 30
0.0
 40
59.5
100
AcDbArc
 50
342.1970739999999
 51
343.042237
  0
ARC
  5
C76D
330
C71A
100
AcDbEntity
  8
1
  6
Continuous
100
AcDbCircle
 10
84.63616
 20
155.2080319999998
 30
0.0
 40
59.5
100
AcDbArc
 50
196.957763
 51
197.802926
  0
LINE
  5
C76E
330
C71A
100
AcDbEntity
  8
4
  6
CENTER
100
AcDbLine
 10
49.067321
 20
211.7080319999999
 30
0.0
 11
49.067321
 21
135.708032
 31
0.0
  0
LINE
  5
C76F
330
C71A
100
AcDbEntity
  8
1
  6
Continuous
100
AcDbLine
 10
60.067321
 20
130.2080319999998
 30
0.0
 11
65.411872
 21
130.2080319999998
 31
0.0
  0
ARC
  5
C770
330
C71A
100
AcDbEntity
  8
1
  6
Continuous
100
AcDbCircle
 10
13.49848299999999
 20
155.2080319999998
 30
0.0
 40
60.0
100
AcDbArc
 50
337.975687
 51
340.7657299999999
  0
ARC
  5
C771
330
C71A
100
AcDbEntity
  8
1
  6
Continuous
100
AcDbCircle
 10
65.411872
 20
134.2080319999998
 30
0.0
 40
4.0
100
AcDbArc
 50
270.0
 51
337.975687
  0
ARC
  5
C772
330
C71A
100
AcDbEntity
  8
1
  6
Continuous
100
AcDbCircle
 10
60.067321
 20
130.708032
 30
0.0
 40
0.5
100
AcDbArc
 50
180.0
 51
270.0
  0
LINE
  5
C773
330
C71A
100
AcDbEntity
  8
1
  6
Continuous
100
AcDbLine
 10
38.06732099999999
 20
130.2080319999998
 30
0.0
 11
32.722771
 21
130.2080319999998
 31
0.0
  0
ARC
  5
C774
330
C71A
100
AcDbEntity
  8
1
  6
Continuous
100
AcDbCircle
 10
38.06732099999999
 20
130.708032
 30
0.0
 40
0.5
100
AcDbArc
 50
270.0
 51
0.0
  0
ARC
  5
C775
330
C71A
100
AcDbEntity
  8
1
  6
Continuous
100
AcDbCircle
 10
32.722771
 20
134.2080319999998
 30
0.0
 40
4.0
100
AcDbArc
 50
202.0243129999999
 51
270.0
  0
ARC
  5
C776
330
C71A
100
AcDbEntity
  8
1
  6
Continuous
100
AcDbCircle
 10
84.63616
 20
155.2080319999998
 30
0.0
 40
60.0
100
AcDbArc
 50
199.23427
 51
202.0243129999999
  0
LINE
  5
C777
330
C71A
100
AcDbEntity
  8
4
  6
CENTER
100
AcDbLine
 10
19.56732099999999
 20
155.2080319999998
 30
0.0
 11
78.56732099999998
 21
155.2080319999998
 31
0.0
  0
ARC
  5
C778
330
C71A
100
AcDbEntity
  8
1
  6
Continuous
100
AcDbCircle
 10
164.9864279999999
 20
301.7768699999999
 30
0.0
 40
59.5
100
AcDbArc
 50
252.1970739999999
 51
253.042237
  0
ARC
  5
C779
330
C71A
100
AcDbEntity
  8
1
  6
Continuous
100
AcDbCircle
 10
143.9864279999999
 20
249.8634809999999
 30
0.0
 40
4.0
100
AcDbArc
 50
180.0
 51
247.975687
  0
ARC
  5
C77A
330
C71A
100
AcDbEntity
  8
1
  6
Continuous
100
AcDbCircle
 10
164.9864279999999
 20
301.7768699999999
 30
0.0
 40
60.0
100
AcDbArc
 50
247.975687
 51
250.7657299999999
  0
ARC
  5
C77B
330
C71A
100
AcDbEntity
  8
1
  6
Continuous
100
AcDbCircle
 10
27.244959
 20
137.708032
 30
0.0
 40
0.5
100
AcDbArc
 50
16.957763
 51
76.54339799999998
  0
ARC
  5
C77C
330
C71A
100
AcDbEntity
  8
1
  6
Continuous
100
AcDbCircle
 10
27.244959
 20
172.7080319999998
 30
0.0
 40
0.5
100
AcDbArc
 50
283.456602
 51
343.042237
  0
LINE
  5
C77D
330
C71A
100
AcDbEntity
  8
1
  6
Continuous
100
AcDbLine
 10
71.137299
 20
171.8743719999999
 30
0.0
 11
71.137299
 21
138.5416919999999
 31
0.0
  0
LINE
  5
C77E
330
C71A
100
AcDbEntity
  8
1
  6
Continuous
100
AcDbLine
 10
70.411424
 20
172.562199
 30
0.0
 11
70.411424
 21
137.8538649999998
 31
0.0
  0
LINE
  5
C77F
330
C71A
100
AcDbEntity
  8
1
  6
Continuous
100
AcDbLine
 10
59.56732099999999
 20
130.708032
 30
0.0
 11
59.56732099999999
 21
179.708032
 31
0.0
  0
LINE
  5
C780
330
C71A
100
AcDbEntity
  8
1
  6
Continuous
100
AcDbLine
 10
27.723219
 20
137.8538649999998
 30
0.0
 11
27.723219
 21
172.562199
 31
0.0
  0
LINE
  5
C781
330
C71A
100
AcDbEntity
  8
1
  6
Continuous
100
AcDbLine
 10
38.567321
 20
130.708032
 30
0.0
 11
38.567321
 21
179.708032
 31
0.0
  0
LINE
  5
C782
330
C71A
100
AcDbEntity
  8
1
  6
Continuous
100
AcDbLine
 10
40.06732099999999
 20
147.7080319999998
 30
0.0
 11
40.06732099999999
 21
162.5285829999999
 31
0.0
  0
LINE
  5
C783
330
C71A
100
AcDbEntity
  8
1
  6
Continuous
100
AcDbLine
 10
58.067321
 20
147.7080319999998
 30
0.0
 11
58.067321
 21
162.5466999999999
 31
0.0
  0
LINE
  5
C784
330
C71A
100
AcDbEntity
  8
1
  6
Continuous
100
AcDbLine
 10
40.06732099999999
 20
147.7080319999998
 30
0.0
 11
58.067321
 21
147.7080319999998
 31
0.0
  0
LINE
  5
C785
330
C71A
100
AcDbEntity
  8
1
  6
Continuous
100
AcDbLine
 10
71.56732099999998
 20
170.3080319999999
 30
0.0
 11
71.56732099999998
 21
140.108032
 31
0.0
  0
LINE
  5
C786
330
C71A
100
AcDbEntity
  8
1
  6
Continuous
100
AcDbLine
 10
58.567321
 20
148.208032
 30
0.0
 11
58.567321
 21
161.4511349999999
 31
0.0
  0
ARC
  5
C787
330
C71A
100
AcDbEntity
  8
1
  6
Continuous
100
AcDbCircle
 10
70.656976
 20
138.6805779999999
 30
0.0
 40
0.5
100
AcDbArc
 50
283.456602
 51
343.872705
  0
ARC
  5
C788
330
C71A
100
AcDbEntity
  8
1
  6
Continuous
100
AcDbCircle
 10
70.889684
 20
137.708032
 30
0.0
 40
0.5
100
AcDbArc
 50
103.4566019999999
 51
163.0422369999998
  0
ARC
  5
C789
330
C71A
100
AcDbEntity
  8
1
  6
Continuous
100
AcDbCircle
 10
59.56732099999999
 20
148.208032
 30
0.0
 40
1.0
100
AcDbArc
 50
180.0
 51
270.0
  0
ARC
  5
C78A
330
C71A
100
AcDbEntity
  8
1
  6
Continuous
100
AcDbCircle
 10
59.56732099999999
 20
162.208032
 30
0.0
 40
1.0
100
AcDbArc
 50
90.0
 51
119.9999999999999
  0
LINE
  5
C78B
330
C71A
100
AcDbEntity
  8
1
  6
Continuous
100
AcDbLine
 10
39.56732099999999
 20
161.4511349999999
 30
0.0
 11
39.56732099999999
 21
148.208032
 31
0.0
  0
ARC
  5
C78C
330
C71A
100
AcDbEntity
  8
1
  6
Continuous
100
AcDbCircle
 10
38.567321
 20
148.208032
 30
0.0
 40
1.0
100
AcDbArc
 50
270.0
 51
0.0
  0
ARC
  5
C78D
330
C71A
100
AcDbEntity
  8
1
  6
Continuous
100
AcDbCircle
 10
38.567321
 20
162.208032
 30
0.0
 40
1.0
100
AcDbArc
 50
60.0
 51
90.0
  0
LINE
  5
C78E
330
C71A
100
AcDbEntity
  8
1
  6
Continuous
100
AcDbLine
 10
41.067321
 20
187.708032
 30
0.0
 11
57.06732099999999
 21
187.708032
 31
0.0
  0
LINE
  5
C78F
330
C71A
100
AcDbEntity
  8
1
  6
Continuous
100
AcDbLine
 10
57.06732099999999
 20
181.708032
 30
0.0
 11
41.067321
 21
181.708032
 31
0.0
  0
ARC
  5
C790
330
C71A
100
AcDbEntity
  8
1
  6
Continuous
100
AcDbCircle
 10
49.067321
 20
79.113855
 30
0.0
 40
100.0
100
AcDbArc
 50
84.836393
 51
95.16360699999999
  0
LINE
  5
C791
330
C71A
100
AcDbEntity
  8
1
  6
Continuous
100
AcDbLine
 10
60.067321
 20
180.2080319999998
 30
0.0
 11
65.411872
 21
180.2080319999998
 31
0.0
  0
ARC
  5
C792
330
C71A
100
AcDbEntity
  8
1
  6
Continuous
100
AcDbCircle
 10
65.411872
 20
176.208032
 30
0.0
 40
4.0
100
AcDbArc
 50
22.024313
 51
90.0
  0
ARC
  5
C793
330
C71A
100
AcDbEntity
  8
1
  6
Continuous
100
AcDbCircle
 10
13.49848299999999
 20
155.2080319999998
 30
0.0
 40
60.0
100
AcDbArc
 50
19.23427
 51
22.024313
  0
ARC
  5
C794
330
C71A
100
AcDbEntity
  8
1
  6
Continuous
100
AcDbCircle
 10
70.656976
 20
171.735485
 30
0.0
 40
0.5
100
AcDbArc
 50
16.127295
 51
76.54339799999998
  0
ARC
  5
C795
330
C71A
100
AcDbEntity
  8
1
  6
Continuous
100
AcDbCircle
 10
70.889684
 20
172.7080319999998
 30
0.0
 40
0.5
100
AcDbArc
 50
196.957763
 51
256.543398
  0
ARC
  5
C796
330
C71A
100
AcDbEntity
  8
1
  6
Continuous
100
AcDbCircle
 10
13.49848299999999
 20
155.2080319999998
 30
0.0
 40
59.5
100
AcDbArc
 50
16.957763
 51
17.802926
  0
ARC
  5
C797
330
C71A
100
AcDbEntity
  8
1
  6
Continuous
100
AcDbCircle
 10
60.067321
 20
179.708032
 30
0.0
 40
0.5
100
AcDbArc
 50
90.0
 51
180.0
  0
ARC
  5
C798
330
C71A
100
AcDbEntity
  8
1
  6
Continuous
100
AcDbCircle
 10
57.06732099999999
 20
180.708032
 30
0.0
 40
1.0
100
AcDbArc
 50
0.0
 51
90.0
  0
LINE
  5
C799
330
C71A
100
AcDbEntity
  8
1
  6
Continuous
100
AcDbLine
 10
57.567321
 20
182.2080319999998
 30
0.0
 11
57.567321
 21
187.208032
 31
0.0
  0
ARC
  5
C79A
330
C71A
100
AcDbEntity
  8
1
  6
Continuous
100
AcDbCircle
 10
57.06732099999999
 20
187.208032
 30
0.0
 40
0.5
100
AcDbArc
 50
0.0
 51
90.0
  0
ARC
  5
C79B
330
C71A
100
AcDbEntity
  8
1
  6
Continuous
100
AcDbCircle
 10
57.06732099999999
 20
182.2080319999998
 30
0.0
 40
0.5
100
AcDbArc
 50
270.0
 51
0.0
  0
LINE
  5
C79C
330
C71A
100
AcDbEntity
  8
1
  6
Continuous
100
AcDbLine
 10
40.567321
 20
182.2080319999998
 30
0.0
 11
40.567321
 21
187.208032
 31
0.0
  0
ARC
  5
C79D
330
C71A
100
AcDbEntity
  8
1
  6
Continuous
100
AcDbCircle
 10
41.067321
 20
187.208032
 30
0.0
 40
0.5
100
AcDbArc
 50
90.0
 51
180.0
  0
ARC
  5
C79E
330
C71A
100
AcDbEntity
  8
1
  6
Continuous
100
AcDbCircle
 10
41.067321
 20
182.2080319999998
 30
0.0
 40
0.5
100
AcDbArc
 50
180.0
 51
270.0
  0
ARC
  5
C79F
330
C71A
100
AcDbEntity
  8
1
  6
Continuous
100
AcDbCircle
 10
41.067321
 20
180.708032
 30
0.0
 40
1.0
100
AcDbArc
 50
90.0
 51
180.0
  0
ARC
  5
C7A0
330
C71A
100
AcDbEntity
  8
1
  6
Continuous
100
AcDbCircle
 10
32.722771
 20
176.208032
 30
0.0
 40
4.0
100
AcDbArc
 50
90.0
 51
157.9756869999999
  0
ARC
  5
C7A1
330
C71A
100
AcDbEntity
  8
1
  6
Continuous
100
AcDbCircle
 10
38.06732099999999
 20
179.708032
 30
0.0
 40
0.5
100
AcDbArc
 50
0.0
 51
90.0
  0
ARC
  5
C7A2
330
C71A
100
AcDbEntity
  8
1
  6
Continuous
100
AcDbCircle
 10
84.63616
 20
155.2080319999998
 30
0.0
 40
60.0
100
AcDbArc
 50
157.9756869999999
 51
160.7657299999999
  0
ARC
  5
C7A3
330
C71A
100
AcDbEntity
  8
1
  6
Continuous
100
AcDbCircle
 10
28.174226
 20
174.908032
 30
0.0
 40
0.2
100
AcDbArc
 50
160.7657299999999
 51
199.23427
  0
ARC
  5
C7A4
330
C71A
100
AcDbEntity
  8
1
  6
Continuous
100
AcDbCircle
 10
84.63616
 20
155.2080319999998
 30
0.0
 40
59.5
100
AcDbArc
 50
162.1970739999999
 51
163.0422369999998
  0
LINE
  5
C7A5
330
C71A
100
AcDbEntity
  8
1
  6
Continuous
100
AcDbLine
 10
38.06732099999999
 20
180.2080319999998
 30
0.0
 11
32.722771
 21
180.2080319999998
 31
0.0
  0
LINE
  5
C7A6
330
C71A
100
AcDbEntity
  8
1
  6
Continuous
100
AcDbLine
 10
26.997344
 20
171.8743719999999
 30
0.0
 11
26.997344
 21
138.5416919999999
 31
0.0
  0
LINE
  5
C7A7
330
C71A
100
AcDbEntity
  8
1
  6
Continuous
100
AcDbLine
 10
26.56732100000001
 20
140.0596789999999
 30
0.0
 11
26.56732100000001
 21
170.3563849999999
 31
0.0
  0
ARC
  5
C7A8
330
C71A
100
AcDbEntity
  8
1
  6
Continuous
100
AcDbCircle
 10
27.47766699999999
 20
138.6805779999999
 30
0.0
 40
0.5
100
AcDbArc
 50
196.127295
 51
256.543398
  0
ARC
  5
C7A9
330
C71A
100
AcDbEntity
  8
1
  6
Continuous
100
AcDbCircle
 10
27.47766699999999
 20
171.735485
 30
0.0
 40
0.5
100
AcDbArc
 50
103.4566019999999
 51
163.8727049999999
  0
LINE
  5
C7AA
330
C71A
100
AcDbEntity
  8
1
  6
Continuous
100
AcDbLine
 10
145.220542
 20
287.289963
 30
0.0
 11
184.7523149999999
 21
287.289963
 31
0.0
  0
LINE
  5
C7AB
330
C71A
100
AcDbEntity
  8
1
  6
Continuous
100
AcDbLine
 10
148.3200889999999
 20
288.27801
 30
0.0
 11
181.6527679999999
 21
288.27801
 31
0.0
  0
LINE
  5
C7AC
330
C71A
100
AcDbEntity
  8
1
  6
Continuous
100
AcDbLine
 10
147.6322619999999
 20
287.5521349999999
 30
0.0
 11
182.340595
 21
287.5521349999999
 31
0.0
  0
LINE
  5
C7AD
330
C71A
100
AcDbEntity
  8
1
  6
Continuous
100
AcDbLine
 10
149.838073
 20
288.7080319999999
 30
0.0
 11
180.134783
 21
288.7080319999999
 31
0.0
  0
LINE
  5
C7AE
330
C71A
100
AcDbEntity
  8
4
  6
CENTER
100
AcDbLine
 10
130.066101
 20
266.208032
 30
0.0
 11
197.486428
 21
266.208032
 31
0.0
  0
LINE
  5
C7AF
330
C71A
100
AcDbEntity
  8
1
  6
Continuous
100
AcDbLine
 10
188.486428
 20
275.208032
 30
0.0
 11
141.730526
 21
275.208032
 31
0.0
  0
LINE
  5
C7B0
330
C71A
100
AcDbEntity
  8
1
  6
Continuous
100
AcDbLine
 10
188.486428
 20
257.2080319999999
 30
0.0
 11
141.730526
 21
257.2080319999999
 31
0.0
  0
LINE
  5
C7B1
330
C71A
100
AcDbEntity
  8
1
  6
Continuous
100
AcDbLine
 10
172.9864279999999
 20
275.708032
 30
0.0
 11
156.986428
 21
275.708032
 31
0.0
  0
LINE
  5
C7B2
330
C71A
100
AcDbEntity
  8
1
  6
Continuous
100
AcDbLine
 10
172.9864279999999
 20
256.708032
 30
0.0
 11
156.986428
 21
256.708032
 31
0.0
  0
ARC
  5
C7B3
330
C71A
100
AcDbEntity
  8
1
  6
Continuous
100
AcDbCircle
 10
185.986428
 20
282.5525830000001
 30
0.0
 40
4.0
100
AcDbArc
 50
0.0
 51
67.97568699999999
  0
LINE
  5
C7B4
330
C71A
100
AcDbEntity
  8
1
  6
Continuous
100
AcDbLine
 10
177.7437879999999
 20
274.708032
 30
0.0
 11
186.2290689999999
 21
274.708032
 31
0.0
  0
LINE
  5
C7B5
330
C71A
100
AcDbEntity
  8
1
  6
Continuous
100
AcDbLine
 10
186.2290689999999
 20
257.7080319999998
 30
0.0
 11
177.7437879999999
 21
257.7080319999998
 31
0.0
  0
ARC
  5
C7B6
330
C71A
100
AcDbEntity
  8
1
  6
Continuous
100
AcDbCircle
 10
183.986428
 20
266.208032
 30
0.0
 40
8.5
100
AcDbArc
 50
301.9657189999999
 51
58.03428100000001
  0
ARC
  5
C7B7
330
C71A
100
AcDbEntity
  8
1
  6
Continuous
100
AcDbCircle
 10
181.986428
 20
266.208032
 30
0.0
 40
9.5
100
AcDbArc
 50
296.525352
 51
63.47464799999999
  0
ARC
  5
C7B8
330
C71A
100
AcDbEntity
  8
1
  6
Continuous
100
AcDbCircle
 10
189.486428
 20
255.2080319999999
 30
0.0
 40
0.5
100
AcDbArc
 50
0.0
 51
90.0
  0
LINE
  5
C7B9
330
C71A
100
AcDbEntity
  8
1
  6
Continuous
100
AcDbLine
 10
188.486428
 20
257.2080319999999
 30
0.0
 11
188.486428
 21
258.996929
 31
0.0
  0
LINE
  5
C7BA
330
C71A
100
AcDbEntity
  8
1
  6
Continuous
100
AcDbLine
 10
188.486428
 20
273.4191339999998
 30
0.0
 11
188.486428
 21
275.208032
 31
0.0
  0
ARC
  5
C7BB
330
C71A
100
AcDbEntity
  8
1
  6
Continuous
100
AcDbCircle
 10
189.486428
 20
277.208032
 30
0.0
 40
0.5
100
AcDbArc
 50
270.0
 51
0.0
  0
LINE
  5
C7BC
330
C71A
100
AcDbEntity
  8
1
  6
Continuous
100
AcDbLine
 10
189.9864279999999
 20
277.208032
 30
0.0
 11
189.9864279999999
 21
282.5525830000001
 31
0.0
  0
ARC
  5
C7BD
330
C71A
100
AcDbEntity
  8
1
  6
Continuous
100
AcDbCircle
 10
181.986428
 20
266.208032
 30
0.0
 40
9.5
100
AcDbArc
 50
116.525352
 51
243.474648
  0
ARC
  5
C7BE
330
C71A
100
AcDbEntity
  8
1
  6
Continuous
100
AcDbCircle
 10
171.9864279999999
 20
255.7080319999998
 30
0.0
 40
1.0
100
AcDbArc
 50
0.0
 51
90.0
  0
LINE
  5
C7BF
330
C71A
100
AcDbEntity
  8
1
  6
Continuous
100
AcDbLine
 10
172.9864279999999
 20
257.2080319999999
 30
0.0
 11
172.9864279999999
 21
256.708032
 31
0.0
  0
ARC
  5
C7C0
330
C71A
100
AcDbEntity
  8
1
  6
Continuous
100
AcDbCircle
 10
171.9864279999999
 20
276.708032
 30
0.0
 40
1.0
100
AcDbArc
 50
270.0
 51
0.0
  0
LINE
  5
C7C1
330
C71A
100
AcDbEntity
  8
1
  6
Continuous
100
AcDbLine
 10
172.9864279999999
 20
275.708032
 30
0.0
 11
172.9864279999999
 21
275.208032
 31
0.0
  0
ARC
  5
C7C2
330
C71A
100
AcDbEntity
  8
1
  6
Continuous
100
AcDbCircle
 10
164.9864279999999
 20
230.639193
 30
0.0
 40
60.0
100
AcDbArc
 50
67.97568699999999
 51
70.76573000000002
  0
ARC
  5
C7C3
330
C71A
100
AcDbEntity
  8
1
  6
Continuous
100
AcDbCircle
 10
164.9864279999999
 20
230.639193
 30
0.0
 40
59.5
100
AcDbArc
 50
72.19707400000001
 51
73.042237
  0
ARC
  5
C7C4
330
C71A
100
AcDbEntity
  8
1
  6
Continuous
100
AcDbCircle
 10
143.9864279999999
 20
282.5525830000001
 30
0.0
 40
4.0
100
AcDbArc
 50
112.0243129999999
 51
180.0
  0
ARC
  5
C7C5
330
C71A
100
AcDbEntity
  8
1
  6
Continuous
100
AcDbCircle
 10
241.326688
 20
266.208032
 30
0.0
 40
100.0
100
AcDbArc
 50
174.849051
 51
175.123975
  0
LINE
  5
C7C6
330
C71A
100
AcDbEntity
  8
1
  6
Continuous
100
AcDbLine
 10
189.486428
 20
255.7080319999998
 30
0.0
 11
140.4864279999999
 21
255.7080319999998
 31
0.0
  0
ARC
  5
C7C7
330
C71A
100
AcDbEntity
  8
1
  6
Continuous
100
AcDbCircle
 10
157.9864279999999
 20
255.7080319999998
 30
0.0
 40
1.0
100
AcDbArc
 50
90.0
 51
180.0
  0
LINE
  5
C7C8
330
C71A
100
AcDbEntity
  8
1
  6
Continuous
100
AcDbLine
 10
156.986428
 20
257.2080319999999
 30
0.0
 11
156.986428
 21
256.708032
 31
0.0
  0
ARC
  5
C7C9
330
C71A
100
AcDbEntity
  8
1
  6
Continuous
100
AcDbCircle
 10
140.4864279999999
 20
255.2080319999999
 30
0.0
 40
0.5
100
AcDbArc
 50
90.0
 51
180.0
  0
LINE
  5
C7CA
330
C71A
100
AcDbEntity
  8
1
  6
Continuous
100
AcDbLine
 10
189.486428
 20
276.708032
 30
0.0
 11
140.4864279999999
 21
276.708032
 31
0.0
  0
ARC
  5
C7CB
330
C71A
100
AcDbEntity
  8
1
  6
Continuous
100
AcDbCircle
 10
157.9864279999999
 20
276.708032
 30
0.0
 40
1.0
100
AcDbArc
 50
180.0
 51
270.0
  0
LINE
  5
C7CC
330
C71A
100
AcDbEntity
  8
1
  6
Continuous
100
AcDbLine
 10
156.986428
 20
275.708032
 30
0.0
 11
156.986428
 21
275.208032
 31
0.0
  0
ARC
  5
C7CD
330
C71A
100
AcDbEntity
  8
1
  6
Continuous
100
AcDbCircle
 10
140.4864279999999
 20
277.208032
 30
0.0
 40
0.5
100
AcDbArc
 50
180.0
 51
270.0
  0
LINE
  5
C7CE
330
C71A
100
AcDbEntity
  8
1
  6
Continuous
100
AcDbLine
 10
139.9864279999998
 20
277.208032
 30
0.0
 11
139.9864279999998
 21
282.5525830000001
 31
0.0
  0
ARC
  5
C7CF
330
C71A
100
AcDbEntity
  8
1
  6
Continuous
100
AcDbCircle
 10
164.9864279999999
 20
230.639193
 30
0.0
 40
59.5
100
AcDbArc
 50
106.9577629999999
 51
107.8029259999998
  0
ARC
  5
C7D0
330
C71A
100
AcDbEntity
  8
1
  6
Continuous
100
AcDbCircle
 10
148.458975
 20
287.797686
 30
0.0
 40
0.5
100
AcDbArc
 50
106.1272949999999
 51
141.976966
  0
ARC
  5
C7D1
330
C71A
100
AcDbEntity
  8
1
  6
Continuous
100
AcDbCircle
 10
164.9864279999999
 20
230.639193
 30
0.0
 40
60.0
100
AcDbArc
 50
109.2342699999998
 51
112.0243129999999
  0
ARC
  5
C7D2
330
C71A
100
AcDbEntity
  8
1
  6
Continuous
100
AcDbCircle
 10
164.9864279999999
 20
232.3398669999999
 30
0.0
 40
58.36816500000001
100
AcDbArc
 50
73.40898
 51
106.59102
  0
LINE
  5
C7D3
330
C71A
100
AcDbEntity
  8
1
  6
Continuous
100
AcDbLine
 10
148.0650939999998
 20
288.105675
 30
0.0
 11
147.6322619999999
 21
287.5521349999999
 31
0.0
  0
ARC
  5
C7D4
330
C71A
100
AcDbEntity
  8
1
  6
Continuous
100
AcDbCircle
 10
181.5138819999999
 20
287.7977089999999
 30
0.0
 40
0.5
100
AcDbArc
 50
38.023113
 51
73.87278399999998
  0
LINE
  5
C7D5
330
C71A
100
AcDbEntity
  8
1
  6
Continuous
100
AcDbLine
 10
181.9077629999999
 20
288.105699
 30
0.0
 11
182.340595
 21
287.5521589999999
 31
0.0
  0
ARC
  5
C7D6
330
C71A
100
AcDbEntity
  8
1
  6
Continuous
100
AcDbCircle
 10
164.9864279999999
 20
300.076198
 30
0.0
 40
58.36816500000001
100
AcDbArc
 50
253.40898
 51
286.59102
  0
ARC
  5
C7D7
330
C71A
100
AcDbEntity
  8
1
  6
Continuous
100
AcDbCircle
 10
181.5138819999999
 20
244.6183549999998
 30
0.0
 40
0.5
100
AcDbArc
 50
286.127216
 51
321.9768869999999
  0
ARC
  5
C7D8
330
C71A
100
AcDbEntity
  8
1
  6
Continuous
100
AcDbCircle
 10
148.458975
 20
244.6183779999998
 30
0.0
 40
0.5
100
AcDbArc
 50
218.023034
 51
253.8727049999998
  0
LINE
  5
C7D9
330
C71A
100
AcDbEntity
  8
4
  6
CENTER
100
AcDbLine
 10
181.986428
 20
279.708032
 30
0.0
 11
181.986428
 21
252.7080319999999
 31
0.0
  0
LINE
  5
C7DA
330
C71A
100
AcDbEntity
  8
1
  6
Continuous
100
AcDbLine
 10
181.9077629999999
 20
244.3103659999999
 30
0.0
 11
182.340595
 21
244.863905
 31
0.0
  0
LINE
  5
C7DB
330
C71A
100
AcDbEntity
  8
1
  6
Continuous
100
AcDbLine
 10
148.0650939999998
 20
244.3103889999999
 30
0.0
 11
147.6322619999999
 21
244.863929
 31
0.0
  0
LINE
  5
C7DC
330
C71A
100
AcDbEntity
  8
4
  6
CENTER
100
AcDbLine
 10
306.393012
 20
155.2080319999998
 30
0.0
 11
247.3930119999999
 21
155.2080319999998
 31
0.0
  0
ARC
  5
C7DD
330
C71A
100
AcDbEntity
  8
1
  6
Continuous
100
AcDbCircle
 10
260.5484609999999
 20
134.2080319999998
 30
0.0
 40
4.0
100
AcDbArc
 50
202.0243129999999
 51
270.0
  0
ARC
  5
C7DE
330
C71A
100
AcDbEntity
  8
1
  6
Continuous
100
AcDbCircle
 10
260.5484609999999
 20
176.208032
 30
0.0
 40
4.0
100
AcDbArc
 50
90.0
 51
157.9756869999999
  0
LINE
  5
C7DF
330
C71A
100
AcDbEntity
  8
4
  6
CENTER
100
AcDbLine
 10
276.8930119999998
 20
211.7080319999999
 30
0.0
 11
276.8930119999998
 21
135.708032
 31
0.0
  0
LINE
  5
C7E0
330
C71A
100
AcDbEntity
  8
1
  6
Continuous
100
AcDbLine
 10
297.974943
 20
174.9739179999999
 30
0.0
 11
297.974943
 21
135.442146
 31
0.0
  0
LINE
  5
C7E1
330
C71A
100
AcDbEntity
  8
1
  6
Continuous
100
AcDbLine
 10
298.237114
 20
137.8538649999998
 30
0.0
 11
298.237114
 21
172.562199
 31
0.0
  0
LINE
  5
C7E2
330
C71A
100
AcDbEntity
  8
1
  6
Continuous
100
AcDbLine
 10
285.893012
 20
147.7080319999998
 30
0.0
 11
285.893012
 21
180.708032
 31
0.0
  0
LINE
  5
C7E3
330
C71A
100
AcDbEntity
  8
1
  6
Continuous
100
AcDbLine
 10
267.8930119999999
 20
147.7080319999998
 30
0.0
 11
267.8930119999999
 21
180.708032
 31
0.0
  0
LINE
  5
C7E4
330
C71A
100
AcDbEntity
  8
1
  6
Continuous
100
AcDbLine
 10
267.393012
 20
147.7080319999998
 30
0.0
 11
267.393012
 21
163.208032
 31
0.0
  0
LINE
  5
C7E5
330
C71A
100
AcDbEntity
  8
1
  6
Continuous
100
AcDbLine
 10
286.393012
 20
163.208032
 30
0.0
 11
286.393012
 21
147.7080319999998
 31
0.0
  0
LINE
  5
C7E6
330
C71A
100
AcDbEntity
  8
1
  6
Continuous
100
AcDbLine
 10
298.9629889999998
 20
171.8743719999999
 30
0.0
 11
298.9629889999998
 21
138.5416919999999
 31
0.0
  0
LINE
  5
C7E7
330
C71A
100
AcDbEntity
  8
1
  6
Continuous
100
AcDbLine
 10
299.3930119999999
 20
140.0596789999999
 30
0.0
 11
299.3930119999999
 21
170.3563849999999
 31
0.0
  0
LINE
  5
C7E8
330
C71A
100
AcDbEntity
  8
1
  6
Continuous
100
AcDbLine
 10
287.893012
 20
130.2080319999998
 30
0.0
 11
293.2375620000001
 21
130.2080319999998
 31
0.0
  0
ARC
  5
C7E9
330
C71A
100
AcDbEntity
  8
1
  6
Continuous
100
AcDbCircle
 10
293.2375620000001
 20
134.2080319999998
 30
0.0
 40
4.0
100
AcDbArc
 50
270.0
 51
337.975687
  0
ARC
  5
C7EA
330
C71A
100
AcDbEntity
  8
1
  6
Continuous
100
AcDbCircle
 10
241.324173
 20
155.2080319999998
 30
0.0
 40
59.5
100
AcDbArc
 50
342.1970739999999
 51
343.042237
  0
ARC
  5
C7EB
330
C71A
100
AcDbEntity
  8
1
  6
Continuous
100
AcDbCircle
 10
241.324173
 20
155.2080319999998
 30
0.0
 40
60.0
100
AcDbArc
 50
337.975687
 51
340.7657299999999
  0
ARC
  5
C7EC
330
C71A
100
AcDbEntity
  8
1
  6
Continuous
100
AcDbCircle
 10
298.715374
 20
137.708032
 30
0.0
 40
0.5
100
AcDbArc
 50
103.4566019999999
 51
163.0422369999998
  0
ARC
  5
C7ED
330
C71A
100
AcDbEntity
  8
1
  6
Continuous
100
AcDbCircle
 10
298.4826659999999
 20
138.6805779999999
 30
0.0
 40
0.5
100
AcDbArc
 50
283.456602
 51
343.872705
  0
LINE
  5
C7EE
330
C71A
100
AcDbEntity
  8
1
  6
Continuous
100
AcDbLine
 10
286.393012
 20
147.7080319999998
 30
0.0
 11
267.393012
 21
147.7080319999998
 31
0.0
  0
ARC
  5
C7EF
330
C71A
100
AcDbEntity
  8
1
  6
Continuous
100
AcDbCircle
 10
287.893012
 20
130.708032
 30
0.0
 40
0.5
100
AcDbArc
 50
180.0
 51
270.0
  0
ARC
  5
C7F0
330
C71A
100
AcDbEntity
  8
1
  6
Continuous
100
AcDbCircle
 10
287.393012
 20
148.208032
 30
0.0
 40
1.0
100
AcDbArc
 50
180.0
 51
270.0
  0
LINE
  5
C7F1
330
C71A
100
AcDbEntity
  8
1
  6
Continuous
100
AcDbLine
 10
265.8930119999999
 20
130.2080319999998
 30
0.0
 11
260.5484609999999
 21
130.2080319999998
 31
0.0
  0
ARC
  5
C7F2
330
C71A
100
AcDbEntity
  8
1
  6
Continuous
100
AcDbCircle
 10
265.8930119999999
 20
130.708032
 30
0.0
 40
0.5
100
AcDbArc
 50
270.0
 51
0.0
  0
ARC
  5
C7F3
330
C71A
100
AcDbEntity
  8
1
  6
Continuous
100
AcDbCircle
 10
266.3930119999998
 20
148.208032
 30
0.0
 40
1.0
100
AcDbArc
 50
270.0
 51
0.0
  0
LINE
  5
C7F4
330
C71A
100
AcDbEntity
  8
1
  6
Continuous
100
AcDbLine
 10
287.893012
 20
180.2080319999998
 30
0.0
 11
293.2375620000001
 21
180.2080319999998
 31
0.0
  0
ARC
  5
C7F5
330
C71A
100
AcDbEntity
  8
1
  6
Continuous
100
AcDbCircle
 10
298.715374
 20
172.7080319999998
 30
0.0
 40
0.5
100
AcDbArc
 50
196.957763
 51
256.543398
  0
ARC
  5
C7F6
330
C71A
100
AcDbEntity
  8
1
  6
Continuous
100
AcDbCircle
 10
241.324173
 20
155.2080319999998
 30
0.0
 40
59.5
100
AcDbArc
 50
16.957763
 51
17.802926
  0
ARC
  5
C7F7
330
C71A
100
AcDbEntity
  8
1
  6
Continuous
100
AcDbCircle
 10
298.4826659999999
 20
171.735485
 30
0.0
 40
0.5
100
AcDbArc
 50
16.127295
 51
76.54339799999998
  0
ARC
  5
C7F8
330
C71A
100
AcDbEntity
  8
1
  6
Continuous
100
AcDbCircle
 10
293.2375620000001
 20
176.208032
 30
0.0
 40
4.0
100
AcDbArc
 50
22.024313
 51
90.0
  0
ARC
  5
C7F9
330
C71A
100
AcDbEntity
  8
1
  6
Continuous
100
AcDbCircle
 10
241.324173
 20
155.2080319999998
 30
0.0
 40
60.0
100
AcDbArc
 50
19.23427
 51
22.024313
  0
ARC
  5
C7FA
330
C71A
100
AcDbEntity
  8
1
  6
Continuous
100
AcDbCircle
 10
297.7861069999999
 20
174.908032
 30
0.0
 40
0.2
100
AcDbArc
 50
340.7657299999999
 51
19.23427
  0
LINE
  5
C7FB
330
C71A
100
AcDbEntity
  8
1
  6
Continuous
100
AcDbLine
 10
266.3930119999998
 20
130.708032
 30
0.0
 11
266.3930119999998
 21
179.708032
 31
0.0
  0
LINE
  5
C7FC
330
C71A
100
AcDbEntity
  8
1
  6
Continuous
100
AcDbLine
 10
287.393012
 20
130.708032
 30
0.0
 11
287.393012
 21
179.708032
 31
0.0
  0
ARC
  5
C7FD
330
C71A
100
AcDbEntity
  8
1
  6
Continuous
100
AcDbCircle
 10
287.393012
 20
162.208032
 30
0.0
 40
1.0
100
AcDbArc
 50
90.0
 51
180.0
  0
LINE
  5
C7FE
330
C71A
100
AcDbEntity
  8
1
  6
Continuous
100
AcDbLine
 10
285.893012
 20
163.208032
 30
0.0
 11
286.393012
 21
163.208032
 31
0.0
  0
ARC
  5
C7FF
330
C71A
100
AcDbEntity
  8
1
  6
Continuous
100
AcDbCircle
 10
266.3930119999998
 20
162.208032
 30
0.0
 40
1.0
100
AcDbArc
 50
0.0
 51
90.0
  0
LINE
  5
C800
330
C71A
100
AcDbEntity
  8
1
  6
Continuous
100
AcDbLine
 10
267.393012
 20
163.208032
 30
0.0
 11
267.8930119999999
 21
163.208032
 31
0.0
  0
LINE
  5
C801
330
C71A
100
AcDbEntity
  8
1
  6
Continuous
100
AcDbLine
 10
284.8930119999998
 20
187.708032
 30
0.0
 11
268.893012
 21
187.708032
 31
0.0
  0
LINE
  5
C802
330
C71A
100
AcDbEntity
  8
1
  6
Continuous
100
AcDbLine
 10
268.893012
 20
181.708032
 30
0.0
 11
284.8930119999998
 21
181.708032
 31
0.0
  0
LINE
  5
C803
330
C71A
100
AcDbEntity
  8
1
  6
Continuous
100
AcDbLine
 10
285.393012
 20
182.2080319999998
 30
0.0
 11
285.393012
 21
187.208032
 31
0.0
  0
ARC
  5
C804
330
C71A
100
AcDbEntity
  8
1
  6
Continuous
100
AcDbCircle
 10
284.8930119999998
 20
187.208032
 30
0.0
 40
0.5
100
AcDbArc
 50
0.0
 51
90.0
  0
ARC
  5
C805
330
C71A
100
AcDbEntity
  8
1
  6
Continuous
100
AcDbCircle
 10
284.8930119999998
 20
182.2080319999998
 30
0.0
 40
0.5
100
AcDbArc
 50
270.0
 51
0.0
  0
ARC
  5
C806
330
C71A
100
AcDbEntity
  8
1
  6
Continuous
100
AcDbCircle
 10
284.8930119999998
 20
180.708032
 30
0.0
 40
1.0
100
AcDbArc
 50
0.0
 51
90.0
  0
ARC
  5
C807
330
C71A
100
AcDbEntity
  8
1
  6
Continuous
100
AcDbCircle
 10
287.893012
 20
179.708032
 30
0.0
 40
0.5
100
AcDbArc
 50
90.0
 51
180.0
  0
LINE
  5
C808
330
C71A
100
AcDbEntity
  8
1
  6
Continuous
100
AcDbLine
 10
265.8930119999999
 20
180.2080319999998
 30
0.0
 11
260.5484609999999
 21
180.2080319999998
 31
0.0
  0
ARC
  5
C809
330
C71A
100
AcDbEntity
  8
1
  6
Continuous
100
AcDbCircle
 10
265.8930119999999
 20
179.708032
 30
0.0
 40
0.5
100
AcDbArc
 50
0.0
 51
90.0
  0
ARC
  5
C80A
330
C71A
100
AcDbEntity
  8
1
  6
Continuous
100
AcDbCircle
 10
268.893012
 20
180.708032
 30
0.0
 40
1.0
100
AcDbArc
 50
90.0
 51
180.0
  0
LINE
  5
C80B
330
C71A
100
AcDbEntity
  8
1
  6
Continuous
100
AcDbLine
 10
268.3930119999998
 20
182.2080319999998
 30
0.0
 11
268.3930119999998
 21
187.208032
 31
0.0
  0
ARC
  5
C80C
330
C71A
100
AcDbEntity
  8
1
  6
Continuous
100
AcDbCircle
 10
268.893012
 20
187.208032
 30
0.0
 40
0.5
100
AcDbArc
 50
90.0
 51
180.0
  0
ARC
  5
C80D
330
C71A
100
AcDbEntity
  8
1
  6
Continuous
100
AcDbCircle
 10
268.893012
 20
182.2080319999998
 30
0.0
 40
0.5
100
AcDbArc
 50
180.0
 51
270.0
  0
LINE
  5
C80E
330
C71A
100
AcDbEntity
  8
1
  6
Continuous
100
AcDbLine
 10
255.8110799999998
 20
174.9739179999999
 30
0.0
 11
255.8110799999998
 21
135.442146
 31
0.0
  0
LINE
  5
C80F
330
C71A
100
AcDbEntity
  8
1
  6
Continuous
100
AcDbLine
 10
254.8230339999999
 20
171.8743719999999
 30
0.0
 11
254.8230339999999
 21
138.5416919999999
 31
0.0
  0
LINE
  5
C810
330
C71A
100
AcDbEntity
  8
1
  6
Continuous
100
AcDbLine
 10
255.548909
 20
172.562199
 30
0.0
 11
255.548909
 21
137.8538649999998
 31
0.0
  0
LINE
  5
C811
330
C71A
100
AcDbEntity
  8
1
  6
Continuous
100
AcDbLine
 10
254.393012
 20
170.3563889999998
 30
0.0
 11
254.393012
 21
140.0596759999999
 31
0.0
  0
ARC
  5
C812
330
C71A
100
AcDbEntity
  8
1
  6
Continuous
100
AcDbCircle
 10
312.46185
 20
155.2080319999998
 30
0.0
 40
59.5
100
AcDbArc
 50
196.957763
 51
197.802926
  0
ARC
  5
C813
330
C71A
100
AcDbEntity
  8
1
  6
Continuous
100
AcDbCircle
 10
255.3033569999998
 20
138.6805779999999
 30
0.0
 40
0.5
100
AcDbArc
 50
196.127295
 51
256.543398
  0
ARC
  5
C814
330
C71A
100
AcDbEntity
  8
1
  6
Continuous
100
AcDbCircle
 10
255.070649
 20
137.708032
 30
0.0
 40
0.5
100
AcDbArc
 50
16.957763
 51
76.54339799999998
  0
ARC
  5
C815
330
C71A
100
AcDbEntity
  8
1
  6
Continuous
100
AcDbCircle
 10
312.46185
 20
155.2080319999998
 30
0.0
 40
60.0
100
AcDbArc
 50
199.23427
 51
202.0243129999999
  0
ARC
  5
C816
330
C71A
100
AcDbEntity
  8
1
  6
Continuous
100
AcDbCircle
 10
255.3033569999998
 20
171.735485
 30
0.0
 40
0.5
100
AcDbArc
 50
103.4566019999999
 51
163.8727049999999
  0
ARC
  5
C817
330
C71A
100
AcDbEntity
  8
1
  6
Continuous
100
AcDbCircle
 10
255.070649
 20
172.7080319999998
 30
0.0
 40
0.5
100
AcDbArc
 50
283.456602
 51
343.042237
  0
ARC
  5
C818
330
C71A
100
AcDbEntity
  8
1
  6
Continuous
100
AcDbCircle
 10
312.46185
 20
155.2080319999998
 30
0.0
 40
59.5
100
AcDbArc
 50
162.1970739999999
 51
163.0422369999998
  0
ARC
  5
C819
330
C71A
100
AcDbEntity
  8
1
  6
Continuous
100
AcDbCircle
 10
255.999916
 20
174.908032
 30
0.0
 40
0.2
100
AcDbArc
 50
160.7657299999999
 51
234.485278
  0
ARC
  5
C81A
330
C71A
100
AcDbEntity
  8
1
  6
Continuous
100
AcDbCircle
 10
312.46185
 20
155.2080319999998
 30
0.0
 40
60.0
100
AcDbArc
 50
157.9756869999999
 51
160.7657299999999
  0
ARC
  5
C81B
330
C71A
100
AcDbEntity
  8
1
  6
Continuous
100
AcDbCircle
 10
349.6092279999999
 20
155.7891129999999
 30
0.0
 40
65.218805
100
AcDbArc
 50
167.677222
 51
186.2331319999999
  0
ARC
  5
C81C
330
C71A
100
AcDbEntity
  8
1
  6
Continuous
100
AcDbCircle
 10
204.176795
 20
155.7891129999999
 30
0.0
 40
65.218805
100
AcDbArc
 50
353.7668679999999
 51
12.322778
  0
LINE
  5
C81D
330
C71A
100
AcDbEntity
  8
1
  6
Continuous
100
AcDbLine
 10
148.3200889999999
 20
87.77800999999998
 30
0.0
 11
181.6527679999999
 21
87.77800999999998
 31
0.0
  0
ARC
  5
C81E
330
C71A
100
AcDbEntity
  8
1
  6
Continuous
100
AcDbCircle
 10
164.9864279999999
 20
31.839867
 30
0.0
 40
58.36816500000001
100
AcDbArc
 50
73.40898
 51
106.59102
  0
ARC
  5
C81F
330
C71A
100
AcDbEntity
  8
1
  6
Continuous
100
AcDbCircle
 10
164.9864279999999
 20
99.57619800000001
 30
0.0
 40
58.36816500000001
100
AcDbArc
 50
253.40898
 51
286.59102
  0
LINE
  5
C820
330
C71A
100
AcDbEntity
  8
1
  6
Continuous
100
AcDbLine
 10
188.486428
 20
74.70803199999997
 30
0.0
 11
141.730526
 21
74.70803199999997
 31
0.0
  0
LINE
  5
C821
330
C71A
100
AcDbEntity
  8
1
  6
Continuous
100
AcDbLine
 10
188.486428
 20
56.70803199999999
 30
0.0
 11
141.730526
 21
56.70803199999999
 31
0.0
  0
LINE
  5
C822
330
C71A
100
AcDbEntity
  8
1
  6
Continuous
100
AcDbLine
 10
147.6322619999999
 20
44.363929
 30
0.0
 11
182.340595
 21
44.363929
 31
0.0
  0
LINE
  5
C823
330
C71A
100
AcDbEntity
  8
1
  6
Continuous
100
AcDbLine
 10
148.3200889999999
 20
43.63805399999999
 30
0.0
 11
181.6527679999999
 21
43.63805399999999
 31
0.0
  0
LINE
  5
C824
330
C71A
100
AcDbEntity
  8
1
  6
Continuous
100
AcDbLine
 10
145.220542
 20
44.626101
 30
0.0
 11
184.7523149999999
 21
44.626101
 31
0.0
  0
LINE
  5
C825
330
C71A
100
AcDbEntity
  8
1
  6
Continuous
100
AcDbLine
 10
147.6322619999999
 20
87.05213499999997
 30
0.0
 11
182.340595
 21
87.05213499999997
 31
0.0
  0
LINE
  5
C826
330
C71A
100
AcDbEntity
  8
1
  6
Continuous
100
AcDbLine
 10
184.7523149999999
 20
86.789964
 30
0.0
 11
145.220542
 21
86.789964
 31
0.0
  0
LINE
  5
C827
330
C71A
100
AcDbEntity
  8
1
  6
Continuous
100
AcDbLine
 10
149.838073
 20
88.20803199999996
 30
0.0
 11
180.134783
 21
88.20803199999996
 31
0.0
  0
LINE
  5
C828
330
C71A
100
AcDbEntity
  8
1
  6
Continuous
100
AcDbLine
 10
172.9864279999999
 20
75.20803199999997
 30
0.0
 11
156.986428
 21
75.20803199999997
 31
0.0
  0
LINE
  5
C829
330
C71A
100
AcDbEntity
  8
1
  6
Continuous
100
AcDbLine
 10
172.9864279999999
 20
56.208032
 30
0.0
 11
156.986428
 21
56.208032
 31
0.0
  0
LINE
  5
C82A
330
C71A
100
AcDbEntity
  8
1
  6
Continuous
100
AcDbLine
 10
149.838073
 20
43.208032
 30
0.0
 11
180.134783
 21
43.208032
 31
0.0
  0
ARC
  5
C82B
330
C71A
100
AcDbEntity
  8
1
  6
Continuous
100
AcDbCircle
 10
241.326688
 20
65.70803199999999
 30
0.0
 40
100.0
100
AcDbArc
 50
174.849051
 51
185.1509489999999
  0
ARC
  5
C82C
330
C71A
100
AcDbEntity
  8
1
  6
Continuous
100
AcDbCircle
 10
143.9864279999999
 20
82.052583
 30
0.0
 40
4.0
100
AcDbArc
 50
112.0243129999999
 51
180.0
  0
ARC
  5
C82D
330
C71A
100
AcDbEntity
  8
1
  6
Continuous
100
AcDbCircle
 10
164.9864279999999
 20
30.139194
 30
0.0
 40
60.0
100
AcDbArc
 50
109.2342699999998
 51
112.0243129999999
  0
LINE
  5
C82E
330
C71A
100
AcDbEntity
  8
1
  6
Continuous
100
AcDbLine
 10
148.0650939999998
 20
87.605675
 30
0.0
 11
147.6322619999999
 21
87.05213499999997
 31
0.0
  0
ARC
  5
C82F
330
C71A
100
AcDbEntity
  8
1
  6
Continuous
100
AcDbCircle
 10
148.458975
 20
87.29768599999998
 30
0.0
 40
0.5
100
AcDbArc
 50
106.1272949999999
 51
141.976966
  0
ARC
  5
C830
330
C71A
100
AcDbEntity
  8
1
  6
Continuous
100
AcDbCircle
 10
164.9864279999999
 20
30.139194
 30
0.0
 40
59.5
100
AcDbArc
 50
106.9577629999999
 51
107.8029259999998
  0
LINE
  5
C831
330
C71A
100
AcDbEntity
  8
1
  6
Continuous
100
AcDbLine
 10
189.486428
 20
76.20803199999997
 30
0.0
 11
140.4864279999999
 21
76.20803199999997
 31
0.0
  0
ARC
  5
C832
330
C71A
100
AcDbEntity
  8
1
  6
Continuous
100
AcDbCircle
 10
140.4864279999999
 20
76.70803199999998
 30
0.0
 40
0.5
100
AcDbArc
 50
180.0
 51
270.0
  0
LINE
  5
C833
330
C71A
100
AcDbEntity
  8
1
  6
Continuous
100
AcDbLine
 10
139.9864279999998
 20
76.70803199999998
 30
0.0
 11
139.9864279999998
 21
82.052583
 31
0.0
  0
LINE
  5
C834
330
C71A
100
AcDbEntity
  8
1
  6
Continuous
100
AcDbLine
 10
156.986428
 20
74.70803199999997
 30
0.0
 11
156.986428
 21
75.20803199999997
 31
0.0
  0
ARC
  5
C835
330
C71A
100
AcDbEntity
  8
1
  6
Continuous
100
AcDbCircle
 10
157.9864279999999
 20
76.20803199999997
 30
0.0
 40
1.0
100
AcDbArc
 50
180.0
 51
270.0
  0
ARC
  5
C836
330
C71A
100
AcDbEntity
  8
1
  6
Continuous
100
AcDbCircle
 10
164.9864279999999
 20
101.276871
 30
0.0
 40
60.0
100
AcDbArc
 50
247.975687
 51
250.7657299999999
  0
LINE
  5
C837
330
C71A
100
AcDbEntity
  8
1
  6
Continuous
100
AcDbLine
 10
189.486428
 20
55.20803199999999
 30
0.0
 11
140.4864279999999
 21
55.20803199999999
 31
0.0
  0
LINE
  5
C838
330
C71A
100
AcDbEntity
  8
1
  6
Continuous
100
AcDbLine
 10
139.9864279999998
 20
54.70803199999998
 30
0.0
 11
139.9864279999998
 21
49.363481
 31
0.0
  0
ARC
  5
C839
330
C71A
100
AcDbEntity
  8
1
  6
Continuous
100
AcDbCircle
 10
140.4864279999999
 20
54.70803199999998
 30
0.0
 40
0.5
100
AcDbArc
 50
90.0
 51
180.0
  0
ARC
  5
C83A
330
C71A
100
AcDbEntity
  8
1
  6
Continuous
100
AcDbCircle
 10
143.9864279999999
 20
49.363481
 30
0.0
 40
4.0
100
AcDbArc
 50
180.0
 51
247.975687
  0
LINE
  5
C83B
330
C71A
100
AcDbEntity
  8
1
  6
Continuous
100
AcDbLine
 10
148.0650939999998
 20
43.810389
 30
0.0
 11
147.6322619999999
 21
44.363929
 31
0.0
  0
ARC
  5
C83C
330
C71A
100
AcDbEntity
  8
1
  6
Continuous
100
AcDbCircle
 10
148.458975
 20
44.11837799999999
 30
0.0
 40
0.5
100
AcDbArc
 50
218.023034
 51
253.8727049999998
  0
ARC
  5
C83D
330
C71A
100
AcDbEntity
  8
1
  6
Continuous
100
AcDbCircle
 10
164.9864279999999
 20
101.276871
 30
0.0
 40
59.5
100
AcDbArc
 50
252.1970739999999
 51
253.042237
  0
LINE
  5
C83E
330
C71A
100
AcDbEntity
  8
1
  6
Continuous
100
AcDbLine
 10
156.986428
 20
56.208032
 30
0.0
 11
156.986428
 21
56.70803199999999
 31
0.0
  0
ARC
  5
C83F
330
C71A
100
AcDbEntity
  8
1
  6
Continuous
100
AcDbCircle
 10
157.9864279999999
 20
55.20803199999999
 30
0.0
 40
1.0
100
AcDbArc
 50
90.0
 51
180.0
  0
LINE
  5
C840
330
C71A
100
AcDbEntity
  8
4
  6
CENTER
100
AcDbLine
 10
164.9864279999999
 20
36.208032
 30
0.0
 11
164.9864279999999
 21
95.20803200000001
 31
0.0
  0
ARC
  5
C841
330
C71A
100
AcDbEntity
  8
1
  6
Continuous
100
AcDbCircle
 10
183.986428
 20
65.70803199999999
 30
0.0
 40
8.5
100
AcDbArc
 50
301.9657189999999
 51
58.03428100000001
  0
ARC
  5
C842
330
C71A
100
AcDbEntity
  8
1
  6
Continuous
100
AcDbCircle
 10
185.986428
 20
82.052583
 30
0.0
 40
4.0
100
AcDbArc
 50
0.0
 51
67.97568699999999
  0
LINE
  5
C843
330
C71A
100
AcDbEntity
  8
1
  6
Continuous
100
AcDbLine
 10
181.9077629999999
 20
87.605699
 30
0.0
 11
182.340595
 21
87.052159
 31
0.0
  0
ARC
  5
C844
330
C71A
100
AcDbEntity
  8
1
  6
Continuous
100
AcDbCircle
 10
181.5138819999999
 20
87.297709
 30
0.0
 40
0.5
100
AcDbArc
 50
38.023113
 51
73.87278399999998
  0
ARC
  5
C845
330
C71A
100
AcDbEntity
  8
1
  6
Continuous
100
AcDbCircle
 10
164.9864279999999
 20
30.139194
 30
0.0
 40
59.5
100
AcDbArc
 50
72.19707400000001
 51
73.042237
  0
ARC
  5
C846
330
C71A
100
AcDbEntity
  8
1
  6
Continuous
100
AcDbCircle
 10
164.9864279999999
 20
30.139194
 30
0.0
 40
60.0
100
AcDbArc
 50
67.97568699999999
 51
70.76573000000002
  0
LINE
  5
C847
330
C71A
100
AcDbEntity
  8
1
  6
Continuous
100
AcDbLine
 10
172.9864279999999
 20
74.70803199999997
 30
0.0
 11
172.9864279999999
 21
75.20803199999997
 31
0.0
  0
ARC
  5
C848
330
C71A
100
AcDbEntity
  8
1
  6
Continuous
100
AcDbCircle
 10
171.9864279999999
 20
76.20803199999997
 30
0.0
 40
1.0
100
AcDbArc
 50
270.0
 51
0.0
  0
LINE
  5
C849
330
C71A
100
AcDbEntity
  8
1
  6
Continuous
100
AcDbLine
 10
188.486428
 20
74.70803199999997
 30
0.0
 11
188.486428
 21
72.91913499999998
 31
0.0
  0
ARC
  5
C84A
330
C71A
100
AcDbEntity
  8
1
  6
Continuous
100
AcDbCircle
 10
189.486428
 20
76.70803199999998
 30
0.0
 40
0.5
100
AcDbArc
 50
270.0
 51
0.0
  0
LINE
  5
C84B
330
C71A
100
AcDbEntity
  8
1
  6
Continuous
100
AcDbLine
 10
189.9864279999999
 20
76.70803199999998
 30
0.0
 11
189.9864279999999
 21
82.052583
 31
0.0
  0
LINE
  5
C84C
330
C71A
100
AcDbEntity
  8
1
  6
Continuous
100
AcDbLine
 10
172.9864279999999
 20
56.208032
 30
0.0
 11
172.9864279999999
 21
56.70803199999999
 31
0.0
  0
ARC
  5
C84D
330
C71A
100
AcDbEntity
  8
1
  6
Continuous
100
AcDbCircle
 10
171.9864279999999
 20
55.20803199999999
 30
0.0
 40
1.0
100
AcDbArc
 50
0.0
 51
90.0
  0
LINE
  5
C84E
330
C71A
100
AcDbEntity
  8
1
  6
Continuous
100
AcDbLine
 10
181.9077629999999
 20
43.81036599999998
 30
0.0
 11
182.340595
 21
44.36390499999999
 31
0.0
  0
ARC
  5
C84F
330
C71A
100
AcDbEntity
  8
1
  6
Continuous
100
AcDbCircle
 10
181.5138819999999
 20
44.118355
 30
0.0
 40
0.5
100
AcDbArc
 50
286.127216
 51
321.9768869999999
  0
ARC
  5
C850
330
C71A
100
AcDbEntity
  8
1
  6
Continuous
100
AcDbCircle
 10
164.9864279999999
 20
101.276871
 30
0.0
 40
59.5
100
AcDbArc
 50
286.957763
 51
287.8029259999999
  0
ARC
  5
C851
330
C71A
100
AcDbEntity
  8
1
  6
Continuous
100
AcDbCircle
 10
164.9864279999999
 20
101.276871
 30
0.0
 40
60.0
100
AcDbArc
 50
289.23427
 51
292.024313
  0
LINE
  5
C852
330
C71A
100
AcDbEntity
  8
1
  6
Continuous
100
AcDbLine
 10
189.9864279999999
 20
54.70803199999998
 30
0.0
 11
189.9864279999999
 21
49.363481
 31
0.0
  0
ARC
  5
C853
330
C71A
100
AcDbEntity
  8
1
  6
Continuous
100
AcDbCircle
 10
189.486428
 20
54.70803199999998
 30
0.0
 40
0.5
100
AcDbArc
 50
0.0
 51
90.0
  0
LINE
  5
C854
330
C71A
100
AcDbEntity
  8
1
  6
Continuous
100
AcDbLine
 10
188.486428
 20
58.49693000000001
 30
0.0
 11
188.486428
 21
56.70803199999999
 31
0.0
  0
ARC
  5
C855
330
C71A
100
AcDbEntity
  8
1
  6
Continuous
100
AcDbCircle
 10
185.986428
 20
49.363481
 30
0.0
 40
4.0
100
AcDbArc
 50
292.024313
 51
0.0
  0
CIRCLE
  5
C856
330
C71A
100
AcDbEntity
  8
1
  6
Continuous
100
AcDbCircle
 10
181.986428
 20
65.70803199999999
 30
0.0
 40
4.0
  0
LINE
  5
C857
330
C71A
100
AcDbEntity
  8
1
  6
Continuous
100
AcDbLine
 10
186.027881
 20
66.70803199999999
 30
0.0
 11
187.4855189999999
 21
66.70803199999999
 31
0.0
  0
LINE
  5
C858
330
C71A
100
AcDbEntity
  8
1
  6
Continuous
100
AcDbLine
 10
186.027881
 20
64.70803199999997
 30
0.0
 11
187.4855189999999
 21
64.70803199999997
 31
0.0
  0
ARC
  5
C859
330
C71A
100
AcDbEntity
  8
1
  6
Continuous
100
AcDbCircle
 10
270.0901809999999
 20
148.708032
 30
0.0
 40
1.080130999999999
100
AcDbArc
 50
180.0
 51
247.791336
  0
ARC
  5
C85A
330
C71A
100
AcDbEntity
  8
1
  6
Continuous
100
AcDbCircle
 10
283.695843
 20
148.708032
 30
0.0
 40
1.080130999999999
100
AcDbArc
 50
292.2086639999998
 51
0.0
  0
ARC
  5
C85B
330
C71A
100
AcDbEntity
  8
1
  6
Continuous
100
AcDbCircle
 10
310.761189
 20
155.208033
 30
0.0
 40
58.368177
100
AcDbArc
 50
163.408983
 51
196.591018
  0
ARC
  5
C85C
330
C71A
100
AcDbEntity
  8
1
  6
Continuous
100
AcDbCircle
 10
243.0248349999998
 20
155.208033
 30
0.0
 40
58.368177
100
AcDbArc
 50
343.408982
 51
16.591017
  0
ARC
  5
C85D
330
C71A
100
AcDbEntity
  8
1
  6
Continuous
100
AcDbCircle
 10
15.199144
 20
155.208033
 30
0.0
 40
58.368177
100
AcDbArc
 50
343.408982
 51
16.591017
  0
ARC
  5
C85E
330
C71A
100
AcDbEntity
  8
1
  6
Continuous
100
AcDbCircle
 10
82.93549799999999
 20
155.208033
 30
0.0
 40
58.368177
100
AcDbArc
 50
163.408983
 51
196.591018
  0
ARC
  5
C85F
330
C71A
100
AcDbEntity
  8
1
  6
Continuous
100
AcDbCircle
 10
137.705122
 20
199.2493889999998
 30
0.0
 40
26.0
100
AcDbArc
 50
260.387876
 51
302.0679830000001
  0
ARC
  5
C860
330
C71A
100
AcDbEntity
  8
5
  6
PHANTOM
100
AcDbCircle
 10
144.8749569999999
 20
167.974017
 30
0.0
 40
6.5
100
AcDbArc
 50
73.948274
 51
150.1139659999998
  0
ARC
  5
C861
330
C71A
100
AcDbEntity
  8
5
  6
PHANTOM
100
AcDbCircle
 10
112.1534229999999
 20
161.367437
 30
0.0
 40
28.0
100
AcDbArc
 50
347.8278519999999
 51
26.694064
  0
ARC
  5
C862
330
C71A
100
AcDbEntity
  8
1
  6
Continuous
100
AcDbCircle
 10
140.407972
 20
170.375619
 30
0.0
 40
1.0
100
AcDbArc
 50
336.219159
 51
95.34782599999996
  0
ARC
  5
C863
330
C71A
100
AcDbEntity
  8
1
  6
Continuous
100
AcDbCircle
 10
137.705122
 20
199.2493889999998
 30
0.0
 40
28.0
100
AcDbArc
 50
261.827852
 51
290.2750389999998
  0
ARC
  5
C864
330
C71A
100
AcDbEntity
  8
5
  6
PHANTOM
100
AcDbCircle
 10
141.145399
 20
162.0495709999999
 30
0.0
 40
1.0
100
AcDbArc
 50
84.20794499999997
 51
181.347826
  0
ARC
  5
C865
330
C71A
100
AcDbEntity
  8
1
  6
Continuous
100
AcDbCircle
 10
145.898539
 20
167.956183
 30
0.0
 40
5.0
100
AcDbArc
 50
156.2191589999999
 51
217.6815799999999
  0
ARC
  5
C866
330
C71A
100
AcDbEntity
  8
5
  6
PHANTOM
100
AcDbCircle
 10
138.8058289999999
 20
171.461952
 30
0.0
 40
0.5
100
AcDbArc
 50
200.744024
 51
330.113966
  0
LINE
  5
C867
330
C71A
100
AcDbEntity
  8
5
  6
PHANTOM
100
AcDbLine
 10
146.6722399999999
 20
174.220598
 30
0.0
 11
147.82246
 21
173.3849139999999
 31
0.0
  0
ARC
  5
C868
330
C71A
100
AcDbEntity
  8
5
  6
PHANTOM
100
AcDbCircle
 10
136.1983929999998
 20
172.2630419999999
 30
0.0
 40
2.0
100
AcDbArc
 50
65.58410600000001
 51
119.5385239999999
  0
ARC
  5
C869
330
C71A
100
AcDbEntity
  8
5
  6
PHANTOM
100
AcDbCircle
 10
136.9011
 20
173.81101
 30
0.0
 40
0.3
100
AcDbArc
 50
26.694064
 51
65.58410600000001
  0
ARC
  5
C86A
330
C71A
100
AcDbEntity
  8
5
  6
PHANTOM
100
AcDbCircle
 10
135.3602779999999
 20
173.742084
 30
0.0
 40
0.3
100
AcDbArc
 50
119.5385239999999
 51
208.067983
  0
ARC
  5
C86B
330
C71A
100
AcDbEntity
  8
1
  6
Continuous
100
AcDbCircle
 10
134.986428
 20
173.0157979999999
 30
0.0
 40
2.0
100
AcDbArc
 50
169.739044
 51
224.19752
  0
ARC
  5
C86C
330
C71A
100
AcDbEntity
  8
1
  6
Continuous
100
AcDbCircle
 10
151.668453
 20
176.962276
 30
0.0
 40
0.3
100
AcDbArc
 50
33.538524
 51
122.0679829999999
  0
ARC
  5
C86D
330
C71A
100
AcDbEntity
  8
1
  6
Continuous
100
AcDbCircle
 10
150.251478
 20
176.023031
 30
0.0
 40
2.0
100
AcDbArc
 50
18.554142
 51
33.538524
  0
LINE
  5
C86E
330
C71A
100
AcDbEntity
  8
1
  6
Continuous
100
AcDbLine
 10
54.717321
 20
162.5466999999999
 30
0.0
 11
54.717321
 21
171.4745739999998
 31
0.0
  0
LINE
  5
C86F
330
C71A
100
AcDbEntity
  8
1
  6
Continuous
100
AcDbLine
 10
43.417321
 20
171.4745739999998
 30
0.0
 11
43.417321
 21
162.5466999999999
 31
0.0
  0
LINE
  5
C870
330
C71A
100
AcDbEntity
  8
1
  6
Continuous
100
AcDbLine
 10
150.145881
 20
257.7080319999998
 30
0.0
 11
137.738875
 21
257.7080319999998
 31
0.0
  0
LINE
  5
C871
330
C71A
100
AcDbEntity
  8
1
  6
Continuous
100
AcDbLine
 10
150.145881
 20
257.2080319999999
 30
0.0
 11
150.145881
 21
257.740423
 31
0.0
  0
LINE
  5
C872
330
C71A
100
AcDbEntity
  8
1
  6
Continuous
100
AcDbLine
 10
149.744752
 20
274.708032
 30
0.0
 11
137.742739
 21
274.708032
 31
0.0
  0
LINE
  5
C873
330
C71A
100
AcDbEntity
  8
1
  6
Continuous
100
AcDbLine
 10
150.145881
 20
274.6756409999999
 30
0.0
 11
150.145881
 21
275.208032
 31
0.0
  0
ARC
  5
C874
330
C71A
100
AcDbEntity
  8
1
  6
Continuous
100
AcDbCircle
 10
241.326688
 20
266.208032
 30
0.0
 40
100.0
100
AcDbArc
 50
184.8760249999999
 51
185.1509489999999
  0
LINE
  5
C875
330
C71A
100
AcDbEntity
  8
1
  6
Continuous
100
AcDbLine
 10
57.567321
 20
170.4511349999999
 30
0.0
 11
58.567321
 21
170.4511349999999
 31
0.0
  0
LINE
  5
C876
330
C71A
100
AcDbEntity
  8
1
  6
Continuous
100
AcDbLine
 10
59.067321
 20
168.451135
 30
0.0
 11
59.56732099999999
 21
168.451135
 31
0.0
  0
LINE
  5
C877
330
C71A
100
AcDbEntity
  8
1
  6
Continuous
100
AcDbLine
 10
59.067321
 20
165.4511349999999
 30
0.0
 11
59.56732099999999
 21
165.4511349999999
 31
0.0
  0
LINE
  5
C878
330
C71A
100
AcDbEntity
  8
1
  6
Continuous
100
AcDbLine
 10
58.067321
 20
161.4511349999999
 30
0.0
 11
58.567321
 21
161.4511349999999
 31
0.0
  0
LINE
  5
C879
330
C71A
100
AcDbEntity
  8
1
  6
Continuous
100
AcDbLine
 10
59.067321
 20
161.9511349999999
 30
0.0
 11
59.067321
 21
165.4511349999999
 31
0.0
  0
LINE
  5
C87A
330
C71A
100
AcDbEntity
  8
1
  6
Continuous
100
AcDbLine
 10
59.067321
 20
168.451135
 30
0.0
 11
59.067321
 21
169.9511349999999
 31
0.0
  0
ARC
  5
C87B
330
C71A
100
AcDbEntity
  8
1
  6
Continuous
100
AcDbCircle
 10
58.567321
 20
169.9511349999999
 30
0.0
 40
0.5
100
AcDbArc
 50
0.0
 51
90.0
  0
ARC
  5
C87C
330
C71A
100
AcDbEntity
  8
1
  6
Continuous
100
AcDbCircle
 10
58.567321
 20
161.9511349999999
 30
0.0
 40
0.5
100
AcDbArc
 50
270.0
 51
0.0
  0
LINE
  5
C87D
330
C71A
100
AcDbEntity
  8
1
  6
Continuous
100
AcDbLine
 10
58.067321
 20
172.476432
 30
0.0
 11
58.067321
 21
180.708032
 31
0.0
  0
ARC
  5
C87E
330
C71A
100
AcDbEntity
  8
1
  6
Continuous
100
AcDbCircle
 10
39.56732099999999
 20
169.9511349999999
 30
0.0
 40
0.5
100
AcDbArc
 50
90.0
 51
180.0
  0
LINE
  5
C87F
330
C71A
100
AcDbEntity
  8
1
  6
Continuous
100
AcDbLine
 10
40.567321
 20
170.4511349999999
 30
0.0
 11
39.56732099999999
 21
170.4511349999999
 31
0.0
  0
LINE
  5
C880
330
C71A
100
AcDbEntity
  8
1
  6
Continuous
100
AcDbLine
 10
39.067321
 20
168.451135
 30
0.0
 11
39.067321
 21
169.9511349999999
 31
0.0
  0
LINE
  5
C881
330
C71A
100
AcDbEntity
  8
1
  6
Continuous
100
AcDbLine
 10
39.067321
 20
161.9511349999999
 30
0.0
 11
39.067321
 21
165.4511349999999
 31
0.0
  0
LINE
  5
C882
330
C71A
100
AcDbEntity
  8
1
  6
Continuous
100
AcDbLine
 10
40.06732099999999
 20
161.4511349999999
 30
0.0
 11
39.56732099999999
 21
161.4511349999999
 31
0.0
  0
ARC
  5
C883
330
C71A
100
AcDbEntity
  8
1
  6
Continuous
100
AcDbCircle
 10
39.56732099999999
 20
161.9511349999999
 30
0.0
 40
0.5
100
AcDbArc
 50
180.0
 51
270.0
  0
LINE
  5
C884
330
C71A
100
AcDbEntity
  8
1
  6
Continuous
100
AcDbLine
 10
39.067321
 20
165.4511349999999
 30
0.0
 11
38.567321
 21
165.4511349999999
 31
0.0
  0
LINE
  5
C885
330
C71A
100
AcDbEntity
  8
1
  6
Continuous
100
AcDbLine
 10
39.067321
 20
168.451135
 30
0.0
 11
38.567321
 21
168.451135
 31
0.0
  0
LINE
  5
C886
330
C71A
100
AcDbEntity
  8
1
  6
Continuous
100
AcDbLine
 10
40.06732099999999
 20
172.476432
 30
0.0
 11
40.06732099999999
 21
180.708032
 31
0.0
  0
ARC
  5
C887
330
C71A
100
AcDbEntity
  8
1
  6
Continuous
100
AcDbCircle
 10
149.095561
 20
272.958032
 30
0.0
 40
3.75
100
AcDbArc
 50
36.869898
 51
90.0
  0
ARC
  5
C888
330
C71A
100
AcDbEntity
  8
1
  6
Continuous
100
AcDbCircle
 10
151.095561
 20
272.958032
 30
0.0
 40
3.75
100
AcDbArc
 50
127.58965
 51
143.130102
  0
ARC
  5
C889
330
C71A
100
AcDbEntity
  8
1
  6
Continuous
100
AcDbCircle
 10
151.367434
 20
278.9871959999999
 30
0.0
 40
3.987448
100
AcDbArc
 50
214.8608
 51
230.069396
  0
ARC
  5
C88A
330
C71A
100
AcDbEntity
  8
1
  6
Continuous
100
AcDbCircle
 10
149.095561
 20
259.4580319999999
 30
0.0
 40
3.75
100
AcDbArc
 50
270.0
 51
323.130102
  0
ARC
  5
C88B
330
C71A
100
AcDbEntity
  8
1
  6
Continuous
100
AcDbCircle
 10
151.367434
 20
253.4288689999999
 30
0.0
 40
3.987448
100
AcDbArc
 50
129.9306039999999
 51
145.1392
  0
ARC
  5
C88C
330
C71A
100
AcDbEntity
  8
1
  6
Continuous
100
AcDbCircle
 10
151.095561
 20
259.4580319999999
 30
0.0
 40
3.75
100
AcDbArc
 50
216.869898
 51
232.41035
  0
ARC
  5
C88D
330
C71A
100
AcDbEntity
  8
1
  6
Continuous
100
AcDbCircle
 10
151.367434
 20
52.92886899999999
 30
0.0
 40
3.987448
100
AcDbArc
 50
129.9306039999999
 51
145.1392
  0
ARC
  5
C88E
330
C71A
100
AcDbEntity
  8
1
  6
Continuous
100
AcDbCircle
 10
151.095561
 20
58.95803199999999
 30
0.0
 40
3.75
100
AcDbArc
 50
216.869898
 51
232.41035
  0
ARC
  5
C88F
330
C71A
100
AcDbEntity
  8
1
  6
Continuous
100
AcDbCircle
 10
149.095561
 20
58.95803199999999
 30
0.0
 40
3.75
100
AcDbArc
 50
270.0
 51
323.130102
  0
ARC
  5
C890
330
C71A
100
AcDbEntity
  8
1
  6
Continuous
100
AcDbCircle
 10
151.095561
 20
72.45803199999997
 30
0.0
 40
3.75
100
AcDbArc
 50
127.58965
 51
143.130102
  0
ARC
  5
C891
330
C71A
100
AcDbEntity
  8
1
  6
Continuous
100
AcDbCircle
 10
151.367434
 20
78.48719599999999
 30
0.0
 40
3.987448
100
AcDbArc
 50
214.8608
 51
230.069396
  0
ARC
  5
C892
330
C71A
100
AcDbEntity
  8
1
  6
Continuous
100
AcDbCircle
 10
149.095561
 20
72.45803199999997
 30
0.0
 40
3.75
100
AcDbArc
 50
36.869898
 51
90.0
  0
LINE
  5
C893
330
C71A
100
AcDbEntity
  8
1
  6
Continuous
100
AcDbLine
 10
141.6591329999999
 20
57.20803199999998
 30
0.0
 11
137.740803
 21
57.20803199999998
 31
0.0
  0
LINE
  5
C894
330
C71A
100
AcDbEntity
  8
1
  6
Continuous
100
AcDbLine
 10
141.688593
 20
74.20803199999998
 30
0.0
 11
137.740803
 21
74.20803199999998
 31
0.0
  0
LINE
  5
C895
330
C71A
100
AcDbEntity
  8
1
  6
Continuous
100
AcDbLine
 10
286.8930119999999
 20
168.451135
 30
0.0
 11
287.393012
 21
168.451135
 31
0.0
  0
LINE
  5
C896
330
C71A
100
AcDbEntity
  8
1
  6
Continuous
100
AcDbLine
 10
286.8930119999999
 20
165.4511349999999
 30
0.0
 11
287.393012
 21
165.4511349999999
 31
0.0
  0
LINE
  5
C897
330
C71A
100
AcDbEntity
  8
1
  6
Continuous
100
AcDbLine
 10
286.8930119999999
 20
163.074058
 30
0.0
 11
286.8930119999999
 21
165.4511349999999
 31
0.0
  0
LINE
  5
C898
330
C71A
100
AcDbEntity
  8
1
  6
Continuous
100
AcDbLine
 10
286.8930119999999
 20
168.451135
 30
0.0
 11
286.8930119999999
 21
169.9511349999999
 31
0.0
  0
LINE
  5
C899
330
C71A
100
AcDbEntity
  8
1
  6
Continuous
100
AcDbLine
 10
285.893012
 20
170.4511349999999
 30
0.0
 11
286.393012
 21
170.4511349999999
 31
0.0
  0
ARC
  5
C89A
330
C71A
100
AcDbEntity
  8
1
  6
Continuous
100
AcDbCircle
 10
286.393012
 20
169.9511349999999
 30
0.0
 40
0.5
100
AcDbArc
 50
0.0
 51
90.0
  0
LINE
  5
C89B
330
C71A
100
AcDbEntity
  8
1
  6
Continuous
100
AcDbLine
 10
267.8930119999999
 20
170.4511349999999
 30
0.0
 11
267.393012
 21
170.4511349999999
 31
0.0
  0
LINE
  5
C89C
330
C71A
100
AcDbEntity
  8
1
  6
Continuous
100
AcDbLine
 10
266.893012
 20
163.074058
 30
0.0
 11
266.893012
 21
165.4511349999999
 31
0.0
  0
ARC
  5
C89D
330
C71A
100
AcDbEntity
  8
1
  6
Continuous
100
AcDbCircle
 10
267.393012
 20
169.9511349999999
 30
0.0
 40
0.5
100
AcDbArc
 50
90.0
 51
180.0
  0
LINE
  5
C89E
330
C71A
100
AcDbEntity
  8
1
  6
Continuous
100
AcDbLine
 10
266.893012
 20
168.451135
 30
0.0
 11
266.893012
 21
169.9511349999999
 31
0.0
  0
LINE
  5
C89F
330
C71A
100
AcDbEntity
  8
1
  6
Continuous
100
AcDbLine
 10
266.893012
 20
165.4511349999999
 30
0.0
 11
266.3930119999998
 21
165.4511349999999
 31
0.0
  0
LINE
  5
C8A0
330
C71A
100
AcDbEntity
  8
1
  6
Continuous
100
AcDbLine
 10
266.893012
 20
168.451135
 30
0.0
 11
266.3930119999998
 21
168.451135
 31
0.0
  0
LINE
  5
C8A1
330
C71A
100
AcDbEntity
  8
1
  6
Continuous
100
AcDbLine
 10
132.986428
 20
72.143843
 30
0.0
 11
132.986428
 21
59.272002
 31
0.0
  0
ARC
  5
C8A2
330
C71A
100
AcDbEntity
  8
1
  6
Continuous
100
AcDbCircle
 10
138.322619
 20
67.43084
 30
0.0
 40
10.23935099999998
100
AcDbArc
 50
241.8945390000001
 51
266.742612
  0
ARC
  5
C8A3
330
C71A
100
AcDbEntity
  8
1
  6
Continuous
100
AcDbCircle
 10
133.986428
 20
59.272002
 30
0.0
 40
1.0
100
AcDbArc
 50
180.0
 51
240.821895
  0
LINE
  5
C8A4
330
C71A
100
AcDbEntity
  8
1
  6
Continuous
100
AcDbLine
 10
137.7979559999999
 20
74.211404
 30
0.0
 11
137.7979559999999
 21
74.211404
 31
0.0
  0
ARC
  5
C8A5
330
C71A
100
AcDbEntity
  8
1
  6
Continuous
100
AcDbCircle
 10
138.322619
 20
63.985224
 30
0.0
 40
10.23935099999998
100
AcDbArc
 50
93.25738800000001
 51
117.9900149999999
  0
ARC
  5
C8A6
330
C71A
100
AcDbEntity
  8
1
  6
Continuous
100
AcDbCircle
 10
133.986428
 20
72.143843
 30
0.0
 40
1.0
100
AcDbArc
 50
117.9900149999999
 51
180.0
  0
LINE
  5
C8A7
330
C71A
100
AcDbEntity
  8
1
  6
Continuous
100
AcDbLine
 10
132.986428
 20
259.772112
 30
0.0
 11
132.986428
 21
272.6439529999999
 31
0.0
  0
ARC
  5
C8A8
330
C71A
100
AcDbEntity
  8
1
  6
Continuous
100
AcDbCircle
 10
138.322619
 20
264.485114
 30
0.0
 40
10.23935099999998
100
AcDbArc
 50
93.246541
 51
118.1054609999999
  0
ARC
  5
C8A9
330
C71A
100
AcDbEntity
  8
1
  6
Continuous
100
AcDbCircle
 10
133.986428
 20
272.6439529999999
 30
0.0
 40
1.0
100
AcDbArc
 50
119.178105
 51
180.0
  0
ARC
  5
C8AA
330
C71A
100
AcDbEntity
  8
1
  6
Continuous
100
AcDbCircle
 10
133.986428
 20
259.772112
 30
0.0
 40
1.0
100
AcDbArc
 50
180.0
 51
242.009985
  0
ARC
  5
C8AB
330
C71A
100
AcDbEntity
  8
1
  6
Continuous
100
AcDbCircle
 10
138.322619
 20
267.93073
 30
0.0
 40
10.23935099999998
100
AcDbArc
 50
242.009985
 51
266.7318009999998
  0
LINE
  5
C8AC
330
C71A
100
AcDbEntity
  8
1
  6
Continuous
100
AcDbLine
 10
138.378849
 20
257.704551
 30
0.0
 11
138.378849
 21
257.704551
 31
0.0
  0
LINE
  5
C8AD
330
C71A
100
AcDbEntity
  8
1
  6
Continuous
100
AcDbLine
 10
152.244752
 20
260.208032
 30
0.0
 11
152.244752
 21
272.2080319999998
 31
0.0
  0
LINE
  5
C8AE
330
C71A
100
AcDbEntity
  8
1
  6
Continuous
100
AcDbLine
 10
151.9185069999998
 20
272.2080319999998
 30
0.0
 11
151.9185069999998
 21
260.208032
 31
0.0
  0
ARC
  5
C8AF
330
C71A
100
AcDbEntity
  8
1
  6
Continuous
100
AcDbCircle
 10
149.418507
 20
272.2080319999998
 30
0.0
 40
2.5
100
AcDbArc
 50
0.0
 51
90.0
  0
ARC
  5
C8B0
330
C71A
100
AcDbEntity
  8
1
  6
Continuous
100
AcDbCircle
 10
149.744752
 20
272.2080319999998
 30
0.0
 40
2.5
100
AcDbArc
 50
0.0
 51
90.0
  0
ARC
  5
C8B1
330
C71A
100
AcDbEntity
  8
1
  6
Continuous
100
AcDbCircle
 10
149.418507
 20
260.208032
 30
0.0
 40
2.5
100
AcDbArc
 50
270.0
 51
0.0
  0
ARC
  5
C8B2
330
C71A
100
AcDbEntity
  8
1
  6
Continuous
100
AcDbCircle
 10
149.744752
 20
260.208032
 30
0.0
 40
2.5
100
AcDbArc
 50
270.0
 51
0.0
  0
LINE
  5
C8B3
330
C71A
100
AcDbEntity
  8
1
  6
Continuous
100
AcDbLine
 10
40.06732099999999
 20
162.5466999999999
 30
0.0
 11
43.417321
 21
162.5466999999999
 31
0.0
  0
LINE
  5
C8B4
330
C71A
100
AcDbEntity
  8
1
  6
Continuous
100
AcDbLine
 10
40.567321
 20
164.7466999999998
 30
0.0
 11
43.417321
 21
164.7466999999998
 31
0.0
  0
LINE
  5
C8B5
330
C71A
100
AcDbEntity
  8
1
  6
Continuous
100
AcDbLine
 10
54.717321
 20
164.7466999999998
 30
0.0
 11
57.567321
 21
164.7466999999998
 31
0.0
  0
LINE
  5
C8B6
330
C71A
100
AcDbEntity
  8
1
  6
Continuous
100
AcDbLine
 10
40.567321
 20
164.7466999999998
 30
0.0
 11
40.567321
 21
175.762112
 31
0.0
  0
LINE
  5
C8B7
330
C71A
100
AcDbEntity
  8
1
  6
Continuous
100
AcDbLine
 10
57.567321
 20
164.7466999999998
 30
0.0
 11
57.567321
 21
175.762112
 31
0.0
  0
CIRCLE
  5
C8B8
330
C71A
100
AcDbEntity
  8
1
  6
Continuous
100
AcDbCircle
 10
388.799595
 20
155.2080319999998
 30
0.0
 40
21.0
  0
CIRCLE
  5
C8B9
330
C71A
100
AcDbEntity
  8
1
  6
Continuous
100
AcDbCircle
 10
388.799595
 20
155.2080319999998
 30
0.0
 40
19.5
  0
CIRCLE
  5
C8BA
330
C71A
100
AcDbEntity
  8
1
  6
Continuous
100
AcDbCircle
 10
388.799595
 20
155.2080319999998
 30
0.0
 40
25.0
  0
CIRCLE
  5
C8BB
330
C71A
100
AcDbEntity
  8
1
  6
Continuous
100
AcDbCircle
 10
388.799595
 20
155.2080319999998
 30
0.0
 40
15.09999999999999
  0
CIRCLE
  5
C8BC
330
C71A
100
AcDbEntity
  8
1
  6
Continuous
100
AcDbCircle
 10
388.799595
 20
155.2080319999998
 30
0.0
 40
17.0
  0
LINE
  5
C8BD
330
C71A
100
AcDbEntity
  8
1
  6
Continuous
100
AcDbLine
 10
363.2442249999999
 20
180.7667539999999
 30
0.0
 11
361.393011
 21
149.296115
 31
0.0
  0
LINE
  5
C8BE
330
C71A
100
AcDbEntity
  8
4
  6
CENTER
100
AcDbLine
 10
388.799595
 20
125.208032
 30
0.0
 11
388.799595
 21
185.2080319999998
 31
0.0
  0
LINE
  5
C8BF
330
C71A
100
AcDbEntity
  8
4
  6
CENTER
100
AcDbLine
 10
371.799595
 20
142.7284649999998
 30
0.0
 11
371.799595
 21
211.7080319999999
 31
0.0
  0
LINE
  5
C8C0
330
C71A
100
AcDbEntity
  8
4
  6
CENTER
100
AcDbLine
 10
358.799595
 20
155.2080319999998
 30
0.0
 11
418.799595
 21
155.2080319999998
 31
0.0
  0
LINE
  5
C8C1
330
C71A
100
AcDbEntity
  8
1
  6
Continuous
100
AcDbLine
 10
362.8904229999998
 20
147.7080319999998
 30
0.0
 11
364.951115
 21
147.7080319999998
 31
0.0
  0
ARC
  5
C8C2
330
C71A
100
AcDbEntity
  8
1
  6
Continuous
100
AcDbCircle
 10
362.8904229999998
 20
149.208032
 30
0.0
 40
1.5
100
AcDbArc
 50
176.6335389999999
 51
270.0
  0
LINE
  5
C8C3
330
C71A
100
AcDbEntity
  8
1
  6
Continuous
100
AcDbLine
 10
380.799595
 20
187.708032
 30
0.0
 11
362.799595
 21
187.708032
 31
0.0
  0
LINE
  5
C8C4
330
C71A
100
AcDbEntity
  8
1
  6
Continuous
100
AcDbLine
 10
362.799595
 20
181.708032
 30
0.0
 11
380.799595
 21
181.708032
 31
0.0
  0
ARC
  5
C8C5
330
C71A
100
AcDbEntity
  8
1
  6
Continuous
100
AcDbCircle
 10
383.562472
 20
181.3193929999999
 30
0.0
 40
3.319657999999998
100
AcDbArc
 50
190.6123889999999
 51
223.93682
  0
ARC
  5
C8C6
330
C71A
100
AcDbEntity
  8
1
  6
Continuous
100
AcDbCircle
 10
378.1538429999998
 20
184.708032
 30
0.0
 40
4.0
100
AcDbArc
 50
311.409622
 51
48.590378
  0
ARC
  5
C8C7
330
C71A
100
AcDbEntity
  8
1
  6
Continuous
100
AcDbCircle
 10
379.299595
 20
180.708032
 30
0.0
 40
1.0
100
AcDbArc
 50
0.0
 51
90.0
  0
ARC
  5
C8C8
330
C71A
100
AcDbEntity
  8
1
  6
Continuous
100
AcDbCircle
 10
365.4453459999999
 20
184.708032
 30
0.0
 40
4.0
100
AcDbArc
 50
131.4096219999999
 51
228.5903779999999
  0
ARC
  5
C8C9
330
C71A
100
AcDbEntity
  8
1
  6
Continuous
100
AcDbCircle
 10
364.2425
 20
180.708032
 30
0.0
 40
1.0
100
AcDbArc
 50
90.0
 51
176.6335389999999
  0
ARC
  5
C8CA
330
C71A
100
AcDbEntity
  8
1
  6
Continuous
100
AcDbCircle
 10
371.4873059999998
 20
184.708032
 30
0.0
 40
4.0
100
AcDbArc
 50
131.4096219999999
 51
228.5903779999999
  0
ARC
  5
C8CB
330
C71A
100
AcDbEntity
  8
1
  6
Continuous
100
AcDbCircle
 10
372.1118829999999
 20
184.708032
 30
0.0
 40
4.0
100
AcDbArc
 50
311.409622
 51
48.590378
  0
LINE
  5
C8CC
330
C71A
100
AcDbEntity
  8
1
  6
Continuous
100
AcDbLine
 10
53.067321
 20
139.708032
 30
0.0
 11
45.06732099999999
 21
139.708032
 31
0.0
  0
ARC
  5
C8CD
330
C71A
100
AcDbEntity
  8
1
  6
Continuous
100
AcDbCircle
 10
47.06732099999999
 20
142.608032
 30
0.0
 40
2.9
100
AcDbArc
 50
226.397181
 51
313.602819
  0
LINE
  5
C8CE
330
C71A
100
AcDbEntity
  8
1
  6
Continuous
100
AcDbLine
 10
48.067321
 20
145.5080319999999
 30
0.0
 11
42.867321
 21
145.5080319999999
 31
0.0
  0
LINE
  5
C8CF
330
C71A
100
AcDbEntity
  8
1
  6
Continuous
100
AcDbLine
 10
55.267321
 20
144.0080319999999
 30
0.0
 11
42.867321
 21
144.0080319999999
 31
0.0
  0
LINE
  5
C8D0
330
C71A
100
AcDbEntity
  8
1
  6
Continuous
100
AcDbLine
 10
45.06732099999999
 20
144.0080319999999
 30
0.0
 11
45.06732099999999
 21
139.708032
 31
0.0
  0
LINE
  5
C8D1
330
C71A
100
AcDbEntity
  8
1
  6
Continuous
100
AcDbLine
 10
42.867321
 20
145.5080319999999
 30
0.0
 11
42.867321
 21
144.0080319999999
 31
0.0
  0
LINE
  5
C8D2
330
C71A
100
AcDbEntity
  8
1
  6
Continuous
100
AcDbLine
 10
53.067321
 20
144.0080319999999
 30
0.0
 11
53.067321
 21
139.708032
 31
0.0
  0
LINE
  5
C8D3
330
C71A
100
AcDbEntity
  8
1
  6
Continuous
100
AcDbLine
 10
49.067321
 20
144.0080319999999
 30
0.0
 11
49.067321
 21
140.5080319999999
 31
0.0
  0
ARC
  5
C8D4
330
C71A
100
AcDbEntity
  8
1
  6
Continuous
100
AcDbCircle
 10
51.067321
 20
142.608032
 30
0.0
 40
2.9
100
AcDbArc
 50
226.397181
 51
313.602819
  0
LINE
  5
C8D5
330
C71A
100
AcDbEntity
  8
1
  6
Continuous
100
AcDbLine
 10
50.067321
 20
145.5080319999999
 30
0.0
 11
50.067321
 21
144.0080319999999
 31
0.0
  0
LINE
  5
C8D6
330
C71A
100
AcDbEntity
  8
1
  6
Continuous
100
AcDbLine
 10
48.067321
 20
145.5080319999999
 30
0.0
 11
48.067321
 21
144.0080319999999
 31
0.0
  0
LINE
  5
C8D7
330
C71A
100
AcDbEntity
  8
1
  6
Continuous
100
AcDbLine
 10
55.267321
 20
145.5080319999999
 30
0.0
 11
55.267321
 21
144.0080319999999
 31
0.0
  0
LINE
  5
C8D8
330
C71A
100
AcDbEntity
  8
1
  6
Continuous
100
AcDbLine
 10
55.267321
 20
145.5080319999999
 30
0.0
 11
50.067321
 21
145.5080319999999
 31
0.0
  0
LINE
  5
C8D9
330
C71A
100
AcDbEntity
  8
1
  6
Continuous
100
AcDbLine
 10
46.067321
 20
147.7080319999998
 30
0.0
 11
46.067321
 21
145.5080319999999
 31
0.0
  0
LINE
  5
C8DA
330
C71A
100
AcDbEntity
  8
1
  6
Continuous
100
AcDbLine
 10
52.06732099999999
 20
147.7080319999998
 30
0.0
 11
52.06732099999999
 21
145.5080319999999
 31
0.0
  0
LINE
  5
C8DB
330
C71A
100
AcDbEntity
  8
1
  6
Continuous
100
AcDbLine
 10
272.893012
 20
139.708032
 30
0.0
 11
280.8930119999999
 21
139.708032
 31
0.0
  0
ARC
  5
C8DC
330
C71A
100
AcDbEntity
  8
1
  6
Continuous
100
AcDbCircle
 10
278.8930119999998
 20
142.608032
 30
0.0
 40
2.9
100
AcDbArc
 50
226.397181
 51
313.602819
  0
LINE
  5
C8DD
330
C71A
100
AcDbEntity
  8
1
  6
Continuous
100
AcDbLine
 10
277.893012
 20
145.5080319999999
 30
0.0
 11
283.093012
 21
145.5080319999999
 31
0.0
  0
LINE
  5
C8DE
330
C71A
100
AcDbEntity
  8
1
  6
Continuous
100
AcDbLine
 10
270.6930119999999
 20
144.0080319999999
 30
0.0
 11
283.093012
 21
144.0080319999999
 31
0.0
  0
LINE
  5
C8DF
330
C71A
100
AcDbEntity
  8
1
  6
Continuous
100
AcDbLine
 10
280.8930119999999
 20
144.0080319999999
 30
0.0
 11
280.8930119999999
 21
139.708032
 31
0.0
  0
LINE
  5
C8E0
330
C71A
100
AcDbEntity
  8
1
  6
Continuous
100
AcDbLine
 10
283.093012
 20
145.5080319999999
 30
0.0
 11
283.093012
 21
144.0080319999999
 31
0.0
  0
LINE
  5
C8E1
330
C71A
100
AcDbEntity
  8
1
  6
Continuous
100
AcDbLine
 10
272.893012
 20
144.0080319999999
 30
0.0
 11
272.893012
 21
139.708032
 31
0.0
  0
LINE
  5
C8E2
330
C71A
100
AcDbEntity
  8
1
  6
Continuous
100
AcDbLine
 10
276.8930119999998
 20
144.0080319999999
 30
0.0
 11
276.8930119999998
 21
140.5080319999999
 31
0.0
  0
ARC
  5
C8E3
330
C71A
100
AcDbEntity
  8
1
  6
Continuous
100
AcDbCircle
 10
274.893012
 20
142.608032
 30
0.0
 40
2.9
100
AcDbArc
 50
226.397181
 51
313.602819
  0
LINE
  5
C8E4
330
C71A
100
AcDbEntity
  8
1
  6
Continuous
100
AcDbLine
 10
275.893012
 20
145.5080319999999
 30
0.0
 11
275.893012
 21
144.0080319999999
 31
0.0
  0
LINE
  5
C8E5
330
C71A
100
AcDbEntity
  8
1
  6
Continuous
100
AcDbLine
 10
277.893012
 20
145.5080319999999
 30
0.0
 11
277.893012
 21
144.0080319999999
 31
0.0
  0
LINE
  5
C8E6
330
C71A
100
AcDbEntity
  8
1
  6
Continuous
100
AcDbLine
 10
270.6930119999999
 20
145.5080319999999
 30
0.0
 11
270.6930119999999
 21
144.0080319999999
 31
0.0
  0
LINE
  5
C8E7
330
C71A
100
AcDbEntity
  8
1
  6
Continuous
100
AcDbLine
 10
270.6930119999999
 20
145.5080319999999
 30
0.0
 11
275.893012
 21
145.5080319999999
 31
0.0
  0
LINE
  5
C8E8
330
C71A
100
AcDbEntity
  8
1
  6
Continuous
100
AcDbLine
 10
279.893012
 20
147.7080319999998
 30
0.0
 11
279.893012
 21
145.5080319999999
 31
0.0
  0
LINE
  5
C8E9
330
C71A
100
AcDbEntity
  8
1
  6
Continuous
100
AcDbLine
 10
273.893012
 20
147.7080319999998
 30
0.0
 11
273.893012
 21
145.5080319999999
 31
0.0
  0
ARC
  5
C8EA
330
C71A
100
AcDbEntity
  8
1
  6
Continuous
100
AcDbCircle
 10
181.986428
 20
65.70803199999999
 30
0.0
 40
6.2
100
AcDbArc
 50
15.257523
 51
344.742477
  0
ARC
  5
C8EB
330
C71A
100
AcDbEntity
  8
1
  6
Continuous
100
AcDbCircle
 10
187.4855189999999
 20
67.20803199999997
 30
0.0
 40
0.5
100
AcDbArc
 50
270.0
 51
15.257523
  0
ARC
  5
C8EC
330
C71A
100
AcDbEntity
  8
1
  6
Continuous
100
AcDbCircle
 10
187.4855189999999
 20
64.20803199999999
 30
0.0
 40
0.5
100
AcDbArc
 50
344.742477
 51
90.0
  0
LINE
  5
C8ED
330
C71A
100
AcDbEntity
  8
1
  6
Continuous
100
AcDbLine
 10
54.717321
 20
162.5466999999999
 30
0.0
 11
58.067321
 21
162.5466999999999
 31
0.0
  0
LINE
  5
C8EE
330
C71A
100
AcDbEntity
  8
1
  6
Continuous
100
AcDbLine
 10
43.417321
 20
165.2467
 30
0.0
 11
54.717321
 21
165.2467
 31
0.0
  0
CIRCLE
  5
C8EF
330
C71A
100
AcDbEntity
  8
1
  6
Continuous
100
AcDbCircle
 10
181.986428
 20
266.208032
 30
0.0
 40
4.0
  0
CIRCLE
  5
C8F0
330
C71A
100
AcDbEntity
  8
2
  6
Continuous
100
AcDbCircle
 10
181.986428
 20
266.208032
 30
0.0
 40
5.052999999999999
  0
CIRCLE
  5
C8F1
330
C71A
100
AcDbEntity
  8
1
  6
Continuous
100
AcDbCircle
 10
181.986428
 20
266.208032
 30
0.0
 40
6.0
  0
LINE
  5
C8F2
330
C71A
100
AcDbEntity
  8
1
  6
Continuous
100
AcDbLine
 10
53.067321
 20
201.708032
 30
0.0
 11
55.067321
 21
199.708032
 31
0.0
  0
LINE
  5
C8F3
330
C71A
100
AcDbEntity
  8
1
  6
Continuous
100
AcDbLine
 10
45.06732099999999
 20
201.708032
 30
0.0
 11
43.067321
 21
199.708032
 31
0.0
  0
LINE
  5
C8F4
330
C71A
100
AcDbEntity
  8
1
  6
Continuous
100
AcDbLine
 10
43.067321
 20
199.708032
 30
0.0
 11
55.067321
 21
199.708032
 31
0.0
  0
LINE
  5
C8F5
330
C71A
100
AcDbEntity
  8
1
  6
Continuous
100
AcDbLine
 10
43.067321
 20
187.708032
 30
0.0
 11
43.067321
 21
199.708032
 31
0.0
  0
LINE
  5
C8F6
330
C71A
100
AcDbEntity
  8
1
  6
Continuous
100
AcDbLine
 10
55.067321
 20
199.708032
 30
0.0
 11
55.067321
 21
187.708032
 31
0.0
  0
LINE
  5
C8F7
330
C71A
100
AcDbEntity
  8
1
  6
Continuous
100
AcDbLine
 10
45.06732099999999
 20
201.708032
 30
0.0
 11
53.067321
 21
201.708032
 31
0.0
  0
LINE
  5
C8F8
330
C71A
100
AcDbEntity
  8
1
  6
Continuous
100
AcDbLine
 10
185.986428
 20
201.708032
 30
0.0
 11
187.9864279999999
 21
199.708032
 31
0.0
  0
LINE
  5
C8F9
330
C71A
100
AcDbEntity
  8
1
  6
Continuous
100
AcDbLine
 10
177.9864279999999
 20
201.708032
 30
0.0
 11
175.9864279999999
 21
199.708032
 31
0.0
  0
LINE
  5
C8FA
330
C71A
100
AcDbEntity
  8
1
  6
Continuous
100
AcDbLine
 10
175.9864279999999
 20
199.708032
 30
0.0
 11
187.9864279999999
 21
199.708032
 31
0.0
  0
LINE
  5
C8FB
330
C71A
100
AcDbEntity
  8
1
  6
Continuous
100
AcDbLine
 10
175.9864279999999
 20
187.708032
 30
0.0
 11
175.9864279999999
 21
199.708032
 31
0.0
  0
LINE
  5
C8FC
330
C71A
100
AcDbEntity
  8
1
  6
Continuous
100
AcDbLine
 10
187.9864279999999
 20
199.708032
 30
0.0
 11
187.9864279999999
 21
187.708032
 31
0.0
  0
LINE
  5
C8FD
330
C71A
100
AcDbEntity
  8
1
  6
Continuous
100
AcDbLine
 10
177.9864279999999
 20
201.708032
 30
0.0
 11
185.986428
 21
201.708032
 31
0.0
  0
LINE
  5
C8FE
330
C71A
100
AcDbEntity
  8
1
  6
Continuous
100
AcDbLine
 10
280.8930119999999
 20
201.708032
 30
0.0
 11
282.8930119999998
 21
199.708032
 31
0.0
  0
LINE
  5
C8FF
330
C71A
100
AcDbEntity
  8
1
  6
Continuous
100
AcDbLine
 10
272.893012
 20
201.708032
 30
0.0
 11
270.893012
 21
199.708032
 31
0.0
  0
LINE
  5
C900
330
C71A
100
AcDbEntity
  8
1
  6
Continuous
100
AcDbLine
 10
270.893012
 20
199.708032
 30
0.0
 11
282.8930119999998
 21
199.708032
 31
0.0
  0
LINE
  5
C901
330
C71A
100
AcDbEntity
  8
1
  6
Continuous
100
AcDbLine
 10
270.893012
 20
187.708032
 30
0.0
 11
270.893012
 21
199.708032
 31
0.0
  0
LINE
  5
C902
330
C71A
100
AcDbEntity
  8
1
  6
Continuous
100
AcDbLine
 10
282.8930119999998
 20
199.708032
 30
0.0
 11
282.8930119999998
 21
187.708032
 31
0.0
  0
LINE
  5
C903
330
C71A
100
AcDbEntity
  8
1
  6
Continuous
100
AcDbLine
 10
272.893012
 20
201.708032
 30
0.0
 11
280.8930119999999
 21
201.708032
 31
0.0
  0
LINE
  5
C904
330
C71A
100
AcDbEntity
  8
2
  6
Continuous
100
AcDbLine
 10
366.746595
 20
189.348284
 30
0.0
 11
366.746595
 21
200.655032
 31
0.0
  0
LINE
  5
C905
330
C71A
100
AcDbEntity
  8
2
  6
Continuous
100
AcDbLine
 10
376.852595
 20
189.348284
 30
0.0
 11
376.852595
 21
200.655032
 31
0.0
  0
LINE
  5
C906
330
C71A
100
AcDbEntity
  8
1
  6
Continuous
100
AcDbLine
 10
375.799595
 20
201.708032
 30
0.0
 11
377.799595
 21
199.708032
 31
0.0
  0
LINE
  5
C907
330
C71A
100
AcDbEntity
  8
1
  6
Continuous
100
AcDbLine
 10
367.799595
 20
201.708032
 30
0.0
 11
365.799595
 21
199.708032
 31
0.0
  0
LINE
  5
C908
330
C71A
100
AcDbEntity
  8
1
  6
Continuous
100
AcDbLine
 10
365.799595
 20
199.708032
 30
0.0
 11
377.799595
 21
199.708032
 31
0.0
  0
LINE
  5
C909
330
C71A
100
AcDbEntity
  8
1
  6
Continuous
100
AcDbLine
 10
365.799595
 20
187.708032
 30
0.0
 11
365.799595
 21
199.708032
 31
0.0
  0
LINE
  5
C90A
330
C71A
100
AcDbEntity
  8
1
  6
Continuous
100
AcDbLine
 10
377.799595
 20
199.708032
 30
0.0
 11
377.799595
 21
187.708032
 31
0.0
  0
LINE
  5
C90B
330
C71A
100
AcDbEntity
  8
1
  6
Continuous
100
AcDbLine
 10
367.799595
 20
201.708032
 30
0.0
 11
375.799595
 21
201.708032
 31
0.0
  0
LINE
  5
C90C
330
C71A
100
AcDbEntity
  8
1
  6
Continuous
100
AcDbLine
 10
42.06732099999999
 20
177.262112
 30
0.0
 11
56.067321
 21
177.262112
 31
0.0
  0
ARC
  5
C90D
330
C71A
100
AcDbEntity
  8
1
  6
Continuous
100
AcDbCircle
 10
56.067321
 20
175.762112
 30
0.0
 40
1.5
100
AcDbArc
 50
0.0
 51
90.0
  0
ARC
  5
C90E
330
C71A
100
AcDbEntity
  8
1
  6
Continuous
100
AcDbCircle
 10
54.877513
 20
176.5382389999999
 30
0.0
 40
3.0
100
AcDbArc
 50
283.2933059999998
 51
333.715039
  0
LINE
  5
C90F
330
C71A
100
AcDbEntity
  8
1
  6
Continuous
100
AcDbLine
 10
55.567321
 20
173.618622
 30
0.0
 11
42.56732099999999
 21
173.618622
 31
0.0
  0
ARC
  5
C910
330
C71A
100
AcDbEntity
  8
1
  6
Continuous
100
AcDbCircle
 10
43.257129
 20
176.5382389999999
 30
0.0
 40
3.0
100
AcDbArc
 50
206.284961
 51
256.7066939999999
  0
ARC
  5
C911
330
C71A
100
AcDbEntity
  8
1
  6
Continuous
100
AcDbCircle
 10
42.06732099999999
 20
175.762112
 30
0.0
 40
1.5
100
AcDbArc
 50
90.0
 51
180.0
  0
ARC
  5
C912
330
C71A
100
AcDbEntity
  8
1
  6
Continuous
100
AcDbCircle
 10
42.56732099999999
 20
172.047798
 30
0.0
 40
0.5
100
AcDbArc
 50
180.0
 51
270.0
  0
LINE
  5
C913
330
C71A
100
AcDbEntity
  8
1
  6
Continuous
100
AcDbLine
 10
42.06732099999999
 20
173.1186219999999
 30
0.0
 11
42.06732099999999
 21
171.9466999999999
 31
0.0
  0
ARC
  5
C914
330
C71A
100
AcDbEntity
  8
1
  6
Continuous
100
AcDbCircle
 10
42.56732099999999
 20
173.1186219999999
 30
0.0
 40
0.5
100
AcDbArc
 50
90.0
 51
180.0
  0
ARC
  5
C915
330
C71A
100
AcDbEntity
  8
1
  6
Continuous
100
AcDbCircle
 10
43.257129
 20
174.4674149999999
 30
0.0
 40
3.0
100
AcDbArc
 50
206.284961
 51
251.4687099999999
  0
LINE
  5
C916
330
C71A
100
AcDbEntity
  8
1
  6
Continuous
100
AcDbLine
 10
42.56732099999999
 20
171.547798
 30
0.0
 11
55.567321
 21
171.547798
 31
0.0
  0
ARC
  5
C917
330
C71A
100
AcDbEntity
  8
1
  6
Continuous
100
AcDbCircle
 10
55.567321
 20
172.047798
 30
0.0
 40
0.5
100
AcDbArc
 50
270.0
 51
0.0
  0
ARC
  5
C918
330
C71A
100
AcDbEntity
  8
1
  6
Continuous
100
AcDbCircle
 10
55.567321
 20
173.1186219999999
 30
0.0
 40
0.5
100
AcDbArc
 50
0.0
 51
90.0
  0
ARC
  5
C919
330
C71A
100
AcDbEntity
  8
1
  6
Continuous
100
AcDbCircle
 10
54.877513
 20
174.4674149999999
 30
0.0
 40
3.0
100
AcDbArc
 50
288.53129
 51
333.715039
  0
LINE
  5
C91A
330
C71A
100
AcDbEntity
  8
1
  6
Continuous
100
AcDbLine
 10
56.067321
 20
173.1186219999999
 30
0.0
 11
56.067321
 21
171.9466999999999
 31
0.0
  0
LINE
  5
C91B
330
C71A
100
AcDbEntity
  8
1
  6
Continuous
100
AcDbLine
 10
58.067321
 20
172.476432
 30
0.0
 11
57.567321
 21
172.476432
 31
0.0
  0
LINE
  5
C91C
330
C71A
100
AcDbEntity
  8
1
  6
Continuous
100
AcDbLine
 10
40.567321
 20
172.476432
 30
0.0
 11
40.06732099999999
 21
172.476432
 31
0.0
  0
LINE
  5
C91D
330
C71A
100
AcDbEntity
  8
2
  6
Continuous
100
AcDbLine
 10
366.746595
 20
189.348284
 30
0.0
 11
365.799595
 21
187.708032
 31
0.0
  0
LINE
  5
C91E
330
C71A
100
AcDbEntity
  8
2
  6
Continuous
100
AcDbLine
 10
376.852595
 20
189.348284
 30
0.0
 11
377.799595
 21
187.708032
 31
0.0
  0
LINE
  5
C91F
330
C71A
100
AcDbEntity
  8
1
  6
Continuous
100
AcDbLine
 10
365.799595
 20
189.348284
 30
0.0
 11
377.799595
 21
189.348284
 31
0.0
  0
LINE
  5
C920
330
C71A
100
AcDbEntity
  8
2
  6
Continuous
100
AcDbLine
 10
271.840012
 20
189.348284
 30
0.0
 11
271.840012
 21
200.655032
 31
0.0
  0
LINE
  5
C921
330
C71A
100
AcDbEntity
  8
1
  6
Continuous
100
AcDbLine
 10
270.893012
 20
189.348284
 30
0.0
 11
282.8930119999998
 21
189.348284
 31
0.0
  0
LINE
  5
C922
330
C71A
100
AcDbEntity
  8
2
  6
Continuous
100
AcDbLine
 10
271.840012
 20
189.348284
 30
0.0
 11
270.893012
 21
187.708032
 31
0.0
  0
LINE
  5
C923
330
C71A
100
AcDbEntity
  8
2
  6
Continuous
100
AcDbLine
 10
281.946012
 20
189.348284
 30
0.0
 11
282.8930119999998
 21
187.708032
 31
0.0
  0
LINE
  5
C924
330
C71A
100
AcDbEntity
  8
2
  6
Continuous
100
AcDbLine
 10
281.946012
 20
189.348284
 30
0.0
 11
281.946012
 21
200.655032
 31
0.0
  0
LINE
  5
C925
330
C71A
100
AcDbEntity
  8
2
  6
Continuous
100
AcDbLine
 10
176.9334279999999
 20
189.348284
 30
0.0
 11
176.9334279999999
 21
200.655032
 31
0.0
  0
LINE
  5
C926
330
C71A
100
AcDbEntity
  8
2
  6
Continuous
100
AcDbLine
 10
176.9334279999999
 20
189.348284
 30
0.0
 11
175.9864279999999
 21
187.708032
 31
0.0
  0
LINE
  5
C927
330
C71A
100
AcDbEntity
  8
1
  6
Continuous
100
AcDbLine
 10
175.9864279999999
 20
189.348284
 30
0.0
 11
187.9864279999999
 21
189.348284
 31
0.0
  0
LINE
  5
C928
330
C71A
100
AcDbEntity
  8
2
  6
Continuous
100
AcDbLine
 10
187.039428
 20
189.348284
 30
0.0
 11
187.039428
 21
200.655032
 31
0.0
  0
LINE
  5
C929
330
C71A
100
AcDbEntity
  8
2
  6
Continuous
100
AcDbLine
 10
187.039428
 20
189.348284
 30
0.0
 11
187.9864279999999
 21
187.708032
 31
0.0
  0
LINE
  5
C92A
330
C71A
100
AcDbEntity
  8
2
  6
Continuous
100
AcDbLine
 10
54.120321
 20
189.348284
 30
0.0
 11
54.120321
 21
200.655032
 31
0.0
  0
LINE
  5
C92B
330
C71A
100
AcDbEntity
  8
2
  6
Continuous
100
AcDbLine
 10
54.120321
 20
189.348284
 30
0.0
 11
55.067321
 21
187.708032
 31
0.0
  0
LINE
  5
C92C
330
C71A
100
AcDbEntity
  8
1
  6
Continuous
100
AcDbLine
 10
43.067321
 20
189.348284
 30
0.0
 11
55.067321
 21
189.348284
 31
0.0
  0
LINE
  5
C92D
330
C71A
100
AcDbEntity
  8
2
  6
Continuous
100
AcDbLine
 10
44.014321
 20
189.348284
 30
0.0
 11
44.014321
 21
200.655032
 31
0.0
  0
LINE
  5
C92E
330
C71A
100
AcDbEntity
  8
2
  6
Continuous
100
AcDbLine
 10
44.014321
 20
189.348284
 30
0.0
 11
43.067321
 21
187.708032
 31
0.0
  0
ARC
  5
C92F
330
C71A
100
AcDbEntity
  8
1
  6
Continuous
100
AcDbCircle
 10
133.767629
 20
171.83067
 30
0.0
 40
0.3
100
AcDbArc
 50
224.19752
 51
261.827852
  0
ARC
  5
C930
330
C71A
100
AcDbEntity
  8
1
  6
Continuous
100
AcDbCircle
 10
133.3136169999999
 20
173.318622
 30
0.0
 40
0.3
100
AcDbArc
 50
80.387876
 51
169.739044
  0
ARC
  5
C931
330
C71A
100
AcDbEntity
  8
5
  6
PHANTOM
100
AcDbCircle
 10
137.7146879999999
 20
155.1777899999999
 30
0.0
 40
0.3
100
AcDbArc
 50
166.387876
 51
255.739044
  0
ARC
  5
C932
330
C71A
100
AcDbEntity
  8
5
  6
PHANTOM
100
AcDbCircle
 10
138.133464
 20
156.825403
 30
0.0
 40
2.0
100
AcDbArc
 50
255.739044
 51
310.19752
  0
ARC
  5
C933
330
C71A
100
AcDbEntity
  8
5
  6
PHANTOM
100
AcDbCircle
 10
112.1534229999999
 20
161.367437
 30
0.0
 40
26.0
100
AcDbArc
 50
346.387876
 51
28.067983
  0
ARC
  5
C934
330
C71A
100
AcDbEntity
  8
5
  6
PHANTOM
100
AcDbCircle
 10
139.2306859999999
 20
155.526902
 30
0.0
 40
0.3
100
AcDbArc
 50
310.19752
 51
347.8278519999999
  0
ARC
  5
C935
330
C71A
100
AcDbEntity
  8
1
  6
Continuous
100
AcDbCircle
 10
49.067321
 20
244.0306309999999
 30
0.0
 40
72.77570899999997
100
AcDbArc
 50
264.8402249999999
 51
275.159775
  0
ARC
  5
C936
330
C71A
100
AcDbEntity
  8
1
  6
Continuous
100
AcDbCircle
 10
416.0809009999998
 20
199.2493889999998
 30
0.0
 40
26.0
100
AcDbArc
 50
237.932017
 51
279.612124
  0
ARC
  5
C937
330
C71A
100
AcDbEntity
  8
1
  6
Continuous
100
AcDbCircle
 10
416.0809009999998
 20
199.2493889999998
 30
0.0
 40
28.0
100
AcDbArc
 50
249.7249609999999
 51
278.1721479999998
  0
ARC
  5
C938
330
C71A
100
AcDbEntity
  8
5
  6
PHANTOM
100
AcDbCircle
 10
408.911066
 20
167.974017
 30
0.0
 40
6.5
100
AcDbArc
 50
29.88603399999999
 51
106.051726
  0
ARC
  5
C939
330
C71A
100
AcDbEntity
  8
5
  6
PHANTOM
100
AcDbCircle
 10
414.5553379999998
 20
155.526902
 30
0.0
 40
0.3
100
AcDbArc
 50
192.172148
 51
229.8024799999998
  0
ARC
  5
C93A
330
C71A
100
AcDbEntity
  8
5
  6
PHANTOM
100
AcDbCircle
 10
441.6326
 20
161.367437
 30
0.0
 40
28.0
100
AcDbArc
 50
153.305936
 51
192.172148
  0
ARC
  5
C93B
330
C71A
100
AcDbEntity
  8
5
  6
PHANTOM
100
AcDbCircle
 10
415.65256
 20
156.825403
 30
0.0
 40
2.0
100
AcDbArc
 50
229.8024799999998
 51
284.260956
  0
ARC
  5
C93C
330
C71A
100
AcDbEntity
  8
5
  6
PHANTOM
100
AcDbCircle
 10
416.0713349999999
 20
155.1777899999999
 30
0.0
 40
0.3
100
AcDbArc
 50
284.260956
 51
13.612124
  0
ARC
  5
C93D
330
C71A
100
AcDbEntity
  8
5
  6
PHANTOM
100
AcDbCircle
 10
441.6326
 20
161.367437
 30
0.0
 40
26.0
100
AcDbArc
 50
151.932017
 51
193.612124
  0
ARC
  5
C93E
330
C71A
100
AcDbEntity
  8
1
  6
Continuous
100
AcDbCircle
 10
420.472407
 20
173.318622
 30
0.0
 40
0.3
100
AcDbArc
 50
10.260956
 51
99.612124
  0
ARC
  5
C93F
330
C71A
100
AcDbEntity
  8
1
  6
Continuous
100
AcDbCircle
 10
418.799595
 20
173.0157979999999
 30
0.0
 40
2.0
100
AcDbArc
 50
315.80248
 51
10.260956
  0
ARC
  5
C940
330
C71A
100
AcDbEntity
  8
1
  6
Continuous
100
AcDbCircle
 10
420.018395
 20
171.83067
 30
0.0
 40
0.3
100
AcDbArc
 50
278.1721479999998
 51
315.80248
  0
ARC
  5
C941
330
C71A
100
AcDbEntity
  8
5
  6
PHANTOM
100
AcDbCircle
 10
418.425745
 20
173.742084
 30
0.0
 40
0.3
100
AcDbArc
 50
331.9320169999999
 51
60.46147600000001
  0
ARC
  5
C942
330
C71A
100
AcDbEntity
  8
5
  6
PHANTOM
100
AcDbCircle
 10
416.884923
 20
173.81101
 30
0.0
 40
0.3
100
AcDbArc
 50
114.4158939999998
 51
153.305936
  0
ARC
  5
C943
330
C71A
100
AcDbEntity
  8
5
  6
PHANTOM
100
AcDbCircle
 10
417.5876299999996
 20
172.2630419999999
 30
0.0
 40
2.0
100
AcDbArc
 50
60.46147600000001
 51
114.4158939999998
  0
ARC
  5
C944
330
C71A
100
AcDbEntity
  8
5
  6
PHANTOM
100
AcDbCircle
 10
414.9801939999998
 20
171.461952
 30
0.0
 40
0.5
100
AcDbArc
 50
209.8860339999998
 51
339.2559759999999
  0
ARC
  5
C945
330
C71A
100
AcDbEntity
  8
1
  6
Continuous
100
AcDbCircle
 10
407.887484
 20
167.956183
 30
0.0
 40
5.0
100
AcDbArc
 50
322.3184199999999
 51
23.780841
  0
ARC
  5
C946
330
C71A
100
AcDbEntity
  8
5
  6
PHANTOM
100
AcDbCircle
 10
412.6406239999998
 20
162.0495709999999
 30
0.0
 40
1.0
100
AcDbArc
 50
358.652174
 51
95.792055
  0
ARC
  5
C947
330
C71A
100
AcDbEntity
  8
1
  6
Continuous
100
AcDbCircle
 10
413.3780509999998
 20
170.375619
 30
0.0
 40
1.0
100
AcDbArc
 50
84.652174
 51
203.7808409999999
  0
LINE
  5
C948
330
C71A
100
AcDbEntity
  8
5
  6
PHANTOM
100
AcDbLine
 10
407.113783
 20
174.220598
 30
0.0
 11
405.9635629999998
 21
173.3849139999999
 31
0.0
  0
ARC
  5
C949
330
C71A
100
AcDbEntity
  8
1
  6
Continuous
100
AcDbCircle
 10
403.5345449999998
 20
176.023031
 30
0.0
 40
2.0
100
AcDbArc
 50
146.461476
 51
161.4458579999999
  0
ARC
  5
C94A
330
C71A
100
AcDbEntity
  8
1
  6
Continuous
100
AcDbCircle
 10
402.1175699999998
 20
176.962276
 30
0.0
 40
0.3
100
AcDbArc
 50
57.932017
 51
146.461476
  0
ENDSEC
  0
SECTION
  2
OBJECTS
  0
DICTIONARY
  5
C708
330
0
100
AcDbDictionary
281
     1
  3
ACAD_CIP_PREVIOUS_PRODUCT_INFO
350
C9AC
  3
ACAD_COLOR
350
C98E
  3
ACAD_DETAILVIEWSTYLE
350
C9A7
  3
ACAD_GROUP
350
C709
  3
ACAD_LAYOUT
350
C715
  3
ACAD_MATERIAL
350
C95C
  3
ACAD_MLEADERSTYLE
350
C9A3
  3
ACAD_MLINESTYLE
350
C712
  3
ACAD_PLOTSETTINGS
350
C714
  3
ACAD_PLOTSTYLENAME
350
C95A
  3
ACAD_SCALELIST
350
C991
  3
ACAD_SECTIONVIEWSTYLE
350
C9A5
  3
ACAD_TABLESTYLE
350
C98F
  3
ACAD_VISUALSTYLE
350
C975
  3
ACDB_RECOMPOSE_DATA
350
CA11
  3
AcDbVariableDictionary
350
C9BF
  3
DWGPROPS
350
CA12
  0
DICTIONARY
  5
C9AF
330
C70C
100
AcDbDictionary
280
     1
281
     1
  3
ADSK_XREC_LAYER_RECONCILED
360
C9B0
  0
DICTIONARY
  5
C9B1
330
C722
100
AcDbDictionary
280
     1
281
     1
  3
ADSK_XREC_LAYER_RECONCILED
360
C9B2
  0
DICTIONARY
  5
C9B3
330
C723
100
AcDbDictionary
280
     1
281
     1
  3
ADSK_XREC_LAYER_RECONCILED
360
C9B4
  0
DICTIONARY
  5
C9B5
330
C724
100
AcDbDictionary
280
     1
281
     1
  3
ADSK_XREC_LAYER_RECONCILED
360
C9B6
  0
DICTIONARY
  5
C9B7
330
C725
100
AcDbDictionary
280
     1
281
     1
  3
ADSK_XREC_LAYER_RECONCILED
360
C9B8
  0
DICTIONARY
  5
C9B9
330
C726
100
AcDbDictionary
280
     1
281
     1
  3
ADSK_XREC_LAYER_RECONCILED
360
C9BA
  0
DICTIONARY
  5
C9BB
330
C727
100
AcDbDictionary
280
     1
281
     1
  3
ADSK_XREC_LAYER_RECONCILED
360
C9BC
  0
DICTIONARY
  5
C9BD
330
C728
100
AcDbDictionary
280
     1
281
     1
  3
ADSK_XREC_LAYER_RECONCILED
360
C9BE
  0
DICTIONARY
  5
C955
330
C71A
100
AcDbDictionary
281
     1
  3
ACAD_LAYOUTSELFREF
350
C956
  0
DICTIONARY
  5
C953
330
C716
100
AcDbDictionary
281
     1
  3
ACAD_LAYOUTSELFREF
350
C954
  0
XRECORD
  5
C9AC
102
{ACAD_REACTORS
330
C708
102
}
330
C708
100
AcDbXrecord
280
     1
300
ACDLT
300
2014
300
ACDLT_F_S
  0
DICTIONARY
  5
C98E
102
{ACAD_REACTORS
330
C708
102
}
330
C708
100
AcDbDictionary
281
     1
  0
DICTIONARY
  5
C9A7
102
{ACAD_REACTORS
330
C708
102
}
330
C708
100
AcDbDictionary
281
     1
  3
Imperial24
350
C9A8
  0
DICTIONARY
  5
C709
102
{ACAD_REACTORS
330
C708
102
}
330
C708
100
AcDbDictionary
281
     1
  0
DICTIONARY
  5
C715
102
{ACAD_REACTORS
330
C708
102
}
330
C708
100
AcDbDictionary
281
     1
  3
Model
350
C9A9
  3
レイアウト1
350
C9AA
  0
DICTIONARY
  5
C95C
102
{ACAD_REACTORS
330
C708
102
}
330
C708
100
AcDbDictionary
281
     1
  3
ByBlock
350
C965
  3
ByLayer
350
C95D
  3
Global
350
C96D
  0
DICTIONARY
  5
C9A3
102
{ACAD_REACTORS
330
C708
102
}
330
C708
100
AcDbDictionary
281
     1
  3
Standard
350
C9A4
  0
DICTIONARY
  5
C712
102
{ACAD_REACTORS
330
C708
102
}
330
C708
100
AcDbDictionary
281
     1
  3
STANDARD
350
C713
  0
DICTIONARY
  5
C714
102
{ACAD_REACTORS
330
C708
102
}
330
C708
100
AcDbDictionary
281
     1
  0
ACDBDICTIONARYWDFLT
  5
C95A
102
{ACAD_REACTORS
330
C708
102
}
330
C708
100
AcDbDictionary
281
     1
  3
Normal
350
C95B
100
AcDbDictionaryWithDefault
340
C95B
  0
DICTIONARY
  5
C991
102
{ACAD_REACTORS
330
C708
102
}
330
C708
100
AcDbDictionary
281
     1
  3
A0
350
C992
  3
A1
350
C993
  3
A2
350
C994
  3
A3
350
C995
  3
A4
350
C996
  3
A5
350
C997
  3
A6
350
C998
  3
A7
350
C999
  3
A8
350
C99A
  3
A9
350
C99B
  3
B0
350
C99C
  3
B1
350
C99D
  3
B2
350
C99E
  3
B3
350
C99F
  3
B4
350
C9A0
  3
B5
350
C9A1
  3
B6
350
C9A2
  0
DICTIONARY
  5
C9A5
102
{ACAD_REACTORS
330
C708
102
}
330
C708
100
AcDbDictionary
281
     1
  3
Imperial24
350
C9A6
  0
DICTIONARY
  5
C98F
102
{ACAD_REACTORS
330
C708
102
}
330
C708
100
AcDbDictionary
281
     1
  3
Standard
350
C990
  0
DICTIONARY
  5
C975
102
{ACAD_REACTORS
330
C708
102
}
330
C708
100
AcDbDictionary
281
     1
  3
2dWireframe
350
C97B
  3
Basic
350
C97A
  3
Brighten
350
C981
  3
ColorChange
350
C985
  3
Conceptual
350
C97E
  3
Dim
350
C980
  3
EdgeColorOff
350
C98D
  3
Facepattern
350
C984
  3
Flat
350
C976
  3
FlatWithEdges
350
C977
  3
Gouraud
350
C978
  3
GouraudWithEdges
350
C979
  3
Hidden
350
C97D
  3
JitterOff
350
C98B
  3
Linepattern
350
C983
  3
OverhangOff
350
C98C
  3
Realistic
350
C97F
  3
Shaded
350
C98A
  3
Shaded with edges
350
C989
  3
Shades of Gray
350
C986
  3
Sketchy
350
C987
  3
Thicken
350
C982
  3
Wireframe
350
C97C
  3
X-Ray
350
C988
  0
XRECORD
  5
CA11
102
{ACAD_REACTORS
330
C708
102
}
330
C708
100
AcDbXrecord
280
     1
 90
        1
330
C990
  0
DICTIONARY
  5
C9BF
102
{ACAD_REACTORS
330
C708
102
}
330
C708
100
AcDbDictionary
281
     1
  3
CANNOSCALE
350
C9C4
  3
CMLEADERSTYLE
350
C9C1
  3
CTABLESTYLE
350
C9C0
  3
CVIEWDETAILSTYLE
350
C9C2
  3
CVIEWSECTIONSTYLE
350
C9C3
  3
DIMASSOC
350
C9C7
  3
INDEXCTL
350
C9C6
  3
SORTENTS
350
C9C5
  3
XCLIPFRAME
350
CA0F
  0
XRECORD
  5
CA12
102
{ACAD_REACTORS
330
C708
102
}
330
C708
100
AcDbXrecord
280
     1
  1
DWGPROPS COOKIE
  2

  3

  4

  6

  7

  8
Yoshitsune
  9

300
=
301
=
302
=
303
=
304
=
305
=
306
=
307
=
308
=
309
=
 40
0.0031432638888889
 41
2451301.386065741
 42
2457192.692121053
  1

 90
        0
  0
XRECORD
  5
C9B0
102
{ACAD_REACTORS
330
C9AF
102
}
330
C9AF
100
AcDbXrecord
280
     1
290
     1
  0
XRECORD
  5
C9B2
102
{ACAD_REACTORS
330
C9B1
102
}
330
C9B1
100
AcDbXrecord
280
     1
290
     1
  0
XRECORD
  5
C9B4
102
{ACAD_REACTORS
330
C9B3
102
}
330
C9B3
100
AcDbXrecord
280
     1
290
     1
  0
XRECORD
  5
C9B6
102
{ACAD_REACTORS
330
C9B5
102
}
330
C9B5
100
AcDbXrecord
280
     1
290
     1
  0
XRECORD
  5
C9B8
102
{ACAD_REACTORS
330
C9B7
102
}
330
C9B7
100
AcDbXrecord
280
     1
290
     1
  0
XRECORD
  5
C9BA
102
{ACAD_REACTORS
330
C9B9
102
}
330
C9B9
100
AcDbXrecord
280
     1
290
     1
  0
XRECORD
  5
C9BC
102
{ACAD_REACTORS
330
C9BB
102
}
330
C9BB
100
AcDbXrecord
280
     1
290
     1
  0
XRECORD
  5
C9BE
102
{ACAD_REACTORS
330
C9BD
102
}
330
C9BD
100
AcDbXrecord
280
     1
290
     1
  0
XRECORD
  5
C956
102
{ACAD_REACTORS
330
C955
102
}
330
C955
100
AcDbXrecord
280
     1
340
C71A
  0
XRECORD
  5
C954
102
{ACAD_REACTORS
330
C953
102
}
330
C953
100
AcDbXrecord
280
     1
340
C716
  0
ACDBDETAILVIEWSTYLE
  5
C9A8
102
{ACAD_XDICTIONARY
360
CA46
102
}
102
{ACAD_REACTORS
330
C9A7
102
}
330
C9A7
100
AcDbModelDocViewStyle
 70
     0
  3
Imperial24
290
     0
100
AcDbDetailViewStyle
 70
     0
 71
     0
 90
        3
 71
     1
340
C70D
 40
0.24
340
0
 40
0.24
300

 40
0.36
280
     3
 71
     2
340
C711
 90
       25
 71
     3
340
C70D
 40
0.24
 90
        1
 40
0.75
 90
        1
300
%<\AcVar ViewType \f "%tc1">% %<\AcVar ViewDetailId>%\PSCALE %<\AcVar ViewScale \f "%sn">%
 71
     4
340
C711
 90
       25
340
C711
 90
       25
280
     0
  0
LAYOUT
  5
C9A9
102
{ACAD_XDICTIONARY
360
CA48
102
}
102
{ACAD_REACTORS
330
C715
102
}
330
C715
100
AcDbPlotSettings
  1

  2
Canon LBP9100C
  4

  6

 40
0.0
 41
0.0
 42
0.0
 43
0.0
 44
0.0
 45
0.0
 46
0.0
 47
0.0
 48
0.0
 49
0.0
140
0.0
141
0.0
142
1.0
143
1.0
 70
  1712
 72
     0
 73
     0
 74
     0
  7

 75
     0
147
1.0
148
0.0
149
0.0
100
AcDbLayout
  1
Model
 70
     1
 71
     0
 10
0.0
 20
0.0
 11
12.0
 21
9.0
 12
0.0
 22
0.0
 32
0.0
 14
0.0
 24
0.0
 34
0.0
 15
0.0
 25
0.0
 35
0.0
146
0.0
 13
0.0
 23
0.0
 33
0.0
 16
1.0
 26
0.0
 36
0.0
 17
0.0
 27
1.0
 37
0.0
 76
     0
330
C71A
331
C952
  0
LAYOUT
  5
C9AA
102
{ACAD_XDICTIONARY
360
CA4A
102
}
102
{ACAD_REACTORS
330
C715
102
}
330
C715
100
AcDbPlotSettings
  1

  2
Canon LBP9100C
  4

  6

 40
0.0
 41
0.0
 42
0.0
 43
0.0
 44
0.0
 45
0.0
 46
0.0
 47
0.0
 48
0.0
 49
0.0
140
0.0
141
0.0
142
1.0
143
1.0
 70
   688
 72
     0
 73
     0
 74
     5
  7

 75
    16
147
1.0
148
0.0
149
0.0
100
AcDbLayout
  1
レイアウト1
 70
     0
 71
     1
 10
0.0
 20
0.0
 11
420.0
 21
297.0
 12
0.0
 22
0.0
 32
0.0
 14
1.000000000000000E+20
 24
1.000000000000000E+20
 34
1.000000000000000E+20
 15
-1.000000000000000E+20
 25
-1.000000000000000E+20
 35
-1.000000000000000E+20
146
0.0
 13
0.0
 23
0.0
 33
0.0
 16
1.0
 26
0.0
 36
0.0
 17
0.0
 27
1.0
 37
0.0
 76
     0
330
C716
  0
MATERIAL
  5
C965
102
{ACAD_XDICTIONARY
360
C966
102
}
102
{ACAD_REACTORS
330
C95C
102
}
330
C95C
100
AcDbMaterial
  1
ByBlock
 72
     0
 43
0.0208333333333333
 43
0.0
 43
0.0
 43
0.0
 43
0.0
 43
0.0208333333333333
 43
0.0
 43
0.0
 43
0.0
 43
0.0
 43
1.0
 43
0.0
 43
0.0
 43
0.0
 43
0.0
 43
1.0
 77
     0
 47
0.0208333333333333
 47
0.0
 47
0.0
 47
0.0
 47
0.0
 47
0.0208333333333333
 47
0.0
 47
0.0
 47
0.0
 47
0.0
 47
1.0
 47
0.0
 47
0.0
 47
0.0
 47
0.0
 47
1.0
171
     0
 49
0.0208333333333333
 49
0.0
 49
0.0
 49
0.0
 49
0.0
 49
0.0208333333333333
 49
0.0
 49
0.0
 49
0.0
 49
0.0
 49
1.0
 49
0.0
 49
0.0
 49
0.0
 49
0.0
 49
1.0
175
     0
142
0.0208333333333333
142
0.0
142
0.0
142
0.0
142
0.0
142
0.0208333333333333
142
0.0
142
0.0
142
0.0
142
0.0
142
1.0
142
0.0
142
0.0
142
0.0
142
0.0
142
1.0
179
     0
144
0.0208333333333333
144
0.0
144
0.0
144
0.0
144
0.0
144
0.0208333333333333
144
0.0
144
0.0
144
0.0
144
0.0
144
1.0
144
0.0
144
0.0
144
0.0
144
0.0
144
1.0
147
0.0208333333333333
147
0.0
147
0.0
147
0.0
147
0.0
147
0.0208333333333333
147
0.0
147
0.0
147
0.0
147
0.0
147
1.0
147
0.0
147
0.0
147
0.0
147
0.0
147
1.0
  0
MATERIAL
  5
C95D
102
{ACAD_XDICTIONARY
360
C95E
102
}
102
{ACAD_REACTORS
330
C95C
102
}
330
C95C
100
AcDbMaterial
  1
ByLayer
 72
     0
 43
0.0208333333333333
 43
0.0
 43
0.0
 43
0.0
 43
0.0
 43
0.0208333333333333
 43
0.0
 43
0.0
 43
0.0
 43
0.0
 43
1.0
 43
0.0
 43
0.0
 43
0.0
 43
0.0
 43
1.0
 77
     0
 47
0.0208333333333333
 47
0.0
 47
0.0
 47
0.0
 47
0.0
 47
0.0208333333333333
 47
0.0
 47
0.0
 47
0.0
 47
0.0
 47
1.0
 47
0.0
 47
0.0
 47
0.0
 47
0.0
 47
1.0
171
     0
 49
0.0208333333333333
 49
0.0
 49
0.0
 49
0.0
 49
0.0
 49
0.0208333333333333
 49
0.0
 49
0.0
 49
0.0
 49
0.0
 49
1.0
 49
0.0
 49
0.0
 49
0.0
 49
0.0
 49
1.0
175
     0
142
0.0208333333333333
142
0.0
142
0.0
142
0.0
142
0.0
142
0.0208333333333333
142
0.0
142
0.0
142
0.0
142
0.0
142
1.0
142
0.0
142
0.0
142
0.0
142
0.0
142
1.0
179
     0
144
0.0208333333333333
144
0.0
144
0.0
144
0.0
144
0.0
144
0.0208333333333333
144
0.0
144
0.0
144
0.0
144
0.0
144
1.0
144
0.0
144
0.0
144
0.0
144
0.0
144
1.0
147
0.0208333333333333
147
0.0
147
0.0
147
0.0
147
0.0
147
0.0208333333333333
147
0.0
147
0.0
147
0.0
147
0.0
147
1.0
147
0.0
147
0.0
147
0.0
147
0.0
147
1.0
  0
MATERIAL
  5
C96D
102
{ACAD_XDICTIONARY
360
C96E
102
}
102
{ACAD_REACTORS
330
C95C
102
}
330
C95C
100
AcDbMaterial
  1
Global
 72
     0
 43
0.0208333333333333
 43
0.0
 43
0.0
 43
0.0
 43
0.0
 43
0.0208333333333333
 43
0.0
 43
0.0
 43
0.0
 43
0.0
 43
1.0
 43
0.0
 43
0.0
 43
0.0
 43
0.0
 43
1.0
 77
     0
 47
0.0208333333333333
 47
0.0
 47
0.0
 47
0.0
 47
0.0
 47
0.0208333333333333
 47
0.0
 47
0.0
 47
0.0
 47
0.0
 47
1.0
 47
0.0
 47
0.0
 47
0.0
 47
0.0
 47
1.0
171
     0
 49
0.0208333333333333
 49
0.0
 49
0.0
 49
0.0
 49
0.0
 49
0.0208333333333333
 49
0.0
 49
0.0
 49
0.0
 49
0.0
 49
1.0
 49
0.0
 49
0.0
 49
0.0
 49
0.0
 49
1.0
175
     0
142
0.0208333333333333
142
0.0
142
0.0
142
0.0
142
0.0
142
0.0208333333333333
142
0.0
142
0.0
142
0.0
142
0.0
142
1.0
142
0.0
142
0.0
142
0.0
142
0.0
142
1.0
179
     0
144
0.0208333333333333
144
0.0
144
0.0
144
0.0
144
0.0
144
0.0208333333333333
144
0.0
144
0.0
144
0.0
144
0.0
144
1.0
144
0.0
144
0.0
144
0.0
144
0.0
144
1.0
147
0.0208333333333333
147
0.0
147
0.0
147
0.0
147
0.0
147
0.0208333333333333
147
0.0
147
0.0
147
0.0
147
0.0
147
1.0
147
0.0
147
0.0
147
0.0
147
0.0
147
1.0
  0
MLEADERSTYLE
  5
C9A4
102
{ACAD_REACTORS
330
C9A3
102
}
330
C9A3
100
AcDbMLeaderStyle
170
     2
171
     1
172
     0
 90
        2
 40
0.0
 41
0.0
173
     1
 91
-1056964608
340
C70F
 92
       -2
290
     1
 42
0.09
291
     1
 43
0.36
  3
Standard
 44
0.18
300

342
C70D
174
     1
178
     6
175
     1
176
     0
 93
-1056964608
 45
0.18
292
     0
297
     0
 46
0.18
 94
-1056964608
 47
1.0
 49
1.0
140
1.0
293
     1
141
0.0
294
     1
177
     0
142
1.0
295
     0
296
     0
143
0.125
1001
ACAD_MLEADERVER
1070
     2
  0
MLINESTYLE
  5
C713
102
{ACAD_REACTORS
330
C712
102
}
330
C712
100
AcDbMlineStyle
  2
STANDARD
 70
     0
  3

 62
   256
 51
90.0
 52
90.0
 71
     2
 49
0.5
 62
   256
  6
BYLAYER
 49
-0.5
 62
   256
  6
BYLAYER
  0
ACDBPLACEHOLDER
  5
C95B
102
{ACAD_REACTORS
330
C95A
102
}
330
C95A
  0
SCALE
  5
C992
102
{ACAD_REACTORS
330
C991
102
}
330
C991
100
AcDbScale
 70
     0
300
1:1
140
1.0
141
1.0
290
     1
  0
SCALE
  5
C993
102
{ACAD_REACTORS
330
C991
102
}
330
C991
100
AcDbScale
 70
     0
300
1/128" = 1'-0"
140
0.0078125
141
12.0
290
     0
  0
SCALE
  5
C994
102
{ACAD_REACTORS
330
C991
102
}
330
C991
100
AcDbScale
 70
     0
300
1/64" = 1'-0"
140
0.015625
141
12.0
290
     0
  0
SCALE
  5
C995
102
{ACAD_REACTORS
330
C991
102
}
330
C991
100
AcDbScale
 70
     0
300
1/32" = 1'-0"
140
0.03125
141
12.0
290
     0
  0
SCALE
  5
C996
102
{ACAD_REACTORS
330
C991
102
}
330
C991
100
AcDbScale
 70
     0
300
1/16" = 1'-0"
140
0.0625
141
12.0
290
     0
  0
SCALE
  5
C997
102
{ACAD_REACTORS
330
C991
102
}
330
C991
100
AcDbScale
 70
     0
300
3/32" = 1'-0"
140
0.09375
141
12.0
290
     0
  0
SCALE
  5
C998
102
{ACAD_REACTORS
330
C991
102
}
330
C991
100
AcDbScale
 70
     0
300
1/8" = 1'-0"
140
0.125
141
12.0
290
     0
  0
SCALE
  5
C999
102
{ACAD_REACTORS
330
C991
102
}
330
C991
100
AcDbScale
 70
     0
300
3/16" = 1'-0"
140
0.1875
141
12.0
290
     0
  0
SCALE
  5
C99A
102
{ACAD_REACTORS
330
C991
102
}
330
C991
100
AcDbScale
 70
     0
300
1/4" = 1'-0"
140
0.25
141
12.0
290
     0
  0
SCALE
  5
C99B
102
{ACAD_REACTORS
330
C991
102
}
330
C991
100
AcDbScale
 70
     0
300
3/8" = 1'-0"
140
0.375
141
12.0
290
     0
  0
SCALE
  5
C99C
102
{ACAD_REACTORS
330
C991
102
}
330
C991
100
AcDbScale
 70
     0
300
1/2" = 1'-0"
140
0.5
141
12.0
290
     0
  0
SCALE
  5
C99D
102
{ACAD_REACTORS
330
C991
102
}
330
C991
100
AcDbScale
 70
     0
300
3/4" = 1'-0"
140
0.75
141
12.0
290
     0
  0
SCALE
  5
C99E
102
{ACAD_REACTORS
330
C991
102
}
330
C991
100
AcDbScale
 70
     0
300
1" = 1'-0"
140
1.0
141
12.0
290
     0
  0
SCALE
  5
C99F
102
{ACAD_REACTORS
330
C991
102
}
330
C991
100
AcDbScale
 70
     0
300
1-1/2" = 1'-0"
140
1.5
141
12.0
290
     0
  0
SCALE
  5
C9A0
102
{ACAD_REACTORS
330
C991
102
}
330
C991
100
AcDbScale
 70
     0
300
3" = 1'-0"
140
3.0
141
12.0
290
     0
  0
SCALE
  5
C9A1
102
{ACAD_REACTORS
330
C991
102
}
330
C991
100
AcDbScale
 70
     0
300
6" = 1'-0"
140
6.0
141
12.0
290
     0
  0
SCALE
  5
C9A2
102
{ACAD_REACTORS
330
C991
102
}
330
C991
100
AcDbScale
 70
     0
300
1'-0" = 1'-0"
140
12.0
141
12.0
290
     0
  0
ACDBSECTIONVIEWSTYLE
  5
C9A6
102
{ACAD_XDICTIONARY
360
CA44
102
}
102
{ACAD_REACTORS
330
C9A5
102
}
330
C9A5
100
AcDbModelDocViewStyle
 70
     0
  3
Imperial24
290
     0
100
AcDbSectionViewStyle
 70
     0
 71
     0
 90
       78
 71
     1
340
C70D
 40
0.24
340
0
340
0
 40
0.24
300
I, O, Q, S, X, Z
 40
0.48
 90
        3
 40
0.18
 90
        1
 71
     2
340
C711
 90
       25
340
C711
 90
       50
 40
0.24
 40
0.0
 40
0.24
 71
     3
340
C70D
 40
0.24
 90
        1
 40
0.75
 90
        1
300
%<\AcVar ViewType \f "%tc1">% %<\AcVar ViewSectionStartId>%-%<\AcVar ViewSectionEndId>%\PSCALE %<\AcVar ViewScale \f "%sn">%
 71
     4
300
ANSI31
 40
1.0
 90
        0
290
     0
290
     0
 90
        6
 40
0.0
 40
1.570796326794896
 40
0.2617993877991494
 40
1.308996938995747
 40
-0.2617993877991494
 40
1.832595714594045
  0
TABLESTYLE
  5
C990
102
{ACAD_XDICTIONARY
360
C9CA
102
}
102
{ACAD_REACTORS
330
C98F
102
}
330
C98F
100
AcDbTableStyle
  3
Standard
 70
     0
 71
     0
 40
0.06
 41
0.06
280
     0
281
     0
  7
STANDARD
140
0.18
170
     2
 62
     0
 63
     7
283
     0
274
    -2
284
     1
 64
     0
275
    -2
285
     1
 65
     0
276
    -2
286
     1
 66
     0
277
    -2
287
     1
 67
     0
278
    -2
288
     1
 68
     0
279
    -2
289
     1
 69
     0
  7
STANDARD
140
0.25
170
     5
 62
     0
 63
     7
283
     0
274
    -2
284
     1
 64
     0
275
    -2
285
     1
 65
     0
276
    -2
286
     1
 66
     0
277
    -2
287
     1
 67
     0
278
    -2
288
     1
 68
     0
279
    -2
289
     1
 69
     0
  7
STANDARD
140
0.18
170
     5
 62
     0
 63
     7
283
     0
274
    -2
284
     1
 64
     0
275
    -2
285
     1
 65
     0
276
    -2
286
     1
 66
     0
277
    -2
287
     1
 67
     0
278
    -2
288
     1
 68
     0
279
    -2
289
     1
 69
     0
  0
VISUALSTYLE
  5
C97B
102
{ACAD_XDICTIONARY
360
CA1D
102
}
102
{ACAD_REACTORS
330
C975
102
}
330
C975
100
AcDbVisualStyle
  2

 70
     4
 71
     0
 72
     2
 73
     0
 90
        0
 40
-0.6
 41
-30.0
 62
     5
 63
     7
 74
     1
 91
        4
 64
     7
 65
   257
 75
     1
175
     1
 42
1.0
 92
        0
 66
   257
 43
1.0
 76
     1
 77
     6
 78
     2
 67
     7
 79
     5
170
     0
171
     0
290
     0
174
     0
 93
        1
 44
0.0
173
     0
291
     0
 45
0.0
1001
ACAD
1000
AcDbSavedByObjectVersion
1070
     0
  0
VISUALSTYLE
  5
C97A
102
{ACAD_XDICTIONARY
360
CA1B
102
}
102
{ACAD_REACTORS
330
C975
102
}
330
C975
100
AcDbVisualStyle
  2

 70
     7
 71
     1
 72
     0
 73
     1
 90
        0
 40
-0.6
 41
-30.0
 62
     5
 63
     7
 74
     0
 91
        4
 64
     7
 65
   257
 75
     1
175
     1
 42
1.0
 92
        8
 66
     7
 43
1.0
 76
     1
 77
     6
 78
     2
 67
     7
 79
     5
170
     0
171
     0
290
     0
174
     0
 93
        1
 44
0.0
173
     0
291
     1
 45
0.0
1001
ACAD
1000
AcDbSavedByObjectVersion
1070
     0
  0
VISUALSTYLE
  5
C981
102
{ACAD_XDICTIONARY
360
CA29
102
}
102
{ACAD_REACTORS
330
C975
102
}
330
C975
100
AcDbVisualStyle
  2

 70
    12
 71
     2
 72
     2
 73
     0
 90
        0
 40
-0.6
 41
-30.0
 62
     5
 63
     7
 74
     1
 91
        4
 64
     7
 65
   257
 75
     1
175
     1
 42
1.0
 92
        8
 66
     7
 43
1.0
 76
     1
 77
     6
 78
     2
 67
     7
 79
     5
170
     0
171
     0
290
     0
174
     0
 93
        1
 44
50.0
173
     0
291
     1
 45
0.0
1001
ACAD
1000
AcDbSavedByObjectVersion
1070
     0
  0
VISUALSTYLE
  5
C985
102
{ACAD_XDICTIONARY
360
CA31
102
}
102
{ACAD_REACTORS
330
C975
102
}
330
C975
100
AcDbVisualStyle
  2

 70
    16
 71
     2
 72
     2
 73
     3
 90
        0
 40
-0.6
 41
-30.0
 62
     5
 63
     8
 74
     1
 91
        4
 64
     7
 65
   257
 75
     1
175
     1
 42
1.0
 92
        8
 66
     8
 43
1.0
 76
     1
 77
     6
 78
     2
 67
     7
 79
     5
170
     0
171
     0
290
     0
174
     0
 93
        1
 44
0.0
173
     0
291
     1
 45
0.0
1001
ACAD
1000
AcDbSavedByObjectVersion
1070
     0
  0
VISUALSTYLE
  5
C97E
102
{ACAD_XDICTIONARY
360
CA23
102
}
102
{ACAD_REACTORS
330
C975
102
}
330
C975
100
AcDbVisualStyle
  2

 70
     9
 71
     3
 72
     2
 73
     0
 90
        0
 40
-0.6
 41
-30.0
 62
     5
 63
     7
 74
     2
 91
        2
 64
     7
 65
   257
 75
     1
175
     1
 42
179.0
 92
        8
 66
     7
 43
1.0
 76
     1
 77
     6
 78
     2
 67
     7
 79
     3
170
     0
171
     0
290
     0
174
     0
 93
        1
 44
0.0
173
     0
291
     0
 45
0.0
1001
ACAD
1000
AcDbSavedByObjectVersion
1070
     0
  0
VISUALSTYLE
  5
C980
102
{ACAD_XDICTIONARY
360
CA27
102
}
102
{ACAD_REACTORS
330
C975
102
}
330
C975
100
AcDbVisualStyle
  2

 70
    11
 71
     2
 72
     2
 73
     0
 90
        0
 40
-0.6
 41
-30.0
 62
     5
 63
     7
 74
     1
 91
        4
 64
     7
 65
   257
 75
     1
175
     1
 42
1.0
 92
        8
 66
     7
 43
1.0
 76
     1
 77
     6
 78
     2
 67
     7
 79
     5
170
     0
171
     0
290
     0
174
     0
 93
        1
 44
-50.0
173
     0
291
     1
 45
0.0
1001
ACAD
1000
AcDbSavedByObjectVersion
1070
     0
  0
VISUALSTYLE
  5
C98D
102
{ACAD_XDICTIONARY
360
CA41
102
}
102
{ACAD_REACTORS
330
C975
102
}
330
C975
100
AcDbVisualStyle
  2

 70
    22
 71
     2
 72
     2
 73
     0
 90
        0
 40
-0.6
 41
-30.0
 62
     5
 63
     7
 74
     1
 91
        4
 64
     7
 65
   257
 75
     1
175
     1
 42
1.0
 92
        8
 66
     7
 43
1.0
 76
     1
 77
     6
 78
     2
 67
     7
 79
     5
170
     0
171
     0
290
     0
174
     0
 93
        1
 44
0.0
173
     0
291
     1
 45
0.0
1001
ACAD
1000
AcDbSavedByObjectVersion
1070
     0
  0
VISUALSTYLE
  5
C984
102
{ACAD_XDICTIONARY
360
CA2F
102
}
102
{ACAD_REACTORS
330
C975
102
}
330
C975
100
AcDbVisualStyle
  2

 70
    15
 71
     2
 72
     2
 73
     0
 90
        0
 40
-0.6
 41
-30.0
 62
     5
 63
     7
 74
     1
 91
        4
 64
     7
 65
   257
 75
     1
175
     1
 42
1.0
 92
        8
 66
     7
 43
1.0
 76
     1
 77
     6
 78
     2
 67
     7
 79
     5
170
     0
171
     0
290
     0
174
     0
 93
        1
 44
0.0
173
     0
291
     1
 45
0.0
1001
ACAD
1000
AcDbSavedByObjectVersion
1070
     0
  0
VISUALSTYLE
  5
C976
102
{ACAD_XDICTIONARY
360
CA13
102
}
102
{ACAD_REACTORS
330
C975
102
}
330
C975
100
AcDbVisualStyle
  2

 70
     0
 71
     2
 72
     1
 73
     1
 90
        2
 40
-0.6
 41
30.0
 62
     5
 63
     7
 74
     0
 91
        0
 64
     7
 65
   257
 75
     1
175
     1
 42
1.0
 92
        8
 66
     7
 43
1.0
 76
     1
 77
     6
 78
     2
 67
     7
 79
     5
170
     0
171
     0
290
     0
174
     0
 93
       13
 44
0.0
173
     0
291
     1
 45
0.0
1001
ACAD
1000
AcDbSavedByObjectVersion
1070
     0
  0
VISUALSTYLE
  5
C977
102
{ACAD_XDICTIONARY
360
CA15
102
}
102
{ACAD_REACTORS
330
C975
102
}
330
C975
100
AcDbVisualStyle
  2

 70
     1
 71
     2
 72
     1
 73
     1
 90
        2
 40
-0.6
 41
30.0
 62
     5
 63
     7
 74
     1
 91
        0
 64
     7
 65
   257
 75
     1
175
     1
 42
1.0
 92
        0
 66
   257
 43
1.0
 76
     1
 77
     6
 78
     2
 67
     7
 79
     5
170
     0
171
     0
290
     0
174
     0
 93
       13
 44
0.0
173
     0
291
     1
 45
0.0
1001
ACAD
1000
AcDbSavedByObjectVersion
1070
     0
  0
VISUALSTYLE
  5
C978
102
{ACAD_XDICTIONARY
360
CA17
102
}
102
{ACAD_REACTORS
330
C975
102
}
330
C975
100
AcDbVisualStyle
  2

 70
     2
 71
     2
 72
     2
 73
     1
 90
        2
 40
-0.6
 41
30.0
 62
     5
 63
     7
 74
     0
 91
        0
 64
     7
 65
   257
 75
     1
175
     1
 42
1.0
 92
        0
 66
     7
 43
1.0
 76
     1
 77
     6
 78
     2
 67
     7
 79
     5
170
     0
171
     0
290
     0
174
     0
 93
       13
 44
0.0
173
     0
291
     1
 45
0.0
1001
ACAD
1000
AcDbSavedByObjectVersion
1070
     0
  0
VISUALSTYLE
  5
C979
102
{ACAD_XDICTIONARY
360
CA19
102
}
102
{ACAD_REACTORS
330
C975
102
}
330
C975
100
AcDbVisualStyle
  2

 70
     3
 71
     2
 72
     2
 73
     1
 90
        2
 40
-0.6
 41
30.0
 62
     5
 63
     7
 74
     1
 91
        0
 64
     7
 65
   257
 75
     1
175
     1
 42
1.0
 92
        0
 66
   257
 43
1.0
 76
     1
 77
     6
 78
     2
 67
     7
 79
     5
170
     0
171
     0
290
     0
174
     0
 93
       13
 44
0.0
173
     0
291
     1
 45
0.0
1001
ACAD
1000
AcDbSavedByObjectVersion
1070
     0
  0
VISUALSTYLE
  5
C97D
102
{ACAD_XDICTIONARY
360
CA21
102
}
102
{ACAD_REACTORS
330
C975
102
}
330
C975
100
AcDbVisualStyle
  2

 70
     6
 71
     1
 72
     2
 73
     2
 90
        0
 40
-0.6
 41
-30.0
 62
     5
 63
     7
 74
     2
 91
        2
 64
     7
 65
   257
 75
     2
175
     1
 42
40.0
 92
        0
 66
   257
 43
1.0
 76
     1
 77
     6
 78
     2
 67
     7
 79
     3
170
     0
171
     0
290
     0
174
     0
 93
        1
 44
0.0
173
     0
291
     0
 45
0.0
1001
ACAD
1000
AcDbSavedByObjectVersion
1070
     0
  0
VISUALSTYLE
  5
C98B
102
{ACAD_XDICTIONARY
360
CA3D
102
}
102
{ACAD_REACTORS
330
C975
102
}
330
C975
100
AcDbVisualStyle
  2

 70
    20
 71
     2
 72
     2
 73
     0
 90
        0
 40
-0.6
 41
-30.0
 62
     5
 63
     7
 74
     1
 91
        4
 64
     7
 65
   257
 75
     1
175
     1
 42
1.0
 92
       10
 66
     7
 43
1.0
 76
     1
 77
     6
 78
     2
 67
     7
 79
     5
170
     0
171
     0
290
     0
174
     0
 93
        1
 44
0.0
173
     0
291
     1
 45
0.0
1001
ACAD
1000
AcDbSavedByObjectVersion
1070
     0
  0
VISUALSTYLE
  5
C983
102
{ACAD_XDICTIONARY
360
CA2D
102
}
102
{ACAD_REACTORS
330
C975
102
}
330
C975
100
AcDbVisualStyle
  2

 70
    14
 71
     2
 72
     2
 73
     0
 90
        0
 40
-0.6
 41
-30.0
 62
     5
 63
     7
 74
     1
 91
        4
 64
     7
 65
   257
 75
     7
175
     7
 42
1.0
 92
        8
 66
     7
 43
1.0
 76
     1
 77
     6
 78
     2
 67
     7
 79
     5
170
     0
171
     0
290
     0
174
     0
 93
        1
 44
0.0
173
     0
291
     1
 45
0.0
1001
ACAD
1000
AcDbSavedByObjectVersion
1070
     0
  0
VISUALSTYLE
  5
C98C
102
{ACAD_XDICTIONARY
360
CA3F
102
}
102
{ACAD_REACTORS
330
C975
102
}
330
C975
100
AcDbVisualStyle
  2

 70
    21
 71
     2
 72
     2
 73
     0
 90
        0
 40
-0.6
 41
-30.0
 62
     5
 63
     7
 74
     1
 91
        4
 64
     7
 65
   257
 75
     1
175
     1
 42
1.0
 92
        9
 66
     7
 43
1.0
 76
     1
 77
     6
 78
     2
 67
     7
 79
     5
170
     0
171
     0
290
     0
174
     0
 93
        1
 44
0.0
173
     0
291
     1
 45
0.0
1001
ACAD
1000
AcDbSavedByObjectVersion
1070
     0
  0
VISUALSTYLE
  5
C97F
102
{ACAD_XDICTIONARY
360
CA25
102
}
102
{ACAD_REACTORS
330
C975
102
}
330
C975
100
AcDbVisualStyle
  2

 70
     8
 71
     2
 72
     3
 73
     0
 90
        2
 40
-0.6
 41
30.0
 62
     5
 63
     7
 74
     0
 91
        0
 64
     7
 65
   257
 75
     1
175
     1
 42
1.0
 92
        8
 66
   257
 43
1.0
 76
     1
 77
     6
 78
     2
 67
     7
 79
     3
170
     0
171
     0
290
     0
174
     0
 93
       13
 44
0.0
173
     0
291
     0
 45
0.0
1001
ACAD
1000
AcDbSavedByObjectVersion
1070
     0
  0
VISUALSTYLE
  5
C98A
102
{ACAD_XDICTIONARY
360
CA3B
102
}
102
{ACAD_REACTORS
330
C975
102
}
330
C975
100
AcDbVisualStyle
  2

 70
    27
 71
     2
 72
     2
 73
     1
 90
        2
 40
-0.6
 41
30.0
 62
     5
 63
     7
 74
     0
 91
        4
 64
     7
 65
   257
 75
     1
175
     1
 42
1.0
 92
        8
 66
   257
 43
1.0
 76
     1
 77
     6
 78
     2
 67
     8
 79
     3
170
     0
171
     0
290
     0
174
     0
 93
        5
 44
0.0
173
     0
291
     0
 45
0.0
1001
ACAD
1000
AcDbSavedByObjectVersion
1070
     0
  0
VISUALSTYLE
  5
C989
102
{ACAD_XDICTIONARY
360
CA39
102
}
102
{ACAD_REACTORS
330
C975
102
}
330
C975
100
AcDbVisualStyle
  2

 70
    26
 71
     2
 72
     2
 73
     1
 90
        2
 40
-0.6
 41
30.0
 62
     5
 63
     7
 74
     1
 91
       10
 64
     7
 65
   257
 75
     2
175
     1
 42
1.0
 92
        8
 66
   257
 43
1.0
 76
     1
 77
     6
 78
     2
 67
     7
 79
     3
170
     0
171
     0
290
     0
174
     0
 93
        5
 44
0.0
173
     0
291
     0
 45
0.0
1001
ACAD
1000
AcDbSavedByObjectVersion
1070
     0
  0
VISUALSTYLE
  5
C986
102
{ACAD_XDICTIONARY
360
CA33
102
}
102
{ACAD_REACTORS
330
C975
102
}
330
C975
100
AcDbVisualStyle
  2

 70
    23
 71
     2
 72
     2
 73
     3
 90
        0
 40
-0.6
 41
-30.0
 62
     5
 63
     7
 74
     2
 91
        2
 64
     7
 65
     7
 75
     1
175
     1
 42
40.0
 92
        8
 66
     7
 43
1.0
 76
     1
 77
     6
 78
     2
 67
     7
 79
     3
170
     0
171
     0
290
     0
174
     0
 93
        1
 44
0.0
173
     0
291
     0
 45
0.0
1001
ACAD
1000
AcDbSavedByObjectVersion
1070
     0
  0
VISUALSTYLE
  5
C987
102
{ACAD_XDICTIONARY
360
CA35
102
}
102
{ACAD_REACTORS
330
C975
102
}
330
C975
100
AcDbVisualStyle
  2

 70
    24
 71
     1
 72
     2
 73
     2
 90
        0
 40
-0.6
 41
-30.0
 62
     5
 63
     7
 74
     2
 91
        2
 64
     7
 65
     7
 75
     1
175
     1
 42
40.0
 92
       11
 66
     7
 43
1.0
 76
     1
 77
     6
 78
     2
 67
     7
 79
     6
170
     0
171
     0
290
     0
174
     0
 93
        1
 44
0.0
173
     0
291
     0
 45
0.0
1001
ACAD
1000
AcDbSavedByObjectVersion
1070
     0
  0
VISUALSTYLE
  5
C982
102
{ACAD_XDICTIONARY
360
CA2B
102
}
102
{ACAD_REACTORS
330
C975
102
}
330
C975
100
AcDbVisualStyle
  2

 70
    13
 71
     2
 72
     2
 73
     0
 90
        0
 40
-0.6
 41
-30.0
 62
     5
 63
     7
 74
     1
 91
        4
 64
     7
 65
   257
 75
     1
175
     1
 42
1.0
 92
       12
 66
     7
 43
1.0
 76
     1
 77
     6
 78
     2
 67
     7
 79
     5
170
     0
171
     0
290
     0
174
     0
 93
        1
 44
0.0
173
     0
291
     1
 45
0.0
1001
ACAD
1000
AcDbSavedByObjectVersion
1070
     0
  0
VISUALSTYLE
  5
C97C
102
{ACAD_XDICTIONARY
360
CA1F
102
}
102
{ACAD_REACTORS
330
C975
102
}
330
C975
100
AcDbVisualStyle
  2

 70
     5
 71
     0
 72
     2
 73
     0
 90
        0
 40
-0.6
 41
-30.0
 62
     5
 63
     7
 74
     1
 91
        4
 64
     7
 65
   257
 75
     1
175
     1
 42
1.0
 92
        0
 66
   257
 43
1.0
 76
     1
 77
     6
 78
     2
 67
     7
 79
     3
170
     0
171
     0
290
     0
174
     0
 93
        1
 44
0.0
173
     0
291
     0
 45
0.0
1001
ACAD
1000
AcDbSavedByObjectVersion
1070
     0
  0
VISUALSTYLE
  5
C988
102
{ACAD_XDICTIONARY
360
CA37
102
}
102
{ACAD_REACTORS
330
C975
102
}
330
C975
100
AcDbVisualStyle
  2

 70
    25
 71
     2
 72
     2
 73
     1
 90
        1
 40
0.5
 41
-30.0
 62
     5
 63
     7
 74
     1
 91
        0
 64
     7
 65
   257
 75
     1
175
     1
 42
1.0
 92
        8
 66
     7
 43
1.0
 76
     1
 77
     6
 78
     2
 67
     7
 79
     3
170
     0
171
     0
290
     0
174
     0
 93
       13
 44
0.0
173
     0
291
     0
 45
0.0
1001
ACAD
1000
AcDbSavedByObjectVersion
1070
     0
  0
DICTIONARYVAR
  5
C9C4
102
{ACAD_REACTORS
330
C9BF
102
}
330
C9BF
100
DictionaryVariables
280
     0
  1
1:1
  0
DICTIONARYVAR
  5
C9C1
102
{ACAD_REACTORS
330
C9BF
102
}
330
C9BF
100
DictionaryVariables
280
     0
  1
STANDARD
  0
DICTIONARYVAR
  5
C9C0
102
{ACAD_REACTORS
330
C9BF
102
}
330
C9BF
100
DictionaryVariables
280
     0
  1
STANDARD
  0
DICTIONARYVAR
  5
C9C2
102
{ACAD_REACTORS
330
C9BF
102
}
330
C9BF
100
DictionaryVariables
280
     0
  1
Imperial24
  0
DICTIONARYVAR
  5
C9C3
102
{ACAD_REACTORS
330
C9BF
102
}
330
C9BF
100
DictionaryVariables
280
     0
  1
Imperial24
  0
DICTIONARYVAR
  5
C9C7
102
{ACAD_REACTORS
330
C9BF
102
}
330
C9BF
100
DictionaryVariables
280
     0
  1
1
  0
DICTIONARYVAR
  5
C9C6
102
{ACAD_REACTORS
330
C9BF
102
}
330
C9BF
100
DictionaryVariables
280
     0
  1
0
  0
DICTIONARYVAR
  5
C9C5
102
{ACAD_REACTORS
330
C9BF
102
}
330
C9BF
100
DictionaryVariables
280
     0
  1
127
  0
DICTIONARYVAR
  5
CA0F
102
{ACAD_REACTORS
330
C9BF
102
}
330
C9BF
100
DictionaryVariables
280
     0
  1
2
  0
DICTIONARY
  5
CA46
330
C9A8
100
AcDbDictionary
280
     1
281
     1
  3
ACAD_XREC_ROUNDTRIP
360
CA47
  0
DICTIONARY
  5
CA48
330
C9A9
100
AcDbDictionary
280
     1
281
     1
  3
ACAD_XREC_ROUNDTRIP
360
CA49
  0
DICTIONARY
  5
CA4A
330
C9AA
100
AcDbDictionary
280
     1
281
     1
  3
ACAD_XREC_ROUNDTRIP
360
CA4B
  0
DICTIONARY
  5
C966
330
C965
100
AcDbDictionary
280
     1
281
     1
  3
ACAD_XREC_ROUNDTRIP
360
C9CF
  3
BUMPTILE
360
C968
  3
DIFFUSETILE
360
C967
  3
OPACITYTILE
360
C96B
  3
REFLECTIONTILE
360
C96A
  3
REFRACTIONTILE
360
C96C
  3
SPECULARTILE
360
C969
  0
DICTIONARY
  5
C95E
330
C95D
100
AcDbDictionary
280
     1
281
     1
  3
ACAD_XREC_ROUNDTRIP
360
C9CE
  3
BUMPTILE
360
C960
  3
DIFFUSETILE
360
C95F
  3
OPACITYTILE
360
C963
  3
REFLECTIONTILE
360
C962
  3
REFRACTIONTILE
360
C964
  3
SPECULARTILE
360
C961
  0
DICTIONARY
  5
C96E
330
C96D
100
AcDbDictionary
280
     1
281
     1
  3
ACAD_XREC_ROUNDTRIP
360
C9D0
  3
BUMPTILE
360
C970
  3
DIFFUSETILE
360
C96F
  3
OPACITYTILE
360
C973
  3
REFLECTIONTILE
360
C972
  3
REFRACTIONTILE
360
C974
  3
SPECULARTILE
360
C971
  0
DICTIONARY
  5
CA44
330
C9A6
100
AcDbDictionary
280
     1
281
     1
  3
ACAD_XREC_ROUNDTRIP
360
CA45
  0
DICTIONARY
  5
C9CA
330
C990
100
AcDbDictionary
280
     1
281
     1
  3
ACAD_ROUNDTRIP_2008_TABLESTYLE_CELLSTYLEMAP
360
CA10
  3
ACAD_XREC_ROUNDTRIP
360
CA43
  0
DICTIONARY
  5
CA1D
330
C97B
100
AcDbDictionary
280
     1
281
     1
  3
ACAD_XREC_ROUNDTRIP
360
CA1E
  0
DICTIONARY
  5
CA1B
330
C97A
100
AcDbDictionary
280
     1
281
     1
  3
ACAD_XREC_ROUNDTRIP
360
CA1C
  0
DICTIONARY
  5
CA29
330
C981
100
AcDbDictionary
280
     1
281
     1
  3
ACAD_XREC_ROUNDTRIP
360
CA2A
  0
DICTIONARY
  5
CA31
330
C985
100
AcDbDictionary
280
     1
281
     1
  3
ACAD_XREC_ROUNDTRIP
360
CA32
  0
DICTIONARY
  5
CA23
330
C97E
100
AcDbDictionary
280
     1
281
     1
  3
ACAD_XREC_ROUNDTRIP
360
CA24
  0
DICTIONARY
  5
CA27
330
C980
100
AcDbDictionary
280
     1
281
     1
  3
ACAD_XREC_ROUNDTRIP
360
CA28
  0
DICTIONARY
  5
CA41
330
C98D
100
AcDbDictionary
280
     1
281
     1
  3
ACAD_XREC_ROUNDTRIP
360
CA42
  0
DICTIONARY
  5
CA2F
330
C984
100
AcDbDictionary
280
     1
281
     1
  3
ACAD_XREC_ROUNDTRIP
360
CA30
  0
DICTIONARY
  5
CA13
330
C976
100
AcDbDictionary
280
     1
281
     1
  3
ACAD_XREC_ROUNDTRIP
360
CA14
  0
DICTIONARY
  5
CA15
330
C977
100
AcDbDictionary
280
     1
281
     1
  3
ACAD_XREC_ROUNDTRIP
360
CA16
  0
DICTIONARY
  5
CA17
330
C978
100
AcDbDictionary
280
     1
281
     1
  3
ACAD_XREC_ROUNDTRIP
360
CA18
  0
DICTIONARY
  5
CA19
330
C979
100
AcDbDictionary
280
     1
281
     1
  3
ACAD_XREC_ROUNDTRIP
360
CA1A
  0
DICTIONARY
  5
CA21
330
C97D
100
AcDbDictionary
280
     1
281
     1
  3
ACAD_XREC_ROUNDTRIP
360
CA22
  0
DICTIONARY
  5
CA3D
330
C98B
100
AcDbDictionary
280
     1
281
     1
  3
ACAD_XREC_ROUNDTRIP
360
CA3E
  0
DICTIONARY
  5
CA2D
330
C983
100
AcDbDictionary
280
     1
281
     1
  3
ACAD_XREC_ROUNDTRIP
360
CA2E
  0
DICTIONARY
  5
CA3F
330
C98C
100
AcDbDictionary
280
     1
281
     1
  3
ACAD_XREC_ROUNDTRIP
360
CA40
  0
DICTIONARY
  5
CA25
330
C97F
100
AcDbDictionary
280
     1
281
     1
  3
ACAD_XREC_ROUNDTRIP
360
CA26
  0
DICTIONARY
  5
CA3B
330
C98A
100
AcDbDictionary
280
     1
281
     1
  3
ACAD_XREC_ROUNDTRIP
360
CA3C
  0
DICTIONARY
  5
CA39
330
C989
100
AcDbDictionary
280
     1
281
     1
  3
ACAD_XREC_ROUNDTRIP
360
CA3A
  0
DICTIONARY
  5
CA33
330
C986
100
AcDbDictionary
280
     1
281
     1
  3
ACAD_XREC_ROUNDTRIP
360
CA34
  0
DICTIONARY
  5
CA35
330
C987
100
AcDbDictionary
280
     1
281
     1
  3
ACAD_XREC_ROUNDTRIP
360
CA36
  0
DICTIONARY
  5
CA2B
330
C982
100
AcDbDictionary
280
     1
281
     1
  3
ACAD_XREC_ROUNDTRIP
360
CA2C
  0
DICTIONARY
  5
CA1F
330
C97C
100
AcDbDictionary
280
     1
281
     1
  3
ACAD_XREC_ROUNDTRIP
360
CA20
  0
DICTIONARY
  5
CA37
330
C988
100
AcDbDictionary
280
     1
281
     1
  3
ACAD_XREC_ROUNDTRIP
360
CA38
  0
XRECORD
  5
CA47
102
{ACAD_REACTORS
330
CA46
102
}
330
CA46
100
AcDbXrecord
280
     1
102
DISPLAYNAME
  1
Imperial24
102
FLAGS
 90
        0
  0
XRECORD
  5
CA49
102
{ACAD_REACTORS
330
CA48
102
}
330
CA48
100
AcDbXrecord
280
     1
102
SHADEPLOT
 70
     0
102
SHADEPLOTRESLEVEL
 70
     2
102
SHADEPLOTCUSTOMDPI
 70
   300
  0
XRECORD
  5
CA4B
102
{ACAD_REACTORS
330
CA4A
102
}
330
CA4A
100
AcDbXrecord
280
     1
102
SHADEPLOT
 70
     0
102
SHADEPLOTRESLEVEL
 70
     2
102
SHADEPLOTCUSTOMDPI
 70
   300
  0
XRECORD
  5
C9CF
102
{ACAD_REACTORS
330
C966
102
}
330
C966
100
AcDbXrecord
280
     1
102
MATERIAL
148
0.0
149
0.0
149
0.0
 93
        0
 94
      127
282
     0
 72
     0
 77
     0
171
     0
175
     0
179
     0
273
     0
  0
XRECORD
  5
C968
102
{ACAD_REACTORS
330
C966
102
}
330
C966
100
AcDbXrecord
280
     1
270
     1
271
     1
  0
XRECORD
  5
C967
102
{ACAD_REACTORS
330
C966
102
}
330
C966
100
AcDbXrecord
280
     1
270
     1
271
     1
  0
XRECORD
  5
C96B
102
{ACAD_REACTORS
330
C966
102
}
330
C966
100
AcDbXrecord
280
     1
270
     1
271
     1
  0
XRECORD
  5
C96A
102
{ACAD_REACTORS
330
C966
102
}
330
C966
100
AcDbXrecord
280
     1
270
     1
271
     1
  0
XRECORD
  5
C96C
102
{ACAD_REACTORS
330
C966
102
}
330
C966
100
AcDbXrecord
280
     1
270
     1
271
     1
  0
XRECORD
  5
C969
102
{ACAD_REACTORS
330
C966
102
}
330
C966
100
AcDbXrecord
280
     1
270
     1
271
     1
  0
XRECORD
  5
C9CE
102
{ACAD_REACTORS
330
C95E
102
}
330
C95E
100
AcDbXrecord
280
     1
102
MATERIAL
148
0.0
149
0.0
149
0.0
 93
        0
 94
      127
282
     0
 72
     0
 77
     0
171
     0
175
     0
179
     0
273
     0
  0
XRECORD
  5
C960
102
{ACAD_REACTORS
330
C95E
102
}
330
C95E
100
AcDbXrecord
280
     1
270
     1
271
     1
  0
XRECORD
  5
C95F
102
{ACAD_REACTORS
330
C95E
102
}
330
C95E
100
AcDbXrecord
280
     1
270
     1
271
     1
  0
XRECORD
  5
C963
102
{ACAD_REACTORS
330
C95E
102
}
330
C95E
100
AcDbXrecord
280
     1
270
     1
271
     1
  0
XRECORD
  5
C962
102
{ACAD_REACTORS
330
C95E
102
}
330
C95E
100
AcDbXrecord
280
     1
270
     1
271
     1
  0
XRECORD
  5
C964
102
{ACAD_REACTORS
330
C95E
102
}
330
C95E
100
AcDbXrecord
280
     1
270
     1
271
     1
  0
XRECORD
  5
C961
102
{ACAD_REACTORS
330
C95E
102
}
330
C95E
100
AcDbXrecord
280
     1
270
     1
271
     1
  0
XRECORD
  5
C9D0
102
{ACAD_REACTORS
330
C96E
102
}
330
C96E
100
AcDbXrecord
280
     1
102
MATERIAL
148
0.0
149
0.0
149
0.0
 93
        0
 94
      127
282
     0
 72
     0
 77
     0
171
     0
175
     0
179
     0
273
     0
  0
XRECORD
  5
C970
102
{ACAD_REACTORS
330
C96E
102
}
330
C96E
100
AcDbXrecord
280
     1
270
     1
271
     1
  0
XRECORD
  5
C96F
102
{ACAD_REACTORS
330
C96E
102
}
330
C96E
100
AcDbXrecord
280
     1
270
     1
271
     1
  0
XRECORD
  5
C973
102
{ACAD_REACTORS
330
C96E
102
}
330
C96E
100
AcDbXrecord
280
     1
270
     1
271
     1
  0
XRECORD
  5
C972
102
{ACAD_REACTORS
330
C96E
102
}
330
C96E
100
AcDbXrecord
280
     1
270
     1
271
     1
  0
XRECORD
  5
C974
102
{ACAD_REACTORS
330
C96E
102
}
330
C96E
100
AcDbXrecord
280
     1
270
     1
271
     1
  0
XRECORD
  5
C971
102
{ACAD_REACTORS
330
C96E
102
}
330
C96E
100
AcDbXrecord
280
     1
270
     1
271
     1
  0
XRECORD
  5
CA45
102
{ACAD_REACTORS
330
CA44
102
}
330
CA44
100
AcDbXrecord
280
     1
102
DISPLAYNAME
  1
Imperial24
102
FLAGS
 90
        0
  0
CELLSTYLEMAP
  5
CA10
102
{ACAD_REACTORS
330
C9CA
102
}
330
C9CA
100
AcDbCellStyleMap
 90
        3
300
CELLSTYLE
  1
TABLEFORMAT_BEGIN
 90
        5
170
     1
 91
        0
 92
    32768
 62
   257
 93
        1
300
CONTENTFORMAT
  1
CONTENTFORMAT_BEGIN
 90
        0
 91
        0
 92
      512
 93
        0
300

 40
0.0
140
1.0
 94
        5
 62
     0
340
C70D
144
0.25
309
CONTENTFORMAT_END
171
     1
301
MARGIN
  1
CELLMARGIN_BEGIN
 40
0.06
 40
0.06
 40
0.06
 40
0.06
 40
0.18
 40
0.18
309
CELLMARGIN_END
 94
        6
 95
        1
302
GRIDFORMAT
  1
GRIDFORMAT_BEGIN
 90
        0
 91
        1
 62
     0
 92
       -2
340
0
 93
        0
 40
0.045
309
GRIDFORMAT_END
 95
        2
302
GRIDFORMAT
  1
GRIDFORMAT_BEGIN
 90
        0
 91
        1
 62
     0
 92
       -2
340
0
 93
        0
 40
0.045
309
GRIDFORMAT_END
 95
        4
302
GRIDFORMAT
  1
GRIDFORMAT_BEGIN
 90
        0
 91
        1
 62
     0
 92
       -2
340
0
 93
        0
 40
0.045
309
GRIDFORMAT_END
 95
        8
302
GRIDFORMAT
  1
GRIDFORMAT_BEGIN
 90
        0
 91
        1
 62
     0
 92
       -2
340
0
 93
        0
 40
0.045
309
GRIDFORMAT_END
 95
       16
302
GRIDFORMAT
  1
GRIDFORMAT_BEGIN
 90
        0
 91
        1
 62
     0
 92
       -2
340
0
 93
        0
 40
0.045
309
GRIDFORMAT_END
 95
       32
302
GRIDFORMAT
  1
GRIDFORMAT_BEGIN
 90
        0
 91
        1
 62
     0
 92
       -2
340
0
 93
        0
 40
0.045
309
GRIDFORMAT_END
309
TABLEFORMAT_END
  1
CELLSTYLE_BEGIN
 90
        1
 91
        1
300
_TITLE
309
CELLSTYLE_END
300
CELLSTYLE
  1
TABLEFORMAT_BEGIN
 90
        5
170
     1
 91
        0
 92
        0
 62
   257
 93
        1
300
CONTENTFORMAT
  1
CONTENTFORMAT_BEGIN
 90
        0
 91
        0
 92
      512
 93
        0
300

 40
0.0
140
1.0
 94
        5
 62
     0
340
C70D
144
0.18
309
CONTENTFORMAT_END
171
     1
301
MARGIN
  1
CELLMARGIN_BEGIN
 40
0.06
 40
0.06
 40
0.06
 40
0.06
 40
0.18
 40
0.18
309
CELLMARGIN_END
 94
        6
 95
        1
302
GRIDFORMAT
  1
GRIDFORMAT_BEGIN
 90
        0
 91
        1
 62
     0
 92
       -2
340
0
 93
        0
 40
0.045
309
GRIDFORMAT_END
 95
        2
302
GRIDFORMAT
  1
GRIDFORMAT_BEGIN
 90
        0
 91
        1
 62
     0
 92
       -2
340
0
 93
        0
 40
0.045
309
GRIDFORMAT_END
 95
        4
302
GRIDFORMAT
  1
GRIDFORMAT_BEGIN
 90
        0
 91
        1
 62
     0
 92
       -2
340
0
 93
        0
 40
0.045
309
GRIDFORMAT_END
 95
        8
302
GRIDFORMAT
  1
GRIDFORMAT_BEGIN
 90
        0
 91
        1
 62
     0
 92
       -2
340
0
 93
        0
 40
0.045
309
GRIDFORMAT_END
 95
       16
302
GRIDFORMAT
  1
GRIDFORMAT_BEGIN
 90
        0
 91
        1
 62
     0
 92
       -2
340
0
 93
        0
 40
0.045
309
GRIDFORMAT_END
 95
       32
302
GRIDFORMAT
  1
GRIDFORMAT_BEGIN
 90
        0
 91
        1
 62
     0
 92
       -2
340
0
 93
        0
 40
0.045
309
GRIDFORMAT_END
309
TABLEFORMAT_END
  1
CELLSTYLE_BEGIN
 90
        2
 91
        1
300
_HEADER
309
CELLSTYLE_END
300
CELLSTYLE
  1
TABLEFORMAT_BEGIN
 90
        5
170
     1
 91
        0
 92
        0
 62
   257
 93
        1
300
CONTENTFORMAT
  1
CONTENTFORMAT_BEGIN
 90
        0
 91
        0
 92
      512
 93
        0
300

 40
0.0
140
1.0
 94
        2
 62
     0
340
C70D
144
0.18
309
CONTENTFORMAT_END
171
     1
301
MARGIN
  1
CELLMARGIN_BEGIN
 40
0.06
 40
0.06
 40
0.06
 40
0.06
 40
0.18
 40
0.18
309
CELLMARGIN_END
 94
        6
 95
        1
302
GRIDFORMAT
  1
GRIDFORMAT_BEGIN
 90
        0
 91
        1
 62
     0
 92
       -2
340
0
 93
        0
 40
0.045
309
GRIDFORMAT_END
 95
        2
302
GRIDFORMAT
  1
GRIDFORMAT_BEGIN
 90
        0
 91
        1
 62
     0
 92
       -2
340
0
 93
        0
 40
0.045
309
GRIDFORMAT_END
 95
        4
302
GRIDFORMAT
  1
GRIDFORMAT_BEGIN
 90
        0
 91
        1
 62
     0
 92
       -2
340
0
 93
        0
 40
0.045
309
GRIDFORMAT_END
 95
        8
302
GRIDFORMAT
  1
GRIDFORMAT_BEGIN
 90
        0
 91
        1
 62
     0
 92
       -2
340
0
 93
        0
 40
0.045
309
GRIDFORMAT_END
 95
       16
302
GRIDFORMAT
  1
GRIDFORMAT_BEGIN
 90
        0
 91
        1
 62
     0
 92
       -2
340
0
 93
        0
 40
0.045
309
GRIDFORMAT_END
 95
       32
302
GRIDFORMAT
  1
GRIDFORMAT_BEGIN
 90
        0
 91
        1
 62
     0
 92
       -2
340
0
 93
        0
 40
0.045
309
GRIDFORMAT_END
309
TABLEFORMAT_END
  1
CELLSTYLE_BEGIN
 90
        3
 91
        2
300
_DATA
309
CELLSTYLE_END
  0
XRECORD
  5
CA43
102
{ACAD_REACTORS
330
C9CA
102
}
330
C9CA
100
AcDbXrecord
280
     1
102
ACAD_ROUNDTRIP_PRE2007_TABLESTYLE
 90
      512
 91
        0
  1

 92
      512
 93
        0
  2

 94
      512
 95
        0
  3

  0
XRECORD
  5
CA1E
102
{ACAD_REACTORS
330
CA1D
102
}
330
CA1D
100
AcDbXrecord
280
     1
102
RTVSPost2010Prop28
280
     1
102
RTVSPost2010PropOp28
 70
     1
102
RTVSPost2010Prop29
280
     1
102
RTVSPost2010PropOp29
 70
     1
102
RTVSPost2010Prop30
280
     0
102
RTVSPost2010PropOp30
 70
     1
102
RTVSPost2010Prop31
280
     0
102
RTVSPost2010PropOp31
 70
     1
102
RTVSPost2010Prop32
280
     0
102
RTVSPost2010PropOp32
 70
     1
102
RTVSPost2010Prop33
280
     0
102
RTVSPost2010PropOp33
 70
     1
102
RTVSPost2010Prop34
280
     0
102
RTVSPost2010PropOp34
 70
     1
102
RTVSPost2010Prop35
280
     0
102
RTVSPost2010PropOp35
 70
     1
102
RTVSPost2010Prop36
280
     0
102
RTVSPost2010PropOp36
 70
     1
102
RTVSPost2010Prop37
 90
       50
102
RTVSPost2010PropOp37
 70
     1
102
RTVSPost2010Prop38
140
0.0
102
RTVSPost2010PropOp38
 70
     1
102
RTVSPost2010Prop39
140
1.0
102
RTVSPost2010PropOp39
 70
     1
102
RTVSPost2010Prop40
 90
        0
102
RTVSPost2010PropOp40
 70
     1
102
RTVSPost2010Prop41ColorIndex
 90
       18
102
RTVSPost2010Prop41ColorRGB
 90
        0
102
RTVSPost2010PropOp41
 70
     1
102
RTVSPost2010Prop42
 90
       50
102
RTVSPost2010PropOp42
 70
     1
102
RTVSPost2010Prop43
 90
        3
102
RTVSPost2010PropOp43
 70
     1
102
RTVSPost2010Prop44ColorIndex
 90
        5
102
RTVSPost2010Prop44ColorRGB
 90
      255
102
RTVSPost2010PropOp44
 70
     1
102
RTVSPost2010Prop45
280
     0
102
RTVSPost2010PropOp45
 70
     1
102
RTVSPost2010Prop46
 90
       50
102
RTVSPost2010PropOp46
 70
     1
102
RTVSPost2010Prop47
 90
       50
102
RTVSPost2010PropOp47
 70
     1
102
RTVSPost2010Prop48
 90
       50
102
RTVSPost2010PropOp48
 70
     1
102
RTVSPost2010Prop49
280
     0
102
RTVSPost2010PropOp49
 70
     1
102
RTVSPost2010Prop50
 90
       50
102
RTVSPost2010PropOp50
 70
     1
102
RTVSPost2010Prop51ColorIndex
 90
      256
102
RTVSPost2010Prop51ColorRGB
 90
-16777216
102
RTVSPost2010PropOp51
 70
     0
102
RTVSPost2010Prop52
140
1.0
102
RTVSPost2010PropOp52
 70
     0
102
RTVSPost2010Prop53
 90
        2
102
RTVSPost2010PropOp53
 70
     1
102
RTVSPost2010Prop54
  1
strokes_ogs.tif
102
RTVSPost2010PropOp54
 70
     1
102
RTVSPost2010Prop55
280
     0
102
RTVSPost2010PropOp55
 70
     1
102
RTVSPost2010Prop56
140
1.0
102
RTVSPost2010PropOp56
 70
     1
102
RTVSPost2010Prop57
140
1.0
102
RTVSPost2010PropOp57
 70
     1
102
RTVSPropertyOp0
 70
     1
102
RTVSPropertyOp1
 70
     1
102
RTVSPropertyOp2
 70
     1
102
RTVSPropertyOp3
 70
     1
102
RTVSPropertyOp4
 70
     1
102
RTVSPropertyOp5
 70
     1
102
RTVSPropertyOp6
 70
     1
102
RTVSPropertyOp7
 70
     1
102
RTVSPropertyOp8
 70
     1
102
RTVSPropertyOp9
 70
     1
102
RTVSPropertyOp10
 70
     1
102
RTVSPropertyOp11
 70
     1
102
RTVSPropertyOp12
 70
     1
102
RTVSPropertyOp13
 70
     1
102
RTVSPropertyOp14
 70
     1
102
RTVSPropertyOp15
 70
     1
102
RTVSPropertyOp16
 70
     1
102
RTVSPropertyOp17
 70
     1
102
RTVSPropertyOp18
 70
     1
102
RTVSPropertyOp19
 70
     1
102
RTVSPropertyOp20
 70
     1
102
RTVSPropertyOp21
 70
     1
102
RTVSPropertyOp22
 70
     1
102
RTVSPropertyOp23
 70
     1
102
RTVSPropertyOp24
 70
     1
102
RTVSPropertyOp25
 70
     1
102
RTVSPropertyOp26
 70
     1
102
RTVSPropertyOp27
 70
     1
102
RTVSPropertyOp28
 70
     1
102
RTVSPropertyOp29
 70
     1
102
RTVSPropertyOp30
 70
     1
102
RTVSPropertyOp31
 70
     1
102
RTVSPropertyOp32
 70
     1
102
RTVSPropertyOp33
 70
     1
102
RTVSPropertyOp34
 70
     1
102
RTVSPropertyOp35
 70
     1
102
RTVSPropertyOp36
 70
     1
102
RTVSPropertyOp37
 70
     1
102
RTVSPropertyOp38
 70
     1
102
RTVSPropertyOp39
 70
     1
102
RTVSPropertyOp40
 70
     1
102
RTVSPropertyOp41
 70
     1
102
RTVSPropertyOp42
 70
     1
102
RTVSPropertyOp43
 70
     1
102
RTVSPropertyOp44
 70
     1
102
RTVSPropertyOp45
 70
     1
102
RTVSPropertyOp46
 70
     1
102
RTVSPropertyOp47
 70
     1
102
RTVSPropertyOp48
 70
     1
102
RTVSPropertyOp49
 70
     1
102
RTVSPropertyOp50
 70
     1
102
RTVSPropertyOp51
 70
     0
102
RTVSPropertyOp52
 70
     0
102
RTVSPropertyOp53
 70
     1
102
RTVSPropertyOp54
 70
     1
102
RTVSPropertyOp55
 70
     1
102
RTVSPropertyOp56
 70
     1
102
RTVSPropertyOp57
 70
     1
102
RTVSPropertyOp58
 70
     1
102
RTVSPropertyOp59
 70
     1
102
RTVSPropertyOp60
 70
     1
102
RTVSPropertyOp61
 70
     1
102
RTVSPropertyOp62
 70
     1
  0
XRECORD
  5
CA1C
102
{ACAD_REACTORS
330
CA1B
102
}
330
CA1B
100
AcDbXrecord
280
     1
102
RTVSPost2010Prop28
280
     0
102
RTVSPost2010PropOp28
 70
     1
102
RTVSPost2010Prop29
280
     1
102
RTVSPost2010PropOp29
 70
     1
102
RTVSPost2010Prop30
280
     1
102
RTVSPost2010PropOp30
 70
     1
102
RTVSPost2010Prop31
280
     0
102
RTVSPost2010PropOp31
 70
     1
102
RTVSPost2010Prop32
280
     0
102
RTVSPost2010PropOp32
 70
     1
102
RTVSPost2010Prop33
280
     0
102
RTVSPost2010PropOp33
 70
     1
102
RTVSPost2010Prop34
280
     0
102
RTVSPost2010PropOp34
 70
     1
102
RTVSPost2010Prop35
280
     0
102
RTVSPost2010PropOp35
 70
     1
102
RTVSPost2010Prop36
280
     0
102
RTVSPost2010PropOp36
 70
     1
102
RTVSPost2010Prop37
 90
       50
102
RTVSPost2010PropOp37
 70
     1
102
RTVSPost2010Prop38
140
0.0
102
RTVSPost2010PropOp38
 70
     1
102
RTVSPost2010Prop39
140
1.0
102
RTVSPost2010PropOp39
 70
     1
102
RTVSPost2010Prop40
 90
        0
102
RTVSPost2010PropOp40
 70
     1
102
RTVSPost2010Prop41ColorIndex
 90
       18
102
RTVSPost2010Prop41ColorRGB
 90
        0
102
RTVSPost2010PropOp41
 70
     1
102
RTVSPost2010Prop42
 90
       50
102
RTVSPost2010PropOp42
 70
     1
102
RTVSPost2010Prop43
 90
        3
102
RTVSPost2010PropOp43
 70
     1
102
RTVSPost2010Prop44ColorIndex
 90
        5
102
RTVSPost2010Prop44ColorRGB
 90
      255
102
RTVSPost2010PropOp44
 70
     1
102
RTVSPost2010Prop45
280
     0
102
RTVSPost2010PropOp45
 70
     1
102
RTVSPost2010Prop46
 90
       50
102
RTVSPost2010PropOp46
 70
     1
102
RTVSPost2010Prop47
 90
       50
102
RTVSPost2010PropOp47
 70
     1
102
RTVSPost2010Prop48
 90
       50
102
RTVSPost2010PropOp48
 70
     1
102
RTVSPost2010Prop49
280
     0
102
RTVSPost2010PropOp49
 70
     1
102
RTVSPost2010Prop50
 90
       50
102
RTVSPost2010PropOp50
 70
     1
102
RTVSPost2010Prop51ColorIndex
 90
      256
102
RTVSPost2010Prop51ColorRGB
 90
-16777216
102
RTVSPost2010PropOp51
 70
     0
102
RTVSPost2010Prop52
140
1.0
102
RTVSPost2010PropOp52
 70
     0
102
RTVSPost2010Prop53
 90
        2
102
RTVSPost2010PropOp53
 70
     1
102
RTVSPost2010Prop54
  1
strokes_ogs.tif
102
RTVSPost2010PropOp54
 70
     1
102
RTVSPost2010Prop55
280
     0
102
RTVSPost2010PropOp55
 70
     1
102
RTVSPost2010Prop56
140
1.0
102
RTVSPost2010PropOp56
 70
     1
102
RTVSPost2010Prop57
140
1.0
102
RTVSPost2010PropOp57
 70
     1
102
RTVSPropertyOp0
 70
     1
102
RTVSPropertyOp1
 70
     1
102
RTVSPropertyOp2
 70
     1
102
RTVSPropertyOp3
 70
     1
102
RTVSPropertyOp4
 70
     1
102
RTVSPropertyOp5
 70
     1
102
RTVSPropertyOp6
 70
     1
102
RTVSPropertyOp7
 70
     1
102
RTVSPropertyOp8
 70
     1
102
RTVSPropertyOp9
 70
     1
102
RTVSPropertyOp10
 70
     1
102
RTVSPropertyOp11
 70
     1
102
RTVSPropertyOp12
 70
     1
102
RTVSPropertyOp13
 70
     1
102
RTVSPropertyOp14
 70
     1
102
RTVSPropertyOp15
 70
     1
102
RTVSPropertyOp16
 70
     1
102
RTVSPropertyOp17
 70
     1
102
RTVSPropertyOp18
 70
     1
102
RTVSPropertyOp19
 70
     1
102
RTVSPropertyOp20
 70
     1
102
RTVSPropertyOp21
 70
     1
102
RTVSPropertyOp22
 70
     1
102
RTVSPropertyOp23
 70
     1
102
RTVSPropertyOp24
 70
     1
102
RTVSPropertyOp25
 70
     1
102
RTVSPropertyOp26
 70
     1
102
RTVSPropertyOp27
 70
     1
102
RTVSPropertyOp28
 70
     1
102
RTVSPropertyOp29
 70
     1
102
RTVSPropertyOp30
 70
     1
102
RTVSPropertyOp31
 70
     1
102
RTVSPropertyOp32
 70
     1
102
RTVSPropertyOp33
 70
     1
102
RTVSPropertyOp34
 70
     1
102
RTVSPropertyOp35
 70
     1
102
RTVSPropertyOp36
 70
     1
102
RTVSPropertyOp37
 70
     1
102
RTVSPropertyOp38
 70
     1
102
RTVSPropertyOp39
 70
     1
102
RTVSPropertyOp40
 70
     1
102
RTVSPropertyOp41
 70
     1
102
RTVSPropertyOp42
 70
     1
102
RTVSPropertyOp43
 70
     1
102
RTVSPropertyOp44
 70
     1
102
RTVSPropertyOp45
 70
     1
102
RTVSPropertyOp46
 70
     1
102
RTVSPropertyOp47
 70
     1
102
RTVSPropertyOp48
 70
     1
102
RTVSPropertyOp49
 70
     1
102
RTVSPropertyOp50
 70
     1
102
RTVSPropertyOp51
 70
     0
102
RTVSPropertyOp52
 70
     0
102
RTVSPropertyOp53
 70
     1
102
RTVSPropertyOp54
 70
     1
102
RTVSPropertyOp55
 70
     1
102
RTVSPropertyOp56
 70
     1
102
RTVSPropertyOp57
 70
     1
102
RTVSPropertyOp58
 70
     1
102
RTVSPropertyOp59
 70
     1
102
RTVSPropertyOp60
 70
     1
102
RTVSPropertyOp61
 70
     1
102
RTVSPropertyOp62
 70
     1
  0
XRECORD
  5
CA2A
102
{ACAD_REACTORS
330
CA29
102
}
330
CA29
100
AcDbXrecord
280
     1
102
RTVSPost2010Prop28
280
     0
102
RTVSPost2010PropOp28
 70
     1
102
RTVSPost2010Prop29
280
     1
102
RTVSPost2010PropOp29
 70
     1
102
RTVSPost2010Prop30
280
     1
102
RTVSPost2010PropOp30
 70
     1
102
RTVSPost2010Prop31
280
     0
102
RTVSPost2010PropOp31
 70
     1
102
RTVSPost2010Prop32
280
     0
102
RTVSPost2010PropOp32
 70
     1
102
RTVSPost2010Prop33
280
     0
102
RTVSPost2010PropOp33
 70
     1
102
RTVSPost2010Prop34
280
     0
102
RTVSPost2010PropOp34
 70
     1
102
RTVSPost2010Prop35
280
     0
102
RTVSPost2010PropOp35
 70
     1
102
RTVSPost2010Prop36
280
     0
102
RTVSPost2010PropOp36
 70
     1
102
RTVSPost2010Prop37
 90
       50
102
RTVSPost2010PropOp37
 70
     1
102
RTVSPost2010Prop38
140
0.0
102
RTVSPost2010PropOp38
 70
     1
102
RTVSPost2010Prop39
140
1.0
102
RTVSPost2010PropOp39
 70
     1
102
RTVSPost2010Prop40
 90
        0
102
RTVSPost2010PropOp40
 70
     1
102
RTVSPost2010Prop41ColorIndex
 90
       18
102
RTVSPost2010Prop41ColorRGB
 90
        0
102
RTVSPost2010PropOp41
 70
     1
102
RTVSPost2010Prop42
 90
       50
102
RTVSPost2010PropOp42
 70
     1
102
RTVSPost2010Prop43
 90
        3
102
RTVSPost2010PropOp43
 70
     1
102
RTVSPost2010Prop44ColorIndex
 90
        5
102
RTVSPost2010Prop44ColorRGB
 90
      255
102
RTVSPost2010PropOp44
 70
     1
102
RTVSPost2010Prop45
280
     0
102
RTVSPost2010PropOp45
 70
     1
102
RTVSPost2010Prop46
 90
       50
102
RTVSPost2010PropOp46
 70
     1
102
RTVSPost2010Prop47
 90
       50
102
RTVSPost2010PropOp47
 70
     1
102
RTVSPost2010Prop48
 90
       50
102
RTVSPost2010PropOp48
 70
     1
102
RTVSPost2010Prop49
280
     0
102
RTVSPost2010PropOp49
 70
     1
102
RTVSPost2010Prop50
 90
       50
102
RTVSPost2010PropOp50
 70
     1
102
RTVSPost2010Prop51ColorIndex
 90
      256
102
RTVSPost2010Prop51ColorRGB
 90
-16777216
102
RTVSPost2010PropOp51
 70
     0
102
RTVSPost2010Prop52
140
1.0
102
RTVSPost2010PropOp52
 70
     0
102
RTVSPost2010Prop53
 90
        2
102
RTVSPost2010PropOp53
 70
     1
102
RTVSPost2010Prop54
  1
strokes_ogs.tif
102
RTVSPost2010PropOp54
 70
     1
102
RTVSPost2010Prop55
280
     0
102
RTVSPost2010PropOp55
 70
     1
102
RTVSPost2010Prop56
140
1.0
102
RTVSPost2010PropOp56
 70
     1
102
RTVSPost2010Prop57
140
1.0
102
RTVSPost2010PropOp57
 70
     1
102
RTVSPropertyOp0
 70
     1
102
RTVSPropertyOp1
 70
     1
102
RTVSPropertyOp2
 70
     1
102
RTVSPropertyOp3
 70
     1
102
RTVSPropertyOp4
 70
     1
102
RTVSPropertyOp5
 70
     1
102
RTVSPropertyOp6
 70
     1
102
RTVSPropertyOp7
 70
     1
102
RTVSPropertyOp8
 70
     1
102
RTVSPropertyOp9
 70
     1
102
RTVSPropertyOp10
 70
     1
102
RTVSPropertyOp11
 70
     1
102
RTVSPropertyOp12
 70
     1
102
RTVSPropertyOp13
 70
     1
102
RTVSPropertyOp14
 70
     1
102
RTVSPropertyOp15
 70
     1
102
RTVSPropertyOp16
 70
     1
102
RTVSPropertyOp17
 70
     1
102
RTVSPropertyOp18
 70
     1
102
RTVSPropertyOp19
 70
     1
102
RTVSPropertyOp20
 70
     1
102
RTVSPropertyOp21
 70
     1
102
RTVSPropertyOp22
 70
     1
102
RTVSPropertyOp23
 70
     1
102
RTVSPropertyOp24
 70
     1
102
RTVSPropertyOp25
 70
     1
102
RTVSPropertyOp26
 70
     1
102
RTVSPropertyOp27
 70
     1
102
RTVSPropertyOp28
 70
     1
102
RTVSPropertyOp29
 70
     1
102
RTVSPropertyOp30
 70
     1
102
RTVSPropertyOp31
 70
     1
102
RTVSPropertyOp32
 70
     1
102
RTVSPropertyOp33
 70
     1
102
RTVSPropertyOp34
 70
     1
102
RTVSPropertyOp35
 70
     1
102
RTVSPropertyOp36
 70
     1
102
RTVSPropertyOp37
 70
     1
102
RTVSPropertyOp38
 70
     1
102
RTVSPropertyOp39
 70
     1
102
RTVSPropertyOp40
 70
     1
102
RTVSPropertyOp41
 70
     1
102
RTVSPropertyOp42
 70
     1
102
RTVSPropertyOp43
 70
     1
102
RTVSPropertyOp44
 70
     1
102
RTVSPropertyOp45
 70
     1
102
RTVSPropertyOp46
 70
     1
102
RTVSPropertyOp47
 70
     1
102
RTVSPropertyOp48
 70
     1
102
RTVSPropertyOp49
 70
     1
102
RTVSPropertyOp50
 70
     1
102
RTVSPropertyOp51
 70
     0
102
RTVSPropertyOp52
 70
     0
102
RTVSPropertyOp53
 70
     1
102
RTVSPropertyOp54
 70
     1
102
RTVSPropertyOp55
 70
     1
102
RTVSPropertyOp56
 70
     1
102
RTVSPropertyOp57
 70
     1
102
RTVSPropertyOp58
 70
     1
102
RTVSPropertyOp59
 70
     1
102
RTVSPropertyOp60
 70
     1
102
RTVSPropertyOp61
 70
     1
102
RTVSPropertyOp62
 70
     1
  0
XRECORD
  5
CA32
102
{ACAD_REACTORS
330
CA31
102
}
330
CA31
100
AcDbXrecord
280
     1
102
RTVSPost2010Prop28
280
     0
102
RTVSPost2010PropOp28
 70
     1
102
RTVSPost2010Prop29
280
     1
102
RTVSPost2010PropOp29
 70
     1
102
RTVSPost2010Prop30
280
     1
102
RTVSPost2010PropOp30
 70
     1
102
RTVSPost2010Prop31
280
     0
102
RTVSPost2010PropOp31
 70
     1
102
RTVSPost2010Prop32
280
     0
102
RTVSPost2010PropOp32
 70
     1
102
RTVSPost2010Prop33
280
     0
102
RTVSPost2010PropOp33
 70
     1
102
RTVSPost2010Prop34
280
     0
102
RTVSPost2010PropOp34
 70
     1
102
RTVSPost2010Prop35
280
     0
102
RTVSPost2010PropOp35
 70
     1
102
RTVSPost2010Prop36
280
     0
102
RTVSPost2010PropOp36
 70
     1
102
RTVSPost2010Prop37
 90
       50
102
RTVSPost2010PropOp37
 70
     1
102
RTVSPost2010Prop38
140
0.0
102
RTVSPost2010PropOp38
 70
     1
102
RTVSPost2010Prop39
140
1.0
102
RTVSPost2010PropOp39
 70
     1
102
RTVSPost2010Prop40
 90
        0
102
RTVSPost2010PropOp40
 70
     1
102
RTVSPost2010Prop41ColorIndex
 90
       18
102
RTVSPost2010Prop41ColorRGB
 90
        0
102
RTVSPost2010PropOp41
 70
     1
102
RTVSPost2010Prop42
 90
       50
102
RTVSPost2010PropOp42
 70
     1
102
RTVSPost2010Prop43
 90
        3
102
RTVSPost2010PropOp43
 70
     1
102
RTVSPost2010Prop44ColorIndex
 90
        5
102
RTVSPost2010Prop44ColorRGB
 90
      255
102
RTVSPost2010PropOp44
 70
     1
102
RTVSPost2010Prop45
280
     0
102
RTVSPost2010PropOp45
 70
     1
102
RTVSPost2010Prop46
 90
       50
102
RTVSPost2010PropOp46
 70
     1
102
RTVSPost2010Prop47
 90
       50
102
RTVSPost2010PropOp47
 70
     1
102
RTVSPost2010Prop48
 90
       50
102
RTVSPost2010PropOp48
 70
     1
102
RTVSPost2010Prop49
280
     0
102
RTVSPost2010PropOp49
 70
     1
102
RTVSPost2010Prop50
 90
       50
102
RTVSPost2010PropOp50
 70
     1
102
RTVSPost2010Prop51ColorIndex
 90
      256
102
RTVSPost2010Prop51ColorRGB
 90
-16777216
102
RTVSPost2010PropOp51
 70
     0
102
RTVSPost2010Prop52
140
1.0
102
RTVSPost2010PropOp52
 70
     0
102
RTVSPost2010Prop53
 90
        2
102
RTVSPost2010PropOp53
 70
     1
102
RTVSPost2010Prop54
  1
strokes_ogs.tif
102
RTVSPost2010PropOp54
 70
     1
102
RTVSPost2010Prop55
280
     0
102
RTVSPost2010PropOp55
 70
     1
102
RTVSPost2010Prop56
140
1.0
102
RTVSPost2010PropOp56
 70
     1
102
RTVSPost2010Prop57
140
1.0
102
RTVSPost2010PropOp57
 70
     1
102
RTVSPropertyOp0
 70
     1
102
RTVSPropertyOp1
 70
     1
102
RTVSPropertyOp2
 70
     1
102
RTVSPropertyOp3
 70
     1
102
RTVSPropertyOp4
 70
     1
102
RTVSPropertyOp5
 70
     1
102
RTVSPropertyOp6
 70
     1
102
RTVSPropertyOp7
 70
     1
102
RTVSPropertyOp8
 70
     1
102
RTVSPropertyOp9
 70
     1
102
RTVSPropertyOp10
 70
     1
102
RTVSPropertyOp11
 70
     1
102
RTVSPropertyOp12
 70
     1
102
RTVSPropertyOp13
 70
     1
102
RTVSPropertyOp14
 70
     1
102
RTVSPropertyOp15
 70
     1
102
RTVSPropertyOp16
 70
     1
102
RTVSPropertyOp17
 70
     1
102
RTVSPropertyOp18
 70
     1
102
RTVSPropertyOp19
 70
     1
102
RTVSPropertyOp20
 70
     1
102
RTVSPropertyOp21
 70
     1
102
RTVSPropertyOp22
 70
     1
102
RTVSPropertyOp23
 70
     1
102
RTVSPropertyOp24
 70
     1
102
RTVSPropertyOp25
 70
     1
102
RTVSPropertyOp26
 70
     1
102
RTVSPropertyOp27
 70
     1
102
RTVSPropertyOp28
 70
     1
102
RTVSPropertyOp29
 70
     1
102
RTVSPropertyOp30
 70
     1
102
RTVSPropertyOp31
 70
     1
102
RTVSPropertyOp32
 70
     1
102
RTVSPropertyOp33
 70
     1
102
RTVSPropertyOp34
 70
     1
102
RTVSPropertyOp35
 70
     1
102
RTVSPropertyOp36
 70
     1
102
RTVSPropertyOp37
 70
     1
102
RTVSPropertyOp38
 70
     1
102
RTVSPropertyOp39
 70
     1
102
RTVSPropertyOp40
 70
     1
102
RTVSPropertyOp41
 70
     1
102
RTVSPropertyOp42
 70
     1
102
RTVSPropertyOp43
 70
     1
102
RTVSPropertyOp44
 70
     1
102
RTVSPropertyOp45
 70
     1
102
RTVSPropertyOp46
 70
     1
102
RTVSPropertyOp47
 70
     1
102
RTVSPropertyOp48
 70
     1
102
RTVSPropertyOp49
 70
     1
102
RTVSPropertyOp50
 70
     1
102
RTVSPropertyOp51
 70
     0
102
RTVSPropertyOp52
 70
     0
102
RTVSPropertyOp53
 70
     1
102
RTVSPropertyOp54
 70
     1
102
RTVSPropertyOp55
 70
     1
102
RTVSPropertyOp56
 70
     1
102
RTVSPropertyOp57
 70
     1
102
RTVSPropertyOp58
 70
     1
102
RTVSPropertyOp59
 70
     1
102
RTVSPropertyOp60
 70
     1
102
RTVSPropertyOp61
 70
     1
102
RTVSPropertyOp62
 70
     1
  0
XRECORD
  5
CA24
102
{ACAD_REACTORS
330
CA23
102
}
330
CA23
100
AcDbXrecord
280
     1
102
RTVSPost2010Prop28
280
     0
102
RTVSPost2010PropOp28
 70
     1
102
RTVSPost2010Prop29
280
     1
102
RTVSPost2010PropOp29
 70
     1
102
RTVSPost2010Prop30
280
     1
102
RTVSPost2010PropOp30
 70
     1
102
RTVSPost2010Prop31
280
     0
102
RTVSPost2010PropOp31
 70
     1
102
RTVSPost2010Prop32
280
     0
102
RTVSPost2010PropOp32
 70
     1
102
RTVSPost2010Prop33
280
     0
102
RTVSPost2010PropOp33
 70
     1
102
RTVSPost2010Prop34
280
     0
102
RTVSPost2010PropOp34
 70
     1
102
RTVSPost2010Prop35
280
     0
102
RTVSPost2010PropOp35
 70
     1
102
RTVSPost2010Prop36
280
     0
102
RTVSPost2010PropOp36
 70
     1
102
RTVSPost2010Prop37
 90
       50
102
RTVSPost2010PropOp37
 70
     1
102
RTVSPost2010Prop38
140
0.0
102
RTVSPost2010PropOp38
 70
     1
102
RTVSPost2010Prop39
140
1.0
102
RTVSPost2010PropOp39
 70
     1
102
RTVSPost2010Prop40
 90
        0
102
RTVSPost2010PropOp40
 70
     1
102
RTVSPost2010Prop41ColorIndex
 90
       18
102
RTVSPost2010Prop41ColorRGB
 90
        0
102
RTVSPost2010PropOp41
 70
     1
102
RTVSPost2010Prop42
 90
       50
102
RTVSPost2010PropOp42
 70
     1
102
RTVSPost2010Prop43
 90
        3
102
RTVSPost2010PropOp43
 70
     1
102
RTVSPost2010Prop44ColorIndex
 90
        5
102
RTVSPost2010Prop44ColorRGB
 90
      255
102
RTVSPost2010PropOp44
 70
     1
102
RTVSPost2010Prop45
280
     0
102
RTVSPost2010PropOp45
 70
     1
102
RTVSPost2010Prop46
 90
       50
102
RTVSPost2010PropOp46
 70
     1
102
RTVSPost2010Prop47
 90
       50
102
RTVSPost2010PropOp47
 70
     1
102
RTVSPost2010Prop48
 90
       50
102
RTVSPost2010PropOp48
 70
     1
102
RTVSPost2010Prop49
280
     0
102
RTVSPost2010PropOp49
 70
     1
102
RTVSPost2010Prop50
 90
       50
102
RTVSPost2010PropOp50
 70
     1
102
RTVSPost2010Prop51ColorIndex
 90
      256
102
RTVSPost2010Prop51ColorRGB
 90
-16777216
102
RTVSPost2010PropOp51
 70
     0
102
RTVSPost2010Prop52
140
1.0
102
RTVSPost2010PropOp52
 70
     0
102
RTVSPost2010Prop53
 90
        2
102
RTVSPost2010PropOp53
 70
     1
102
RTVSPost2010Prop54
  1
strokes_ogs.tif
102
RTVSPost2010PropOp54
 70
     1
102
RTVSPost2010Prop55
280
     0
102
RTVSPost2010PropOp55
 70
     1
102
RTVSPost2010Prop56
140
1.0
102
RTVSPost2010PropOp56
 70
     1
102
RTVSPost2010Prop57
140
1.0
102
RTVSPost2010PropOp57
 70
     1
102
RTVSPropertyOp0
 70
     1
102
RTVSPropertyOp1
 70
     1
102
RTVSPropertyOp2
 70
     1
102
RTVSPropertyOp3
 70
     1
102
RTVSPropertyOp4
 70
     1
102
RTVSPropertyOp5
 70
     1
102
RTVSPropertyOp6
 70
     1
102
RTVSPropertyOp7
 70
     1
102
RTVSPropertyOp8
 70
     1
102
RTVSPropertyOp9
 70
     1
102
RTVSPropertyOp10
 70
     1
102
RTVSPropertyOp11
 70
     1
102
RTVSPropertyOp12
 70
     1
102
RTVSPropertyOp13
 70
     1
102
RTVSPropertyOp14
 70
     1
102
RTVSPropertyOp15
 70
     1
102
RTVSPropertyOp16
 70
     1
102
RTVSPropertyOp17
 70
     1
102
RTVSPropertyOp18
 70
     1
102
RTVSPropertyOp19
 70
     1
102
RTVSPropertyOp20
 70
     1
102
RTVSPropertyOp21
 70
     1
102
RTVSPropertyOp22
 70
     1
102
RTVSPropertyOp23
 70
     1
102
RTVSPropertyOp24
 70
     1
102
RTVSPropertyOp25
 70
     1
102
RTVSPropertyOp26
 70
     1
102
RTVSPropertyOp27
 70
     1
102
RTVSPropertyOp28
 70
     1
102
RTVSPropertyOp29
 70
     1
102
RTVSPropertyOp30
 70
     1
102
RTVSPropertyOp31
 70
     1
102
RTVSPropertyOp32
 70
     1
102
RTVSPropertyOp33
 70
     1
102
RTVSPropertyOp34
 70
     1
102
RTVSPropertyOp35
 70
     1
102
RTVSPropertyOp36
 70
     1
102
RTVSPropertyOp37
 70
     1
102
RTVSPropertyOp38
 70
     1
102
RTVSPropertyOp39
 70
     1
102
RTVSPropertyOp40
 70
     1
102
RTVSPropertyOp41
 70
     1
102
RTVSPropertyOp42
 70
     1
102
RTVSPropertyOp43
 70
     1
102
RTVSPropertyOp44
 70
     1
102
RTVSPropertyOp45
 70
     1
102
RTVSPropertyOp46
 70
     1
102
RTVSPropertyOp47
 70
     1
102
RTVSPropertyOp48
 70
     1
102
RTVSPropertyOp49
 70
     1
102
RTVSPropertyOp50
 70
     1
102
RTVSPropertyOp51
 70
     0
102
RTVSPropertyOp52
 70
     0
102
RTVSPropertyOp53
 70
     1
102
RTVSPropertyOp54
 70
     1
102
RTVSPropertyOp55
 70
     1
102
RTVSPropertyOp56
 70
     1
102
RTVSPropertyOp57
 70
     1
102
RTVSPropertyOp58
 70
     1
102
RTVSPropertyOp59
 70
     1
102
RTVSPropertyOp60
 70
     1
102
RTVSPropertyOp61
 70
     1
102
RTVSPropertyOp62
 70
     1
  0
XRECORD
  5
CA28
102
{ACAD_REACTORS
330
CA27
102
}
330
CA27
100
AcDbXrecord
280
     1
102
RTVSPost2010Prop28
280
     0
102
RTVSPost2010PropOp28
 70
     1
102
RTVSPost2010Prop29
280
     1
102
RTVSPost2010PropOp29
 70
     1
102
RTVSPost2010Prop30
280
     1
102
RTVSPost2010PropOp30
 70
     1
102
RTVSPost2010Prop31
280
     0
102
RTVSPost2010PropOp31
 70
     1
102
RTVSPost2010Prop32
280
     0
102
RTVSPost2010PropOp32
 70
     1
102
RTVSPost2010Prop33
280
     0
102
RTVSPost2010PropOp33
 70
     1
102
RTVSPost2010Prop34
280
     0
102
RTVSPost2010PropOp34
 70
     1
102
RTVSPost2010Prop35
280
     0
102
RTVSPost2010PropOp35
 70
     1
102
RTVSPost2010Prop36
280
     0
102
RTVSPost2010PropOp36
 70
     1
102
RTVSPost2010Prop37
 90
       50
102
RTVSPost2010PropOp37
 70
     1
102
RTVSPost2010Prop38
140
0.0
102
RTVSPost2010PropOp38
 70
     1
102
RTVSPost2010Prop39
140
1.0
102
RTVSPost2010PropOp39
 70
     1
102
RTVSPost2010Prop40
 90
        0
102
RTVSPost2010PropOp40
 70
     1
102
RTVSPost2010Prop41ColorIndex
 90
       18
102
RTVSPost2010Prop41ColorRGB
 90
        0
102
RTVSPost2010PropOp41
 70
     1
102
RTVSPost2010Prop42
 90
       50
102
RTVSPost2010PropOp42
 70
     1
102
RTVSPost2010Prop43
 90
        3
102
RTVSPost2010PropOp43
 70
     1
102
RTVSPost2010Prop44ColorIndex
 90
        5
102
RTVSPost2010Prop44ColorRGB
 90
      255
102
RTVSPost2010PropOp44
 70
     1
102
RTVSPost2010Prop45
280
     0
102
RTVSPost2010PropOp45
 70
     1
102
RTVSPost2010Prop46
 90
       50
102
RTVSPost2010PropOp46
 70
     1
102
RTVSPost2010Prop47
 90
       50
102
RTVSPost2010PropOp47
 70
     1
102
RTVSPost2010Prop48
 90
       50
102
RTVSPost2010PropOp48
 70
     1
102
RTVSPost2010Prop49
280
     0
102
RTVSPost2010PropOp49
 70
     1
102
RTVSPost2010Prop50
 90
       50
102
RTVSPost2010PropOp50
 70
     1
102
RTVSPost2010Prop51ColorIndex
 90
      256
102
RTVSPost2010Prop51ColorRGB
 90
-16777216
102
RTVSPost2010PropOp51
 70
     0
102
RTVSPost2010Prop52
140
1.0
102
RTVSPost2010PropOp52
 70
     0
102
RTVSPost2010Prop53
 90
        2
102
RTVSPost2010PropOp53
 70
     1
102
RTVSPost2010Prop54
  1
strokes_ogs.tif
102
RTVSPost2010PropOp54
 70
     1
102
RTVSPost2010Prop55
280
     0
102
RTVSPost2010PropOp55
 70
     1
102
RTVSPost2010Prop56
140
1.0
102
RTVSPost2010PropOp56
 70
     1
102
RTVSPost2010Prop57
140
1.0
102
RTVSPost2010PropOp57
 70
     1
102
RTVSPropertyOp0
 70
     1
102
RTVSPropertyOp1
 70
     1
102
RTVSPropertyOp2
 70
     1
102
RTVSPropertyOp3
 70
     1
102
RTVSPropertyOp4
 70
     1
102
RTVSPropertyOp5
 70
     1
102
RTVSPropertyOp6
 70
     1
102
RTVSPropertyOp7
 70
     1
102
RTVSPropertyOp8
 70
     1
102
RTVSPropertyOp9
 70
     1
102
RTVSPropertyOp10
 70
     1
102
RTVSPropertyOp11
 70
     1
102
RTVSPropertyOp12
 70
     1
102
RTVSPropertyOp13
 70
     1
102
RTVSPropertyOp14
 70
     1
102
RTVSPropertyOp15
 70
     1
102
RTVSPropertyOp16
 70
     1
102
RTVSPropertyOp17
 70
     1
102
RTVSPropertyOp18
 70
     1
102
RTVSPropertyOp19
 70
     1
102
RTVSPropertyOp20
 70
     1
102
RTVSPropertyOp21
 70
     1
102
RTVSPropertyOp22
 70
     1
102
RTVSPropertyOp23
 70
     1
102
RTVSPropertyOp24
 70
     1
102
RTVSPropertyOp25
 70
     1
102
RTVSPropertyOp26
 70
     1
102
RTVSPropertyOp27
 70
     1
102
RTVSPropertyOp28
 70
     1
102
RTVSPropertyOp29
 70
     1
102
RTVSPropertyOp30
 70
     1
102
RTVSPropertyOp31
 70
     1
102
RTVSPropertyOp32
 70
     1
102
RTVSPropertyOp33
 70
     1
102
RTVSPropertyOp34
 70
     1
102
RTVSPropertyOp35
 70
     1
102
RTVSPropertyOp36
 70
     1
102
RTVSPropertyOp37
 70
     1
102
RTVSPropertyOp38
 70
     1
102
RTVSPropertyOp39
 70
     1
102
RTVSPropertyOp40
 70
     1
102
RTVSPropertyOp41
 70
     1
102
RTVSPropertyOp42
 70
     1
102
RTVSPropertyOp43
 70
     1
102
RTVSPropertyOp44
 70
     1
102
RTVSPropertyOp45
 70
     1
102
RTVSPropertyOp46
 70
     1
102
RTVSPropertyOp47
 70
     1
102
RTVSPropertyOp48
 70
     1
102
RTVSPropertyOp49
 70
     1
102
RTVSPropertyOp50
 70
     1
102
RTVSPropertyOp51
 70
     0
102
RTVSPropertyOp52
 70
     0
102
RTVSPropertyOp53
 70
     1
102
RTVSPropertyOp54
 70
     1
102
RTVSPropertyOp55
 70
     1
102
RTVSPropertyOp56
 70
     1
102
RTVSPropertyOp57
 70
     1
102
RTVSPropertyOp58
 70
     1
102
RTVSPropertyOp59
 70
     1
102
RTVSPropertyOp60
 70
     1
102
RTVSPropertyOp61
 70
     1
102
RTVSPropertyOp62
 70
     1
  0
XRECORD
  5
CA42
102
{ACAD_REACTORS
330
CA41
102
}
330
CA41
100
AcDbXrecord
280
     1
102
RTVSPost2010Prop28
280
     0
102
RTVSPost2010PropOp28
 70
     1
102
RTVSPost2010Prop29
280
     1
102
RTVSPost2010PropOp29
 70
     1
102
RTVSPost2010Prop30
280
     1
102
RTVSPost2010PropOp30
 70
     1
102
RTVSPost2010Prop31
280
     0
102
RTVSPost2010PropOp31
 70
     1
102
RTVSPost2010Prop32
280
     0
102
RTVSPost2010PropOp32
 70
     1
102
RTVSPost2010Prop33
280
     0
102
RTVSPost2010PropOp33
 70
     1
102
RTVSPost2010Prop34
280
     0
102
RTVSPost2010PropOp34
 70
     1
102
RTVSPost2010Prop35
280
     0
102
RTVSPost2010PropOp35
 70
     1
102
RTVSPost2010Prop36
280
     0
102
RTVSPost2010PropOp36
 70
     1
102
RTVSPost2010Prop37
 90
       50
102
RTVSPost2010PropOp37
 70
     0
102
RTVSPost2010Prop38
140
0.0
102
RTVSPost2010PropOp38
 70
     0
102
RTVSPost2010Prop39
140
1.0
102
RTVSPost2010PropOp39
 70
     0
102
RTVSPost2010Prop40
 90
        0
102
RTVSPost2010PropOp40
 70
     0
102
RTVSPost2010Prop41ColorIndex
 90
       18
102
RTVSPost2010Prop41ColorRGB
 90
        0
102
RTVSPost2010PropOp41
 70
     0
102
RTVSPost2010Prop42
 90
       50
102
RTVSPost2010PropOp42
 70
     0
102
RTVSPost2010Prop43
 90
        3
102
RTVSPost2010PropOp43
 70
     0
102
RTVSPost2010Prop44ColorIndex
 90
        5
102
RTVSPost2010Prop44ColorRGB
 90
      255
102
RTVSPost2010PropOp44
 70
     0
102
RTVSPost2010Prop45
280
     0
102
RTVSPost2010PropOp45
 70
     1
102
RTVSPost2010Prop46
 90
       50
102
RTVSPost2010PropOp46
 70
     0
102
RTVSPost2010Prop47
 90
       50
102
RTVSPost2010PropOp47
 70
     0
102
RTVSPost2010Prop48
 90
       50
102
RTVSPost2010PropOp48
 70
     0
102
RTVSPost2010Prop49
280
     0
102
RTVSPost2010PropOp49
 70
     1
102
RTVSPost2010Prop50
 90
       50
102
RTVSPost2010PropOp50
 70
     0
102
RTVSPost2010Prop51ColorIndex
 90
      256
102
RTVSPost2010Prop51ColorRGB
 90
-16777216
102
RTVSPost2010PropOp51
 70
     0
102
RTVSPost2010Prop52
140
1.0
102
RTVSPost2010PropOp52
 70
     0
102
RTVSPost2010Prop53
 90
        2
102
RTVSPost2010PropOp53
 70
     0
102
RTVSPost2010Prop54
  1
strokes_ogs.tif
102
RTVSPost2010PropOp54
 70
     0
102
RTVSPost2010Prop55
280
     0
102
RTVSPost2010PropOp55
 70
     1
102
RTVSPost2010Prop56
140
1.0
102
RTVSPost2010PropOp56
 70
     0
102
RTVSPost2010Prop57
140
1.0
102
RTVSPost2010PropOp57
 70
     0
102
RTVSPropertyOp0
 70
     0
102
RTVSPropertyOp1
 70
     0
102
RTVSPropertyOp2
 70
     0
102
RTVSPropertyOp3
 70
     0
102
RTVSPropertyOp4
 70
     0
102
RTVSPropertyOp5
 70
     0
102
RTVSPropertyOp6
 70
     0
102
RTVSPropertyOp7
 70
     0
102
RTVSPropertyOp8
 70
     0
102
RTVSPropertyOp9
 70
     0
102
RTVSPropertyOp10
 70
     0
102
RTVSPropertyOp11
 70
     0
102
RTVSPropertyOp12
 70
     0
102
RTVSPropertyOp13
 70
     0
102
RTVSPropertyOp14
 70
     2
102
RTVSPropertyOp15
 70
     0
102
RTVSPropertyOp16
 70
     0
102
RTVSPropertyOp17
 70
     0
102
RTVSPropertyOp18
 70
     0
102
RTVSPropertyOp19
 70
     0
102
RTVSPropertyOp20
 70
     0
102
RTVSPropertyOp21
 70
     0
102
RTVSPropertyOp22
 70
     0
102
RTVSPropertyOp23
 70
     0
102
RTVSPropertyOp24
 70
     0
102
RTVSPropertyOp25
 70
     0
102
RTVSPropertyOp26
 70
     0
102
RTVSPropertyOp27
 70
     0
102
RTVSPropertyOp28
 70
     1
102
RTVSPropertyOp29
 70
     1
102
RTVSPropertyOp30
 70
     1
102
RTVSPropertyOp31
 70
     1
102
RTVSPropertyOp32
 70
     1
102
RTVSPropertyOp33
 70
     1
102
RTVSPropertyOp34
 70
     1
102
RTVSPropertyOp35
 70
     1
102
RTVSPropertyOp36
 70
     1
102
RTVSPropertyOp37
 70
     0
102
RTVSPropertyOp38
 70
     0
102
RTVSPropertyOp39
 70
     0
102
RTVSPropertyOp40
 70
     0
102
RTVSPropertyOp41
 70
     0
102
RTVSPropertyOp42
 70
     0
102
RTVSPropertyOp43
 70
     0
102
RTVSPropertyOp44
 70
     0
102
RTVSPropertyOp45
 70
     1
102
RTVSPropertyOp46
 70
     0
102
RTVSPropertyOp47
 70
     0
102
RTVSPropertyOp48
 70
     0
102
RTVSPropertyOp49
 70
     1
102
RTVSPropertyOp50
 70
     0
102
RTVSPropertyOp51
 70
     0
102
RTVSPropertyOp52
 70
     0
102
RTVSPropertyOp53
 70
     0
102
RTVSPropertyOp54
 70
     0
102
RTVSPropertyOp55
 70
     1
102
RTVSPropertyOp56
 70
     0
102
RTVSPropertyOp57
 70
     0
102
RTVSPropertyOp58
 70
     0
102
RTVSPropertyOp59
 70
     0
102
RTVSPropertyOp60
 70
     0
102
RTVSPropertyOp61
 70
     0
102
RTVSPropertyOp62
 70
     0
  0
XRECORD
  5
CA30
102
{ACAD_REACTORS
330
CA2F
102
}
330
CA2F
100
AcDbXrecord
280
     1
102
RTVSPost2010Prop28
280
     0
102
RTVSPost2010PropOp28
 70
     1
102
RTVSPost2010Prop29
280
     1
102
RTVSPost2010PropOp29
 70
     1
102
RTVSPost2010Prop30
280
     1
102
RTVSPost2010PropOp30
 70
     1
102
RTVSPost2010Prop31
280
     0
102
RTVSPost2010PropOp31
 70
     1
102
RTVSPost2010Prop32
280
     0
102
RTVSPost2010PropOp32
 70
     1
102
RTVSPost2010Prop33
280
     0
102
RTVSPost2010PropOp33
 70
     1
102
RTVSPost2010Prop34
280
     0
102
RTVSPost2010PropOp34
 70
     1
102
RTVSPost2010Prop35
280
     0
102
RTVSPost2010PropOp35
 70
     1
102
RTVSPost2010Prop36
280
     0
102
RTVSPost2010PropOp36
 70
     1
102
RTVSPost2010Prop37
 90
       50
102
RTVSPost2010PropOp37
 70
     1
102
RTVSPost2010Prop38
140
0.0
102
RTVSPost2010PropOp38
 70
     1
102
RTVSPost2010Prop39
140
1.0
102
RTVSPost2010PropOp39
 70
     1
102
RTVSPost2010Prop40
 90
        0
102
RTVSPost2010PropOp40
 70
     1
102
RTVSPost2010Prop41ColorIndex
 90
       18
102
RTVSPost2010Prop41ColorRGB
 90
        0
102
RTVSPost2010PropOp41
 70
     1
102
RTVSPost2010Prop42
 90
       50
102
RTVSPost2010PropOp42
 70
     1
102
RTVSPost2010Prop43
 90
        3
102
RTVSPost2010PropOp43
 70
     1
102
RTVSPost2010Prop44ColorIndex
 90
        5
102
RTVSPost2010Prop44ColorRGB
 90
      255
102
RTVSPost2010PropOp44
 70
     1
102
RTVSPost2010Prop45
280
     0
102
RTVSPost2010PropOp45
 70
     1
102
RTVSPost2010Prop46
 90
       50
102
RTVSPost2010PropOp46
 70
     1
102
RTVSPost2010Prop47
 90
       50
102
RTVSPost2010PropOp47
 70
     1
102
RTVSPost2010Prop48
 90
       50
102
RTVSPost2010PropOp48
 70
     1
102
RTVSPost2010Prop49
280
     0
102
RTVSPost2010PropOp49
 70
     1
102
RTVSPost2010Prop50
 90
       50
102
RTVSPost2010PropOp50
 70
     1
102
RTVSPost2010Prop51ColorIndex
 90
      256
102
RTVSPost2010Prop51ColorRGB
 90
-16777216
102
RTVSPost2010PropOp51
 70
     0
102
RTVSPost2010Prop52
140
1.0
102
RTVSPost2010PropOp52
 70
     0
102
RTVSPost2010Prop53
 90
        2
102
RTVSPost2010PropOp53
 70
     1
102
RTVSPost2010Prop54
  1
strokes_ogs.tif
102
RTVSPost2010PropOp54
 70
     1
102
RTVSPost2010Prop55
280
     0
102
RTVSPost2010PropOp55
 70
     1
102
RTVSPost2010Prop56
140
1.0
102
RTVSPost2010PropOp56
 70
     1
102
RTVSPost2010Prop57
140
1.0
102
RTVSPost2010PropOp57
 70
     1
102
RTVSPropertyOp0
 70
     1
102
RTVSPropertyOp1
 70
     1
102
RTVSPropertyOp2
 70
     1
102
RTVSPropertyOp3
 70
     1
102
RTVSPropertyOp4
 70
     1
102
RTVSPropertyOp5
 70
     1
102
RTVSPropertyOp6
 70
     1
102
RTVSPropertyOp7
 70
     1
102
RTVSPropertyOp8
 70
     1
102
RTVSPropertyOp9
 70
     1
102
RTVSPropertyOp10
 70
     1
102
RTVSPropertyOp11
 70
     1
102
RTVSPropertyOp12
 70
     1
102
RTVSPropertyOp13
 70
     1
102
RTVSPropertyOp14
 70
     1
102
RTVSPropertyOp15
 70
     1
102
RTVSPropertyOp16
 70
     1
102
RTVSPropertyOp17
 70
     1
102
RTVSPropertyOp18
 70
     1
102
RTVSPropertyOp19
 70
     1
102
RTVSPropertyOp20
 70
     1
102
RTVSPropertyOp21
 70
     1
102
RTVSPropertyOp22
 70
     1
102
RTVSPropertyOp23
 70
     1
102
RTVSPropertyOp24
 70
     1
102
RTVSPropertyOp25
 70
     1
102
RTVSPropertyOp26
 70
     1
102
RTVSPropertyOp27
 70
     1
102
RTVSPropertyOp28
 70
     1
102
RTVSPropertyOp29
 70
     1
102
RTVSPropertyOp30
 70
     1
102
RTVSPropertyOp31
 70
     1
102
RTVSPropertyOp32
 70
     1
102
RTVSPropertyOp33
 70
     1
102
RTVSPropertyOp34
 70
     1
102
RTVSPropertyOp35
 70
     1
102
RTVSPropertyOp36
 70
     1
102
RTVSPropertyOp37
 70
     1
102
RTVSPropertyOp38
 70
     1
102
RTVSPropertyOp39
 70
     1
102
RTVSPropertyOp40
 70
     1
102
RTVSPropertyOp41
 70
     1
102
RTVSPropertyOp42
 70
     1
102
RTVSPropertyOp43
 70
     1
102
RTVSPropertyOp44
 70
     1
102
RTVSPropertyOp45
 70
     1
102
RTVSPropertyOp46
 70
     1
102
RTVSPropertyOp47
 70
     1
102
RTVSPropertyOp48
 70
     1
102
RTVSPropertyOp49
 70
     1
102
RTVSPropertyOp50
 70
     1
102
RTVSPropertyOp51
 70
     0
102
RTVSPropertyOp52
 70
     0
102
RTVSPropertyOp53
 70
     1
102
RTVSPropertyOp54
 70
     1
102
RTVSPropertyOp55
 70
     1
102
RTVSPropertyOp56
 70
     1
102
RTVSPropertyOp57
 70
     1
102
RTVSPropertyOp58
 70
     1
102
RTVSPropertyOp59
 70
     1
102
RTVSPropertyOp60
 70
     1
102
RTVSPropertyOp61
 70
     1
102
RTVSPropertyOp62
 70
     1
  0
XRECORD
  5
CA14
102
{ACAD_REACTORS
330
CA13
102
}
330
CA13
100
AcDbXrecord
280
     1
102
RTVSPost2010Prop28
280
     0
102
RTVSPost2010PropOp28
 70
     1
102
RTVSPost2010Prop29
280
     1
102
RTVSPost2010PropOp29
 70
     1
102
RTVSPost2010Prop30
280
     1
102
RTVSPost2010PropOp30
 70
     1
102
RTVSPost2010Prop31
280
     0
102
RTVSPost2010PropOp31
 70
     1
102
RTVSPost2010Prop32
280
     0
102
RTVSPost2010PropOp32
 70
     1
102
RTVSPost2010Prop33
280
     0
102
RTVSPost2010PropOp33
 70
     1
102
RTVSPost2010Prop34
280
     0
102
RTVSPost2010PropOp34
 70
     1
102
RTVSPost2010Prop35
280
     0
102
RTVSPost2010PropOp35
 70
     1
102
RTVSPost2010Prop36
280
     0
102
RTVSPost2010PropOp36
 70
     1
102
RTVSPost2010Prop37
 90
       50
102
RTVSPost2010PropOp37
 70
     1
102
RTVSPost2010Prop38
140
0.0
102
RTVSPost2010PropOp38
 70
     1
102
RTVSPost2010Prop39
140
1.0
102
RTVSPost2010PropOp39
 70
     1
102
RTVSPost2010Prop40
 90
        0
102
RTVSPost2010PropOp40
 70
     1
102
RTVSPost2010Prop41ColorIndex
 90
       18
102
RTVSPost2010Prop41ColorRGB
 90
        0
102
RTVSPost2010PropOp41
 70
     1
102
RTVSPost2010Prop42
 90
       50
102
RTVSPost2010PropOp42
 70
     1
102
RTVSPost2010Prop43
 90
        3
102
RTVSPost2010PropOp43
 70
     1
102
RTVSPost2010Prop44ColorIndex
 90
        5
102
RTVSPost2010Prop44ColorRGB
 90
      255
102
RTVSPost2010PropOp44
 70
     1
102
RTVSPost2010Prop45
280
     0
102
RTVSPost2010PropOp45
 70
     1
102
RTVSPost2010Prop46
 90
       50
102
RTVSPost2010PropOp46
 70
     1
102
RTVSPost2010Prop47
 90
       50
102
RTVSPost2010PropOp47
 70
     1
102
RTVSPost2010Prop48
 90
       50
102
RTVSPost2010PropOp48
 70
     1
102
RTVSPost2010Prop49
280
     0
102
RTVSPost2010PropOp49
 70
     1
102
RTVSPost2010Prop50
 90
       50
102
RTVSPost2010PropOp50
 70
     1
102
RTVSPost2010Prop51ColorIndex
 90
      256
102
RTVSPost2010Prop51ColorRGB
 90
-16777216
102
RTVSPost2010PropOp51
 70
     0
102
RTVSPost2010Prop52
140
1.0
102
RTVSPost2010PropOp52
 70
     0
102
RTVSPost2010Prop53
 90
        2
102
RTVSPost2010PropOp53
 70
     1
102
RTVSPost2010Prop54
  1
strokes_ogs.tif
102
RTVSPost2010PropOp54
 70
     1
102
RTVSPost2010Prop55
280
     0
102
RTVSPost2010PropOp55
 70
     1
102
RTVSPost2010Prop56
140
1.0
102
RTVSPost2010PropOp56
 70
     1
102
RTVSPost2010Prop57
140
1.0
102
RTVSPost2010PropOp57
 70
     1
102
RTVSPropertyOp0
 70
     1
102
RTVSPropertyOp1
 70
     1
102
RTVSPropertyOp2
 70
     1
102
RTVSPropertyOp3
 70
     1
102
RTVSPropertyOp4
 70
     1
102
RTVSPropertyOp5
 70
     1
102
RTVSPropertyOp6
 70
     1
102
RTVSPropertyOp7
 70
     1
102
RTVSPropertyOp8
 70
     1
102
RTVSPropertyOp9
 70
     1
102
RTVSPropertyOp10
 70
     1
102
RTVSPropertyOp11
 70
     1
102
RTVSPropertyOp12
 70
     1
102
RTVSPropertyOp13
 70
     1
102
RTVSPropertyOp14
 70
     1
102
RTVSPropertyOp15
 70
     1
102
RTVSPropertyOp16
 70
     1
102
RTVSPropertyOp17
 70
     1
102
RTVSPropertyOp18
 70
     1
102
RTVSPropertyOp19
 70
     1
102
RTVSPropertyOp20
 70
     1
102
RTVSPropertyOp21
 70
     1
102
RTVSPropertyOp22
 70
     1
102
RTVSPropertyOp23
 70
     1
102
RTVSPropertyOp24
 70
     1
102
RTVSPropertyOp25
 70
     1
102
RTVSPropertyOp26
 70
     1
102
RTVSPropertyOp27
 70
     1
102
RTVSPropertyOp28
 70
     1
102
RTVSPropertyOp29
 70
     1
102
RTVSPropertyOp30
 70
     1
102
RTVSPropertyOp31
 70
     1
102
RTVSPropertyOp32
 70
     1
102
RTVSPropertyOp33
 70
     1
102
RTVSPropertyOp34
 70
     1
102
RTVSPropertyOp35
 70
     1
102
RTVSPropertyOp36
 70
     1
102
RTVSPropertyOp37
 70
     1
102
RTVSPropertyOp38
 70
     1
102
RTVSPropertyOp39
 70
     1
102
RTVSPropertyOp40
 70
     1
102
RTVSPropertyOp41
 70
     1
102
RTVSPropertyOp42
 70
     1
102
RTVSPropertyOp43
 70
     1
102
RTVSPropertyOp44
 70
     1
102
RTVSPropertyOp45
 70
     1
102
RTVSPropertyOp46
 70
     1
102
RTVSPropertyOp47
 70
     1
102
RTVSPropertyOp48
 70
     1
102
RTVSPropertyOp49
 70
     1
102
RTVSPropertyOp50
 70
     1
102
RTVSPropertyOp51
 70
     0
102
RTVSPropertyOp52
 70
     0
102
RTVSPropertyOp53
 70
     1
102
RTVSPropertyOp54
 70
     1
102
RTVSPropertyOp55
 70
     1
102
RTVSPropertyOp56
 70
     1
102
RTVSPropertyOp57
 70
     1
102
RTVSPropertyOp58
 70
     1
102
RTVSPropertyOp59
 70
     1
102
RTVSPropertyOp60
 70
     1
102
RTVSPropertyOp61
 70
     1
102
RTVSPropertyOp62
 70
     1
  0
XRECORD
  5
CA16
102
{ACAD_REACTORS
330
CA15
102
}
330
CA15
100
AcDbXrecord
280
     1
102
RTVSPost2010Prop28
280
     0
102
RTVSPost2010PropOp28
 70
     1
102
RTVSPost2010Prop29
280
     1
102
RTVSPost2010PropOp29
 70
     1
102
RTVSPost2010Prop30
280
     1
102
RTVSPost2010PropOp30
 70
     1
102
RTVSPost2010Prop31
280
     0
102
RTVSPost2010PropOp31
 70
     1
102
RTVSPost2010Prop32
280
     0
102
RTVSPost2010PropOp32
 70
     1
102
RTVSPost2010Prop33
280
     0
102
RTVSPost2010PropOp33
 70
     1
102
RTVSPost2010Prop34
280
     0
102
RTVSPost2010PropOp34
 70
     1
102
RTVSPost2010Prop35
280
     0
102
RTVSPost2010PropOp35
 70
     1
102
RTVSPost2010Prop36
280
     0
102
RTVSPost2010PropOp36
 70
     1
102
RTVSPost2010Prop37
 90
       50
102
RTVSPost2010PropOp37
 70
     1
102
RTVSPost2010Prop38
140
0.0
102
RTVSPost2010PropOp38
 70
     1
102
RTVSPost2010Prop39
140
1.0
102
RTVSPost2010PropOp39
 70
     1
102
RTVSPost2010Prop40
 90
        0
102
RTVSPost2010PropOp40
 70
     1
102
RTVSPost2010Prop41ColorIndex
 90
       18
102
RTVSPost2010Prop41ColorRGB
 90
        0
102
RTVSPost2010PropOp41
 70
     1
102
RTVSPost2010Prop42
 90
       50
102
RTVSPost2010PropOp42
 70
     1
102
RTVSPost2010Prop43
 90
        3
102
RTVSPost2010PropOp43
 70
     1
102
RTVSPost2010Prop44ColorIndex
 90
        5
102
RTVSPost2010Prop44ColorRGB
 90
      255
102
RTVSPost2010PropOp44
 70
     1
102
RTVSPost2010Prop45
280
     0
102
RTVSPost2010PropOp45
 70
     1
102
RTVSPost2010Prop46
 90
       50
102
RTVSPost2010PropOp46
 70
     1
102
RTVSPost2010Prop47
 90
       50
102
RTVSPost2010PropOp47
 70
     1
102
RTVSPost2010Prop48
 90
       50
102
RTVSPost2010PropOp48
 70
     1
102
RTVSPost2010Prop49
280
     0
102
RTVSPost2010PropOp49
 70
     1
102
RTVSPost2010Prop50
 90
       50
102
RTVSPost2010PropOp50
 70
     1
102
RTVSPost2010Prop51ColorIndex
 90
      256
102
RTVSPost2010Prop51ColorRGB
 90
-16777216
102
RTVSPost2010PropOp51
 70
     0
102
RTVSPost2010Prop52
140
1.0
102
RTVSPost2010PropOp52
 70
     0
102
RTVSPost2010Prop53
 90
        2
102
RTVSPost2010PropOp53
 70
     1
102
RTVSPost2010Prop54
  1
strokes_ogs.tif
102
RTVSPost2010PropOp54
 70
     1
102
RTVSPost2010Prop55
280
     0
102
RTVSPost2010PropOp55
 70
     1
102
RTVSPost2010Prop56
140
1.0
102
RTVSPost2010PropOp56
 70
     1
102
RTVSPost2010Prop57
140
1.0
102
RTVSPost2010PropOp57
 70
     1
102
RTVSPropertyOp0
 70
     1
102
RTVSPropertyOp1
 70
     1
102
RTVSPropertyOp2
 70
     1
102
RTVSPropertyOp3
 70
     1
102
RTVSPropertyOp4
 70
     1
102
RTVSPropertyOp5
 70
     1
102
RTVSPropertyOp6
 70
     1
102
RTVSPropertyOp7
 70
     1
102
RTVSPropertyOp8
 70
     1
102
RTVSPropertyOp9
 70
     1
102
RTVSPropertyOp10
 70
     1
102
RTVSPropertyOp11
 70
     1
102
RTVSPropertyOp12
 70
     1
102
RTVSPropertyOp13
 70
     1
102
RTVSPropertyOp14
 70
     1
102
RTVSPropertyOp15
 70
     1
102
RTVSPropertyOp16
 70
     1
102
RTVSPropertyOp17
 70
     1
102
RTVSPropertyOp18
 70
     1
102
RTVSPropertyOp19
 70
     1
102
RTVSPropertyOp20
 70
     1
102
RTVSPropertyOp21
 70
     1
102
RTVSPropertyOp22
 70
     1
102
RTVSPropertyOp23
 70
     1
102
RTVSPropertyOp24
 70
     1
102
RTVSPropertyOp25
 70
     1
102
RTVSPropertyOp26
 70
     1
102
RTVSPropertyOp27
 70
     1
102
RTVSPropertyOp28
 70
     1
102
RTVSPropertyOp29
 70
     1
102
RTVSPropertyOp30
 70
     1
102
RTVSPropertyOp31
 70
     1
102
RTVSPropertyOp32
 70
     1
102
RTVSPropertyOp33
 70
     1
102
RTVSPropertyOp34
 70
     1
102
RTVSPropertyOp35
 70
     1
102
RTVSPropertyOp36
 70
     1
102
RTVSPropertyOp37
 70
     1
102
RTVSPropertyOp38
 70
     1
102
RTVSPropertyOp39
 70
     1
102
RTVSPropertyOp40
 70
     1
102
RTVSPropertyOp41
 70
     1
102
RTVSPropertyOp42
 70
     1
102
RTVSPropertyOp43
 70
     1
102
RTVSPropertyOp44
 70
     1
102
RTVSPropertyOp45
 70
     1
102
RTVSPropertyOp46
 70
     1
102
RTVSPropertyOp47
 70
     1
102
RTVSPropertyOp48
 70
     1
102
RTVSPropertyOp49
 70
     1
102
RTVSPropertyOp50
 70
     1
102
RTVSPropertyOp51
 70
     0
102
RTVSPropertyOp52
 70
     0
102
RTVSPropertyOp53
 70
     1
102
RTVSPropertyOp54
 70
     1
102
RTVSPropertyOp55
 70
     1
102
RTVSPropertyOp56
 70
     1
102
RTVSPropertyOp57
 70
     1
102
RTVSPropertyOp58
 70
     1
102
RTVSPropertyOp59
 70
     1
102
RTVSPropertyOp60
 70
     1
102
RTVSPropertyOp61
 70
     1
102
RTVSPropertyOp62
 70
     1
  0
XRECORD
  5
CA18
102
{ACAD_REACTORS
330
CA17
102
}
330
CA17
100
AcDbXrecord
280
     1
102
RTVSPost2010Prop28
280
     0
102
RTVSPost2010PropOp28
 70
     1
102
RTVSPost2010Prop29
280
     1
102
RTVSPost2010PropOp29
 70
     1
102
RTVSPost2010Prop30
280
     1
102
RTVSPost2010PropOp30
 70
     1
102
RTVSPost2010Prop31
280
     0
102
RTVSPost2010PropOp31
 70
     1
102
RTVSPost2010Prop32
280
     0
102
RTVSPost2010PropOp32
 70
     1
102
RTVSPost2010Prop33
280
     0
102
RTVSPost2010PropOp33
 70
     1
102
RTVSPost2010Prop34
280
     0
102
RTVSPost2010PropOp34
 70
     1
102
RTVSPost2010Prop35
280
     0
102
RTVSPost2010PropOp35
 70
     1
102
RTVSPost2010Prop36
280
     0
102
RTVSPost2010PropOp36
 70
     1
102
RTVSPost2010Prop37
 90
       50
102
RTVSPost2010PropOp37
 70
     1
102
RTVSPost2010Prop38
140
0.0
102
RTVSPost2010PropOp38
 70
     1
102
RTVSPost2010Prop39
140
1.0
102
RTVSPost2010PropOp39
 70
     1
102
RTVSPost2010Prop40
 90
        0
102
RTVSPost2010PropOp40
 70
     1
102
RTVSPost2010Prop41ColorIndex
 90
       18
102
RTVSPost2010Prop41ColorRGB
 90
        0
102
RTVSPost2010PropOp41
 70
     1
102
RTVSPost2010Prop42
 90
       50
102
RTVSPost2010PropOp42
 70
     1
102
RTVSPost2010Prop43
 90
        3
102
RTVSPost2010PropOp43
 70
     1
102
RTVSPost2010Prop44ColorIndex
 90
        5
102
RTVSPost2010Prop44ColorRGB
 90
      255
102
RTVSPost2010PropOp44
 70
     1
102
RTVSPost2010Prop45
280
     0
102
RTVSPost2010PropOp45
 70
     1
102
RTVSPost2010Prop46
 90
       50
102
RTVSPost2010PropOp46
 70
     1
102
RTVSPost2010Prop47
 90
       50
102
RTVSPost2010PropOp47
 70
     1
102
RTVSPost2010Prop48
 90
       50
102
RTVSPost2010PropOp48
 70
     1
102
RTVSPost2010Prop49
280
     0
102
RTVSPost2010PropOp49
 70
     1
102
RTVSPost2010Prop50
 90
       50
102
RTVSPost2010PropOp50
 70
     1
102
RTVSPost2010Prop51ColorIndex
 90
      256
102
RTVSPost2010Prop51ColorRGB
 90
-16777216
102
RTVSPost2010PropOp51
 70
     0
102
RTVSPost2010Prop52
140
1.0
102
RTVSPost2010PropOp52
 70
     0
102
RTVSPost2010Prop53
 90
        2
102
RTVSPost2010PropOp53
 70
     1
102
RTVSPost2010Prop54
  1
strokes_ogs.tif
102
RTVSPost2010PropOp54
 70
     1
102
RTVSPost2010Prop55
280
     0
102
RTVSPost2010PropOp55
 70
     1
102
RTVSPost2010Prop56
140
1.0
102
RTVSPost2010PropOp56
 70
     1
102
RTVSPost2010Prop57
140
1.0
102
RTVSPost2010PropOp57
 70
     1
102
RTVSPropertyOp0
 70
     1
102
RTVSPropertyOp1
 70
     1
102
RTVSPropertyOp2
 70
     1
102
RTVSPropertyOp3
 70
     1
102
RTVSPropertyOp4
 70
     1
102
RTVSPropertyOp5
 70
     1
102
RTVSPropertyOp6
 70
     1
102
RTVSPropertyOp7
 70
     1
102
RTVSPropertyOp8
 70
     1
102
RTVSPropertyOp9
 70
     1
102
RTVSPropertyOp10
 70
     1
102
RTVSPropertyOp11
 70
     1
102
RTVSPropertyOp12
 70
     1
102
RTVSPropertyOp13
 70
     1
102
RTVSPropertyOp14
 70
     1
102
RTVSPropertyOp15
 70
     1
102
RTVSPropertyOp16
 70
     1
102
RTVSPropertyOp17
 70
     1
102
RTVSPropertyOp18
 70
     1
102
RTVSPropertyOp19
 70
     1
102
RTVSPropertyOp20
 70
     1
102
RTVSPropertyOp21
 70
     1
102
RTVSPropertyOp22
 70
     1
102
RTVSPropertyOp23
 70
     1
102
RTVSPropertyOp24
 70
     1
102
RTVSPropertyOp25
 70
     1
102
RTVSPropertyOp26
 70
     1
102
RTVSPropertyOp27
 70
     1
102
RTVSPropertyOp28
 70
     1
102
RTVSPropertyOp29
 70
     1
102
RTVSPropertyOp30
 70
     1
102
RTVSPropertyOp31
 70
     1
102
RTVSPropertyOp32
 70
     1
102
RTVSPropertyOp33
 70
     1
102
RTVSPropertyOp34
 70
     1
102
RTVSPropertyOp35
 70
     1
102
RTVSPropertyOp36
 70
     1
102
RTVSPropertyOp37
 70
     1
102
RTVSPropertyOp38
 70
     1
102
RTVSPropertyOp39
 70
     1
102
RTVSPropertyOp40
 70
     1
102
RTVSPropertyOp41
 70
     1
102
RTVSPropertyOp42
 70
     1
102
RTVSPropertyOp43
 70
     1
102
RTVSPropertyOp44
 70
     1
102
RTVSPropertyOp45
 70
     1
102
RTVSPropertyOp46
 70
     1
102
RTVSPropertyOp47
 70
     1
102
RTVSPropertyOp48
 70
     1
102
RTVSPropertyOp49
 70
     1
102
RTVSPropertyOp50
 70
     1
102
RTVSPropertyOp51
 70
     0
102
RTVSPropertyOp52
 70
     0
102
RTVSPropertyOp53
 70
     1
102
RTVSPropertyOp54
 70
     1
102
RTVSPropertyOp55
 70
     1
102
RTVSPropertyOp56
 70
     1
102
RTVSPropertyOp57
 70
     1
102
RTVSPropertyOp58
 70
     1
102
RTVSPropertyOp59
 70
     1
102
RTVSPropertyOp60
 70
     1
102
RTVSPropertyOp61
 70
     1
102
RTVSPropertyOp62
 70
     1
  0
XRECORD
  5
CA1A
102
{ACAD_REACTORS
330
CA19
102
}
330
CA19
100
AcDbXrecord
280
     1
102
RTVSPost2010Prop28
280
     0
102
RTVSPost2010PropOp28
 70
     1
102
RTVSPost2010Prop29
280
     1
102
RTVSPost2010PropOp29
 70
     1
102
RTVSPost2010Prop30
280
     1
102
RTVSPost2010PropOp30
 70
     1
102
RTVSPost2010Prop31
280
     0
102
RTVSPost2010PropOp31
 70
     1
102
RTVSPost2010Prop32
280
     0
102
RTVSPost2010PropOp32
 70
     1
102
RTVSPost2010Prop33
280
     0
102
RTVSPost2010PropOp33
 70
     1
102
RTVSPost2010Prop34
280
     0
102
RTVSPost2010PropOp34
 70
     1
102
RTVSPost2010Prop35
280
     0
102
RTVSPost2010PropOp35
 70
     1
102
RTVSPost2010Prop36
280
     0
102
RTVSPost2010PropOp36
 70
     1
102
RTVSPost2010Prop37
 90
       50
102
RTVSPost2010PropOp37
 70
     1
102
RTVSPost2010Prop38
140
0.0
102
RTVSPost2010PropOp38
 70
     1
102
RTVSPost2010Prop39
140
1.0
102
RTVSPost2010PropOp39
 70
     1
102
RTVSPost2010Prop40
 90
        0
102
RTVSPost2010PropOp40
 70
     1
102
RTVSPost2010Prop41ColorIndex
 90
       18
102
RTVSPost2010Prop41ColorRGB
 90
        0
102
RTVSPost2010PropOp41
 70
     1
102
RTVSPost2010Prop42
 90
       50
102
RTVSPost2010PropOp42
 70
     1
102
RTVSPost2010Prop43
 90
        3
102
RTVSPost2010PropOp43
 70
     1
102
RTVSPost2010Prop44ColorIndex
 90
        5
102
RTVSPost2010Prop44ColorRGB
 90
      255
102
RTVSPost2010PropOp44
 70
     1
102
RTVSPost2010Prop45
280
     0
102
RTVSPost2010PropOp45
 70
     1
102
RTVSPost2010Prop46
 90
       50
102
RTVSPost2010PropOp46
 70
     1
102
RTVSPost2010Prop47
 90
       50
102
RTVSPost2010PropOp47
 70
     1
102
RTVSPost2010Prop48
 90
       50
102
RTVSPost2010PropOp48
 70
     1
102
RTVSPost2010Prop49
280
     0
102
RTVSPost2010PropOp49
 70
     1
102
RTVSPost2010Prop50
 90
       50
102
RTVSPost2010PropOp50
 70
     1
102
RTVSPost2010Prop51ColorIndex
 90
      256
102
RTVSPost2010Prop51ColorRGB
 90
-16777216
102
RTVSPost2010PropOp51
 70
     0
102
RTVSPost2010Prop52
140
1.0
102
RTVSPost2010PropOp52
 70
     0
102
RTVSPost2010Prop53
 90
        2
102
RTVSPost2010PropOp53
 70
     1
102
RTVSPost2010Prop54
  1
strokes_ogs.tif
102
RTVSPost2010PropOp54
 70
     1
102
RTVSPost2010Prop55
280
     0
102
RTVSPost2010PropOp55
 70
     1
102
RTVSPost2010Prop56
140
1.0
102
RTVSPost2010PropOp56
 70
     1
102
RTVSPost2010Prop57
140
1.0
102
RTVSPost2010PropOp57
 70
     1
102
RTVSPropertyOp0
 70
     1
102
RTVSPropertyOp1
 70
     1
102
RTVSPropertyOp2
 70
     1
102
RTVSPropertyOp3
 70
     1
102
RTVSPropertyOp4
 70
     1
102
RTVSPropertyOp5
 70
     1
102
RTVSPropertyOp6
 70
     1
102
RTVSPropertyOp7
 70
     1
102
RTVSPropertyOp8
 70
     1
102
RTVSPropertyOp9
 70
     1
102
RTVSPropertyOp10
 70
     1
102
RTVSPropertyOp11
 70
     1
102
RTVSPropertyOp12
 70
     1
102
RTVSPropertyOp13
 70
     1
102
RTVSPropertyOp14
 70
     1
102
RTVSPropertyOp15
 70
     1
102
RTVSPropertyOp16
 70
     1
102
RTVSPropertyOp17
 70
     1
102
RTVSPropertyOp18
 70
     1
102
RTVSPropertyOp19
 70
     1
102
RTVSPropertyOp20
 70
     1
102
RTVSPropertyOp21
 70
     1
102
RTVSPropertyOp22
 70
     1
102
RTVSPropertyOp23
 70
     1
102
RTVSPropertyOp24
 70
     1
102
RTVSPropertyOp25
 70
     1
102
RTVSPropertyOp26
 70
     1
102
RTVSPropertyOp27
 70
     1
102
RTVSPropertyOp28
 70
     1
102
RTVSPropertyOp29
 70
     1
102
RTVSPropertyOp30
 70
     1
102
RTVSPropertyOp31
 70
     1
102
RTVSPropertyOp32
 70
     1
102
RTVSPropertyOp33
 70
     1
102
RTVSPropertyOp34
 70
     1
102
RTVSPropertyOp35
 70
     1
102
RTVSPropertyOp36
 70
     1
102
RTVSPropertyOp37
 70
     1
102
RTVSPropertyOp38
 70
     1
102
RTVSPropertyOp39
 70
     1
102
RTVSPropertyOp40
 70
     1
102
RTVSPropertyOp41
 70
     1
102
RTVSPropertyOp42
 70
     1
102
RTVSPropertyOp43
 70
     1
102
RTVSPropertyOp44
 70
     1
102
RTVSPropertyOp45
 70
     1
102
RTVSPropertyOp46
 70
     1
102
RTVSPropertyOp47
 70
     1
102
RTVSPropertyOp48
 70
     1
102
RTVSPropertyOp49
 70
     1
102
RTVSPropertyOp50
 70
     1
102
RTVSPropertyOp51
 70
     0
102
RTVSPropertyOp52
 70
     0
102
RTVSPropertyOp53
 70
     1
102
RTVSPropertyOp54
 70
     1
102
RTVSPropertyOp55
 70
     1
102
RTVSPropertyOp56
 70
     1
102
RTVSPropertyOp57
 70
     1
102
RTVSPropertyOp58
 70
     1
102
RTVSPropertyOp59
 70
     1
102
RTVSPropertyOp60
 70
     1
102
RTVSPropertyOp61
 70
     1
102
RTVSPropertyOp62
 70
     1
  0
XRECORD
  5
CA22
102
{ACAD_REACTORS
330
CA21
102
}
330
CA21
100
AcDbXrecord
280
     1
102
RTVSPost2010Prop28
280
     0
102
RTVSPost2010PropOp28
 70
     1
102
RTVSPost2010Prop29
280
     1
102
RTVSPost2010PropOp29
 70
     1
102
RTVSPost2010Prop30
280
     1
102
RTVSPost2010PropOp30
 70
     1
102
RTVSPost2010Prop31
280
     0
102
RTVSPost2010PropOp31
 70
     1
102
RTVSPost2010Prop32
280
     0
102
RTVSPost2010PropOp32
 70
     1
102
RTVSPost2010Prop33
280
     0
102
RTVSPost2010PropOp33
 70
     1
102
RTVSPost2010Prop34
280
     0
102
RTVSPost2010PropOp34
 70
     1
102
RTVSPost2010Prop35
280
     0
102
RTVSPost2010PropOp35
 70
     1
102
RTVSPost2010Prop36
280
     0
102
RTVSPost2010PropOp36
 70
     1
102
RTVSPost2010Prop37
 90
       50
102
RTVSPost2010PropOp37
 70
     1
102
RTVSPost2010Prop38
140
0.0
102
RTVSPost2010PropOp38
 70
     1
102
RTVSPost2010Prop39
140
1.0
102
RTVSPost2010PropOp39
 70
     1
102
RTVSPost2010Prop40
 90
        0
102
RTVSPost2010PropOp40
 70
     1
102
RTVSPost2010Prop41ColorIndex
 90
       18
102
RTVSPost2010Prop41ColorRGB
 90
        0
102
RTVSPost2010PropOp41
 70
     1
102
RTVSPost2010Prop42
 90
       50
102
RTVSPost2010PropOp42
 70
     1
102
RTVSPost2010Prop43
 90
        3
102
RTVSPost2010PropOp43
 70
     1
102
RTVSPost2010Prop44ColorIndex
 90
        5
102
RTVSPost2010Prop44ColorRGB
 90
      255
102
RTVSPost2010PropOp44
 70
     1
102
RTVSPost2010Prop45
280
     0
102
RTVSPost2010PropOp45
 70
     1
102
RTVSPost2010Prop46
 90
       50
102
RTVSPost2010PropOp46
 70
     1
102
RTVSPost2010Prop47
 90
       50
102
RTVSPost2010PropOp47
 70
     1
102
RTVSPost2010Prop48
 90
       50
102
RTVSPost2010PropOp48
 70
     1
102
RTVSPost2010Prop49
280
     0
102
RTVSPost2010PropOp49
 70
     1
102
RTVSPost2010Prop50
 90
       50
102
RTVSPost2010PropOp50
 70
     1
102
RTVSPost2010Prop51ColorIndex
 90
      256
102
RTVSPost2010Prop51ColorRGB
 90
-16777216
102
RTVSPost2010PropOp51
 70
     0
102
RTVSPost2010Prop52
140
1.0
102
RTVSPost2010PropOp52
 70
     0
102
RTVSPost2010Prop53
 90
        2
102
RTVSPost2010PropOp53
 70
     1
102
RTVSPost2010Prop54
  1
strokes_ogs.tif
102
RTVSPost2010PropOp54
 70
     1
102
RTVSPost2010Prop55
280
     0
102
RTVSPost2010PropOp55
 70
     1
102
RTVSPost2010Prop56
140
1.0
102
RTVSPost2010PropOp56
 70
     1
102
RTVSPost2010Prop57
140
1.0
102
RTVSPost2010PropOp57
 70
     1
102
RTVSPropertyOp0
 70
     1
102
RTVSPropertyOp1
 70
     1
102
RTVSPropertyOp2
 70
     1
102
RTVSPropertyOp3
 70
     1
102
RTVSPropertyOp4
 70
     1
102
RTVSPropertyOp5
 70
     1
102
RTVSPropertyOp6
 70
     1
102
RTVSPropertyOp7
 70
     1
102
RTVSPropertyOp8
 70
     1
102
RTVSPropertyOp9
 70
     1
102
RTVSPropertyOp10
 70
     1
102
RTVSPropertyOp11
 70
     1
102
RTVSPropertyOp12
 70
     1
102
RTVSPropertyOp13
 70
     1
102
RTVSPropertyOp14
 70
     1
102
RTVSPropertyOp15
 70
     1
102
RTVSPropertyOp16
 70
     1
102
RTVSPropertyOp17
 70
     1
102
RTVSPropertyOp18
 70
     1
102
RTVSPropertyOp19
 70
     1
102
RTVSPropertyOp20
 70
     1
102
RTVSPropertyOp21
 70
     1
102
RTVSPropertyOp22
 70
     1
102
RTVSPropertyOp23
 70
     1
102
RTVSPropertyOp24
 70
     1
102
RTVSPropertyOp25
 70
     1
102
RTVSPropertyOp26
 70
     1
102
RTVSPropertyOp27
 70
     1
102
RTVSPropertyOp28
 70
     1
102
RTVSPropertyOp29
 70
     1
102
RTVSPropertyOp30
 70
     1
102
RTVSPropertyOp31
 70
     1
102
RTVSPropertyOp32
 70
     1
102
RTVSPropertyOp33
 70
     1
102
RTVSPropertyOp34
 70
     1
102
RTVSPropertyOp35
 70
     1
102
RTVSPropertyOp36
 70
     1
102
RTVSPropertyOp37
 70
     1
102
RTVSPropertyOp38
 70
     1
102
RTVSPropertyOp39
 70
     1
102
RTVSPropertyOp40
 70
     1
102
RTVSPropertyOp41
 70
     1
102
RTVSPropertyOp42
 70
     1
102
RTVSPropertyOp43
 70
     1
102
RTVSPropertyOp44
 70
     1
102
RTVSPropertyOp45
 70
     1
102
RTVSPropertyOp46
 70
     1
102
RTVSPropertyOp47
 70
     1
102
RTVSPropertyOp48
 70
     1
102
RTVSPropertyOp49
 70
     1
102
RTVSPropertyOp50
 70
     1
102
RTVSPropertyOp51
 70
     0
102
RTVSPropertyOp52
 70
     0
102
RTVSPropertyOp53
 70
     1
102
RTVSPropertyOp54
 70
     1
102
RTVSPropertyOp55
 70
     1
102
RTVSPropertyOp56
 70
     1
102
RTVSPropertyOp57
 70
     1
102
RTVSPropertyOp58
 70
     1
102
RTVSPropertyOp59
 70
     1
102
RTVSPropertyOp60
 70
     1
102
RTVSPropertyOp61
 70
     1
102
RTVSPropertyOp62
 70
     1
  0
XRECORD
  5
CA3E
102
{ACAD_REACTORS
330
CA3D
102
}
330
CA3D
100
AcDbXrecord
280
     1
102
RTVSPost2010Prop28
280
     0
102
RTVSPost2010PropOp28
 70
     1
102
RTVSPost2010Prop29
280
     1
102
RTVSPost2010PropOp29
 70
     1
102
RTVSPost2010Prop30
280
     1
102
RTVSPost2010PropOp30
 70
     1
102
RTVSPost2010Prop31
280
     0
102
RTVSPost2010PropOp31
 70
     1
102
RTVSPost2010Prop32
280
     0
102
RTVSPost2010PropOp32
 70
     1
102
RTVSPost2010Prop33
280
     0
102
RTVSPost2010PropOp33
 70
     1
102
RTVSPost2010Prop34
280
     0
102
RTVSPost2010PropOp34
 70
     1
102
RTVSPost2010Prop35
280
     0
102
RTVSPost2010PropOp35
 70
     1
102
RTVSPost2010Prop36
280
     0
102
RTVSPost2010PropOp36
 70
     1
102
RTVSPost2010Prop37
 90
       50
102
RTVSPost2010PropOp37
 70
     0
102
RTVSPost2010Prop38
140
0.0
102
RTVSPost2010PropOp38
 70
     0
102
RTVSPost2010Prop39
140
1.0
102
RTVSPost2010PropOp39
 70
     0
102
RTVSPost2010Prop40
 90
        0
102
RTVSPost2010PropOp40
 70
     0
102
RTVSPost2010Prop41ColorIndex
 90
       18
102
RTVSPost2010Prop41ColorRGB
 90
        0
102
RTVSPost2010PropOp41
 70
     0
102
RTVSPost2010Prop42
 90
       50
102
RTVSPost2010PropOp42
 70
     0
102
RTVSPost2010Prop43
 90
        3
102
RTVSPost2010PropOp43
 70
     0
102
RTVSPost2010Prop44ColorIndex
 90
        5
102
RTVSPost2010Prop44ColorRGB
 90
      255
102
RTVSPost2010PropOp44
 70
     0
102
RTVSPost2010Prop45
280
     0
102
RTVSPost2010PropOp45
 70
     1
102
RTVSPost2010Prop46
 90
       50
102
RTVSPost2010PropOp46
 70
     0
102
RTVSPost2010Prop47
 90
       50
102
RTVSPost2010PropOp47
 70
     0
102
RTVSPost2010Prop48
 90
       50
102
RTVSPost2010PropOp48
 70
     0
102
RTVSPost2010Prop49
280
     0
102
RTVSPost2010PropOp49
 70
     1
102
RTVSPost2010Prop50
 90
       50
102
RTVSPost2010PropOp50
 70
     0
102
RTVSPost2010Prop51ColorIndex
 90
      256
102
RTVSPost2010Prop51ColorRGB
 90
-16777216
102
RTVSPost2010PropOp51
 70
     0
102
RTVSPost2010Prop52
140
1.0
102
RTVSPost2010PropOp52
 70
     0
102
RTVSPost2010Prop53
 90
        2
102
RTVSPost2010PropOp53
 70
     0
102
RTVSPost2010Prop54
  1
strokes_ogs.tif
102
RTVSPost2010PropOp54
 70
     0
102
RTVSPost2010Prop55
280
     0
102
RTVSPost2010PropOp55
 70
     1
102
RTVSPost2010Prop56
140
1.0
102
RTVSPost2010PropOp56
 70
     0
102
RTVSPost2010Prop57
140
1.0
102
RTVSPost2010PropOp57
 70
     0
102
RTVSPropertyOp0
 70
     0
102
RTVSPropertyOp1
 70
     0
102
RTVSPropertyOp2
 70
     0
102
RTVSPropertyOp3
 70
     0
102
RTVSPropertyOp4
 70
     0
102
RTVSPropertyOp5
 70
     0
102
RTVSPropertyOp6
 70
     0
102
RTVSPropertyOp7
 70
     0
102
RTVSPropertyOp8
 70
     0
102
RTVSPropertyOp9
 70
     0
102
RTVSPropertyOp10
 70
     0
102
RTVSPropertyOp11
 70
     0
102
RTVSPropertyOp12
 70
     0
102
RTVSPropertyOp13
 70
     0
102
RTVSPropertyOp14
 70
     2
102
RTVSPropertyOp15
 70
     0
102
RTVSPropertyOp16
 70
     0
102
RTVSPropertyOp17
 70
     0
102
RTVSPropertyOp18
 70
     0
102
RTVSPropertyOp19
 70
     0
102
RTVSPropertyOp20
 70
     0
102
RTVSPropertyOp21
 70
     0
102
RTVSPropertyOp22
 70
     0
102
RTVSPropertyOp23
 70
     0
102
RTVSPropertyOp24
 70
     0
102
RTVSPropertyOp25
 70
     0
102
RTVSPropertyOp26
 70
     0
102
RTVSPropertyOp27
 70
     0
102
RTVSPropertyOp28
 70
     1
102
RTVSPropertyOp29
 70
     1
102
RTVSPropertyOp30
 70
     1
102
RTVSPropertyOp31
 70
     1
102
RTVSPropertyOp32
 70
     1
102
RTVSPropertyOp33
 70
     1
102
RTVSPropertyOp34
 70
     1
102
RTVSPropertyOp35
 70
     1
102
RTVSPropertyOp36
 70
     1
102
RTVSPropertyOp37
 70
     0
102
RTVSPropertyOp38
 70
     0
102
RTVSPropertyOp39
 70
     0
102
RTVSPropertyOp40
 70
     0
102
RTVSPropertyOp41
 70
     0
102
RTVSPropertyOp42
 70
     0
102
RTVSPropertyOp43
 70
     0
102
RTVSPropertyOp44
 70
     0
102
RTVSPropertyOp45
 70
     1
102
RTVSPropertyOp46
 70
     0
102
RTVSPropertyOp47
 70
     0
102
RTVSPropertyOp48
 70
     0
102
RTVSPropertyOp49
 70
     1
102
RTVSPropertyOp50
 70
     0
102
RTVSPropertyOp51
 70
     0
102
RTVSPropertyOp52
 70
     0
102
RTVSPropertyOp53
 70
     0
102
RTVSPropertyOp54
 70
     0
102
RTVSPropertyOp55
 70
     1
102
RTVSPropertyOp56
 70
     0
102
RTVSPropertyOp57
 70
     0
102
RTVSPropertyOp58
 70
     0
102
RTVSPropertyOp59
 70
     0
102
RTVSPropertyOp60
 70
     0
102
RTVSPropertyOp61
 70
     0
102
RTVSPropertyOp62
 70
     0
  0
XRECORD
  5
CA2E
102
{ACAD_REACTORS
330
CA2D
102
}
330
CA2D
100
AcDbXrecord
280
     1
102
RTVSPost2010Prop28
280
     0
102
RTVSPost2010PropOp28
 70
     1
102
RTVSPost2010Prop29
280
     1
102
RTVSPost2010PropOp29
 70
     1
102
RTVSPost2010Prop30
280
     1
102
RTVSPost2010PropOp30
 70
     1
102
RTVSPost2010Prop31
280
     0
102
RTVSPost2010PropOp31
 70
     1
102
RTVSPost2010Prop32
280
     0
102
RTVSPost2010PropOp32
 70
     1
102
RTVSPost2010Prop33
280
     0
102
RTVSPost2010PropOp33
 70
     1
102
RTVSPost2010Prop34
280
     0
102
RTVSPost2010PropOp34
 70
     1
102
RTVSPost2010Prop35
280
     0
102
RTVSPost2010PropOp35
 70
     1
102
RTVSPost2010Prop36
280
     0
102
RTVSPost2010PropOp36
 70
     1
102
RTVSPost2010Prop37
 90
       50
102
RTVSPost2010PropOp37
 70
     1
102
RTVSPost2010Prop38
140
0.0
102
RTVSPost2010PropOp38
 70
     1
102
RTVSPost2010Prop39
140
1.0
102
RTVSPost2010PropOp39
 70
     1
102
RTVSPost2010Prop40
 90
        0
102
RTVSPost2010PropOp40
 70
     1
102
RTVSPost2010Prop41ColorIndex
 90
       18
102
RTVSPost2010Prop41ColorRGB
 90
        0
102
RTVSPost2010PropOp41
 70
     1
102
RTVSPost2010Prop42
 90
       50
102
RTVSPost2010PropOp42
 70
     1
102
RTVSPost2010Prop43
 90
        3
102
RTVSPost2010PropOp43
 70
     1
102
RTVSPost2010Prop44ColorIndex
 90
        5
102
RTVSPost2010Prop44ColorRGB
 90
      255
102
RTVSPost2010PropOp44
 70
     1
102
RTVSPost2010Prop45
280
     0
102
RTVSPost2010PropOp45
 70
     1
102
RTVSPost2010Prop46
 90
       50
102
RTVSPost2010PropOp46
 70
     1
102
RTVSPost2010Prop47
 90
       50
102
RTVSPost2010PropOp47
 70
     1
102
RTVSPost2010Prop48
 90
       50
102
RTVSPost2010PropOp48
 70
     1
102
RTVSPost2010Prop49
280
     0
102
RTVSPost2010PropOp49
 70
     1
102
RTVSPost2010Prop50
 90
       50
102
RTVSPost2010PropOp50
 70
     1
102
RTVSPost2010Prop51ColorIndex
 90
      256
102
RTVSPost2010Prop51ColorRGB
 90
-16777216
102
RTVSPost2010PropOp51
 70
     0
102
RTVSPost2010Prop52
140
1.0
102
RTVSPost2010PropOp52
 70
     0
102
RTVSPost2010Prop53
 90
        2
102
RTVSPost2010PropOp53
 70
     1
102
RTVSPost2010Prop54
  1
strokes_ogs.tif
102
RTVSPost2010PropOp54
 70
     1
102
RTVSPost2010Prop55
280
     0
102
RTVSPost2010PropOp55
 70
     1
102
RTVSPost2010Prop56
140
1.0
102
RTVSPost2010PropOp56
 70
     1
102
RTVSPost2010Prop57
140
1.0
102
RTVSPost2010PropOp57
 70
     1
102
RTVSPropertyOp0
 70
     1
102
RTVSPropertyOp1
 70
     1
102
RTVSPropertyOp2
 70
     1
102
RTVSPropertyOp3
 70
     1
102
RTVSPropertyOp4
 70
     1
102
RTVSPropertyOp5
 70
     1
102
RTVSPropertyOp6
 70
     1
102
RTVSPropertyOp7
 70
     1
102
RTVSPropertyOp8
 70
     1
102
RTVSPropertyOp9
 70
     1
102
RTVSPropertyOp10
 70
     1
102
RTVSPropertyOp11
 70
     1
102
RTVSPropertyOp12
 70
     1
102
RTVSPropertyOp13
 70
     1
102
RTVSPropertyOp14
 70
     1
102
RTVSPropertyOp15
 70
     1
102
RTVSPropertyOp16
 70
     1
102
RTVSPropertyOp17
 70
     1
102
RTVSPropertyOp18
 70
     1
102
RTVSPropertyOp19
 70
     1
102
RTVSPropertyOp20
 70
     1
102
RTVSPropertyOp21
 70
     1
102
RTVSPropertyOp22
 70
     1
102
RTVSPropertyOp23
 70
     1
102
RTVSPropertyOp24
 70
     1
102
RTVSPropertyOp25
 70
     1
102
RTVSPropertyOp26
 70
     1
102
RTVSPropertyOp27
 70
     1
102
RTVSPropertyOp28
 70
     1
102
RTVSPropertyOp29
 70
     1
102
RTVSPropertyOp30
 70
     1
102
RTVSPropertyOp31
 70
     1
102
RTVSPropertyOp32
 70
     1
102
RTVSPropertyOp33
 70
     1
102
RTVSPropertyOp34
 70
     1
102
RTVSPropertyOp35
 70
     1
102
RTVSPropertyOp36
 70
     1
102
RTVSPropertyOp37
 70
     1
102
RTVSPropertyOp38
 70
     1
102
RTVSPropertyOp39
 70
     1
102
RTVSPropertyOp40
 70
     1
102
RTVSPropertyOp41
 70
     1
102
RTVSPropertyOp42
 70
     1
102
RTVSPropertyOp43
 70
     1
102
RTVSPropertyOp44
 70
     1
102
RTVSPropertyOp45
 70
     1
102
RTVSPropertyOp46
 70
     1
102
RTVSPropertyOp47
 70
     1
102
RTVSPropertyOp48
 70
     1
102
RTVSPropertyOp49
 70
     1
102
RTVSPropertyOp50
 70
     1
102
RTVSPropertyOp51
 70
     0
102
RTVSPropertyOp52
 70
     0
102
RTVSPropertyOp53
 70
     1
102
RTVSPropertyOp54
 70
     1
102
RTVSPropertyOp55
 70
     1
102
RTVSPropertyOp56
 70
     1
102
RTVSPropertyOp57
 70
     1
102
RTVSPropertyOp58
 70
     1
102
RTVSPropertyOp59
 70
     1
102
RTVSPropertyOp60
 70
     1
102
RTVSPropertyOp61
 70
     1
102
RTVSPropertyOp62
 70
     1
  0
XRECORD
  5
CA40
102
{ACAD_REACTORS
330
CA3F
102
}
330
CA3F
100
AcDbXrecord
280
     1
102
RTVSPost2010Prop28
280
     0
102
RTVSPost2010PropOp28
 70
     1
102
RTVSPost2010Prop29
280
     1
102
RTVSPost2010PropOp29
 70
     1
102
RTVSPost2010Prop30
280
     1
102
RTVSPost2010PropOp30
 70
     1
102
RTVSPost2010Prop31
280
     0
102
RTVSPost2010PropOp31
 70
     1
102
RTVSPost2010Prop32
280
     0
102
RTVSPost2010PropOp32
 70
     1
102
RTVSPost2010Prop33
280
     0
102
RTVSPost2010PropOp33
 70
     1
102
RTVSPost2010Prop34
280
     0
102
RTVSPost2010PropOp34
 70
     1
102
RTVSPost2010Prop35
280
     0
102
RTVSPost2010PropOp35
 70
     1
102
RTVSPost2010Prop36
280
     0
102
RTVSPost2010PropOp36
 70
     1
102
RTVSPost2010Prop37
 90
       50
102
RTVSPost2010PropOp37
 70
     0
102
RTVSPost2010Prop38
140
0.0
102
RTVSPost2010PropOp38
 70
     0
102
RTVSPost2010Prop39
140
1.0
102
RTVSPost2010PropOp39
 70
     0
102
RTVSPost2010Prop40
 90
        0
102
RTVSPost2010PropOp40
 70
     0
102
RTVSPost2010Prop41ColorIndex
 90
       18
102
RTVSPost2010Prop41ColorRGB
 90
        0
102
RTVSPost2010PropOp41
 70
     0
102
RTVSPost2010Prop42
 90
       50
102
RTVSPost2010PropOp42
 70
     0
102
RTVSPost2010Prop43
 90
        3
102
RTVSPost2010PropOp43
 70
     0
102
RTVSPost2010Prop44ColorIndex
 90
        5
102
RTVSPost2010Prop44ColorRGB
 90
      255
102
RTVSPost2010PropOp44
 70
     0
102
RTVSPost2010Prop45
280
     0
102
RTVSPost2010PropOp45
 70
     1
102
RTVSPost2010Prop46
 90
       50
102
RTVSPost2010PropOp46
 70
     0
102
RTVSPost2010Prop47
 90
       50
102
RTVSPost2010PropOp47
 70
     0
102
RTVSPost2010Prop48
 90
       50
102
RTVSPost2010PropOp48
 70
     0
102
RTVSPost2010Prop49
280
     0
102
RTVSPost2010PropOp49
 70
     1
102
RTVSPost2010Prop50
 90
       50
102
RTVSPost2010PropOp50
 70
     0
102
RTVSPost2010Prop51ColorIndex
 90
      256
102
RTVSPost2010Prop51ColorRGB
 90
-16777216
102
RTVSPost2010PropOp51
 70
     0
102
RTVSPost2010Prop52
140
1.0
102
RTVSPost2010PropOp52
 70
     0
102
RTVSPost2010Prop53
 90
        2
102
RTVSPost2010PropOp53
 70
     0
102
RTVSPost2010Prop54
  1
strokes_ogs.tif
102
RTVSPost2010PropOp54
 70
     0
102
RTVSPost2010Prop55
280
     0
102
RTVSPost2010PropOp55
 70
     1
102
RTVSPost2010Prop56
140
1.0
102
RTVSPost2010PropOp56
 70
     0
102
RTVSPost2010Prop57
140
1.0
102
RTVSPost2010PropOp57
 70
     0
102
RTVSPropertyOp0
 70
     0
102
RTVSPropertyOp1
 70
     0
102
RTVSPropertyOp2
 70
     0
102
RTVSPropertyOp3
 70
     0
102
RTVSPropertyOp4
 70
     0
102
RTVSPropertyOp5
 70
     0
102
RTVSPropertyOp6
 70
     0
102
RTVSPropertyOp7
 70
     0
102
RTVSPropertyOp8
 70
     0
102
RTVSPropertyOp9
 70
     0
102
RTVSPropertyOp10
 70
     0
102
RTVSPropertyOp11
 70
     0
102
RTVSPropertyOp12
 70
     0
102
RTVSPropertyOp13
 70
     0
102
RTVSPropertyOp14
 70
     2
102
RTVSPropertyOp15
 70
     0
102
RTVSPropertyOp16
 70
     0
102
RTVSPropertyOp17
 70
     0
102
RTVSPropertyOp18
 70
     0
102
RTVSPropertyOp19
 70
     0
102
RTVSPropertyOp20
 70
     0
102
RTVSPropertyOp21
 70
     0
102
RTVSPropertyOp22
 70
     0
102
RTVSPropertyOp23
 70
     0
102
RTVSPropertyOp24
 70
     0
102
RTVSPropertyOp25
 70
     0
102
RTVSPropertyOp26
 70
     0
102
RTVSPropertyOp27
 70
     0
102
RTVSPropertyOp28
 70
     1
102
RTVSPropertyOp29
 70
     1
102
RTVSPropertyOp30
 70
     1
102
RTVSPropertyOp31
 70
     1
102
RTVSPropertyOp32
 70
     1
102
RTVSPropertyOp33
 70
     1
102
RTVSPropertyOp34
 70
     1
102
RTVSPropertyOp35
 70
     1
102
RTVSPropertyOp36
 70
     1
102
RTVSPropertyOp37
 70
     0
102
RTVSPropertyOp38
 70
     0
102
RTVSPropertyOp39
 70
     0
102
RTVSPropertyOp40
 70
     0
102
RTVSPropertyOp41
 70
     0
102
RTVSPropertyOp42
 70
     0
102
RTVSPropertyOp43
 70
     0
102
RTVSPropertyOp44
 70
     0
102
RTVSPropertyOp45
 70
     1
102
RTVSPropertyOp46
 70
     0
102
RTVSPropertyOp47
 70
     0
102
RTVSPropertyOp48
 70
     0
102
RTVSPropertyOp49
 70
     1
102
RTVSPropertyOp50
 70
     0
102
RTVSPropertyOp51
 70
     0
102
RTVSPropertyOp52
 70
     0
102
RTVSPropertyOp53
 70
     0
102
RTVSPropertyOp54
 70
     0
102
RTVSPropertyOp55
 70
     1
102
RTVSPropertyOp56
 70
     0
102
RTVSPropertyOp57
 70
     0
102
RTVSPropertyOp58
 70
     0
102
RTVSPropertyOp59
 70
     0
102
RTVSPropertyOp60
 70
     0
102
RTVSPropertyOp61
 70
     0
102
RTVSPropertyOp62
 70
     0
  0
XRECORD
  5
CA26
102
{ACAD_REACTORS
330
CA25
102
}
330
CA25
100
AcDbXrecord
280
     1
102
RTVSPost2010Prop28
280
     0
102
RTVSPost2010PropOp28
 70
     1
102
RTVSPost2010Prop29
280
     1
102
RTVSPost2010PropOp29
 70
     1
102
RTVSPost2010Prop30
280
     1
102
RTVSPost2010PropOp30
 70
     1
102
RTVSPost2010Prop31
280
     0
102
RTVSPost2010PropOp31
 70
     1
102
RTVSPost2010Prop32
280
     0
102
RTVSPost2010PropOp32
 70
     1
102
RTVSPost2010Prop33
280
     0
102
RTVSPost2010PropOp33
 70
     1
102
RTVSPost2010Prop34
280
     0
102
RTVSPost2010PropOp34
 70
     1
102
RTVSPost2010Prop35
280
     0
102
RTVSPost2010PropOp35
 70
     1
102
RTVSPost2010Prop36
280
     0
102
RTVSPost2010PropOp36
 70
     1
102
RTVSPost2010Prop37
 90
       50
102
RTVSPost2010PropOp37
 70
     1
102
RTVSPost2010Prop38
140
0.0
102
RTVSPost2010PropOp38
 70
     1
102
RTVSPost2010Prop39
140
1.0
102
RTVSPost2010PropOp39
 70
     1
102
RTVSPost2010Prop40
 90
        0
102
RTVSPost2010PropOp40
 70
     1
102
RTVSPost2010Prop41ColorIndex
 90
       18
102
RTVSPost2010Prop41ColorRGB
 90
        0
102
RTVSPost2010PropOp41
 70
     1
102
RTVSPost2010Prop42
 90
       50
102
RTVSPost2010PropOp42
 70
     1
102
RTVSPost2010Prop43
 90
        3
102
RTVSPost2010PropOp43
 70
     1
102
RTVSPost2010Prop44ColorIndex
 90
        5
102
RTVSPost2010Prop44ColorRGB
 90
      255
102
RTVSPost2010PropOp44
 70
     1
102
RTVSPost2010Prop45
280
     0
102
RTVSPost2010PropOp45
 70
     1
102
RTVSPost2010Prop46
 90
       50
102
RTVSPost2010PropOp46
 70
     1
102
RTVSPost2010Prop47
 90
       50
102
RTVSPost2010PropOp47
 70
     1
102
RTVSPost2010Prop48
 90
       50
102
RTVSPost2010PropOp48
 70
     1
102
RTVSPost2010Prop49
280
     0
102
RTVSPost2010PropOp49
 70
     1
102
RTVSPost2010Prop50
 90
       50
102
RTVSPost2010PropOp50
 70
     1
102
RTVSPost2010Prop51ColorIndex
 90
      256
102
RTVSPost2010Prop51ColorRGB
 90
-16777216
102
RTVSPost2010PropOp51
 70
     0
102
RTVSPost2010Prop52
140
1.0
102
RTVSPost2010PropOp52
 70
     0
102
RTVSPost2010Prop53
 90
        2
102
RTVSPost2010PropOp53
 70
     1
102
RTVSPost2010Prop54
  1
strokes_ogs.tif
102
RTVSPost2010PropOp54
 70
     1
102
RTVSPost2010Prop55
280
     0
102
RTVSPost2010PropOp55
 70
     1
102
RTVSPost2010Prop56
140
1.0
102
RTVSPost2010PropOp56
 70
     1
102
RTVSPost2010Prop57
140
1.0
102
RTVSPost2010PropOp57
 70
     1
102
RTVSPropertyOp0
 70
     1
102
RTVSPropertyOp1
 70
     1
102
RTVSPropertyOp2
 70
     1
102
RTVSPropertyOp3
 70
     1
102
RTVSPropertyOp4
 70
     1
102
RTVSPropertyOp5
 70
     1
102
RTVSPropertyOp6
 70
     1
102
RTVSPropertyOp7
 70
     1
102
RTVSPropertyOp8
 70
     1
102
RTVSPropertyOp9
 70
     1
102
RTVSPropertyOp10
 70
     1
102
RTVSPropertyOp11
 70
     1
102
RTVSPropertyOp12
 70
     1
102
RTVSPropertyOp13
 70
     1
102
RTVSPropertyOp14
 70
     1
102
RTVSPropertyOp15
 70
     1
102
RTVSPropertyOp16
 70
     1
102
RTVSPropertyOp17
 70
     1
102
RTVSPropertyOp18
 70
     1
102
RTVSPropertyOp19
 70
     1
102
RTVSPropertyOp20
 70
     1
102
RTVSPropertyOp21
 70
     1
102
RTVSPropertyOp22
 70
     1
102
RTVSPropertyOp23
 70
     1
102
RTVSPropertyOp24
 70
     1
102
RTVSPropertyOp25
 70
     1
102
RTVSPropertyOp26
 70
     1
102
RTVSPropertyOp27
 70
     1
102
RTVSPropertyOp28
 70
     1
102
RTVSPropertyOp29
 70
     1
102
RTVSPropertyOp30
 70
     1
102
RTVSPropertyOp31
 70
     1
102
RTVSPropertyOp32
 70
     1
102
RTVSPropertyOp33
 70
     1
102
RTVSPropertyOp34
 70
     1
102
RTVSPropertyOp35
 70
     1
102
RTVSPropertyOp36
 70
     1
102
RTVSPropertyOp37
 70
     1
102
RTVSPropertyOp38
 70
     1
102
RTVSPropertyOp39
 70
     1
102
RTVSPropertyOp40
 70
     1
102
RTVSPropertyOp41
 70
     1
102
RTVSPropertyOp42
 70
     1
102
RTVSPropertyOp43
 70
     1
102
RTVSPropertyOp44
 70
     1
102
RTVSPropertyOp45
 70
     1
102
RTVSPropertyOp46
 70
     1
102
RTVSPropertyOp47
 70
     1
102
RTVSPropertyOp48
 70
     1
102
RTVSPropertyOp49
 70
     1
102
RTVSPropertyOp50
 70
     1
102
RTVSPropertyOp51
 70
     0
102
RTVSPropertyOp52
 70
     0
102
RTVSPropertyOp53
 70
     1
102
RTVSPropertyOp54
 70
     1
102
RTVSPropertyOp55
 70
     1
102
RTVSPropertyOp56
 70
     1
102
RTVSPropertyOp57
 70
     1
102
RTVSPropertyOp58
 70
     1
102
RTVSPropertyOp59
 70
     1
102
RTVSPropertyOp60
 70
     1
102
RTVSPropertyOp61
 70
     1
102
RTVSPropertyOp62
 70
     1
  0
XRECORD
  5
CA3C
102
{ACAD_REACTORS
330
CA3B
102
}
330
CA3B
100
AcDbXrecord
280
     1
102
RTVSPost2010Prop28
280
     0
102
RTVSPost2010PropOp28
 70
     1
102
RTVSPost2010Prop29
280
     1
102
RTVSPost2010PropOp29
 70
     1
102
RTVSPost2010Prop30
280
     1
102
RTVSPost2010PropOp30
 70
     1
102
RTVSPost2010Prop31
280
     0
102
RTVSPost2010PropOp31
 70
     1
102
RTVSPost2010Prop32
280
     0
102
RTVSPost2010PropOp32
 70
     1
102
RTVSPost2010Prop33
280
     0
102
RTVSPost2010PropOp33
 70
     1
102
RTVSPost2010Prop34
280
     0
102
RTVSPost2010PropOp34
 70
     1
102
RTVSPost2010Prop35
280
     0
102
RTVSPost2010PropOp35
 70
     1
102
RTVSPost2010Prop36
280
     0
102
RTVSPost2010PropOp36
 70
     1
102
RTVSPost2010Prop37
 90
       50
102
RTVSPost2010PropOp37
 70
     1
102
RTVSPost2010Prop38
140
0.0
102
RTVSPost2010PropOp38
 70
     1
102
RTVSPost2010Prop39
140
1.0
102
RTVSPost2010PropOp39
 70
     1
102
RTVSPost2010Prop40
 90
        0
102
RTVSPost2010PropOp40
 70
     1
102
RTVSPost2010Prop41ColorIndex
 90
       18
102
RTVSPost2010Prop41ColorRGB
 90
        0
102
RTVSPost2010PropOp41
 70
     1
102
RTVSPost2010Prop42
 90
       50
102
RTVSPost2010PropOp42
 70
     1
102
RTVSPost2010Prop43
 90
        3
102
RTVSPost2010PropOp43
 70
     1
102
RTVSPost2010Prop44ColorIndex
 90
        5
102
RTVSPost2010Prop44ColorRGB
 90
      255
102
RTVSPost2010PropOp44
 70
     1
102
RTVSPost2010Prop45
280
     0
102
RTVSPost2010PropOp45
 70
     1
102
RTVSPost2010Prop46
 90
       50
102
RTVSPost2010PropOp46
 70
     1
102
RTVSPost2010Prop47
 90
       50
102
RTVSPost2010PropOp47
 70
     1
102
RTVSPost2010Prop48
 90
       50
102
RTVSPost2010PropOp48
 70
     1
102
RTVSPost2010Prop49
280
     0
102
RTVSPost2010PropOp49
 70
     1
102
RTVSPost2010Prop50
 90
       50
102
RTVSPost2010PropOp50
 70
     1
102
RTVSPost2010Prop51ColorIndex
 90
      256
102
RTVSPost2010Prop51ColorRGB
 90
-16777216
102
RTVSPost2010PropOp51
 70
     0
102
RTVSPost2010Prop52
140
1.0
102
RTVSPost2010PropOp52
 70
     0
102
RTVSPost2010Prop53
 90
        2
102
RTVSPost2010PropOp53
 70
     1
102
RTVSPost2010Prop54
  1
strokes_ogs.tif
102
RTVSPost2010PropOp54
 70
     1
102
RTVSPost2010Prop55
280
     0
102
RTVSPost2010PropOp55
 70
     1
102
RTVSPost2010Prop56
140
1.0
102
RTVSPost2010PropOp56
 70
     1
102
RTVSPost2010Prop57
140
1.0
102
RTVSPost2010PropOp57
 70
     1
102
RTVSPropertyOp0
 70
     1
102
RTVSPropertyOp1
 70
     1
102
RTVSPropertyOp2
 70
     1
102
RTVSPropertyOp3
 70
     1
102
RTVSPropertyOp4
 70
     1
102
RTVSPropertyOp5
 70
     1
102
RTVSPropertyOp6
 70
     1
102
RTVSPropertyOp7
 70
     1
102
RTVSPropertyOp8
 70
     1
102
RTVSPropertyOp9
 70
     1
102
RTVSPropertyOp10
 70
     1
102
RTVSPropertyOp11
 70
     1
102
RTVSPropertyOp12
 70
     1
102
RTVSPropertyOp13
 70
     1
102
RTVSPropertyOp14
 70
     1
102
RTVSPropertyOp15
 70
     1
102
RTVSPropertyOp16
 70
     1
102
RTVSPropertyOp17
 70
     1
102
RTVSPropertyOp18
 70
     1
102
RTVSPropertyOp19
 70
     1
102
RTVSPropertyOp20
 70
     1
102
RTVSPropertyOp21
 70
     1
102
RTVSPropertyOp22
 70
     1
102
RTVSPropertyOp23
 70
     1
102
RTVSPropertyOp24
 70
     1
102
RTVSPropertyOp25
 70
     1
102
RTVSPropertyOp26
 70
     1
102
RTVSPropertyOp27
 70
     1
102
RTVSPropertyOp28
 70
     1
102
RTVSPropertyOp29
 70
     1
102
RTVSPropertyOp30
 70
     1
102
RTVSPropertyOp31
 70
     1
102
RTVSPropertyOp32
 70
     1
102
RTVSPropertyOp33
 70
     1
102
RTVSPropertyOp34
 70
     1
102
RTVSPropertyOp35
 70
     1
102
RTVSPropertyOp36
 70
     1
102
RTVSPropertyOp37
 70
     1
102
RTVSPropertyOp38
 70
     1
102
RTVSPropertyOp39
 70
     1
102
RTVSPropertyOp40
 70
     1
102
RTVSPropertyOp41
 70
     1
102
RTVSPropertyOp42
 70
     1
102
RTVSPropertyOp43
 70
     1
102
RTVSPropertyOp44
 70
     1
102
RTVSPropertyOp45
 70
     1
102
RTVSPropertyOp46
 70
     1
102
RTVSPropertyOp47
 70
     1
102
RTVSPropertyOp48
 70
     1
102
RTVSPropertyOp49
 70
     1
102
RTVSPropertyOp50
 70
     1
102
RTVSPropertyOp51
 70
     0
102
RTVSPropertyOp52
 70
     0
102
RTVSPropertyOp53
 70
     1
102
RTVSPropertyOp54
 70
     1
102
RTVSPropertyOp55
 70
     1
102
RTVSPropertyOp56
 70
     1
102
RTVSPropertyOp57
 70
     1
102
RTVSPropertyOp58
 70
     1
102
RTVSPropertyOp59
 70
     1
102
RTVSPropertyOp60
 70
     1
102
RTVSPropertyOp61
 70
     1
102
RTVSPropertyOp62
 70
     1
  0
XRECORD
  5
CA3A
102
{ACAD_REACTORS
330
CA39
102
}
330
CA39
100
AcDbXrecord
280
     1
102
RTVSPost2010Prop28
280
     0
102
RTVSPost2010PropOp28
 70
     1
102
RTVSPost2010Prop29
280
     1
102
RTVSPost2010PropOp29
 70
     1
102
RTVSPost2010Prop30
280
     1
102
RTVSPost2010PropOp30
 70
     1
102
RTVSPost2010Prop31
280
     0
102
RTVSPost2010PropOp31
 70
     1
102
RTVSPost2010Prop32
280
     0
102
RTVSPost2010PropOp32
 70
     1
102
RTVSPost2010Prop33
280
     0
102
RTVSPost2010PropOp33
 70
     1
102
RTVSPost2010Prop34
280
     0
102
RTVSPost2010PropOp34
 70
     1
102
RTVSPost2010Prop35
280
     0
102
RTVSPost2010PropOp35
 70
     1
102
RTVSPost2010Prop36
280
     0
102
RTVSPost2010PropOp36
 70
     1
102
RTVSPost2010Prop37
 90
       50
102
RTVSPost2010PropOp37
 70
     1
102
RTVSPost2010Prop38
140
0.0
102
RTVSPost2010PropOp38
 70
     1
102
RTVSPost2010Prop39
140
1.0
102
RTVSPost2010PropOp39
 70
     1
102
RTVSPost2010Prop40
 90
        0
102
RTVSPost2010PropOp40
 70
     1
102
RTVSPost2010Prop41ColorIndex
 90
       18
102
RTVSPost2010Prop41ColorRGB
 90
        0
102
RTVSPost2010PropOp41
 70
     1
102
RTVSPost2010Prop42
 90
       50
102
RTVSPost2010PropOp42
 70
     1
102
RTVSPost2010Prop43
 90
        3
102
RTVSPost2010PropOp43
 70
     1
102
RTVSPost2010Prop44ColorIndex
 90
        5
102
RTVSPost2010Prop44ColorRGB
 90
      255
102
RTVSPost2010PropOp44
 70
     1
102
RTVSPost2010Prop45
280
     0
102
RTVSPost2010PropOp45
 70
     1
102
RTVSPost2010Prop46
 90
       50
102
RTVSPost2010PropOp46
 70
     1
102
RTVSPost2010Prop47
 90
       50
102
RTVSPost2010PropOp47
 70
     1
102
RTVSPost2010Prop48
 90
       50
102
RTVSPost2010PropOp48
 70
     1
102
RTVSPost2010Prop49
280
     0
102
RTVSPost2010PropOp49
 70
     1
102
RTVSPost2010Prop50
 90
       50
102
RTVSPost2010PropOp50
 70
     1
102
RTVSPost2010Prop51ColorIndex
 90
      256
102
RTVSPost2010Prop51ColorRGB
 90
-16777216
102
RTVSPost2010PropOp51
 70
     0
102
RTVSPost2010Prop52
140
1.0
102
RTVSPost2010PropOp52
 70
     0
102
RTVSPost2010Prop53
 90
        2
102
RTVSPost2010PropOp53
 70
     1
102
RTVSPost2010Prop54
  1
strokes_ogs.tif
102
RTVSPost2010PropOp54
 70
     1
102
RTVSPost2010Prop55
280
     0
102
RTVSPost2010PropOp55
 70
     1
102
RTVSPost2010Prop56
140
1.0
102
RTVSPost2010PropOp56
 70
     1
102
RTVSPost2010Prop57
140
1.0
102
RTVSPost2010PropOp57
 70
     1
102
RTVSPropertyOp0
 70
     1
102
RTVSPropertyOp1
 70
     1
102
RTVSPropertyOp2
 70
     1
102
RTVSPropertyOp3
 70
     1
102
RTVSPropertyOp4
 70
     1
102
RTVSPropertyOp5
 70
     1
102
RTVSPropertyOp6
 70
     1
102
RTVSPropertyOp7
 70
     1
102
RTVSPropertyOp8
 70
     1
102
RTVSPropertyOp9
 70
     1
102
RTVSPropertyOp10
 70
     1
102
RTVSPropertyOp11
 70
     1
102
RTVSPropertyOp12
 70
     1
102
RTVSPropertyOp13
 70
     1
102
RTVSPropertyOp14
 70
     1
102
RTVSPropertyOp15
 70
     1
102
RTVSPropertyOp16
 70
     1
102
RTVSPropertyOp17
 70
     1
102
RTVSPropertyOp18
 70
     1
102
RTVSPropertyOp19
 70
     1
102
RTVSPropertyOp20
 70
     1
102
RTVSPropertyOp21
 70
     1
102
RTVSPropertyOp22
 70
     1
102
RTVSPropertyOp23
 70
     1
102
RTVSPropertyOp24
 70
     1
102
RTVSPropertyOp25
 70
     1
102
RTVSPropertyOp26
 70
     1
102
RTVSPropertyOp27
 70
     1
102
RTVSPropertyOp28
 70
     1
102
RTVSPropertyOp29
 70
     1
102
RTVSPropertyOp30
 70
     1
102
RTVSPropertyOp31
 70
     1
102
RTVSPropertyOp32
 70
     1
102
RTVSPropertyOp33
 70
     1
102
RTVSPropertyOp34
 70
     1
102
RTVSPropertyOp35
 70
     1
102
RTVSPropertyOp36
 70
     1
102
RTVSPropertyOp37
 70
     1
102
RTVSPropertyOp38
 70
     1
102
RTVSPropertyOp39
 70
     1
102
RTVSPropertyOp40
 70
     1
102
RTVSPropertyOp41
 70
     1
102
RTVSPropertyOp42
 70
     1
102
RTVSPropertyOp43
 70
     1
102
RTVSPropertyOp44
 70
     1
102
RTVSPropertyOp45
 70
     1
102
RTVSPropertyOp46
 70
     1
102
RTVSPropertyOp47
 70
     1
102
RTVSPropertyOp48
 70
     1
102
RTVSPropertyOp49
 70
     1
102
RTVSPropertyOp50
 70
     1
102
RTVSPropertyOp51
 70
     0
102
RTVSPropertyOp52
 70
     0
102
RTVSPropertyOp53
 70
     1
102
RTVSPropertyOp54
 70
     1
102
RTVSPropertyOp55
 70
     1
102
RTVSPropertyOp56
 70
     1
102
RTVSPropertyOp57
 70
     1
102
RTVSPropertyOp58
 70
     1
102
RTVSPropertyOp59
 70
     1
102
RTVSPropertyOp60
 70
     1
102
RTVSPropertyOp61
 70
     1
102
RTVSPropertyOp62
 70
     1
  0
XRECORD
  5
CA34
102
{ACAD_REACTORS
330
CA33
102
}
330
CA33
100
AcDbXrecord
280
     1
102
RTVSPost2010Prop28
280
     0
102
RTVSPost2010PropOp28
 70
     1
102
RTVSPost2010Prop29
280
     1
102
RTVSPost2010PropOp29
 70
     1
102
RTVSPost2010Prop30
280
     1
102
RTVSPost2010PropOp30
 70
     1
102
RTVSPost2010Prop31
280
     0
102
RTVSPost2010PropOp31
 70
     1
102
RTVSPost2010Prop32
280
     0
102
RTVSPost2010PropOp32
 70
     1
102
RTVSPost2010Prop33
280
     0
102
RTVSPost2010PropOp33
 70
     1
102
RTVSPost2010Prop34
280
     0
102
RTVSPost2010PropOp34
 70
     1
102
RTVSPost2010Prop35
280
     0
102
RTVSPost2010PropOp35
 70
     1
102
RTVSPost2010Prop36
280
     0
102
RTVSPost2010PropOp36
 70
     1
102
RTVSPost2010Prop37
 90
       50
102
RTVSPost2010PropOp37
 70
     1
102
RTVSPost2010Prop38
140
0.0
102
RTVSPost2010PropOp38
 70
     1
102
RTVSPost2010Prop39
140
1.0
102
RTVSPost2010PropOp39
 70
     1
102
RTVSPost2010Prop40
 90
        0
102
RTVSPost2010PropOp40
 70
     1
102
RTVSPost2010Prop41ColorIndex
 90
       18
102
RTVSPost2010Prop41ColorRGB
 90
        0
102
RTVSPost2010PropOp41
 70
     1
102
RTVSPost2010Prop42
 90
       50
102
RTVSPost2010PropOp42
 70
     1
102
RTVSPost2010Prop43
 90
        3
102
RTVSPost2010PropOp43
 70
     1
102
RTVSPost2010Prop44ColorIndex
 90
        5
102
RTVSPost2010Prop44ColorRGB
 90
      255
102
RTVSPost2010PropOp44
 70
     1
102
RTVSPost2010Prop45
280
     0
102
RTVSPost2010PropOp45
 70
     1
102
RTVSPost2010Prop46
 90
       50
102
RTVSPost2010PropOp46
 70
     1
102
RTVSPost2010Prop47
 90
       50
102
RTVSPost2010PropOp47
 70
     1
102
RTVSPost2010Prop48
 90
       50
102
RTVSPost2010PropOp48
 70
     1
102
RTVSPost2010Prop49
280
     0
102
RTVSPost2010PropOp49
 70
     1
102
RTVSPost2010Prop50
 90
       50
102
RTVSPost2010PropOp50
 70
     1
102
RTVSPost2010Prop51ColorIndex
 90
      256
102
RTVSPost2010Prop51ColorRGB
 90
-16777216
102
RTVSPost2010PropOp51
 70
     0
102
RTVSPost2010Prop52
140
1.0
102
RTVSPost2010PropOp52
 70
     0
102
RTVSPost2010Prop53
 90
        2
102
RTVSPost2010PropOp53
 70
     1
102
RTVSPost2010Prop54
  1
strokes_ogs.tif
102
RTVSPost2010PropOp54
 70
     1
102
RTVSPost2010Prop55
280
     0
102
RTVSPost2010PropOp55
 70
     1
102
RTVSPost2010Prop56
140
1.0
102
RTVSPost2010PropOp56
 70
     1
102
RTVSPost2010Prop57
140
1.0
102
RTVSPost2010PropOp57
 70
     1
102
RTVSPropertyOp0
 70
     1
102
RTVSPropertyOp1
 70
     1
102
RTVSPropertyOp2
 70
     1
102
RTVSPropertyOp3
 70
     1
102
RTVSPropertyOp4
 70
     1
102
RTVSPropertyOp5
 70
     1
102
RTVSPropertyOp6
 70
     1
102
RTVSPropertyOp7
 70
     1
102
RTVSPropertyOp8
 70
     1
102
RTVSPropertyOp9
 70
     1
102
RTVSPropertyOp10
 70
     1
102
RTVSPropertyOp11
 70
     1
102
RTVSPropertyOp12
 70
     1
102
RTVSPropertyOp13
 70
     1
102
RTVSPropertyOp14
 70
     1
102
RTVSPropertyOp15
 70
     1
102
RTVSPropertyOp16
 70
     1
102
RTVSPropertyOp17
 70
     1
102
RTVSPropertyOp18
 70
     1
102
RTVSPropertyOp19
 70
     1
102
RTVSPropertyOp20
 70
     1
102
RTVSPropertyOp21
 70
     1
102
RTVSPropertyOp22
 70
     1
102
RTVSPropertyOp23
 70
     1
102
RTVSPropertyOp24
 70
     1
102
RTVSPropertyOp25
 70
     1
102
RTVSPropertyOp26
 70
     1
102
RTVSPropertyOp27
 70
     1
102
RTVSPropertyOp28
 70
     1
102
RTVSPropertyOp29
 70
     1
102
RTVSPropertyOp30
 70
     1
102
RTVSPropertyOp31
 70
     1
102
RTVSPropertyOp32
 70
     1
102
RTVSPropertyOp33
 70
     1
102
RTVSPropertyOp34
 70
     1
102
RTVSPropertyOp35
 70
     1
102
RTVSPropertyOp36
 70
     1
102
RTVSPropertyOp37
 70
     1
102
RTVSPropertyOp38
 70
     1
102
RTVSPropertyOp39
 70
     1
102
RTVSPropertyOp40
 70
     1
102
RTVSPropertyOp41
 70
     1
102
RTVSPropertyOp42
 70
     1
102
RTVSPropertyOp43
 70
     1
102
RTVSPropertyOp44
 70
     1
102
RTVSPropertyOp45
 70
     1
102
RTVSPropertyOp46
 70
     1
102
RTVSPropertyOp47
 70
     1
102
RTVSPropertyOp48
 70
     1
102
RTVSPropertyOp49
 70
     1
102
RTVSPropertyOp50
 70
     1
102
RTVSPropertyOp51
 70
     0
102
RTVSPropertyOp52
 70
     0
102
RTVSPropertyOp53
 70
     1
102
RTVSPropertyOp54
 70
     1
102
RTVSPropertyOp55
 70
     1
102
RTVSPropertyOp56
 70
     1
102
RTVSPropertyOp57
 70
     1
102
RTVSPropertyOp58
 70
     1
102
RTVSPropertyOp59
 70
     1
102
RTVSPropertyOp60
 70
     1
102
RTVSPropertyOp61
 70
     1
102
RTVSPropertyOp62
 70
     1
  0
XRECORD
  5
CA36
102
{ACAD_REACTORS
330
CA35
102
}
330
CA35
100
AcDbXrecord
280
     1
102
RTVSPost2010Prop28
280
     0
102
RTVSPost2010PropOp28
 70
     1
102
RTVSPost2010Prop29
280
     1
102
RTVSPost2010PropOp29
 70
     1
102
RTVSPost2010Prop30
280
     1
102
RTVSPost2010PropOp30
 70
     1
102
RTVSPost2010Prop31
280
     0
102
RTVSPost2010PropOp31
 70
     1
102
RTVSPost2010Prop32
280
     0
102
RTVSPost2010PropOp32
 70
     1
102
RTVSPost2010Prop33
280
     0
102
RTVSPost2010PropOp33
 70
     1
102
RTVSPost2010Prop34
280
     0
102
RTVSPost2010PropOp34
 70
     1
102
RTVSPost2010Prop35
280
     0
102
RTVSPost2010PropOp35
 70
     1
102
RTVSPost2010Prop36
280
     0
102
RTVSPost2010PropOp36
 70
     1
102
RTVSPost2010Prop37
 90
       50
102
RTVSPost2010PropOp37
 70
     1
102
RTVSPost2010Prop38
140
0.0
102
RTVSPost2010PropOp38
 70
     1
102
RTVSPost2010Prop39
140
1.0
102
RTVSPost2010PropOp39
 70
     1
102
RTVSPost2010Prop40
 90
        0
102
RTVSPost2010PropOp40
 70
     1
102
RTVSPost2010Prop41ColorIndex
 90
       18
102
RTVSPost2010Prop41ColorRGB
 90
        0
102
RTVSPost2010PropOp41
 70
     1
102
RTVSPost2010Prop42
 90
       50
102
RTVSPost2010PropOp42
 70
     1
102
RTVSPost2010Prop43
 90
        3
102
RTVSPost2010PropOp43
 70
     1
102
RTVSPost2010Prop44ColorIndex
 90
        5
102
RTVSPost2010Prop44ColorRGB
 90
      255
102
RTVSPost2010PropOp44
 70
     1
102
RTVSPost2010Prop45
280
     0
102
RTVSPost2010PropOp45
 70
     1
102
RTVSPost2010Prop46
 90
       50
102
RTVSPost2010PropOp46
 70
     1
102
RTVSPost2010Prop47
 90
       50
102
RTVSPost2010PropOp47
 70
     1
102
RTVSPost2010Prop48
 90
       50
102
RTVSPost2010PropOp48
 70
     1
102
RTVSPost2010Prop49
280
     0
102
RTVSPost2010PropOp49
 70
     1
102
RTVSPost2010Prop50
 90
       50
102
RTVSPost2010PropOp50
 70
     1
102
RTVSPost2010Prop51ColorIndex
 90
      256
102
RTVSPost2010Prop51ColorRGB
 90
-16777216
102
RTVSPost2010PropOp51
 70
     0
102
RTVSPost2010Prop52
140
1.0
102
RTVSPost2010PropOp52
 70
     0
102
RTVSPost2010Prop53
 90
        2
102
RTVSPost2010PropOp53
 70
     1
102
RTVSPost2010Prop54
  1
strokes_ogs.tif
102
RTVSPost2010PropOp54
 70
     1
102
RTVSPost2010Prop55
280
     0
102
RTVSPost2010PropOp55
 70
     1
102
RTVSPost2010Prop56
140
1.0
102
RTVSPost2010PropOp56
 70
     1
102
RTVSPost2010Prop57
140
1.0
102
RTVSPost2010PropOp57
 70
     1
102
RTVSPropertyOp0
 70
     1
102
RTVSPropertyOp1
 70
     1
102
RTVSPropertyOp2
 70
     1
102
RTVSPropertyOp3
 70
     1
102
RTVSPropertyOp4
 70
     1
102
RTVSPropertyOp5
 70
     1
102
RTVSPropertyOp6
 70
     1
102
RTVSPropertyOp7
 70
     1
102
RTVSPropertyOp8
 70
     1
102
RTVSPropertyOp9
 70
     1
102
RTVSPropertyOp10
 70
     1
102
RTVSPropertyOp11
 70
     1
102
RTVSPropertyOp12
 70
     1
102
RTVSPropertyOp13
 70
     1
102
RTVSPropertyOp14
 70
     1
102
RTVSPropertyOp15
 70
     1
102
RTVSPropertyOp16
 70
     1
102
RTVSPropertyOp17
 70
     1
102
RTVSPropertyOp18
 70
     1
102
RTVSPropertyOp19
 70
     1
102
RTVSPropertyOp20
 70
     1
102
RTVSPropertyOp21
 70
     1
102
RTVSPropertyOp22
 70
     1
102
RTVSPropertyOp23
 70
     1
102
RTVSPropertyOp24
 70
     1
102
RTVSPropertyOp25
 70
     1
102
RTVSPropertyOp26
 70
     1
102
RTVSPropertyOp27
 70
     1
102
RTVSPropertyOp28
 70
     1
102
RTVSPropertyOp29
 70
     1
102
RTVSPropertyOp30
 70
     1
102
RTVSPropertyOp31
 70
     1
102
RTVSPropertyOp32
 70
     1
102
RTVSPropertyOp33
 70
     1
102
RTVSPropertyOp34
 70
     1
102
RTVSPropertyOp35
 70
     1
102
RTVSPropertyOp36
 70
     1
102
RTVSPropertyOp37
 70
     1
102
RTVSPropertyOp38
 70
     1
102
RTVSPropertyOp39
 70
     1
102
RTVSPropertyOp40
 70
     1
102
RTVSPropertyOp41
 70
     1
102
RTVSPropertyOp42
 70
     1
102
RTVSPropertyOp43
 70
     1
102
RTVSPropertyOp44
 70
     1
102
RTVSPropertyOp45
 70
     1
102
RTVSPropertyOp46
 70
     1
102
RTVSPropertyOp47
 70
     1
102
RTVSPropertyOp48
 70
     1
102
RTVSPropertyOp49
 70
     1
102
RTVSPropertyOp50
 70
     1
102
RTVSPropertyOp51
 70
     0
102
RTVSPropertyOp52
 70
     0
102
RTVSPropertyOp53
 70
     1
102
RTVSPropertyOp54
 70
     1
102
RTVSPropertyOp55
 70
     1
102
RTVSPropertyOp56
 70
     1
102
RTVSPropertyOp57
 70
     1
102
RTVSPropertyOp58
 70
     1
102
RTVSPropertyOp59
 70
     1
102
RTVSPropertyOp60
 70
     1
102
RTVSPropertyOp61
 70
     1
102
RTVSPropertyOp62
 70
     1
  0
XRECORD
  5
CA2C
102
{ACAD_REACTORS
330
CA2B
102
}
330
CA2B
100
AcDbXrecord
280
     1
102
RTVSPost2010Prop28
280
     0
102
RTVSPost2010PropOp28
 70
     1
102
RTVSPost2010Prop29
280
     1
102
RTVSPost2010PropOp29
 70
     1
102
RTVSPost2010Prop30
280
     1
102
RTVSPost2010PropOp30
 70
     1
102
RTVSPost2010Prop31
280
     0
102
RTVSPost2010PropOp31
 70
     1
102
RTVSPost2010Prop32
280
     0
102
RTVSPost2010PropOp32
 70
     1
102
RTVSPost2010Prop33
280
     0
102
RTVSPost2010PropOp33
 70
     1
102
RTVSPost2010Prop34
280
     0
102
RTVSPost2010PropOp34
 70
     1
102
RTVSPost2010Prop35
280
     0
102
RTVSPost2010PropOp35
 70
     1
102
RTVSPost2010Prop36
280
     0
102
RTVSPost2010PropOp36
 70
     1
102
RTVSPost2010Prop37
 90
       50
102
RTVSPost2010PropOp37
 70
     1
102
RTVSPost2010Prop38
140
0.0
102
RTVSPost2010PropOp38
 70
     1
102
RTVSPost2010Prop39
140
1.0
102
RTVSPost2010PropOp39
 70
     1
102
RTVSPost2010Prop40
 90
        0
102
RTVSPost2010PropOp40
 70
     1
102
RTVSPost2010Prop41ColorIndex
 90
       18
102
RTVSPost2010Prop41ColorRGB
 90
        0
102
RTVSPost2010PropOp41
 70
     1
102
RTVSPost2010Prop42
 90
       50
102
RTVSPost2010PropOp42
 70
     1
102
RTVSPost2010Prop43
 90
        3
102
RTVSPost2010PropOp43
 70
     1
102
RTVSPost2010Prop44ColorIndex
 90
        5
102
RTVSPost2010Prop44ColorRGB
 90
      255
102
RTVSPost2010PropOp44
 70
     1
102
RTVSPost2010Prop45
280
     0
102
RTVSPost2010PropOp45
 70
     1
102
RTVSPost2010Prop46
 90
       50
102
RTVSPost2010PropOp46
 70
     1
102
RTVSPost2010Prop47
 90
       50
102
RTVSPost2010PropOp47
 70
     1
102
RTVSPost2010Prop48
 90
       50
102
RTVSPost2010PropOp48
 70
     1
102
RTVSPost2010Prop49
280
     0
102
RTVSPost2010PropOp49
 70
     1
102
RTVSPost2010Prop50
 90
       50
102
RTVSPost2010PropOp50
 70
     1
102
RTVSPost2010Prop51ColorIndex
 90
      256
102
RTVSPost2010Prop51ColorRGB
 90
-16777216
102
RTVSPost2010PropOp51
 70
     0
102
RTVSPost2010Prop52
140
1.0
102
RTVSPost2010PropOp52
 70
     0
102
RTVSPost2010Prop53
 90
        2
102
RTVSPost2010PropOp53
 70
     1
102
RTVSPost2010Prop54
  1
strokes_ogs.tif
102
RTVSPost2010PropOp54
 70
     1
102
RTVSPost2010Prop55
280
     0
102
RTVSPost2010PropOp55
 70
     1
102
RTVSPost2010Prop56
140
1.0
102
RTVSPost2010PropOp56
 70
     1
102
RTVSPost2010Prop57
140
1.0
102
RTVSPost2010PropOp57
 70
     1
102
RTVSPropertyOp0
 70
     1
102
RTVSPropertyOp1
 70
     1
102
RTVSPropertyOp2
 70
     1
102
RTVSPropertyOp3
 70
     1
102
RTVSPropertyOp4
 70
     1
102
RTVSPropertyOp5
 70
     1
102
RTVSPropertyOp6
 70
     1
102
RTVSPropertyOp7
 70
     1
102
RTVSPropertyOp8
 70
     1
102
RTVSPropertyOp9
 70
     1
102
RTVSPropertyOp10
 70
     1
102
RTVSPropertyOp11
 70
     1
102
RTVSPropertyOp12
 70
     1
102
RTVSPropertyOp13
 70
     1
102
RTVSPropertyOp14
 70
     1
102
RTVSPropertyOp15
 70
     1
102
RTVSPropertyOp16
 70
     1
102
RTVSPropertyOp17
 70
     1
102
RTVSPropertyOp18
 70
     1
102
RTVSPropertyOp19
 70
     1
102
RTVSPropertyOp20
 70
     1
102
RTVSPropertyOp21
 70
     1
102
RTVSPropertyOp22
 70
     1
102
RTVSPropertyOp23
 70
     1
102
RTVSPropertyOp24
 70
     1
102
RTVSPropertyOp25
 70
     1
102
RTVSPropertyOp26
 70
     1
102
RTVSPropertyOp27
 70
     1
102
RTVSPropertyOp28
 70
     1
102
RTVSPropertyOp29
 70
     1
102
RTVSPropertyOp30
 70
     1
102
RTVSPropertyOp31
 70
     1
102
RTVSPropertyOp32
 70
     1
102
RTVSPropertyOp33
 70
     1
102
RTVSPropertyOp34
 70
     1
102
RTVSPropertyOp35
 70
     1
102
RTVSPropertyOp36
 70
     1
102
RTVSPropertyOp37
 70
     1
102
RTVSPropertyOp38
 70
     1
102
RTVSPropertyOp39
 70
     1
102
RTVSPropertyOp40
 70
     1
102
RTVSPropertyOp41
 70
     1
102
RTVSPropertyOp42
 70
     1
102
RTVSPropertyOp43
 70
     1
102
RTVSPropertyOp44
 70
     1
102
RTVSPropertyOp45
 70
     1
102
RTVSPropertyOp46
 70
     1
102
RTVSPropertyOp47
 70
     1
102
RTVSPropertyOp48
 70
     1
102
RTVSPropertyOp49
 70
     1
102
RTVSPropertyOp50
 70
     1
102
RTVSPropertyOp51
 70
     0
102
RTVSPropertyOp52
 70
     0
102
RTVSPropertyOp53
 70
     1
102
RTVSPropertyOp54
 70
     1
102
RTVSPropertyOp55
 70
     1
102
RTVSPropertyOp56
 70
     1
102
RTVSPropertyOp57
 70
     1
102
RTVSPropertyOp58
 70
     1
102
RTVSPropertyOp59
 70
     1
102
RTVSPropertyOp60
 70
     1
102
RTVSPropertyOp61
 70
     1
102
RTVSPropertyOp62
 70
     1
  0
XRECORD
  5
CA20
102
{ACAD_REACTORS
330
CA1F
102
}
330
CA1F
100
AcDbXrecord
280
     1
102
RTVSPost2010Prop28
280
     0
102
RTVSPost2010PropOp28
 70
     1
102
RTVSPost2010Prop29
280
     1
102
RTVSPost2010PropOp29
 70
     1
102
RTVSPost2010Prop30
280
     1
102
RTVSPost2010PropOp30
 70
     1
102
RTVSPost2010Prop31
280
     0
102
RTVSPost2010PropOp31
 70
     1
102
RTVSPost2010Prop32
280
     0
102
RTVSPost2010PropOp32
 70
     1
102
RTVSPost2010Prop33
280
     0
102
RTVSPost2010PropOp33
 70
     1
102
RTVSPost2010Prop34
280
     0
102
RTVSPost2010PropOp34
 70
     1
102
RTVSPost2010Prop35
280
     0
102
RTVSPost2010PropOp35
 70
     1
102
RTVSPost2010Prop36
280
     0
102
RTVSPost2010PropOp36
 70
     1
102
RTVSPost2010Prop37
 90
       50
102
RTVSPost2010PropOp37
 70
     1
102
RTVSPost2010Prop38
140
0.0
102
RTVSPost2010PropOp38
 70
     1
102
RTVSPost2010Prop39
140
1.0
102
RTVSPost2010PropOp39
 70
     1
102
RTVSPost2010Prop40
 90
        0
102
RTVSPost2010PropOp40
 70
     1
102
RTVSPost2010Prop41ColorIndex
 90
       18
102
RTVSPost2010Prop41ColorRGB
 90
        0
102
RTVSPost2010PropOp41
 70
     1
102
RTVSPost2010Prop42
 90
       50
102
RTVSPost2010PropOp42
 70
     1
102
RTVSPost2010Prop43
 90
        3
102
RTVSPost2010PropOp43
 70
     1
102
RTVSPost2010Prop44ColorIndex
 90
        5
102
RTVSPost2010Prop44ColorRGB
 90
      255
102
RTVSPost2010PropOp44
 70
     1
102
RTVSPost2010Prop45
280
     0
102
RTVSPost2010PropOp45
 70
     1
102
RTVSPost2010Prop46
 90
       50
102
RTVSPost2010PropOp46
 70
     1
102
RTVSPost2010Prop47
 90
       50
102
RTVSPost2010PropOp47
 70
     1
102
RTVSPost2010Prop48
 90
       50
102
RTVSPost2010PropOp48
 70
     1
102
RTVSPost2010Prop49
280
     0
102
RTVSPost2010PropOp49
 70
     1
102
RTVSPost2010Prop50
 90
       50
102
RTVSPost2010PropOp50
 70
     1
102
RTVSPost2010Prop51ColorIndex
 90
      256
102
RTVSPost2010Prop51ColorRGB
 90
-16777216
102
RTVSPost2010PropOp51
 70
     0
102
RTVSPost2010Prop52
140
1.0
102
RTVSPost2010PropOp52
 70
     0
102
RTVSPost2010Prop53
 90
        2
102
RTVSPost2010PropOp53
 70
     1
102
RTVSPost2010Prop54
  1
strokes_ogs.tif
102
RTVSPost2010PropOp54
 70
     1
102
RTVSPost2010Prop55
280
     0
102
RTVSPost2010PropOp55
 70
     1
102
RTVSPost2010Prop56
140
1.0
102
RTVSPost2010PropOp56
 70
     1
102
RTVSPost2010Prop57
140
1.0
102
RTVSPost2010PropOp57
 70
     1
102
RTVSPropertyOp0
 70
     1
102
RTVSPropertyOp1
 70
     1
102
RTVSPropertyOp2
 70
     1
102
RTVSPropertyOp3
 70
     1
102
RTVSPropertyOp4
 70
     1
102
RTVSPropertyOp5
 70
     1
102
RTVSPropertyOp6
 70
     1
102
RTVSPropertyOp7
 70
     1
102
RTVSPropertyOp8
 70
     1
102
RTVSPropertyOp9
 70
     1
102
RTVSPropertyOp10
 70
     1
102
RTVSPropertyOp11
 70
     1
102
RTVSPropertyOp12
 70
     1
102
RTVSPropertyOp13
 70
     1
102
RTVSPropertyOp14
 70
     1
102
RTVSPropertyOp15
 70
     1
102
RTVSPropertyOp16
 70
     1
102
RTVSPropertyOp17
 70
     1
102
RTVSPropertyOp18
 70
     1
102
RTVSPropertyOp19
 70
     1
102
RTVSPropertyOp20
 70
     1
102
RTVSPropertyOp21
 70
     1
102
RTVSPropertyOp22
 70
     1
102
RTVSPropertyOp23
 70
     1
102
RTVSPropertyOp24
 70
     1
102
RTVSPropertyOp25
 70
     1
102
RTVSPropertyOp26
 70
     1
102
RTVSPropertyOp27
 70
     1
102
RTVSPropertyOp28
 70
     1
102
RTVSPropertyOp29
 70
     1
102
RTVSPropertyOp30
 70
     1
102
RTVSPropertyOp31
 70
     1
102
RTVSPropertyOp32
 70
     1
102
RTVSPropertyOp33
 70
     1
102
RTVSPropertyOp34
 70
     1
102
RTVSPropertyOp35
 70
     1
102
RTVSPropertyOp36
 70
     1
102
RTVSPropertyOp37
 70
     1
102
RTVSPropertyOp38
 70
     1
102
RTVSPropertyOp39
 70
     1
102
RTVSPropertyOp40
 70
     1
102
RTVSPropertyOp41
 70
     1
102
RTVSPropertyOp42
 70
     1
102
RTVSPropertyOp43
 70
     1
102
RTVSPropertyOp44
 70
     1
102
RTVSPropertyOp45
 70
     1
102
RTVSPropertyOp46
 70
     1
102
RTVSPropertyOp47
 70
     1
102
RTVSPropertyOp48
 70
     1
102
RTVSPropertyOp49
 70
     1
102
RTVSPropertyOp50
 70
     1
102
RTVSPropertyOp51
 70
     0
102
RTVSPropertyOp52
 70
     0
102
RTVSPropertyOp53
 70
     1
102
RTVSPropertyOp54
 70
     1
102
RTVSPropertyOp55
 70
     1
102
RTVSPropertyOp56
 70
     1
102
RTVSPropertyOp57
 70
     1
102
RTVSPropertyOp58
 70
     1
102
RTVSPropertyOp59
 70
     1
102
RTVSPropertyOp60
 70
     1
102
RTVSPropertyOp61
 70
     1
102
RTVSPropertyOp62
 70
     1
  0
XRECORD
  5
CA38
102
{ACAD_REACTORS
330
CA37
102
}
330
CA37
100
AcDbXrecord
280
     1
102
RTVSPost2010Prop28
280
     0
102
RTVSPost2010PropOp28
 70
     1
102
RTVSPost2010Prop29
280
     1
102
RTVSPost2010PropOp29
 70
     1
102
RTVSPost2010Prop30
280
     1
102
RTVSPost2010PropOp30
 70
     1
102
RTVSPost2010Prop31
280
     0
102
RTVSPost2010PropOp31
 70
     1
102
RTVSPost2010Prop32
280
     0
102
RTVSPost2010PropOp32
 70
     1
102
RTVSPost2010Prop33
280
     0
102
RTVSPost2010PropOp33
 70
     1
102
RTVSPost2010Prop34
280
     0
102
RTVSPost2010PropOp34
 70
     1
102
RTVSPost2010Prop35
280
     0
102
RTVSPost2010PropOp35
 70
     1
102
RTVSPost2010Prop36
280
     0
102
RTVSPost2010PropOp36
 70
     1
102
RTVSPost2010Prop37
 90
       50
102
RTVSPost2010PropOp37
 70
     1
102
RTVSPost2010Prop38
140
0.0
102
RTVSPost2010PropOp38
 70
     1
102
RTVSPost2010Prop39
140
1.0
102
RTVSPost2010PropOp39
 70
     1
102
RTVSPost2010Prop40
 90
        0
102
RTVSPost2010PropOp40
 70
     1
102
RTVSPost2010Prop41ColorIndex
 90
       18
102
RTVSPost2010Prop41ColorRGB
 90
        0
102
RTVSPost2010PropOp41
 70
     1
102
RTVSPost2010Prop42
 90
       50
102
RTVSPost2010PropOp42
 70
     1
102
RTVSPost2010Prop43
 90
        3
102
RTVSPost2010PropOp43
 70
     1
102
RTVSPost2010Prop44ColorIndex
 90
        5
102
RTVSPost2010Prop44ColorRGB
 90
      255
102
RTVSPost2010PropOp44
 70
     1
102
RTVSPost2010Prop45
280
     0
102
RTVSPost2010PropOp45
 70
     1
102
RTVSPost2010Prop46
 90
       50
102
RTVSPost2010PropOp46
 70
     1
102
RTVSPost2010Prop47
 90
       50
102
RTVSPost2010PropOp47
 70
     1
102
RTVSPost2010Prop48
 90
       50
102
RTVSPost2010PropOp48
 70
     1
102
RTVSPost2010Prop49
280
     0
102
RTVSPost2010PropOp49
 70
     1
102
RTVSPost2010Prop50
 90
       50
102
RTVSPost2010PropOp50
 70
     1
102
RTVSPost2010Prop51ColorIndex
 90
      256
102
RTVSPost2010Prop51ColorRGB
 90
-16777216
102
RTVSPost2010PropOp51
 70
     0
102
RTVSPost2010Prop52
140
1.0
102
RTVSPost2010PropOp52
 70
     0
102
RTVSPost2010Prop53
 90
        2
102
RTVSPost2010PropOp53
 70
     1
102
RTVSPost2010Prop54
  1
strokes_ogs.tif
102
RTVSPost2010PropOp54
 70
     1
102
RTVSPost2010Prop55
280
     0
102
RTVSPost2010PropOp55
 70
     1
102
RTVSPost2010Prop56
140
1.0
102
RTVSPost2010PropOp56
 70
     1
102
RTVSPost2010Prop57
140
1.0
102
RTVSPost2010PropOp57
 70
     1
102
RTVSPropertyOp0
 70
     1
102
RTVSPropertyOp1
 70
     1
102
RTVSPropertyOp2
 70
     1
102
RTVSPropertyOp3
 70
     1
102
RTVSPropertyOp4
 70
     1
102
RTVSPropertyOp5
 70
     1
102
RTVSPropertyOp6
 70
     1
102
RTVSPropertyOp7
 70
     1
102
RTVSPropertyOp8
 70
     1
102
RTVSPropertyOp9
 70
     1
102
RTVSPropertyOp10
 70
     1
102
RTVSPropertyOp11
 70
     1
102
RTVSPropertyOp12
 70
     1
102
RTVSPropertyOp13
 70
     1
102
RTVSPropertyOp14
 70
     1
102
RTVSPropertyOp15
 70
     1
102
RTVSPropertyOp16
 70
     1
102
RTVSPropertyOp17
 70
     1
102
RTVSPropertyOp18
 70
     1
102
RTVSPropertyOp19
 70
     1
102
RTVSPropertyOp20
 70
     1
102
RTVSPropertyOp21
 70
     1
102
RTVSPropertyOp22
 70
     1
102
RTVSPropertyOp23
 70
     1
102
RTVSPropertyOp24
 70
     1
102
RTVSPropertyOp25
 70
     1
102
RTVSPropertyOp26
 70
     1
102
RTVSPropertyOp27
 70
     1
102
RTVSPropertyOp28
 70
     1
102
RTVSPropertyOp29
 70
     1
102
RTVSPropertyOp30
 70
     1
102
RTVSPropertyOp31
 70
     1
102
RTVSPropertyOp32
 70
     1
102
RTVSPropertyOp33
 70
     1
102
RTVSPropertyOp34
 70
     1
102
RTVSPropertyOp35
 70
     1
102
RTVSPropertyOp36
 70
     1
102
RTVSPropertyOp37
 70
     1
102
RTVSPropertyOp38
 70
     1
102
RTVSPropertyOp39
 70
     1
102
RTVSPropertyOp40
 70
     1
102
RTVSPropertyOp41
 70
     1
102
RTVSPropertyOp42
 70
     1
102
RTVSPropertyOp43
 70
     1
102
RTVSPropertyOp44
 70
     1
102
RTVSPropertyOp45
 70
     1
102
RTVSPropertyOp46
 70
     1
102
RTVSPropertyOp47
 70
     1
102
RTVSPropertyOp48
 70
     1
102
RTVSPropertyOp49
 70
     1
102
RTVSPropertyOp50
 70
     1
102
RTVSPropertyOp51
 70
     0
102
RTVSPropertyOp52
 70
     0
102
RTVSPropertyOp53
 70
     1
102
RTVSPropertyOp54
 70
     1
102
RTVSPropertyOp55
 70
     1
102
RTVSPropertyOp56
 70
     1
102
RTVSPropertyOp57
 70
     1
102
RTVSPropertyOp58
 70
     1
102
RTVSPropertyOp59
 70
     1
102
RTVSPropertyOp60
 70
     1
102
RTVSPropertyOp61
 70
     1
102
RTVSPropertyOp62
 70
     1
  0
ENDSEC
  0
EOF
