  0
SECTION
  2
HEADER
  9
$ACADVER
  1
AC1015
  9
$ACADMAINTVER
 70
    20
  9
$DWGCODEPAGE
  3
ANSI_932
  9
$INSBASE
 10
0.0
 20
0.0
 30
0.0
  9
$EXTMIN
 10
9.99995
 20
9.999999999999998
 30
0.0
  9
$EXTMAX
 10
478.1831769999998
 20
303.7448019999998
 30
0.0
  9
$LIMMIN
 10
0.0
 20
0.0
  9
$LIMMAX
 10
495.0
 20
341.25
  9
$ORTHOMODE
 70
     1
  9
$REGENMODE
 70
     1
  9
$FILLMODE
 70
     1
  9
$QTEXTMODE
 70
     0
  9
$MIRRTEXT
 70
     1
  9
$LTSCALE
 40
20.0
  9
$ATTMODE
 70
     1
  9
$TEXTSIZE
 40
5.0
  9
$TRACEWID
 40
1.0
  9
$TEXTSTYLE
  7
STANDARD
  9
$CLAYER
  8
0
  9
$CELTYPE
  6
BYLAYER
  9
$CECOLOR
 62
   256
  9
$CELTSCALE
 40
1.0
  9
$DISPSILH
 70
     0
  9
$DIMSCALE
 40
1.0
  9
$DIMASZ
 40
3.0
  9
$DIMEXO
 40
1.0
  9
$DIMDLI
 40
10.0
  9
$DIMRND
 40
0.0
  9
$DIMDLE
 40
0.0
  9
$DIMEXE
 40
1.0
  9
$DIMTP
 40
0.0
  9
$DIMTM
 40
0.0
  9
$DIMTXT
 40
3.2
  9
$DIMCEN
 40
0.0
  9
$DIMTSZ
 40
0.0
  9
$DIMTOL
 70
     0
  9
$DIMLIM
 70
     0
  9
$DIMTIH
 70
     0
  9
$DIMTOH
 70
     0
  9
$DIMSE1
 70
     0
  9
$DIMSE2
 70
     0
  9
$DIMTAD
 70
     3
  9
$DIMZIN
 70
     8
  9
$DIMBLK
  1

  9
$DIMASO
 70
     1
  9
$DIMSHO
 70
     1
  9
$DIMPOST
  1

  9
$DIMAPOST
  1

  9
$DIMALT
 70
     0
  9
$DIMALTD
 70
     2
  9
$DIMALTF
 40
25.4
  9
$DIMLFAC
 40
1.0
  9
$DIMTOFL
 70
     1
  9
$DIMTVP
 40
0.0
  9
$DIMTIX
 70
     0
  9
$DIMSOXD
 70
     0
  9
$DIMSAH
 70
     1
  9
$DIMBLK1
  1
OPEN
  9
$DIMBLK2
  1
OPEN
  9
$DIMSTYLE
  2
STANDARD
  9
$DIMCLRD
 70
     0
  9
$DIMCLRE
 70
     0
  9
$DIMCLRT
 70
     0
  9
$DIMTFAC
 40
1.0
  9
$DIMGAP
 40
1.0
  9
$DIMJUST
 70
     0
  9
$DIMSD1
 70
     0
  9
$DIMSD2
 70
     0
  9
$DIMTOLJ
 70
     1
  9
$DIMTZIN
 70
     0
  9
$DIMALTZ
 70
     0
  9
$DIMALTTZ
 70
     0
  9
$DIMUPT
 70
     0
  9
$DIMDEC
 70
     4
  9
$DIMTDEC
 70
     4
  9
$DIMALTU
 70
     2
  9
$DIMALTTD
 70
     2
  9
$DIMTXSTY
  7
STANDARD
  9
$DIMAUNIT
 70
     0
  9
$DIMADEC
 70
     0
  9
$DIMALTRND
 40
0.0
  9
$DIMAZIN
 70
     0
  9
$DIMDSEP
 70
    46
  9
$DIMATFIT
 70
     3
  9
$DIMFRAC
 70
     0
  9
$DIMLDRBLK
  1
OPEN
  9
$DIMLUNIT
 70
     2
  9
$DIMLWD
 70
    -2
  9
$DIMLWE
 70
    -2
  9
$DIMTMOVE
 70
     0
  9
$LUNITS
 70
     2
  9
$LUPREC
 70
     4
  9
$SKETCHINC
 40
1.0
  9
$FILLETRAD
 40
0.0
  9
$AUNITS
 70
     0
  9
$AUPREC
 70
     2
  9
$MENU
  1
.
  9
$ELEVATION
 40
0.0
  9
$PELEVATION
 40
0.0
  9
$THICKNESS
 40
0.0
  9
$LIMCHECK
 70
     0
  9
$CHAMFERA
 40
10.0
  9
$CHAMFERB
 40
10.0
  9
$CHAMFERC
 40
0.0
  9
$CHAMFERD
 40
0.0
  9
$SKPOLY
 70
     0
  9
$TDCREATE
 40
2451301.392893982
  9
$TDUCREATE
 40
2451301.017893982
  9
$TDUPDATE
 40
2457192.692462928
  9
$TDUUPDATE
 40
2457192.317462928
  9
$TDINDWG
 40
0.0056081713
  9
$TDUSRTIMER
 40
0.0056076389
  9
$USRTIMER
 70
     1
  9
$ANGBASE
 50
0.0
  9
$ANGDIR
 70
     0
  9
$PDMODE
 70
    34
  9
$PDSIZE
 40
0.0
  9
$PLINEWID
 40
0.0
  9
$SPLFRAME
 70
     0
  9
$SPLINETYPE
 70
     6
  9
$SPLINESEGS
 70
     8
  9
$HANDSEED
  5
C583
  9
$SURFTAB1
 70
     6
  9
$SURFTAB2
 70
     6
  9
$SURFTYPE
 70
     6
  9
$SURFU
 70
     6
  9
$SURFV
 70
     6
  9
$UCSBASE
  2

  9
$UCSNAME
  2

  9
$UCSORG
 10
0.0
 20
0.0
 30
0.0
  9
$UCSXDIR
 10
1.0
 20
0.0
 30
0.0
  9
$UCSYDIR
 10
0.0
 20
1.0
 30
0.0
  9
$UCSORTHOREF
  2

  9
$UCSORTHOVIEW
 70
     0
  9
$UCSORGTOP
 10
0.0
 20
0.0
 30
0.0
  9
$UCSORGBOTTOM
 10
0.0
 20
0.0
 30
0.0
  9
$UCSORGLEFT
 10
0.0
 20
0.0
 30
0.0
  9
$UCSORGRIGHT
 10
0.0
 20
0.0
 30
0.0
  9
$UCSORGFRONT
 10
0.0
 20
0.0
 30
0.0
  9
$UCSORGBACK
 10
0.0
 20
0.0
 30
0.0
  9
$PUCSBASE
  2

  9
$PUCSNAME
  2

  9
$PUCSORG
 10
0.0
 20
0.0
 30
0.0
  9
$PUCSXDIR
 10
1.0
 20
0.0
 30
0.0
  9
$PUCSYDIR
 10
0.0
 20
1.0
 30
0.0
  9
$PUCSORTHOREF
  2

  9
$PUCSORTHOVIEW
 70
     0
  9
$PUCSORGTOP
 10
0.0
 20
0.0
 30
0.0
  9
$PUCSORGBOTTOM
 10
0.0
 20
0.0
 30
0.0
  9
$PUCSORGLEFT
 10
0.0
 20
0.0
 30
0.0
  9
$PUCSORGRIGHT
 10
0.0
 20
0.0
 30
0.0
  9
$PUCSORGFRONT
 10
0.0
 20
0.0
 30
0.0
  9
$PUCSORGBACK
 10
0.0
 20
0.0
 30
0.0
  9
$USERI1
 70
     0
  9
$USERI2
 70
     0
  9
$USERI3
 70
     0
  9
$USERI4
 70
     0
  9
$USERI5
 70
     0
  9
$USERR1
 40
0.0
  9
$USERR2
 40
0.0
  9
$USERR3
 40
0.0
  9
$USERR4
 40
0.0
  9
$USERR5
 40
0.0
  9
$WORLDVIEW
 70
     1
  9
$SHADEDGE
 70
     3
  9
$SHADEDIF
 70
    70
  9
$TILEMODE
 70
     1
  9
$MAXACTVP
 70
    16
  9
$PINSBASE
 10
0.0
 20
0.0
 30
0.0
  9
$PLIMCHECK
 70
     0
  9
$PEXTMIN
 10
1.000000000000000E+20
 20
1.000000000000000E+20
 30
1.000000000000000E+20
  9
$PEXTMAX
 10
-1.000000000000000E+20
 20
-1.000000000000000E+20
 30
-1.000000000000000E+20
  9
$PLIMMIN
 10
0.0
 20
0.0
  9
$PLIMMAX
 10
420.0
 20
297.0
  9
$UNITMODE
 70
     0
  9
$VISRETAIN
 70
     0
  9
$PLINEGEN
 70
     0
  9
$PSLTSCALE
 70
     0
  9
$TREEDEPTH
 70
  3020
  9
$CMLSTYLE
  2
STANDARD
  9
$CMLJUST
 70
     0
  9
$CMLSCALE
 40
1.0
  9
$PROXYGRAPHICS
 70
     1
  9
$MEASUREMENT
 70
     0
  9
$CELWEIGHT
370
    -1
  9
$ENDCAPS
280
     0
  9
$JOINSTYLE
280
     0
  9
$LWDISPLAY
290
     0
  9
$INSUNITS
 70
     0
  9
$HYPERLINKBASE
  1

  9
$STYLESHEET
  1

  9
$XEDIT
290
     1
  9
$CEPSNTYPE
380
     0
  9
$PSTYLEMODE
290
     1
  9
$FINGERPRINTGUID
  2
{783ABB5B-E714-44BD-A890-715949AD9A54}
  9
$VERSIONGUID
  2
{9307D635-4F29-46FF-882F-93ACCA9DFF12}
  9
$EXTNAMES
290
     1
  9
$PSVPSCALE
 40
0.0
  9
$OLESTARTUP
290
     0
  0
ENDSEC
  0
SECTION
  2
CLASSES
  0
CLASS
  1
ACDBDICTIONARYWDFLT
  2
AcDbDictionaryWithDefault
  3
ObjectDBX Classes
 90
        0
280
     0
281
     0
  0
CLASS
  1
ACDBPLACEHOLDER
  2
AcDbPlaceHolder
  3
ObjectDBX Classes
 90
        0
280
     0
281
     0
  0
CLASS
  1
LAYOUT
  2
AcDbLayout
  3
ObjectDBX Classes
 90
        0
280
     0
281
     0
  0
CLASS
  1
DICTIONARYVAR
  2
AcDbDictionaryVar
  3
ObjectDBX Classes
 90
        0
280
     0
281
     0
  0
CLASS
  1
MATERIAL
  2
AcDbMaterial
  3
ObjectDBX Classes
 90
     1153
280
     0
281
     0
  0
CLASS
  1
VISUALSTYLE
  2
AcDbVisualStyle
  3
ObjectDBX Classes
 90
     4095
280
     0
281
     0
  0
CLASS
  1
TABLESTYLE
  2
AcDbTableStyle
  3
ObjectDBX Classes
 90
     4095
280
     0
281
     0
  0
CLASS
  1
SCALE
  2
AcDbScale
  3
ObjectDBX Classes
 90
     1153
280
     0
281
     0
  0
CLASS
  1
MLEADERSTYLE
  2
AcDbMLeaderStyle
  3
ACDB_MLEADERSTYLE_CLASS
 90
     4095
280
     0
281
     0
  0
CLASS
  1
ACDBSECTIONVIEWSTYLE
  2
AcDbSectionViewStyle
  3
ObjectDBX Classes
 90
     1025
280
     0
281
     0
  0
CLASS
  1
ACDBDETAILVIEWSTYLE
  2
AcDbDetailViewStyle
  3
ObjectDBX Classes
 90
     1025
280
     0
281
     0
  0
CLASS
  1
CELLSTYLEMAP
  2
AcDbCellStyleMap
  3
ObjectDBX Classes
 90
     1152
280
     0
281
     0
  0
ENDSEC
  0
SECTION
  2
TABLES
  0
TABLE
  2
VPORT
  5
C2B2
330
0
100
AcDbSymbolTable
 70
     1
  0
VPORT
  5
C489
330
C2B2
100
AcDbSymbolTableRecord
100
AcDbViewportTableRecord
  2
*ACTIVE
 70
     0
 10
0.0
 20
0.0
 11
1.0
 21
1.0
 12
333.0729910692184
 22
156.878357712125
 13
0.0
 23
0.0
 14
10.0
 24
10.0
 15
10.0
 25
10.0
 16
0.0
 26
0.0
 36
1.0
 17
0.0
 27
0.0
 37
0.0
 40
297.1650865569273
 41
2.35006605019815
 42
50.0
 43
0.0
 44
0.0
 50
0.0
 51
0.0
 71
     0
 72
   100
 73
     1
 74
     0
 75
     0
 76
     0
 77
     0
 78
     0
281
     0
 65
     1
110
0.0
120
0.0
130
0.0
111
1.0
121
0.0
131
0.0
112
0.0
122
1.0
132
0.0
 79
     0
146
0.0
1001
ACAD_NAV_VCDISPLAY
1070
     3
  0
ENDTAB
  0
TABLE
  2
LTYPE
  5
C2AF
330
0
100
AcDbSymbolTable
 70
     4
  0
LTYPE
  5
C2BD
330
C2AF
100
AcDbSymbolTableRecord
100
AcDbLinetypeTableRecord
  2
BYBLOCK
 70
     0
  3

 72
    65
 73
     0
 40
0.0
  0
LTYPE
  5
C2BE
330
C2AF
100
AcDbSymbolTableRecord
100
AcDbLinetypeTableRecord
  2
BYLAYER
 70
     0
  3

 72
    65
 73
     0
 40
0.0
  0
LTYPE
  5
C2BF
330
C2AF
100
AcDbSymbolTableRecord
100
AcDbLinetypeTableRecord
  2
CONTINUOUS
 70
     0
  3
Solid line
 72
    65
 73
     0
 40
0.0
  0
LTYPE
  5
C2CD
330
C2AF
100
AcDbSymbolTableRecord
100
AcDbLinetypeTableRecord
  2
DASHED
 70
     0
  3
__ __ __ __ __ __ __ __ __ __ __ __ __ __ __ __
 72
    65
 73
     2
 40
0.75
 49
0.5
 74
     0
 49
-0.25
 74
     0
  0
LTYPE
  5
C2CE
330
C2AF
100
AcDbSymbolTableRecord
100
AcDbLinetypeTableRecord
  2
CENTER
 70
     0
  3
____ _ ____ _ ____ _ ____ _ ____ _ ____ _ ____ 
 72
    65
 73
     4
 40
2.0
 49
1.25
 74
     0
 49
-0.25
 74
     0
 49
0.25
 74
     0
 49
-0.25
 74
     0
  0
LTYPE
  5
C2CF
330
C2AF
100
AcDbSymbolTableRecord
100
AcDbLinetypeTableRecord
  2
PHANTOM
 70
     0
  3
______  __  __  ______  __  __  ______  __  __ 
 72
    65
 73
     6
 40
2.5
 49
1.25
 74
     0
 49
-0.25
 74
     0
 49
0.25
 74
     0
 49
-0.25
 74
     0
 49
0.25
 74
     0
 49
-0.25
 74
     0
  0
ENDTAB
  0
TABLE
  2
LAYER
  5
C2AC
330
0
100
AcDbSymbolTable
 70
     8
  0
LAYER
  5
C2BA
102
{ACAD_XDICTIONARY
360
C4E6
102
}
330
C2AC
100
AcDbSymbolTableRecord
100
AcDbLayerTableRecord
  2
0
 70
     0
 62
     7
  6
CONTINUOUS
370
    -3
390
C492
  0
LAYER
  5
C2D0
102
{ACAD_XDICTIONARY
360
C4E8
102
}
330
C2AC
100
AcDbSymbolTableRecord
100
AcDbLayerTableRecord
  2
4
 70
     0
 62
     1
  6
CENTER
370
    -3
390
C492
  0
LAYER
  5
C2D1
102
{ACAD_XDICTIONARY
360
C4EA
102
}
330
C2AC
100
AcDbSymbolTableRecord
100
AcDbLayerTableRecord
  2
5
 70
     0
 62
     6
  6
PHANTOM
370
    -3
390
C492
  0
LAYER
  5
C2D2
102
{ACAD_XDICTIONARY
360
C4EC
102
}
330
C2AC
100
AcDbSymbolTableRecord
100
AcDbLayerTableRecord
  2
1
 70
     0
 62
     7
  6
CONTINUOUS
370
    -3
390
C492
  0
LAYER
  5
C2D3
102
{ACAD_XDICTIONARY
360
C4EE
102
}
330
C2AC
100
AcDbSymbolTableRecord
100
AcDbLayerTableRecord
  2
2
 70
     0
 62
     4
  6
CONTINUOUS
370
    -3
390
C492
  0
LAYER
  5
C2D4
102
{ACAD_XDICTIONARY
360
C4F0
102
}
330
C2AC
100
AcDbSymbolTableRecord
100
AcDbLayerTableRecord
  2
3
 70
     0
 62
     2
  6
DASHED
370
    -3
390
C492
  0
LAYER
  5
C2D5
102
{ACAD_XDICTIONARY
360
C4F2
102
}
330
C2AC
100
AcDbSymbolTableRecord
100
AcDbLayerTableRecord
  2
6
 70
     0
 62
     5
  6
CONTINUOUS
370
    -3
390
C492
  0
LAYER
  5
C2D6
102
{ACAD_XDICTIONARY
360
C4F4
102
}
330
C2AC
100
AcDbSymbolTableRecord
100
AcDbLayerTableRecord
  2
7
 70
     0
 62
     3
  6
CONTINUOUS
370
    -3
390
C492
  0
ENDTAB
  0
TABLE
  2
STYLE
  5
C2AD
330
0
100
AcDbSymbolTable
 70
     1
  0
STYLE
  5
C2BB
330
C2AD
100
AcDbSymbolTableRecord
100
AcDbTextStyleTableRecord
  2
STANDARD
 70
     0
 40
0.0
 41
1.0
 50
0.0
 71
     0
 42
5.0
  3
txt
  4

  0
ENDTAB
  0
TABLE
  2
VIEW
  5
C2B0
330
0
100
AcDbSymbolTable
 70
     1
  0
VIEW
  5
C2D7
330
C2B0
100
AcDbSymbolTableRecord
100
AcDbViewTableRecord
  2
7
 70
     0
 40
322.8104529999999
 10
315.4037129999999
 20
161.405227
 41
630.8074249999997
 11
0.0
 21
0.0
 31
1.0
 12
0.0
 22
0.0
 32
0.0
 42
50.0
 43
0.0
 44
0.0
 50
0.0
 71
     0
281
     0
 72
     0
  0
ENDTAB
  0
TABLE
  2
UCS
  5
C2B1
330
0
100
AcDbSymbolTable
 70
     0
  0
ENDTAB
  0
TABLE
  2
APPID
  5
C2B3
330
0
100
AcDbSymbolTable
 70
     4
  0
APPID
  5
C2BC
330
C2B3
100
AcDbSymbolTableRecord
100
AcDbRegAppTableRecord
  2
ACAD
 70
     0
  0
APPID
  5
C4E4
330
C2B3
100
AcDbSymbolTableRecord
100
AcDbRegAppTableRecord
  2
ACAD_EXEMPT_FROM_CAD_STANDARDS
 70
     0
  0
APPID
  5
C500
330
C2B3
100
AcDbSymbolTableRecord
100
AcDbRegAppTableRecord
  2
ACAD_NAV_VCDISPLAY
 70
     0
  0
APPID
  5
C539
330
C2B3
100
AcDbSymbolTableRecord
100
AcDbRegAppTableRecord
  2
ACAD_MLEADERVER
 70
     0
  0
ENDTAB
  0
TABLE
  2
DIMSTYLE
  5
C2B4
330
0
100
AcDbSymbolTable
 70
     1
100
AcDbDimStyleTable
 71
     0
  0
DIMSTYLE
105
C2D9
330
C2B4
100
AcDbSymbolTableRecord
100
AcDbDimStyleTableRecord
  2
STANDARD
 70
     0
 41
3.0
 42
1.0
 43
10.0
 44
1.0
 73
     0
 74
     0
 77
     3
 78
     8
140
3.2
141
0.0
147
1.0
172
     1
173
     1
284
     8
285
     8
286
     8
340
C2BB
  0
ENDTAB
  0
TABLE
  2
BLOCK_RECORD
  5
C2AB
330
0
100
AcDbSymbolTable
 70
     1
  0
BLOCK_RECORD
  5
C2C8
102
{ACAD_XDICTIONARY
360
C48C
102
}
330
C2AB
100
AcDbSymbolTableRecord
100
AcDbBlockTableRecord
  2
*MODEL_SPACE
340
C4E0
  0
BLOCK_RECORD
  5
C2C4
102
{ACAD_XDICTIONARY
360
C48A
102
}
330
C2AB
100
AcDbSymbolTableRecord
100
AcDbBlockTableRecord
  2
*PAPER_SPACE
340
C4E1
  0
BLOCK_RECORD
  5
C2E1
330
C2AB
100
AcDbSymbolTableRecord
100
AcDbBlockTableRecord
  2
_OPEN
340
0
  0
ENDTAB
  0
ENDSEC
  0
SECTION
  2
BLOCKS
  0
BLOCK
  5
C2C9
330
C2C8
100
AcDbEntity
  8
0
100
AcDbBlockBegin
  2
*MODEL_SPACE
 70
     0
 10
0.0
 20
0.0
 30
0.0
  3
*MODEL_SPACE
  1

  0
ENDBLK
  5
C2CA
330
C2C8
100
AcDbEntity
  8
0
100
AcDbBlockEnd
  0
BLOCK
  5
C2C5
330
C2C4
100
AcDbEntity
 67
     1
  8
0
100
AcDbBlockBegin
  2
*PAPER_SPACE
 70
     0
 10
0.0
 20
0.0
 30
0.0
  3
*PAPER_SPACE
  1

  0
ENDBLK
  5
C2C6
330
C2C4
100
AcDbEntity
 67
     1
  8
0
100
AcDbBlockEnd
  0
BLOCK
  5
C2E2
330
C2E1
100
AcDbEntity
  8
0
100
AcDbBlockBegin
  2
_OPEN
 70
     0
 10
0.0
 20
0.0
 30
0.0
  3
_OPEN
  1

  0
LINE
  5
C2E3
330
C2E1
100
AcDbEntity
  8
0
  6
ByBlock
 62
     0
100
AcDbLine
 10
-1.0
 20
0.166667
 30
0.0
 11
0.0
 21
0.0
 31
0.0
  0
LINE
  5
C2E4
330
C2E1
100
AcDbEntity
  8
0
  6
ByBlock
 62
     0
100
AcDbLine
 10
0.0
 20
0.0
 30
0.0
 11
-1.0
 21
-0.166667
 31
0.0
  0
LINE
  5
C2E5
330
C2E1
100
AcDbEntity
  8
0
  6
ByBlock
 62
     0
100
AcDbLine
 10
0.0
 20
0.0
 30
0.0
 11
-1.0
 21
0.0
 31
0.0
  0
ENDBLK
  5
C2E6
330
C2E1
100
AcDbEntity
  8
0
100
AcDbBlockEnd
  0
ENDSEC
  0
SECTION
  2
ENTITIES
  0
TEXT
  5
C2E7
330
C2C8
100
AcDbEntity
  8
6
  6
Continuous
100
AcDbText
 10
27.97945
 20
10.0487
 30
0.0
 40
1.399999999999999
  1
6
 41
1.069393
100
AcDbText
  0
TEXT
  5
C2E8
330
C2C8
100
AcDbEntity
  8
1
  6
Continuous
100
AcDbText
 10
17.97945
 20
10.0487
 30
0.0
 40
1.399999999999999
  1
1
 41
1.069393
100
AcDbText
  0
TEXT
  5
C2E9
330
C2C8
100
AcDbEntity
  8
1
  6
Continuous
100
AcDbText
 10
9.99995
 20
10.0
 30
0.0
 40
1.399999999999999
  1
LAYER
 41
1.009912999999996
100
AcDbText
  0
TEXT
  5
C2EA
330
C2C8
100
AcDbEntity
  8
2
  6
Continuous
100
AcDbText
 10
19.97944999999998
 20
10.0487
 30
0.0
 40
1.399999999999999
  1
2
 41
1.069393
100
AcDbText
  0
TEXT
  5
C2EB
330
C2C8
100
AcDbEntity
  8
3
  6
DASHED
100
AcDbText
 10
21.97945
 20
10.0487
 30
0.0
 40
1.399999999999999
  1
3
 41
1.069393
100
AcDbText
  0
TEXT
  5
C2EC
330
C2C8
100
AcDbEntity
  8
4
  6
CENTER
100
AcDbText
 10
23.97944999999999
 20
10.0487
 30
0.0
 40
1.399999999999999
  1
4
 41
1.069393
100
AcDbText
  0
TEXT
  5
C2ED
330
C2C8
100
AcDbEntity
  8
5
  6
PHANTOM
100
AcDbText
 10
25.97945
 20
10.0487
 30
0.0
 40
1.399999999999999
  1
5
 41
1.069393
100
AcDbText
  0
TEXT
  5
C2EE
330
C2C8
100
AcDbEntity
  8
7
  6
Continuous
100
AcDbText
 10
10.00005
 20
26.0
 30
0.0
 40
3.0
  1
CODE No.19022
 41
1.003962999999999
100
AcDbText
  0
TEXT
  5
C2EF
330
C2C8
100
AcDbEntity
  8
7
  6
Continuous
100
AcDbText
 10
10.00005
 20
18.0
 30
0.0
 40
3.0
  1
TYPE No.TCA-TY40N2.5S (TY40N2.5S)
 41
1.002350999999997
100
AcDbText
  0
TEXT
  5
C2F0
330
C2C8
100
AcDbEntity
  8
7
  6
Continuous
100
AcDbText
 10
29.97944999999999
 20
10.0487
 30
0.0
 40
1.399999999999999
  1
7
 41
1.069393
100
AcDbText
  0
LINE
  5
C2F1
330
C2C8
100
AcDbEntity
  8
4
  6
CENTER
100
AcDbLine
 10
321.1831759999999
 20
148.307094
 30
0.0
 11
321.1831759999999
 21
206.907094
 31
0.0
  0
LINE
  5
C2F2
330
C2C8
100
AcDbEntity
  8
1
  6
Continuous
100
AcDbLine
 10
312.433176
 20
184.8580659999998
 30
0.0
 11
312.433176
 21
159.465474
 31
0.0
  0
LINE
  5
C2F3
330
C2C8
100
AcDbEntity
  8
1
  6
Continuous
100
AcDbLine
 10
329.933176
 20
184.8580659999998
 30
0.0
 11
329.933176
 21
159.465474
 31
0.0
  0
ARC
  5
C2F4
330
C2C8
100
AcDbEntity
  8
1
  6
Continuous
100
AcDbCircle
 10
331.4331759999999
 20
172.407094
 30
0.0
 40
1.0
100
AcDbArc
 50
104.477512
 51
180.0
  0
ARC
  5
C2F5
330
C2C8
100
AcDbEntity
  8
1
  6
Continuous
100
AcDbCircle
 10
331.4331759999999
 20
160.4070939999998
 30
0.0
 40
1.0
100
AcDbArc
 50
180.0
 51
255.522488
  0
LINE
  5
C2F6
330
C2C8
100
AcDbEntity
  8
4
  6
CENTER
100
AcDbLine
 10
348.520885
 20
166.407094
 30
0.0
 11
293.8454679999999
 21
166.407094
 31
0.0
  0
LINE
  5
C2F7
330
C2C8
100
AcDbEntity
  8
1
  6
Continuous
100
AcDbLine
 10
310.6831759999999
 20
146.407094
 30
0.0
 11
305.472359
 21
146.407094
 31
0.0
  0
LINE
  5
C2F8
330
C2C8
100
AcDbEntity
  8
1
  6
Continuous
100
AcDbLine
 10
312.7331759999999
 20
159.4070939999998
 30
0.0
 11
318.183176
 21
159.4070939999998
 31
0.0
  0
ARC
  5
C2F9
330
C2C8
100
AcDbEntity
  8
1
  6
Continuous
100
AcDbCircle
 10
312.7331759999999
 20
160.2070939999999
 30
0.0
 40
0.8
100
AcDbArc
 50
180.0
 51
270.0
  0
ARC
  5
C2FA
330
C2C8
100
AcDbEntity
  8
1
  6
Continuous
100
AcDbCircle
 10
310.9331759999999
 20
160.4070939999998
 30
0.0
 40
1.0
100
AcDbArc
 50
284.4775119999998
 51
0.0
  0
ARC
  5
C2FB
330
C2C8
100
AcDbEntity
  8
1
  6
Continuous
100
AcDbCircle
 10
310.9331759999999
 20
172.407094
 30
0.0
 40
1.0
100
AcDbArc
 50
0.0
 51
75.52248799999998
  0
ARC
  5
C2FC
330
C2C8
100
AcDbEntity
  8
1
  6
Continuous
100
AcDbCircle
 10
312.7331759999999
 20
172.6070939999999
 30
0.0
 40
0.8
100
AcDbArc
 50
112.0243129999999
 51
180.0
  0
LINE
  5
C2FD
330
C2C8
100
AcDbEntity
  8
1
  6
Continuous
100
AcDbLine
 10
311.933176
 20
172.6070939999999
 30
0.0
 11
311.933176
 21
160.2070939999999
 31
0.0
  0
ARC
  5
C2FE
330
C2C8
100
AcDbEntity
  8
1
  6
Continuous
100
AcDbCircle
 10
329.633176
 20
172.6070939999999
 30
0.0
 40
0.8
100
AcDbArc
 50
0.0
 51
67.97568699999999
  0
ARC
  5
C2FF
330
C2C8
100
AcDbEntity
  8
1
  6
Continuous
100
AcDbCircle
 10
329.633176
 20
160.2070939999999
 30
0.0
 40
0.8
100
AcDbArc
 50
270.0
 51
0.0
  0
LINE
  5
C300
330
C2C8
100
AcDbEntity
  8
1
  6
Continuous
100
AcDbLine
 10
330.433176
 20
160.2070939999999
 30
0.0
 11
330.433176
 21
172.6070939999999
 31
0.0
  0
LINE
  5
C301
330
C2C8
100
AcDbEntity
  8
1
  6
Continuous
100
AcDbLine
 10
331.6831759999999
 20
146.407094
 30
0.0
 11
336.893994
 21
146.407094
 31
0.0
  0
ARC
  5
C302
330
C2C8
100
AcDbEntity
  8
1
  6
Continuous
100
AcDbCircle
 10
321.1831759999999
 20
115.4070939999999
 30
0.0
 40
70.0
100
AcDbArc
 50
82.81924399999999
 51
84.204992
  0
LINE
  5
C303
330
C2C8
100
AcDbEntity
  8
1
  6
Continuous
100
AcDbLine
 10
314.183176
 20
185.4070939999998
 30
0.0
 11
328.183176
 21
185.4070939999998
 31
0.0
  0
LINE
  5
C304
330
C2C8
100
AcDbEntity
  8
1
  6
Continuous
100
AcDbLine
 10
314.183176
 20
189.907094
 30
0.0
 11
328.183176
 21
189.907094
 31
0.0
  0
ARC
  5
C305
330
C2C8
100
AcDbEntity
  8
1
  6
Continuous
100
AcDbCircle
 10
408.3863009999998
 20
167.348746
 30
0.0
 40
95.918364
100
AcDbArc
 50
169.1482829999999
 51
183.9821389999999
  0
LINE
  5
C306
330
C2C8
100
AcDbEntity
  8
1
  6
Continuous
100
AcDbLine
 10
314.183176
 20
189.907094
 30
0.0
 11
314.183176
 21
185.4070939999998
 31
0.0
  0
LINE
  5
C307
330
C2C8
100
AcDbEntity
  8
1
  6
Continuous
100
AcDbLine
 10
305.472359
 20
186.4070939999998
 30
0.0
 11
310.6831759999999
 21
186.4070939999998
 31
0.0
  0
ARC
  5
C308
330
C2C8
100
AcDbEntity
  8
1
  6
Continuous
100
AcDbCircle
 10
233.980052
 20
167.348746
 30
0.0
 40
95.918364
100
AcDbArc
 50
356.0178609999999
 51
10.85171699999998
  0
LINE
  5
C309
330
C2C8
100
AcDbEntity
  8
1
  6
Continuous
100
AcDbLine
 10
328.183176
 20
189.907094
 30
0.0
 11
328.183176
 21
185.4070939999998
 31
0.0
  0
LINE
  5
C30A
330
C2C8
100
AcDbEntity
  8
1
  6
Continuous
100
AcDbLine
 10
336.893994
 20
186.4070939999998
 30
0.0
 11
331.6831759999999
 21
186.4070939999998
 31
0.0
  0
ARC
  5
C30B
330
C2C8
100
AcDbEntity
  8
1
  6
Continuous
100
AcDbCircle
 10
321.1831759999999
 20
115.4070939999999
 30
0.0
 40
70.0
100
AcDbArc
 50
95.79500799999999
 51
97.180756
  0
LINE
  5
C30C
330
C2C8
100
AcDbEntity
  8
1
  6
Continuous
100
AcDbLine
 10
326.4081759999999
 20
157.307094
 30
0.0
 11
326.4081759999999
 21
158.3070939999998
 31
0.0
  0
LINE
  5
C30D
330
C2C8
100
AcDbEntity
  8
1
  6
Continuous
100
AcDbLine
 10
315.958176
 20
157.307094
 30
0.0
 11
315.958176
 21
158.3070939999998
 31
0.0
  0
LINE
  5
C30E
330
C2C8
100
AcDbEntity
  8
1
  6
Continuous
100
AcDbLine
 10
321.933176
 20
158.3070939999998
 30
0.0
 11
321.933176
 21
157.307094
 31
0.0
  0
LINE
  5
C30F
330
C2C8
100
AcDbEntity
  8
1
  6
Continuous
100
AcDbLine
 10
320.433176
 20
157.307094
 30
0.0
 11
320.433176
 21
158.3070939999998
 31
0.0
  0
ARC
  5
C310
330
C2C8
100
AcDbEntity
  8
1
  6
Continuous
100
AcDbCircle
 10
242.1831759999999
 20
46.407094
 30
0.0
 40
70.0
100
AcDbArc
 50
172.8192439999999
 51
187.180756
  0
LINE
  5
C311
330
C2C8
100
AcDbEntity
  8
4
  6
CENTER
100
AcDbLine
 10
191.183176
 20
19.407094
 30
0.0
 11
191.183176
 21
73.407094
 31
0.0
  0
LINE
  5
C312
330
C2C8
100
AcDbEntity
  8
4
  6
CENTER
100
AcDbLine
 10
206.183176
 20
71.32211999999999
 30
0.0
 11
206.183176
 21
21.49206799999999
 31
0.0
  0
LINE
  5
C313
330
C2C8
100
AcDbEntity
  8
1
  6
Continuous
100
AcDbLine
 10
172.7322039999999
 20
37.657094
 30
0.0
 11
209.6341479999999
 21
37.657094
 31
0.0
  0
LINE
  5
C314
330
C2C8
100
AcDbEntity
  8
4
  6
CENTER
100
AcDbLine
 10
219.6831759999998
 20
46.407094
 30
0.0
 11
159.1831759999998
 21
46.407094
 31
0.0
  0
LINE
  5
C315
330
C2C8
100
AcDbEntity
  8
1
  6
Continuous
100
AcDbLine
 10
184.9831759999999
 20
37.157094
 30
0.0
 11
197.3831759999999
 21
37.157094
 31
0.0
  0
LINE
  5
C316
330
C2C8
100
AcDbEntity
  8
1
  6
Continuous
100
AcDbLine
 10
171.183176
 20
35.907094
 30
0.0
 11
171.183176
 21
31.279377
 31
0.0
  0
ARC
  5
C317
330
C2C8
100
AcDbEntity
  8
1
  6
Continuous
100
AcDbCircle
 10
185.1831759999998
 20
36.157094
 30
0.0
 40
1.0
100
AcDbArc
 50
90.0
 51
165.5224879999998
  0
ARC
  5
C318
330
C2C8
100
AcDbEntity
  8
1
  6
Continuous
100
AcDbCircle
 10
184.9831759999999
 20
37.95709399999999
 30
0.0
 40
0.8
100
AcDbArc
 50
202.0243129999999
 51
270.0
  0
ARC
  5
C319
330
C2C8
100
AcDbEntity
  8
1
  6
Continuous
100
AcDbCircle
 10
197.183176
 20
36.157094
 30
0.0
 40
1.0
100
AcDbArc
 50
14.47751199999999
 51
90.0
  0
ARC
  5
C31A
330
C2C8
100
AcDbEntity
  8
1
  6
Continuous
100
AcDbCircle
 10
197.3831759999999
 20
37.95709399999999
 30
0.0
 40
0.8
100
AcDbArc
 50
270.0
 51
337.975687
  0
ARC
  5
C31B
330
C2C8
100
AcDbEntity
  8
1
  6
Continuous
100
AcDbCircle
 10
197.3831759999999
 20
37.95709399999999
 30
0.0
 40
0.8
100
AcDbArc
 50
270.0
 51
337.975687
  0
LINE
  5
C31C
330
C2C8
100
AcDbEntity
  8
1
  6
Continuous
100
AcDbLine
 10
211.1831759999998
 20
35.907094
 30
0.0
 11
211.1831759999998
 21
31.279377
 31
0.0
  0
ARC
  5
C31D
330
C2C8
100
AcDbEntity
  8
1
  6
Continuous
100
AcDbCircle
 10
140.183176
 20
46.407094
 30
0.0
 40
70.0
100
AcDbArc
 50
352.8192440000001
 51
352.9779839999998
  0
LINE
  5
C31E
330
C2C8
100
AcDbEntity
  8
1
  6
Continuous
100
AcDbLine
 10
172.7322039999999
 20
55.15709399999999
 30
0.0
 11
209.6341479999999
 21
55.15709399999999
 31
0.0
  0
LINE
  5
C31F
330
C2C8
100
AcDbEntity
  8
1
  6
Continuous
100
AcDbLine
 10
184.9831759999999
 20
55.65709399999999
 30
0.0
 11
197.3831759999999
 21
55.65709399999999
 31
0.0
  0
LINE
  5
C320
330
C2C8
100
AcDbEntity
  8
1
  6
Continuous
100
AcDbLine
 10
171.183176
 20
56.90709399999999
 30
0.0
 11
171.183176
 21
61.534811
 31
0.0
  0
ARC
  5
C321
330
C2C8
100
AcDbEntity
  8
1
  6
Continuous
100
AcDbCircle
 10
185.1831759999998
 20
56.65709399999999
 30
0.0
 40
1.0
100
AcDbArc
 50
194.4775119999999
 51
270.0
  0
ARC
  5
C322
330
C2C8
100
AcDbEntity
  8
1
  6
Continuous
100
AcDbCircle
 10
184.9831759999999
 20
54.857094
 30
0.0
 40
0.8
100
AcDbArc
 50
90.0
 51
157.9756869999999
  0
ARC
  5
C323
330
C2C8
100
AcDbEntity
  8
1
  6
Continuous
100
AcDbCircle
 10
197.3831759999999
 20
54.857094
 30
0.0
 40
0.8
100
AcDbArc
 50
22.024313
 51
90.0
  0
ARC
  5
C324
330
C2C8
100
AcDbEntity
  8
1
  6
Continuous
100
AcDbCircle
 10
197.3831759999999
 20
54.857094
 30
0.0
 40
0.8
100
AcDbArc
 50
22.024313
 51
90.0
  0
ARC
  5
C325
330
C2C8
100
AcDbEntity
  8
1
  6
Continuous
100
AcDbCircle
 10
197.183176
 20
56.65709399999999
 30
0.0
 40
1.0
100
AcDbArc
 50
270.0
 51
345.522488
  0
LINE
  5
C326
330
C2C8
100
AcDbEntity
  8
1
  6
Continuous
100
AcDbLine
 10
211.1831759999998
 20
56.90709399999999
 30
0.0
 11
211.1831759999998
 21
61.534811
 31
0.0
  0
LINE
  5
C327
330
C2C8
100
AcDbEntity
  8
1
  6
Continuous
100
AcDbLine
 10
204.16245
 20
49.907094
 30
0.0
 11
208.2039019999998
 21
49.907094
 31
0.0
  0
CIRCLE
  5
C328
330
C2C8
100
AcDbEntity
  8
1
  6
Continuous
100
AcDbCircle
 10
206.183176
 20
46.407094
 30
0.0
 40
3.5
  0
LINE
  5
C329
330
C2C8
100
AcDbEntity
  8
1
  6
Continuous
100
AcDbLine
 10
204.16245
 20
42.90709399999999
 30
0.0
 11
208.2039019999998
 21
42.90709399999999
 31
0.0
  0
LINE
  5
C32A
330
C2C8
100
AcDbEntity
  8
1
  6
Continuous
100
AcDbLine
 10
210.2246279999999
 20
46.407094
 30
0.0
 11
208.2039019999998
 21
42.90709399999999
 31
0.0
  0
LINE
  5
C32B
330
C2C8
100
AcDbEntity
  8
1
  6
Continuous
100
AcDbLine
 10
208.2039019999998
 20
49.907094
 30
0.0
 11
210.2246279999999
 21
46.407094
 31
0.0
  0
LINE
  5
C32C
330
C2C8
100
AcDbEntity
  8
1
  6
Continuous
100
AcDbLine
 10
204.16245
 20
42.90709399999999
 30
0.0
 11
202.141724
 21
46.407094
 31
0.0
  0
LINE
  5
C32D
330
C2C8
100
AcDbEntity
  8
1
  6
Continuous
100
AcDbLine
 10
202.141724
 20
46.407094
 30
0.0
 11
204.16245
 21
49.907094
 31
0.0
  0
LINE
  5
C32E
330
C2C8
100
AcDbEntity
  8
1
  6
Continuous
100
AcDbLine
 10
210.7398339999998
 20
47.157094
 30
0.0
 11
209.791616
 21
47.157094
 31
0.0
  0
LINE
  5
C32F
330
C2C8
100
AcDbEntity
  8
1
  6
Continuous
100
AcDbLine
 10
210.7398339999998
 20
45.657094
 30
0.0
 11
209.791616
 21
45.657094
 31
0.0
  0
LINE
  5
C330
330
C2C8
100
AcDbEntity
  8
1
  6
Continuous
100
AcDbLine
 10
194.183176
 20
55.15709399999999
 30
0.0
 11
194.183176
 21
37.657094
 31
0.0
  0
LINE
  5
C331
330
C2C8
100
AcDbEntity
  8
1
  6
Continuous
100
AcDbLine
 10
321.1831759999999
 20
153.807094
 30
0.0
 11
321.1831759999999
 21
157.307094
 31
0.0
  0
LINE
  5
C332
330
C2C8
100
AcDbEntity
  8
1
  6
Continuous
100
AcDbLine
 10
324.683176
 20
153.3070939999998
 30
0.0
 11
324.683176
 21
157.307094
 31
0.0
  0
LINE
  5
C333
330
C2C8
100
AcDbEntity
  8
1
  6
Continuous
100
AcDbLine
 10
317.683176
 20
153.3070939999998
 30
0.0
 11
317.683176
 21
157.307094
 31
0.0
  0
LINE
  5
C334
330
C2C8
100
AcDbEntity
  8
1
  6
Continuous
100
AcDbLine
 10
317.683176
 20
153.3070939999998
 30
0.0
 11
324.683176
 21
153.3070939999998
 31
0.0
  0
LINE
  5
C335
330
C2C8
100
AcDbEntity
  8
1
  6
Continuous
100
AcDbLine
 10
315.958176
 20
158.3070939999998
 30
0.0
 11
320.433176
 21
158.3070939999998
 31
0.0
  0
LINE
  5
C336
330
C2C8
100
AcDbEntity
  8
1
  6
Continuous
100
AcDbLine
 10
324.183176
 20
159.7570939999999
 30
0.0
 11
324.183176
 21
158.3070939999998
 31
0.0
  0
LINE
  5
C337
330
C2C8
100
AcDbEntity
  8
1
  6
Continuous
100
AcDbLine
 10
318.183176
 20
159.7570939999999
 30
0.0
 11
318.183176
 21
158.3070939999998
 31
0.0
  0
ARC
  5
C338
330
C2C8
100
AcDbEntity
  8
1
  6
Continuous
100
AcDbCircle
 10
322.9331759999999
 20
156.619594
 30
0.0
 40
3.3125
100
AcDbArc
 50
238.109208
 51
301.8907919999999
  0
ARC
  5
C339
330
C2C8
100
AcDbEntity
  8
1
  6
Continuous
100
AcDbCircle
 10
319.433176
 20
156.619594
 30
0.0
 40
3.3125
100
AcDbArc
 50
238.109208
 51
301.8907919999999
  0
ARC
  5
C33A
330
C2C8
100
AcDbEntity
  8
1
  6
Continuous
100
AcDbCircle
 10
140.183176
 20
46.407094
 30
0.0
 40
70.0
100
AcDbArc
 50
7.022016
 51
7.180755999999997
  0
ARC
  5
C33B
330
C2C8
100
AcDbEntity
  8
1
  6
Continuous
100
AcDbCircle
 10
204.883993
 20
46.407094
 30
0.0
 40
9.799182999999999
100
AcDbArc
 50
299.156501
 51
60.843498
  0
LINE
  5
C33C
330
C2C8
100
AcDbEntity
  8
1
  6
Continuous
100
AcDbLine
 10
178.683176
 20
66.81938599999999
 30
0.0
 11
203.683176
 21
66.81938599999999
 31
0.0
  0
ARC
  5
C33D
330
C2C8
100
AcDbEntity
  8
1
  6
Continuous
100
AcDbCircle
 10
191.183176
 20
18.407094
 30
0.0
 40
50.0
100
AcDbArc
 50
69.64559399999997
 51
110.354406
  0
ARC
  5
C33E
330
C2C8
100
AcDbEntity
  8
1
  6
Continuous
100
AcDbCircle
 10
175.1831759999998
 20
61.534811
 30
0.0
 40
4.0
100
AcDbArc
 50
110.354406
 51
180.0
  0
ARC
  5
C33F
330
C2C8
100
AcDbEntity
  8
1
  6
Continuous
100
AcDbCircle
 10
207.183176
 20
61.534811
 30
0.0
 40
4.0
100
AcDbArc
 50
0.0
 51
69.64559399999997
  0
ARC
  5
C340
330
C2C8
100
AcDbEntity
  8
1
  6
Continuous
100
AcDbCircle
 10
191.183176
 20
74.407094
 30
0.0
 40
50.0
100
AcDbArc
 50
249.645594
 51
290.3544059999999
  0
LINE
  5
C341
330
C2C8
100
AcDbEntity
  8
1
  6
Continuous
100
AcDbLine
 10
178.683176
 20
25.994802
 30
0.0
 11
203.683176
 21
25.994802
 31
0.0
  0
ARC
  5
C342
330
C2C8
100
AcDbEntity
  8
1
  6
Continuous
100
AcDbCircle
 10
175.1831759999998
 20
31.279377
 30
0.0
 40
4.0
100
AcDbArc
 50
180.0
 51
249.645594
  0
ARC
  5
C343
330
C2C8
100
AcDbEntity
  8
1
  6
Continuous
100
AcDbCircle
 10
207.183176
 20
31.279377
 30
0.0
 40
4.0
100
AcDbArc
 50
290.3544059999999
 51
0.0
  0
LINE
  5
C344
330
C2C8
100
AcDbEntity
  8
1
  6
Continuous
100
AcDbLine
 10
311.183176
 20
185.907094
 30
0.0
 11
311.183176
 21
146.9070939999998
 31
0.0
  0
ARC
  5
C345
330
C2C8
100
AcDbEntity
  8
1
  6
Continuous
100
AcDbCircle
 10
310.6831759999999
 20
146.9070939999998
 30
0.0
 40
0.5
100
AcDbArc
 50
270.0
 51
0.0
  0
ARC
  5
C346
330
C2C8
100
AcDbEntity
  8
1
  6
Continuous
100
AcDbCircle
 10
310.6831759999999
 20
185.907094
 30
0.0
 40
0.5
100
AcDbArc
 50
0.0
 51
90.0
  0
LINE
  5
C347
330
C2C8
100
AcDbEntity
  8
1
  6
Continuous
100
AcDbLine
 10
331.183176
 20
185.907094
 30
0.0
 11
331.183176
 21
146.9070939999998
 31
0.0
  0
ARC
  5
C348
330
C2C8
100
AcDbEntity
  8
1
  6
Continuous
100
AcDbCircle
 10
331.6831759999999
 20
146.9070939999998
 30
0.0
 40
0.5
100
AcDbArc
 50
180.0
 51
270.0
  0
ARC
  5
C349
330
C2C8
100
AcDbEntity
  8
1
  6
Continuous
100
AcDbCircle
 10
331.6831759999999
 20
185.907094
 30
0.0
 40
0.5
100
AcDbArc
 50
90.0
 51
180.0
  0
LINE
  5
C34A
330
C2C8
100
AcDbEntity
  8
1
  6
Continuous
100
AcDbLine
 10
171.6831759999998
 20
56.40709399999999
 30
0.0
 11
210.6831759999999
 21
56.40709399999999
 31
0.0
  0
ARC
  5
C34B
330
C2C8
100
AcDbEntity
  8
1
  6
Continuous
100
AcDbCircle
 10
171.6831759999998
 20
56.90709399999999
 30
0.0
 40
0.5
100
AcDbArc
 50
180.0
 51
270.0
  0
ARC
  5
C34C
330
C2C8
100
AcDbEntity
  8
1
  6
Continuous
100
AcDbCircle
 10
210.6831759999999
 20
56.90709399999999
 30
0.0
 40
0.5
100
AcDbArc
 50
270.0
 51
0.0
  0
LINE
  5
C34D
330
C2C8
100
AcDbEntity
  8
1
  6
Continuous
100
AcDbLine
 10
171.6831759999998
 20
36.407094
 30
0.0
 11
210.6831759999999
 21
36.407094
 31
0.0
  0
ARC
  5
C34E
330
C2C8
100
AcDbEntity
  8
1
  6
Continuous
100
AcDbCircle
 10
210.6831759999999
 20
35.907094
 30
0.0
 40
0.5
100
AcDbArc
 50
0.0
 51
90.0
  0
ARC
  5
C34F
330
C2C8
100
AcDbEntity
  8
1
  6
Continuous
100
AcDbCircle
 10
171.6831759999998
 20
35.907094
 30
0.0
 40
0.5
100
AcDbArc
 50
90.0
 51
180.0
  0
ARC
  5
C350
330
C2C8
100
AcDbEntity
  8
1
  6
Continuous
100
AcDbCircle
 10
360.2429189999999
 20
166.407094
 30
0.0
 40
61.05974200000001
100
AcDbArc
 50
163.7154519999999
 51
196.2845479999998
  0
ARC
  5
C351
330
C2C8
100
AcDbEntity
  8
1
  6
Continuous
100
AcDbCircle
 10
305.472359
 20
150.407094
 30
0.0
 40
4.0
100
AcDbArc
 50
196.2845479999998
 51
270.0
  0
LINE
  5
C352
330
C2C8
100
AcDbEntity
  8
1
  6
Continuous
100
AcDbLine
 10
300.4331759999999
 20
154.1153549999999
 30
0.0
 11
300.4331759999999
 21
178.6988329999998
 31
0.0
  0
ARC
  5
C353
330
C2C8
100
AcDbEntity
  8
1
  6
Continuous
100
AcDbCircle
 10
305.472359
 20
182.407094
 30
0.0
 40
4.0
100
AcDbArc
 50
90.0
 51
163.7154519999999
  0
ARC
  5
C354
330
C2C8
100
AcDbEntity
  8
1
  6
Continuous
100
AcDbCircle
 10
282.1234339999999
 20
166.407094
 30
0.0
 40
61.05974200000001
100
AcDbArc
 50
343.715452
 51
16.284548
  0
ARC
  5
C355
330
C2C8
100
AcDbEntity
  8
1
  6
Continuous
100
AcDbCircle
 10
336.893994
 20
150.407094
 30
0.0
 40
4.0
100
AcDbArc
 50
270.0
 51
343.715452
  0
LINE
  5
C356
330
C2C8
100
AcDbEntity
  8
1
  6
Continuous
100
AcDbLine
 10
341.9331759999999
 20
154.1153549999999
 30
0.0
 11
341.9331759999999
 21
178.6988329999998
 31
0.0
  0
ARC
  5
C357
330
C2C8
100
AcDbEntity
  8
1
  6
Continuous
100
AcDbCircle
 10
336.893994
 20
182.407094
 30
0.0
 40
4.0
100
AcDbArc
 50
16.284548
 51
90.0
  0
LINE
  5
C358
330
C2C8
100
AcDbEntity
  8
1
  6
Continuous
100
AcDbLine
 10
313.6970929999999
 20
159.7570939999999
 30
0.0
 11
328.669259
 21
159.7570939999999
 31
0.0
  0
LINE
  5
C359
330
C2C8
100
AcDbEntity
  8
1
  6
Continuous
100
AcDbLine
 10
326.4081759999999
 20
157.307094
 30
0.0
 11
315.958176
 21
157.307094
 31
0.0
  0
ARC
  5
C35A
330
C2C8
100
AcDbEntity
  8
1
  6
Continuous
100
AcDbCircle
 10
313.6970929999999
 20
160.757094
 30
0.0
 40
1.0
100
AcDbArc
 50
183.9821389999999
 51
270.0
  0
ARC
  5
C35B
330
C2C8
100
AcDbEntity
  8
1
  6
Continuous
100
AcDbCircle
 10
328.669259
 20
160.757094
 30
0.0
 40
1.0
100
AcDbArc
 50
270.0
 51
356.0178609999999
  0
LINE
  5
C35C
330
C2C8
100
AcDbEntity
  8
1
  6
Continuous
100
AcDbLine
 10
324.183176
 20
159.4070939999998
 30
0.0
 11
329.633176
 21
159.4070939999998
 31
0.0
  0
ARC
  5
C35D
330
C2C8
100
AcDbEntity
  8
1
  6
Continuous
100
AcDbCircle
 10
206.183176
 20
46.407094
 30
0.0
 40
5.224999999999996
100
AcDbArc
 50
15.340231
 51
344.659769
  0
ARC
  5
C35E
330
C2C8
100
AcDbEntity
  8
1
  6
Continuous
100
AcDbCircle
 10
210.7398339999998
 20
47.657094
 30
0.0
 40
0.5
100
AcDbArc
 50
270.0
 51
15.340231
  0
ARC
  5
C35F
330
C2C8
100
AcDbEntity
  8
1
  6
Continuous
100
AcDbCircle
 10
210.7398339999998
 20
45.157094
 30
0.0
 40
0.5
100
AcDbArc
 50
344.659769
 51
90.0
  0
ARC
  5
C360
330
C2C8
100
AcDbEntity
  8
1
  6
Continuous
100
AcDbCircle
 10
206.183176
 20
276.4070939999999
 30
0.0
 40
8.0
100
AcDbArc
 50
118.9550239999999
 51
241.044976
  0
ARC
  5
C361
330
C2C8
100
AcDbEntity
  8
1
  6
Continuous
100
AcDbCircle
 10
206.183176
 20
276.4070939999999
 30
0.0
 40
8.692999999999997
100
AcDbArc
 50
126.3660189999998
 51
233.633981
  0
ARC
  5
C362
330
C2C8
100
AcDbEntity
  8
1
  6
Continuous
100
AcDbCircle
 10
206.183176
 20
276.4070939999999
 30
0.0
 40
8.692999999999997
100
AcDbArc
 50
306.366019
 51
53.63398100000001
  0
ARC
  5
C363
330
C2C8
100
AcDbEntity
  8
1
  6
Continuous
100
AcDbCircle
 10
206.183176
 20
276.4070939999999
 30
0.0
 40
8.0
100
AcDbArc
 50
298.9550239999999
 51
61.044976
  0
LINE
  5
C364
330
C2C8
100
AcDbEntity
  8
4
  6
CENTER
100
AcDbLine
 10
191.183176
 20
249.0693849999999
 30
0.0
 11
191.183176
 21
303.7448019999998
 31
0.0
  0
LINE
  5
C365
330
C2C8
100
AcDbEntity
  8
1
  6
Continuous
100
AcDbLine
 10
183.3337399999998
 20
270.9070939999999
 30
0.0
 11
183.3337399999998
 21
281.9070939999999
 31
0.0
  0
LINE
  5
C366
330
C2C8
100
AcDbEntity
  8
1
  6
Continuous
100
AcDbLine
 10
181.7610159999999
 20
270.9070939999999
 30
0.0
 11
181.7610159999999
 21
281.9070939999999
 31
0.0
  0
LINE
  5
C367
330
C2C8
100
AcDbEntity
  8
1
  6
Continuous
100
AcDbLine
 10
164.183176
 20
270.9070939999999
 30
0.0
 11
164.183176
 21
281.9070939999999
 31
0.0
  0
LINE
  5
C368
330
C2C8
100
AcDbEntity
  8
4
  6
CENTER
100
AcDbLine
 10
206.183176
 20
301.659828
 30
0.0
 11
206.183176
 21
251.1543589999999
 31
0.0
  0
LINE
  5
C369
330
C2C8
100
AcDbEntity
  8
1
  6
Continuous
100
AcDbLine
 10
201.0287359999999
 20
269.4070939999999
 30
0.0
 11
211.337616
 21
269.4070939999999
 31
0.0
  0
LINE
  5
C36A
330
C2C8
100
AcDbEntity
  8
1
  6
Continuous
100
AcDbLine
 10
171.6831759999998
 20
266.4070939999999
 30
0.0
 11
210.6831759999999
 21
266.4070939999999
 31
0.0
  0
LINE
  5
C36B
330
C2C8
100
AcDbEntity
  8
1
  6
Continuous
100
AcDbLine
 10
172.7322039999999
 20
267.6570939999999
 30
0.0
 11
209.6341479999999
 21
267.6570939999999
 31
0.0
  0
ARC
  5
C36C
330
C2C8
100
AcDbEntity
  8
1
  6
Continuous
100
AcDbCircle
 10
210.6831759999999
 20
265.9070939999998
 30
0.0
 40
0.5
100
AcDbArc
 50
0.0
 51
90.0
  0
LINE
  5
C36D
330
C2C8
100
AcDbEntity
  8
1
  6
Continuous
100
AcDbLine
 10
211.1831759999998
 20
265.9070939999998
 30
0.0
 11
211.1831759999998
 21
260.613155
 31
0.0
  0
ARC
  5
C36E
330
C2C8
100
AcDbEntity
  8
1
  6
Continuous
100
AcDbCircle
 10
206.183176
 20
276.4070939999999
 30
0.0
 40
8.5
100
AcDbArc
 50
294.863288
 51
304.5603219999999
  0
ARC
  5
C36F
330
C2C8
100
AcDbEntity
  8
1
  6
Continuous
100
AcDbCircle
 10
140.183176
 20
276.4070939999999
 30
0.0
 40
70.0
100
AcDbArc
 50
352.8192440000001
 51
353.6746659999999
  0
ARC
  5
C370
330
C2C8
100
AcDbEntity
  8
1
  6
Continuous
100
AcDbCircle
 10
180.3337399999998
 20
270.9070939999999
 30
0.0
 40
3.0
100
AcDbArc
 50
270.0
 51
0.0
  0
LINE
  5
C371
330
C2C8
100
AcDbEntity
  8
1
  6
Continuous
100
AcDbLine
 10
178.683176
 20
255.6570939999998
 30
0.0
 11
203.683176
 21
255.6570939999998
 31
0.0
  0
LINE
  5
C372
330
C2C8
100
AcDbEntity
  8
1
  6
Continuous
100
AcDbLine
 10
184.9831759999999
 20
267.1570939999999
 30
0.0
 11
197.3831759999999
 21
267.1570939999999
 31
0.0
  0
ARC
  5
C373
330
C2C8
100
AcDbEntity
  8
1
  6
Continuous
100
AcDbCircle
 10
197.3831759999999
 20
267.957094
 30
0.0
 40
0.8
100
AcDbArc
 50
270.0
 51
337.975687
  0
ARC
  5
C374
330
C2C8
100
AcDbEntity
  8
1
  6
Continuous
100
AcDbCircle
 10
197.3831759999999
 20
267.957094
 30
0.0
 40
0.8
100
AcDbArc
 50
270.0
 51
337.975687
  0
ARC
  5
C375
330
C2C8
100
AcDbEntity
  8
1
  6
Continuous
100
AcDbCircle
 10
197.183176
 20
266.1570939999999
 30
0.0
 40
1.0
100
AcDbArc
 50
14.47751199999999
 51
90.0
  0
ARC
  5
C376
330
C2C8
100
AcDbEntity
  8
1
  6
Continuous
100
AcDbCircle
 10
184.9831759999999
 20
267.957094
 30
0.0
 40
0.8
100
AcDbArc
 50
202.0243129999999
 51
270.0
  0
ARC
  5
C377
330
C2C8
100
AcDbEntity
  8
1
  6
Continuous
100
AcDbCircle
 10
184.9831759999999
 20
267.957094
 30
0.0
 40
0.8
100
AcDbArc
 50
202.0243129999999
 51
270.0
  0
ARC
  5
C378
330
C2C8
100
AcDbEntity
  8
1
  6
Continuous
100
AcDbCircle
 10
185.1831759999998
 20
266.1570939999999
 30
0.0
 40
1.0
100
AcDbArc
 50
90.0
 51
165.5224879999998
  0
LINE
  5
C379
330
C2C8
100
AcDbEntity
  8
1
  6
Continuous
100
AcDbLine
 10
184.9831759999999
 20
267.1570939999999
 30
0.0
 11
187.183176
 21
267.1570939999999
 31
0.0
  0
LINE
  5
C37A
330
C2C8
100
AcDbEntity
  8
1
  6
Continuous
100
AcDbLine
 10
184.9831759999999
 20
267.1570939999999
 30
0.0
 11
187.183176
 21
267.1570939999999
 31
0.0
  0
LINE
  5
C37B
330
C2C8
100
AcDbEntity
  8
1
  6
Continuous
100
AcDbLine
 10
180.3337399999998
 20
267.9070939999999
 30
0.0
 11
167.183176
 21
267.9070939999999
 31
0.0
  0
ARC
  5
C37C
330
C2C8
100
AcDbEntity
  8
1
  6
Continuous
100
AcDbCircle
 10
171.6831759999998
 20
265.9070939999998
 30
0.0
 40
0.5
100
AcDbArc
 50
90.0
 51
180.0
  0
LINE
  5
C37D
330
C2C8
100
AcDbEntity
  8
1
  6
Continuous
100
AcDbLine
 10
176.1831759999998
 20
266.4070939999999
 30
0.0
 11
176.1831759999998
 21
267.6570939999999
 31
0.0
  0
LINE
  5
C37E
330
C2C8
100
AcDbEntity
  8
1
  6
Continuous
100
AcDbLine
 10
178.183176
 20
266.4070939999999
 30
0.0
 11
178.183176
 21
267.6570939999999
 31
0.0
  0
LINE
  5
C37F
330
C2C8
100
AcDbEntity
  8
1
  6
Continuous
100
AcDbLine
 10
182.183176
 20
266.4070939999999
 30
0.0
 11
182.183176
 21
267.6570939999999
 31
0.0
  0
ARC
  5
C380
330
C2C8
100
AcDbEntity
  8
1
  6
Continuous
100
AcDbCircle
 10
178.7610159999999
 20
270.9070939999999
 30
0.0
 40
3.0
100
AcDbArc
 50
270.0
 51
0.0
  0
ARC
  5
C381
330
C2C8
100
AcDbEntity
  8
1
  6
Continuous
100
AcDbCircle
 10
242.1831759999999
 20
276.4070939999999
 30
0.0
 40
70.0
100
AcDbArc
 50
186.974557
 51
187.180756
  0
ARC
  5
C382
330
C2C8
100
AcDbEntity
  8
1
  6
Continuous
100
AcDbCircle
 10
167.183176
 20
270.9070939999999
 30
0.0
 40
3.0
100
AcDbArc
 50
180.0
 51
270.0
  0
LINE
  5
C383
330
C2C8
100
AcDbEntity
  8
1
  6
Continuous
100
AcDbLine
 10
171.183176
 20
265.9070939999998
 30
0.0
 11
171.183176
 21
260.613155
 31
0.0
  0
LINE
  5
C384
330
C2C8
100
AcDbEntity
  8
1
  6
Continuous
100
AcDbLine
 10
201.0287359999999
 20
283.4070939999999
 30
0.0
 11
211.337616
 21
283.4070939999999
 31
0.0
  0
LINE
  5
C385
330
C2C8
100
AcDbEntity
  8
1
  6
Continuous
100
AcDbLine
 10
171.6831759999998
 20
286.4070939999999
 30
0.0
 11
210.6831759999999
 21
286.4070939999999
 31
0.0
  0
LINE
  5
C386
330
C2C8
100
AcDbEntity
  8
1
  6
Continuous
100
AcDbLine
 10
172.7322039999999
 20
285.1570939999998
 30
0.0
 11
209.6341479999999
 21
285.1570939999998
 31
0.0
  0
LINE
  5
C387
330
C2C8
100
AcDbEntity
  8
4
  6
CENTER
100
AcDbLine
 10
159.5737809999999
 20
276.4070939999999
 30
0.0
 11
219.876176
 21
276.4070939999999
 31
0.0
  0
ARC
  5
C388
330
C2C8
100
AcDbEntity
  8
1
  6
Continuous
100
AcDbCircle
 10
140.183176
 20
276.4070939999999
 30
0.0
 40
70.0
100
AcDbArc
 50
6.325333999999998
 51
7.180755999999997
  0
ARC
  5
C389
330
C2C8
100
AcDbEntity
  8
1
  6
Continuous
100
AcDbCircle
 10
206.183176
 20
276.4070939999999
 30
0.0
 40
8.5
100
AcDbArc
 50
55.439678
 51
65.136712
  0
LINE
  5
C38A
330
C2C8
100
AcDbEntity
  8
1
  6
Continuous
100
AcDbLine
 10
211.1831759999998
 20
286.9070939999998
 30
0.0
 11
211.1831759999998
 21
292.2010329999998
 31
0.0
  0
ARC
  5
C38B
330
C2C8
100
AcDbEntity
  8
1
  6
Continuous
100
AcDbCircle
 10
210.6831759999999
 20
286.9070939999998
 30
0.0
 40
0.5
100
AcDbArc
 50
270.0
 51
0.0
  0
ARC
  5
C38C
330
C2C8
100
AcDbEntity
  8
1
  6
Continuous
100
AcDbCircle
 10
180.3337399999998
 20
281.9070939999999
 30
0.0
 40
3.0
100
AcDbArc
 50
0.0
 51
90.0
  0
LINE
  5
C38D
330
C2C8
100
AcDbEntity
  8
1
  6
Continuous
100
AcDbLine
 10
178.683176
 20
297.1570939999999
 30
0.0
 11
203.683176
 21
297.1570939999999
 31
0.0
  0
LINE
  5
C38E
330
C2C8
100
AcDbEntity
  8
1
  6
Continuous
100
AcDbLine
 10
184.9831759999999
 20
285.6570939999999
 30
0.0
 11
197.3831759999999
 21
285.6570939999999
 31
0.0
  0
ARC
  5
C38F
330
C2C8
100
AcDbEntity
  8
1
  6
Continuous
100
AcDbCircle
 10
197.183176
 20
286.6570939999999
 30
0.0
 40
1.0
100
AcDbArc
 50
270.0
 51
345.522488
  0
ARC
  5
C390
330
C2C8
100
AcDbEntity
  8
1
  6
Continuous
100
AcDbCircle
 10
197.3831759999999
 20
284.857094
 30
0.0
 40
0.8
100
AcDbArc
 50
22.024313
 51
90.0
  0
ARC
  5
C391
330
C2C8
100
AcDbEntity
  8
1
  6
Continuous
100
AcDbCircle
 10
197.3831759999999
 20
284.857094
 30
0.0
 40
0.8
100
AcDbArc
 50
22.024313
 51
90.0
  0
ARC
  5
C392
330
C2C8
100
AcDbEntity
  8
1
  6
Continuous
100
AcDbCircle
 10
185.1831759999998
 20
286.6570939999999
 30
0.0
 40
1.0
100
AcDbArc
 50
194.4775119999999
 51
270.0
  0
ARC
  5
C393
330
C2C8
100
AcDbEntity
  8
1
  6
Continuous
100
AcDbCircle
 10
184.9831759999999
 20
284.857094
 30
0.0
 40
0.8
100
AcDbArc
 50
90.0
 51
157.9756869999999
  0
LINE
  5
C394
330
C2C8
100
AcDbEntity
  8
1
  6
Continuous
100
AcDbLine
 10
184.9831759999999
 20
285.6570939999999
 30
0.0
 11
187.183176
 21
285.6570939999999
 31
0.0
  0
ARC
  5
C395
330
C2C8
100
AcDbEntity
  8
1
  6
Continuous
100
AcDbCircle
 10
184.9831759999999
 20
284.857094
 30
0.0
 40
0.8
100
AcDbArc
 50
90.0
 51
157.9756869999999
  0
LINE
  5
C396
330
C2C8
100
AcDbEntity
  8
1
  6
Continuous
100
AcDbLine
 10
180.3337399999998
 20
284.9070939999998
 30
0.0
 11
167.183176
 21
284.9070939999998
 31
0.0
  0
ARC
  5
C397
330
C2C8
100
AcDbEntity
  8
1
  6
Continuous
100
AcDbCircle
 10
171.6831759999998
 20
286.9070939999998
 30
0.0
 40
0.5
100
AcDbArc
 50
180.0
 51
270.0
  0
ARC
  5
C398
330
C2C8
100
AcDbEntity
  8
1
  6
Continuous
100
AcDbCircle
 10
178.7610159999999
 20
281.9070939999999
 30
0.0
 40
3.0
100
AcDbArc
 50
0.0
 51
90.0
  0
LINE
  5
C399
330
C2C8
100
AcDbEntity
  8
1
  6
Continuous
100
AcDbLine
 10
178.183176
 20
285.1570939999998
 30
0.0
 11
178.183176
 21
286.4070939999999
 31
0.0
  0
LINE
  5
C39A
330
C2C8
100
AcDbEntity
  8
1
  6
Continuous
100
AcDbLine
 10
182.183176
 20
285.1570939999998
 30
0.0
 11
182.183176
 21
286.4070939999999
 31
0.0
  0
LINE
  5
C39B
330
C2C8
100
AcDbEntity
  8
1
  6
Continuous
100
AcDbLine
 10
176.1831759999998
 20
285.1570939999998
 30
0.0
 11
176.1831759999998
 21
286.4070939999999
 31
0.0
  0
ARC
  5
C39C
330
C2C8
100
AcDbEntity
  8
1
  6
Continuous
100
AcDbCircle
 10
242.1831759999999
 20
276.4070939999999
 30
0.0
 40
70.0
100
AcDbArc
 50
172.8192439999999
 51
173.025443
  0
ARC
  5
C39D
330
C2C8
100
AcDbEntity
  8
1
  6
Continuous
100
AcDbCircle
 10
167.183176
 20
281.9070939999999
 30
0.0
 40
3.0
100
AcDbArc
 50
90.0
 51
180.0
  0
LINE
  5
C39E
330
C2C8
100
AcDbEntity
  8
1
  6
Continuous
100
AcDbLine
 10
171.183176
 20
286.9070939999998
 30
0.0
 11
171.183176
 21
292.2010329999998
 31
0.0
  0
LINE
  5
C39F
330
C2C8
100
AcDbEntity
  8
1
  6
Continuous
100
AcDbLine
 10
81.18317600000002
 20
185.907094
 30
0.0
 11
81.18317600000002
 21
146.9070939999998
 31
0.0
  0
LINE
  5
C3A0
330
C2C8
100
AcDbEntity
  8
1
  6
Continuous
100
AcDbLine
 10
61.18317600000001
 20
185.907094
 30
0.0
 11
61.18317600000001
 21
146.9070939999998
 31
0.0
  0
LINE
  5
C3A1
330
C2C8
100
AcDbEntity
  8
1
  6
Continuous
100
AcDbLine
 10
50.433176
 20
153.907094
 30
0.0
 11
50.433176
 21
178.907094
 31
0.0
  0
ARC
  5
C3A2
330
C2C8
100
AcDbEntity
  8
1
  6
Continuous
100
AcDbCircle
 10
81.68317599999998
 20
146.9070939999998
 30
0.0
 40
0.5
100
AcDbArc
 50
180.0
 51
270.0
  0
LINE
  5
C3A3
330
C2C8
100
AcDbEntity
  8
1
  6
Continuous
100
AcDbLine
 10
81.68317599999998
 20
146.407094
 30
0.0
 11
86.977115
 21
146.407094
 31
0.0
  0
LINE
  5
C3A4
330
C2C8
100
AcDbEntity
  8
1
  6
Continuous
100
AcDbLine
 10
60.683176
 20
146.407094
 30
0.0
 11
55.389237
 21
146.407094
 31
0.0
  0
ARC
  5
C3A5
330
C2C8
100
AcDbEntity
  8
1
  6
Continuous
100
AcDbCircle
 10
60.683176
 20
146.9070939999998
 30
0.0
 40
0.5
100
AcDbArc
 50
270.0
 51
0.0
  0
LINE
  5
C3A6
330
C2C8
100
AcDbEntity
  8
1
  6
Continuous
100
AcDbLine
 10
64.183176
 20
189.907094
 30
0.0
 11
78.183176
 21
189.907094
 31
0.0
  0
LINE
  5
C3A7
330
C2C8
100
AcDbEntity
  8
1
  6
Continuous
100
AcDbLine
 10
76.83317599999998
 20
172.407094
 30
0.0
 11
65.53317599999998
 21
172.407094
 31
0.0
  0
LINE
  5
C3A8
330
C2C8
100
AcDbEntity
  8
1
  6
Continuous
100
AcDbLine
 10
64.683176
 20
180.2324759999999
 30
0.0
 11
77.683176
 21
180.2324759999999
 31
0.0
  0
LINE
  5
C3A9
330
C2C8
100
AcDbEntity
  8
1
  6
Continuous
100
AcDbLine
 10
77.683176
 20
182.1457709999999
 30
0.0
 11
64.683176
 21
182.1457709999999
 31
0.0
  0
LINE
  5
C3AA
330
C2C8
100
AcDbEntity
  8
1
  6
Continuous
100
AcDbLine
 10
64.183176
 20
185.23688
 30
0.0
 11
78.183176
 21
185.23688
 31
0.0
  0
LINE
  5
C3AB
330
C2C8
100
AcDbEntity
  8
1
  6
Continuous
100
AcDbLine
 10
62.733176
 20
159.4070939999998
 30
0.0
 11
79.633176
 21
159.4070939999998
 31
0.0
  0
LINE
  5
C3AC
330
C2C8
100
AcDbEntity
  8
1
  6
Continuous
100
AcDbLine
 10
78.183176
 20
185.4070939999998
 30
0.0
 11
64.183176
 21
185.4070939999998
 31
0.0
  0
LINE
  5
C3AD
330
C2C8
100
AcDbEntity
  8
4
  6
CENTER
100
AcDbLine
 10
43.84546799999998
 20
166.407094
 30
0.0
 11
98.52088399999999
 21
166.407094
 31
0.0
  0
LINE
  5
C3AE
330
C2C8
100
AcDbEntity
  8
1
  6
Continuous
100
AcDbLine
 10
78.183176
 20
189.907094
 30
0.0
 11
78.183176
 21
185.4070939999998
 31
0.0
  0
LINE
  5
C3AF
330
C2C8
100
AcDbEntity
  8
1
  6
Continuous
100
AcDbLine
 10
76.83317599999998
 20
180.2324759999999
 30
0.0
 11
76.83317599999998
 21
170.407094
 31
0.0
  0
LINE
  5
C3B0
330
C2C8
100
AcDbEntity
  8
1
  6
Continuous
100
AcDbLine
 10
79.683176
 20
183.73688
 30
0.0
 11
79.683176
 21
170.407094
 31
0.0
  0
LINE
  5
C3B1
330
C2C8
100
AcDbEntity
  8
1
  6
Continuous
100
AcDbLine
 10
80.43317599999998
 20
160.2070939999999
 30
0.0
 11
80.43317599999998
 21
168.907094
 31
0.0
  0
LINE
  5
C3B2
330
C2C8
100
AcDbEntity
  8
1
  6
Continuous
100
AcDbLine
 10
79.93317600000001
 20
184.8580659999998
 30
0.0
 11
79.93317600000001
 21
159.465474
 31
0.0
  0
ARC
  5
C3B3
330
C2C8
100
AcDbEntity
  8
1
  6
Continuous
100
AcDbCircle
 10
81.43317600000001
 20
160.4070939999998
 30
0.0
 40
1.0
100
AcDbArc
 50
180.0
 51
255.522488
  0
ARC
  5
C3B4
330
C2C8
100
AcDbEntity
  8
1
  6
Continuous
100
AcDbCircle
 10
79.633176
 20
160.2070939999999
 30
0.0
 40
0.8
100
AcDbArc
 50
270.0
 51
0.0
  0
LINE
  5
C3B5
330
C2C8
100
AcDbEntity
  8
1
  6
Continuous
100
AcDbLine
 10
79.93317600000001
 20
170.407094
 30
0.0
 11
76.83317599999998
 21
170.407094
 31
0.0
  0
ARC
  5
C3B6
330
C2C8
100
AcDbEntity
  8
1
  6
Continuous
100
AcDbCircle
 10
81.43317600000001
 20
172.407094
 30
0.0
 40
1.0
100
AcDbArc
 50
104.477512
 51
150.0
  0
ARC
  5
C3B7
330
C2C8
100
AcDbEntity
  8
1
  6
Continuous
100
AcDbCircle
 10
79.633176
 20
172.6070939999999
 30
0.0
 40
0.8
100
AcDbArc
 50
22.024313
 51
67.97568699999999
  0
ARC
  5
C3B8
330
C2C8
100
AcDbEntity
  8
1
  6
Continuous
100
AcDbCircle
 10
81.68317599999998
 20
185.907094
 30
0.0
 40
0.5
100
AcDbArc
 50
90.0
 51
180.0
  0
LINE
  5
C3B9
330
C2C8
100
AcDbEntity
  8
1
  6
Continuous
100
AcDbLine
 10
86.977115
 20
186.4070939999998
 30
0.0
 11
81.68317599999998
 21
186.4070939999998
 31
0.0
  0
ARC
  5
C3BA
330
C2C8
100
AcDbEntity
  8
1
  6
Continuous
100
AcDbCircle
 10
71.18317600000001
 20
115.4070939999999
 30
0.0
 40
70.0
100
AcDbArc
 50
82.81924399999999
 51
83.55087199999998
  0
ARC
  5
C3BB
330
C2C8
100
AcDbEntity
  8
1
  6
Continuous
100
AcDbCircle
 10
76.99336800000001
 20
183.1520929999999
 30
0.0
 40
3.0
100
AcDbArc
 50
283.2933059999998
 51
333.715039
  0
ARC
  5
C3BC
330
C2C8
100
AcDbEntity
  8
1
  6
Continuous
100
AcDbCircle
 10
76.99336800000001
 20
185.0653879999999
 30
0.0
 40
3.0
100
AcDbArc
 50
283.2933059999998
 51
333.715039
  0
LINE
  5
C3BD
330
C2C8
100
AcDbEntity
  8
1
  6
Continuous
100
AcDbLine
 10
78.183176
 20
181.1457709999999
 30
0.0
 11
78.183176
 21
181.6457709999999
 31
0.0
  0
ARC
  5
C3BE
330
C2C8
100
AcDbEntity
  8
1
  6
Continuous
100
AcDbCircle
 10
77.683176
 20
180.732476
 30
0.0
 40
0.5
100
AcDbArc
 50
270.0
 51
0.0
  0
ARC
  5
C3BF
330
C2C8
100
AcDbEntity
  8
1
  6
Continuous
100
AcDbCircle
 10
77.683176
 20
181.6457709999999
 30
0.0
 40
0.5
100
AcDbArc
 50
0.0
 51
90.0
  0
ARC
  5
C3C0
330
C2C8
100
AcDbEntity
  8
1
  6
Continuous
100
AcDbCircle
 10
78.183176
 20
183.73688
 30
0.0
 40
1.5
100
AcDbArc
 50
0.0
 51
90.0
  0
ARC
  5
C3C1
330
C2C8
100
AcDbEntity
  8
1
  6
Continuous
100
AcDbCircle
 10
-20.101561
 20
166.96501
 30
0.0
 40
100.0
100
AcDbArc
 50
10.52796
 51
10.62736799999999
  0
LINE
  5
C3C2
330
C2C8
100
AcDbEntity
  8
1
  6
Continuous
100
AcDbLine
 10
78.183176
 20
180.732476
 30
0.0
 11
78.183176
 21
181.1457709999999
 31
0.0
  0
LINE
  5
C3C3
330
C2C8
100
AcDbEntity
  8
1
  6
Continuous
100
AcDbLine
 10
64.183176
 20
189.907094
 30
0.0
 11
64.183176
 21
185.4070939999998
 31
0.0
  0
LINE
  5
C3C4
330
C2C8
100
AcDbEntity
  8
4
  6
CENTER
100
AcDbLine
 10
71.18317600000001
 20
148.307094
 30
0.0
 11
71.18317600000001
 21
206.907094
 31
0.0
  0
LINE
  5
C3C5
330
C2C8
100
AcDbEntity
  8
1
  6
Continuous
100
AcDbLine
 10
65.53317599999998
 20
180.2324759999999
 30
0.0
 11
65.53317599999998
 21
170.407094
 31
0.0
  0
LINE
  5
C3C6
330
C2C8
100
AcDbEntity
  8
1
  6
Continuous
100
AcDbLine
 10
61.933176
 20
168.907094
 30
0.0
 11
61.933176
 21
160.2070939999999
 31
0.0
  0
LINE
  5
C3C7
330
C2C8
100
AcDbEntity
  8
1
  6
Continuous
100
AcDbLine
 10
62.683176
 20
183.73688
 30
0.0
 11
62.683176
 21
170.407094
 31
0.0
  0
LINE
  5
C3C8
330
C2C8
100
AcDbEntity
  8
1
  6
Continuous
100
AcDbLine
 10
62.43317600000001
 20
184.8580659999998
 30
0.0
 11
62.43317600000001
 21
159.465474
 31
0.0
  0
LINE
  5
C3C9
330
C2C8
100
AcDbEntity
  8
1
  6
Continuous
100
AcDbLine
 10
65.53317599999998
 20
170.407094
 30
0.0
 11
62.43317600000001
 21
170.407094
 31
0.0
  0
ARC
  5
C3CA
330
C2C8
100
AcDbEntity
  8
1
  6
Continuous
100
AcDbCircle
 10
60.933176
 20
160.4070939999998
 30
0.0
 40
1.0
100
AcDbArc
 50
284.4775119999998
 51
0.0
  0
ARC
  5
C3CB
330
C2C8
100
AcDbEntity
  8
1
  6
Continuous
100
AcDbCircle
 10
62.733176
 20
160.2070939999999
 30
0.0
 40
0.8
100
AcDbArc
 50
180.0
 51
270.0
  0
ARC
  5
C3CC
330
C2C8
100
AcDbEntity
  8
1
  6
Continuous
100
AcDbCircle
 10
65.372984
 20
183.1520929999999
 30
0.0
 40
3.0
100
AcDbArc
 50
206.284961
 51
256.7066939999999
  0
ARC
  5
C3CD
330
C2C8
100
AcDbEntity
  8
1
  6
Continuous
100
AcDbCircle
 10
65.372984
 20
185.0653879999999
 30
0.0
 40
3.0
100
AcDbArc
 50
206.284961
 51
256.7066939999999
  0
ARC
  5
C3CE
330
C2C8
100
AcDbEntity
  8
1
  6
Continuous
100
AcDbCircle
 10
64.183176
 20
183.73688
 30
0.0
 40
1.5
100
AcDbArc
 50
90.0
 51
180.0
  0
LINE
  5
C3CF
330
C2C8
100
AcDbEntity
  8
1
  6
Continuous
100
AcDbLine
 10
64.183176
 20
181.6457709999999
 30
0.0
 11
64.183176
 21
180.732476
 31
0.0
  0
ARC
  5
C3D0
330
C2C8
100
AcDbEntity
  8
1
  6
Continuous
100
AcDbCircle
 10
64.683176
 20
181.6457709999999
 30
0.0
 40
0.5
100
AcDbArc
 50
90.0
 51
180.0
  0
ARC
  5
C3D1
330
C2C8
100
AcDbEntity
  8
1
  6
Continuous
100
AcDbCircle
 10
64.683176
 20
180.732476
 30
0.0
 40
0.5
100
AcDbArc
 50
180.0
 51
270.0
  0
LINE
  5
C3D2
330
C2C8
100
AcDbEntity
  8
1
  6
Continuous
100
AcDbLine
 10
64.183176
 20
181.2324759999999
 30
0.0
 11
64.183176
 21
181.1457709999999
 31
0.0
  0
ARC
  5
C3D3
330
C2C8
100
AcDbEntity
  8
1
  6
Continuous
100
AcDbCircle
 10
162.4679129999998
 20
166.96501
 30
0.0
 40
100.0
100
AcDbArc
 50
169.372632
 51
169.47204
  0
ARC
  5
C3D4
330
C2C8
100
AcDbEntity
  8
1
  6
Continuous
100
AcDbCircle
 10
60.933176
 20
172.407094
 30
0.0
 40
1.0
100
AcDbArc
 50
30.0
 51
75.52248799999998
  0
ARC
  5
C3D5
330
C2C8
100
AcDbEntity
  8
1
  6
Continuous
100
AcDbCircle
 10
62.733176
 20
172.6070939999999
 30
0.0
 40
0.8
100
AcDbArc
 50
112.0243129999999
 51
157.9756869999999
  0
LINE
  5
C3D6
330
C2C8
100
AcDbEntity
  8
1
  6
Continuous
100
AcDbLine
 10
55.389237
 20
186.4070939999998
 30
0.0
 11
60.683176
 21
186.4070939999998
 31
0.0
  0
ARC
  5
C3D7
330
C2C8
100
AcDbEntity
  8
1
  6
Continuous
100
AcDbCircle
 10
60.683176
 20
185.907094
 30
0.0
 40
0.5
100
AcDbArc
 50
0.0
 51
90.0
  0
ARC
  5
C3D8
330
C2C8
100
AcDbEntity
  8
1
  6
Continuous
100
AcDbCircle
 10
71.18317600000001
 20
115.4070939999999
 30
0.0
 40
70.0
100
AcDbArc
 50
96.449128
 51
97.180756
  0
LINE
  5
C3D9
330
C2C8
100
AcDbEntity
  8
1
  6
Continuous
100
AcDbLine
 10
214.1831759999998
 20
189.907094
 30
0.0
 11
198.183176
 21
189.907094
 31
0.0
  0
LINE
  5
C3DA
330
C2C8
100
AcDbEntity
  8
1
  6
Continuous
100
AcDbLine
 10
214.1831759999998
 20
185.4070939999998
 30
0.0
 11
198.183176
 21
185.4070939999998
 31
0.0
  0
CIRCLE
  5
C3DB
330
C2C8
100
AcDbEntity
  8
1
  6
Continuous
100
AcDbCircle
 10
191.183176
 20
166.407094
 30
0.0
 40
20.0
  0
LINE
  5
C3DC
330
C2C8
100
AcDbEntity
  8
4
  6
CENTER
100
AcDbLine
 10
219.892843
 20
166.407094
 30
0.0
 11
166.183176
 21
166.407094
 31
0.0
  0
ARC
  5
C3DD
330
C2C8
100
AcDbEntity
  8
1
  6
Continuous
100
AcDbCircle
 10
206.740575
 20
187.657094
 30
0.0
 40
4.0
100
AcDbArc
 50
325.7711339999999
 51
33.16765
  0
ARC
  5
C3DE
330
C2C8
100
AcDbEntity
  8
1
  6
Continuous
100
AcDbCircle
 10
210.875987
 20
187.657094
 30
0.0
 40
4.0
100
AcDbArc
 50
325.7711339999999
 51
34.228866
  0
ARC
  5
C3DF
330
C2C8
100
AcDbEntity
  8
1
  6
Continuous
100
AcDbCircle
 10
114.898439
 20
167.46501
 30
0.0
 40
100.0
100
AcDbArc
 50
356.660973
 51
10.095961
  0
CIRCLE
  5
C3E0
330
C2C8
100
AcDbEntity
  8
1
  6
Continuous
100
AcDbCircle
 10
191.183176
 20
166.407094
 30
0.0
 40
12.5
  0
LINE
  5
C3E1
330
C2C8
100
AcDbEntity
  8
4
  6
CENTER
100
AcDbLine
 10
206.183176
 20
146.407094
 30
0.0
 11
206.183176
 21
206.907094
 31
0.0
  0
LINE
  5
C3E2
330
C2C8
100
AcDbEntity
  8
4
  6
CENTER
100
AcDbLine
 10
191.183176
 20
141.407094
 30
0.0
 11
191.183176
 21
191.407094
 31
0.0
  0
ARC
  5
C3E3
330
C2C8
100
AcDbEntity
  8
1
  6
Continuous
100
AcDbCircle
 10
205.625777
 20
187.657094
 30
0.0
 40
4.0
100
AcDbArc
 50
145.7711339999999
 51
214.228866
  0
ARC
  5
C3E4
330
C2C8
100
AcDbEntity
  8
1
  6
Continuous
100
AcDbCircle
 10
201.4903649999999
 20
187.657094
 30
0.0
 40
4.0
100
AcDbArc
 50
145.7711339999999
 51
214.228866
  0
ARC
  5
C3E5
330
C2C8
100
AcDbEntity
  8
1
  6
Continuous
100
AcDbCircle
 10
195.9344199999999
 20
190.951455
 30
0.0
 40
6.0
100
AcDbArc
 50
288.585673
 51
292.47294
  0
ARC
  5
C3E6
330
C2C8
100
AcDbEntity
  8
5
  6
PHANTOM
100
AcDbCircle
 10
171.6991919999999
 20
170.8192659999999
 30
0.0
 40
1.0
100
AcDbArc
 50
77.10728
 51
178.347826
  0
ARC
  5
C3E7
330
C2C8
100
AcDbEntity
  8
5
  6
PHANTOM
100
AcDbCircle
 10
142.711248
 20
171.6553899999999
 30
0.0
 40
26.0
100
AcDbArc
 50
346.528779
 51
23.235285
  0
ARC
  5
C3E8
330
C2C8
100
AcDbEntity
  8
5
  6
PHANTOM
100
AcDbCircle
 10
142.711248
 20
171.6553899999999
 30
0.0
 40
28.0
100
AcDbArc
 50
345.501644
 51
24.30524800000001
  0
ARC
  5
C3E9
330
C2C8
100
AcDbEntity
  8
5
  6
PHANTOM
100
AcDbCircle
 10
169.5291369999999
 20
164.7206339999999
 30
0.0
 40
0.3
100
AcDbArc
 50
276.0
 51
345.501644
  0
ARC
  5
C3EA
330
C2C8
100
AcDbEntity
  8
5
  6
PHANTOM
100
AcDbCircle
 10
168.968398
 20
165.365554
 30
0.0
 40
1.0
100
AcDbArc
 50
166.5287789999999
 51
276.0
  0
LINE
  5
C3EB
330
C2C8
100
AcDbEntity
  8
5
  6
PHANTOM
100
AcDbLine
 10
169.560495
 20
164.422277
 30
0.0
 11
169.072927
 21
164.371032
 31
0.0
  0
ARC
  5
C3EC
330
C2C8
100
AcDbEntity
  8
1
  6
Continuous
100
AcDbCircle
 10
168.693937
 20
207.9250389999999
 30
0.0
 40
26.0
100
AcDbArc
 50
262.5287779999998
 51
299.2352849999999
  0
ARC
  5
C3ED
330
C2C8
100
AcDbEntity
  8
1
  6
Continuous
100
AcDbCircle
 10
168.693937
 20
207.9250389999999
 30
0.0
 40
28.0
100
AcDbArc
 50
261.500981
 51
289.7064299999998
  0
ARC
  5
C3EE
330
C2C8
100
AcDbEntity
  8
1
  6
Continuous
100
AcDbCircle
 10
170.892458
 20
179.0084949999999
 30
0.0
 40
1.0
100
AcDbArc
 50
335.219159
 51
94.347826
  0
ARC
  5
C3EF
330
C2C8
100
AcDbEntity
  8
5
  6
PHANTOM
100
AcDbCircle
 10
175.7336999999999
 20
176.5404039999999
 30
0.0
 40
6.5
100
AcDbArc
 50
70.94827399999998
 51
147.113966
  0
ARC
  5
C3F0
330
C2C8
100
AcDbEntity
  8
1
  6
Continuous
100
AcDbCircle
 10
176.3399639999999
 20
176.493604
 30
0.0
 40
5.0
100
AcDbArc
 50
155.2191589999999
 51
218.6446759999999
  0
ARC
  5
C3F1
330
C2C8
100
AcDbEntity
  8
1
  6
Continuous
100
AcDbCircle
 10
181.88066
 20
184.3642589999998
 30
0.0
 40
1.0
100
AcDbArc
 50
13.076969
 51
119.235285
  0
LINE
  5
C3F2
330
C2C8
100
AcDbEntity
  8
5
  6
PHANTOM
100
AcDbLine
 10
177.8554399999999
 20
182.684361
 30
0.0
 11
178.679752
 21
182.0168469999999
 31
0.0
  0
ARC
  5
C3F3
330
C2C8
100
AcDbEntity
  8
5
  6
PHANTOM
100
AcDbCircle
 10
167.956074
 20
183.0566509999999
 30
0.0
 40
0.3
100
AcDbArc
 50
24.30524800000001
 51
96.0
  0
ARC
  5
C3F4
330
C2C8
100
AcDbEntity
  8
5
  6
PHANTOM
100
AcDbCircle
 10
167.5213469999999
 20
182.307103
 30
0.0
 40
1.0
100
AcDbArc
 50
96.0
 51
203.235285
  0
ARC
  5
C3F5
330
C2C8
100
AcDbEntity
  8
5
  6
PHANTOM
100
AcDbCircle
 10
169.855434
 20
180.341192
 30
0.0
 40
0.5
100
AcDbArc
 50
197.7440239999999
 51
327.113966
  0
LINE
  5
C3F6
330
C2C8
100
AcDbEntity
  8
5
  6
PHANTOM
100
AcDbLine
 10
167.9247159999999
 20
183.355007
 30
0.0
 11
167.416819
 21
183.301625
 31
0.0
  0
LINE
  5
C3F7
330
C2C8
100
AcDbEntity
  8
1
  6
Continuous
100
AcDbLine
 10
164.306958
 20
180.4668079999999
 30
0.0
 11
164.205028
 21
180.9463489999999
 31
0.0
  0
ARC
  5
C3F8
330
C2C8
100
AcDbEntity
  8
1
  6
Continuous
100
AcDbCircle
 10
164.600402
 20
180.5291819999999
 30
0.0
 40
0.3
100
AcDbArc
 50
192.0
 51
261.501644
  0
ARC
  5
C3F9
330
C2C8
100
AcDbEntity
  8
1
  6
Continuous
100
AcDbCircle
 10
191.183176
 20
235.2820939999999
 30
0.0
 40
63.125
100
AcDbArc
 50
74.29924599999998
 51
105.700754
  0
ARC
  5
C3FA
330
C2C8
100
AcDbEntity
  8
1
  6
Continuous
100
AcDbCircle
 10
175.1831759999998
 20
292.2010329999998
 30
0.0
 40
4.0
100
AcDbArc
 50
105.700754
 51
180.0
  0
ARC
  5
C3FB
330
C2C8
100
AcDbEntity
  8
1
  6
Continuous
100
AcDbCircle
 10
207.183176
 20
292.2010329999998
 30
0.0
 40
4.0
100
AcDbArc
 50
0.0
 51
74.29924599999998
  0
ARC
  5
C3FC
330
C2C8
100
AcDbEntity
  8
1
  6
Continuous
100
AcDbCircle
 10
191.183176
 20
317.5320939999999
 30
0.0
 40
63.125
100
AcDbArc
 50
254.2992459999999
 51
285.700754
  0
ARC
  5
C3FD
330
C2C8
100
AcDbEntity
  8
1
  6
Continuous
100
AcDbCircle
 10
175.1831759999998
 20
260.613155
 30
0.0
 40
4.0
100
AcDbArc
 50
180.0
 51
254.2992459999999
  0
ARC
  5
C3FE
330
C2C8
100
AcDbEntity
  8
1
  6
Continuous
100
AcDbCircle
 10
207.183176
 20
260.613155
 30
0.0
 40
4.0
100
AcDbArc
 50
285.700754
 51
0.0
  0
ARC
  5
C3FF
330
C2C8
100
AcDbEntity
  8
1
  6
Continuous
100
AcDbCircle
 10
165.183176
 20
181.154261
 30
0.0
 40
1.0
100
AcDbArc
 50
82.528778
 51
192.0000469999999
  0
ARC
  5
C400
330
C2C8
100
AcDbEntity
  8
1
  6
Continuous
100
AcDbCircle
 10
212.8577359999999
 20
184.907094
 30
0.0
 40
0.5
100
AcDbArc
 50
10.095961
 51
90.0
  0
ARC
  5
C401
330
C2C8
100
AcDbEntity
  8
1
  6
Continuous
100
AcDbCircle
 10
112.308176
 20
166.407094
 30
0.0
 40
63.125
100
AcDbArc
 50
164.2992459999998
 51
195.700754
  0
ARC
  5
C402
330
C2C8
100
AcDbEntity
  8
1
  6
Continuous
100
AcDbCircle
 10
55.389237
 20
182.407094
 30
0.0
 40
4.0
100
AcDbArc
 50
90.0
 51
164.2992459999998
  0
ARC
  5
C403
330
C2C8
100
AcDbEntity
  8
1
  6
Continuous
100
AcDbCircle
 10
55.389237
 20
150.407094
 30
0.0
 40
4.0
100
AcDbArc
 50
195.700754
 51
270.0
  0
ARC
  5
C404
330
C2C8
100
AcDbEntity
  8
1
  6
Continuous
100
AcDbCircle
 10
30.058176
 20
166.407094
 30
0.0
 40
63.125
100
AcDbArc
 50
344.2992459999999
 51
15.700754
  0
LINE
  5
C405
330
C2C8
100
AcDbEntity
  8
1
  6
Continuous
100
AcDbLine
 10
91.933176
 20
153.907094
 30
0.0
 11
91.933176
 21
178.907094
 31
0.0
  0
ARC
  5
C406
330
C2C8
100
AcDbEntity
  8
1
  6
Continuous
100
AcDbCircle
 10
86.977115
 20
182.407094
 30
0.0
 40
4.0
100
AcDbArc
 50
15.700754
 51
90.0
  0
ARC
  5
C407
330
C2C8
100
AcDbEntity
  8
1
  6
Continuous
100
AcDbCircle
 10
86.977115
 20
150.407094
 30
0.0
 40
4.0
100
AcDbArc
 50
270.0
 51
344.2992459999999
  0
ARC
  5
C408
330
C2C8
100
AcDbEntity
  8
1
  6
Continuous
100
AcDbCircle
 10
71.18317600000001
 20
248.792022
 30
0.0
 40
68.86698299999999
100
AcDbArc
 50
264.584085
 51
275.415915
  0
ARC
  5
C409
330
C2C8
100
AcDbEntity
  8
1
  6
Continuous
100
AcDbCircle
 10
72.933176
 20
156.619594
 30
0.0
 40
3.3125
100
AcDbArc
 50
238.109208
 51
301.8907919999999
  0
LINE
  5
C40A
330
C2C8
100
AcDbEntity
  8
1
  6
Continuous
100
AcDbLine
 10
65.958176
 20
158.3070939999998
 30
0.0
 11
76.40817599999998
 21
158.3070939999998
 31
0.0
  0
LINE
  5
C40B
330
C2C8
100
AcDbEntity
  8
1
  6
Continuous
100
AcDbLine
 10
67.683176
 20
153.3070939999998
 30
0.0
 11
74.683176
 21
153.3070939999998
 31
0.0
  0
LINE
  5
C40C
330
C2C8
100
AcDbEntity
  8
1
  6
Continuous
100
AcDbLine
 10
76.40817599999998
 20
157.307094
 30
0.0
 11
65.958176
 21
157.307094
 31
0.0
  0
LINE
  5
C40D
330
C2C8
100
AcDbEntity
  8
1
  6
Continuous
100
AcDbLine
 10
68.183176
 20
159.4070939999998
 30
0.0
 11
68.183176
 21
158.3070939999998
 31
0.0
  0
LINE
  5
C40E
330
C2C8
100
AcDbEntity
  8
1
  6
Continuous
100
AcDbLine
 10
71.18317600000001
 20
153.807094
 30
0.0
 11
71.18317600000001
 21
157.307094
 31
0.0
  0
LINE
  5
C40F
330
C2C8
100
AcDbEntity
  8
1
  6
Continuous
100
AcDbLine
 10
67.683176
 20
153.3070939999998
 30
0.0
 11
67.683176
 21
157.307094
 31
0.0
  0
LINE
  5
C410
330
C2C8
100
AcDbEntity
  8
1
  6
Continuous
100
AcDbLine
 10
65.958176
 20
157.307094
 30
0.0
 11
65.958176
 21
158.3070939999998
 31
0.0
  0
ARC
  5
C411
330
C2C8
100
AcDbEntity
  8
1
  6
Continuous
100
AcDbCircle
 10
69.433176
 20
156.619594
 30
0.0
 40
3.3125
100
AcDbArc
 50
238.109208
 51
301.8907919999999
  0
LINE
  5
C412
330
C2C8
100
AcDbEntity
  8
1
  6
Continuous
100
AcDbLine
 10
74.183176
 20
159.4070939999998
 30
0.0
 11
74.183176
 21
158.3070939999998
 31
0.0
  0
LINE
  5
C413
330
C2C8
100
AcDbEntity
  8
1
  6
Continuous
100
AcDbLine
 10
74.683176
 20
153.3070939999998
 30
0.0
 11
74.683176
 21
157.307094
 31
0.0
  0
LINE
  5
C414
330
C2C8
100
AcDbEntity
  8
1
  6
Continuous
100
AcDbLine
 10
76.40817599999998
 20
157.307094
 30
0.0
 11
76.40817599999998
 21
158.3070939999998
 31
0.0
  0
LINE
  5
C415
330
C2C8
100
AcDbEntity
  8
1
  6
Continuous
100
AcDbLine
 10
61.18317600000001
 20
172.9070939999998
 30
0.0
 11
62.43317600000001
 21
172.9070939999998
 31
0.0
  0
LINE
  5
C416
330
C2C8
100
AcDbEntity
  8
1
  6
Continuous
100
AcDbLine
 10
61.18317600000001
 20
168.907094
 30
0.0
 11
62.43317600000001
 21
168.907094
 31
0.0
  0
LINE
  5
C417
330
C2C8
100
AcDbEntity
  8
1
  6
Continuous
100
AcDbLine
 10
61.18317600000001
 20
170.1070939999999
 30
0.0
 11
62.43317600000001
 21
170.1070939999999
 31
0.0
  0
LINE
  5
C418
330
C2C8
100
AcDbEntity
  8
1
  6
Continuous
100
AcDbLine
 10
79.93317600000001
 20
170.1070939999999
 30
0.0
 11
81.18317600000002
 21
170.1070939999999
 31
0.0
  0
LINE
  5
C419
330
C2C8
100
AcDbEntity
  8
1
  6
Continuous
100
AcDbLine
 10
79.93317600000001
 20
168.907094
 30
0.0
 11
81.18317600000002
 21
168.907094
 31
0.0
  0
LINE
  5
C41A
330
C2C8
100
AcDbEntity
  8
1
  6
Continuous
100
AcDbLine
 10
79.93317600000001
 20
172.9070939999998
 30
0.0
 11
81.18317600000002
 21
172.9070939999998
 31
0.0
  0
LINE
  5
C41B
330
C2C8
100
AcDbEntity
  8
1
  6
Continuous
100
AcDbLine
 10
212.7320719999999
 20
159.7570939999999
 30
0.0
 11
210.0452409999999
 21
159.7570939999999
 31
0.0
  0
ARC
  5
C41C
330
C2C8
100
AcDbEntity
  8
1
  6
Continuous
100
AcDbCircle
 10
212.7320719999999
 20
161.757094
 30
0.0
 40
2.0
100
AcDbArc
 50
270.0
 51
356.660973
  0
LINE
  5
C41D
330
C2C8
100
AcDbEntity
  8
1
  6
Continuous
100
AcDbLine
 10
176.1831759999998
 20
55.15709399999999
 30
0.0
 11
176.1831759999998
 21
56.40709399999999
 31
0.0
  0
LINE
  5
C41E
330
C2C8
100
AcDbEntity
  8
1
  6
Continuous
100
AcDbLine
 10
182.183176
 20
55.15709399999999
 30
0.0
 11
182.183176
 21
56.40709399999999
 31
0.0
  0
LINE
  5
C41F
330
C2C8
100
AcDbEntity
  8
1
  6
Continuous
100
AcDbLine
 10
176.1831759999998
 20
36.407094
 30
0.0
 11
176.1831759999998
 21
37.657094
 31
0.0
  0
LINE
  5
C420
330
C2C8
100
AcDbEntity
  8
1
  6
Continuous
100
AcDbLine
 10
182.183176
 20
36.407094
 30
0.0
 11
182.183176
 21
37.657094
 31
0.0
  0
LINE
  5
C421
330
C2C8
100
AcDbEntity
  8
1
  6
Continuous
100
AcDbLine
 10
180.1831759999998
 20
55.15709399999999
 30
0.0
 11
180.1831759999998
 21
56.40709399999999
 31
0.0
  0
LINE
  5
C422
330
C2C8
100
AcDbEntity
  8
1
  6
Continuous
100
AcDbLine
 10
180.1831759999998
 20
37.657094
 30
0.0
 11
180.1831759999998
 21
36.407094
 31
0.0
  0
ARC
  5
C423
330
C2C8
100
AcDbEntity
  8
1
  6
Continuous
100
AcDbCircle
 10
167.183176
 20
51.907094
 30
0.0
 40
3.0
100
AcDbArc
 50
90.0
 51
180.0
  0
ARC
  5
C424
330
C2C8
100
AcDbEntity
  8
1
  6
Continuous
100
AcDbCircle
 10
167.183176
 20
40.907094
 30
0.0
 40
3.0
100
AcDbArc
 50
180.0
 51
270.0
  0
LINE
  5
C425
330
C2C8
100
AcDbEntity
  8
1
  6
Continuous
100
AcDbLine
 10
172.7011639999998
 20
37.907094
 30
0.0
 11
167.183176
 21
37.907094
 31
0.0
  0
LINE
  5
C426
330
C2C8
100
AcDbEntity
  8
1
  6
Continuous
100
AcDbLine
 10
172.7011639999998
 20
54.907094
 30
0.0
 11
167.183176
 21
54.907094
 31
0.0
  0
LINE
  5
C427
330
C2C8
100
AcDbEntity
  8
1
  6
Continuous
100
AcDbLine
 10
164.183176
 20
51.907094
 30
0.0
 11
164.183176
 21
40.907094
 31
0.0
  0
LINE
  5
C428
330
C2C8
100
AcDbEntity
  8
1
  6
Continuous
100
AcDbLine
 10
311.7992019999999
 20
172.9070939999998
 30
0.0
 11
311.9915569999998
 21
172.9070939999998
 31
0.0
  0
LINE
  5
C429
330
C2C8
100
AcDbEntity
  8
1
  6
Continuous
100
AcDbLine
 10
330.3747959999999
 20
172.9070939999998
 30
0.0
 11
330.5671509999999
 21
172.9070939999998
 31
0.0
  0
LINE
  5
C42A
330
C2C8
100
AcDbEntity
  8
1
  6
Continuous
100
AcDbLine
 10
171.3399639999998
 20
52.05709399999999
 30
0.0
 11
171.3399639999998
 21
54.907094
 31
0.0
  0
LINE
  5
C42B
330
C2C8
100
AcDbEntity
  8
1
  6
Continuous
100
AcDbLine
 10
172.4115669999999
 20
52.05709399999999
 30
0.0
 11
171.3399639999998
 21
52.05709399999999
 31
0.0
  0
LINE
  5
C42C
330
C2C8
100
AcDbEntity
  8
1
  6
Continuous
100
AcDbLine
 10
171.3399639999998
 20
40.757094
 30
0.0
 11
171.3399639999998
 21
37.907094
 31
0.0
  0
LINE
  5
C42D
330
C2C8
100
AcDbEntity
  8
1
  6
Continuous
100
AcDbLine
 10
172.4115669999999
 20
40.757094
 30
0.0
 11
171.3399639999998
 21
40.757094
 31
0.0
  0
LINE
  5
C42E
330
C2C8
100
AcDbEntity
  8
1
  6
Continuous
100
AcDbLine
 10
67.21417599999999
 20
200.407094
 30
0.0
 11
75.15217599999998
 21
200.407094
 31
0.0
  0
LINE
  5
C42F
330
C2C8
100
AcDbEntity
  8
1
  6
Continuous
100
AcDbLine
 10
68.714176
 20
201.907094
 30
0.0
 11
73.65217599999998
 21
201.907094
 31
0.0
  0
LINE
  5
C430
330
C2C8
100
AcDbEntity
  8
1
  6
Continuous
100
AcDbLine
 10
67.21417599999999
 20
200.407094
 30
0.0
 11
68.714176
 21
201.907094
 31
0.0
  0
LINE
  5
C431
330
C2C8
100
AcDbEntity
  8
2
  6
Continuous
100
AcDbLine
 10
68.11817600000001
 20
191.4728679999998
 30
0.0
 11
68.11817600000001
 21
201.3110939999999
 31
0.0
  0
LINE
  5
C432
330
C2C8
100
AcDbEntity
  8
1
  6
Continuous
100
AcDbLine
 10
67.21417599999999
 20
189.907094
 30
0.0
 11
67.21417599999999
 21
200.407094
 31
0.0
  0
LINE
  5
C433
330
C2C8
100
AcDbEntity
  8
1
  6
Continuous
100
AcDbLine
 10
75.15217599999998
 20
200.407094
 30
0.0
 11
73.65217599999998
 21
201.907094
 31
0.0
  0
LINE
  5
C434
330
C2C8
100
AcDbEntity
  8
2
  6
Continuous
100
AcDbLine
 10
74.248176
 20
191.4728679999998
 30
0.0
 11
74.248176
 21
201.3110939999999
 31
0.0
  0
LINE
  5
C435
330
C2C8
100
AcDbEntity
  8
1
  6
Continuous
100
AcDbLine
 10
75.15217599999998
 20
189.907094
 30
0.0
 11
75.15217599999998
 21
200.407094
 31
0.0
  0
LINE
  5
C436
330
C2C8
100
AcDbEntity
  8
2
  6
Continuous
100
AcDbLine
 10
203.1181759999999
 20
191.4728679999998
 30
0.0
 11
203.1181759999999
 21
201.3110939999999
 31
0.0
  0
LINE
  5
C437
330
C2C8
100
AcDbEntity
  8
1
  6
Continuous
100
AcDbLine
 10
202.214176
 20
189.907094
 30
0.0
 11
202.214176
 21
200.407094
 31
0.0
  0
LINE
  5
C438
330
C2C8
100
AcDbEntity
  8
2
  6
Continuous
100
AcDbLine
 10
209.248176
 20
191.4728679999998
 30
0.0
 11
209.248176
 21
201.3110939999999
 31
0.0
  0
LINE
  5
C439
330
C2C8
100
AcDbEntity
  8
1
  6
Continuous
100
AcDbLine
 10
210.1521759999999
 20
189.907094
 30
0.0
 11
210.1521759999999
 21
200.407094
 31
0.0
  0
LINE
  5
C43A
330
C2C8
100
AcDbEntity
  8
1
  6
Continuous
100
AcDbLine
 10
210.1521759999999
 20
200.407094
 30
0.0
 11
208.652176
 21
201.907094
 31
0.0
  0
LINE
  5
C43B
330
C2C8
100
AcDbEntity
  8
1
  6
Continuous
100
AcDbLine
 10
202.214176
 20
200.407094
 30
0.0
 11
203.7141759999999
 21
201.907094
 31
0.0
  0
LINE
  5
C43C
330
C2C8
100
AcDbEntity
  8
1
  6
Continuous
100
AcDbLine
 10
202.214176
 20
200.407094
 30
0.0
 11
210.1521759999999
 21
200.407094
 31
0.0
  0
LINE
  5
C43D
330
C2C8
100
AcDbEntity
  8
1
  6
Continuous
100
AcDbLine
 10
203.7141759999999
 20
201.907094
 30
0.0
 11
208.652176
 21
201.907094
 31
0.0
  0
LINE
  5
C43E
330
C2C8
100
AcDbEntity
  8
1
  6
Continuous
100
AcDbLine
 10
325.152176
 20
189.907094
 30
0.0
 11
325.152176
 21
200.407094
 31
0.0
  0
LINE
  5
C43F
330
C2C8
100
AcDbEntity
  8
2
  6
Continuous
100
AcDbLine
 10
324.2481759999999
 20
191.4728679999998
 30
0.0
 11
324.2481759999999
 21
201.3110939999999
 31
0.0
  0
LINE
  5
C440
330
C2C8
100
AcDbEntity
  8
1
  6
Continuous
100
AcDbLine
 10
317.2141759999998
 20
189.907094
 30
0.0
 11
317.2141759999998
 21
200.407094
 31
0.0
  0
LINE
  5
C441
330
C2C8
100
AcDbEntity
  8
2
  6
Continuous
100
AcDbLine
 10
318.118176
 20
191.4728679999998
 30
0.0
 11
318.118176
 21
201.3110939999999
 31
0.0
  0
LINE
  5
C442
330
C2C8
100
AcDbEntity
  8
1
  6
Continuous
100
AcDbLine
 10
318.7141759999998
 20
201.907094
 30
0.0
 11
323.652176
 21
201.907094
 31
0.0
  0
LINE
  5
C443
330
C2C8
100
AcDbEntity
  8
1
  6
Continuous
100
AcDbLine
 10
317.2141759999998
 20
200.407094
 30
0.0
 11
325.152176
 21
200.407094
 31
0.0
  0
LINE
  5
C444
330
C2C8
100
AcDbEntity
  8
1
  6
Continuous
100
AcDbLine
 10
317.2141759999998
 20
200.407094
 30
0.0
 11
318.7141759999998
 21
201.907094
 31
0.0
  0
LINE
  5
C445
330
C2C8
100
AcDbEntity
  8
1
  6
Continuous
100
AcDbLine
 10
325.152176
 20
200.407094
 30
0.0
 11
323.652176
 21
201.907094
 31
0.0
  0
CIRCLE
  5
C446
330
C2C8
100
AcDbEntity
  8
1
  6
Continuous
100
AcDbCircle
 10
206.183176
 20
276.4070939999999
 30
0.0
 40
3.968999999999999
  0
CIRCLE
  5
C447
330
C2C8
100
AcDbEntity
  8
2
  6
Continuous
100
AcDbCircle
 10
206.183176
 20
276.4070939999999
 30
0.0
 40
3.064999999999998
  0
ARC
  5
C448
330
C2C8
100
AcDbEntity
  8
1
  6
Continuous
100
AcDbCircle
 10
466.026388
 20
176.493604
 30
0.0
 40
5.0
100
AcDbArc
 50
321.3553239999999
 51
24.780841
  0
ARC
  5
C449
330
C2C8
100
AcDbEntity
  8
5
  6
PHANTOM
100
AcDbCircle
 10
499.6551039999998
 20
171.6553899999999
 30
0.0
 40
28.0
100
AcDbArc
 50
155.694752
 51
194.498356
  0
ARC
  5
C44A
330
C2C8
100
AcDbEntity
  8
5
  6
PHANTOM
100
AcDbCircle
 10
499.6551039999998
 20
171.6553899999999
 30
0.0
 40
26.0
100
AcDbArc
 50
156.7647149999999
 51
193.4712209999999
  0
LINE
  5
C44B
330
C2C8
100
AcDbEntity
  8
4
  6
CENTER
100
AcDbLine
 10
451.1831759999998
 20
141.407094
 30
0.0
 11
451.1831759999998
 21
191.407094
 31
0.0
  0
LINE
  5
C44C
330
C2C8
100
AcDbEntity
  8
4
  6
CENTER
100
AcDbLine
 10
436.183176
 20
146.407094
 30
0.0
 11
436.183176
 21
206.907094
 31
0.0
  0
CIRCLE
  5
C44D
330
C2C8
100
AcDbEntity
  8
1
  6
Continuous
100
AcDbCircle
 10
451.1831759999998
 20
166.407094
 30
0.0
 40
12.5
  0
ARC
  5
C44E
330
C2C8
100
AcDbEntity
  8
1
  6
Continuous
100
AcDbCircle
 10
527.4679129999998
 20
167.46501
 30
0.0
 40
100.0
100
AcDbArc
 50
169.9040389999999
 51
183.339027
  0
CIRCLE
  5
C44F
330
C2C8
100
AcDbEntity
  8
1
  6
Continuous
100
AcDbCircle
 10
451.1831759999998
 20
166.407094
 30
0.0
 40
20.0
  0
LINE
  5
C450
330
C2C8
100
AcDbEntity
  8
4
  6
CENTER
100
AcDbLine
 10
422.473509
 20
166.407094
 30
0.0
 11
476.1831759999998
 21
166.407094
 31
0.0
  0
LINE
  5
C451
330
C2C8
100
AcDbEntity
  8
5
  6
PHANTOM
100
AcDbLine
 10
472.8058569999998
 20
164.422277
 30
0.0
 11
473.293425
 21
164.371032
 31
0.0
  0
ARC
  5
C452
330
C2C8
100
AcDbEntity
  8
5
  6
PHANTOM
100
AcDbCircle
 10
473.3979539999999
 20
165.365554
 30
0.0
 40
1.0
100
AcDbArc
 50
264.0
 51
13.47122099999998
  0
ARC
  5
C453
330
C2C8
100
AcDbEntity
  8
5
  6
PHANTOM
100
AcDbCircle
 10
472.837215
 20
164.7206339999999
 30
0.0
 40
0.3
100
AcDbArc
 50
194.498356
 51
264.0
  0
ARC
  5
C454
330
C2C8
100
AcDbEntity
  8
5
  6
PHANTOM
100
AcDbCircle
 10
470.6671599999999
 20
170.8192659999999
 30
0.0
 40
1.0
100
AcDbArc
 50
1.652174
 51
102.89272
  0
ARC
  5
C455
330
C2C8
100
AcDbEntity
  8
1
  6
Continuous
100
AcDbCircle
 10
429.6342809999998
 20
161.757094
 30
0.0
 40
2.0
100
AcDbArc
 50
183.339027
 51
270.0
  0
LINE
  5
C456
330
C2C8
100
AcDbEntity
  8
1
  6
Continuous
100
AcDbLine
 10
429.6342809999998
 20
159.7570939999999
 30
0.0
 11
432.3211109999999
 21
159.7570939999999
 31
0.0
  0
ARC
  5
C457
330
C2C8
100
AcDbEntity
  8
5
  6
PHANTOM
100
AcDbCircle
 10
466.6326519999998
 20
176.5404039999999
 30
0.0
 40
6.5
100
AcDbArc
 50
32.886034
 51
109.051726
  0
ARC
  5
C458
330
C2C8
100
AcDbEntity
  8
1
  6
Continuous
100
AcDbCircle
 10
473.672415
 20
207.9250389999999
 30
0.0
 40
28.0
100
AcDbArc
 50
250.2935699999999
 51
278.4990189999999
  0
ARC
  5
C459
330
C2C8
100
AcDbEntity
  8
1
  6
Continuous
100
AcDbCircle
 10
473.672415
 20
207.9250389999999
 30
0.0
 40
26.0
100
AcDbArc
 50
240.7647149999999
 51
277.471222
  0
ARC
  5
C45A
330
C2C8
100
AcDbEntity
  8
1
  6
Continuous
100
AcDbCircle
 10
477.1831769999998
 20
181.154261
 30
0.0
 40
1.0
100
AcDbArc
 50
347.999953
 51
97.47122199999999
  0
ARC
  5
C45B
330
C2C8
100
AcDbEntity
  8
1
  6
Continuous
100
AcDbCircle
 10
477.7659499999998
 20
180.5291819999999
 30
0.0
 40
0.3
100
AcDbArc
 50
278.498356
 51
348.0
  0
LINE
  5
C45C
330
C2C8
100
AcDbEntity
  8
1
  6
Continuous
100
AcDbLine
 10
478.0593940000001
 20
180.4668079999999
 30
0.0
 11
478.1613239999998
 21
180.9463489999999
 31
0.0
  0
LINE
  5
C45D
330
C2C8
100
AcDbEntity
  8
5
  6
PHANTOM
100
AcDbLine
 10
474.441636
 20
183.355007
 30
0.0
 11
474.949533
 21
183.301625
 31
0.0
  0
ARC
  5
C45E
330
C2C8
100
AcDbEntity
  8
5
  6
PHANTOM
100
AcDbCircle
 10
472.5109179999998
 20
180.341192
 30
0.0
 40
0.5
100
AcDbArc
 50
212.886034
 51
342.2559759999999
  0
ARC
  5
C45F
330
C2C8
100
AcDbEntity
  8
5
  6
PHANTOM
100
AcDbCircle
 10
474.8450049999998
 20
182.307103
 30
0.0
 40
1.0
100
AcDbArc
 50
336.7647149999999
 51
84.0
  0
ARC
  5
C460
330
C2C8
100
AcDbEntity
  8
5
  6
PHANTOM
100
AcDbCircle
 10
474.410278
 20
183.0566509999999
 30
0.0
 40
0.3
100
AcDbArc
 50
84.0
 51
155.694752
  0
ARC
  5
C461
330
C2C8
100
AcDbEntity
  8
1
  6
Continuous
100
AcDbCircle
 10
471.473894
 20
179.0084949999999
 30
0.0
 40
1.0
100
AcDbArc
 50
85.65217399999998
 51
204.780841
  0
LINE
  5
C462
330
C2C8
100
AcDbEntity
  8
5
  6
PHANTOM
100
AcDbLine
 10
464.5109119999998
 20
182.684361
 30
0.0
 11
463.6866
 21
182.0168469999999
 31
0.0
  0
ARC
  5
C463
330
C2C8
100
AcDbEntity
  8
1
  6
Continuous
100
AcDbCircle
 10
460.4856919999998
 20
184.3642589999998
 30
0.0
 40
1.0
100
AcDbArc
 50
60.764715
 51
166.923031
  0
LINE
  5
C464
330
C2C8
100
AcDbEntity
  8
1
  6
Continuous
100
AcDbLine
 10
432.214176
 20
189.907094
 30
0.0
 11
432.214176
 21
200.407094
 31
0.0
  0
LINE
  5
C465
330
C2C8
100
AcDbEntity
  8
2
  6
Continuous
100
AcDbLine
 10
433.1181759999998
 20
191.4728679999998
 30
0.0
 11
433.1181759999998
 21
201.3110939999999
 31
0.0
  0
LINE
  5
C466
330
C2C8
100
AcDbEntity
  8
1
  6
Continuous
100
AcDbLine
 10
440.152176
 20
189.907094
 30
0.0
 11
440.152176
 21
200.407094
 31
0.0
  0
LINE
  5
C467
330
C2C8
100
AcDbEntity
  8
2
  6
Continuous
100
AcDbLine
 10
439.2481759999998
 20
191.4728679999998
 30
0.0
 11
439.2481759999998
 21
201.3110939999999
 31
0.0
  0
LINE
  5
C468
330
C2C8
100
AcDbEntity
  8
1
  6
Continuous
100
AcDbLine
 10
428.183176
 20
185.4070939999998
 30
0.0
 11
444.183176
 21
185.4070939999998
 31
0.0
  0
LINE
  5
C469
330
C2C8
100
AcDbEntity
  8
1
  6
Continuous
100
AcDbLine
 10
428.183176
 20
189.907094
 30
0.0
 11
444.183176
 21
189.907094
 31
0.0
  0
ARC
  5
C46A
330
C2C8
100
AcDbEntity
  8
1
  6
Continuous
100
AcDbCircle
 10
446.431932
 20
190.951455
 30
0.0
 40
6.0
100
AcDbArc
 50
247.5270599999999
 51
251.4143269999999
  0
ARC
  5
C46B
330
C2C8
100
AcDbEntity
  8
1
  6
Continuous
100
AcDbCircle
 10
440.8759869999998
 20
187.657094
 30
0.0
 40
4.0
100
AcDbArc
 50
325.7711339999999
 51
34.228866
  0
ARC
  5
C46C
330
C2C8
100
AcDbEntity
  8
1
  6
Continuous
100
AcDbCircle
 10
436.7405749999998
 20
187.657094
 30
0.0
 40
4.0
100
AcDbArc
 50
325.7711339999999
 51
34.228866
  0
ARC
  5
C46D
330
C2C8
100
AcDbEntity
  8
1
  6
Continuous
100
AcDbCircle
 10
429.508617
 20
184.907094
 30
0.0
 40
0.5
100
AcDbArc
 50
90.0
 51
169.9040389999999
  0
ARC
  5
C46E
330
C2C8
100
AcDbEntity
  8
1
  6
Continuous
100
AcDbCircle
 10
431.490365
 20
187.657094
 30
0.0
 40
4.0
100
AcDbArc
 50
145.7711339999999
 51
214.228866
  0
ARC
  5
C46F
330
C2C8
100
AcDbEntity
  8
1
  6
Continuous
100
AcDbCircle
 10
435.625777
 20
187.657094
 30
0.0
 40
4.0
100
AcDbArc
 50
146.83235
 51
214.228866
  0
LINE
  5
C470
330
C2C8
100
AcDbEntity
  8
1
  6
Continuous
100
AcDbLine
 10
438.6521759999998
 20
201.907094
 30
0.0
 11
433.7141759999998
 21
201.907094
 31
0.0
  0
LINE
  5
C471
330
C2C8
100
AcDbEntity
  8
1
  6
Continuous
100
AcDbLine
 10
440.152176
 20
200.407094
 30
0.0
 11
432.214176
 21
200.407094
 31
0.0
  0
LINE
  5
C472
330
C2C8
100
AcDbEntity
  8
1
  6
Continuous
100
AcDbLine
 10
440.152176
 20
200.407094
 30
0.0
 11
438.6521759999998
 21
201.907094
 31
0.0
  0
LINE
  5
C473
330
C2C8
100
AcDbEntity
  8
1
  6
Continuous
100
AcDbLine
 10
432.214176
 20
200.407094
 30
0.0
 11
433.7141759999998
 21
201.907094
 31
0.0
  0
LINE
  5
C474
330
C2C8
100
AcDbEntity
  8
1
  6
Continuous
100
AcDbLine
 10
321.933176
 20
158.3070939999998
 30
0.0
 11
326.4081759999999
 21
158.3070939999998
 31
0.0
  0
CIRCLE
  5
C475
330
C2C8
100
AcDbEntity
  8
1
  6
Continuous
100
AcDbCircle
 10
206.183176
 20
276.4070939999999
 30
0.0
 40
2.468999999999998
  0
LINE
  5
C476
330
C2C8
100
AcDbEntity
  8
2
  6
Continuous
100
AcDbLine
 10
67.21417599999999
 20
189.907094
 30
0.0
 11
68.11817600000001
 21
191.4728679999998
 31
0.0
  0
LINE
  5
C477
330
C2C8
100
AcDbEntity
  8
1
  6
Continuous
100
AcDbLine
 10
67.21417599999999
 20
191.4728679999998
 30
0.0
 11
75.15217599999998
 21
191.4728679999998
 31
0.0
  0
LINE
  5
C478
330
C2C8
100
AcDbEntity
  8
2
  6
Continuous
100
AcDbLine
 10
75.15217599999998
 20
189.907094
 30
0.0
 11
74.248176
 21
191.4728679999998
 31
0.0
  0
LINE
  5
C479
330
C2C8
100
AcDbEntity
  8
2
  6
Continuous
100
AcDbLine
 10
202.214176
 20
189.907094
 30
0.0
 11
203.1181759999999
 21
191.4728679999998
 31
0.0
  0
LINE
  5
C47A
330
C2C8
100
AcDbEntity
  8
2
  6
Continuous
100
AcDbLine
 10
210.1521759999999
 20
189.907094
 30
0.0
 11
209.248176
 21
191.4728679999998
 31
0.0
  0
LINE
  5
C47B
330
C2C8
100
AcDbEntity
  8
1
  6
Continuous
100
AcDbLine
 10
202.214176
 20
191.4728679999998
 30
0.0
 11
210.1521759999999
 21
191.4728679999998
 31
0.0
  0
LINE
  5
C47C
330
C2C8
100
AcDbEntity
  8
2
  6
Continuous
100
AcDbLine
 10
317.2141759999998
 20
189.907094
 30
0.0
 11
318.118176
 21
191.4728679999998
 31
0.0
  0
LINE
  5
C47D
330
C2C8
100
AcDbEntity
  8
1
  6
Continuous
100
AcDbLine
 10
317.2141759999998
 20
191.4728679999998
 30
0.0
 11
325.152176
 21
191.4728679999998
 31
0.0
  0
LINE
  5
C47E
330
C2C8
100
AcDbEntity
  8
2
  6
Continuous
100
AcDbLine
 10
325.152176
 20
189.907094
 30
0.0
 11
324.2481759999999
 21
191.4728679999998
 31
0.0
  0
LINE
  5
C47F
330
C2C8
100
AcDbEntity
  8
1
  6
Continuous
100
AcDbLine
 10
432.214176
 20
191.4728679999998
 30
0.0
 11
440.152176
 21
191.4728679999998
 31
0.0
  0
LINE
  5
C480
330
C2C8
100
AcDbEntity
  8
2
  6
Continuous
100
AcDbLine
 10
432.214176
 20
189.907094
 30
0.0
 11
433.1181759999998
 21
191.4728679999998
 31
0.0
  0
LINE
  5
C481
330
C2C8
100
AcDbEntity
  8
2
  6
Continuous
100
AcDbLine
 10
440.152176
 20
189.907094
 30
0.0
 11
439.2481759999998
 21
191.4728679999998
 31
0.0
  0
ENDSEC
  0
SECTION
  2
OBJECTS
  0
DICTIONARY
  5
C2B6
330
0
100
AcDbDictionary
281
     1
  3
ACAD_CIP_PREVIOUS_PRODUCT_INFO
350
C4E3
  3
ACAD_COLOR
350
C4C5
  3
ACAD_DETAILVIEWSTYLE
350
C4DE
  3
ACAD_GROUP
350
C2B7
  3
ACAD_LAYOUT
350
C2C3
  3
ACAD_MATERIAL
350
C493
  3
ACAD_MLEADERSTYLE
350
C4DA
  3
ACAD_MLINESTYLE
350
C2C0
  3
ACAD_PLOTSETTINGS
350
C2C2
  3
ACAD_PLOTSTYLENAME
350
C491
  3
ACAD_SCALELIST
350
C4C8
  3
ACAD_SECTIONVIEWSTYLE
350
C4DC
  3
ACAD_TABLESTYLE
350
C4C6
  3
ACAD_VISUALSTYLE
350
C4AC
  3
ACDB_RECOMPOSE_DATA
350
C548
  3
AcDbVariableDictionary
350
C4F6
  3
DWGPROPS
350
C549
  0
DICTIONARY
  5
C4E6
330
C2BA
100
AcDbDictionary
280
     1
281
     1
  3
ADSK_XREC_LAYER_RECONCILED
360
C4E7
  0
DICTIONARY
  5
C4E8
330
C2D0
100
AcDbDictionary
280
     1
281
     1
  3
ADSK_XREC_LAYER_RECONCILED
360
C4E9
  0
DICTIONARY
  5
C4EA
330
C2D1
100
AcDbDictionary
280
     1
281
     1
  3
ADSK_XREC_LAYER_RECONCILED
360
C4EB
  0
DICTIONARY
  5
C4EC
330
C2D2
100
AcDbDictionary
280
     1
281
     1
  3
ADSK_XREC_LAYER_RECONCILED
360
C4ED
  0
DICTIONARY
  5
C4EE
330
C2D3
100
AcDbDictionary
280
     1
281
     1
  3
ADSK_XREC_LAYER_RECONCILED
360
C4EF
  0
DICTIONARY
  5
C4F0
330
C2D4
100
AcDbDictionary
280
     1
281
     1
  3
ADSK_XREC_LAYER_RECONCILED
360
C4F1
  0
DICTIONARY
  5
C4F2
330
C2D5
100
AcDbDictionary
280
     1
281
     1
  3
ADSK_XREC_LAYER_RECONCILED
360
C4F3
  0
DICTIONARY
  5
C4F4
330
C2D6
100
AcDbDictionary
280
     1
281
     1
  3
ADSK_XREC_LAYER_RECONCILED
360
C4F5
  0
DICTIONARY
  5
C48C
330
C2C8
100
AcDbDictionary
281
     1
  3
ACAD_LAYOUTSELFREF
350
C48D
  0
DICTIONARY
  5
C48A
330
C2C4
100
AcDbDictionary
281
     1
  3
ACAD_LAYOUTSELFREF
350
C48B
  0
XRECORD
  5
C4E3
102
{ACAD_REACTORS
330
C2B6
102
}
330
C2B6
100
AcDbXrecord
280
     1
300
ACDLT
300
2014
300
ACDLT_F_S
  0
DICTIONARY
  5
C4C5
102
{ACAD_REACTORS
330
C2B6
102
}
330
C2B6
100
AcDbDictionary
281
     1
  0
DICTIONARY
  5
C4DE
102
{ACAD_REACTORS
330
C2B6
102
}
330
C2B6
100
AcDbDictionary
281
     1
  3
Imperial24
350
C4DF
  0
DICTIONARY
  5
C2B7
102
{ACAD_REACTORS
330
C2B6
102
}
330
C2B6
100
AcDbDictionary
281
     1
  0
DICTIONARY
  5
C2C3
102
{ACAD_REACTORS
330
C2B6
102
}
330
C2B6
100
AcDbDictionary
281
     1
  3
Model
350
C4E0
  3
レイアウト1
350
C4E1
  0
DICTIONARY
  5
C493
102
{ACAD_REACTORS
330
C2B6
102
}
330
C2B6
100
AcDbDictionary
281
     1
  3
ByBlock
350
C49C
  3
ByLayer
350
C494
  3
Global
350
C4A4
  0
DICTIONARY
  5
C4DA
102
{ACAD_REACTORS
330
C2B6
102
}
330
C2B6
100
AcDbDictionary
281
     1
  3
Standard
350
C4DB
  0
DICTIONARY
  5
C2C0
102
{ACAD_REACTORS
330
C2B6
102
}
330
C2B6
100
AcDbDictionary
281
     1
  3
STANDARD
350
C2C1
  0
DICTIONARY
  5
C2C2
102
{ACAD_REACTORS
330
C2B6
102
}
330
C2B6
100
AcDbDictionary
281
     1
  0
ACDBDICTIONARYWDFLT
  5
C491
102
{ACAD_REACTORS
330
C2B6
102
}
330
C2B6
100
AcDbDictionary
281
     1
  3
Normal
350
C492
100
AcDbDictionaryWithDefault
340
C492
  0
DICTIONARY
  5
C4C8
102
{ACAD_REACTORS
330
C2B6
102
}
330
C2B6
100
AcDbDictionary
281
     1
  3
A0
350
C4C9
  3
A1
350
C4CA
  3
A2
350
C4CB
  3
A3
350
C4CC
  3
A4
350
C4CD
  3
A5
350
C4CE
  3
A6
350
C4CF
  3
A7
350
C4D0
  3
A8
350
C4D1
  3
A9
350
C4D2
  3
B0
350
C4D3
  3
B1
350
C4D4
  3
B2
350
C4D5
  3
B3
350
C4D6
  3
B4
350
C4D7
  3
B5
350
C4D8
  3
B6
350
C4D9
  0
DICTIONARY
  5
C4DC
102
{ACAD_REACTORS
330
C2B6
102
}
330
C2B6
100
AcDbDictionary
281
     1
  3
Imperial24
350
C4DD
  0
DICTIONARY
  5
C4C6
102
{ACAD_REACTORS
330
C2B6
102
}
330
C2B6
100
AcDbDictionary
281
     1
  3
Standard
350
C4C7
  0
DICTIONARY
  5
C4AC
102
{ACAD_REACTORS
330
C2B6
102
}
330
C2B6
100
AcDbDictionary
281
     1
  3
2dWireframe
350
C4B2
  3
Basic
350
C4B1
  3
Brighten
350
C4B8
  3
ColorChange
350
C4BC
  3
Conceptual
350
C4B5
  3
Dim
350
C4B7
  3
EdgeColorOff
350
C4C4
  3
Facepattern
350
C4BB
  3
Flat
350
C4AD
  3
FlatWithEdges
350
C4AE
  3
Gouraud
350
C4AF
  3
GouraudWithEdges
350
C4B0
  3
Hidden
350
C4B4
  3
JitterOff
350
C4C2
  3
Linepattern
350
C4BA
  3
OverhangOff
350
C4C3
  3
Realistic
350
C4B6
  3
Shaded
350
C4C1
  3
Shaded with edges
350
C4C0
  3
Shades of Gray
350
C4BD
  3
Sketchy
350
C4BE
  3
Thicken
350
C4B9
  3
Wireframe
350
C4B3
  3
X-Ray
350
C4BF
  0
XRECORD
  5
C548
102
{ACAD_REACTORS
330
C2B6
102
}
330
C2B6
100
AcDbXrecord
280
     1
 90
        1
330
C4C7
  0
DICTIONARY
  5
C4F6
102
{ACAD_REACTORS
330
C2B6
102
}
330
C2B6
100
AcDbDictionary
281
     1
  3
CANNOSCALE
350
C4FB
  3
CMLEADERSTYLE
350
C4F8
  3
CTABLESTYLE
350
C4F7
  3
CVIEWDETAILSTYLE
350
C4F9
  3
CVIEWSECTIONSTYLE
350
C4FA
  3
DIMASSOC
350
C4FE
  3
INDEXCTL
350
C4FD
  3
SORTENTS
350
C4FC
  3
XCLIPFRAME
350
C546
  0
XRECORD
  5
C549
102
{ACAD_REACTORS
330
C2B6
102
}
330
C2B6
100
AcDbXrecord
280
     1
  1
DWGPROPS COOKIE
  2

  3

  4

  6

  7

  8
Yoshitsune
  9

300
=
301
=
302
=
303
=
304
=
305
=
306
=
307
=
308
=
309
=
 40
0.0056075
 41
2451301.392893982
 42
2457192.692462928
  1

 90
        0
  0
XRECORD
  5
C4E7
102
{ACAD_REACTORS
330
C4E6
102
}
330
C4E6
100
AcDbXrecord
280
     1
290
     1
  0
XRECORD
  5
C4E9
102
{ACAD_REACTORS
330
C4E8
102
}
330
C4E8
100
AcDbXrecord
280
     1
290
     1
  0
XRECORD
  5
C4EB
102
{ACAD_REACTORS
330
C4EA
102
}
330
C4EA
100
AcDbXrecord
280
     1
290
     1
  0
XRECORD
  5
C4ED
102
{ACAD_REACTORS
330
C4EC
102
}
330
C4EC
100
AcDbXrecord
280
     1
290
     1
  0
XRECORD
  5
C4EF
102
{ACAD_REACTORS
330
C4EE
102
}
330
C4EE
100
AcDbXrecord
280
     1
290
     1
  0
XRECORD
  5
C4F1
102
{ACAD_REACTORS
330
C4F0
102
}
330
C4F0
100
AcDbXrecord
280
     1
290
     1
  0
XRECORD
  5
C4F3
102
{ACAD_REACTORS
330
C4F2
102
}
330
C4F2
100
AcDbXrecord
280
     1
290
     1
  0
XRECORD
  5
C4F5
102
{ACAD_REACTORS
330
C4F4
102
}
330
C4F4
100
AcDbXrecord
280
     1
290
     1
  0
XRECORD
  5
C48D
102
{ACAD_REACTORS
330
C48C
102
}
330
C48C
100
AcDbXrecord
280
     1
340
C2C8
  0
XRECORD
  5
C48B
102
{ACAD_REACTORS
330
C48A
102
}
330
C48A
100
AcDbXrecord
280
     1
340
C2C4
  0
ACDBDETAILVIEWSTYLE
  5
C4DF
102
{ACAD_XDICTIONARY
360
C57D
102
}
102
{ACAD_REACTORS
330
C4DE
102
}
330
C4DE
100
AcDbModelDocViewStyle
 70
     0
  3
Imperial24
290
     0
100
AcDbDetailViewStyle
 70
     0
 71
     0
 90
        3
 71
     1
340
C2BB
 40
0.24
340
0
 40
0.24
300

 40
0.36
280
     3
 71
     2
340
C2BF
 90
       25
 71
     3
340
C2BB
 40
0.24
 90
        1
 40
0.75
 90
        1
300
%<\AcVar ViewType \f "%tc1">% %<\AcVar ViewDetailId>%\PSCALE %<\AcVar ViewScale \f "%sn">%
 71
     4
340
C2BF
 90
       25
340
C2BF
 90
       25
280
     0
  0
LAYOUT
  5
C4E0
102
{ACAD_XDICTIONARY
360
C57F
102
}
102
{ACAD_REACTORS
330
C2C3
102
}
330
C2C3
100
AcDbPlotSettings
  1

  2
Canon LBP9100C
  4

  6

 40
0.0
 41
0.0
 42
0.0
 43
0.0
 44
0.0
 45
0.0
 46
0.0
 47
0.0
 48
0.0
 49
0.0
140
0.0
141
0.0
142
1.0
143
1.0
 70
  1712
 72
     0
 73
     0
 74
     0
  7

 75
     0
147
1.0
148
0.0
149
0.0
100
AcDbLayout
  1
Model
 70
     1
 71
     0
 10
0.0
 20
0.0
 11
12.0
 21
9.0
 12
0.0
 22
0.0
 32
0.0
 14
0.0
 24
0.0
 34
0.0
 15
0.0
 25
0.0
 35
0.0
146
0.0
 13
0.0
 23
0.0
 33
0.0
 16
1.0
 26
0.0
 36
0.0
 17
0.0
 27
1.0
 37
0.0
 76
     0
330
C2C8
331
C489
  0
LAYOUT
  5
C4E1
102
{ACAD_XDICTIONARY
360
C581
102
}
102
{ACAD_REACTORS
330
C2C3
102
}
330
C2C3
100
AcDbPlotSettings
  1

  2
Canon LBP9100C
  4

  6

 40
0.0
 41
0.0
 42
0.0
 43
0.0
 44
0.0
 45
0.0
 46
0.0
 47
0.0
 48
0.0
 49
0.0
140
0.0
141
0.0
142
1.0
143
1.0
 70
   688
 72
     0
 73
     0
 74
     5
  7

 75
    16
147
1.0
148
0.0
149
0.0
100
AcDbLayout
  1
レイアウト1
 70
     0
 71
     1
 10
0.0
 20
0.0
 11
420.0
 21
297.0
 12
0.0
 22
0.0
 32
0.0
 14
1.000000000000000E+20
 24
1.000000000000000E+20
 34
1.000000000000000E+20
 15
-1.000000000000000E+20
 25
-1.000000000000000E+20
 35
-1.000000000000000E+20
146
0.0
 13
0.0
 23
0.0
 33
0.0
 16
1.0
 26
0.0
 36
0.0
 17
0.0
 27
1.0
 37
0.0
 76
     0
330
C2C4
  0
MATERIAL
  5
C49C
102
{ACAD_XDICTIONARY
360
C49D
102
}
102
{ACAD_REACTORS
330
C493
102
}
330
C493
100
AcDbMaterial
  1
ByBlock
 72
     0
 43
0.0208333333333333
 43
0.0
 43
0.0
 43
0.0
 43
0.0
 43
0.0208333333333333
 43
0.0
 43
0.0
 43
0.0
 43
0.0
 43
1.0
 43
0.0
 43
0.0
 43
0.0
 43
0.0
 43
1.0
 77
     0
 47
0.0208333333333333
 47
0.0
 47
0.0
 47
0.0
 47
0.0
 47
0.0208333333333333
 47
0.0
 47
0.0
 47
0.0
 47
0.0
 47
1.0
 47
0.0
 47
0.0
 47
0.0
 47
0.0
 47
1.0
171
     0
 49
0.0208333333333333
 49
0.0
 49
0.0
 49
0.0
 49
0.0
 49
0.0208333333333333
 49
0.0
 49
0.0
 49
0.0
 49
0.0
 49
1.0
 49
0.0
 49
0.0
 49
0.0
 49
0.0
 49
1.0
175
     0
142
0.0208333333333333
142
0.0
142
0.0
142
0.0
142
0.0
142
0.0208333333333333
142
0.0
142
0.0
142
0.0
142
0.0
142
1.0
142
0.0
142
0.0
142
0.0
142
0.0
142
1.0
179
     0
144
0.0208333333333333
144
0.0
144
0.0
144
0.0
144
0.0
144
0.0208333333333333
144
0.0
144
0.0
144
0.0
144
0.0
144
1.0
144
0.0
144
0.0
144
0.0
144
0.0
144
1.0
147
0.0208333333333333
147
0.0
147
0.0
147
0.0
147
0.0
147
0.0208333333333333
147
0.0
147
0.0
147
0.0
147
0.0
147
1.0
147
0.0
147
0.0
147
0.0
147
0.0
147
1.0
  0
MATERIAL
  5
C494
102
{ACAD_XDICTIONARY
360
C495
102
}
102
{ACAD_REACTORS
330
C493
102
}
330
C493
100
AcDbMaterial
  1
ByLayer
 72
     0
 43
0.0208333333333333
 43
0.0
 43
0.0
 43
0.0
 43
0.0
 43
0.0208333333333333
 43
0.0
 43
0.0
 43
0.0
 43
0.0
 43
1.0
 43
0.0
 43
0.0
 43
0.0
 43
0.0
 43
1.0
 77
     0
 47
0.0208333333333333
 47
0.0
 47
0.0
 47
0.0
 47
0.0
 47
0.0208333333333333
 47
0.0
 47
0.0
 47
0.0
 47
0.0
 47
1.0
 47
0.0
 47
0.0
 47
0.0
 47
0.0
 47
1.0
171
     0
 49
0.0208333333333333
 49
0.0
 49
0.0
 49
0.0
 49
0.0
 49
0.0208333333333333
 49
0.0
 49
0.0
 49
0.0
 49
0.0
 49
1.0
 49
0.0
 49
0.0
 49
0.0
 49
0.0
 49
1.0
175
     0
142
0.0208333333333333
142
0.0
142
0.0
142
0.0
142
0.0
142
0.0208333333333333
142
0.0
142
0.0
142
0.0
142
0.0
142
1.0
142
0.0
142
0.0
142
0.0
142
0.0
142
1.0
179
     0
144
0.0208333333333333
144
0.0
144
0.0
144
0.0
144
0.0
144
0.0208333333333333
144
0.0
144
0.0
144
0.0
144
0.0
144
1.0
144
0.0
144
0.0
144
0.0
144
0.0
144
1.0
147
0.0208333333333333
147
0.0
147
0.0
147
0.0
147
0.0
147
0.0208333333333333
147
0.0
147
0.0
147
0.0
147
0.0
147
1.0
147
0.0
147
0.0
147
0.0
147
0.0
147
1.0
  0
MATERIAL
  5
C4A4
102
{ACAD_XDICTIONARY
360
C4A5
102
}
102
{ACAD_REACTORS
330
C493
102
}
330
C493
100
AcDbMaterial
  1
Global
 72
     0
 43
0.0208333333333333
 43
0.0
 43
0.0
 43
0.0
 43
0.0
 43
0.0208333333333333
 43
0.0
 43
0.0
 43
0.0
 43
0.0
 43
1.0
 43
0.0
 43
0.0
 43
0.0
 43
0.0
 43
1.0
 77
     0
 47
0.0208333333333333
 47
0.0
 47
0.0
 47
0.0
 47
0.0
 47
0.0208333333333333
 47
0.0
 47
0.0
 47
0.0
 47
0.0
 47
1.0
 47
0.0
 47
0.0
 47
0.0
 47
0.0
 47
1.0
171
     0
 49
0.0208333333333333
 49
0.0
 49
0.0
 49
0.0
 49
0.0
 49
0.0208333333333333
 49
0.0
 49
0.0
 49
0.0
 49
0.0
 49
1.0
 49
0.0
 49
0.0
 49
0.0
 49
0.0
 49
1.0
175
     0
142
0.0208333333333333
142
0.0
142
0.0
142
0.0
142
0.0
142
0.0208333333333333
142
0.0
142
0.0
142
0.0
142
0.0
142
1.0
142
0.0
142
0.0
142
0.0
142
0.0
142
1.0
179
     0
144
0.0208333333333333
144
0.0
144
0.0
144
0.0
144
0.0
144
0.0208333333333333
144
0.0
144
0.0
144
0.0
144
0.0
144
1.0
144
0.0
144
0.0
144
0.0
144
0.0
144
1.0
147
0.0208333333333333
147
0.0
147
0.0
147
0.0
147
0.0
147
0.0208333333333333
147
0.0
147
0.0
147
0.0
147
0.0
147
1.0
147
0.0
147
0.0
147
0.0
147
0.0
147
1.0
  0
MLEADERSTYLE
  5
C4DB
102
{ACAD_REACTORS
330
C4DA
102
}
330
C4DA
100
AcDbMLeaderStyle
170
     2
171
     1
172
     0
 90
        2
 40
0.0
 41
0.0
173
     1
 91
-1056964608
340
C2BD
 92
       -2
290
     1
 42
0.09
291
     1
 43
0.36
  3
Standard
 44
0.18
300

342
C2BB
174
     1
178
     6
175
     1
176
     0
 93
-1056964608
 45
0.18
292
     0
297
     0
 46
0.18
 94
-1056964608
 47
1.0
 49
1.0
140
1.0
293
     1
141
0.0
294
     1
177
     0
142
1.0
295
     0
296
     0
143
0.125
1001
ACAD_MLEADERVER
1070
     2
  0
MLINESTYLE
  5
C2C1
102
{ACAD_REACTORS
330
C2C0
102
}
330
C2C0
100
AcDbMlineStyle
  2
STANDARD
 70
     0
  3

 62
   256
 51
90.0
 52
90.0
 71
     2
 49
0.5
 62
   256
  6
BYLAYER
 49
-0.5
 62
   256
  6
BYLAYER
  0
ACDBPLACEHOLDER
  5
C492
102
{ACAD_REACTORS
330
C491
102
}
330
C491
  0
SCALE
  5
C4C9
102
{ACAD_REACTORS
330
C4C8
102
}
330
C4C8
100
AcDbScale
 70
     0
300
1:1
140
1.0
141
1.0
290
     1
  0
SCALE
  5
C4CA
102
{ACAD_REACTORS
330
C4C8
102
}
330
C4C8
100
AcDbScale
 70
     0
300
1/128" = 1'-0"
140
0.0078125
141
12.0
290
     0
  0
SCALE
  5
C4CB
102
{ACAD_REACTORS
330
C4C8
102
}
330
C4C8
100
AcDbScale
 70
     0
300
1/64" = 1'-0"
140
0.015625
141
12.0
290
     0
  0
SCALE
  5
C4CC
102
{ACAD_REACTORS
330
C4C8
102
}
330
C4C8
100
AcDbScale
 70
     0
300
1/32" = 1'-0"
140
0.03125
141
12.0
290
     0
  0
SCALE
  5
C4CD
102
{ACAD_REACTORS
330
C4C8
102
}
330
C4C8
100
AcDbScale
 70
     0
300
1/16" = 1'-0"
140
0.0625
141
12.0
290
     0
  0
SCALE
  5
C4CE
102
{ACAD_REACTORS
330
C4C8
102
}
330
C4C8
100
AcDbScale
 70
     0
300
3/32" = 1'-0"
140
0.09375
141
12.0
290
     0
  0
SCALE
  5
C4CF
102
{ACAD_REACTORS
330
C4C8
102
}
330
C4C8
100
AcDbScale
 70
     0
300
1/8" = 1'-0"
140
0.125
141
12.0
290
     0
  0
SCALE
  5
C4D0
102
{ACAD_REACTORS
330
C4C8
102
}
330
C4C8
100
AcDbScale
 70
     0
300
3/16" = 1'-0"
140
0.1875
141
12.0
290
     0
  0
SCALE
  5
C4D1
102
{ACAD_REACTORS
330
C4C8
102
}
330
C4C8
100
AcDbScale
 70
     0
300
1/4" = 1'-0"
140
0.25
141
12.0
290
     0
  0
SCALE
  5
C4D2
102
{ACAD_REACTORS
330
C4C8
102
}
330
C4C8
100
AcDbScale
 70
     0
300
3/8" = 1'-0"
140
0.375
141
12.0
290
     0
  0
SCALE
  5
C4D3
102
{ACAD_REACTORS
330
C4C8
102
}
330
C4C8
100
AcDbScale
 70
     0
300
1/2" = 1'-0"
140
0.5
141
12.0
290
     0
  0
SCALE
  5
C4D4
102
{ACAD_REACTORS
330
C4C8
102
}
330
C4C8
100
AcDbScale
 70
     0
300
3/4" = 1'-0"
140
0.75
141
12.0
290
     0
  0
SCALE
  5
C4D5
102
{ACAD_REACTORS
330
C4C8
102
}
330
C4C8
100
AcDbScale
 70
     0
300
1" = 1'-0"
140
1.0
141
12.0
290
     0
  0
SCALE
  5
C4D6
102
{ACAD_REACTORS
330
C4C8
102
}
330
C4C8
100
AcDbScale
 70
     0
300
1-1/2" = 1'-0"
140
1.5
141
12.0
290
     0
  0
SCALE
  5
C4D7
102
{ACAD_REACTORS
330
C4C8
102
}
330
C4C8
100
AcDbScale
 70
     0
300
3" = 1'-0"
140
3.0
141
12.0
290
     0
  0
SCALE
  5
C4D8
102
{ACAD_REACTORS
330
C4C8
102
}
330
C4C8
100
AcDbScale
 70
     0
300
6" = 1'-0"
140
6.0
141
12.0
290
     0
  0
SCALE
  5
C4D9
102
{ACAD_REACTORS
330
C4C8
102
}
330
C4C8
100
AcDbScale
 70
     0
300
1'-0" = 1'-0"
140
12.0
141
12.0
290
     0
  0
ACDBSECTIONVIEWSTYLE
  5
C4DD
102
{ACAD_XDICTIONARY
360
C57B
102
}
102
{ACAD_REACTORS
330
C4DC
102
}
330
C4DC
100
AcDbModelDocViewStyle
 70
     0
  3
Imperial24
290
     0
100
AcDbSectionViewStyle
 70
     0
 71
     0
 90
       78
 71
     1
340
C2BB
 40
0.24
340
0
340
0
 40
0.24
300
I, O, Q, S, X, Z
 40
0.48
 90
        3
 40
0.18
 90
        1
 71
     2
340
C2BF
 90
       25
340
C2BF
 90
       50
 40
0.24
 40
0.0
 40
0.24
 71
     3
340
C2BB
 40
0.24
 90
        1
 40
0.75
 90
        1
300
%<\AcVar ViewType \f "%tc1">% %<\AcVar ViewSectionStartId>%-%<\AcVar ViewSectionEndId>%\PSCALE %<\AcVar ViewScale \f "%sn">%
 71
     4
300
ANSI31
 40
1.0
 90
        0
290
     0
290
     0
 90
        6
 40
0.0
 40
1.570796326794896
 40
0.2617993877991494
 40
1.308996938995747
 40
-0.2617993877991494
 40
1.832595714594045
  0
TABLESTYLE
  5
C4C7
102
{ACAD_XDICTIONARY
360
C501
102
}
102
{ACAD_REACTORS
330
C4C6
102
}
330
C4C6
100
AcDbTableStyle
  3
Standard
 70
     0
 71
     0
 40
0.06
 41
0.06
280
     0
281
     0
  7
STANDARD
140
0.18
170
     2
 62
     0
 63
     7
283
     0
274
    -2
284
     1
 64
     0
275
    -2
285
     1
 65
     0
276
    -2
286
     1
 66
     0
277
    -2
287
     1
 67
     0
278
    -2
288
     1
 68
     0
279
    -2
289
     1
 69
     0
  7
STANDARD
140
0.25
170
     5
 62
     0
 63
     7
283
     0
274
    -2
284
     1
 64
     0
275
    -2
285
     1
 65
     0
276
    -2
286
     1
 66
     0
277
    -2
287
     1
 67
     0
278
    -2
288
     1
 68
     0
279
    -2
289
     1
 69
     0
  7
STANDARD
140
0.18
170
     5
 62
     0
 63
     7
283
     0
274
    -2
284
     1
 64
     0
275
    -2
285
     1
 65
     0
276
    -2
286
     1
 66
     0
277
    -2
287
     1
 67
     0
278
    -2
288
     1
 68
     0
279
    -2
289
     1
 69
     0
  0
VISUALSTYLE
  5
C4B2
102
{ACAD_XDICTIONARY
360
C554
102
}
102
{ACAD_REACTORS
330
C4AC
102
}
330
C4AC
100
AcDbVisualStyle
  2

 70
     4
 71
     0
 72
     2
 73
     0
 90
        0
 40
-0.6
 41
-30.0
 62
     5
 63
     7
 74
     1
 91
        4
 64
     7
 65
   257
 75
     1
175
     1
 42
1.0
 92
        0
 66
   257
 43
1.0
 76
     1
 77
     6
 78
     2
 67
     7
 79
     5
170
     0
171
     0
290
     0
174
     0
 93
        1
 44
0.0
173
     0
291
     0
 45
0.0
1001
ACAD
1000
AcDbSavedByObjectVersion
1070
     0
  0
VISUALSTYLE
  5
C4B1
102
{ACAD_XDICTIONARY
360
C552
102
}
102
{ACAD_REACTORS
330
C4AC
102
}
330
C4AC
100
AcDbVisualStyle
  2

 70
     7
 71
     1
 72
     0
 73
     1
 90
        0
 40
-0.6
 41
-30.0
 62
     5
 63
     7
 74
     0
 91
        4
 64
     7
 65
   257
 75
     1
175
     1
 42
1.0
 92
        8
 66
     7
 43
1.0
 76
     1
 77
     6
 78
     2
 67
     7
 79
     5
170
     0
171
     0
290
     0
174
     0
 93
        1
 44
0.0
173
     0
291
     1
 45
0.0
1001
ACAD
1000
AcDbSavedByObjectVersion
1070
     0
  0
VISUALSTYLE
  5
C4B8
102
{ACAD_XDICTIONARY
360
C560
102
}
102
{ACAD_REACTORS
330
C4AC
102
}
330
C4AC
100
AcDbVisualStyle
  2

 70
    12
 71
     2
 72
     2
 73
     0
 90
        0
 40
-0.6
 41
-30.0
 62
     5
 63
     7
 74
     1
 91
        4
 64
     7
 65
   257
 75
     1
175
     1
 42
1.0
 92
        8
 66
     7
 43
1.0
 76
     1
 77
     6
 78
     2
 67
     7
 79
     5
170
     0
171
     0
290
     0
174
     0
 93
        1
 44
50.0
173
     0
291
     1
 45
0.0
1001
ACAD
1000
AcDbSavedByObjectVersion
1070
     0
  0
VISUALSTYLE
  5
C4BC
102
{ACAD_XDICTIONARY
360
C568
102
}
102
{ACAD_REACTORS
330
C4AC
102
}
330
C4AC
100
AcDbVisualStyle
  2

 70
    16
 71
     2
 72
     2
 73
     3
 90
        0
 40
-0.6
 41
-30.0
 62
     5
 63
     8
 74
     1
 91
        4
 64
     7
 65
   257
 75
     1
175
     1
 42
1.0
 92
        8
 66
     8
 43
1.0
 76
     1
 77
     6
 78
     2
 67
     7
 79
     5
170
     0
171
     0
290
     0
174
     0
 93
        1
 44
0.0
173
     0
291
     1
 45
0.0
1001
ACAD
1000
AcDbSavedByObjectVersion
1070
     0
  0
VISUALSTYLE
  5
C4B5
102
{ACAD_XDICTIONARY
360
C55A
102
}
102
{ACAD_REACTORS
330
C4AC
102
}
330
C4AC
100
AcDbVisualStyle
  2

 70
     9
 71
     3
 72
     2
 73
     0
 90
        0
 40
-0.6
 41
-30.0
 62
     5
 63
     7
 74
     2
 91
        2
 64
     7
 65
   257
 75
     1
175
     1
 42
179.0
 92
        8
 66
     7
 43
1.0
 76
     1
 77
     6
 78
     2
 67
     7
 79
     3
170
     0
171
     0
290
     0
174
     0
 93
        1
 44
0.0
173
     0
291
     0
 45
0.0
1001
ACAD
1000
AcDbSavedByObjectVersion
1070
     0
  0
VISUALSTYLE
  5
C4B7
102
{ACAD_XDICTIONARY
360
C55E
102
}
102
{ACAD_REACTORS
330
C4AC
102
}
330
C4AC
100
AcDbVisualStyle
  2

 70
    11
 71
     2
 72
     2
 73
     0
 90
        0
 40
-0.6
 41
-30.0
 62
     5
 63
     7
 74
     1
 91
        4
 64
     7
 65
   257
 75
     1
175
     1
 42
1.0
 92
        8
 66
     7
 43
1.0
 76
     1
 77
     6
 78
     2
 67
     7
 79
     5
170
     0
171
     0
290
     0
174
     0
 93
        1
 44
-50.0
173
     0
291
     1
 45
0.0
1001
ACAD
1000
AcDbSavedByObjectVersion
1070
     0
  0
VISUALSTYLE
  5
C4C4
102
{ACAD_XDICTIONARY
360
C578
102
}
102
{ACAD_REACTORS
330
C4AC
102
}
330
C4AC
100
AcDbVisualStyle
  2

 70
    22
 71
     2
 72
     2
 73
     0
 90
        0
 40
-0.6
 41
-30.0
 62
     5
 63
     7
 74
     1
 91
        4
 64
     7
 65
   257
 75
     1
175
     1
 42
1.0
 92
        8
 66
     7
 43
1.0
 76
     1
 77
     6
 78
     2
 67
     7
 79
     5
170
     0
171
     0
290
     0
174
     0
 93
        1
 44
0.0
173
     0
291
     1
 45
0.0
1001
ACAD
1000
AcDbSavedByObjectVersion
1070
     0
  0
VISUALSTYLE
  5
C4BB
102
{ACAD_XDICTIONARY
360
C566
102
}
102
{ACAD_REACTORS
330
C4AC
102
}
330
C4AC
100
AcDbVisualStyle
  2

 70
    15
 71
     2
 72
     2
 73
     0
 90
        0
 40
-0.6
 41
-30.0
 62
     5
 63
     7
 74
     1
 91
        4
 64
     7
 65
   257
 75
     1
175
     1
 42
1.0
 92
        8
 66
     7
 43
1.0
 76
     1
 77
     6
 78
     2
 67
     7
 79
     5
170
     0
171
     0
290
     0
174
     0
 93
        1
 44
0.0
173
     0
291
     1
 45
0.0
1001
ACAD
1000
AcDbSavedByObjectVersion
1070
     0
  0
VISUALSTYLE
  5
C4AD
102
{ACAD_XDICTIONARY
360
C54A
102
}
102
{ACAD_REACTORS
330
C4AC
102
}
330
C4AC
100
AcDbVisualStyle
  2

 70
     0
 71
     2
 72
     1
 73
     1
 90
        2
 40
-0.6
 41
30.0
 62
     5
 63
     7
 74
     0
 91
        0
 64
     7
 65
   257
 75
     1
175
     1
 42
1.0
 92
        8
 66
     7
 43
1.0
 76
     1
 77
     6
 78
     2
 67
     7
 79
     5
170
     0
171
     0
290
     0
174
     0
 93
       13
 44
0.0
173
     0
291
     1
 45
0.0
1001
ACAD
1000
AcDbSavedByObjectVersion
1070
     0
  0
VISUALSTYLE
  5
C4AE
102
{ACAD_XDICTIONARY
360
C54C
102
}
102
{ACAD_REACTORS
330
C4AC
102
}
330
C4AC
100
AcDbVisualStyle
  2

 70
     1
 71
     2
 72
     1
 73
     1
 90
        2
 40
-0.6
 41
30.0
 62
     5
 63
     7
 74
     1
 91
        0
 64
     7
 65
   257
 75
     1
175
     1
 42
1.0
 92
        0
 66
   257
 43
1.0
 76
     1
 77
     6
 78
     2
 67
     7
 79
     5
170
     0
171
     0
290
     0
174
     0
 93
       13
 44
0.0
173
     0
291
     1
 45
0.0
1001
ACAD
1000
AcDbSavedByObjectVersion
1070
     0
  0
VISUALSTYLE
  5
C4AF
102
{ACAD_XDICTIONARY
360
C54E
102
}
102
{ACAD_REACTORS
330
C4AC
102
}
330
C4AC
100
AcDbVisualStyle
  2

 70
     2
 71
     2
 72
     2
 73
     1
 90
        2
 40
-0.6
 41
30.0
 62
     5
 63
     7
 74
     0
 91
        0
 64
     7
 65
   257
 75
     1
175
     1
 42
1.0
 92
        0
 66
     7
 43
1.0
 76
     1
 77
     6
 78
     2
 67
     7
 79
     5
170
     0
171
     0
290
     0
174
     0
 93
       13
 44
0.0
173
     0
291
     1
 45
0.0
1001
ACAD
1000
AcDbSavedByObjectVersion
1070
     0
  0
VISUALSTYLE
  5
C4B0
102
{ACAD_XDICTIONARY
360
C550
102
}
102
{ACAD_REACTORS
330
C4AC
102
}
330
C4AC
100
AcDbVisualStyle
  2

 70
     3
 71
     2
 72
     2
 73
     1
 90
        2
 40
-0.6
 41
30.0
 62
     5
 63
     7
 74
     1
 91
        0
 64
     7
 65
   257
 75
     1
175
     1
 42
1.0
 92
        0
 66
   257
 43
1.0
 76
     1
 77
     6
 78
     2
 67
     7
 79
     5
170
     0
171
     0
290
     0
174
     0
 93
       13
 44
0.0
173
     0
291
     1
 45
0.0
1001
ACAD
1000
AcDbSavedByObjectVersion
1070
     0
  0
VISUALSTYLE
  5
C4B4
102
{ACAD_XDICTIONARY
360
C558
102
}
102
{ACAD_REACTORS
330
C4AC
102
}
330
C4AC
100
AcDbVisualStyle
  2

 70
     6
 71
     1
 72
     2
 73
     2
 90
        0
 40
-0.6
 41
-30.0
 62
     5
 63
     7
 74
     2
 91
        2
 64
     7
 65
   257
 75
     2
175
     1
 42
40.0
 92
        0
 66
   257
 43
1.0
 76
     1
 77
     6
 78
     2
 67
     7
 79
     3
170
     0
171
     0
290
     0
174
     0
 93
        1
 44
0.0
173
     0
291
     0
 45
0.0
1001
ACAD
1000
AcDbSavedByObjectVersion
1070
     0
  0
VISUALSTYLE
  5
C4C2
102
{ACAD_XDICTIONARY
360
C574
102
}
102
{ACAD_REACTORS
330
C4AC
102
}
330
C4AC
100
AcDbVisualStyle
  2

 70
    20
 71
     2
 72
     2
 73
     0
 90
        0
 40
-0.6
 41
-30.0
 62
     5
 63
     7
 74
     1
 91
        4
 64
     7
 65
   257
 75
     1
175
     1
 42
1.0
 92
       10
 66
     7
 43
1.0
 76
     1
 77
     6
 78
     2
 67
     7
 79
     5
170
     0
171
     0
290
     0
174
     0
 93
        1
 44
0.0
173
     0
291
     1
 45
0.0
1001
ACAD
1000
AcDbSavedByObjectVersion
1070
     0
  0
VISUALSTYLE
  5
C4BA
102
{ACAD_XDICTIONARY
360
C564
102
}
102
{ACAD_REACTORS
330
C4AC
102
}
330
C4AC
100
AcDbVisualStyle
  2

 70
    14
 71
     2
 72
     2
 73
     0
 90
        0
 40
-0.6
 41
-30.0
 62
     5
 63
     7
 74
     1
 91
        4
 64
     7
 65
   257
 75
     7
175
     7
 42
1.0
 92
        8
 66
     7
 43
1.0
 76
     1
 77
     6
 78
     2
 67
     7
 79
     5
170
     0
171
     0
290
     0
174
     0
 93
        1
 44
0.0
173
     0
291
     1
 45
0.0
1001
ACAD
1000
AcDbSavedByObjectVersion
1070
     0
  0
VISUALSTYLE
  5
C4C3
102
{ACAD_XDICTIONARY
360
C576
102
}
102
{ACAD_REACTORS
330
C4AC
102
}
330
C4AC
100
AcDbVisualStyle
  2

 70
    21
 71
     2
 72
     2
 73
     0
 90
        0
 40
-0.6
 41
-30.0
 62
     5
 63
     7
 74
     1
 91
        4
 64
     7
 65
   257
 75
     1
175
     1
 42
1.0
 92
        9
 66
     7
 43
1.0
 76
     1
 77
     6
 78
     2
 67
     7
 79
     5
170
     0
171
     0
290
     0
174
     0
 93
        1
 44
0.0
173
     0
291
     1
 45
0.0
1001
ACAD
1000
AcDbSavedByObjectVersion
1070
     0
  0
VISUALSTYLE
  5
C4B6
102
{ACAD_XDICTIONARY
360
C55C
102
}
102
{ACAD_REACTORS
330
C4AC
102
}
330
C4AC
100
AcDbVisualStyle
  2

 70
     8
 71
     2
 72
     3
 73
     0
 90
        2
 40
-0.6
 41
30.0
 62
     5
 63
     7
 74
     0
 91
        0
 64
     7
 65
   257
 75
     1
175
     1
 42
1.0
 92
        8
 66
   257
 43
1.0
 76
     1
 77
     6
 78
     2
 67
     7
 79
     3
170
     0
171
     0
290
     0
174
     0
 93
       13
 44
0.0
173
     0
291
     0
 45
0.0
1001
ACAD
1000
AcDbSavedByObjectVersion
1070
     0
  0
VISUALSTYLE
  5
C4C1
102
{ACAD_XDICTIONARY
360
C572
102
}
102
{ACAD_REACTORS
330
C4AC
102
}
330
C4AC
100
AcDbVisualStyle
  2

 70
    27
 71
     2
 72
     2
 73
     1
 90
        2
 40
-0.6
 41
30.0
 62
     5
 63
     7
 74
     0
 91
        4
 64
     7
 65
   257
 75
     1
175
     1
 42
1.0
 92
        8
 66
   257
 43
1.0
 76
     1
 77
     6
 78
     2
 67
     8
 79
     3
170
     0
171
     0
290
     0
174
     0
 93
        5
 44
0.0
173
     0
291
     0
 45
0.0
1001
ACAD
1000
AcDbSavedByObjectVersion
1070
     0
  0
VISUALSTYLE
  5
C4C0
102
{ACAD_XDICTIONARY
360
C570
102
}
102
{ACAD_REACTORS
330
C4AC
102
}
330
C4AC
100
AcDbVisualStyle
  2

 70
    26
 71
     2
 72
     2
 73
     1
 90
        2
 40
-0.6
 41
30.0
 62
     5
 63
     7
 74
     1
 91
       10
 64
     7
 65
   257
 75
     2
175
     1
 42
1.0
 92
        8
 66
   257
 43
1.0
 76
     1
 77
     6
 78
     2
 67
     7
 79
     3
170
     0
171
     0
290
     0
174
     0
 93
        5
 44
0.0
173
     0
291
     0
 45
0.0
1001
ACAD
1000
AcDbSavedByObjectVersion
1070
     0
  0
VISUALSTYLE
  5
C4BD
102
{ACAD_XDICTIONARY
360
C56A
102
}
102
{ACAD_REACTORS
330
C4AC
102
}
330
C4AC
100
AcDbVisualStyle
  2

 70
    23
 71
     2
 72
     2
 73
     3
 90
        0
 40
-0.6
 41
-30.0
 62
     5
 63
     7
 74
     2
 91
        2
 64
     7
 65
     7
 75
     1
175
     1
 42
40.0
 92
        8
 66
     7
 43
1.0
 76
     1
 77
     6
 78
     2
 67
     7
 79
     3
170
     0
171
     0
290
     0
174
     0
 93
        1
 44
0.0
173
     0
291
     0
 45
0.0
1001
ACAD
1000
AcDbSavedByObjectVersion
1070
     0
  0
VISUALSTYLE
  5
C4BE
102
{ACAD_XDICTIONARY
360
C56C
102
}
102
{ACAD_REACTORS
330
C4AC
102
}
330
C4AC
100
AcDbVisualStyle
  2

 70
    24
 71
     1
 72
     2
 73
     2
 90
        0
 40
-0.6
 41
-30.0
 62
     5
 63
     7
 74
     2
 91
        2
 64
     7
 65
     7
 75
     1
175
     1
 42
40.0
 92
       11
 66
     7
 43
1.0
 76
     1
 77
     6
 78
     2
 67
     7
 79
     6
170
     0
171
     0
290
     0
174
     0
 93
        1
 44
0.0
173
     0
291
     0
 45
0.0
1001
ACAD
1000
AcDbSavedByObjectVersion
1070
     0
  0
VISUALSTYLE
  5
C4B9
102
{ACAD_XDICTIONARY
360
C562
102
}
102
{ACAD_REACTORS
330
C4AC
102
}
330
C4AC
100
AcDbVisualStyle
  2

 70
    13
 71
     2
 72
     2
 73
     0
 90
        0
 40
-0.6
 41
-30.0
 62
     5
 63
     7
 74
     1
 91
        4
 64
     7
 65
   257
 75
     1
175
     1
 42
1.0
 92
       12
 66
     7
 43
1.0
 76
     1
 77
     6
 78
     2
 67
     7
 79
     5
170
     0
171
     0
290
     0
174
     0
 93
        1
 44
0.0
173
     0
291
     1
 45
0.0
1001
ACAD
1000
AcDbSavedByObjectVersion
1070
     0
  0
VISUALSTYLE
  5
C4B3
102
{ACAD_XDICTIONARY
360
C556
102
}
102
{ACAD_REACTORS
330
C4AC
102
}
330
C4AC
100
AcDbVisualStyle
  2

 70
     5
 71
     0
 72
     2
 73
     0
 90
        0
 40
-0.6
 41
-30.0
 62
     5
 63
     7
 74
     1
 91
        4
 64
     7
 65
   257
 75
     1
175
     1
 42
1.0
 92
        0
 66
   257
 43
1.0
 76
     1
 77
     6
 78
     2
 67
     7
 79
     3
170
     0
171
     0
290
     0
174
     0
 93
        1
 44
0.0
173
     0
291
     0
 45
0.0
1001
ACAD
1000
AcDbSavedByObjectVersion
1070
     0
  0
VISUALSTYLE
  5
C4BF
102
{ACAD_XDICTIONARY
360
C56E
102
}
102
{ACAD_REACTORS
330
C4AC
102
}
330
C4AC
100
AcDbVisualStyle
  2

 70
    25
 71
     2
 72
     2
 73
     1
 90
        1
 40
0.5
 41
-30.0
 62
     5
 63
     7
 74
     1
 91
        0
 64
     7
 65
   257
 75
     1
175
     1
 42
1.0
 92
        8
 66
     7
 43
1.0
 76
     1
 77
     6
 78
     2
 67
     7
 79
     3
170
     0
171
     0
290
     0
174
     0
 93
       13
 44
0.0
173
     0
291
     0
 45
0.0
1001
ACAD
1000
AcDbSavedByObjectVersion
1070
     0
  0
DICTIONARYVAR
  5
C4FB
102
{ACAD_REACTORS
330
C4F6
102
}
330
C4F6
100
DictionaryVariables
280
     0
  1
1:1
  0
DICTIONARYVAR
  5
C4F8
102
{ACAD_REACTORS
330
C4F6
102
}
330
C4F6
100
DictionaryVariables
280
     0
  1
STANDARD
  0
DICTIONARYVAR
  5
C4F7
102
{ACAD_REACTORS
330
C4F6
102
}
330
C4F6
100
DictionaryVariables
280
     0
  1
STANDARD
  0
DICTIONARYVAR
  5
C4F9
102
{ACAD_REACTORS
330
C4F6
102
}
330
C4F6
100
DictionaryVariables
280
     0
  1
Imperial24
  0
DICTIONARYVAR
  5
C4FA
102
{ACAD_REACTORS
330
C4F6
102
}
330
C4F6
100
DictionaryVariables
280
     0
  1
Imperial24
  0
DICTIONARYVAR
  5
C4FE
102
{ACAD_REACTORS
330
C4F6
102
}
330
C4F6
100
DictionaryVariables
280
     0
  1
1
  0
DICTIONARYVAR
  5
C4FD
102
{ACAD_REACTORS
330
C4F6
102
}
330
C4F6
100
DictionaryVariables
280
     0
  1
0
  0
DICTIONARYVAR
  5
C4FC
102
{ACAD_REACTORS
330
C4F6
102
}
330
C4F6
100
DictionaryVariables
280
     0
  1
127
  0
DICTIONARYVAR
  5
C546
102
{ACAD_REACTORS
330
C4F6
102
}
330
C4F6
100
DictionaryVariables
280
     0
  1
2
  0
DICTIONARY
  5
C57D
330
C4DF
100
AcDbDictionary
280
     1
281
     1
  3
ACAD_XREC_ROUNDTRIP
360
C57E
  0
DICTIONARY
  5
C57F
330
C4E0
100
AcDbDictionary
280
     1
281
     1
  3
ACAD_XREC_ROUNDTRIP
360
C580
  0
DICTIONARY
  5
C581
330
C4E1
100
AcDbDictionary
280
     1
281
     1
  3
ACAD_XREC_ROUNDTRIP
360
C582
  0
DICTIONARY
  5
C49D
330
C49C
100
AcDbDictionary
280
     1
281
     1
  3
ACAD_XREC_ROUNDTRIP
360
C506
  3
BUMPTILE
360
C49F
  3
DIFFUSETILE
360
C49E
  3
OPACITYTILE
360
C4A2
  3
REFLECTIONTILE
360
C4A1
  3
REFRACTIONTILE
360
C4A3
  3
SPECULARTILE
360
C4A0
  0
DICTIONARY
  5
C495
330
C494
100
AcDbDictionary
280
     1
281
     1
  3
ACAD_XREC_ROUNDTRIP
360
C505
  3
BUMPTILE
360
C497
  3
DIFFUSETILE
360
C496
  3
OPACITYTILE
360
C49A
  3
REFLECTIONTILE
360
C499
  3
REFRACTIONTILE
360
C49B
  3
SPECULARTILE
360
C498
  0
DICTIONARY
  5
C4A5
330
C4A4
100
AcDbDictionary
280
     1
281
     1
  3
ACAD_XREC_ROUNDTRIP
360
C507
  3
BUMPTILE
360
C4A7
  3
DIFFUSETILE
360
C4A6
  3
OPACITYTILE
360
C4AA
  3
REFLECTIONTILE
360
C4A9
  3
REFRACTIONTILE
360
C4AB
  3
SPECULARTILE
360
C4A8
  0
DICTIONARY
  5
C57B
330
C4DD
100
AcDbDictionary
280
     1
281
     1
  3
ACAD_XREC_ROUNDTRIP
360
C57C
  0
DICTIONARY
  5
C501
330
C4C7
100
AcDbDictionary
280
     1
281
     1
  3
ACAD_ROUNDTRIP_2008_TABLESTYLE_CELLSTYLEMAP
360
C547
  3
ACAD_XREC_ROUNDTRIP
360
C57A
  0
DICTIONARY
  5
C554
330
C4B2
100
AcDbDictionary
280
     1
281
     1
  3
ACAD_XREC_ROUNDTRIP
360
C555
  0
DICTIONARY
  5
C552
330
C4B1
100
AcDbDictionary
280
     1
281
     1
  3
ACAD_XREC_ROUNDTRIP
360
C553
  0
DICTIONARY
  5
C560
330
C4B8
100
AcDbDictionary
280
     1
281
     1
  3
ACAD_XREC_ROUNDTRIP
360
C561
  0
DICTIONARY
  5
C568
330
C4BC
100
AcDbDictionary
280
     1
281
     1
  3
ACAD_XREC_ROUNDTRIP
360
C569
  0
DICTIONARY
  5
C55A
330
C4B5
100
AcDbDictionary
280
     1
281
     1
  3
ACAD_XREC_ROUNDTRIP
360
C55B
  0
DICTIONARY
  5
C55E
330
C4B7
100
AcDbDictionary
280
     1
281
     1
  3
ACAD_XREC_ROUNDTRIP
360
C55F
  0
DICTIONARY
  5
C578
330
C4C4
100
AcDbDictionary
280
     1
281
     1
  3
ACAD_XREC_ROUNDTRIP
360
C579
  0
DICTIONARY
  5
C566
330
C4BB
100
AcDbDictionary
280
     1
281
     1
  3
ACAD_XREC_ROUNDTRIP
360
C567
  0
DICTIONARY
  5
C54A
330
C4AD
100
AcDbDictionary
280
     1
281
     1
  3
ACAD_XREC_ROUNDTRIP
360
C54B
  0
DICTIONARY
  5
C54C
330
C4AE
100
AcDbDictionary
280
     1
281
     1
  3
ACAD_XREC_ROUNDTRIP
360
C54D
  0
DICTIONARY
  5
C54E
330
C4AF
100
AcDbDictionary
280
     1
281
     1
  3
ACAD_XREC_ROUNDTRIP
360
C54F
  0
DICTIONARY
  5
C550
330
C4B0
100
AcDbDictionary
280
     1
281
     1
  3
ACAD_XREC_ROUNDTRIP
360
C551
  0
DICTIONARY
  5
C558
330
C4B4
100
AcDbDictionary
280
     1
281
     1
  3
ACAD_XREC_ROUNDTRIP
360
C559
  0
DICTIONARY
  5
C574
330
C4C2
100
AcDbDictionary
280
     1
281
     1
  3
ACAD_XREC_ROUNDTRIP
360
C575
  0
DICTIONARY
  5
C564
330
C4BA
100
AcDbDictionary
280
     1
281
     1
  3
ACAD_XREC_ROUNDTRIP
360
C565
  0
DICTIONARY
  5
C576
330
C4C3
100
AcDbDictionary
280
     1
281
     1
  3
ACAD_XREC_ROUNDTRIP
360
C577
  0
DICTIONARY
  5
C55C
330
C4B6
100
AcDbDictionary
280
     1
281
     1
  3
ACAD_XREC_ROUNDTRIP
360
C55D
  0
DICTIONARY
  5
C572
330
C4C1
100
AcDbDictionary
280
     1
281
     1
  3
ACAD_XREC_ROUNDTRIP
360
C573
  0
DICTIONARY
  5
C570
330
C4C0
100
AcDbDictionary
280
     1
281
     1
  3
ACAD_XREC_ROUNDTRIP
360
C571
  0
DICTIONARY
  5
C56A
330
C4BD
100
AcDbDictionary
280
     1
281
     1
  3
ACAD_XREC_ROUNDTRIP
360
C56B
  0
DICTIONARY
  5
C56C
330
C4BE
100
AcDbDictionary
280
     1
281
     1
  3
ACAD_XREC_ROUNDTRIP
360
C56D
  0
DICTIONARY
  5
C562
330
C4B9
100
AcDbDictionary
280
     1
281
     1
  3
ACAD_XREC_ROUNDTRIP
360
C563
  0
DICTIONARY
  5
C556
330
C4B3
100
AcDbDictionary
280
     1
281
     1
  3
ACAD_XREC_ROUNDTRIP
360
C557
  0
DICTIONARY
  5
C56E
330
C4BF
100
AcDbDictionary
280
     1
281
     1
  3
ACAD_XREC_ROUNDTRIP
360
C56F
  0
XRECORD
  5
C57E
102
{ACAD_REACTORS
330
C57D
102
}
330
C57D
100
AcDbXrecord
280
     1
102
DISPLAYNAME
  1
Imperial24
102
FLAGS
 90
        0
  0
XRECORD
  5
C580
102
{ACAD_REACTORS
330
C57F
102
}
330
C57F
100
AcDbXrecord
280
     1
102
SHADEPLOT
 70
     0
102
SHADEPLOTRESLEVEL
 70
     2
102
SHADEPLOTCUSTOMDPI
 70
   300
  0
XRECORD
  5
C582
102
{ACAD_REACTORS
330
C581
102
}
330
C581
100
AcDbXrecord
280
     1
102
SHADEPLOT
 70
     0
102
SHADEPLOTRESLEVEL
 70
     2
102
SHADEPLOTCUSTOMDPI
 70
   300
  0
XRECORD
  5
C506
102
{ACAD_REACTORS
330
C49D
102
}
330
C49D
100
AcDbXrecord
280
     1
102
MATERIAL
148
0.0
149
0.0
149
0.0
 93
        0
 94
      127
282
     0
 72
     0
 77
     0
171
     0
175
     0
179
     0
273
     0
  0
XRECORD
  5
C49F
102
{ACAD_REACTORS
330
C49D
102
}
330
C49D
100
AcDbXrecord
280
     1
270
     1
271
     1
  0
XRECORD
  5
C49E
102
{ACAD_REACTORS
330
C49D
102
}
330
C49D
100
AcDbXrecord
280
     1
270
     1
271
     1
  0
XRECORD
  5
C4A2
102
{ACAD_REACTORS
330
C49D
102
}
330
C49D
100
AcDbXrecord
280
     1
270
     1
271
     1
  0
XRECORD
  5
C4A1
102
{ACAD_REACTORS
330
C49D
102
}
330
C49D
100
AcDbXrecord
280
     1
270
     1
271
     1
  0
XRECORD
  5
C4A3
102
{ACAD_REACTORS
330
C49D
102
}
330
C49D
100
AcDbXrecord
280
     1
270
     1
271
     1
  0
XRECORD
  5
C4A0
102
{ACAD_REACTORS
330
C49D
102
}
330
C49D
100
AcDbXrecord
280
     1
270
     1
271
     1
  0
XRECORD
  5
C505
102
{ACAD_REACTORS
330
C495
102
}
330
C495
100
AcDbXrecord
280
     1
102
MATERIAL
148
0.0
149
0.0
149
0.0
 93
        0
 94
      127
282
     0
 72
     0
 77
     0
171
     0
175
     0
179
     0
273
     0
  0
XRECORD
  5
C497
102
{ACAD_REACTORS
330
C495
102
}
330
C495
100
AcDbXrecord
280
     1
270
     1
271
     1
  0
XRECORD
  5
C496
102
{ACAD_REACTORS
330
C495
102
}
330
C495
100
AcDbXrecord
280
     1
270
     1
271
     1
  0
XRECORD
  5
C49A
102
{ACAD_REACTORS
330
C495
102
}
330
C495
100
AcDbXrecord
280
     1
270
     1
271
     1
  0
XRECORD
  5
C499
102
{ACAD_REACTORS
330
C495
102
}
330
C495
100
AcDbXrecord
280
     1
270
     1
271
     1
  0
XRECORD
  5
C49B
102
{ACAD_REACTORS
330
C495
102
}
330
C495
100
AcDbXrecord
280
     1
270
     1
271
     1
  0
XRECORD
  5
C498
102
{ACAD_REACTORS
330
C495
102
}
330
C495
100
AcDbXrecord
280
     1
270
     1
271
     1
  0
XRECORD
  5
C507
102
{ACAD_REACTORS
330
C4A5
102
}
330
C4A5
100
AcDbXrecord
280
     1
102
MATERIAL
148
0.0
149
0.0
149
0.0
 93
        0
 94
      127
282
     0
 72
     0
 77
     0
171
     0
175
     0
179
     0
273
     0
  0
XRECORD
  5
C4A7
102
{ACAD_REACTORS
330
C4A5
102
}
330
C4A5
100
AcDbXrecord
280
     1
270
     1
271
     1
  0
XRECORD
  5
C4A6
102
{ACAD_REACTORS
330
C4A5
102
}
330
C4A5
100
AcDbXrecord
280
     1
270
     1
271
     1
  0
XRECORD
  5
C4AA
102
{ACAD_REACTORS
330
C4A5
102
}
330
C4A5
100
AcDbXrecord
280
     1
270
     1
271
     1
  0
XRECORD
  5
C4A9
102
{ACAD_REACTORS
330
C4A5
102
}
330
C4A5
100
AcDbXrecord
280
     1
270
     1
271
     1
  0
XRECORD
  5
C4AB
102
{ACAD_REACTORS
330
C4A5
102
}
330
C4A5
100
AcDbXrecord
280
     1
270
     1
271
     1
  0
XRECORD
  5
C4A8
102
{ACAD_REACTORS
330
C4A5
102
}
330
C4A5
100
AcDbXrecord
280
     1
270
     1
271
     1
  0
XRECORD
  5
C57C
102
{ACAD_REACTORS
330
C57B
102
}
330
C57B
100
AcDbXrecord
280
     1
102
DISPLAYNAME
  1
Imperial24
102
FLAGS
 90
        0
  0
CELLSTYLEMAP
  5
C547
102
{ACAD_REACTORS
330
C501
102
}
330
C501
100
AcDbCellStyleMap
 90
        3
300
CELLSTYLE
  1
TABLEFORMAT_BEGIN
 90
        5
170
     1
 91
        0
 92
    32768
 62
   257
 93
        1
300
CONTENTFORMAT
  1
CONTENTFORMAT_BEGIN
 90
        0
 91
        0
 92
      512
 93
        0
300

 40
0.0
140
1.0
 94
        5
 62
     0
340
C2BB
144
0.25
309
CONTENTFORMAT_END
171
     1
301
MARGIN
  1
CELLMARGIN_BEGIN
 40
0.06
 40
0.06
 40
0.06
 40
0.06
 40
0.18
 40
0.18
309
CELLMARGIN_END
 94
        6
 95
        1
302
GRIDFORMAT
  1
GRIDFORMAT_BEGIN
 90
        0
 91
        1
 62
     0
 92
       -2
340
0
 93
        0
 40
0.045
309
GRIDFORMAT_END
 95
        2
302
GRIDFORMAT
  1
GRIDFORMAT_BEGIN
 90
        0
 91
        1
 62
     0
 92
       -2
340
0
 93
        0
 40
0.045
309
GRIDFORMAT_END
 95
        4
302
GRIDFORMAT
  1
GRIDFORMAT_BEGIN
 90
        0
 91
        1
 62
     0
 92
       -2
340
0
 93
        0
 40
0.045
309
GRIDFORMAT_END
 95
        8
302
GRIDFORMAT
  1
GRIDFORMAT_BEGIN
 90
        0
 91
        1
 62
     0
 92
       -2
340
0
 93
        0
 40
0.045
309
GRIDFORMAT_END
 95
       16
302
GRIDFORMAT
  1
GRIDFORMAT_BEGIN
 90
        0
 91
        1
 62
     0
 92
       -2
340
0
 93
        0
 40
0.045
309
GRIDFORMAT_END
 95
       32
302
GRIDFORMAT
  1
GRIDFORMAT_BEGIN
 90
        0
 91
        1
 62
     0
 92
       -2
340
0
 93
        0
 40
0.045
309
GRIDFORMAT_END
309
TABLEFORMAT_END
  1
CELLSTYLE_BEGIN
 90
        1
 91
        1
300
_TITLE
309
CELLSTYLE_END
300
CELLSTYLE
  1
TABLEFORMAT_BEGIN
 90
        5
170
     1
 91
        0
 92
        0
 62
   257
 93
        1
300
CONTENTFORMAT
  1
CONTENTFORMAT_BEGIN
 90
        0
 91
        0
 92
      512
 93
        0
300

 40
0.0
140
1.0
 94
        5
 62
     0
340
C2BB
144
0.18
309
CONTENTFORMAT_END
171
     1
301
MARGIN
  1
CELLMARGIN_BEGIN
 40
0.06
 40
0.06
 40
0.06
 40
0.06
 40
0.18
 40
0.18
309
CELLMARGIN_END
 94
        6
 95
        1
302
GRIDFORMAT
  1
GRIDFORMAT_BEGIN
 90
        0
 91
        1
 62
     0
 92
       -2
340
0
 93
        0
 40
0.045
309
GRIDFORMAT_END
 95
        2
302
GRIDFORMAT
  1
GRIDFORMAT_BEGIN
 90
        0
 91
        1
 62
     0
 92
       -2
340
0
 93
        0
 40
0.045
309
GRIDFORMAT_END
 95
        4
302
GRIDFORMAT
  1
GRIDFORMAT_BEGIN
 90
        0
 91
        1
 62
     0
 92
       -2
340
0
 93
        0
 40
0.045
309
GRIDFORMAT_END
 95
        8
302
GRIDFORMAT
  1
GRIDFORMAT_BEGIN
 90
        0
 91
        1
 62
     0
 92
       -2
340
0
 93
        0
 40
0.045
309
GRIDFORMAT_END
 95
       16
302
GRIDFORMAT
  1
GRIDFORMAT_BEGIN
 90
        0
 91
        1
 62
     0
 92
       -2
340
0
 93
        0
 40
0.045
309
GRIDFORMAT_END
 95
       32
302
GRIDFORMAT
  1
GRIDFORMAT_BEGIN
 90
        0
 91
        1
 62
     0
 92
       -2
340
0
 93
        0
 40
0.045
309
GRIDFORMAT_END
309
TABLEFORMAT_END
  1
CELLSTYLE_BEGIN
 90
        2
 91
        1
300
_HEADER
309
CELLSTYLE_END
300
CELLSTYLE
  1
TABLEFORMAT_BEGIN
 90
        5
170
     1
 91
        0
 92
        0
 62
   257
 93
        1
300
CONTENTFORMAT
  1
CONTENTFORMAT_BEGIN
 90
        0
 91
        0
 92
      512
 93
        0
300

 40
0.0
140
1.0
 94
        2
 62
     0
340
C2BB
144
0.18
309
CONTENTFORMAT_END
171
     1
301
MARGIN
  1
CELLMARGIN_BEGIN
 40
0.06
 40
0.06
 40
0.06
 40
0.06
 40
0.18
 40
0.18
309
CELLMARGIN_END
 94
        6
 95
        1
302
GRIDFORMAT
  1
GRIDFORMAT_BEGIN
 90
        0
 91
        1
 62
     0
 92
       -2
340
0
 93
        0
 40
0.045
309
GRIDFORMAT_END
 95
        2
302
GRIDFORMAT
  1
GRIDFORMAT_BEGIN
 90
        0
 91
        1
 62
     0
 92
       -2
340
0
 93
        0
 40
0.045
309
GRIDFORMAT_END
 95
        4
302
GRIDFORMAT
  1
GRIDFORMAT_BEGIN
 90
        0
 91
        1
 62
     0
 92
       -2
340
0
 93
        0
 40
0.045
309
GRIDFORMAT_END
 95
        8
302
GRIDFORMAT
  1
GRIDFORMAT_BEGIN
 90
        0
 91
        1
 62
     0
 92
       -2
340
0
 93
        0
 40
0.045
309
GRIDFORMAT_END
 95
       16
302
GRIDFORMAT
  1
GRIDFORMAT_BEGIN
 90
        0
 91
        1
 62
     0
 92
       -2
340
0
 93
        0
 40
0.045
309
GRIDFORMAT_END
 95
       32
302
GRIDFORMAT
  1
GRIDFORMAT_BEGIN
 90
        0
 91
        1
 62
     0
 92
       -2
340
0
 93
        0
 40
0.045
309
GRIDFORMAT_END
309
TABLEFORMAT_END
  1
CELLSTYLE_BEGIN
 90
        3
 91
        2
300
_DATA
309
CELLSTYLE_END
  0
XRECORD
  5
C57A
102
{ACAD_REACTORS
330
C501
102
}
330
C501
100
AcDbXrecord
280
     1
102
ACAD_ROUNDTRIP_PRE2007_TABLESTYLE
 90
      512
 91
        0
  1

 92
      512
 93
        0
  2

 94
      512
 95
        0
  3

  0
XRECORD
  5
C555
102
{ACAD_REACTORS
330
C554
102
}
330
C554
100
AcDbXrecord
280
     1
102
RTVSPost2010Prop28
280
     1
102
RTVSPost2010PropOp28
 70
     1
102
RTVSPost2010Prop29
280
     1
102
RTVSPost2010PropOp29
 70
     1
102
RTVSPost2010Prop30
280
     0
102
RTVSPost2010PropOp30
 70
     1
102
RTVSPost2010Prop31
280
     0
102
RTVSPost2010PropOp31
 70
     1
102
RTVSPost2010Prop32
280
     0
102
RTVSPost2010PropOp32
 70
     1
102
RTVSPost2010Prop33
280
     0
102
RTVSPost2010PropOp33
 70
     1
102
RTVSPost2010Prop34
280
     0
102
RTVSPost2010PropOp34
 70
     1
102
RTVSPost2010Prop35
280
     0
102
RTVSPost2010PropOp35
 70
     1
102
RTVSPost2010Prop36
280
     0
102
RTVSPost2010PropOp36
 70
     1
102
RTVSPost2010Prop37
 90
       50
102
RTVSPost2010PropOp37
 70
     1
102
RTVSPost2010Prop38
140
0.0
102
RTVSPost2010PropOp38
 70
     1
102
RTVSPost2010Prop39
140
1.0
102
RTVSPost2010PropOp39
 70
     1
102
RTVSPost2010Prop40
 90
        0
102
RTVSPost2010PropOp40
 70
     1
102
RTVSPost2010Prop41ColorIndex
 90
       18
102
RTVSPost2010Prop41ColorRGB
 90
        0
102
RTVSPost2010PropOp41
 70
     1
102
RTVSPost2010Prop42
 90
       50
102
RTVSPost2010PropOp42
 70
     1
102
RTVSPost2010Prop43
 90
        3
102
RTVSPost2010PropOp43
 70
     1
102
RTVSPost2010Prop44ColorIndex
 90
        5
102
RTVSPost2010Prop44ColorRGB
 90
      255
102
RTVSPost2010PropOp44
 70
     1
102
RTVSPost2010Prop45
280
     0
102
RTVSPost2010PropOp45
 70
     1
102
RTVSPost2010Prop46
 90
       50
102
RTVSPost2010PropOp46
 70
     1
102
RTVSPost2010Prop47
 90
       50
102
RTVSPost2010PropOp47
 70
     1
102
RTVSPost2010Prop48
 90
       50
102
RTVSPost2010PropOp48
 70
     1
102
RTVSPost2010Prop49
280
     0
102
RTVSPost2010PropOp49
 70
     1
102
RTVSPost2010Prop50
 90
       50
102
RTVSPost2010PropOp50
 70
     1
102
RTVSPost2010Prop51ColorIndex
 90
      256
102
RTVSPost2010Prop51ColorRGB
 90
-16777216
102
RTVSPost2010PropOp51
 70
     0
102
RTVSPost2010Prop52
140
1.0
102
RTVSPost2010PropOp52
 70
     0
102
RTVSPost2010Prop53
 90
        2
102
RTVSPost2010PropOp53
 70
     1
102
RTVSPost2010Prop54
  1
strokes_ogs.tif
102
RTVSPost2010PropOp54
 70
     1
102
RTVSPost2010Prop55
280
     0
102
RTVSPost2010PropOp55
 70
     1
102
RTVSPost2010Prop56
140
1.0
102
RTVSPost2010PropOp56
 70
     1
102
RTVSPost2010Prop57
140
1.0
102
RTVSPost2010PropOp57
 70
     1
102
RTVSPropertyOp0
 70
     1
102
RTVSPropertyOp1
 70
     1
102
RTVSPropertyOp2
 70
     1
102
RTVSPropertyOp3
 70
     1
102
RTVSPropertyOp4
 70
     1
102
RTVSPropertyOp5
 70
     1
102
RTVSPropertyOp6
 70
     1
102
RTVSPropertyOp7
 70
     1
102
RTVSPropertyOp8
 70
     1
102
RTVSPropertyOp9
 70
     1
102
RTVSPropertyOp10
 70
     1
102
RTVSPropertyOp11
 70
     1
102
RTVSPropertyOp12
 70
     1
102
RTVSPropertyOp13
 70
     1
102
RTVSPropertyOp14
 70
     1
102
RTVSPropertyOp15
 70
     1
102
RTVSPropertyOp16
 70
     1
102
RTVSPropertyOp17
 70
     1
102
RTVSPropertyOp18
 70
     1
102
RTVSPropertyOp19
 70
     1
102
RTVSPropertyOp20
 70
     1
102
RTVSPropertyOp21
 70
     1
102
RTVSPropertyOp22
 70
     1
102
RTVSPropertyOp23
 70
     1
102
RTVSPropertyOp24
 70
     1
102
RTVSPropertyOp25
 70
     1
102
RTVSPropertyOp26
 70
     1
102
RTVSPropertyOp27
 70
     1
102
RTVSPropertyOp28
 70
     1
102
RTVSPropertyOp29
 70
     1
102
RTVSPropertyOp30
 70
     1
102
RTVSPropertyOp31
 70
     1
102
RTVSPropertyOp32
 70
     1
102
RTVSPropertyOp33
 70
     1
102
RTVSPropertyOp34
 70
     1
102
RTVSPropertyOp35
 70
     1
102
RTVSPropertyOp36
 70
     1
102
RTVSPropertyOp37
 70
     1
102
RTVSPropertyOp38
 70
     1
102
RTVSPropertyOp39
 70
     1
102
RTVSPropertyOp40
 70
     1
102
RTVSPropertyOp41
 70
     1
102
RTVSPropertyOp42
 70
     1
102
RTVSPropertyOp43
 70
     1
102
RTVSPropertyOp44
 70
     1
102
RTVSPropertyOp45
 70
     1
102
RTVSPropertyOp46
 70
     1
102
RTVSPropertyOp47
 70
     1
102
RTVSPropertyOp48
 70
     1
102
RTVSPropertyOp49
 70
     1
102
RTVSPropertyOp50
 70
     1
102
RTVSPropertyOp51
 70
     0
102
RTVSPropertyOp52
 70
     0
102
RTVSPropertyOp53
 70
     1
102
RTVSPropertyOp54
 70
     1
102
RTVSPropertyOp55
 70
     1
102
RTVSPropertyOp56
 70
     1
102
RTVSPropertyOp57
 70
     1
102
RTVSPropertyOp58
 70
     1
102
RTVSPropertyOp59
 70
     1
102
RTVSPropertyOp60
 70
     1
102
RTVSPropertyOp61
 70
     1
102
RTVSPropertyOp62
 70
     1
  0
XRECORD
  5
C553
102
{ACAD_REACTORS
330
C552
102
}
330
C552
100
AcDbXrecord
280
     1
102
RTVSPost2010Prop28
280
     0
102
RTVSPost2010PropOp28
 70
     1
102
RTVSPost2010Prop29
280
     1
102
RTVSPost2010PropOp29
 70
     1
102
RTVSPost2010Prop30
280
     1
102
RTVSPost2010PropOp30
 70
     1
102
RTVSPost2010Prop31
280
     0
102
RTVSPost2010PropOp31
 70
     1
102
RTVSPost2010Prop32
280
     0
102
RTVSPost2010PropOp32
 70
     1
102
RTVSPost2010Prop33
280
     0
102
RTVSPost2010PropOp33
 70
     1
102
RTVSPost2010Prop34
280
     0
102
RTVSPost2010PropOp34
 70
     1
102
RTVSPost2010Prop35
280
     0
102
RTVSPost2010PropOp35
 70
     1
102
RTVSPost2010Prop36
280
     0
102
RTVSPost2010PropOp36
 70
     1
102
RTVSPost2010Prop37
 90
       50
102
RTVSPost2010PropOp37
 70
     1
102
RTVSPost2010Prop38
140
0.0
102
RTVSPost2010PropOp38
 70
     1
102
RTVSPost2010Prop39
140
1.0
102
RTVSPost2010PropOp39
 70
     1
102
RTVSPost2010Prop40
 90
        0
102
RTVSPost2010PropOp40
 70
     1
102
RTVSPost2010Prop41ColorIndex
 90
       18
102
RTVSPost2010Prop41ColorRGB
 90
        0
102
RTVSPost2010PropOp41
 70
     1
102
RTVSPost2010Prop42
 90
       50
102
RTVSPost2010PropOp42
 70
     1
102
RTVSPost2010Prop43
 90
        3
102
RTVSPost2010PropOp43
 70
     1
102
RTVSPost2010Prop44ColorIndex
 90
        5
102
RTVSPost2010Prop44ColorRGB
 90
      255
102
RTVSPost2010PropOp44
 70
     1
102
RTVSPost2010Prop45
280
     0
102
RTVSPost2010PropOp45
 70
     1
102
RTVSPost2010Prop46
 90
       50
102
RTVSPost2010PropOp46
 70
     1
102
RTVSPost2010Prop47
 90
       50
102
RTVSPost2010PropOp47
 70
     1
102
RTVSPost2010Prop48
 90
       50
102
RTVSPost2010PropOp48
 70
     1
102
RTVSPost2010Prop49
280
     0
102
RTVSPost2010PropOp49
 70
     1
102
RTVSPost2010Prop50
 90
       50
102
RTVSPost2010PropOp50
 70
     1
102
RTVSPost2010Prop51ColorIndex
 90
      256
102
RTVSPost2010Prop51ColorRGB
 90
-16777216
102
RTVSPost2010PropOp51
 70
     0
102
RTVSPost2010Prop52
140
1.0
102
RTVSPost2010PropOp52
 70
     0
102
RTVSPost2010Prop53
 90
        2
102
RTVSPost2010PropOp53
 70
     1
102
RTVSPost2010Prop54
  1
strokes_ogs.tif
102
RTVSPost2010PropOp54
 70
     1
102
RTVSPost2010Prop55
280
     0
102
RTVSPost2010PropOp55
 70
     1
102
RTVSPost2010Prop56
140
1.0
102
RTVSPost2010PropOp56
 70
     1
102
RTVSPost2010Prop57
140
1.0
102
RTVSPost2010PropOp57
 70
     1
102
RTVSPropertyOp0
 70
     1
102
RTVSPropertyOp1
 70
     1
102
RTVSPropertyOp2
 70
     1
102
RTVSPropertyOp3
 70
     1
102
RTVSPropertyOp4
 70
     1
102
RTVSPropertyOp5
 70
     1
102
RTVSPropertyOp6
 70
     1
102
RTVSPropertyOp7
 70
     1
102
RTVSPropertyOp8
 70
     1
102
RTVSPropertyOp9
 70
     1
102
RTVSPropertyOp10
 70
     1
102
RTVSPropertyOp11
 70
     1
102
RTVSPropertyOp12
 70
     1
102
RTVSPropertyOp13
 70
     1
102
RTVSPropertyOp14
 70
     1
102
RTVSPropertyOp15
 70
     1
102
RTVSPropertyOp16
 70
     1
102
RTVSPropertyOp17
 70
     1
102
RTVSPropertyOp18
 70
     1
102
RTVSPropertyOp19
 70
     1
102
RTVSPropertyOp20
 70
     1
102
RTVSPropertyOp21
 70
     1
102
RTVSPropertyOp22
 70
     1
102
RTVSPropertyOp23
 70
     1
102
RTVSPropertyOp24
 70
     1
102
RTVSPropertyOp25
 70
     1
102
RTVSPropertyOp26
 70
     1
102
RTVSPropertyOp27
 70
     1
102
RTVSPropertyOp28
 70
     1
102
RTVSPropertyOp29
 70
     1
102
RTVSPropertyOp30
 70
     1
102
RTVSPropertyOp31
 70
     1
102
RTVSPropertyOp32
 70
     1
102
RTVSPropertyOp33
 70
     1
102
RTVSPropertyOp34
 70
     1
102
RTVSPropertyOp35
 70
     1
102
RTVSPropertyOp36
 70
     1
102
RTVSPropertyOp37
 70
     1
102
RTVSPropertyOp38
 70
     1
102
RTVSPropertyOp39
 70
     1
102
RTVSPropertyOp40
 70
     1
102
RTVSPropertyOp41
 70
     1
102
RTVSPropertyOp42
 70
     1
102
RTVSPropertyOp43
 70
     1
102
RTVSPropertyOp44
 70
     1
102
RTVSPropertyOp45
 70
     1
102
RTVSPropertyOp46
 70
     1
102
RTVSPropertyOp47
 70
     1
102
RTVSPropertyOp48
 70
     1
102
RTVSPropertyOp49
 70
     1
102
RTVSPropertyOp50
 70
     1
102
RTVSPropertyOp51
 70
     0
102
RTVSPropertyOp52
 70
     0
102
RTVSPropertyOp53
 70
     1
102
RTVSPropertyOp54
 70
     1
102
RTVSPropertyOp55
 70
     1
102
RTVSPropertyOp56
 70
     1
102
RTVSPropertyOp57
 70
     1
102
RTVSPropertyOp58
 70
     1
102
RTVSPropertyOp59
 70
     1
102
RTVSPropertyOp60
 70
     1
102
RTVSPropertyOp61
 70
     1
102
RTVSPropertyOp62
 70
     1
  0
XRECORD
  5
C561
102
{ACAD_REACTORS
330
C560
102
}
330
C560
100
AcDbXrecord
280
     1
102
RTVSPost2010Prop28
280
     0
102
RTVSPost2010PropOp28
 70
     1
102
RTVSPost2010Prop29
280
     1
102
RTVSPost2010PropOp29
 70
     1
102
RTVSPost2010Prop30
280
     1
102
RTVSPost2010PropOp30
 70
     1
102
RTVSPost2010Prop31
280
     0
102
RTVSPost2010PropOp31
 70
     1
102
RTVSPost2010Prop32
280
     0
102
RTVSPost2010PropOp32
 70
     1
102
RTVSPost2010Prop33
280
     0
102
RTVSPost2010PropOp33
 70
     1
102
RTVSPost2010Prop34
280
     0
102
RTVSPost2010PropOp34
 70
     1
102
RTVSPost2010Prop35
280
     0
102
RTVSPost2010PropOp35
 70
     1
102
RTVSPost2010Prop36
280
     0
102
RTVSPost2010PropOp36
 70
     1
102
RTVSPost2010Prop37
 90
       50
102
RTVSPost2010PropOp37
 70
     1
102
RTVSPost2010Prop38
140
0.0
102
RTVSPost2010PropOp38
 70
     1
102
RTVSPost2010Prop39
140
1.0
102
RTVSPost2010PropOp39
 70
     1
102
RTVSPost2010Prop40
 90
        0
102
RTVSPost2010PropOp40
 70
     1
102
RTVSPost2010Prop41ColorIndex
 90
       18
102
RTVSPost2010Prop41ColorRGB
 90
        0
102
RTVSPost2010PropOp41
 70
     1
102
RTVSPost2010Prop42
 90
       50
102
RTVSPost2010PropOp42
 70
     1
102
RTVSPost2010Prop43
 90
        3
102
RTVSPost2010PropOp43
 70
     1
102
RTVSPost2010Prop44ColorIndex
 90
        5
102
RTVSPost2010Prop44ColorRGB
 90
      255
102
RTVSPost2010PropOp44
 70
     1
102
RTVSPost2010Prop45
280
     0
102
RTVSPost2010PropOp45
 70
     1
102
RTVSPost2010Prop46
 90
       50
102
RTVSPost2010PropOp46
 70
     1
102
RTVSPost2010Prop47
 90
       50
102
RTVSPost2010PropOp47
 70
     1
102
RTVSPost2010Prop48
 90
       50
102
RTVSPost2010PropOp48
 70
     1
102
RTVSPost2010Prop49
280
     0
102
RTVSPost2010PropOp49
 70
     1
102
RTVSPost2010Prop50
 90
       50
102
RTVSPost2010PropOp50
 70
     1
102
RTVSPost2010Prop51ColorIndex
 90
      256
102
RTVSPost2010Prop51ColorRGB
 90
-16777216
102
RTVSPost2010PropOp51
 70
     0
102
RTVSPost2010Prop52
140
1.0
102
RTVSPost2010PropOp52
 70
     0
102
RTVSPost2010Prop53
 90
        2
102
RTVSPost2010PropOp53
 70
     1
102
RTVSPost2010Prop54
  1
strokes_ogs.tif
102
RTVSPost2010PropOp54
 70
     1
102
RTVSPost2010Prop55
280
     0
102
RTVSPost2010PropOp55
 70
     1
102
RTVSPost2010Prop56
140
1.0
102
RTVSPost2010PropOp56
 70
     1
102
RTVSPost2010Prop57
140
1.0
102
RTVSPost2010PropOp57
 70
     1
102
RTVSPropertyOp0
 70
     1
102
RTVSPropertyOp1
 70
     1
102
RTVSPropertyOp2
 70
     1
102
RTVSPropertyOp3
 70
     1
102
RTVSPropertyOp4
 70
     1
102
RTVSPropertyOp5
 70
     1
102
RTVSPropertyOp6
 70
     1
102
RTVSPropertyOp7
 70
     1
102
RTVSPropertyOp8
 70
     1
102
RTVSPropertyOp9
 70
     1
102
RTVSPropertyOp10
 70
     1
102
RTVSPropertyOp11
 70
     1
102
RTVSPropertyOp12
 70
     1
102
RTVSPropertyOp13
 70
     1
102
RTVSPropertyOp14
 70
     1
102
RTVSPropertyOp15
 70
     1
102
RTVSPropertyOp16
 70
     1
102
RTVSPropertyOp17
 70
     1
102
RTVSPropertyOp18
 70
     1
102
RTVSPropertyOp19
 70
     1
102
RTVSPropertyOp20
 70
     1
102
RTVSPropertyOp21
 70
     1
102
RTVSPropertyOp22
 70
     1
102
RTVSPropertyOp23
 70
     1
102
RTVSPropertyOp24
 70
     1
102
RTVSPropertyOp25
 70
     1
102
RTVSPropertyOp26
 70
     1
102
RTVSPropertyOp27
 70
     1
102
RTVSPropertyOp28
 70
     1
102
RTVSPropertyOp29
 70
     1
102
RTVSPropertyOp30
 70
     1
102
RTVSPropertyOp31
 70
     1
102
RTVSPropertyOp32
 70
     1
102
RTVSPropertyOp33
 70
     1
102
RTVSPropertyOp34
 70
     1
102
RTVSPropertyOp35
 70
     1
102
RTVSPropertyOp36
 70
     1
102
RTVSPropertyOp37
 70
     1
102
RTVSPropertyOp38
 70
     1
102
RTVSPropertyOp39
 70
     1
102
RTVSPropertyOp40
 70
     1
102
RTVSPropertyOp41
 70
     1
102
RTVSPropertyOp42
 70
     1
102
RTVSPropertyOp43
 70
     1
102
RTVSPropertyOp44
 70
     1
102
RTVSPropertyOp45
 70
     1
102
RTVSPropertyOp46
 70
     1
102
RTVSPropertyOp47
 70
     1
102
RTVSPropertyOp48
 70
     1
102
RTVSPropertyOp49
 70
     1
102
RTVSPropertyOp50
 70
     1
102
RTVSPropertyOp51
 70
     0
102
RTVSPropertyOp52
 70
     0
102
RTVSPropertyOp53
 70
     1
102
RTVSPropertyOp54
 70
     1
102
RTVSPropertyOp55
 70
     1
102
RTVSPropertyOp56
 70
     1
102
RTVSPropertyOp57
 70
     1
102
RTVSPropertyOp58
 70
     1
102
RTVSPropertyOp59
 70
     1
102
RTVSPropertyOp60
 70
     1
102
RTVSPropertyOp61
 70
     1
102
RTVSPropertyOp62
 70
     1
  0
XRECORD
  5
C569
102
{ACAD_REACTORS
330
C568
102
}
330
C568
100
AcDbXrecord
280
     1
102
RTVSPost2010Prop28
280
     0
102
RTVSPost2010PropOp28
 70
     1
102
RTVSPost2010Prop29
280
     1
102
RTVSPost2010PropOp29
 70
     1
102
RTVSPost2010Prop30
280
     1
102
RTVSPost2010PropOp30
 70
     1
102
RTVSPost2010Prop31
280
     0
102
RTVSPost2010PropOp31
 70
     1
102
RTVSPost2010Prop32
280
     0
102
RTVSPost2010PropOp32
 70
     1
102
RTVSPost2010Prop33
280
     0
102
RTVSPost2010PropOp33
 70
     1
102
RTVSPost2010Prop34
280
     0
102
RTVSPost2010PropOp34
 70
     1
102
RTVSPost2010Prop35
280
     0
102
RTVSPost2010PropOp35
 70
     1
102
RTVSPost2010Prop36
280
     0
102
RTVSPost2010PropOp36
 70
     1
102
RTVSPost2010Prop37
 90
       50
102
RTVSPost2010PropOp37
 70
     1
102
RTVSPost2010Prop38
140
0.0
102
RTVSPost2010PropOp38
 70
     1
102
RTVSPost2010Prop39
140
1.0
102
RTVSPost2010PropOp39
 70
     1
102
RTVSPost2010Prop40
 90
        0
102
RTVSPost2010PropOp40
 70
     1
102
RTVSPost2010Prop41ColorIndex
 90
       18
102
RTVSPost2010Prop41ColorRGB
 90
        0
102
RTVSPost2010PropOp41
 70
     1
102
RTVSPost2010Prop42
 90
       50
102
RTVSPost2010PropOp42
 70
     1
102
RTVSPost2010Prop43
 90
        3
102
RTVSPost2010PropOp43
 70
     1
102
RTVSPost2010Prop44ColorIndex
 90
        5
102
RTVSPost2010Prop44ColorRGB
 90
      255
102
RTVSPost2010PropOp44
 70
     1
102
RTVSPost2010Prop45
280
     0
102
RTVSPost2010PropOp45
 70
     1
102
RTVSPost2010Prop46
 90
       50
102
RTVSPost2010PropOp46
 70
     1
102
RTVSPost2010Prop47
 90
       50
102
RTVSPost2010PropOp47
 70
     1
102
RTVSPost2010Prop48
 90
       50
102
RTVSPost2010PropOp48
 70
     1
102
RTVSPost2010Prop49
280
     0
102
RTVSPost2010PropOp49
 70
     1
102
RTVSPost2010Prop50
 90
       50
102
RTVSPost2010PropOp50
 70
     1
102
RTVSPost2010Prop51ColorIndex
 90
      256
102
RTVSPost2010Prop51ColorRGB
 90
-16777216
102
RTVSPost2010PropOp51
 70
     0
102
RTVSPost2010Prop52
140
1.0
102
RTVSPost2010PropOp52
 70
     0
102
RTVSPost2010Prop53
 90
        2
102
RTVSPost2010PropOp53
 70
     1
102
RTVSPost2010Prop54
  1
strokes_ogs.tif
102
RTVSPost2010PropOp54
 70
     1
102
RTVSPost2010Prop55
280
     0
102
RTVSPost2010PropOp55
 70
     1
102
RTVSPost2010Prop56
140
1.0
102
RTVSPost2010PropOp56
 70
     1
102
RTVSPost2010Prop57
140
1.0
102
RTVSPost2010PropOp57
 70
     1
102
RTVSPropertyOp0
 70
     1
102
RTVSPropertyOp1
 70
     1
102
RTVSPropertyOp2
 70
     1
102
RTVSPropertyOp3
 70
     1
102
RTVSPropertyOp4
 70
     1
102
RTVSPropertyOp5
 70
     1
102
RTVSPropertyOp6
 70
     1
102
RTVSPropertyOp7
 70
     1
102
RTVSPropertyOp8
 70
     1
102
RTVSPropertyOp9
 70
     1
102
RTVSPropertyOp10
 70
     1
102
RTVSPropertyOp11
 70
     1
102
RTVSPropertyOp12
 70
     1
102
RTVSPropertyOp13
 70
     1
102
RTVSPropertyOp14
 70
     1
102
RTVSPropertyOp15
 70
     1
102
RTVSPropertyOp16
 70
     1
102
RTVSPropertyOp17
 70
     1
102
RTVSPropertyOp18
 70
     1
102
RTVSPropertyOp19
 70
     1
102
RTVSPropertyOp20
 70
     1
102
RTVSPropertyOp21
 70
     1
102
RTVSPropertyOp22
 70
     1
102
RTVSPropertyOp23
 70
     1
102
RTVSPropertyOp24
 70
     1
102
RTVSPropertyOp25
 70
     1
102
RTVSPropertyOp26
 70
     1
102
RTVSPropertyOp27
 70
     1
102
RTVSPropertyOp28
 70
     1
102
RTVSPropertyOp29
 70
     1
102
RTVSPropertyOp30
 70
     1
102
RTVSPropertyOp31
 70
     1
102
RTVSPropertyOp32
 70
     1
102
RTVSPropertyOp33
 70
     1
102
RTVSPropertyOp34
 70
     1
102
RTVSPropertyOp35
 70
     1
102
RTVSPropertyOp36
 70
     1
102
RTVSPropertyOp37
 70
     1
102
RTVSPropertyOp38
 70
     1
102
RTVSPropertyOp39
 70
     1
102
RTVSPropertyOp40
 70
     1
102
RTVSPropertyOp41
 70
     1
102
RTVSPropertyOp42
 70
     1
102
RTVSPropertyOp43
 70
     1
102
RTVSPropertyOp44
 70
     1
102
RTVSPropertyOp45
 70
     1
102
RTVSPropertyOp46
 70
     1
102
RTVSPropertyOp47
 70
     1
102
RTVSPropertyOp48
 70
     1
102
RTVSPropertyOp49
 70
     1
102
RTVSPropertyOp50
 70
     1
102
RTVSPropertyOp51
 70
     0
102
RTVSPropertyOp52
 70
     0
102
RTVSPropertyOp53
 70
     1
102
RTVSPropertyOp54
 70
     1
102
RTVSPropertyOp55
 70
     1
102
RTVSPropertyOp56
 70
     1
102
RTVSPropertyOp57
 70
     1
102
RTVSPropertyOp58
 70
     1
102
RTVSPropertyOp59
 70
     1
102
RTVSPropertyOp60
 70
     1
102
RTVSPropertyOp61
 70
     1
102
RTVSPropertyOp62
 70
     1
  0
XRECORD
  5
C55B
102
{ACAD_REACTORS
330
C55A
102
}
330
C55A
100
AcDbXrecord
280
     1
102
RTVSPost2010Prop28
280
     0
102
RTVSPost2010PropOp28
 70
     1
102
RTVSPost2010Prop29
280
     1
102
RTVSPost2010PropOp29
 70
     1
102
RTVSPost2010Prop30
280
     1
102
RTVSPost2010PropOp30
 70
     1
102
RTVSPost2010Prop31
280
     0
102
RTVSPost2010PropOp31
 70
     1
102
RTVSPost2010Prop32
280
     0
102
RTVSPost2010PropOp32
 70
     1
102
RTVSPost2010Prop33
280
     0
102
RTVSPost2010PropOp33
 70
     1
102
RTVSPost2010Prop34
280
     0
102
RTVSPost2010PropOp34
 70
     1
102
RTVSPost2010Prop35
280
     0
102
RTVSPost2010PropOp35
 70
     1
102
RTVSPost2010Prop36
280
     0
102
RTVSPost2010PropOp36
 70
     1
102
RTVSPost2010Prop37
 90
       50
102
RTVSPost2010PropOp37
 70
     1
102
RTVSPost2010Prop38
140
0.0
102
RTVSPost2010PropOp38
 70
     1
102
RTVSPost2010Prop39
140
1.0
102
RTVSPost2010PropOp39
 70
     1
102
RTVSPost2010Prop40
 90
        0
102
RTVSPost2010PropOp40
 70
     1
102
RTVSPost2010Prop41ColorIndex
 90
       18
102
RTVSPost2010Prop41ColorRGB
 90
        0
102
RTVSPost2010PropOp41
 70
     1
102
RTVSPost2010Prop42
 90
       50
102
RTVSPost2010PropOp42
 70
     1
102
RTVSPost2010Prop43
 90
        3
102
RTVSPost2010PropOp43
 70
     1
102
RTVSPost2010Prop44ColorIndex
 90
        5
102
RTVSPost2010Prop44ColorRGB
 90
      255
102
RTVSPost2010PropOp44
 70
     1
102
RTVSPost2010Prop45
280
     0
102
RTVSPost2010PropOp45
 70
     1
102
RTVSPost2010Prop46
 90
       50
102
RTVSPost2010PropOp46
 70
     1
102
RTVSPost2010Prop47
 90
       50
102
RTVSPost2010PropOp47
 70
     1
102
RTVSPost2010Prop48
 90
       50
102
RTVSPost2010PropOp48
 70
     1
102
RTVSPost2010Prop49
280
     0
102
RTVSPost2010PropOp49
 70
     1
102
RTVSPost2010Prop50
 90
       50
102
RTVSPost2010PropOp50
 70
     1
102
RTVSPost2010Prop51ColorIndex
 90
      256
102
RTVSPost2010Prop51ColorRGB
 90
-16777216
102
RTVSPost2010PropOp51
 70
     0
102
RTVSPost2010Prop52
140
1.0
102
RTVSPost2010PropOp52
 70
     0
102
RTVSPost2010Prop53
 90
        2
102
RTVSPost2010PropOp53
 70
     1
102
RTVSPost2010Prop54
  1
strokes_ogs.tif
102
RTVSPost2010PropOp54
 70
     1
102
RTVSPost2010Prop55
280
     0
102
RTVSPost2010PropOp55
 70
     1
102
RTVSPost2010Prop56
140
1.0
102
RTVSPost2010PropOp56
 70
     1
102
RTVSPost2010Prop57
140
1.0
102
RTVSPost2010PropOp57
 70
     1
102
RTVSPropertyOp0
 70
     1
102
RTVSPropertyOp1
 70
     1
102
RTVSPropertyOp2
 70
     1
102
RTVSPropertyOp3
 70
     1
102
RTVSPropertyOp4
 70
     1
102
RTVSPropertyOp5
 70
     1
102
RTVSPropertyOp6
 70
     1
102
RTVSPropertyOp7
 70
     1
102
RTVSPropertyOp8
 70
     1
102
RTVSPropertyOp9
 70
     1
102
RTVSPropertyOp10
 70
     1
102
RTVSPropertyOp11
 70
     1
102
RTVSPropertyOp12
 70
     1
102
RTVSPropertyOp13
 70
     1
102
RTVSPropertyOp14
 70
     1
102
RTVSPropertyOp15
 70
     1
102
RTVSPropertyOp16
 70
     1
102
RTVSPropertyOp17
 70
     1
102
RTVSPropertyOp18
 70
     1
102
RTVSPropertyOp19
 70
     1
102
RTVSPropertyOp20
 70
     1
102
RTVSPropertyOp21
 70
     1
102
RTVSPropertyOp22
 70
     1
102
RTVSPropertyOp23
 70
     1
102
RTVSPropertyOp24
 70
     1
102
RTVSPropertyOp25
 70
     1
102
RTVSPropertyOp26
 70
     1
102
RTVSPropertyOp27
 70
     1
102
RTVSPropertyOp28
 70
     1
102
RTVSPropertyOp29
 70
     1
102
RTVSPropertyOp30
 70
     1
102
RTVSPropertyOp31
 70
     1
102
RTVSPropertyOp32
 70
     1
102
RTVSPropertyOp33
 70
     1
102
RTVSPropertyOp34
 70
     1
102
RTVSPropertyOp35
 70
     1
102
RTVSPropertyOp36
 70
     1
102
RTVSPropertyOp37
 70
     1
102
RTVSPropertyOp38
 70
     1
102
RTVSPropertyOp39
 70
     1
102
RTVSPropertyOp40
 70
     1
102
RTVSPropertyOp41
 70
     1
102
RTVSPropertyOp42
 70
     1
102
RTVSPropertyOp43
 70
     1
102
RTVSPropertyOp44
 70
     1
102
RTVSPropertyOp45
 70
     1
102
RTVSPropertyOp46
 70
     1
102
RTVSPropertyOp47
 70
     1
102
RTVSPropertyOp48
 70
     1
102
RTVSPropertyOp49
 70
     1
102
RTVSPropertyOp50
 70
     1
102
RTVSPropertyOp51
 70
     0
102
RTVSPropertyOp52
 70
     0
102
RTVSPropertyOp53
 70
     1
102
RTVSPropertyOp54
 70
     1
102
RTVSPropertyOp55
 70
     1
102
RTVSPropertyOp56
 70
     1
102
RTVSPropertyOp57
 70
     1
102
RTVSPropertyOp58
 70
     1
102
RTVSPropertyOp59
 70
     1
102
RTVSPropertyOp60
 70
     1
102
RTVSPropertyOp61
 70
     1
102
RTVSPropertyOp62
 70
     1
  0
XRECORD
  5
C55F
102
{ACAD_REACTORS
330
C55E
102
}
330
C55E
100
AcDbXrecord
280
     1
102
RTVSPost2010Prop28
280
     0
102
RTVSPost2010PropOp28
 70
     1
102
RTVSPost2010Prop29
280
     1
102
RTVSPost2010PropOp29
 70
     1
102
RTVSPost2010Prop30
280
     1
102
RTVSPost2010PropOp30
 70
     1
102
RTVSPost2010Prop31
280
     0
102
RTVSPost2010PropOp31
 70
     1
102
RTVSPost2010Prop32
280
     0
102
RTVSPost2010PropOp32
 70
     1
102
RTVSPost2010Prop33
280
     0
102
RTVSPost2010PropOp33
 70
     1
102
RTVSPost2010Prop34
280
     0
102
RTVSPost2010PropOp34
 70
     1
102
RTVSPost2010Prop35
280
     0
102
RTVSPost2010PropOp35
 70
     1
102
RTVSPost2010Prop36
280
     0
102
RTVSPost2010PropOp36
 70
     1
102
RTVSPost2010Prop37
 90
       50
102
RTVSPost2010PropOp37
 70
     1
102
RTVSPost2010Prop38
140
0.0
102
RTVSPost2010PropOp38
 70
     1
102
RTVSPost2010Prop39
140
1.0
102
RTVSPost2010PropOp39
 70
     1
102
RTVSPost2010Prop40
 90
        0
102
RTVSPost2010PropOp40
 70
     1
102
RTVSPost2010Prop41ColorIndex
 90
       18
102
RTVSPost2010Prop41ColorRGB
 90
        0
102
RTVSPost2010PropOp41
 70
     1
102
RTVSPost2010Prop42
 90
       50
102
RTVSPost2010PropOp42
 70
     1
102
RTVSPost2010Prop43
 90
        3
102
RTVSPost2010PropOp43
 70
     1
102
RTVSPost2010Prop44ColorIndex
 90
        5
102
RTVSPost2010Prop44ColorRGB
 90
      255
102
RTVSPost2010PropOp44
 70
     1
102
RTVSPost2010Prop45
280
     0
102
RTVSPost2010PropOp45
 70
     1
102
RTVSPost2010Prop46
 90
       50
102
RTVSPost2010PropOp46
 70
     1
102
RTVSPost2010Prop47
 90
       50
102
RTVSPost2010PropOp47
 70
     1
102
RTVSPost2010Prop48
 90
       50
102
RTVSPost2010PropOp48
 70
     1
102
RTVSPost2010Prop49
280
     0
102
RTVSPost2010PropOp49
 70
     1
102
RTVSPost2010Prop50
 90
       50
102
RTVSPost2010PropOp50
 70
     1
102
RTVSPost2010Prop51ColorIndex
 90
      256
102
RTVSPost2010Prop51ColorRGB
 90
-16777216
102
RTVSPost2010PropOp51
 70
     0
102
RTVSPost2010Prop52
140
1.0
102
RTVSPost2010PropOp52
 70
     0
102
RTVSPost2010Prop53
 90
        2
102
RTVSPost2010PropOp53
 70
     1
102
RTVSPost2010Prop54
  1
strokes_ogs.tif
102
RTVSPost2010PropOp54
 70
     1
102
RTVSPost2010Prop55
280
     0
102
RTVSPost2010PropOp55
 70
     1
102
RTVSPost2010Prop56
140
1.0
102
RTVSPost2010PropOp56
 70
     1
102
RTVSPost2010Prop57
140
1.0
102
RTVSPost2010PropOp57
 70
     1
102
RTVSPropertyOp0
 70
     1
102
RTVSPropertyOp1
 70
     1
102
RTVSPropertyOp2
 70
     1
102
RTVSPropertyOp3
 70
     1
102
RTVSPropertyOp4
 70
     1
102
RTVSPropertyOp5
 70
     1
102
RTVSPropertyOp6
 70
     1
102
RTVSPropertyOp7
 70
     1
102
RTVSPropertyOp8
 70
     1
102
RTVSPropertyOp9
 70
     1
102
RTVSPropertyOp10
 70
     1
102
RTVSPropertyOp11
 70
     1
102
RTVSPropertyOp12
 70
     1
102
RTVSPropertyOp13
 70
     1
102
RTVSPropertyOp14
 70
     1
102
RTVSPropertyOp15
 70
     1
102
RTVSPropertyOp16
 70
     1
102
RTVSPropertyOp17
 70
     1
102
RTVSPropertyOp18
 70
     1
102
RTVSPropertyOp19
 70
     1
102
RTVSPropertyOp20
 70
     1
102
RTVSPropertyOp21
 70
     1
102
RTVSPropertyOp22
 70
     1
102
RTVSPropertyOp23
 70
     1
102
RTVSPropertyOp24
 70
     1
102
RTVSPropertyOp25
 70
     1
102
RTVSPropertyOp26
 70
     1
102
RTVSPropertyOp27
 70
     1
102
RTVSPropertyOp28
 70
     1
102
RTVSPropertyOp29
 70
     1
102
RTVSPropertyOp30
 70
     1
102
RTVSPropertyOp31
 70
     1
102
RTVSPropertyOp32
 70
     1
102
RTVSPropertyOp33
 70
     1
102
RTVSPropertyOp34
 70
     1
102
RTVSPropertyOp35
 70
     1
102
RTVSPropertyOp36
 70
     1
102
RTVSPropertyOp37
 70
     1
102
RTVSPropertyOp38
 70
     1
102
RTVSPropertyOp39
 70
     1
102
RTVSPropertyOp40
 70
     1
102
RTVSPropertyOp41
 70
     1
102
RTVSPropertyOp42
 70
     1
102
RTVSPropertyOp43
 70
     1
102
RTVSPropertyOp44
 70
     1
102
RTVSPropertyOp45
 70
     1
102
RTVSPropertyOp46
 70
     1
102
RTVSPropertyOp47
 70
     1
102
RTVSPropertyOp48
 70
     1
102
RTVSPropertyOp49
 70
     1
102
RTVSPropertyOp50
 70
     1
102
RTVSPropertyOp51
 70
     0
102
RTVSPropertyOp52
 70
     0
102
RTVSPropertyOp53
 70
     1
102
RTVSPropertyOp54
 70
     1
102
RTVSPropertyOp55
 70
     1
102
RTVSPropertyOp56
 70
     1
102
RTVSPropertyOp57
 70
     1
102
RTVSPropertyOp58
 70
     1
102
RTVSPropertyOp59
 70
     1
102
RTVSPropertyOp60
 70
     1
102
RTVSPropertyOp61
 70
     1
102
RTVSPropertyOp62
 70
     1
  0
XRECORD
  5
C579
102
{ACAD_REACTORS
330
C578
102
}
330
C578
100
AcDbXrecord
280
     1
102
RTVSPost2010Prop28
280
     0
102
RTVSPost2010PropOp28
 70
     1
102
RTVSPost2010Prop29
280
     1
102
RTVSPost2010PropOp29
 70
     1
102
RTVSPost2010Prop30
280
     1
102
RTVSPost2010PropOp30
 70
     1
102
RTVSPost2010Prop31
280
     0
102
RTVSPost2010PropOp31
 70
     1
102
RTVSPost2010Prop32
280
     0
102
RTVSPost2010PropOp32
 70
     1
102
RTVSPost2010Prop33
280
     0
102
RTVSPost2010PropOp33
 70
     1
102
RTVSPost2010Prop34
280
     0
102
RTVSPost2010PropOp34
 70
     1
102
RTVSPost2010Prop35
280
     0
102
RTVSPost2010PropOp35
 70
     1
102
RTVSPost2010Prop36
280
     0
102
RTVSPost2010PropOp36
 70
     1
102
RTVSPost2010Prop37
 90
       50
102
RTVSPost2010PropOp37
 70
     0
102
RTVSPost2010Prop38
140
0.0
102
RTVSPost2010PropOp38
 70
     0
102
RTVSPost2010Prop39
140
1.0
102
RTVSPost2010PropOp39
 70
     0
102
RTVSPost2010Prop40
 90
        0
102
RTVSPost2010PropOp40
 70
     0
102
RTVSPost2010Prop41ColorIndex
 90
       18
102
RTVSPost2010Prop41ColorRGB
 90
        0
102
RTVSPost2010PropOp41
 70
     0
102
RTVSPost2010Prop42
 90
       50
102
RTVSPost2010PropOp42
 70
     0
102
RTVSPost2010Prop43
 90
        3
102
RTVSPost2010PropOp43
 70
     0
102
RTVSPost2010Prop44ColorIndex
 90
        5
102
RTVSPost2010Prop44ColorRGB
 90
      255
102
RTVSPost2010PropOp44
 70
     0
102
RTVSPost2010Prop45
280
     0
102
RTVSPost2010PropOp45
 70
     1
102
RTVSPost2010Prop46
 90
       50
102
RTVSPost2010PropOp46
 70
     0
102
RTVSPost2010Prop47
 90
       50
102
RTVSPost2010PropOp47
 70
     0
102
RTVSPost2010Prop48
 90
       50
102
RTVSPost2010PropOp48
 70
     0
102
RTVSPost2010Prop49
280
     0
102
RTVSPost2010PropOp49
 70
     1
102
RTVSPost2010Prop50
 90
       50
102
RTVSPost2010PropOp50
 70
     0
102
RTVSPost2010Prop51ColorIndex
 90
      256
102
RTVSPost2010Prop51ColorRGB
 90
-16777216
102
RTVSPost2010PropOp51
 70
     0
102
RTVSPost2010Prop52
140
1.0
102
RTVSPost2010PropOp52
 70
     0
102
RTVSPost2010Prop53
 90
        2
102
RTVSPost2010PropOp53
 70
     0
102
RTVSPost2010Prop54
  1
strokes_ogs.tif
102
RTVSPost2010PropOp54
 70
     0
102
RTVSPost2010Prop55
280
     0
102
RTVSPost2010PropOp55
 70
     1
102
RTVSPost2010Prop56
140
1.0
102
RTVSPost2010PropOp56
 70
     0
102
RTVSPost2010Prop57
140
1.0
102
RTVSPost2010PropOp57
 70
     0
102
RTVSPropertyOp0
 70
     0
102
RTVSPropertyOp1
 70
     0
102
RTVSPropertyOp2
 70
     0
102
RTVSPropertyOp3
 70
     0
102
RTVSPropertyOp4
 70
     0
102
RTVSPropertyOp5
 70
     0
102
RTVSPropertyOp6
 70
     0
102
RTVSPropertyOp7
 70
     0
102
RTVSPropertyOp8
 70
     0
102
RTVSPropertyOp9
 70
     0
102
RTVSPropertyOp10
 70
     0
102
RTVSPropertyOp11
 70
     0
102
RTVSPropertyOp12
 70
     0
102
RTVSPropertyOp13
 70
     0
102
RTVSPropertyOp14
 70
     2
102
RTVSPropertyOp15
 70
     0
102
RTVSPropertyOp16
 70
     0
102
RTVSPropertyOp17
 70
     0
102
RTVSPropertyOp18
 70
     0
102
RTVSPropertyOp19
 70
     0
102
RTVSPropertyOp20
 70
     0
102
RTVSPropertyOp21
 70
     0
102
RTVSPropertyOp22
 70
     0
102
RTVSPropertyOp23
 70
     0
102
RTVSPropertyOp24
 70
     0
102
RTVSPropertyOp25
 70
     0
102
RTVSPropertyOp26
 70
     0
102
RTVSPropertyOp27
 70
     0
102
RTVSPropertyOp28
 70
     1
102
RTVSPropertyOp29
 70
     1
102
RTVSPropertyOp30
 70
     1
102
RTVSPropertyOp31
 70
     1
102
RTVSPropertyOp32
 70
     1
102
RTVSPropertyOp33
 70
     1
102
RTVSPropertyOp34
 70
     1
102
RTVSPropertyOp35
 70
     1
102
RTVSPropertyOp36
 70
     1
102
RTVSPropertyOp37
 70
     0
102
RTVSPropertyOp38
 70
     0
102
RTVSPropertyOp39
 70
     0
102
RTVSPropertyOp40
 70
     0
102
RTVSPropertyOp41
 70
     0
102
RTVSPropertyOp42
 70
     0
102
RTVSPropertyOp43
 70
     0
102
RTVSPropertyOp44
 70
     0
102
RTVSPropertyOp45
 70
     1
102
RTVSPropertyOp46
 70
     0
102
RTVSPropertyOp47
 70
     0
102
RTVSPropertyOp48
 70
     0
102
RTVSPropertyOp49
 70
     1
102
RTVSPropertyOp50
 70
     0
102
RTVSPropertyOp51
 70
     0
102
RTVSPropertyOp52
 70
     0
102
RTVSPropertyOp53
 70
     0
102
RTVSPropertyOp54
 70
     0
102
RTVSPropertyOp55
 70
     1
102
RTVSPropertyOp56
 70
     0
102
RTVSPropertyOp57
 70
     0
102
RTVSPropertyOp58
 70
     0
102
RTVSPropertyOp59
 70
     0
102
RTVSPropertyOp60
 70
     0
102
RTVSPropertyOp61
 70
     0
102
RTVSPropertyOp62
 70
     0
  0
XRECORD
  5
C567
102
{ACAD_REACTORS
330
C566
102
}
330
C566
100
AcDbXrecord
280
     1
102
RTVSPost2010Prop28
280
     0
102
RTVSPost2010PropOp28
 70
     1
102
RTVSPost2010Prop29
280
     1
102
RTVSPost2010PropOp29
 70
     1
102
RTVSPost2010Prop30
280
     1
102
RTVSPost2010PropOp30
 70
     1
102
RTVSPost2010Prop31
280
     0
102
RTVSPost2010PropOp31
 70
     1
102
RTVSPost2010Prop32
280
     0
102
RTVSPost2010PropOp32
 70
     1
102
RTVSPost2010Prop33
280
     0
102
RTVSPost2010PropOp33
 70
     1
102
RTVSPost2010Prop34
280
     0
102
RTVSPost2010PropOp34
 70
     1
102
RTVSPost2010Prop35
280
     0
102
RTVSPost2010PropOp35
 70
     1
102
RTVSPost2010Prop36
280
     0
102
RTVSPost2010PropOp36
 70
     1
102
RTVSPost2010Prop37
 90
       50
102
RTVSPost2010PropOp37
 70
     1
102
RTVSPost2010Prop38
140
0.0
102
RTVSPost2010PropOp38
 70
     1
102
RTVSPost2010Prop39
140
1.0
102
RTVSPost2010PropOp39
 70
     1
102
RTVSPost2010Prop40
 90
        0
102
RTVSPost2010PropOp40
 70
     1
102
RTVSPost2010Prop41ColorIndex
 90
       18
102
RTVSPost2010Prop41ColorRGB
 90
        0
102
RTVSPost2010PropOp41
 70
     1
102
RTVSPost2010Prop42
 90
       50
102
RTVSPost2010PropOp42
 70
     1
102
RTVSPost2010Prop43
 90
        3
102
RTVSPost2010PropOp43
 70
     1
102
RTVSPost2010Prop44ColorIndex
 90
        5
102
RTVSPost2010Prop44ColorRGB
 90
      255
102
RTVSPost2010PropOp44
 70
     1
102
RTVSPost2010Prop45
280
     0
102
RTVSPost2010PropOp45
 70
     1
102
RTVSPost2010Prop46
 90
       50
102
RTVSPost2010PropOp46
 70
     1
102
RTVSPost2010Prop47
 90
       50
102
RTVSPost2010PropOp47
 70
     1
102
RTVSPost2010Prop48
 90
       50
102
RTVSPost2010PropOp48
 70
     1
102
RTVSPost2010Prop49
280
     0
102
RTVSPost2010PropOp49
 70
     1
102
RTVSPost2010Prop50
 90
       50
102
RTVSPost2010PropOp50
 70
     1
102
RTVSPost2010Prop51ColorIndex
 90
      256
102
RTVSPost2010Prop51ColorRGB
 90
-16777216
102
RTVSPost2010PropOp51
 70
     0
102
RTVSPost2010Prop52
140
1.0
102
RTVSPost2010PropOp52
 70
     0
102
RTVSPost2010Prop53
 90
        2
102
RTVSPost2010PropOp53
 70
     1
102
RTVSPost2010Prop54
  1
strokes_ogs.tif
102
RTVSPost2010PropOp54
 70
     1
102
RTVSPost2010Prop55
280
     0
102
RTVSPost2010PropOp55
 70
     1
102
RTVSPost2010Prop56
140
1.0
102
RTVSPost2010PropOp56
 70
     1
102
RTVSPost2010Prop57
140
1.0
102
RTVSPost2010PropOp57
 70
     1
102
RTVSPropertyOp0
 70
     1
102
RTVSPropertyOp1
 70
     1
102
RTVSPropertyOp2
 70
     1
102
RTVSPropertyOp3
 70
     1
102
RTVSPropertyOp4
 70
     1
102
RTVSPropertyOp5
 70
     1
102
RTVSPropertyOp6
 70
     1
102
RTVSPropertyOp7
 70
     1
102
RTVSPropertyOp8
 70
     1
102
RTVSPropertyOp9
 70
     1
102
RTVSPropertyOp10
 70
     1
102
RTVSPropertyOp11
 70
     1
102
RTVSPropertyOp12
 70
     1
102
RTVSPropertyOp13
 70
     1
102
RTVSPropertyOp14
 70
     1
102
RTVSPropertyOp15
 70
     1
102
RTVSPropertyOp16
 70
     1
102
RTVSPropertyOp17
 70
     1
102
RTVSPropertyOp18
 70
     1
102
RTVSPropertyOp19
 70
     1
102
RTVSPropertyOp20
 70
     1
102
RTVSPropertyOp21
 70
     1
102
RTVSPropertyOp22
 70
     1
102
RTVSPropertyOp23
 70
     1
102
RTVSPropertyOp24
 70
     1
102
RTVSPropertyOp25
 70
     1
102
RTVSPropertyOp26
 70
     1
102
RTVSPropertyOp27
 70
     1
102
RTVSPropertyOp28
 70
     1
102
RTVSPropertyOp29
 70
     1
102
RTVSPropertyOp30
 70
     1
102
RTVSPropertyOp31
 70
     1
102
RTVSPropertyOp32
 70
     1
102
RTVSPropertyOp33
 70
     1
102
RTVSPropertyOp34
 70
     1
102
RTVSPropertyOp35
 70
     1
102
RTVSPropertyOp36
 70
     1
102
RTVSPropertyOp37
 70
     1
102
RTVSPropertyOp38
 70
     1
102
RTVSPropertyOp39
 70
     1
102
RTVSPropertyOp40
 70
     1
102
RTVSPropertyOp41
 70
     1
102
RTVSPropertyOp42
 70
     1
102
RTVSPropertyOp43
 70
     1
102
RTVSPropertyOp44
 70
     1
102
RTVSPropertyOp45
 70
     1
102
RTVSPropertyOp46
 70
     1
102
RTVSPropertyOp47
 70
     1
102
RTVSPropertyOp48
 70
     1
102
RTVSPropertyOp49
 70
     1
102
RTVSPropertyOp50
 70
     1
102
RTVSPropertyOp51
 70
     0
102
RTVSPropertyOp52
 70
     0
102
RTVSPropertyOp53
 70
     1
102
RTVSPropertyOp54
 70
     1
102
RTVSPropertyOp55
 70
     1
102
RTVSPropertyOp56
 70
     1
102
RTVSPropertyOp57
 70
     1
102
RTVSPropertyOp58
 70
     1
102
RTVSPropertyOp59
 70
     1
102
RTVSPropertyOp60
 70
     1
102
RTVSPropertyOp61
 70
     1
102
RTVSPropertyOp62
 70
     1
  0
XRECORD
  5
C54B
102
{ACAD_REACTORS
330
C54A
102
}
330
C54A
100
AcDbXrecord
280
     1
102
RTVSPost2010Prop28
280
     0
102
RTVSPost2010PropOp28
 70
     1
102
RTVSPost2010Prop29
280
     1
102
RTVSPost2010PropOp29
 70
     1
102
RTVSPost2010Prop30
280
     1
102
RTVSPost2010PropOp30
 70
     1
102
RTVSPost2010Prop31
280
     0
102
RTVSPost2010PropOp31
 70
     1
102
RTVSPost2010Prop32
280
     0
102
RTVSPost2010PropOp32
 70
     1
102
RTVSPost2010Prop33
280
     0
102
RTVSPost2010PropOp33
 70
     1
102
RTVSPost2010Prop34
280
     0
102
RTVSPost2010PropOp34
 70
     1
102
RTVSPost2010Prop35
280
     0
102
RTVSPost2010PropOp35
 70
     1
102
RTVSPost2010Prop36
280
     0
102
RTVSPost2010PropOp36
 70
     1
102
RTVSPost2010Prop37
 90
       50
102
RTVSPost2010PropOp37
 70
     1
102
RTVSPost2010Prop38
140
0.0
102
RTVSPost2010PropOp38
 70
     1
102
RTVSPost2010Prop39
140
1.0
102
RTVSPost2010PropOp39
 70
     1
102
RTVSPost2010Prop40
 90
        0
102
RTVSPost2010PropOp40
 70
     1
102
RTVSPost2010Prop41ColorIndex
 90
       18
102
RTVSPost2010Prop41ColorRGB
 90
        0
102
RTVSPost2010PropOp41
 70
     1
102
RTVSPost2010Prop42
 90
       50
102
RTVSPost2010PropOp42
 70
     1
102
RTVSPost2010Prop43
 90
        3
102
RTVSPost2010PropOp43
 70
     1
102
RTVSPost2010Prop44ColorIndex
 90
        5
102
RTVSPost2010Prop44ColorRGB
 90
      255
102
RTVSPost2010PropOp44
 70
     1
102
RTVSPost2010Prop45
280
     0
102
RTVSPost2010PropOp45
 70
     1
102
RTVSPost2010Prop46
 90
       50
102
RTVSPost2010PropOp46
 70
     1
102
RTVSPost2010Prop47
 90
       50
102
RTVSPost2010PropOp47
 70
     1
102
RTVSPost2010Prop48
 90
       50
102
RTVSPost2010PropOp48
 70
     1
102
RTVSPost2010Prop49
280
     0
102
RTVSPost2010PropOp49
 70
     1
102
RTVSPost2010Prop50
 90
       50
102
RTVSPost2010PropOp50
 70
     1
102
RTVSPost2010Prop51ColorIndex
 90
      256
102
RTVSPost2010Prop51ColorRGB
 90
-16777216
102
RTVSPost2010PropOp51
 70
     0
102
RTVSPost2010Prop52
140
1.0
102
RTVSPost2010PropOp52
 70
     0
102
RTVSPost2010Prop53
 90
        2
102
RTVSPost2010PropOp53
 70
     1
102
RTVSPost2010Prop54
  1
strokes_ogs.tif
102
RTVSPost2010PropOp54
 70
     1
102
RTVSPost2010Prop55
280
     0
102
RTVSPost2010PropOp55
 70
     1
102
RTVSPost2010Prop56
140
1.0
102
RTVSPost2010PropOp56
 70
     1
102
RTVSPost2010Prop57
140
1.0
102
RTVSPost2010PropOp57
 70
     1
102
RTVSPropertyOp0
 70
     1
102
RTVSPropertyOp1
 70
     1
102
RTVSPropertyOp2
 70
     1
102
RTVSPropertyOp3
 70
     1
102
RTVSPropertyOp4
 70
     1
102
RTVSPropertyOp5
 70
     1
102
RTVSPropertyOp6
 70
     1
102
RTVSPropertyOp7
 70
     1
102
RTVSPropertyOp8
 70
     1
102
RTVSPropertyOp9
 70
     1
102
RTVSPropertyOp10
 70
     1
102
RTVSPropertyOp11
 70
     1
102
RTVSPropertyOp12
 70
     1
102
RTVSPropertyOp13
 70
     1
102
RTVSPropertyOp14
 70
     1
102
RTVSPropertyOp15
 70
     1
102
RTVSPropertyOp16
 70
     1
102
RTVSPropertyOp17
 70
     1
102
RTVSPropertyOp18
 70
     1
102
RTVSPropertyOp19
 70
     1
102
RTVSPropertyOp20
 70
     1
102
RTVSPropertyOp21
 70
     1
102
RTVSPropertyOp22
 70
     1
102
RTVSPropertyOp23
 70
     1
102
RTVSPropertyOp24
 70
     1
102
RTVSPropertyOp25
 70
     1
102
RTVSPropertyOp26
 70
     1
102
RTVSPropertyOp27
 70
     1
102
RTVSPropertyOp28
 70
     1
102
RTVSPropertyOp29
 70
     1
102
RTVSPropertyOp30
 70
     1
102
RTVSPropertyOp31
 70
     1
102
RTVSPropertyOp32
 70
     1
102
RTVSPropertyOp33
 70
     1
102
RTVSPropertyOp34
 70
     1
102
RTVSPropertyOp35
 70
     1
102
RTVSPropertyOp36
 70
     1
102
RTVSPropertyOp37
 70
     1
102
RTVSPropertyOp38
 70
     1
102
RTVSPropertyOp39
 70
     1
102
RTVSPropertyOp40
 70
     1
102
RTVSPropertyOp41
 70
     1
102
RTVSPropertyOp42
 70
     1
102
RTVSPropertyOp43
 70
     1
102
RTVSPropertyOp44
 70
     1
102
RTVSPropertyOp45
 70
     1
102
RTVSPropertyOp46
 70
     1
102
RTVSPropertyOp47
 70
     1
102
RTVSPropertyOp48
 70
     1
102
RTVSPropertyOp49
 70
     1
102
RTVSPropertyOp50
 70
     1
102
RTVSPropertyOp51
 70
     0
102
RTVSPropertyOp52
 70
     0
102
RTVSPropertyOp53
 70
     1
102
RTVSPropertyOp54
 70
     1
102
RTVSPropertyOp55
 70
     1
102
RTVSPropertyOp56
 70
     1
102
RTVSPropertyOp57
 70
     1
102
RTVSPropertyOp58
 70
     1
102
RTVSPropertyOp59
 70
     1
102
RTVSPropertyOp60
 70
     1
102
RTVSPropertyOp61
 70
     1
102
RTVSPropertyOp62
 70
     1
  0
XRECORD
  5
C54D
102
{ACAD_REACTORS
330
C54C
102
}
330
C54C
100
AcDbXrecord
280
     1
102
RTVSPost2010Prop28
280
     0
102
RTVSPost2010PropOp28
 70
     1
102
RTVSPost2010Prop29
280
     1
102
RTVSPost2010PropOp29
 70
     1
102
RTVSPost2010Prop30
280
     1
102
RTVSPost2010PropOp30
 70
     1
102
RTVSPost2010Prop31
280
     0
102
RTVSPost2010PropOp31
 70
     1
102
RTVSPost2010Prop32
280
     0
102
RTVSPost2010PropOp32
 70
     1
102
RTVSPost2010Prop33
280
     0
102
RTVSPost2010PropOp33
 70
     1
102
RTVSPost2010Prop34
280
     0
102
RTVSPost2010PropOp34
 70
     1
102
RTVSPost2010Prop35
280
     0
102
RTVSPost2010PropOp35
 70
     1
102
RTVSPost2010Prop36
280
     0
102
RTVSPost2010PropOp36
 70
     1
102
RTVSPost2010Prop37
 90
       50
102
RTVSPost2010PropOp37
 70
     1
102
RTVSPost2010Prop38
140
0.0
102
RTVSPost2010PropOp38
 70
     1
102
RTVSPost2010Prop39
140
1.0
102
RTVSPost2010PropOp39
 70
     1
102
RTVSPost2010Prop40
 90
        0
102
RTVSPost2010PropOp40
 70
     1
102
RTVSPost2010Prop41ColorIndex
 90
       18
102
RTVSPost2010Prop41ColorRGB
 90
        0
102
RTVSPost2010PropOp41
 70
     1
102
RTVSPost2010Prop42
 90
       50
102
RTVSPost2010PropOp42
 70
     1
102
RTVSPost2010Prop43
 90
        3
102
RTVSPost2010PropOp43
 70
     1
102
RTVSPost2010Prop44ColorIndex
 90
        5
102
RTVSPost2010Prop44ColorRGB
 90
      255
102
RTVSPost2010PropOp44
 70
     1
102
RTVSPost2010Prop45
280
     0
102
RTVSPost2010PropOp45
 70
     1
102
RTVSPost2010Prop46
 90
       50
102
RTVSPost2010PropOp46
 70
     1
102
RTVSPost2010Prop47
 90
       50
102
RTVSPost2010PropOp47
 70
     1
102
RTVSPost2010Prop48
 90
       50
102
RTVSPost2010PropOp48
 70
     1
102
RTVSPost2010Prop49
280
     0
102
RTVSPost2010PropOp49
 70
     1
102
RTVSPost2010Prop50
 90
       50
102
RTVSPost2010PropOp50
 70
     1
102
RTVSPost2010Prop51ColorIndex
 90
      256
102
RTVSPost2010Prop51ColorRGB
 90
-16777216
102
RTVSPost2010PropOp51
 70
     0
102
RTVSPost2010Prop52
140
1.0
102
RTVSPost2010PropOp52
 70
     0
102
RTVSPost2010Prop53
 90
        2
102
RTVSPost2010PropOp53
 70
     1
102
RTVSPost2010Prop54
  1
strokes_ogs.tif
102
RTVSPost2010PropOp54
 70
     1
102
RTVSPost2010Prop55
280
     0
102
RTVSPost2010PropOp55
 70
     1
102
RTVSPost2010Prop56
140
1.0
102
RTVSPost2010PropOp56
 70
     1
102
RTVSPost2010Prop57
140
1.0
102
RTVSPost2010PropOp57
 70
     1
102
RTVSPropertyOp0
 70
     1
102
RTVSPropertyOp1
 70
     1
102
RTVSPropertyOp2
 70
     1
102
RTVSPropertyOp3
 70
     1
102
RTVSPropertyOp4
 70
     1
102
RTVSPropertyOp5
 70
     1
102
RTVSPropertyOp6
 70
     1
102
RTVSPropertyOp7
 70
     1
102
RTVSPropertyOp8
 70
     1
102
RTVSPropertyOp9
 70
     1
102
RTVSPropertyOp10
 70
     1
102
RTVSPropertyOp11
 70
     1
102
RTVSPropertyOp12
 70
     1
102
RTVSPropertyOp13
 70
     1
102
RTVSPropertyOp14
 70
     1
102
RTVSPropertyOp15
 70
     1
102
RTVSPropertyOp16
 70
     1
102
RTVSPropertyOp17
 70
     1
102
RTVSPropertyOp18
 70
     1
102
RTVSPropertyOp19
 70
     1
102
RTVSPropertyOp20
 70
     1
102
RTVSPropertyOp21
 70
     1
102
RTVSPropertyOp22
 70
     1
102
RTVSPropertyOp23
 70
     1
102
RTVSPropertyOp24
 70
     1
102
RTVSPropertyOp25
 70
     1
102
RTVSPropertyOp26
 70
     1
102
RTVSPropertyOp27
 70
     1
102
RTVSPropertyOp28
 70
     1
102
RTVSPropertyOp29
 70
     1
102
RTVSPropertyOp30
 70
     1
102
RTVSPropertyOp31
 70
     1
102
RTVSPropertyOp32
 70
     1
102
RTVSPropertyOp33
 70
     1
102
RTVSPropertyOp34
 70
     1
102
RTVSPropertyOp35
 70
     1
102
RTVSPropertyOp36
 70
     1
102
RTVSPropertyOp37
 70
     1
102
RTVSPropertyOp38
 70
     1
102
RTVSPropertyOp39
 70
     1
102
RTVSPropertyOp40
 70
     1
102
RTVSPropertyOp41
 70
     1
102
RTVSPropertyOp42
 70
     1
102
RTVSPropertyOp43
 70
     1
102
RTVSPropertyOp44
 70
     1
102
RTVSPropertyOp45
 70
     1
102
RTVSPropertyOp46
 70
     1
102
RTVSPropertyOp47
 70
     1
102
RTVSPropertyOp48
 70
     1
102
RTVSPropertyOp49
 70
     1
102
RTVSPropertyOp50
 70
     1
102
RTVSPropertyOp51
 70
     0
102
RTVSPropertyOp52
 70
     0
102
RTVSPropertyOp53
 70
     1
102
RTVSPropertyOp54
 70
     1
102
RTVSPropertyOp55
 70
     1
102
RTVSPropertyOp56
 70
     1
102
RTVSPropertyOp57
 70
     1
102
RTVSPropertyOp58
 70
     1
102
RTVSPropertyOp59
 70
     1
102
RTVSPropertyOp60
 70
     1
102
RTVSPropertyOp61
 70
     1
102
RTVSPropertyOp62
 70
     1
  0
XRECORD
  5
C54F
102
{ACAD_REACTORS
330
C54E
102
}
330
C54E
100
AcDbXrecord
280
     1
102
RTVSPost2010Prop28
280
     0
102
RTVSPost2010PropOp28
 70
     1
102
RTVSPost2010Prop29
280
     1
102
RTVSPost2010PropOp29
 70
     1
102
RTVSPost2010Prop30
280
     1
102
RTVSPost2010PropOp30
 70
     1
102
RTVSPost2010Prop31
280
     0
102
RTVSPost2010PropOp31
 70
     1
102
RTVSPost2010Prop32
280
     0
102
RTVSPost2010PropOp32
 70
     1
102
RTVSPost2010Prop33
280
     0
102
RTVSPost2010PropOp33
 70
     1
102
RTVSPost2010Prop34
280
     0
102
RTVSPost2010PropOp34
 70
     1
102
RTVSPost2010Prop35
280
     0
102
RTVSPost2010PropOp35
 70
     1
102
RTVSPost2010Prop36
280
     0
102
RTVSPost2010PropOp36
 70
     1
102
RTVSPost2010Prop37
 90
       50
102
RTVSPost2010PropOp37
 70
     1
102
RTVSPost2010Prop38
140
0.0
102
RTVSPost2010PropOp38
 70
     1
102
RTVSPost2010Prop39
140
1.0
102
RTVSPost2010PropOp39
 70
     1
102
RTVSPost2010Prop40
 90
        0
102
RTVSPost2010PropOp40
 70
     1
102
RTVSPost2010Prop41ColorIndex
 90
       18
102
RTVSPost2010Prop41ColorRGB
 90
        0
102
RTVSPost2010PropOp41
 70
     1
102
RTVSPost2010Prop42
 90
       50
102
RTVSPost2010PropOp42
 70
     1
102
RTVSPost2010Prop43
 90
        3
102
RTVSPost2010PropOp43
 70
     1
102
RTVSPost2010Prop44ColorIndex
 90
        5
102
RTVSPost2010Prop44ColorRGB
 90
      255
102
RTVSPost2010PropOp44
 70
     1
102
RTVSPost2010Prop45
280
     0
102
RTVSPost2010PropOp45
 70
     1
102
RTVSPost2010Prop46
 90
       50
102
RTVSPost2010PropOp46
 70
     1
102
RTVSPost2010Prop47
 90
       50
102
RTVSPost2010PropOp47
 70
     1
102
RTVSPost2010Prop48
 90
       50
102
RTVSPost2010PropOp48
 70
     1
102
RTVSPost2010Prop49
280
     0
102
RTVSPost2010PropOp49
 70
     1
102
RTVSPost2010Prop50
 90
       50
102
RTVSPost2010PropOp50
 70
     1
102
RTVSPost2010Prop51ColorIndex
 90
      256
102
RTVSPost2010Prop51ColorRGB
 90
-16777216
102
RTVSPost2010PropOp51
 70
     0
102
RTVSPost2010Prop52
140
1.0
102
RTVSPost2010PropOp52
 70
     0
102
RTVSPost2010Prop53
 90
        2
102
RTVSPost2010PropOp53
 70
     1
102
RTVSPost2010Prop54
  1
strokes_ogs.tif
102
RTVSPost2010PropOp54
 70
     1
102
RTVSPost2010Prop55
280
     0
102
RTVSPost2010PropOp55
 70
     1
102
RTVSPost2010Prop56
140
1.0
102
RTVSPost2010PropOp56
 70
     1
102
RTVSPost2010Prop57
140
1.0
102
RTVSPost2010PropOp57
 70
     1
102
RTVSPropertyOp0
 70
     1
102
RTVSPropertyOp1
 70
     1
102
RTVSPropertyOp2
 70
     1
102
RTVSPropertyOp3
 70
     1
102
RTVSPropertyOp4
 70
     1
102
RTVSPropertyOp5
 70
     1
102
RTVSPropertyOp6
 70
     1
102
RTVSPropertyOp7
 70
     1
102
RTVSPropertyOp8
 70
     1
102
RTVSPropertyOp9
 70
     1
102
RTVSPropertyOp10
 70
     1
102
RTVSPropertyOp11
 70
     1
102
RTVSPropertyOp12
 70
     1
102
RTVSPropertyOp13
 70
     1
102
RTVSPropertyOp14
 70
     1
102
RTVSPropertyOp15
 70
     1
102
RTVSPropertyOp16
 70
     1
102
RTVSPropertyOp17
 70
     1
102
RTVSPropertyOp18
 70
     1
102
RTVSPropertyOp19
 70
     1
102
RTVSPropertyOp20
 70
     1
102
RTVSPropertyOp21
 70
     1
102
RTVSPropertyOp22
 70
     1
102
RTVSPropertyOp23
 70
     1
102
RTVSPropertyOp24
 70
     1
102
RTVSPropertyOp25
 70
     1
102
RTVSPropertyOp26
 70
     1
102
RTVSPropertyOp27
 70
     1
102
RTVSPropertyOp28
 70
     1
102
RTVSPropertyOp29
 70
     1
102
RTVSPropertyOp30
 70
     1
102
RTVSPropertyOp31
 70
     1
102
RTVSPropertyOp32
 70
     1
102
RTVSPropertyOp33
 70
     1
102
RTVSPropertyOp34
 70
     1
102
RTVSPropertyOp35
 70
     1
102
RTVSPropertyOp36
 70
     1
102
RTVSPropertyOp37
 70
     1
102
RTVSPropertyOp38
 70
     1
102
RTVSPropertyOp39
 70
     1
102
RTVSPropertyOp40
 70
     1
102
RTVSPropertyOp41
 70
     1
102
RTVSPropertyOp42
 70
     1
102
RTVSPropertyOp43
 70
     1
102
RTVSPropertyOp44
 70
     1
102
RTVSPropertyOp45
 70
     1
102
RTVSPropertyOp46
 70
     1
102
RTVSPropertyOp47
 70
     1
102
RTVSPropertyOp48
 70
     1
102
RTVSPropertyOp49
 70
     1
102
RTVSPropertyOp50
 70
     1
102
RTVSPropertyOp51
 70
     0
102
RTVSPropertyOp52
 70
     0
102
RTVSPropertyOp53
 70
     1
102
RTVSPropertyOp54
 70
     1
102
RTVSPropertyOp55
 70
     1
102
RTVSPropertyOp56
 70
     1
102
RTVSPropertyOp57
 70
     1
102
RTVSPropertyOp58
 70
     1
102
RTVSPropertyOp59
 70
     1
102
RTVSPropertyOp60
 70
     1
102
RTVSPropertyOp61
 70
     1
102
RTVSPropertyOp62
 70
     1
  0
XRECORD
  5
C551
102
{ACAD_REACTORS
330
C550
102
}
330
C550
100
AcDbXrecord
280
     1
102
RTVSPost2010Prop28
280
     0
102
RTVSPost2010PropOp28
 70
     1
102
RTVSPost2010Prop29
280
     1
102
RTVSPost2010PropOp29
 70
     1
102
RTVSPost2010Prop30
280
     1
102
RTVSPost2010PropOp30
 70
     1
102
RTVSPost2010Prop31
280
     0
102
RTVSPost2010PropOp31
 70
     1
102
RTVSPost2010Prop32
280
     0
102
RTVSPost2010PropOp32
 70
     1
102
RTVSPost2010Prop33
280
     0
102
RTVSPost2010PropOp33
 70
     1
102
RTVSPost2010Prop34
280
     0
102
RTVSPost2010PropOp34
 70
     1
102
RTVSPost2010Prop35
280
     0
102
RTVSPost2010PropOp35
 70
     1
102
RTVSPost2010Prop36
280
     0
102
RTVSPost2010PropOp36
 70
     1
102
RTVSPost2010Prop37
 90
       50
102
RTVSPost2010PropOp37
 70
     1
102
RTVSPost2010Prop38
140
0.0
102
RTVSPost2010PropOp38
 70
     1
102
RTVSPost2010Prop39
140
1.0
102
RTVSPost2010PropOp39
 70
     1
102
RTVSPost2010Prop40
 90
        0
102
RTVSPost2010PropOp40
 70
     1
102
RTVSPost2010Prop41ColorIndex
 90
       18
102
RTVSPost2010Prop41ColorRGB
 90
        0
102
RTVSPost2010PropOp41
 70
     1
102
RTVSPost2010Prop42
 90
       50
102
RTVSPost2010PropOp42
 70
     1
102
RTVSPost2010Prop43
 90
        3
102
RTVSPost2010PropOp43
 70
     1
102
RTVSPost2010Prop44ColorIndex
 90
        5
102
RTVSPost2010Prop44ColorRGB
 90
      255
102
RTVSPost2010PropOp44
 70
     1
102
RTVSPost2010Prop45
280
     0
102
RTVSPost2010PropOp45
 70
     1
102
RTVSPost2010Prop46
 90
       50
102
RTVSPost2010PropOp46
 70
     1
102
RTVSPost2010Prop47
 90
       50
102
RTVSPost2010PropOp47
 70
     1
102
RTVSPost2010Prop48
 90
       50
102
RTVSPost2010PropOp48
 70
     1
102
RTVSPost2010Prop49
280
     0
102
RTVSPost2010PropOp49
 70
     1
102
RTVSPost2010Prop50
 90
       50
102
RTVSPost2010PropOp50
 70
     1
102
RTVSPost2010Prop51ColorIndex
 90
      256
102
RTVSPost2010Prop51ColorRGB
 90
-16777216
102
RTVSPost2010PropOp51
 70
     0
102
RTVSPost2010Prop52
140
1.0
102
RTVSPost2010PropOp52
 70
     0
102
RTVSPost2010Prop53
 90
        2
102
RTVSPost2010PropOp53
 70
     1
102
RTVSPost2010Prop54
  1
strokes_ogs.tif
102
RTVSPost2010PropOp54
 70
     1
102
RTVSPost2010Prop55
280
     0
102
RTVSPost2010PropOp55
 70
     1
102
RTVSPost2010Prop56
140
1.0
102
RTVSPost2010PropOp56
 70
     1
102
RTVSPost2010Prop57
140
1.0
102
RTVSPost2010PropOp57
 70
     1
102
RTVSPropertyOp0
 70
     1
102
RTVSPropertyOp1
 70
     1
102
RTVSPropertyOp2
 70
     1
102
RTVSPropertyOp3
 70
     1
102
RTVSPropertyOp4
 70
     1
102
RTVSPropertyOp5
 70
     1
102
RTVSPropertyOp6
 70
     1
102
RTVSPropertyOp7
 70
     1
102
RTVSPropertyOp8
 70
     1
102
RTVSPropertyOp9
 70
     1
102
RTVSPropertyOp10
 70
     1
102
RTVSPropertyOp11
 70
     1
102
RTVSPropertyOp12
 70
     1
102
RTVSPropertyOp13
 70
     1
102
RTVSPropertyOp14
 70
     1
102
RTVSPropertyOp15
 70
     1
102
RTVSPropertyOp16
 70
     1
102
RTVSPropertyOp17
 70
     1
102
RTVSPropertyOp18
 70
     1
102
RTVSPropertyOp19
 70
     1
102
RTVSPropertyOp20
 70
     1
102
RTVSPropertyOp21
 70
     1
102
RTVSPropertyOp22
 70
     1
102
RTVSPropertyOp23
 70
     1
102
RTVSPropertyOp24
 70
     1
102
RTVSPropertyOp25
 70
     1
102
RTVSPropertyOp26
 70
     1
102
RTVSPropertyOp27
 70
     1
102
RTVSPropertyOp28
 70
     1
102
RTVSPropertyOp29
 70
     1
102
RTVSPropertyOp30
 70
     1
102
RTVSPropertyOp31
 70
     1
102
RTVSPropertyOp32
 70
     1
102
RTVSPropertyOp33
 70
     1
102
RTVSPropertyOp34
 70
     1
102
RTVSPropertyOp35
 70
     1
102
RTVSPropertyOp36
 70
     1
102
RTVSPropertyOp37
 70
     1
102
RTVSPropertyOp38
 70
     1
102
RTVSPropertyOp39
 70
     1
102
RTVSPropertyOp40
 70
     1
102
RTVSPropertyOp41
 70
     1
102
RTVSPropertyOp42
 70
     1
102
RTVSPropertyOp43
 70
     1
102
RTVSPropertyOp44
 70
     1
102
RTVSPropertyOp45
 70
     1
102
RTVSPropertyOp46
 70
     1
102
RTVSPropertyOp47
 70
     1
102
RTVSPropertyOp48
 70
     1
102
RTVSPropertyOp49
 70
     1
102
RTVSPropertyOp50
 70
     1
102
RTVSPropertyOp51
 70
     0
102
RTVSPropertyOp52
 70
     0
102
RTVSPropertyOp53
 70
     1
102
RTVSPropertyOp54
 70
     1
102
RTVSPropertyOp55
 70
     1
102
RTVSPropertyOp56
 70
     1
102
RTVSPropertyOp57
 70
     1
102
RTVSPropertyOp58
 70
     1
102
RTVSPropertyOp59
 70
     1
102
RTVSPropertyOp60
 70
     1
102
RTVSPropertyOp61
 70
     1
102
RTVSPropertyOp62
 70
     1
  0
XRECORD
  5
C559
102
{ACAD_REACTORS
330
C558
102
}
330
C558
100
AcDbXrecord
280
     1
102
RTVSPost2010Prop28
280
     0
102
RTVSPost2010PropOp28
 70
     1
102
RTVSPost2010Prop29
280
     1
102
RTVSPost2010PropOp29
 70
     1
102
RTVSPost2010Prop30
280
     1
102
RTVSPost2010PropOp30
 70
     1
102
RTVSPost2010Prop31
280
     0
102
RTVSPost2010PropOp31
 70
     1
102
RTVSPost2010Prop32
280
     0
102
RTVSPost2010PropOp32
 70
     1
102
RTVSPost2010Prop33
280
     0
102
RTVSPost2010PropOp33
 70
     1
102
RTVSPost2010Prop34
280
     0
102
RTVSPost2010PropOp34
 70
     1
102
RTVSPost2010Prop35
280
     0
102
RTVSPost2010PropOp35
 70
     1
102
RTVSPost2010Prop36
280
     0
102
RTVSPost2010PropOp36
 70
     1
102
RTVSPost2010Prop37
 90
       50
102
RTVSPost2010PropOp37
 70
     1
102
RTVSPost2010Prop38
140
0.0
102
RTVSPost2010PropOp38
 70
     1
102
RTVSPost2010Prop39
140
1.0
102
RTVSPost2010PropOp39
 70
     1
102
RTVSPost2010Prop40
 90
        0
102
RTVSPost2010PropOp40
 70
     1
102
RTVSPost2010Prop41ColorIndex
 90
       18
102
RTVSPost2010Prop41ColorRGB
 90
        0
102
RTVSPost2010PropOp41
 70
     1
102
RTVSPost2010Prop42
 90
       50
102
RTVSPost2010PropOp42
 70
     1
102
RTVSPost2010Prop43
 90
        3
102
RTVSPost2010PropOp43
 70
     1
102
RTVSPost2010Prop44ColorIndex
 90
        5
102
RTVSPost2010Prop44ColorRGB
 90
      255
102
RTVSPost2010PropOp44
 70
     1
102
RTVSPost2010Prop45
280
     0
102
RTVSPost2010PropOp45
 70
     1
102
RTVSPost2010Prop46
 90
       50
102
RTVSPost2010PropOp46
 70
     1
102
RTVSPost2010Prop47
 90
       50
102
RTVSPost2010PropOp47
 70
     1
102
RTVSPost2010Prop48
 90
       50
102
RTVSPost2010PropOp48
 70
     1
102
RTVSPost2010Prop49
280
     0
102
RTVSPost2010PropOp49
 70
     1
102
RTVSPost2010Prop50
 90
       50
102
RTVSPost2010PropOp50
 70
     1
102
RTVSPost2010Prop51ColorIndex
 90
      256
102
RTVSPost2010Prop51ColorRGB
 90
-16777216
102
RTVSPost2010PropOp51
 70
     0
102
RTVSPost2010Prop52
140
1.0
102
RTVSPost2010PropOp52
 70
     0
102
RTVSPost2010Prop53
 90
        2
102
RTVSPost2010PropOp53
 70
     1
102
RTVSPost2010Prop54
  1
strokes_ogs.tif
102
RTVSPost2010PropOp54
 70
     1
102
RTVSPost2010Prop55
280
     0
102
RTVSPost2010PropOp55
 70
     1
102
RTVSPost2010Prop56
140
1.0
102
RTVSPost2010PropOp56
 70
     1
102
RTVSPost2010Prop57
140
1.0
102
RTVSPost2010PropOp57
 70
     1
102
RTVSPropertyOp0
 70
     1
102
RTVSPropertyOp1
 70
     1
102
RTVSPropertyOp2
 70
     1
102
RTVSPropertyOp3
 70
     1
102
RTVSPropertyOp4
 70
     1
102
RTVSPropertyOp5
 70
     1
102
RTVSPropertyOp6
 70
     1
102
RTVSPropertyOp7
 70
     1
102
RTVSPropertyOp8
 70
     1
102
RTVSPropertyOp9
 70
     1
102
RTVSPropertyOp10
 70
     1
102
RTVSPropertyOp11
 70
     1
102
RTVSPropertyOp12
 70
     1
102
RTVSPropertyOp13
 70
     1
102
RTVSPropertyOp14
 70
     1
102
RTVSPropertyOp15
 70
     1
102
RTVSPropertyOp16
 70
     1
102
RTVSPropertyOp17
 70
     1
102
RTVSPropertyOp18
 70
     1
102
RTVSPropertyOp19
 70
     1
102
RTVSPropertyOp20
 70
     1
102
RTVSPropertyOp21
 70
     1
102
RTVSPropertyOp22
 70
     1
102
RTVSPropertyOp23
 70
     1
102
RTVSPropertyOp24
 70
     1
102
RTVSPropertyOp25
 70
     1
102
RTVSPropertyOp26
 70
     1
102
RTVSPropertyOp27
 70
     1
102
RTVSPropertyOp28
 70
     1
102
RTVSPropertyOp29
 70
     1
102
RTVSPropertyOp30
 70
     1
102
RTVSPropertyOp31
 70
     1
102
RTVSPropertyOp32
 70
     1
102
RTVSPropertyOp33
 70
     1
102
RTVSPropertyOp34
 70
     1
102
RTVSPropertyOp35
 70
     1
102
RTVSPropertyOp36
 70
     1
102
RTVSPropertyOp37
 70
     1
102
RTVSPropertyOp38
 70
     1
102
RTVSPropertyOp39
 70
     1
102
RTVSPropertyOp40
 70
     1
102
RTVSPropertyOp41
 70
     1
102
RTVSPropertyOp42
 70
     1
102
RTVSPropertyOp43
 70
     1
102
RTVSPropertyOp44
 70
     1
102
RTVSPropertyOp45
 70
     1
102
RTVSPropertyOp46
 70
     1
102
RTVSPropertyOp47
 70
     1
102
RTVSPropertyOp48
 70
     1
102
RTVSPropertyOp49
 70
     1
102
RTVSPropertyOp50
 70
     1
102
RTVSPropertyOp51
 70
     0
102
RTVSPropertyOp52
 70
     0
102
RTVSPropertyOp53
 70
     1
102
RTVSPropertyOp54
 70
     1
102
RTVSPropertyOp55
 70
     1
102
RTVSPropertyOp56
 70
     1
102
RTVSPropertyOp57
 70
     1
102
RTVSPropertyOp58
 70
     1
102
RTVSPropertyOp59
 70
     1
102
RTVSPropertyOp60
 70
     1
102
RTVSPropertyOp61
 70
     1
102
RTVSPropertyOp62
 70
     1
  0
XRECORD
  5
C575
102
{ACAD_REACTORS
330
C574
102
}
330
C574
100
AcDbXrecord
280
     1
102
RTVSPost2010Prop28
280
     0
102
RTVSPost2010PropOp28
 70
     1
102
RTVSPost2010Prop29
280
     1
102
RTVSPost2010PropOp29
 70
     1
102
RTVSPost2010Prop30
280
     1
102
RTVSPost2010PropOp30
 70
     1
102
RTVSPost2010Prop31
280
     0
102
RTVSPost2010PropOp31
 70
     1
102
RTVSPost2010Prop32
280
     0
102
RTVSPost2010PropOp32
 70
     1
102
RTVSPost2010Prop33
280
     0
102
RTVSPost2010PropOp33
 70
     1
102
RTVSPost2010Prop34
280
     0
102
RTVSPost2010PropOp34
 70
     1
102
RTVSPost2010Prop35
280
     0
102
RTVSPost2010PropOp35
 70
     1
102
RTVSPost2010Prop36
280
     0
102
RTVSPost2010PropOp36
 70
     1
102
RTVSPost2010Prop37
 90
       50
102
RTVSPost2010PropOp37
 70
     0
102
RTVSPost2010Prop38
140
0.0
102
RTVSPost2010PropOp38
 70
     0
102
RTVSPost2010Prop39
140
1.0
102
RTVSPost2010PropOp39
 70
     0
102
RTVSPost2010Prop40
 90
        0
102
RTVSPost2010PropOp40
 70
     0
102
RTVSPost2010Prop41ColorIndex
 90
       18
102
RTVSPost2010Prop41ColorRGB
 90
        0
102
RTVSPost2010PropOp41
 70
     0
102
RTVSPost2010Prop42
 90
       50
102
RTVSPost2010PropOp42
 70
     0
102
RTVSPost2010Prop43
 90
        3
102
RTVSPost2010PropOp43
 70
     0
102
RTVSPost2010Prop44ColorIndex
 90
        5
102
RTVSPost2010Prop44ColorRGB
 90
      255
102
RTVSPost2010PropOp44
 70
     0
102
RTVSPost2010Prop45
280
     0
102
RTVSPost2010PropOp45
 70
     1
102
RTVSPost2010Prop46
 90
       50
102
RTVSPost2010PropOp46
 70
     0
102
RTVSPost2010Prop47
 90
       50
102
RTVSPost2010PropOp47
 70
     0
102
RTVSPost2010Prop48
 90
       50
102
RTVSPost2010PropOp48
 70
     0
102
RTVSPost2010Prop49
280
     0
102
RTVSPost2010PropOp49
 70
     1
102
RTVSPost2010Prop50
 90
       50
102
RTVSPost2010PropOp50
 70
     0
102
RTVSPost2010Prop51ColorIndex
 90
      256
102
RTVSPost2010Prop51ColorRGB
 90
-16777216
102
RTVSPost2010PropOp51
 70
     0
102
RTVSPost2010Prop52
140
1.0
102
RTVSPost2010PropOp52
 70
     0
102
RTVSPost2010Prop53
 90
        2
102
RTVSPost2010PropOp53
 70
     0
102
RTVSPost2010Prop54
  1
strokes_ogs.tif
102
RTVSPost2010PropOp54
 70
     0
102
RTVSPost2010Prop55
280
     0
102
RTVSPost2010PropOp55
 70
     1
102
RTVSPost2010Prop56
140
1.0
102
RTVSPost2010PropOp56
 70
     0
102
RTVSPost2010Prop57
140
1.0
102
RTVSPost2010PropOp57
 70
     0
102
RTVSPropertyOp0
 70
     0
102
RTVSPropertyOp1
 70
     0
102
RTVSPropertyOp2
 70
     0
102
RTVSPropertyOp3
 70
     0
102
RTVSPropertyOp4
 70
     0
102
RTVSPropertyOp5
 70
     0
102
RTVSPropertyOp6
 70
     0
102
RTVSPropertyOp7
 70
     0
102
RTVSPropertyOp8
 70
     0
102
RTVSPropertyOp9
 70
     0
102
RTVSPropertyOp10
 70
     0
102
RTVSPropertyOp11
 70
     0
102
RTVSPropertyOp12
 70
     0
102
RTVSPropertyOp13
 70
     0
102
RTVSPropertyOp14
 70
     2
102
RTVSPropertyOp15
 70
     0
102
RTVSPropertyOp16
 70
     0
102
RTVSPropertyOp17
 70
     0
102
RTVSPropertyOp18
 70
     0
102
RTVSPropertyOp19
 70
     0
102
RTVSPropertyOp20
 70
     0
102
RTVSPropertyOp21
 70
     0
102
RTVSPropertyOp22
 70
     0
102
RTVSPropertyOp23
 70
     0
102
RTVSPropertyOp24
 70
     0
102
RTVSPropertyOp25
 70
     0
102
RTVSPropertyOp26
 70
     0
102
RTVSPropertyOp27
 70
     0
102
RTVSPropertyOp28
 70
     1
102
RTVSPropertyOp29
 70
     1
102
RTVSPropertyOp30
 70
     1
102
RTVSPropertyOp31
 70
     1
102
RTVSPropertyOp32
 70
     1
102
RTVSPropertyOp33
 70
     1
102
RTVSPropertyOp34
 70
     1
102
RTVSPropertyOp35
 70
     1
102
RTVSPropertyOp36
 70
     1
102
RTVSPropertyOp37
 70
     0
102
RTVSPropertyOp38
 70
     0
102
RTVSPropertyOp39
 70
     0
102
RTVSPropertyOp40
 70
     0
102
RTVSPropertyOp41
 70
     0
102
RTVSPropertyOp42
 70
     0
102
RTVSPropertyOp43
 70
     0
102
RTVSPropertyOp44
 70
     0
102
RTVSPropertyOp45
 70
     1
102
RTVSPropertyOp46
 70
     0
102
RTVSPropertyOp47
 70
     0
102
RTVSPropertyOp48
 70
     0
102
RTVSPropertyOp49
 70
     1
102
RTVSPropertyOp50
 70
     0
102
RTVSPropertyOp51
 70
     0
102
RTVSPropertyOp52
 70
     0
102
RTVSPropertyOp53
 70
     0
102
RTVSPropertyOp54
 70
     0
102
RTVSPropertyOp55
 70
     1
102
RTVSPropertyOp56
 70
     0
102
RTVSPropertyOp57
 70
     0
102
RTVSPropertyOp58
 70
     0
102
RTVSPropertyOp59
 70
     0
102
RTVSPropertyOp60
 70
     0
102
RTVSPropertyOp61
 70
     0
102
RTVSPropertyOp62
 70
     0
  0
XRECORD
  5
C565
102
{ACAD_REACTORS
330
C564
102
}
330
C564
100
AcDbXrecord
280
     1
102
RTVSPost2010Prop28
280
     0
102
RTVSPost2010PropOp28
 70
     1
102
RTVSPost2010Prop29
280
     1
102
RTVSPost2010PropOp29
 70
     1
102
RTVSPost2010Prop30
280
     1
102
RTVSPost2010PropOp30
 70
     1
102
RTVSPost2010Prop31
280
     0
102
RTVSPost2010PropOp31
 70
     1
102
RTVSPost2010Prop32
280
     0
102
RTVSPost2010PropOp32
 70
     1
102
RTVSPost2010Prop33
280
     0
102
RTVSPost2010PropOp33
 70
     1
102
RTVSPost2010Prop34
280
     0
102
RTVSPost2010PropOp34
 70
     1
102
RTVSPost2010Prop35
280
     0
102
RTVSPost2010PropOp35
 70
     1
102
RTVSPost2010Prop36
280
     0
102
RTVSPost2010PropOp36
 70
     1
102
RTVSPost2010Prop37
 90
       50
102
RTVSPost2010PropOp37
 70
     1
102
RTVSPost2010Prop38
140
0.0
102
RTVSPost2010PropOp38
 70
     1
102
RTVSPost2010Prop39
140
1.0
102
RTVSPost2010PropOp39
 70
     1
102
RTVSPost2010Prop40
 90
        0
102
RTVSPost2010PropOp40
 70
     1
102
RTVSPost2010Prop41ColorIndex
 90
       18
102
RTVSPost2010Prop41ColorRGB
 90
        0
102
RTVSPost2010PropOp41
 70
     1
102
RTVSPost2010Prop42
 90
       50
102
RTVSPost2010PropOp42
 70
     1
102
RTVSPost2010Prop43
 90
        3
102
RTVSPost2010PropOp43
 70
     1
102
RTVSPost2010Prop44ColorIndex
 90
        5
102
RTVSPost2010Prop44ColorRGB
 90
      255
102
RTVSPost2010PropOp44
 70
     1
102
RTVSPost2010Prop45
280
     0
102
RTVSPost2010PropOp45
 70
     1
102
RTVSPost2010Prop46
 90
       50
102
RTVSPost2010PropOp46
 70
     1
102
RTVSPost2010Prop47
 90
       50
102
RTVSPost2010PropOp47
 70
     1
102
RTVSPost2010Prop48
 90
       50
102
RTVSPost2010PropOp48
 70
     1
102
RTVSPost2010Prop49
280
     0
102
RTVSPost2010PropOp49
 70
     1
102
RTVSPost2010Prop50
 90
       50
102
RTVSPost2010PropOp50
 70
     1
102
RTVSPost2010Prop51ColorIndex
 90
      256
102
RTVSPost2010Prop51ColorRGB
 90
-16777216
102
RTVSPost2010PropOp51
 70
     0
102
RTVSPost2010Prop52
140
1.0
102
RTVSPost2010PropOp52
 70
     0
102
RTVSPost2010Prop53
 90
        2
102
RTVSPost2010PropOp53
 70
     1
102
RTVSPost2010Prop54
  1
strokes_ogs.tif
102
RTVSPost2010PropOp54
 70
     1
102
RTVSPost2010Prop55
280
     0
102
RTVSPost2010PropOp55
 70
     1
102
RTVSPost2010Prop56
140
1.0
102
RTVSPost2010PropOp56
 70
     1
102
RTVSPost2010Prop57
140
1.0
102
RTVSPost2010PropOp57
 70
     1
102
RTVSPropertyOp0
 70
     1
102
RTVSPropertyOp1
 70
     1
102
RTVSPropertyOp2
 70
     1
102
RTVSPropertyOp3
 70
     1
102
RTVSPropertyOp4
 70
     1
102
RTVSPropertyOp5
 70
     1
102
RTVSPropertyOp6
 70
     1
102
RTVSPropertyOp7
 70
     1
102
RTVSPropertyOp8
 70
     1
102
RTVSPropertyOp9
 70
     1
102
RTVSPropertyOp10
 70
     1
102
RTVSPropertyOp11
 70
     1
102
RTVSPropertyOp12
 70
     1
102
RTVSPropertyOp13
 70
     1
102
RTVSPropertyOp14
 70
     1
102
RTVSPropertyOp15
 70
     1
102
RTVSPropertyOp16
 70
     1
102
RTVSPropertyOp17
 70
     1
102
RTVSPropertyOp18
 70
     1
102
RTVSPropertyOp19
 70
     1
102
RTVSPropertyOp20
 70
     1
102
RTVSPropertyOp21
 70
     1
102
RTVSPropertyOp22
 70
     1
102
RTVSPropertyOp23
 70
     1
102
RTVSPropertyOp24
 70
     1
102
RTVSPropertyOp25
 70
     1
102
RTVSPropertyOp26
 70
     1
102
RTVSPropertyOp27
 70
     1
102
RTVSPropertyOp28
 70
     1
102
RTVSPropertyOp29
 70
     1
102
RTVSPropertyOp30
 70
     1
102
RTVSPropertyOp31
 70
     1
102
RTVSPropertyOp32
 70
     1
102
RTVSPropertyOp33
 70
     1
102
RTVSPropertyOp34
 70
     1
102
RTVSPropertyOp35
 70
     1
102
RTVSPropertyOp36
 70
     1
102
RTVSPropertyOp37
 70
     1
102
RTVSPropertyOp38
 70
     1
102
RTVSPropertyOp39
 70
     1
102
RTVSPropertyOp40
 70
     1
102
RTVSPropertyOp41
 70
     1
102
RTVSPropertyOp42
 70
     1
102
RTVSPropertyOp43
 70
     1
102
RTVSPropertyOp44
 70
     1
102
RTVSPropertyOp45
 70
     1
102
RTVSPropertyOp46
 70
     1
102
RTVSPropertyOp47
 70
     1
102
RTVSPropertyOp48
 70
     1
102
RTVSPropertyOp49
 70
     1
102
RTVSPropertyOp50
 70
     1
102
RTVSPropertyOp51
 70
     0
102
RTVSPropertyOp52
 70
     0
102
RTVSPropertyOp53
 70
     1
102
RTVSPropertyOp54
 70
     1
102
RTVSPropertyOp55
 70
     1
102
RTVSPropertyOp56
 70
     1
102
RTVSPropertyOp57
 70
     1
102
RTVSPropertyOp58
 70
     1
102
RTVSPropertyOp59
 70
     1
102
RTVSPropertyOp60
 70
     1
102
RTVSPropertyOp61
 70
     1
102
RTVSPropertyOp62
 70
     1
  0
XRECORD
  5
C577
102
{ACAD_REACTORS
330
C576
102
}
330
C576
100
AcDbXrecord
280
     1
102
RTVSPost2010Prop28
280
     0
102
RTVSPost2010PropOp28
 70
     1
102
RTVSPost2010Prop29
280
     1
102
RTVSPost2010PropOp29
 70
     1
102
RTVSPost2010Prop30
280
     1
102
RTVSPost2010PropOp30
 70
     1
102
RTVSPost2010Prop31
280
     0
102
RTVSPost2010PropOp31
 70
     1
102
RTVSPost2010Prop32
280
     0
102
RTVSPost2010PropOp32
 70
     1
102
RTVSPost2010Prop33
280
     0
102
RTVSPost2010PropOp33
 70
     1
102
RTVSPost2010Prop34
280
     0
102
RTVSPost2010PropOp34
 70
     1
102
RTVSPost2010Prop35
280
     0
102
RTVSPost2010PropOp35
 70
     1
102
RTVSPost2010Prop36
280
     0
102
RTVSPost2010PropOp36
 70
     1
102
RTVSPost2010Prop37
 90
       50
102
RTVSPost2010PropOp37
 70
     0
102
RTVSPost2010Prop38
140
0.0
102
RTVSPost2010PropOp38
 70
     0
102
RTVSPost2010Prop39
140
1.0
102
RTVSPost2010PropOp39
 70
     0
102
RTVSPost2010Prop40
 90
        0
102
RTVSPost2010PropOp40
 70
     0
102
RTVSPost2010Prop41ColorIndex
 90
       18
102
RTVSPost2010Prop41ColorRGB
 90
        0
102
RTVSPost2010PropOp41
 70
     0
102
RTVSPost2010Prop42
 90
       50
102
RTVSPost2010PropOp42
 70
     0
102
RTVSPost2010Prop43
 90
        3
102
RTVSPost2010PropOp43
 70
     0
102
RTVSPost2010Prop44ColorIndex
 90
        5
102
RTVSPost2010Prop44ColorRGB
 90
      255
102
RTVSPost2010PropOp44
 70
     0
102
RTVSPost2010Prop45
280
     0
102
RTVSPost2010PropOp45
 70
     1
102
RTVSPost2010Prop46
 90
       50
102
RTVSPost2010PropOp46
 70
     0
102
RTVSPost2010Prop47
 90
       50
102
RTVSPost2010PropOp47
 70
     0
102
RTVSPost2010Prop48
 90
       50
102
RTVSPost2010PropOp48
 70
     0
102
RTVSPost2010Prop49
280
     0
102
RTVSPost2010PropOp49
 70
     1
102
RTVSPost2010Prop50
 90
       50
102
RTVSPost2010PropOp50
 70
     0
102
RTVSPost2010Prop51ColorIndex
 90
      256
102
RTVSPost2010Prop51ColorRGB
 90
-16777216
102
RTVSPost2010PropOp51
 70
     0
102
RTVSPost2010Prop52
140
1.0
102
RTVSPost2010PropOp52
 70
     0
102
RTVSPost2010Prop53
 90
        2
102
RTVSPost2010PropOp53
 70
     0
102
RTVSPost2010Prop54
  1
strokes_ogs.tif
102
RTVSPost2010PropOp54
 70
     0
102
RTVSPost2010Prop55
280
     0
102
RTVSPost2010PropOp55
 70
     1
102
RTVSPost2010Prop56
140
1.0
102
RTVSPost2010PropOp56
 70
     0
102
RTVSPost2010Prop57
140
1.0
102
RTVSPost2010PropOp57
 70
     0
102
RTVSPropertyOp0
 70
     0
102
RTVSPropertyOp1
 70
     0
102
RTVSPropertyOp2
 70
     0
102
RTVSPropertyOp3
 70
     0
102
RTVSPropertyOp4
 70
     0
102
RTVSPropertyOp5
 70
     0
102
RTVSPropertyOp6
 70
     0
102
RTVSPropertyOp7
 70
     0
102
RTVSPropertyOp8
 70
     0
102
RTVSPropertyOp9
 70
     0
102
RTVSPropertyOp10
 70
     0
102
RTVSPropertyOp11
 70
     0
102
RTVSPropertyOp12
 70
     0
102
RTVSPropertyOp13
 70
     0
102
RTVSPropertyOp14
 70
     2
102
RTVSPropertyOp15
 70
     0
102
RTVSPropertyOp16
 70
     0
102
RTVSPropertyOp17
 70
     0
102
RTVSPropertyOp18
 70
     0
102
RTVSPropertyOp19
 70
     0
102
RTVSPropertyOp20
 70
     0
102
RTVSPropertyOp21
 70
     0
102
RTVSPropertyOp22
 70
     0
102
RTVSPropertyOp23
 70
     0
102
RTVSPropertyOp24
 70
     0
102
RTVSPropertyOp25
 70
     0
102
RTVSPropertyOp26
 70
     0
102
RTVSPropertyOp27
 70
     0
102
RTVSPropertyOp28
 70
     1
102
RTVSPropertyOp29
 70
     1
102
RTVSPropertyOp30
 70
     1
102
RTVSPropertyOp31
 70
     1
102
RTVSPropertyOp32
 70
     1
102
RTVSPropertyOp33
 70
     1
102
RTVSPropertyOp34
 70
     1
102
RTVSPropertyOp35
 70
     1
102
RTVSPropertyOp36
 70
     1
102
RTVSPropertyOp37
 70
     0
102
RTVSPropertyOp38
 70
     0
102
RTVSPropertyOp39
 70
     0
102
RTVSPropertyOp40
 70
     0
102
RTVSPropertyOp41
 70
     0
102
RTVSPropertyOp42
 70
     0
102
RTVSPropertyOp43
 70
     0
102
RTVSPropertyOp44
 70
     0
102
RTVSPropertyOp45
 70
     1
102
RTVSPropertyOp46
 70
     0
102
RTVSPropertyOp47
 70
     0
102
RTVSPropertyOp48
 70
     0
102
RTVSPropertyOp49
 70
     1
102
RTVSPropertyOp50
 70
     0
102
RTVSPropertyOp51
 70
     0
102
RTVSPropertyOp52
 70
     0
102
RTVSPropertyOp53
 70
     0
102
RTVSPropertyOp54
 70
     0
102
RTVSPropertyOp55
 70
     1
102
RTVSPropertyOp56
 70
     0
102
RTVSPropertyOp57
 70
     0
102
RTVSPropertyOp58
 70
     0
102
RTVSPropertyOp59
 70
     0
102
RTVSPropertyOp60
 70
     0
102
RTVSPropertyOp61
 70
     0
102
RTVSPropertyOp62
 70
     0
  0
XRECORD
  5
C55D
102
{ACAD_REACTORS
330
C55C
102
}
330
C55C
100
AcDbXrecord
280
     1
102
RTVSPost2010Prop28
280
     0
102
RTVSPost2010PropOp28
 70
     1
102
RTVSPost2010Prop29
280
     1
102
RTVSPost2010PropOp29
 70
     1
102
RTVSPost2010Prop30
280
     1
102
RTVSPost2010PropOp30
 70
     1
102
RTVSPost2010Prop31
280
     0
102
RTVSPost2010PropOp31
 70
     1
102
RTVSPost2010Prop32
280
     0
102
RTVSPost2010PropOp32
 70
     1
102
RTVSPost2010Prop33
280
     0
102
RTVSPost2010PropOp33
 70
     1
102
RTVSPost2010Prop34
280
     0
102
RTVSPost2010PropOp34
 70
     1
102
RTVSPost2010Prop35
280
     0
102
RTVSPost2010PropOp35
 70
     1
102
RTVSPost2010Prop36
280
     0
102
RTVSPost2010PropOp36
 70
     1
102
RTVSPost2010Prop37
 90
       50
102
RTVSPost2010PropOp37
 70
     1
102
RTVSPost2010Prop38
140
0.0
102
RTVSPost2010PropOp38
 70
     1
102
RTVSPost2010Prop39
140
1.0
102
RTVSPost2010PropOp39
 70
     1
102
RTVSPost2010Prop40
 90
        0
102
RTVSPost2010PropOp40
 70
     1
102
RTVSPost2010Prop41ColorIndex
 90
       18
102
RTVSPost2010Prop41ColorRGB
 90
        0
102
RTVSPost2010PropOp41
 70
     1
102
RTVSPost2010Prop42
 90
       50
102
RTVSPost2010PropOp42
 70
     1
102
RTVSPost2010Prop43
 90
        3
102
RTVSPost2010PropOp43
 70
     1
102
RTVSPost2010Prop44ColorIndex
 90
        5
102
RTVSPost2010Prop44ColorRGB
 90
      255
102
RTVSPost2010PropOp44
 70
     1
102
RTVSPost2010Prop45
280
     0
102
RTVSPost2010PropOp45
 70
     1
102
RTVSPost2010Prop46
 90
       50
102
RTVSPost2010PropOp46
 70
     1
102
RTVSPost2010Prop47
 90
       50
102
RTVSPost2010PropOp47
 70
     1
102
RTVSPost2010Prop48
 90
       50
102
RTVSPost2010PropOp48
 70
     1
102
RTVSPost2010Prop49
280
     0
102
RTVSPost2010PropOp49
 70
     1
102
RTVSPost2010Prop50
 90
       50
102
RTVSPost2010PropOp50
 70
     1
102
RTVSPost2010Prop51ColorIndex
 90
      256
102
RTVSPost2010Prop51ColorRGB
 90
-16777216
102
RTVSPost2010PropOp51
 70
     0
102
RTVSPost2010Prop52
140
1.0
102
RTVSPost2010PropOp52
 70
     0
102
RTVSPost2010Prop53
 90
        2
102
RTVSPost2010PropOp53
 70
     1
102
RTVSPost2010Prop54
  1
strokes_ogs.tif
102
RTVSPost2010PropOp54
 70
     1
102
RTVSPost2010Prop55
280
     0
102
RTVSPost2010PropOp55
 70
     1
102
RTVSPost2010Prop56
140
1.0
102
RTVSPost2010PropOp56
 70
     1
102
RTVSPost2010Prop57
140
1.0
102
RTVSPost2010PropOp57
 70
     1
102
RTVSPropertyOp0
 70
     1
102
RTVSPropertyOp1
 70
     1
102
RTVSPropertyOp2
 70
     1
102
RTVSPropertyOp3
 70
     1
102
RTVSPropertyOp4
 70
     1
102
RTVSPropertyOp5
 70
     1
102
RTVSPropertyOp6
 70
     1
102
RTVSPropertyOp7
 70
     1
102
RTVSPropertyOp8
 70
     1
102
RTVSPropertyOp9
 70
     1
102
RTVSPropertyOp10
 70
     1
102
RTVSPropertyOp11
 70
     1
102
RTVSPropertyOp12
 70
     1
102
RTVSPropertyOp13
 70
     1
102
RTVSPropertyOp14
 70
     1
102
RTVSPropertyOp15
 70
     1
102
RTVSPropertyOp16
 70
     1
102
RTVSPropertyOp17
 70
     1
102
RTVSPropertyOp18
 70
     1
102
RTVSPropertyOp19
 70
     1
102
RTVSPropertyOp20
 70
     1
102
RTVSPropertyOp21
 70
     1
102
RTVSPropertyOp22
 70
     1
102
RTVSPropertyOp23
 70
     1
102
RTVSPropertyOp24
 70
     1
102
RTVSPropertyOp25
 70
     1
102
RTVSPropertyOp26
 70
     1
102
RTVSPropertyOp27
 70
     1
102
RTVSPropertyOp28
 70
     1
102
RTVSPropertyOp29
 70
     1
102
RTVSPropertyOp30
 70
     1
102
RTVSPropertyOp31
 70
     1
102
RTVSPropertyOp32
 70
     1
102
RTVSPropertyOp33
 70
     1
102
RTVSPropertyOp34
 70
     1
102
RTVSPropertyOp35
 70
     1
102
RTVSPropertyOp36
 70
     1
102
RTVSPropertyOp37
 70
     1
102
RTVSPropertyOp38
 70
     1
102
RTVSPropertyOp39
 70
     1
102
RTVSPropertyOp40
 70
     1
102
RTVSPropertyOp41
 70
     1
102
RTVSPropertyOp42
 70
     1
102
RTVSPropertyOp43
 70
     1
102
RTVSPropertyOp44
 70
     1
102
RTVSPropertyOp45
 70
     1
102
RTVSPropertyOp46
 70
     1
102
RTVSPropertyOp47
 70
     1
102
RTVSPropertyOp48
 70
     1
102
RTVSPropertyOp49
 70
     1
102
RTVSPropertyOp50
 70
     1
102
RTVSPropertyOp51
 70
     0
102
RTVSPropertyOp52
 70
     0
102
RTVSPropertyOp53
 70
     1
102
RTVSPropertyOp54
 70
     1
102
RTVSPropertyOp55
 70
     1
102
RTVSPropertyOp56
 70
     1
102
RTVSPropertyOp57
 70
     1
102
RTVSPropertyOp58
 70
     1
102
RTVSPropertyOp59
 70
     1
102
RTVSPropertyOp60
 70
     1
102
RTVSPropertyOp61
 70
     1
102
RTVSPropertyOp62
 70
     1
  0
XRECORD
  5
C573
102
{ACAD_REACTORS
330
C572
102
}
330
C572
100
AcDbXrecord
280
     1
102
RTVSPost2010Prop28
280
     0
102
RTVSPost2010PropOp28
 70
     1
102
RTVSPost2010Prop29
280
     1
102
RTVSPost2010PropOp29
 70
     1
102
RTVSPost2010Prop30
280
     1
102
RTVSPost2010PropOp30
 70
     1
102
RTVSPost2010Prop31
280
     0
102
RTVSPost2010PropOp31
 70
     1
102
RTVSPost2010Prop32
280
     0
102
RTVSPost2010PropOp32
 70
     1
102
RTVSPost2010Prop33
280
     0
102
RTVSPost2010PropOp33
 70
     1
102
RTVSPost2010Prop34
280
     0
102
RTVSPost2010PropOp34
 70
     1
102
RTVSPost2010Prop35
280
     0
102
RTVSPost2010PropOp35
 70
     1
102
RTVSPost2010Prop36
280
     0
102
RTVSPost2010PropOp36
 70
     1
102
RTVSPost2010Prop37
 90
       50
102
RTVSPost2010PropOp37
 70
     1
102
RTVSPost2010Prop38
140
0.0
102
RTVSPost2010PropOp38
 70
     1
102
RTVSPost2010Prop39
140
1.0
102
RTVSPost2010PropOp39
 70
     1
102
RTVSPost2010Prop40
 90
        0
102
RTVSPost2010PropOp40
 70
     1
102
RTVSPost2010Prop41ColorIndex
 90
       18
102
RTVSPost2010Prop41ColorRGB
 90
        0
102
RTVSPost2010PropOp41
 70
     1
102
RTVSPost2010Prop42
 90
       50
102
RTVSPost2010PropOp42
 70
     1
102
RTVSPost2010Prop43
 90
        3
102
RTVSPost2010PropOp43
 70
     1
102
RTVSPost2010Prop44ColorIndex
 90
        5
102
RTVSPost2010Prop44ColorRGB
 90
      255
102
RTVSPost2010PropOp44
 70
     1
102
RTVSPost2010Prop45
280
     0
102
RTVSPost2010PropOp45
 70
     1
102
RTVSPost2010Prop46
 90
       50
102
RTVSPost2010PropOp46
 70
     1
102
RTVSPost2010Prop47
 90
       50
102
RTVSPost2010PropOp47
 70
     1
102
RTVSPost2010Prop48
 90
       50
102
RTVSPost2010PropOp48
 70
     1
102
RTVSPost2010Prop49
280
     0
102
RTVSPost2010PropOp49
 70
     1
102
RTVSPost2010Prop50
 90
       50
102
RTVSPost2010PropOp50
 70
     1
102
RTVSPost2010Prop51ColorIndex
 90
      256
102
RTVSPost2010Prop51ColorRGB
 90
-16777216
102
RTVSPost2010PropOp51
 70
     0
102
RTVSPost2010Prop52
140
1.0
102
RTVSPost2010PropOp52
 70
     0
102
RTVSPost2010Prop53
 90
        2
102
RTVSPost2010PropOp53
 70
     1
102
RTVSPost2010Prop54
  1
strokes_ogs.tif
102
RTVSPost2010PropOp54
 70
     1
102
RTVSPost2010Prop55
280
     0
102
RTVSPost2010PropOp55
 70
     1
102
RTVSPost2010Prop56
140
1.0
102
RTVSPost2010PropOp56
 70
     1
102
RTVSPost2010Prop57
140
1.0
102
RTVSPost2010PropOp57
 70
     1
102
RTVSPropertyOp0
 70
     1
102
RTVSPropertyOp1
 70
     1
102
RTVSPropertyOp2
 70
     1
102
RTVSPropertyOp3
 70
     1
102
RTVSPropertyOp4
 70
     1
102
RTVSPropertyOp5
 70
     1
102
RTVSPropertyOp6
 70
     1
102
RTVSPropertyOp7
 70
     1
102
RTVSPropertyOp8
 70
     1
102
RTVSPropertyOp9
 70
     1
102
RTVSPropertyOp10
 70
     1
102
RTVSPropertyOp11
 70
     1
102
RTVSPropertyOp12
 70
     1
102
RTVSPropertyOp13
 70
     1
102
RTVSPropertyOp14
 70
     1
102
RTVSPropertyOp15
 70
     1
102
RTVSPropertyOp16
 70
     1
102
RTVSPropertyOp17
 70
     1
102
RTVSPropertyOp18
 70
     1
102
RTVSPropertyOp19
 70
     1
102
RTVSPropertyOp20
 70
     1
102
RTVSPropertyOp21
 70
     1
102
RTVSPropertyOp22
 70
     1
102
RTVSPropertyOp23
 70
     1
102
RTVSPropertyOp24
 70
     1
102
RTVSPropertyOp25
 70
     1
102
RTVSPropertyOp26
 70
     1
102
RTVSPropertyOp27
 70
     1
102
RTVSPropertyOp28
 70
     1
102
RTVSPropertyOp29
 70
     1
102
RTVSPropertyOp30
 70
     1
102
RTVSPropertyOp31
 70
     1
102
RTVSPropertyOp32
 70
     1
102
RTVSPropertyOp33
 70
     1
102
RTVSPropertyOp34
 70
     1
102
RTVSPropertyOp35
 70
     1
102
RTVSPropertyOp36
 70
     1
102
RTVSPropertyOp37
 70
     1
102
RTVSPropertyOp38
 70
     1
102
RTVSPropertyOp39
 70
     1
102
RTVSPropertyOp40
 70
     1
102
RTVSPropertyOp41
 70
     1
102
RTVSPropertyOp42
 70
     1
102
RTVSPropertyOp43
 70
     1
102
RTVSPropertyOp44
 70
     1
102
RTVSPropertyOp45
 70
     1
102
RTVSPropertyOp46
 70
     1
102
RTVSPropertyOp47
 70
     1
102
RTVSPropertyOp48
 70
     1
102
RTVSPropertyOp49
 70
     1
102
RTVSPropertyOp50
 70
     1
102
RTVSPropertyOp51
 70
     0
102
RTVSPropertyOp52
 70
     0
102
RTVSPropertyOp53
 70
     1
102
RTVSPropertyOp54
 70
     1
102
RTVSPropertyOp55
 70
     1
102
RTVSPropertyOp56
 70
     1
102
RTVSPropertyOp57
 70
     1
102
RTVSPropertyOp58
 70
     1
102
RTVSPropertyOp59
 70
     1
102
RTVSPropertyOp60
 70
     1
102
RTVSPropertyOp61
 70
     1
102
RTVSPropertyOp62
 70
     1
  0
XRECORD
  5
C571
102
{ACAD_REACTORS
330
C570
102
}
330
C570
100
AcDbXrecord
280
     1
102
RTVSPost2010Prop28
280
     0
102
RTVSPost2010PropOp28
 70
     1
102
RTVSPost2010Prop29
280
     1
102
RTVSPost2010PropOp29
 70
     1
102
RTVSPost2010Prop30
280
     1
102
RTVSPost2010PropOp30
 70
     1
102
RTVSPost2010Prop31
280
     0
102
RTVSPost2010PropOp31
 70
     1
102
RTVSPost2010Prop32
280
     0
102
RTVSPost2010PropOp32
 70
     1
102
RTVSPost2010Prop33
280
     0
102
RTVSPost2010PropOp33
 70
     1
102
RTVSPost2010Prop34
280
     0
102
RTVSPost2010PropOp34
 70
     1
102
RTVSPost2010Prop35
280
     0
102
RTVSPost2010PropOp35
 70
     1
102
RTVSPost2010Prop36
280
     0
102
RTVSPost2010PropOp36
 70
     1
102
RTVSPost2010Prop37
 90
       50
102
RTVSPost2010PropOp37
 70
     1
102
RTVSPost2010Prop38
140
0.0
102
RTVSPost2010PropOp38
 70
     1
102
RTVSPost2010Prop39
140
1.0
102
RTVSPost2010PropOp39
 70
     1
102
RTVSPost2010Prop40
 90
        0
102
RTVSPost2010PropOp40
 70
     1
102
RTVSPost2010Prop41ColorIndex
 90
       18
102
RTVSPost2010Prop41ColorRGB
 90
        0
102
RTVSPost2010PropOp41
 70
     1
102
RTVSPost2010Prop42
 90
       50
102
RTVSPost2010PropOp42
 70
     1
102
RTVSPost2010Prop43
 90
        3
102
RTVSPost2010PropOp43
 70
     1
102
RTVSPost2010Prop44ColorIndex
 90
        5
102
RTVSPost2010Prop44ColorRGB
 90
      255
102
RTVSPost2010PropOp44
 70
     1
102
RTVSPost2010Prop45
280
     0
102
RTVSPost2010PropOp45
 70
     1
102
RTVSPost2010Prop46
 90
       50
102
RTVSPost2010PropOp46
 70
     1
102
RTVSPost2010Prop47
 90
       50
102
RTVSPost2010PropOp47
 70
     1
102
RTVSPost2010Prop48
 90
       50
102
RTVSPost2010PropOp48
 70
     1
102
RTVSPost2010Prop49
280
     0
102
RTVSPost2010PropOp49
 70
     1
102
RTVSPost2010Prop50
 90
       50
102
RTVSPost2010PropOp50
 70
     1
102
RTVSPost2010Prop51ColorIndex
 90
      256
102
RTVSPost2010Prop51ColorRGB
 90
-16777216
102
RTVSPost2010PropOp51
 70
     0
102
RTVSPost2010Prop52
140
1.0
102
RTVSPost2010PropOp52
 70
     0
102
RTVSPost2010Prop53
 90
        2
102
RTVSPost2010PropOp53
 70
     1
102
RTVSPost2010Prop54
  1
strokes_ogs.tif
102
RTVSPost2010PropOp54
 70
     1
102
RTVSPost2010Prop55
280
     0
102
RTVSPost2010PropOp55
 70
     1
102
RTVSPost2010Prop56
140
1.0
102
RTVSPost2010PropOp56
 70
     1
102
RTVSPost2010Prop57
140
1.0
102
RTVSPost2010PropOp57
 70
     1
102
RTVSPropertyOp0
 70
     1
102
RTVSPropertyOp1
 70
     1
102
RTVSPropertyOp2
 70
     1
102
RTVSPropertyOp3
 70
     1
102
RTVSPropertyOp4
 70
     1
102
RTVSPropertyOp5
 70
     1
102
RTVSPropertyOp6
 70
     1
102
RTVSPropertyOp7
 70
     1
102
RTVSPropertyOp8
 70
     1
102
RTVSPropertyOp9
 70
     1
102
RTVSPropertyOp10
 70
     1
102
RTVSPropertyOp11
 70
     1
102
RTVSPropertyOp12
 70
     1
102
RTVSPropertyOp13
 70
     1
102
RTVSPropertyOp14
 70
     1
102
RTVSPropertyOp15
 70
     1
102
RTVSPropertyOp16
 70
     1
102
RTVSPropertyOp17
 70
     1
102
RTVSPropertyOp18
 70
     1
102
RTVSPropertyOp19
 70
     1
102
RTVSPropertyOp20
 70
     1
102
RTVSPropertyOp21
 70
     1
102
RTVSPropertyOp22
 70
     1
102
RTVSPropertyOp23
 70
     1
102
RTVSPropertyOp24
 70
     1
102
RTVSPropertyOp25
 70
     1
102
RTVSPropertyOp26
 70
     1
102
RTVSPropertyOp27
 70
     1
102
RTVSPropertyOp28
 70
     1
102
RTVSPropertyOp29
 70
     1
102
RTVSPropertyOp30
 70
     1
102
RTVSPropertyOp31
 70
     1
102
RTVSPropertyOp32
 70
     1
102
RTVSPropertyOp33
 70
     1
102
RTVSPropertyOp34
 70
     1
102
RTVSPropertyOp35
 70
     1
102
RTVSPropertyOp36
 70
     1
102
RTVSPropertyOp37
 70
     1
102
RTVSPropertyOp38
 70
     1
102
RTVSPropertyOp39
 70
     1
102
RTVSPropertyOp40
 70
     1
102
RTVSPropertyOp41
 70
     1
102
RTVSPropertyOp42
 70
     1
102
RTVSPropertyOp43
 70
     1
102
RTVSPropertyOp44
 70
     1
102
RTVSPropertyOp45
 70
     1
102
RTVSPropertyOp46
 70
     1
102
RTVSPropertyOp47
 70
     1
102
RTVSPropertyOp48
 70
     1
102
RTVSPropertyOp49
 70
     1
102
RTVSPropertyOp50
 70
     1
102
RTVSPropertyOp51
 70
     0
102
RTVSPropertyOp52
 70
     0
102
RTVSPropertyOp53
 70
     1
102
RTVSPropertyOp54
 70
     1
102
RTVSPropertyOp55
 70
     1
102
RTVSPropertyOp56
 70
     1
102
RTVSPropertyOp57
 70
     1
102
RTVSPropertyOp58
 70
     1
102
RTVSPropertyOp59
 70
     1
102
RTVSPropertyOp60
 70
     1
102
RTVSPropertyOp61
 70
     1
102
RTVSPropertyOp62
 70
     1
  0
XRECORD
  5
C56B
102
{ACAD_REACTORS
330
C56A
102
}
330
C56A
100
AcDbXrecord
280
     1
102
RTVSPost2010Prop28
280
     0
102
RTVSPost2010PropOp28
 70
     1
102
RTVSPost2010Prop29
280
     1
102
RTVSPost2010PropOp29
 70
     1
102
RTVSPost2010Prop30
280
     1
102
RTVSPost2010PropOp30
 70
     1
102
RTVSPost2010Prop31
280
     0
102
RTVSPost2010PropOp31
 70
     1
102
RTVSPost2010Prop32
280
     0
102
RTVSPost2010PropOp32
 70
     1
102
RTVSPost2010Prop33
280
     0
102
RTVSPost2010PropOp33
 70
     1
102
RTVSPost2010Prop34
280
     0
102
RTVSPost2010PropOp34
 70
     1
102
RTVSPost2010Prop35
280
     0
102
RTVSPost2010PropOp35
 70
     1
102
RTVSPost2010Prop36
280
     0
102
RTVSPost2010PropOp36
 70
     1
102
RTVSPost2010Prop37
 90
       50
102
RTVSPost2010PropOp37
 70
     1
102
RTVSPost2010Prop38
140
0.0
102
RTVSPost2010PropOp38
 70
     1
102
RTVSPost2010Prop39
140
1.0
102
RTVSPost2010PropOp39
 70
     1
102
RTVSPost2010Prop40
 90
        0
102
RTVSPost2010PropOp40
 70
     1
102
RTVSPost2010Prop41ColorIndex
 90
       18
102
RTVSPost2010Prop41ColorRGB
 90
        0
102
RTVSPost2010PropOp41
 70
     1
102
RTVSPost2010Prop42
 90
       50
102
RTVSPost2010PropOp42
 70
     1
102
RTVSPost2010Prop43
 90
        3
102
RTVSPost2010PropOp43
 70
     1
102
RTVSPost2010Prop44ColorIndex
 90
        5
102
RTVSPost2010Prop44ColorRGB
 90
      255
102
RTVSPost2010PropOp44
 70
     1
102
RTVSPost2010Prop45
280
     0
102
RTVSPost2010PropOp45
 70
     1
102
RTVSPost2010Prop46
 90
       50
102
RTVSPost2010PropOp46
 70
     1
102
RTVSPost2010Prop47
 90
       50
102
RTVSPost2010PropOp47
 70
     1
102
RTVSPost2010Prop48
 90
       50
102
RTVSPost2010PropOp48
 70
     1
102
RTVSPost2010Prop49
280
     0
102
RTVSPost2010PropOp49
 70
     1
102
RTVSPost2010Prop50
 90
       50
102
RTVSPost2010PropOp50
 70
     1
102
RTVSPost2010Prop51ColorIndex
 90
      256
102
RTVSPost2010Prop51ColorRGB
 90
-16777216
102
RTVSPost2010PropOp51
 70
     0
102
RTVSPost2010Prop52
140
1.0
102
RTVSPost2010PropOp52
 70
     0
102
RTVSPost2010Prop53
 90
        2
102
RTVSPost2010PropOp53
 70
     1
102
RTVSPost2010Prop54
  1
strokes_ogs.tif
102
RTVSPost2010PropOp54
 70
     1
102
RTVSPost2010Prop55
280
     0
102
RTVSPost2010PropOp55
 70
     1
102
RTVSPost2010Prop56
140
1.0
102
RTVSPost2010PropOp56
 70
     1
102
RTVSPost2010Prop57
140
1.0
102
RTVSPost2010PropOp57
 70
     1
102
RTVSPropertyOp0
 70
     1
102
RTVSPropertyOp1
 70
     1
102
RTVSPropertyOp2
 70
     1
102
RTVSPropertyOp3
 70
     1
102
RTVSPropertyOp4
 70
     1
102
RTVSPropertyOp5
 70
     1
102
RTVSPropertyOp6
 70
     1
102
RTVSPropertyOp7
 70
     1
102
RTVSPropertyOp8
 70
     1
102
RTVSPropertyOp9
 70
     1
102
RTVSPropertyOp10
 70
     1
102
RTVSPropertyOp11
 70
     1
102
RTVSPropertyOp12
 70
     1
102
RTVSPropertyOp13
 70
     1
102
RTVSPropertyOp14
 70
     1
102
RTVSPropertyOp15
 70
     1
102
RTVSPropertyOp16
 70
     1
102
RTVSPropertyOp17
 70
     1
102
RTVSPropertyOp18
 70
     1
102
RTVSPropertyOp19
 70
     1
102
RTVSPropertyOp20
 70
     1
102
RTVSPropertyOp21
 70
     1
102
RTVSPropertyOp22
 70
     1
102
RTVSPropertyOp23
 70
     1
102
RTVSPropertyOp24
 70
     1
102
RTVSPropertyOp25
 70
     1
102
RTVSPropertyOp26
 70
     1
102
RTVSPropertyOp27
 70
     1
102
RTVSPropertyOp28
 70
     1
102
RTVSPropertyOp29
 70
     1
102
RTVSPropertyOp30
 70
     1
102
RTVSPropertyOp31
 70
     1
102
RTVSPropertyOp32
 70
     1
102
RTVSPropertyOp33
 70
     1
102
RTVSPropertyOp34
 70
     1
102
RTVSPropertyOp35
 70
     1
102
RTVSPropertyOp36
 70
     1
102
RTVSPropertyOp37
 70
     1
102
RTVSPropertyOp38
 70
     1
102
RTVSPropertyOp39
 70
     1
102
RTVSPropertyOp40
 70
     1
102
RTVSPropertyOp41
 70
     1
102
RTVSPropertyOp42
 70
     1
102
RTVSPropertyOp43
 70
     1
102
RTVSPropertyOp44
 70
     1
102
RTVSPropertyOp45
 70
     1
102
RTVSPropertyOp46
 70
     1
102
RTVSPropertyOp47
 70
     1
102
RTVSPropertyOp48
 70
     1
102
RTVSPropertyOp49
 70
     1
102
RTVSPropertyOp50
 70
     1
102
RTVSPropertyOp51
 70
     0
102
RTVSPropertyOp52
 70
     0
102
RTVSPropertyOp53
 70
     1
102
RTVSPropertyOp54
 70
     1
102
RTVSPropertyOp55
 70
     1
102
RTVSPropertyOp56
 70
     1
102
RTVSPropertyOp57
 70
     1
102
RTVSPropertyOp58
 70
     1
102
RTVSPropertyOp59
 70
     1
102
RTVSPropertyOp60
 70
     1
102
RTVSPropertyOp61
 70
     1
102
RTVSPropertyOp62
 70
     1
  0
XRECORD
  5
C56D
102
{ACAD_REACTORS
330
C56C
102
}
330
C56C
100
AcDbXrecord
280
     1
102
RTVSPost2010Prop28
280
     0
102
RTVSPost2010PropOp28
 70
     1
102
RTVSPost2010Prop29
280
     1
102
RTVSPost2010PropOp29
 70
     1
102
RTVSPost2010Prop30
280
     1
102
RTVSPost2010PropOp30
 70
     1
102
RTVSPost2010Prop31
280
     0
102
RTVSPost2010PropOp31
 70
     1
102
RTVSPost2010Prop32
280
     0
102
RTVSPost2010PropOp32
 70
     1
102
RTVSPost2010Prop33
280
     0
102
RTVSPost2010PropOp33
 70
     1
102
RTVSPost2010Prop34
280
     0
102
RTVSPost2010PropOp34
 70
     1
102
RTVSPost2010Prop35
280
     0
102
RTVSPost2010PropOp35
 70
     1
102
RTVSPost2010Prop36
280
     0
102
RTVSPost2010PropOp36
 70
     1
102
RTVSPost2010Prop37
 90
       50
102
RTVSPost2010PropOp37
 70
     1
102
RTVSPost2010Prop38
140
0.0
102
RTVSPost2010PropOp38
 70
     1
102
RTVSPost2010Prop39
140
1.0
102
RTVSPost2010PropOp39
 70
     1
102
RTVSPost2010Prop40
 90
        0
102
RTVSPost2010PropOp40
 70
     1
102
RTVSPost2010Prop41ColorIndex
 90
       18
102
RTVSPost2010Prop41ColorRGB
 90
        0
102
RTVSPost2010PropOp41
 70
     1
102
RTVSPost2010Prop42
 90
       50
102
RTVSPost2010PropOp42
 70
     1
102
RTVSPost2010Prop43
 90
        3
102
RTVSPost2010PropOp43
 70
     1
102
RTVSPost2010Prop44ColorIndex
 90
        5
102
RTVSPost2010Prop44ColorRGB
 90
      255
102
RTVSPost2010PropOp44
 70
     1
102
RTVSPost2010Prop45
280
     0
102
RTVSPost2010PropOp45
 70
     1
102
RTVSPost2010Prop46
 90
       50
102
RTVSPost2010PropOp46
 70
     1
102
RTVSPost2010Prop47
 90
       50
102
RTVSPost2010PropOp47
 70
     1
102
RTVSPost2010Prop48
 90
       50
102
RTVSPost2010PropOp48
 70
     1
102
RTVSPost2010Prop49
280
     0
102
RTVSPost2010PropOp49
 70
     1
102
RTVSPost2010Prop50
 90
       50
102
RTVSPost2010PropOp50
 70
     1
102
RTVSPost2010Prop51ColorIndex
 90
      256
102
RTVSPost2010Prop51ColorRGB
 90
-16777216
102
RTVSPost2010PropOp51
 70
     0
102
RTVSPost2010Prop52
140
1.0
102
RTVSPost2010PropOp52
 70
     0
102
RTVSPost2010Prop53
 90
        2
102
RTVSPost2010PropOp53
 70
     1
102
RTVSPost2010Prop54
  1
strokes_ogs.tif
102
RTVSPost2010PropOp54
 70
     1
102
RTVSPost2010Prop55
280
     0
102
RTVSPost2010PropOp55
 70
     1
102
RTVSPost2010Prop56
140
1.0
102
RTVSPost2010PropOp56
 70
     1
102
RTVSPost2010Prop57
140
1.0
102
RTVSPost2010PropOp57
 70
     1
102
RTVSPropertyOp0
 70
     1
102
RTVSPropertyOp1
 70
     1
102
RTVSPropertyOp2
 70
     1
102
RTVSPropertyOp3
 70
     1
102
RTVSPropertyOp4
 70
     1
102
RTVSPropertyOp5
 70
     1
102
RTVSPropertyOp6
 70
     1
102
RTVSPropertyOp7
 70
     1
102
RTVSPropertyOp8
 70
     1
102
RTVSPropertyOp9
 70
     1
102
RTVSPropertyOp10
 70
     1
102
RTVSPropertyOp11
 70
     1
102
RTVSPropertyOp12
 70
     1
102
RTVSPropertyOp13
 70
     1
102
RTVSPropertyOp14
 70
     1
102
RTVSPropertyOp15
 70
     1
102
RTVSPropertyOp16
 70
     1
102
RTVSPropertyOp17
 70
     1
102
RTVSPropertyOp18
 70
     1
102
RTVSPropertyOp19
 70
     1
102
RTVSPropertyOp20
 70
     1
102
RTVSPropertyOp21
 70
     1
102
RTVSPropertyOp22
 70
     1
102
RTVSPropertyOp23
 70
     1
102
RTVSPropertyOp24
 70
     1
102
RTVSPropertyOp25
 70
     1
102
RTVSPropertyOp26
 70
     1
102
RTVSPropertyOp27
 70
     1
102
RTVSPropertyOp28
 70
     1
102
RTVSPropertyOp29
 70
     1
102
RTVSPropertyOp30
 70
     1
102
RTVSPropertyOp31
 70
     1
102
RTVSPropertyOp32
 70
     1
102
RTVSPropertyOp33
 70
     1
102
RTVSPropertyOp34
 70
     1
102
RTVSPropertyOp35
 70
     1
102
RTVSPropertyOp36
 70
     1
102
RTVSPropertyOp37
 70
     1
102
RTVSPropertyOp38
 70
     1
102
RTVSPropertyOp39
 70
     1
102
RTVSPropertyOp40
 70
     1
102
RTVSPropertyOp41
 70
     1
102
RTVSPropertyOp42
 70
     1
102
RTVSPropertyOp43
 70
     1
102
RTVSPropertyOp44
 70
     1
102
RTVSPropertyOp45
 70
     1
102
RTVSPropertyOp46
 70
     1
102
RTVSPropertyOp47
 70
     1
102
RTVSPropertyOp48
 70
     1
102
RTVSPropertyOp49
 70
     1
102
RTVSPropertyOp50
 70
     1
102
RTVSPropertyOp51
 70
     0
102
RTVSPropertyOp52
 70
     0
102
RTVSPropertyOp53
 70
     1
102
RTVSPropertyOp54
 70
     1
102
RTVSPropertyOp55
 70
     1
102
RTVSPropertyOp56
 70
     1
102
RTVSPropertyOp57
 70
     1
102
RTVSPropertyOp58
 70
     1
102
RTVSPropertyOp59
 70
     1
102
RTVSPropertyOp60
 70
     1
102
RTVSPropertyOp61
 70
     1
102
RTVSPropertyOp62
 70
     1
  0
XRECORD
  5
C563
102
{ACAD_REACTORS
330
C562
102
}
330
C562
100
AcDbXrecord
280
     1
102
RTVSPost2010Prop28
280
     0
102
RTVSPost2010PropOp28
 70
     1
102
RTVSPost2010Prop29
280
     1
102
RTVSPost2010PropOp29
 70
     1
102
RTVSPost2010Prop30
280
     1
102
RTVSPost2010PropOp30
 70
     1
102
RTVSPost2010Prop31
280
     0
102
RTVSPost2010PropOp31
 70
     1
102
RTVSPost2010Prop32
280
     0
102
RTVSPost2010PropOp32
 70
     1
102
RTVSPost2010Prop33
280
     0
102
RTVSPost2010PropOp33
 70
     1
102
RTVSPost2010Prop34
280
     0
102
RTVSPost2010PropOp34
 70
     1
102
RTVSPost2010Prop35
280
     0
102
RTVSPost2010PropOp35
 70
     1
102
RTVSPost2010Prop36
280
     0
102
RTVSPost2010PropOp36
 70
     1
102
RTVSPost2010Prop37
 90
       50
102
RTVSPost2010PropOp37
 70
     1
102
RTVSPost2010Prop38
140
0.0
102
RTVSPost2010PropOp38
 70
     1
102
RTVSPost2010Prop39
140
1.0
102
RTVSPost2010PropOp39
 70
     1
102
RTVSPost2010Prop40
 90
        0
102
RTVSPost2010PropOp40
 70
     1
102
RTVSPost2010Prop41ColorIndex
 90
       18
102
RTVSPost2010Prop41ColorRGB
 90
        0
102
RTVSPost2010PropOp41
 70
     1
102
RTVSPost2010Prop42
 90
       50
102
RTVSPost2010PropOp42
 70
     1
102
RTVSPost2010Prop43
 90
        3
102
RTVSPost2010PropOp43
 70
     1
102
RTVSPost2010Prop44ColorIndex
 90
        5
102
RTVSPost2010Prop44ColorRGB
 90
      255
102
RTVSPost2010PropOp44
 70
     1
102
RTVSPost2010Prop45
280
     0
102
RTVSPost2010PropOp45
 70
     1
102
RTVSPost2010Prop46
 90
       50
102
RTVSPost2010PropOp46
 70
     1
102
RTVSPost2010Prop47
 90
       50
102
RTVSPost2010PropOp47
 70
     1
102
RTVSPost2010Prop48
 90
       50
102
RTVSPost2010PropOp48
 70
     1
102
RTVSPost2010Prop49
280
     0
102
RTVSPost2010PropOp49
 70
     1
102
RTVSPost2010Prop50
 90
       50
102
RTVSPost2010PropOp50
 70
     1
102
RTVSPost2010Prop51ColorIndex
 90
      256
102
RTVSPost2010Prop51ColorRGB
 90
-16777216
102
RTVSPost2010PropOp51
 70
     0
102
RTVSPost2010Prop52
140
1.0
102
RTVSPost2010PropOp52
 70
     0
102
RTVSPost2010Prop53
 90
        2
102
RTVSPost2010PropOp53
 70
     1
102
RTVSPost2010Prop54
  1
strokes_ogs.tif
102
RTVSPost2010PropOp54
 70
     1
102
RTVSPost2010Prop55
280
     0
102
RTVSPost2010PropOp55
 70
     1
102
RTVSPost2010Prop56
140
1.0
102
RTVSPost2010PropOp56
 70
     1
102
RTVSPost2010Prop57
140
1.0
102
RTVSPost2010PropOp57
 70
     1
102
RTVSPropertyOp0
 70
     1
102
RTVSPropertyOp1
 70
     1
102
RTVSPropertyOp2
 70
     1
102
RTVSPropertyOp3
 70
     1
102
RTVSPropertyOp4
 70
     1
102
RTVSPropertyOp5
 70
     1
102
RTVSPropertyOp6
 70
     1
102
RTVSPropertyOp7
 70
     1
102
RTVSPropertyOp8
 70
     1
102
RTVSPropertyOp9
 70
     1
102
RTVSPropertyOp10
 70
     1
102
RTVSPropertyOp11
 70
     1
102
RTVSPropertyOp12
 70
     1
102
RTVSPropertyOp13
 70
     1
102
RTVSPropertyOp14
 70
     1
102
RTVSPropertyOp15
 70
     1
102
RTVSPropertyOp16
 70
     1
102
RTVSPropertyOp17
 70
     1
102
RTVSPropertyOp18
 70
     1
102
RTVSPropertyOp19
 70
     1
102
RTVSPropertyOp20
 70
     1
102
RTVSPropertyOp21
 70
     1
102
RTVSPropertyOp22
 70
     1
102
RTVSPropertyOp23
 70
     1
102
RTVSPropertyOp24
 70
     1
102
RTVSPropertyOp25
 70
     1
102
RTVSPropertyOp26
 70
     1
102
RTVSPropertyOp27
 70
     1
102
RTVSPropertyOp28
 70
     1
102
RTVSPropertyOp29
 70
     1
102
RTVSPropertyOp30
 70
     1
102
RTVSPropertyOp31
 70
     1
102
RTVSPropertyOp32
 70
     1
102
RTVSPropertyOp33
 70
     1
102
RTVSPropertyOp34
 70
     1
102
RTVSPropertyOp35
 70
     1
102
RTVSPropertyOp36
 70
     1
102
RTVSPropertyOp37
 70
     1
102
RTVSPropertyOp38
 70
     1
102
RTVSPropertyOp39
 70
     1
102
RTVSPropertyOp40
 70
     1
102
RTVSPropertyOp41
 70
     1
102
RTVSPropertyOp42
 70
     1
102
RTVSPropertyOp43
 70
     1
102
RTVSPropertyOp44
 70
     1
102
RTVSPropertyOp45
 70
     1
102
RTVSPropertyOp46
 70
     1
102
RTVSPropertyOp47
 70
     1
102
RTVSPropertyOp48
 70
     1
102
RTVSPropertyOp49
 70
     1
102
RTVSPropertyOp50
 70
     1
102
RTVSPropertyOp51
 70
     0
102
RTVSPropertyOp52
 70
     0
102
RTVSPropertyOp53
 70
     1
102
RTVSPropertyOp54
 70
     1
102
RTVSPropertyOp55
 70
     1
102
RTVSPropertyOp56
 70
     1
102
RTVSPropertyOp57
 70
     1
102
RTVSPropertyOp58
 70
     1
102
RTVSPropertyOp59
 70
     1
102
RTVSPropertyOp60
 70
     1
102
RTVSPropertyOp61
 70
     1
102
RTVSPropertyOp62
 70
     1
  0
XRECORD
  5
C557
102
{ACAD_REACTORS
330
C556
102
}
330
C556
100
AcDbXrecord
280
     1
102
RTVSPost2010Prop28
280
     0
102
RTVSPost2010PropOp28
 70
     1
102
RTVSPost2010Prop29
280
     1
102
RTVSPost2010PropOp29
 70
     1
102
RTVSPost2010Prop30
280
     1
102
RTVSPost2010PropOp30
 70
     1
102
RTVSPost2010Prop31
280
     0
102
RTVSPost2010PropOp31
 70
     1
102
RTVSPost2010Prop32
280
     0
102
RTVSPost2010PropOp32
 70
     1
102
RTVSPost2010Prop33
280
     0
102
RTVSPost2010PropOp33
 70
     1
102
RTVSPost2010Prop34
280
     0
102
RTVSPost2010PropOp34
 70
     1
102
RTVSPost2010Prop35
280
     0
102
RTVSPost2010PropOp35
 70
     1
102
RTVSPost2010Prop36
280
     0
102
RTVSPost2010PropOp36
 70
     1
102
RTVSPost2010Prop37
 90
       50
102
RTVSPost2010PropOp37
 70
     1
102
RTVSPost2010Prop38
140
0.0
102
RTVSPost2010PropOp38
 70
     1
102
RTVSPost2010Prop39
140
1.0
102
RTVSPost2010PropOp39
 70
     1
102
RTVSPost2010Prop40
 90
        0
102
RTVSPost2010PropOp40
 70
     1
102
RTVSPost2010Prop41ColorIndex
 90
       18
102
RTVSPost2010Prop41ColorRGB
 90
        0
102
RTVSPost2010PropOp41
 70
     1
102
RTVSPost2010Prop42
 90
       50
102
RTVSPost2010PropOp42
 70
     1
102
RTVSPost2010Prop43
 90
        3
102
RTVSPost2010PropOp43
 70
     1
102
RTVSPost2010Prop44ColorIndex
 90
        5
102
RTVSPost2010Prop44ColorRGB
 90
      255
102
RTVSPost2010PropOp44
 70
     1
102
RTVSPost2010Prop45
280
     0
102
RTVSPost2010PropOp45
 70
     1
102
RTVSPost2010Prop46
 90
       50
102
RTVSPost2010PropOp46
 70
     1
102
RTVSPost2010Prop47
 90
       50
102
RTVSPost2010PropOp47
 70
     1
102
RTVSPost2010Prop48
 90
       50
102
RTVSPost2010PropOp48
 70
     1
102
RTVSPost2010Prop49
280
     0
102
RTVSPost2010PropOp49
 70
     1
102
RTVSPost2010Prop50
 90
       50
102
RTVSPost2010PropOp50
 70
     1
102
RTVSPost2010Prop51ColorIndex
 90
      256
102
RTVSPost2010Prop51ColorRGB
 90
-16777216
102
RTVSPost2010PropOp51
 70
     0
102
RTVSPost2010Prop52
140
1.0
102
RTVSPost2010PropOp52
 70
     0
102
RTVSPost2010Prop53
 90
        2
102
RTVSPost2010PropOp53
 70
     1
102
RTVSPost2010Prop54
  1
strokes_ogs.tif
102
RTVSPost2010PropOp54
 70
     1
102
RTVSPost2010Prop55
280
     0
102
RTVSPost2010PropOp55
 70
     1
102
RTVSPost2010Prop56
140
1.0
102
RTVSPost2010PropOp56
 70
     1
102
RTVSPost2010Prop57
140
1.0
102
RTVSPost2010PropOp57
 70
     1
102
RTVSPropertyOp0
 70
     1
102
RTVSPropertyOp1
 70
     1
102
RTVSPropertyOp2
 70
     1
102
RTVSPropertyOp3
 70
     1
102
RTVSPropertyOp4
 70
     1
102
RTVSPropertyOp5
 70
     1
102
RTVSPropertyOp6
 70
     1
102
RTVSPropertyOp7
 70
     1
102
RTVSPropertyOp8
 70
     1
102
RTVSPropertyOp9
 70
     1
102
RTVSPropertyOp10
 70
     1
102
RTVSPropertyOp11
 70
     1
102
RTVSPropertyOp12
 70
     1
102
RTVSPropertyOp13
 70
     1
102
RTVSPropertyOp14
 70
     1
102
RTVSPropertyOp15
 70
     1
102
RTVSPropertyOp16
 70
     1
102
RTVSPropertyOp17
 70
     1
102
RTVSPropertyOp18
 70
     1
102
RTVSPropertyOp19
 70
     1
102
RTVSPropertyOp20
 70
     1
102
RTVSPropertyOp21
 70
     1
102
RTVSPropertyOp22
 70
     1
102
RTVSPropertyOp23
 70
     1
102
RTVSPropertyOp24
 70
     1
102
RTVSPropertyOp25
 70
     1
102
RTVSPropertyOp26
 70
     1
102
RTVSPropertyOp27
 70
     1
102
RTVSPropertyOp28
 70
     1
102
RTVSPropertyOp29
 70
     1
102
RTVSPropertyOp30
 70
     1
102
RTVSPropertyOp31
 70
     1
102
RTVSPropertyOp32
 70
     1
102
RTVSPropertyOp33
 70
     1
102
RTVSPropertyOp34
 70
     1
102
RTVSPropertyOp35
 70
     1
102
RTVSPropertyOp36
 70
     1
102
RTVSPropertyOp37
 70
     1
102
RTVSPropertyOp38
 70
     1
102
RTVSPropertyOp39
 70
     1
102
RTVSPropertyOp40
 70
     1
102
RTVSPropertyOp41
 70
     1
102
RTVSPropertyOp42
 70
     1
102
RTVSPropertyOp43
 70
     1
102
RTVSPropertyOp44
 70
     1
102
RTVSPropertyOp45
 70
     1
102
RTVSPropertyOp46
 70
     1
102
RTVSPropertyOp47
 70
     1
102
RTVSPropertyOp48
 70
     1
102
RTVSPropertyOp49
 70
     1
102
RTVSPropertyOp50
 70
     1
102
RTVSPropertyOp51
 70
     0
102
RTVSPropertyOp52
 70
     0
102
RTVSPropertyOp53
 70
     1
102
RTVSPropertyOp54
 70
     1
102
RTVSPropertyOp55
 70
     1
102
RTVSPropertyOp56
 70
     1
102
RTVSPropertyOp57
 70
     1
102
RTVSPropertyOp58
 70
     1
102
RTVSPropertyOp59
 70
     1
102
RTVSPropertyOp60
 70
     1
102
RTVSPropertyOp61
 70
     1
102
RTVSPropertyOp62
 70
     1
  0
XRECORD
  5
C56F
102
{ACAD_REACTORS
330
C56E
102
}
330
C56E
100
AcDbXrecord
280
     1
102
RTVSPost2010Prop28
280
     0
102
RTVSPost2010PropOp28
 70
     1
102
RTVSPost2010Prop29
280
     1
102
RTVSPost2010PropOp29
 70
     1
102
RTVSPost2010Prop30
280
     1
102
RTVSPost2010PropOp30
 70
     1
102
RTVSPost2010Prop31
280
     0
102
RTVSPost2010PropOp31
 70
     1
102
RTVSPost2010Prop32
280
     0
102
RTVSPost2010PropOp32
 70
     1
102
RTVSPost2010Prop33
280
     0
102
RTVSPost2010PropOp33
 70
     1
102
RTVSPost2010Prop34
280
     0
102
RTVSPost2010PropOp34
 70
     1
102
RTVSPost2010Prop35
280
     0
102
RTVSPost2010PropOp35
 70
     1
102
RTVSPost2010Prop36
280
     0
102
RTVSPost2010PropOp36
 70
     1
102
RTVSPost2010Prop37
 90
       50
102
RTVSPost2010PropOp37
 70
     1
102
RTVSPost2010Prop38
140
0.0
102
RTVSPost2010PropOp38
 70
     1
102
RTVSPost2010Prop39
140
1.0
102
RTVSPost2010PropOp39
 70
     1
102
RTVSPost2010Prop40
 90
        0
102
RTVSPost2010PropOp40
 70
     1
102
RTVSPost2010Prop41ColorIndex
 90
       18
102
RTVSPost2010Prop41ColorRGB
 90
        0
102
RTVSPost2010PropOp41
 70
     1
102
RTVSPost2010Prop42
 90
       50
102
RTVSPost2010PropOp42
 70
     1
102
RTVSPost2010Prop43
 90
        3
102
RTVSPost2010PropOp43
 70
     1
102
RTVSPost2010Prop44ColorIndex
 90
        5
102
RTVSPost2010Prop44ColorRGB
 90
      255
102
RTVSPost2010PropOp44
 70
     1
102
RTVSPost2010Prop45
280
     0
102
RTVSPost2010PropOp45
 70
     1
102
RTVSPost2010Prop46
 90
       50
102
RTVSPost2010PropOp46
 70
     1
102
RTVSPost2010Prop47
 90
       50
102
RTVSPost2010PropOp47
 70
     1
102
RTVSPost2010Prop48
 90
       50
102
RTVSPost2010PropOp48
 70
     1
102
RTVSPost2010Prop49
280
     0
102
RTVSPost2010PropOp49
 70
     1
102
RTVSPost2010Prop50
 90
       50
102
RTVSPost2010PropOp50
 70
     1
102
RTVSPost2010Prop51ColorIndex
 90
      256
102
RTVSPost2010Prop51ColorRGB
 90
-16777216
102
RTVSPost2010PropOp51
 70
     0
102
RTVSPost2010Prop52
140
1.0
102
RTVSPost2010PropOp52
 70
     0
102
RTVSPost2010Prop53
 90
        2
102
RTVSPost2010PropOp53
 70
     1
102
RTVSPost2010Prop54
  1
strokes_ogs.tif
102
RTVSPost2010PropOp54
 70
     1
102
RTVSPost2010Prop55
280
     0
102
RTVSPost2010PropOp55
 70
     1
102
RTVSPost2010Prop56
140
1.0
102
RTVSPost2010PropOp56
 70
     1
102
RTVSPost2010Prop57
140
1.0
102
RTVSPost2010PropOp57
 70
     1
102
RTVSPropertyOp0
 70
     1
102
RTVSPropertyOp1
 70
     1
102
RTVSPropertyOp2
 70
     1
102
RTVSPropertyOp3
 70
     1
102
RTVSPropertyOp4
 70
     1
102
RTVSPropertyOp5
 70
     1
102
RTVSPropertyOp6
 70
     1
102
RTVSPropertyOp7
 70
     1
102
RTVSPropertyOp8
 70
     1
102
RTVSPropertyOp9
 70
     1
102
RTVSPropertyOp10
 70
     1
102
RTVSPropertyOp11
 70
     1
102
RTVSPropertyOp12
 70
     1
102
RTVSPropertyOp13
 70
     1
102
RTVSPropertyOp14
 70
     1
102
RTVSPropertyOp15
 70
     1
102
RTVSPropertyOp16
 70
     1
102
RTVSPropertyOp17
 70
     1
102
RTVSPropertyOp18
 70
     1
102
RTVSPropertyOp19
 70
     1
102
RTVSPropertyOp20
 70
     1
102
RTVSPropertyOp21
 70
     1
102
RTVSPropertyOp22
 70
     1
102
RTVSPropertyOp23
 70
     1
102
RTVSPropertyOp24
 70
     1
102
RTVSPropertyOp25
 70
     1
102
RTVSPropertyOp26
 70
     1
102
RTVSPropertyOp27
 70
     1
102
RTVSPropertyOp28
 70
     1
102
RTVSPropertyOp29
 70
     1
102
RTVSPropertyOp30
 70
     1
102
RTVSPropertyOp31
 70
     1
102
RTVSPropertyOp32
 70
     1
102
RTVSPropertyOp33
 70
     1
102
RTVSPropertyOp34
 70
     1
102
RTVSPropertyOp35
 70
     1
102
RTVSPropertyOp36
 70
     1
102
RTVSPropertyOp37
 70
     1
102
RTVSPropertyOp38
 70
     1
102
RTVSPropertyOp39
 70
     1
102
RTVSPropertyOp40
 70
     1
102
RTVSPropertyOp41
 70
     1
102
RTVSPropertyOp42
 70
     1
102
RTVSPropertyOp43
 70
     1
102
RTVSPropertyOp44
 70
     1
102
RTVSPropertyOp45
 70
     1
102
RTVSPropertyOp46
 70
     1
102
RTVSPropertyOp47
 70
     1
102
RTVSPropertyOp48
 70
     1
102
RTVSPropertyOp49
 70
     1
102
RTVSPropertyOp50
 70
     1
102
RTVSPropertyOp51
 70
     0
102
RTVSPropertyOp52
 70
     0
102
RTVSPropertyOp53
 70
     1
102
RTVSPropertyOp54
 70
     1
102
RTVSPropertyOp55
 70
     1
102
RTVSPropertyOp56
 70
     1
102
RTVSPropertyOp57
 70
     1
102
RTVSPropertyOp58
 70
     1
102
RTVSPropertyOp59
 70
     1
102
RTVSPropertyOp60
 70
     1
102
RTVSPropertyOp61
 70
     1
102
RTVSPropertyOp62
 70
     1
  0
ENDSEC
  0
EOF
