  0
SECTION
  2
HEADER
  9
$ACADVER
  1
AC1015
  9
$ACADMAINTVER
 70
    20
  9
$DWGCODEPAGE
  3
ANSI_932
  9
$INSBASE
 10
0.0
 20
0.0
 30
0.0
  9
$EXTMIN
 10
9.9999975266385
 20
10.0
 30
0.0
  9
$EXTMAX
 10
297.0046911383652
 20
235.4606909485131
 30
0.0
  9
$LIMMIN
 10
0.0000015376081137
 20
-0.0000001931532552
  9
$LIMMAX
 10
396.0000015376081
 20
272.9999998068465
  9
$ORTHOMODE
 70
     1
  9
$REGENMODE
 70
     1
  9
$FILLMODE
 70
     1
  9
$QTEXTMODE
 70
     0
  9
$MIRRTEXT
 70
     1
  9
$LTSCALE
 40
1.0
  9
$ATTMODE
 70
     1
  9
$TEXTSIZE
 40
2.5
  9
$TRACEWID
 40
1.0
  9
$TEXTSTYLE
  7
STANDARD
  9
$CLAYER
  8
0
  9
$CELTYPE
  6
BYLAYER
  9
$CECOLOR
 62
   256
  9
$CELTSCALE
 40
1.0
  9
$DISPSILH
 70
     0
  9
$DIMSCALE
 40
1.0
  9
$DIMASZ
 40
3.0
  9
$DIMEXO
 40
1.0
  9
$DIMDLI
 40
10.0
  9
$DIMRND
 40
0.0
  9
$DIMDLE
 40
0.0
  9
$DIMEXE
 40
1.0
  9
$DIMTP
 40
0.0
  9
$DIMTM
 40
0.0
  9
$DIMTXT
 40
3.2
  9
$DIMCEN
 40
0.0
  9
$DIMTSZ
 40
0.0
  9
$DIMTOL
 70
     0
  9
$DIMLIM
 70
     0
  9
$DIMTIH
 70
     0
  9
$DIMTOH
 70
     0
  9
$DIMSE1
 70
     0
  9
$DIMSE2
 70
     0
  9
$DIMTAD
 70
     3
  9
$DIMZIN
 70
     8
  9
$DIMBLK
  1

  9
$DIMASO
 70
     1
  9
$DIMSHO
 70
     1
  9
$DIMPOST
  1

  9
$DIMAPOST
  1

  9
$DIMALT
 70
     0
  9
$DIMALTD
 70
     2
  9
$DIMALTF
 40
25.4
  9
$DIMLFAC
 40
1.0
  9
$DIMTOFL
 70
     1
  9
$DIMTVP
 40
0.0
  9
$DIMTIX
 70
     0
  9
$DIMSOXD
 70
     0
  9
$DIMSAH
 70
     1
  9
$DIMBLK1
  1
OPEN
  9
$DIMBLK2
  1
OPEN
  9
$DIMSTYLE
  2
STANDARD
  9
$DIMCLRD
 70
     0
  9
$DIMCLRE
 70
     0
  9
$DIMCLRT
 70
     0
  9
$DIMTFAC
 40
1.0
  9
$DIMGAP
 40
1.0
  9
$DIMJUST
 70
     0
  9
$DIMSD1
 70
     0
  9
$DIMSD2
 70
     0
  9
$DIMTOLJ
 70
     1
  9
$DIMTZIN
 70
     0
  9
$DIMALTZ
 70
     0
  9
$DIMALTTZ
 70
     0
  9
$DIMUPT
 70
     0
  9
$DIMDEC
 70
     4
  9
$DIMTDEC
 70
     4
  9
$DIMALTU
 70
     2
  9
$DIMALTTD
 70
     2
  9
$DIMTXSTY
  7
STANDARD
  9
$DIMAUNIT
 70
     0
  9
$DIMADEC
 70
     0
  9
$DIMALTRND
 40
0.0
  9
$DIMAZIN
 70
     0
  9
$DIMDSEP
 70
    46
  9
$DIMATFIT
 70
     3
  9
$DIMFRAC
 70
     0
  9
$DIMLDRBLK
  1
OPEN
  9
$DIMLUNIT
 70
     2
  9
$DIMLWD
 70
    -2
  9
$DIMLWE
 70
    -2
  9
$DIMTMOVE
 70
     0
  9
$LUNITS
 70
     2
  9
$LUPREC
 70
     4
  9
$SKETCHINC
 40
1.0
  9
$FILLETRAD
 40
0.0
  9
$AUNITS
 70
     0
  9
$AUPREC
 70
     0
  9
$MENU
  1
.
  9
$ELEVATION
 40
0.0
  9
$PELEVATION
 40
0.0
  9
$THICKNESS
 40
0.0
  9
$LIMCHECK
 70
     0
  9
$CHAMFERA
 40
10.0
  9
$CHAMFERB
 40
10.0
  9
$CHAMFERC
 40
20.0
  9
$CHAMFERD
 40
0.0
  9
$SKPOLY
 70
     0
  9
$TDCREATE
 40
2453783.543007083
  9
$TDUCREATE
 40
2453783.168007083
  9
$TDUPDATE
 40
2457192.700463449
  9
$TDUUPDATE
 40
2457192.325463449
  9
$TDINDWG
 40
0.1328857523
  9
$TDUSRTIMER
 40
0.1328855556
  9
$USRTIMER
 70
     1
  9
$ANGBASE
 50
0.0
  9
$ANGDIR
 70
     0
  9
$PDMODE
 70
     0
  9
$PDSIZE
 40
0.0
  9
$PLINEWID
 40
0.0
  9
$SPLFRAME
 70
     0
  9
$SPLINETYPE
 70
     6
  9
$SPLINESEGS
 70
     8
  9
$HANDSEED
  5
33EB
  9
$SURFTAB1
 70
     6
  9
$SURFTAB2
 70
     6
  9
$SURFTYPE
 70
     6
  9
$SURFU
 70
     6
  9
$SURFV
 70
     6
  9
$UCSBASE
  2

  9
$UCSNAME
  2

  9
$UCSORG
 10
0.0
 20
0.0
 30
0.0
  9
$UCSXDIR
 10
1.0
 20
0.0
 30
0.0
  9
$UCSYDIR
 10
0.0
 20
1.0
 30
0.0
  9
$UCSORTHOREF
  2

  9
$UCSORTHOVIEW
 70
     0
  9
$UCSORGTOP
 10
0.0
 20
0.0
 30
0.0
  9
$UCSORGBOTTOM
 10
0.0
 20
0.0
 30
0.0
  9
$UCSORGLEFT
 10
0.0
 20
0.0
 30
0.0
  9
$UCSORGRIGHT
 10
0.0
 20
0.0
 30
0.0
  9
$UCSORGFRONT
 10
0.0
 20
0.0
 30
0.0
  9
$UCSORGBACK
 10
0.0
 20
0.0
 30
0.0
  9
$PUCSBASE
  2

  9
$PUCSNAME
  2

  9
$PUCSORG
 10
0.0
 20
0.0
 30
0.0
  9
$PUCSXDIR
 10
1.0
 20
0.0
 30
0.0
  9
$PUCSYDIR
 10
0.0
 20
1.0
 30
0.0
  9
$PUCSORTHOREF
  2

  9
$PUCSORTHOVIEW
 70
     0
  9
$PUCSORGTOP
 10
0.0
 20
0.0
 30
0.0
  9
$PUCSORGBOTTOM
 10
0.0
 20
0.0
 30
0.0
  9
$PUCSORGLEFT
 10
0.0
 20
0.0
 30
0.0
  9
$PUCSORGRIGHT
 10
0.0
 20
0.0
 30
0.0
  9
$PUCSORGFRONT
 10
0.0
 20
0.0
 30
0.0
  9
$PUCSORGBACK
 10
0.0
 20
0.0
 30
0.0
  9
$USERI1
 70
     0
  9
$USERI2
 70
     0
  9
$USERI3
 70
     0
  9
$USERI4
 70
     0
  9
$USERI5
 70
     0
  9
$USERR1
 40
0.0
  9
$USERR2
 40
0.0
  9
$USERR3
 40
0.0
  9
$USERR4
 40
0.0
  9
$USERR5
 40
0.0
  9
$WORLDVIEW
 70
     1
  9
$SHADEDGE
 70
     3
  9
$SHADEDIF
 70
    70
  9
$TILEMODE
 70
     1
  9
$MAXACTVP
 70
    48
  9
$PINSBASE
 10
0.0
 20
0.0
 30
0.0
  9
$PLIMCHECK
 70
     0
  9
$PEXTMIN
 10
27.8447512626648
 20
20.24591643810271
 30
0.0
  9
$PEXTMAX
 10
250.6027613639831
 20
182.2132479429244
 30
0.0
  9
$PLIMMIN
 10
-3.757080078125
 20
-3.757083177566528
  9
$PLIMMAX
 10
293.2112426757812
 20
206.2162444591522
  9
$UNITMODE
 70
     0
  9
$VISRETAIN
 70
     1
  9
$PLINEGEN
 70
     0
  9
$PSLTSCALE
 70
     1
  9
$TREEDEPTH
 70
  3020
  9
$CMLSTYLE
  2
STANDARD
  9
$CMLJUST
 70
     0
  9
$CMLSCALE
 40
20.0
  9
$PROXYGRAPHICS
 70
     1
  9
$MEASUREMENT
 70
     0
  9
$CELWEIGHT
370
    -1
  9
$ENDCAPS
280
     0
  9
$JOINSTYLE
280
     0
  9
$LWDISPLAY
290
     0
  9
$INSUNITS
 70
     0
  9
$HYPERLINKBASE
  1

  9
$STYLESHEET
  1

  9
$XEDIT
290
     1
  9
$CEPSNTYPE
380
     0
  9
$PSTYLEMODE
290
     1
  9
$FINGERPRINTGUID
  2
{0C8DE7EB-E1AD-45F0-A476-777B69E270A7}
  9
$VERSIONGUID
  2
{02B375A6-9DEA-4F5E-BAFA-2FE679672869}
  9
$EXTNAMES
290
     1
  9
$PSVPSCALE
 40
0.0
  9
$OLESTARTUP
290
     0
  0
ENDSEC
  0
SECTION
  2
CLASSES
  0
CLASS
  1
ACDBDICTIONARYWDFLT
  2
AcDbDictionaryWithDefault
  3
ObjectDBX Classes
 90
        0
280
     0
281
     0
  0
CLASS
  1
ACDBPLACEHOLDER
  2
AcDbPlaceHolder
  3
ObjectDBX Classes
 90
        0
280
     0
281
     0
  0
CLASS
  1
LAYOUT
  2
AcDbLayout
  3
ObjectDBX Classes
 90
        0
280
     0
281
     0
  0
CLASS
  1
DICTIONARYVAR
  2
AcDbDictionaryVar
  3
ObjectDBX Classes
 90
        0
280
     0
281
     0
  0
CLASS
  1
MATERIAL
  2
AcDbMaterial
  3
ObjectDBX Classes
 90
     1153
280
     0
281
     0
  0
CLASS
  1
VISUALSTYLE
  2
AcDbVisualStyle
  3
ObjectDBX Classes
 90
     4095
280
     0
281
     0
  0
CLASS
  1
TABLESTYLE
  2
AcDbTableStyle
  3
ObjectDBX Classes
 90
     4095
280
     0
281
     0
  0
CLASS
  1
SCALE
  2
AcDbScale
  3
ObjectDBX Classes
 90
     1153
280
     0
281
     0
  0
CLASS
  1
MLEADERSTYLE
  2
AcDbMLeaderStyle
  3
ACDB_MLEADERSTYLE_CLASS
 90
     4095
280
     0
281
     0
  0
CLASS
  1
ACDBSECTIONVIEWSTYLE
  2
AcDbSectionViewStyle
  3
ObjectDBX Classes
 90
     1025
280
     0
281
     0
  0
CLASS
  1
ACDBDETAILVIEWSTYLE
  2
AcDbDetailViewStyle
  3
ObjectDBX Classes
 90
     1025
280
     0
281
     0
  0
CLASS
  1
CELLSTYLEMAP
  2
AcDbCellStyleMap
  3
ObjectDBX Classes
 90
     1152
280
     0
281
     0
  0
ENDSEC
  0
SECTION
  2
TABLES
  0
TABLE
  2
VPORT
  5
8
330
0
100
AcDbSymbolTable
 70
     1
  0
VPORT
  5
3335
330
8
100
AcDbSymbolTableRecord
100
AcDbViewportTableRecord
  2
*ACTIVE
 70
     0
 10
0.0
 20
0.0
 11
1.0
 21
1.0
 12
225.9644252532724
 22
122.7325291129702
 13
0.0
 23
0.0
 14
10.0
 24
10.0
 15
10.0
 25
10.0
 16
0.0
 26
0.0
 36
1.0
 17
0.0
 27
0.0
 37
0.0
 40
227.6375083182993
 41
2.35006605019815
 42
50.0
 43
0.0
 44
0.0
 50
0.0
 51
0.0
 71
     0
 72
   100
 73
     1
 74
     0
 75
     0
 76
     0
 77
     0
 78
     0
281
     0
 65
     1
110
0.0
120
0.0
130
0.0
111
1.0
121
0.0
131
0.0
112
0.0
122
1.0
132
0.0
 79
     0
146
0.0
1001
ACAD_NAV_VCDISPLAY
1070
     3
  0
ENDTAB
  0
TABLE
  2
LTYPE
  5
5
330
0
100
AcDbSymbolTable
 70
     4
  0
LTYPE
  5
12
330
5
100
AcDbSymbolTableRecord
100
AcDbLinetypeTableRecord
  2
BYBLOCK
 70
     0
  3

 72
    65
 73
     0
 40
0.0
  0
LTYPE
  5
13
330
5
100
AcDbSymbolTableRecord
100
AcDbLinetypeTableRecord
  2
BYLAYER
 70
     0
  3

 72
    65
 73
     0
 40
0.0
  0
LTYPE
  5
14
330
5
100
AcDbSymbolTableRecord
100
AcDbLinetypeTableRecord
  2
CONTINUOUS
 70
     0
  3
Solid line
 72
    65
 73
     0
 40
0.0
  0
LTYPE
  5
4B
330
5
100
AcDbSymbolTableRecord
100
AcDbLinetypeTableRecord
  2
DASHED
 70
     0
  3
Dashed __ __ __ __ __ __ __ __ __ __ __ __ __ _
 72
    65
 73
     2
 40
19.04999999999999
 49
12.7
 74
     0
 49
-6.349999999999998
 74
     0
  0
LTYPE
  5
4C
330
5
100
AcDbSymbolTableRecord
100
AcDbLinetypeTableRecord
  2
CENTER
 70
     0
  3
Center ____ _ ____ _ ____ _ ____ _ ____ _ ____
 72
    65
 73
     4
 40
50.8
 49
31.75
 74
     0
 49
-6.349999999999998
 74
     0
 49
6.349999999999998
 74
     0
 49
-6.349999999999998
 74
     0
  0
LTYPE
  5
4D
330
5
100
AcDbSymbolTableRecord
100
AcDbLinetypeTableRecord
  2
PHANTOM
 70
     0
  3
Phantom ______  __  __  ______  __  __  ______
 72
    65
 73
     6
 40
63.5
 49
31.75
 74
     0
 49
-6.349999999999998
 74
     0
 49
6.349999999999998
 74
     0
 49
-6.349999999999998
 74
     0
 49
6.349999999999998
 74
     0
 49
-6.349999999999998
 74
     0
  0
ENDTAB
  0
TABLE
  2
LAYER
  5
2
330
0
100
AcDbSymbolTable
 70
     8
  0
LAYER
  5
E
102
{ACAD_XDICTIONARY
360
338F
102
}
330
2
100
AcDbSymbolTableRecord
100
AcDbLayerTableRecord
  2
0
 70
     0
 62
     7
  6
CONTINUOUS
370
    -3
390
333E
  0
LAYER
  5
4E
102
{ACAD_XDICTIONARY
360
3391
102
}
330
2
100
AcDbSymbolTableRecord
100
AcDbLayerTableRecord
  2
4
 70
     0
 62
     1
  6
CENTER
370
    -3
390
333E
  0
LAYER
  5
4F
102
{ACAD_XDICTIONARY
360
3393
102
}
330
2
100
AcDbSymbolTableRecord
100
AcDbLayerTableRecord
  2
5
 70
     0
 62
     6
  6
PHANTOM
370
    -3
390
333E
  0
LAYER
  5
50
102
{ACAD_XDICTIONARY
360
3395
102
}
330
2
100
AcDbSymbolTableRecord
100
AcDbLayerTableRecord
  2
1
 70
     0
 62
     7
  6
CONTINUOUS
370
    -3
390
333E
  0
LAYER
  5
51
102
{ACAD_XDICTIONARY
360
3397
102
}
330
2
100
AcDbSymbolTableRecord
100
AcDbLayerTableRecord
  2
2
 70
     0
 62
     4
  6
CONTINUOUS
370
    -3
390
333E
  0
LAYER
  5
52
102
{ACAD_XDICTIONARY
360
3399
102
}
330
2
100
AcDbSymbolTableRecord
100
AcDbLayerTableRecord
  2
3
 70
     0
 62
     2
  6
DASHED
370
    -3
390
333E
  0
LAYER
  5
53
102
{ACAD_XDICTIONARY
360
339B
102
}
330
2
100
AcDbSymbolTableRecord
100
AcDbLayerTableRecord
  2
6
 70
     0
 62
     5
  6
CONTINUOUS
370
    -3
390
333E
  0
LAYER
  5
54
102
{ACAD_XDICTIONARY
360
339D
102
}
330
2
100
AcDbSymbolTableRecord
100
AcDbLayerTableRecord
  2
7
 70
     0
 62
     3
  6
CONTINUOUS
370
    -3
390
333E
  0
ENDTAB
  0
TABLE
  2
STYLE
  5
3
330
0
100
AcDbSymbolTable
 70
     1
  0
STYLE
  5
F
330
3
100
AcDbSymbolTableRecord
100
AcDbTextStyleTableRecord
  2
STANDARD
 70
     0
 40
0.0
 41
1.0
 50
0.0
 71
     0
 42
2.5
  3
simplex.shx
  4

  0
ENDTAB
  0
TABLE
  2
VIEW
  5
6
330
0
100
AcDbSymbolTable
 70
     0
  0
ENDTAB
  0
TABLE
  2
UCS
  5
7
330
0
100
AcDbSymbolTable
 70
     0
  0
ENDTAB
  0
TABLE
  2
APPID
  5
9
330
0
100
AcDbSymbolTable
 70
     5
  0
APPID
  5
10
330
9
100
AcDbSymbolTableRecord
100
AcDbRegAppTableRecord
  2
ACAD
 70
     0
  0
APPID
  5
3E
330
9
100
AcDbSymbolTableRecord
100
AcDbRegAppTableRecord
  2
CONTENTTABDATA
 70
     0
  0
APPID
  5
3F
330
9
100
AcDbSymbolTableRecord
100
AcDbRegAppTableRecord
  2
CONTENTCURRENTTAB
 70
     0
  0
APPID
  5
33A9
330
9
100
AcDbSymbolTableRecord
100
AcDbRegAppTableRecord
  2
ACAD_NAV_VCDISPLAY
 70
     0
  0
APPID
  5
33E2
330
9
100
AcDbSymbolTableRecord
100
AcDbRegAppTableRecord
  2
ACAD_MLEADERVER
 70
     0
  0
ENDTAB
  0
TABLE
  2
DIMSTYLE
  5
A
330
0
100
AcDbSymbolTable
 70
     1
100
AcDbDimStyleTable
 71
     0
  0
DIMSTYLE
105
1D
330
A
100
AcDbSymbolTableRecord
100
AcDbDimStyleTableRecord
  2
STANDARD
 70
     0
 41
3.0
 42
1.0
 43
10.0
 44
1.0
 73
     0
 74
     0
 77
     3
 78
     8
140
3.2
141
0.0
147
1.0
172
     1
173
     1
340
F
341
2E
343
2E
344
2E
  0
ENDTAB
  0
TABLE
  2
BLOCK_RECORD
  5
1
330
0
100
AcDbSymbolTable
 70
     1
  0
BLOCK_RECORD
  5
18
102
{ACAD_XDICTIONARY
360
3338
102
}
330
1
100
AcDbSymbolTableRecord
100
AcDbBlockTableRecord
  2
*MODEL_SPACE
340
338C
  0
BLOCK_RECORD
  5
15
102
{ACAD_XDICTIONARY
360
3336
102
}
330
1
100
AcDbSymbolTableRecord
100
AcDbBlockTableRecord
  2
*PAPER_SPACE
340
338D
  0
BLOCK_RECORD
  5
2E
330
1
100
AcDbSymbolTableRecord
100
AcDbBlockTableRecord
  2
_OPEN
340
0
  0
ENDTAB
  0
ENDSEC
  0
SECTION
  2
BLOCKS
  0
BLOCK
  5
19
330
18
100
AcDbEntity
  8
0
100
AcDbBlockBegin
  2
*MODEL_SPACE
 70
     0
 10
0.0
 20
0.0
 30
0.0
  3
*MODEL_SPACE
  1

  0
ENDBLK
  5
1A
330
18
100
AcDbEntity
  8
0
100
AcDbBlockEnd
  0
BLOCK
  5
16
330
15
100
AcDbEntity
 67
     1
  8
0
100
AcDbBlockBegin
  2
*PAPER_SPACE
 70
     0
 10
0.0
 20
0.0
 30
0.0
  3
*PAPER_SPACE
  1

  0
ENDBLK
  5
17
330
15
100
AcDbEntity
 67
     1
  8
0
100
AcDbBlockEnd
  0
BLOCK
  5
2F
330
2E
100
AcDbEntity
  8
0
100
AcDbBlockBegin
  2
_OPEN
 70
     0
 10
0.0
 20
0.0
 30
0.0
  3
_OPEN
  1

  0
LINE
  5
30
330
2E
100
AcDbEntity
  8
0
  6
ByBlock
 62
     0
100
AcDbLine
 10
-1.0
 20
0.1666666666666666
 30
0.0
 11
0.0
 21
0.0
 31
0.0
  0
LINE
  5
31
330
2E
100
AcDbEntity
  8
0
  6
ByBlock
 62
     0
100
AcDbLine
 10
0.0
 20
0.0
 30
0.0
 11
-1.0
 21
-0.1666666666666666
 31
0.0
  0
LINE
  5
32
330
2E
100
AcDbEntity
  8
0
  6
ByBlock
 62
     0
100
AcDbLine
 10
0.0
 20
0.0
 30
0.0
 11
-1.0
 21
0.0
 31
0.0
  0
ENDBLK
  5
33
330
2E
100
AcDbEntity
  8
0
100
AcDbBlockEnd
  0
ENDSEC
  0
SECTION
  2
ENTITIES
  0
TEXT
  5
63
330
18
100
AcDbEntity
  8
4
  6
CENTER
 48
0.25
100
AcDbText
 10
23.97950852663849
 20
10.0
 30
0.0
 40
1.399999999999999
  1
4
100
AcDbText
  0
TEXT
  5
64
330
18
100
AcDbEntity
  8
7
  6
Continuous
 48
0.25
100
AcDbText
 10
9.999997526638502
 20
26.0000007607689
 30
0.0
 40
3.0
  1
CODE No.13350
100
AcDbText
  0
TEXT
  5
65
330
18
100
AcDbEntity
  8
7
  6
Continuous
 48
0.25
100
AcDbText
 10
9.999997526638502
 20
18.00000076076889
 30
0.0
 40
3.0
  1
TYPE No.TEA-1000-U751
100
AcDbText
  0
TEXT
  5
66
330
18
100
AcDbEntity
  8
1
  6
Continuous
 48
0.25
100
AcDbText
 10
9.999997526638502
 20
10.00000076076889
 30
0.0
 40
1.399999999999999
  1
LAYER
100
AcDbText
  0
TEXT
  5
67
330
18
100
AcDbEntity
  8
2
  6
Continuous
 48
0.25
100
AcDbText
 10
19.9795085266385
 20
10.0
 30
0.0
 40
1.399999999999999
  1
2
100
AcDbText
  0
TEXT
  5
68
330
18
100
AcDbEntity
  8
3
  6
DASHED
 48
0.25
100
AcDbText
 10
21.9795085266385
 20
10.0
 30
0.0
 40
1.399999999999999
  1
3
100
AcDbText
  0
TEXT
  5
69
330
18
100
AcDbEntity
  8
1
  6
Continuous
 48
0.25
100
AcDbText
 10
17.9795085266385
 20
10.0
 30
0.0
 40
1.399999999999999
  1
1
100
AcDbText
  0
TEXT
  5
6A
330
18
100
AcDbEntity
  8
5
  6
PHANTOM
 48
0.25
100
AcDbText
 10
25.9795085266385
 20
10.0
 30
0.0
 40
1.399999999999999
  1
5
100
AcDbText
  0
TEXT
  5
6B
330
18
100
AcDbEntity
  8
6
  6
Continuous
 48
0.25
100
AcDbText
 10
27.9795085266385
 20
10.0
 30
0.0
 40
1.399999999999999
  1
6
100
AcDbText
  0
TEXT
  5
6C
330
18
100
AcDbEntity
  8
7
  6
Continuous
 48
0.25
100
AcDbText
 10
29.9795085266385
 20
10.0
 30
0.0
 40
1.399999999999999
  1
7
100
AcDbText
  0
LINE
  5
20DB
330
18
100
AcDbEntity
  8
1
  6
Continuous
100
AcDbLine
 10
43.80086332043686
 20
206.3794928415272
 30
0.0
 11
43.80086332043686
 21
199.337476084944
 31
0.0
  0
LINE
  5
20E1
330
18
100
AcDbEntity
  8
1
  6
Continuous
100
AcDbLine
 10
55.00086332043689
 20
199.6938668443035
 30
0.0
 11
55.00086332043689
 21
198.7494553632827
 31
0.0
  0
LINE
  5
20E3
330
18
100
AcDbEntity
  8
1
  6
Continuous
100
AcDbLine
 10
45.00086332029201
 20
198.1084844632356
 30
0.0
 11
58.00086332043685
 21
198.1084844632356
 31
0.0
  0
LINE
  5
20E4
330
18
100
AcDbEntity
  8
1
  6
Continuous
100
AcDbLine
 10
55.00086332043689
 20
198.7494553632856
 30
0.0
 11
58.0008633204369
 21
198.7494553632856
 31
0.0
  0
LINE
  5
20EC
330
18
100
AcDbEntity
  8
1
  6
Continuous
100
AcDbLine
 10
44.40086332043687
 20
199.3374760849454
 30
0.0
 11
43.80086332043686
 21
199.3374760849454
 31
0.0
  0
LINE
  5
20F8
330
18
100
AcDbEntity
  8
1
  6
Continuous
100
AcDbLine
 10
45.00086332043679
 20
208.8292253350656
 30
0.0
 11
52.52562658343681
 21
208.8292253350656
 31
0.0
  0
LINE
  5
20FC
330
18
100
AcDbEntity
  8
1
  6
Continuous
100
AcDbLine
 10
55.52562658343686
 20
207.5489002230557
 30
0.0
 11
55.52562658343686
 21
208.8292253350654
 31
0.0
  0
LINE
  5
20FD
330
18
100
AcDbEntity
  8
1
  6
Continuous
100
AcDbLine
 10
56.75841875664684
 20
208.829225335065
 30
0.0
 11
56.75841875664684
 21
207.5489002230586
 31
0.0
  0
LINE
  5
20FE
330
18
100
AcDbEntity
  8
1
  6
Continuous
100
AcDbLine
 10
52.52562658343686
 20
208.8292253350626
 30
0.0
 11
52.52562658343686
 21
207.5489002230586
 31
0.0
  0
LINE
  5
2102
330
18
100
AcDbEntity
  8
1
  6
Continuous
100
AcDbLine
 10
58.0008633204369
 20
199.6938668443056
 30
0.0
 11
55.00086332043689
 21
199.6938668443056
 31
0.0
  0
LINE
  5
2103
330
18
100
AcDbEntity
  8
1
  6
Continuous
100
AcDbLine
 10
58.0008633204369
 20
203.6061435523756
 30
0.0
 11
55.00086332043689
 21
203.6061435523756
 31
0.0
  0
LINE
  5
2104
330
18
100
AcDbEntity
  8
1
  6
Continuous
100
AcDbLine
 10
55.00086332043689
 20
202.1108253740956
 30
0.0
 11
58.0008633204369
 21
202.1108253740956
 31
0.0
  0
LINE
  5
2106
330
18
100
AcDbEntity
  8
1
  6
Continuous
100
AcDbLine
 10
55.00086332043689
 20
202.1108253740956
 30
0.0
 11
55.00086332043689
 21
203.6061435523753
 31
0.0
  0
LINE
  5
2108
330
18
100
AcDbEntity
  8
1
  6
Continuous
100
AcDbLine
 10
55.00086332043689
 20
206.0231020821656
 30
0.0
 11
55.00086332043689
 21
206.9675135631876
 31
0.0
  0
LINE
  5
210B
330
18
100
AcDbEntity
  8
1
  6
Continuous
100
AcDbLine
 10
58.0008633204369
 20
206.9675135631856
 30
0.0
 11
55.00086332043689
 21
206.9675135631856
 31
0.0
  0
LINE
  5
210C
330
18
100
AcDbEntity
  8
1
  6
Continuous
100
AcDbLine
 10
55.00086332043689
 20
206.0231020821656
 30
0.0
 11
58.0008633204369
 21
206.0231020821656
 31
0.0
  0
LINE
  5
2119
330
18
100
AcDbEntity
  8
1
  6
Continuous
100
AcDbLine
 10
58.0008633204369
 20
207.5489002230556
 30
0.0
 11
58.00086332043685
 21
198.1084844632356
 31
0.0
  0
LINE
  5
2140
330
18
100
AcDbEntity
  8
1
  6
Continuous
100
AcDbLine
 10
55.52562658343657
 20
208.8292253350656
 30
0.0
 11
56.75841875664781
 21
208.8292253350656
 31
0.0
  0
LINE
  5
2142
330
18
100
AcDbEntity
  8
1
  6
Continuous
100
AcDbLine
 10
43.80086332043686
 20
206.3794928415256
 30
0.0
 11
44.40086332043687
 21
206.3794928415256
 31
0.0
  0
LINE
  5
2145
330
18
100
AcDbEntity
  8
1
  6
Continuous
100
AcDbLine
 10
44.40086332043687
 20
199.3374760849454
 30
0.0
 11
44.40086332043687
 21
206.3794928415256
 31
0.0
  0
LINE
  5
2146
330
18
100
AcDbEntity
  8
1
  6
Continuous
100
AcDbLine
 10
45.00086332043689
 20
199.9537469535756
 30
0.0
 11
44.40086332043687
 21
199.9537469535756
 31
0.0
  0
LINE
  5
2147
330
18
100
AcDbEntity
  8
1
  6
Continuous
100
AcDbLine
 10
44.40086332043687
 20
205.7632219728956
 30
0.0
 11
45.00086332043689
 21
205.7632219728956
 31
0.0
  0
LINE
  5
2148
330
18
100
AcDbEntity
  8
1
  6
Continuous
100
AcDbLine
 10
45.00086332043895
 20
194.8584844632359
 30
0.0
 11
45.00086332043685
 21
207.5964331618527
 31
0.0
  0
LINE
  5
214B
330
18
100
AcDbEntity
  8
1
  6
Continuous
100
AcDbLine
 10
50.75841875664287
 20
207.5964331618556
 30
0.0
 11
45.00086332044179
 21
207.5964331618556
 31
0.0
  0
LINE
  5
214C
330
18
100
AcDbEntity
  8
1
  6
Continuous
100
AcDbLine
 10
50.75841875664686
 20
207.5489002230617
 30
0.0
 11
50.75841875664686
 21
207.5964331618556
 31
0.0
  0
LINE
  5
2150
330
18
100
AcDbEntity
  8
1
  6
Continuous
100
AcDbLine
 10
49.00086332043691
 20
207.5489002230556
 30
0.0
 11
58.0008633204369
 21
207.5489002230556
 31
0.0
  0
LINE
  5
2153
330
18
100
AcDbEntity
  8
1
  6
Continuous
100
AcDbLine
 10
49.00086332043691
 20
207.5964331618528
 30
0.0
 11
49.00086332043691
 21
207.548900223059
 31
0.0
  0
LINE
  5
215C
330
18
100
AcDbEntity
  8
1
  6
Continuous
100
AcDbLine
 10
45.00086332043685
 20
210.8584844632356
 30
0.0
 11
45.00086332043685
 21
208.8292253350626
 31
0.0
  0
LINE
  5
2269
330
18
100
AcDbEntity
  8
1
  6
Continuous
100
AcDbLine
 10
131.8249254948699
 20
147.6765426225291
 30
0.0
 11
127.7369032868567
 21
147.6765426225291
 31
0.0
  0
LINE
  5
226A
330
18
100
AcDbEntity
  8
1
  6
Continuous
100
AcDbLine
 10
127.7369032868567
 20
120.6765426225291
 30
0.0
 11
131.8249254948723
 21
120.6765426225291
 31
0.0
  0
ARC
  5
227E
330
18
100
AcDbEntity
  8
1
  6
Continuous
100
AcDbCircle
 10
124.0307225813852
 20
139.6772716143146
 30
0.0
 40
9.749309158435783
100
AcDbArc
 50
55.13449504342638
 51
124.8655049565736
  0
LINE
  5
2295
330
18
100
AcDbEntity
  8
1
  6
Continuous
100
AcDbLine
 10
23.00086332043684
 20
212.8584844632356
 30
0.0
 11
43.00086332043689
 21
212.8584844632356
 31
0.0
  0
LINE
  5
2296
330
18
100
AcDbEntity
  8
1
  6
Continuous
100
AcDbLine
 10
43.00086332043689
 20
192.8584844632356
 30
0.0
 11
23.00086332043684
 21
192.8584844632356
 31
0.0
  0
LINE
  5
229E
330
18
100
AcDbEntity
  8
1
  6
Continuous
100
AcDbLine
 10
38.00086332043685
 20
201.5594463575624
 30
0.0
 11
38.0008633204369
 21
204.1575225689088
 31
0.0
  0
LINE
  5
22AA
330
18
100
AcDbEntity
  8
1
  6
Continuous
100
AcDbLine
 10
30.50086332043685
 20
205.6084844632356
 30
0.0
 11
27.00086332043685
 21
205.6084844632356
 31
0.0
  0
LINE
  5
22AB
330
18
100
AcDbEntity
  8
1
  6
Continuous
100
AcDbLine
 10
31.50086332043684
 20
201.1084844632356
 30
0.0
 11
31.50086332043684
 21
204.6084844632356
 31
0.0
  0
LINE
  5
22AC
330
18
100
AcDbEntity
  8
1
  6
Continuous
100
AcDbLine
 10
27.00086332043685
 20
200.1084844632356
 30
0.0
 11
30.50086332043685
 21
200.1084844632356
 31
0.0
  0
LINE
  5
22BA
330
18
100
AcDbEntity
  8
1
  6
Continuous
100
AcDbLine
 10
21.00086332043685
 20
194.8584844632356
 30
0.0
 11
21.00086332043685
 21
210.8584844632356
 31
0.0
  0
LINE
  5
22C1
330
18
100
AcDbEntity
  8
1
  6
Continuous
100
AcDbLine
 10
26.00086332043685
 20
204.6084844632356
 30
0.0
 11
26.00086332043685
 21
201.1084844632356
 31
0.0
  0
LINE
  5
22DD
330
18
100
AcDbEntity
  8
1
  6
Continuous
100
AcDbLine
 10
114.1889099600527
 20
124.2230175719074
 30
0.0
 11
116.2364682267514
 21
120.676542622527
 31
0.0
  0
LINE
  5
22DF
330
18
100
AcDbEntity
  8
1
  6
Continuous
100
AcDbLine
 10
116.2364682267508
 20
120.6765426225291
 30
0.0
 11
120.324490434764
 21
120.6765426225291
 31
0.0
  0
LINE
  5
2303
330
18
100
AcDbEntity
  8
1
  6
Continuous
100
AcDbLine
 10
116.2364682267501
 20
147.6765426225291
 30
0.0
 11
114.188911151537
 21
144.1300697368621
 31
0.0
  0
LINE
  5
2305
330
18
100
AcDbEntity
  8
1
  6
Continuous
100
AcDbLine
 10
110.4897643083321
 20
137.7229594597722
 30
0.0
 11
108.4422395926903
 21
134.176542622527
 31
0.0
  0
LINE
  5
2306
330
18
100
AcDbEntity
  8
1
  6
Continuous
100
AcDbLine
 10
108.4422395926916
 20
134.1765426225291
 30
0.0
 11
110.4897769196775
 21
130.6301039417951
 31
0.0
  0
LINE
  5
231E
330
18
100
AcDbEntity
  8
1
  6
Continuous
100
AcDbLine
 10
124.7806968608103
 20
140.0188044907061
 30
0.0
 11
124.7806968608103
 21
139.0188044907055
 31
0.0
  0
LINE
  5
231F
330
18
100
AcDbEntity
  8
1
  6
Continuous
100
AcDbLine
 10
123.2806968608105
 20
140.0188044907062
 30
0.0
 11
124.7806968608103
 21
140.0188044907062
 31
0.0
  0
LINE
  5
2320
330
18
100
AcDbEntity
  8
1
  6
Continuous
100
AcDbLine
 10
123.2806968608104
 20
139.0188044907062
 30
0.0
 11
123.2806968608104
 21
140.0188044907063
 31
0.0
  0
LINE
  5
2349
330
18
100
AcDbEntity
  8
1
  6
Continuous
100
AcDbLine
 10
120.324490434764
 20
147.6765426225291
 30
0.0
 11
116.2364682267484
 21
147.6765426225291
 31
0.0
  0
LINE
  5
2354
330
18
100
AcDbEntity
  8
1
  6
Continuous
100
AcDbLine
 10
131.8249254948706
 20
120.6765426225292
 30
0.0
 11
133.8724825700837
 21
124.223015508196
 31
0.0
  0
LINE
  5
236F
330
18
100
AcDbEntity
  8
1
  6
Continuous
100
AcDbLine
 10
133.8724837615681
 20
144.1300676731508
 30
0.0
 11
131.8249254948693
 21
147.6765426225312
 31
0.0
  0
LINE
  5
2371
330
18
100
AcDbEntity
  8
1
  6
Continuous
100
AcDbLine
 10
129.8729587289874
 20
133.4265426225291
 30
0.0
 11
128.8729587289867
 21
133.4265426225291
 31
0.0
  0
LINE
  5
2372
330
18
100
AcDbEntity
  8
1
  6
Continuous
100
AcDbLine
 10
129.8729587289874
 20
134.926542622529
 30
0.0
 11
129.8729587289874
 21
133.4265426225291
 31
0.0
  0
LINE
  5
2373
330
18
100
AcDbEntity
  8
1
  6
Continuous
100
AcDbLine
 10
128.8729587289867
 20
134.9265426225291
 30
0.0
 11
129.8729587289875
 21
134.9265426225291
 31
0.0
  0
LINE
  5
237F
330
18
100
AcDbEntity
  8
1
  6
Continuous
100
AcDbLine
 10
139.6191541289291
 20
134.1765426225292
 30
0.0
 11
137.5716168019433
 21
137.7229813032631
 31
0.0
  0
LINE
  5
2380
330
18
100
AcDbEntity
  8
1
  6
Continuous
100
AcDbLine
 10
137.5716294132893
 20
130.6301257852871
 30
0.0
 11
139.6191541289304
 21
134.1765426225312
 31
0.0
  0
LINE
  5
2386
330
18
100
AcDbEntity
  8
1
  6
Continuous
100
AcDbLine
 10
129.5306968608101
 20
147.6765426225291
 30
0.0
 11
129.5306968608101
 21
147.7270735989892
 31
0.0
  0
LINE
  5
23CD
330
18
100
AcDbEntity
  8
1
  6
Continuous
100
AcDbLine
 10
196.4297727549856
 20
120.1765426225291
 30
0.0
 11
196.4297727549856
 21
148.1765426225291
 31
0.0
  0
LINE
  5
23CF
330
18
100
AcDbEntity
  8
1
  6
Continuous
100
AcDbLine
 10
204.9297727549855
 20
147.6765426225292
 30
0.0
 11
204.9297727549856
 21
120.6765426225292
 31
0.0
  0
LINE
  5
23EB
330
18
100
AcDbEntity
  8
1
  6
Continuous
100
AcDbLine
 10
191.9297727549855
 20
123.1765426225291
 30
0.0
 11
196.4297727549856
 21
120.1765426225291
 31
0.0
  0
LINE
  5
23EC
330
18
100
AcDbEntity
  8
1
  6
Continuous
100
AcDbLine
 10
184.9297727549856
 20
127.1765426225292
 30
0.0
 11
185.4264843668019
 21
126.6798310107128
 31
0.0
  0
LINE
  5
23EE
330
18
100
AcDbEntity
  8
1
  6
Continuous
100
AcDbLine
 10
185.4297727549855
 20
126.6765426225292
 30
0.0
 11
191.9297727549712
 21
126.676542622529
 31
0.0
  0
LINE
  5
23F3
330
18
100
AcDbEntity
  8
1
  6
Continuous
100
AcDbLine
 10
204.9297727549856
 20
120.6765426225292
 30
0.0
 11
200.9297727549856
 21
120.6765426225292
 31
0.0
  0
LINE
  5
23F6
330
18
100
AcDbEntity
  8
1
  6
Continuous
100
AcDbLine
 10
197.9297727549855
 20
120.1765426225291
 30
0.0
 11
196.4297727549856
 21
120.1765426225291
 31
0.0
  0
LINE
  5
23FA
330
18
100
AcDbEntity
  8
1
  6
Continuous
100
AcDbLine
 10
200.9297727549856
 20
124.1765426225291
 30
0.0
 11
197.9297727549855
 21
124.1765426225291
 31
0.0
  0
LINE
  5
23FB
330
18
100
AcDbEntity
  8
1
  6
Continuous
100
AcDbLine
 10
197.9297727545685
 20
129.5940959070266
 30
0.0
 11
200.9297727549856
 21
129.5940682685081
 31
0.0
  0
LINE
  5
2400
330
18
100
AcDbEntity
  8
1
  6
Continuous
100
AcDbLine
 10
211.9297727549855
 20
124.1765426225292
 30
0.0
 11
211.9297727549855
 21
129.5939669275732
 31
0.0
  0
LINE
  5
2402
330
18
100
AcDbEntity
  8
1
  6
Continuous
100
AcDbLine
 10
212.9297727549856
 20
124.1765426225291
 30
0.0
 11
204.9297727549856
 21
124.1765426225291
 31
0.0
  0
LINE
  5
2403
330
18
100
AcDbEntity
  8
1
  6
Continuous
100
AcDbLine
 10
204.9297727549856
 20
129.5940314172046
 30
0.0
 11
211.9297727549855
 21
129.5939669275732
 31
0.0
  0
LINE
  5
2405
330
18
100
AcDbEntity
  8
1
  6
Continuous
100
AcDbLine
 10
196.4297727549856
 20
148.1765426225291
 30
0.0
 11
191.9297727549855
 21
145.1765426225292
 31
0.0
  0
LINE
  5
240D
330
18
100
AcDbEntity
  8
1
  6
Continuous
100
AcDbLine
 10
184.9297727549856
 20
127.1765426225292
 30
0.0
 11
184.9297727549856
 21
141.1765426225291
 31
0.0
  0
LINE
  5
240E
330
18
100
AcDbEntity
  8
1
  6
Continuous
100
AcDbLine
 10
185.4297727549855
 20
126.6765426225292
 30
0.0
 11
185.4297727549855
 21
141.6765426225291
 31
0.0
  0
LINE
  5
240F
330
18
100
AcDbEntity
  8
1
  6
Continuous
100
AcDbLine
 10
191.9297727549855
 20
123.1765426225291
 30
0.0
 11
191.9297727549855
 21
145.1765426225292
 31
0.0
  0
LINE
  5
2417
330
18
100
AcDbEntity
  8
1
  6
Continuous
100
AcDbLine
 10
185.4264843668728
 20
141.6732542344164
 30
0.0
 11
184.9297727549856
 21
141.1765426225291
 31
0.0
  0
LINE
  5
2419
330
18
100
AcDbEntity
  8
1
  6
Continuous
100
AcDbLine
 10
191.9297727549712
 20
141.6765426225291
 30
0.0
 11
185.4297727550681
 21
141.6765426225291
 31
0.0
  0
LINE
  5
241D
330
18
100
AcDbEntity
  8
1
  6
Continuous
100
AcDbLine
 10
200.9297727549856
 20
134.1765426225312
 30
0.0
 11
204.9297727549856
 21
134.1765426225312
 31
0.0
  0
LINE
  5
241F
330
18
100
AcDbEntity
  8
1
  6
Continuous
100
AcDbLine
 10
200.9297727549859
 20
138.7590169765502
 30
0.0
 11
197.9297727549855
 21
138.7589893380317
 31
0.0
  0
LINE
  5
2421
330
18
100
AcDbEntity
  8
1
  6
Continuous
100
AcDbLine
 10
200.9297727549856
 20
144.1765426225291
 30
0.0
 11
197.9297727549855
 21
144.1765426225291
 31
0.0
  0
LINE
  5
2423
330
18
100
AcDbEntity
  8
1
  6
Continuous
100
AcDbLine
 10
211.9297727549855
 20
138.7591183174851
 30
0.0
 11
211.9297727549855
 21
144.1765426225291
 31
0.0
  0
LINE
  5
2424
330
18
100
AcDbEntity
  8
1
  6
Continuous
100
AcDbLine
 10
211.9297727549855
 20
138.7591183174851
 30
0.0
 11
204.9297727549856
 21
138.7590538278537
 31
0.0
  0
LINE
  5
2427
330
18
100
AcDbEntity
  8
1
  6
Continuous
100
AcDbLine
 10
212.9297727549855
 20
144.1765426225291
 30
0.0
 11
204.9297727549856
 21
144.1765426225291
 31
0.0
  0
LINE
  5
2428
330
18
100
AcDbEntity
  8
1
  6
Continuous
100
AcDbLine
 10
204.9297727549855
 20
147.6765426225292
 30
0.0
 11
200.9297727549856
 21
147.6765426225291
 31
0.0
  0
LINE
  5
242B
330
18
100
AcDbEntity
  8
1
  6
Continuous
100
AcDbLine
 10
196.4297727549856
 20
148.1765426225291
 30
0.0
 11
197.9297727549855
 21
148.1765426225291
 31
0.0
  0
LINE
  5
242C
330
18
100
AcDbEntity
  8
1
  6
Continuous
100
AcDbLine
 10
197.9297727549855
 20
120.1765426225291
 30
0.0
 11
197.9297727549855
 21
148.1765426225291
 31
0.0
  0
LINE
  5
2434
330
18
100
AcDbEntity
  8
1
  6
Continuous
100
AcDbLine
 10
212.9297727549856
 20
124.4265426225291
 30
0.0
 11
228.4297727549855
 21
124.4265426225291
 31
0.0
  0
LINE
  5
2438
330
18
100
AcDbEntity
  8
1
  6
Continuous
100
AcDbLine
 10
212.9297727549856
 20
124.1765426225291
 30
0.0
 11
212.9297727549855
 21
144.1765426225291
 31
0.0
  0
ARC
  5
243E
330
18
100
AcDbEntity
  8
1
  6
Continuous
100
AcDbCircle
 10
228.4297727549855
 20
124.9265426225291
 30
0.0
 40
0.5
100
AcDbArc
 50
270.0
 51
0.0
  0
LINE
  5
2441
330
18
100
AcDbEntity
  8
1
  6
Continuous
100
AcDbLine
 10
218.5797727549817
 20
147.3617556969991
 30
0.0
 11
218.5797727549817
 21
141.1061615848
 31
0.0
  0
LINE
  5
2442
330
18
100
AcDbEntity
  8
1
  6
Continuous
100
AcDbLine
 10
225.8533491913366
 20
144.6836333411569
 30
0.0
 11
219.0838436317196
 21
149.4236921639534
 31
0.0
  0
LINE
  5
2443
330
18
100
AcDbEntity
  8
1
  6
Continuous
100
AcDbLine
 10
218.0797727549856
 20
141.1061615848
 30
0.0
 11
218.0797727549856
 21
149.4265426225292
 31
0.0
  0
LINE
  5
2454
330
18
100
AcDbEntity
  8
1
  6
Continuous
100
AcDbLine
 10
224.9378857422728
 20
141.1061615848
 30
0.0
 11
217.7826019789755
 21
141.1061615848
 31
0.0
  0
LINE
  5
2456
330
18
100
AcDbEntity
  8
1
  6
Continuous
100
AcDbLine
 10
217.4297727549856
 20
140.9537085557341
 30
0.0
 11
225.0811433037856
 21
140.9537085557344
 31
0.0
  0
LINE
  5
245A
330
18
100
AcDbEntity
  8
1
  6
Continuous
100
AcDbLine
 10
220.9797727549836
 20
141.1061615848
 30
0.0
 11
220.9797727549836
 21
141.8765426225292
 31
0.0
  0
LINE
  5
245D
330
18
100
AcDbEntity
  8
1
  6
Continuous
100
AcDbLine
 10
217.9297727549855
 20
140.9560965734871
 30
0.0
 11
217.9297727549855
 21
143.4265426378345
 31
0.0
  0
LINE
  5
2464
330
18
100
AcDbEntity
  8
1
  6
Continuous
100
AcDbLine
 10
217.4297727549856
 20
143.9265426225292
 30
0.0
 11
217.4297727549856
 21
140.9537085557344
 31
0.0
  0
LINE
  5
2465
330
18
100
AcDbEntity
  8
1
  6
Continuous
100
AcDbLine
 10
217.4297727549856
 20
143.9265426225292
 30
0.0
 11
212.9297727549856
 21
143.9265426225292
 31
0.0
  0
ARC
  5
2467
330
18
100
AcDbEntity
  8
1
  6
Continuous
100
AcDbCircle
 10
217.4297727549856
 20
143.4265426225293
 30
0.0
 40
0.5
100
AcDbArc
 50
359.999999999991
 51
90.0
  0
LINE
  5
246E
330
18
100
AcDbEntity
  8
1
  6
Continuous
100
AcDbLine
 10
223.3797727549855
 20
141.8765426225292
 30
0.0
 11
223.3797727549855
 21
141.1061615848
 31
0.0
  0
LINE
  5
2471
330
18
100
AcDbEntity
  8
1
  6
Continuous
100
AcDbLine
 10
226.2797727549856
 20
143.8644813022731
 30
0.0
 11
226.2797727549856
 21
141.9333152969147
 31
0.0
  0
LINE
  5
2475
330
18
100
AcDbEntity
  8
1
  6
Continuous
100
AcDbLine
 10
225.0811433030049
 20
140.9537194176072
 30
0.0
 11
225.0908698209944
 21
140.96078305976
 31
0.0
  0
LINE
  5
2476
330
18
100
AcDbEntity
  8
1
  6
Continuous
100
AcDbLine
 10
225.0908698209944
 20
140.96078305976
 30
0.0
 11
226.3350041904935
 21
141.8089462177646
 31
0.0
  0
LINE
  5
2477
330
18
100
AcDbEntity
  8
1
  6
Continuous
100
AcDbLine
 10
226.1662727891324
 20
141.8435354987783
 30
0.0
 11
226.1377756264748
 21
141.832489627067
 31
0.0
  0
LINE
  5
2479
330
18
100
AcDbEntity
  8
1
  6
Continuous
100
AcDbLine
 10
225.0811433037856
 20
140.9537085557344
 30
0.0
 11
225.0906057103778
 21
140.9605797273896
 31
0.0
  0
LINE
  5
247D
330
18
100
AcDbEntity
  8
1
  6
Continuous
100
AcDbLine
 10
226.4297727549855
 20
141.8147458962133
 30
0.0
 11
226.4297727549856
 21
143.9265426225292
 31
0.0
  0
LINE
  5
2488
330
18
100
AcDbEntity
  8
1
  6
Continuous
100
AcDbLine
 10
226.373147958622
 20
141.7813604751804
 30
0.0
 11
226.4297727549855
 21
141.8147458962133
 31
0.0
  0
LINE
  5
248C
330
18
100
AcDbEntity
  8
1
  6
Continuous
100
AcDbLine
 10
228.4297727549855
 20
143.9265426225292
 30
0.0
 11
226.4297727549856
 21
143.9265426225292
 31
0.0
  0
LINE
  5
248D
330
18
100
AcDbEntity
  8
1
  6
Continuous
100
AcDbLine
 10
228.9297727549856
 20
143.4265419836932
 30
0.0
 11
228.9297727549856
 21
124.9265426225291
 31
0.0
  0
ARC
  5
248F
330
18
100
AcDbEntity
  8
1
  6
Continuous
100
AcDbCircle
 10
222.1797727549846
 20
141.8764967602311
 30
0.0
 40
1.200000000877436
100
AcDbArc
 50
0.0021897634291981
 51
179.9978102365708
  0
ARC
  5
2490
330
18
100
AcDbEntity
  8
1
  6
Continuous
100
AcDbCircle
 10
225.2797727549856
 20
143.864481296868
 30
0.0
 40
1.0
100
AcDbArc
 50
0.0000001548471112
 51
54.99999996997543
  0
ARC
  5
2493
330
18
100
AcDbEntity
  8
1
  6
Continuous
100
AcDbCircle
 10
228.4297727549855
 20
143.4265426225291
 30
0.0
 40
0.5
100
AcDbArc
 50
359.9999267947869
 51
90.0
  0
LINE
  5
24A0
330
18
100
AcDbEntity
  8
1
  6
Continuous
100
AcDbLine
 10
219.0797727548395
 20
149.4265426225291
 30
0.0
 11
218.0797727549856
 21
149.4265426225292
 31
0.0
  0
LINE
  5
24A7
330
18
100
AcDbEntity
  8
1
  6
Continuous
100
AcDbLine
 10
218.0797727549856
 20
147.7411873895176
 30
0.0
 11
218.5797727549821
 21
147.3617556969991
 31
0.0
  0
LINE
  5
24A8
330
18
100
AcDbEntity
  8
1
  6
Continuous
100
AcDbLine
 10
219.079772754982
 20
147.3617556969991
 30
0.0
 11
218.5797727549817
 21
147.3617556969991
 31
0.0
  0
LINE
  5
24A9
330
18
100
AcDbEntity
  8
1
  6
Continuous
100
AcDbLine
 10
219.0797727549855
 20
147.361755696999
 30
0.0
 11
219.0797727549855
 21
149.4265426225291
 31
0.0
  0
ARC
  5
2579
330
18
100
AcDbEntity
  8
1
  6
Continuous
100
AcDbCircle
 10
279.0037293411988
 20
139.6751666219813
 30
0.0
 40
9.75
100
AcDbArc
 50
52.02012755514709
 51
127.9798724448529
  0
LINE
  5
2692
330
18
100
AcDbEntity
  8
1
  6
Continuous
100
AcDbLine
 10
273.0037293411988
 20
141.861004705782
 30
0.0
 11
273.0037293411988
 21
147.3603796964513
 31
0.0
  0
ARC
  5
26A6
330
18
100
AcDbEntity
  8
1
  6
Continuous
100
AcDbCircle
 10
279.0037293411988
 20
139.6751666219813
 30
0.0
 40
5.007090718326001
100
AcDbArc
 50
46.18261978355326
 51
133.8173802164467
  0
ARC
  5
26A7
330
18
100
AcDbEntity
  8
1
  6
Continuous
100
AcDbCircle
 10
279.0037293411988
 20
139.6751666219813
 30
0.0
 40
5.007090718326001
100
AcDbArc
 50
46.18261978355326
 51
133.8173802164467
  0
ARC
  5
28B8
330
18
100
AcDbEntity
  8
1
  6
Continuous
100
AcDbCircle
 10
23.00086332043687
 20
194.8584844632356
 30
0.0
 40
2.0
100
AcDbArc
 50
180.0
 51
270.0
  0
ARC
  5
28B9
330
18
100
AcDbEntity
  8
1
  6
Continuous
100
AcDbCircle
 10
23.00086332043687
 20
210.8584844632356
 30
0.0
 40
2.0
100
AcDbArc
 50
90.0
 51
180.0
  0
ARC
  5
28BA
330
18
100
AcDbEntity
  8
1
  6
Continuous
100
AcDbCircle
 10
43.00086332043693
 20
210.8584844632356
 30
0.0
 40
2.0
100
AcDbArc
 50
0.0
 51
90.00000000000005
  0
ARC
  5
28BB
330
18
100
AcDbEntity
  8
1
  6
Continuous
100
AcDbCircle
 10
43.00086332043693
 20
194.8584844632356
 30
0.0
 40
2.0
100
AcDbArc
 50
270.0
 51
0.0000000000093525
  0
LINE
  5
28BC
330
18
100
AcDbEntity
  8
1
  6
Continuous
100
AcDbLine
 10
38.00086332043685
 20
201.5594463575624
 30
0.0
 11
43.80086332043686
 21
199.3374760849436
 31
0.0
  0
LINE
  5
28BD
330
18
100
AcDbEntity
  8
4
  6
CENTER
 48
0.2
100
AcDbLine
 10
61.00086332043691
 20
202.8584844632356
 30
0.0
 11
18.00086332043685
 21
202.8584844632356
 31
0.0
  0
LINE
  5
28BE
330
18
100
AcDbEntity
  8
1
  6
Continuous
100
AcDbLine
 10
38.0008633204369
 20
204.1575225689088
 30
0.0
 11
43.80086332043686
 21
206.3794928415276
 31
0.0
  0
ARC
  5
28BF
330
18
100
AcDbEntity
  8
1
  6
Continuous
100
AcDbCircle
 10
27.00086332043686
 20
201.1084844632356
 30
0.0
 40
1.0
100
AcDbArc
 50
180.0
 51
270.0
  0
ARC
  5
28C0
330
18
100
AcDbEntity
  8
1
  6
Continuous
100
AcDbCircle
 10
27.00086332043686
 20
204.6084844632356
 30
0.0
 40
1.0
100
AcDbArc
 50
90.0
 51
180.0
  0
ARC
  5
28C1
330
18
100
AcDbEntity
  8
1
  6
Continuous
100
AcDbCircle
 10
30.50086332043686
 20
204.6084844632356
 30
0.0
 40
1.0
100
AcDbArc
 50
0.0
 51
90.0
  0
ARC
  5
28C2
330
18
100
AcDbEntity
  8
1
  6
Continuous
100
AcDbCircle
 10
30.50086332043686
 20
201.1084844632356
 30
0.0
 40
1.0
100
AcDbArc
 50
270.0
 51
0.0
  0
CIRCLE
  5
28D5
330
18
100
AcDbEntity
  8
1
  6
Continuous
100
AcDbCircle
 10
124.0306968608104
 20
134.1765426225291
 30
0.0
 40
4.0
  0
ARC
  5
28D7
330
18
100
AcDbEntity
  8
1
  6
Continuous
100
AcDbCircle
 10
124.0306968608104
 20
134.1765426225291
 30
0.0
 40
4.9
100
AcDbArc
 50
98.80437090414137
 51
351.1956290958575
  0
ARC
  5
28D8
330
18
100
AcDbEntity
  8
1
  6
Continuous
100
AcDbCircle
 10
124.0306968608104
 20
134.1765426225291
 30
0.0
 40
4.9
100
AcDbArc
 50
8.804370904142414
 51
81.19562909585757
  0
LINE
  5
28DF
330
18
100
AcDbEntity
  8
4
  6
CENTER
 48
0.2
100
AcDbLine
 10
106.0306968608103
 20
134.1765426225291
 30
0.0
 11
142.0306968608104
 21
134.1765426225291
 31
0.0
  0
LINE
  5
28E0
330
18
100
AcDbEntity
  8
4
  6
CENTER
 48
0.2
100
AcDbLine
 10
124.0306968608104
 20
116.176542622529
 30
0.0
 11
124.0306968608104
 21
152.1765426225291
 31
0.0
  0
CIRCLE
  5
28E1
330
18
100
AcDbEntity
  8
1
  6
Continuous
100
AcDbCircle
 10
124.0306968608104
 20
134.1765426225291
 30
0.0
 40
7.0
  0
CIRCLE
  5
28E2
330
18
100
AcDbEntity
  8
1
  6
Continuous
100
AcDbCircle
 10
124.0306968608104
 20
134.1765426225291
 30
0.0
 40
7.496711611887293
  0
CIRCLE
  5
28E3
330
18
100
AcDbEntity
  8
1
  6
Continuous
100
AcDbCircle
 10
124.0306968608104
 20
134.1765426225291
 30
0.0
 40
11.0
  0
CIRCLE
  5
28E5
330
18
100
AcDbEntity
  8
1
  6
Continuous
100
AcDbCircle
 10
124.0306968608104
 20
134.1765426225291
 30
0.0
 40
14.0
  0
LINE
  5
28E8
330
18
100
AcDbEntity
  8
1
  6
Continuous
100
AcDbLine
 10
118.5306968608106
 20
147.6765426225291
 30
0.0
 11
118.5306968608106
 21
147.7270735989892
 31
0.0
  0
ARC
  5
28EB
330
18
100
AcDbEntity
  8
1
  6
Continuous
100
AcDbCircle
 10
201.929772754985
 20
134.1765426225291
 30
0.0
 40
11.00000000000062
100
AcDbArc
 50
335.3800226713435
 51
24.61997732865638
  0
LINE
  5
28EC
330
18
100
AcDbEntity
  8
1
  6
Continuous
100
AcDbLine
 10
200.9297727549856
 20
147.6765426225291
 30
0.0
 11
200.9297727549856
 21
120.6765426225292
 31
0.0
  0
ARC
  5
28ED
330
18
100
AcDbEntity
  8
1
  6
Continuous
100
AcDbCircle
 10
208.550324362115
 20
133.5317599798796
 30
0.0
 40
17.38211911688743
100
AcDbArc
 50
25.83047559258099
 51
52.71621759343091
  0
ARC
  5
28F0
330
18
100
AcDbEntity
  8
1
  6
Continuous
100
AcDbCircle
 10
217.9709565284986
 20
140.2546572747055
 30
0.0
 40
0.8840546194786915
100
AcDbArc
 50
109.9584006656287
 51
127.7459230038731
  0
ARC
  5
28F2
330
18
100
AcDbEntity
  8
1
  6
Continuous
100
AcDbCircle
 10
217.7926305411114
 20
140.7280678802973
 30
0.0
 40
0.3782552808465144
100
AcDbArc
 50
92.12116699074121
 51
109.0460471598426
  0
ARC
  5
28F5
330
18
100
AcDbEntity
  8
1
  6
Continuous
100
AcDbCircle
 10
231.7324241795573
 20
131.2358916214527
 30
0.0
 40
11.98282027425497
100
AcDbArc
 50
117.8325520770379
 51
124.5429119895872
  0
ARC
  5
28F6
330
18
100
AcDbEntity
  8
1
  6
Continuous
100
AcDbCircle
 10
224.9014697940509
 20
140.9665962120738
 30
0.0
 40
0.1442380482019905
100
AcDbArc
 50
30.45022005480298
 51
75.37620861787342
  0
ARC
  5
28F7
330
18
100
AcDbEntity
  8
1
  6
Continuous
100
AcDbCircle
 10
224.5288706597731
 20
140.6591272442006
 30
0.0
 40
0.6259258921226225
100
AcDbArc
 50
28.07538663781191
 51
37.44553311065848
  0
ARC
  5
28F8
330
18
100
AcDbEntity
  8
1
  6
Continuous
100
AcDbCircle
 10
226.2008190478342
 20
141.5832145792121
 30
0.0
 40
0.2626031704951592
100
AcDbArc
 50
48.98674983035817
 51
97.55934870690765
  0
ARC
  5
28F9
330
18
100
AcDbEntity
  8
1
  6
Continuous
100
AcDbCircle
 10
225.7434817893327
 20
142.58200358823
 30
0.0
 40
0.8469097610255083
100
AcDbArc
 50
297.5433070180658
 51
320.9800401808166
  0
ARC
  5
28FC
330
18
100
AcDbEntity
  8
1
  6
Continuous
100
AcDbCircle
 10
226.0380619621332
 20
141.6920593814092
 30
0.0
 40
0.5092405354121627
100
AcDbArc
 50
39.71737272101814
 51
44.46939970503893
  0
LINE
  5
2900
330
18
100
AcDbEntity
  8
4
  6
CENTER
 48
0.2
100
AcDbLine
 10
181.9297727549855
 20
134.1765426225292
 30
0.0
 11
231.9297727549856
 21
134.1765426225292
 31
0.0
  0
LINE
  5
2902
330
18
100
AcDbEntity
  8
4
  6
CENTER
 48
0.2
100
AcDbLine
 10
66.13162096663518
 20
134.1765426225292
 30
0.0
 11
16.13162096663518
 21
134.1765426225292
 31
0.0
  0
LINE
  5
2903
330
18
100
AcDbEntity
  8
1
  6
Continuous
100
AcDbLine
 10
35.13162096663518
 20
124.4265426225291
 30
0.0
 11
19.63162096663518
 21
124.4265426225291
 31
0.0
  0
LINE
  5
2904
330
18
100
AcDbEntity
  8
1
  6
Continuous
100
AcDbLine
 10
30.63162096663518
 20
143.9265426225292
 30
0.0
 11
35.13162096663518
 21
143.9265426225292
 31
0.0
  0
LINE
  5
2905
330
18
100
AcDbEntity
  8
1
  6
Continuous
100
AcDbLine
 10
35.13162096663518
 20
124.1765426225291
 30
0.0
 11
35.13162096663521
 21
144.1765426225291
 31
0.0
  0
LINE
  5
2906
330
18
100
AcDbEntity
  8
1
  6
Continuous
100
AcDbLine
 10
47.13162096663518
 20
147.6765426225291
 30
0.0
 11
47.13162096663518
 21
120.6765426225292
 31
0.0
  0
LINE
  5
2907
330
18
100
AcDbEntity
  8
1
  6
Continuous
100
AcDbLine
 10
43.1316209666352
 20
147.6765426225292
 30
0.0
 11
43.13162096663518
 21
120.6765426225292
 31
0.0
  0
ARC
  5
2908
330
18
100
AcDbEntity
  8
1
  6
Continuous
100
AcDbCircle
 10
46.13162096663581
 20
134.1765426225291
 30
0.0
 40
11.00000000000062
100
AcDbArc
 50
155.3800226713436
 51
204.6199773286564
  0
LINE
  5
2909
330
18
100
AcDbEntity
  8
1
  6
Continuous
100
AcDbLine
 10
50.13162096663515
 20
120.1765426225291
 30
0.0
 11
50.13162096663518
 21
148.1765426225291
 31
0.0
  0
LINE
  5
290A
330
18
100
AcDbEntity
  8
1
  6
Continuous
100
AcDbLine
 10
56.13162096663515
 20
123.1765426225291
 30
0.0
 11
56.13162096663521
 21
145.1765426225292
 31
0.0
  0
LINE
  5
290B
330
18
100
AcDbEntity
  8
1
  6
Continuous
100
AcDbLine
 10
51.63162096663518
 20
120.1765426225291
 30
0.0
 11
51.63162096663518
 21
148.1765426225291
 31
0.0
  0
LINE
  5
290C
330
18
100
AcDbEntity
  8
1
  6
Continuous
100
AcDbLine
 10
63.13162096663518
 20
127.1765426225292
 30
0.0
 11
63.13162096663518
 21
141.1765426225291
 31
0.0
  0
LINE
  5
290D
330
18
100
AcDbEntity
  8
1
  6
Continuous
100
AcDbLine
 10
62.63162096663518
 20
126.6765426225292
 30
0.0
 11
62.63162096663518
 21
141.6765426225291
 31
0.0
  0
LINE
  5
290E
330
18
100
AcDbEntity
  8
1
  6
Continuous
100
AcDbLine
 10
62.63162096663518
 20
126.6765426225292
 30
0.0
 11
56.1316209666495
 21
126.676542622529
 31
0.0
  0
LINE
  5
290F
330
18
100
AcDbEntity
  8
1
  6
Continuous
100
AcDbLine
 10
63.13162096663518
 20
127.1765426225292
 30
0.0
 11
62.63490935481877
 21
126.6798310107128
 31
0.0
  0
LINE
  5
2910
330
18
100
AcDbEntity
  8
1
  6
Continuous
100
AcDbLine
 10
47.13162096663518
 20
124.1765426225291
 30
0.0
 11
50.13162096663518
 21
124.1765426225291
 31
0.0
  0
LINE
  5
2911
330
18
100
AcDbEntity
  8
1
  6
Continuous
100
AcDbLine
 10
50.13162096705219
 20
129.5940959070266
 30
0.0
 11
47.13162096663518
 21
129.5940682685081
 31
0.0
  0
LINE
  5
2912
330
18
100
AcDbEntity
  8
1
  6
Continuous
100
AcDbLine
 10
50.13162096663515
 20
120.1765426225291
 30
0.0
 11
51.63162096663518
 21
120.1765426225291
 31
0.0
  0
LINE
  5
2913
330
18
100
AcDbEntity
  8
1
  6
Continuous
100
AcDbLine
 10
56.13162096663515
 20
123.1765426225291
 30
0.0
 11
51.63162096663518
 21
120.1765426225291
 31
0.0
  0
LINE
  5
2914
330
18
100
AcDbEntity
  8
1
  6
Continuous
100
AcDbLine
 10
35.13162096663518
 20
124.1765426225291
 30
0.0
 11
43.13162096663518
 21
124.1765426225291
 31
0.0
  0
LINE
  5
2915
330
18
100
AcDbEntity
  8
1
  6
Continuous
100
AcDbLine
 10
36.13162096663518
 20
124.1765426225292
 30
0.0
 11
36.13162096663518
 21
129.5939669275732
 31
0.0
  0
LINE
  5
2917
330
18
100
AcDbEntity
  8
1
  6
Continuous
100
AcDbLine
 10
43.13162096663518
 20
120.6765426225292
 30
0.0
 11
47.13162096663518
 21
120.6765426225292
 31
0.0
  0
LINE
  5
2919
330
18
100
AcDbEntity
  8
1
  6
Continuous
100
AcDbLine
 10
43.13162096663518
 20
129.5940314172046
 30
0.0
 11
36.13162096663518
 21
129.5939669275732
 31
0.0
  0
LINE
  5
291A
330
18
100
AcDbEntity
  8
1
  6
Continuous
100
AcDbLine
 10
56.1316209666495
 20
141.6765426225291
 30
0.0
 11
62.63162096655264
 21
141.6765426225291
 31
0.0
  0
LINE
  5
291B
330
18
100
AcDbEntity
  8
1
  6
Continuous
100
AcDbLine
 10
62.63490935474795
 20
141.6732542344164
 30
0.0
 11
63.13162096663518
 21
141.1765426225291
 31
0.0
  0
LINE
  5
291C
330
18
100
AcDbEntity
  8
1
  6
Continuous
100
AcDbLine
 10
36.13162096663518
 20
138.7591183174851
 30
0.0
 11
36.13162096663518
 21
144.1765426225291
 31
0.0
  0
LINE
  5
291E
330
18
100
AcDbEntity
  8
1
  6
Continuous
100
AcDbLine
 10
47.13162096663483
 20
138.7590169765502
 30
0.0
 11
50.13162096663518
 21
138.7589893380317
 31
0.0
  0
LINE
  5
291F
330
18
100
AcDbEntity
  8
1
  6
Continuous
100
AcDbLine
 10
47.13162096663518
 20
134.1765426225312
 30
0.0
 11
43.13162096663518
 21
134.1765426225312
 31
0.0
  0
LINE
  5
2920
330
18
100
AcDbEntity
  8
1
  6
Continuous
100
AcDbLine
 10
36.13162096663518
 20
138.7591183174851
 30
0.0
 11
43.13162096663518
 21
138.7590538278537
 31
0.0
  0
LINE
  5
2921
330
18
100
AcDbEntity
  8
1
  6
Continuous
100
AcDbLine
 10
47.13162096663518
 20
144.1765426225291
 30
0.0
 11
50.13162096663518
 21
144.1765426225291
 31
0.0
  0
LINE
  5
2922
330
18
100
AcDbEntity
  8
1
  6
Continuous
100
AcDbLine
 10
51.63162096663518
 20
148.1765426225291
 30
0.0
 11
56.13162096663521
 21
145.1765426225292
 31
0.0
  0
LINE
  5
2923
330
18
100
AcDbEntity
  8
1
  6
Continuous
100
AcDbLine
 10
51.63162096663518
 20
148.1765426225291
 30
0.0
 11
50.13162096663518
 21
148.1765426225291
 31
0.0
  0
LINE
  5
2924
330
18
100
AcDbEntity
  8
1
  6
Continuous
100
AcDbLine
 10
43.1316209666352
 20
147.6765426225292
 30
0.0
 11
47.13162096663518
 21
147.6765426225291
 31
0.0
  0
LINE
  5
2925
330
18
100
AcDbEntity
  8
1
  6
Continuous
100
AcDbLine
 10
35.13162096663521
 20
144.1765426225291
 30
0.0
 11
43.13162096663518
 21
144.1765426225291
 31
0.0
  0
LINE
  5
2927
330
18
100
AcDbEntity
  8
1
  6
Continuous
100
AcDbLine
 10
19.13162096663518
 20
143.4265419836932
 30
0.0
 11
19.13162096663518
 21
124.9265426225291
 31
0.0
  0
ARC
  5
2928
330
18
100
AcDbEntity
  8
1
  6
Continuous
100
AcDbCircle
 10
19.63162096663518
 20
124.9265426225291
 30
0.0
 40
0.5
100
AcDbArc
 50
180.0
 51
270.0
  0
LINE
  5
2929
330
18
100
AcDbEntity
  8
1
  6
Continuous
100
AcDbLine
 10
22.97052390062629
 20
140.96078305976
 30
0.0
 11
21.72638953112727
 21
141.8089462177646
 31
0.0
  0
ARC
  5
292A
330
18
100
AcDbEntity
  8
1
  6
Continuous
100
AcDbCircle
 10
16.32896954206342
 20
131.2358916214527
 30
0.0
 40
11.98282027425497
100
AcDbArc
 50
55.45708801041282
 51
62.16744792296212
  0
ARC
  5
292B
330
18
100
AcDbEntity
  8
1
  6
Continuous
100
AcDbCircle
 10
22.78162096663514
 20
143.864481296868
 30
0.0
 40
1.0
100
AcDbArc
 50
125.0000000300245
 51
179.9999998451529
  0
LINE
  5
292C
330
18
100
AcDbEntity
  8
1
  6
Continuous
100
AcDbLine
 10
29.9816209666352
 20
147.7411873895176
 30
0.0
 11
29.48162096663861
 21
147.3617556969991
 31
0.0
  0
LINE
  5
292D
330
18
100
AcDbEntity
  8
1
  6
Continuous
100
AcDbLine
 10
22.20804453028415
 20
144.6836333411569
 30
0.0
 11
28.97755008990111
 21
149.4236921639534
 31
0.0
  0
ARC
  5
292E
330
18
100
AcDbEntity
  8
1
  6
Continuous
100
AcDbCircle
 10
23.53252306184762
 20
140.6591272442006
 30
0.0
 40
0.6259258921226225
100
AcDbArc
 50
142.5544668893415
 51
151.924613362188
  0
ARC
  5
292F
330
18
100
AcDbEntity
  8
1
  6
Continuous
100
AcDbCircle
 10
23.15992392756982
 20
140.9665962120738
 30
0.0
 40
0.1442380482019905
100
AcDbArc
 50
104.6237913821265
 51
149.5497799451969
  0
LINE
  5
2930
330
18
100
AcDbEntity
  8
1
  6
Continuous
100
AcDbLine
 10
30.63162096663518
 20
140.9537085557341
 30
0.0
 11
22.98025041783512
 21
140.9537085557344
 31
0.0
  0
ARC
  5
2931
330
18
100
AcDbEntity
  8
1
  6
Continuous
100
AcDbCircle
 10
30.26876318050929
 20
140.7280678802973
 30
0.0
 40
0.3782552808465144
100
AcDbArc
 50
70.95395284015736
 51
87.8788330092588
  0
ARC
  5
2932
330
18
100
AcDbEntity
  8
1
  6
Continuous
100
AcDbCircle
 10
30.09043719312211
 20
140.2546572747055
 30
0.0
 40
0.8840546194786915
100
AcDbArc
 50
52.25407699612678
 51
70.04159933437122
  0
ARC
  5
2934
330
18
100
AcDbEntity
  8
1
  6
Continuous
100
AcDbCircle
 10
25.88162096663614
 20
141.8764967602311
 30
0.0
 40
1.200000000877436
100
AcDbArc
 50
0.002189763429213
 51
179.9978102365708
  0
LINE
  5
2935
330
18
100
AcDbEntity
  8
1
  6
Continuous
100
AcDbLine
 10
28.9816209666352
 20
147.361755696999
 30
0.0
 11
28.9816209666352
 21
149.4265426225291
 31
0.0
  0
LINE
  5
2936
330
18
100
AcDbEntity
  8
1
  6
Continuous
100
AcDbLine
 10
28.98162096678129
 20
149.4265426225291
 30
0.0
 11
29.9816209666352
 21
149.4265426225292
 31
0.0
  0
LINE
  5
2937
330
18
100
AcDbEntity
  8
1
  6
Continuous
100
AcDbLine
 10
29.9816209666352
 20
141.1061615848
 30
0.0
 11
29.9816209666352
 21
149.4265426225292
 31
0.0
  0
ARC
  5
2938
330
18
100
AcDbEntity
  8
1
  6
Continuous
100
AcDbCircle
 10
39.5110693595058
 20
133.5317599798796
 30
0.0
 40
17.38211911688743
100
AcDbArc
 50
127.2837824065691
 51
154.169524407419
  0
LINE
  5
2939
330
18
100
AcDbEntity
  8
1
  6
Continuous
100
AcDbLine
 10
30.13162096663518
 20
140.9560965734871
 30
0.0
 11
30.13162096663518
 21
143.4265426378345
 31
0.0
  0
ARC
  5
293A
330
18
100
AcDbEntity
  8
1
  6
Continuous
100
AcDbCircle
 10
30.63162096663518
 20
143.4265426225293
 30
0.0
 40
0.5
100
AcDbArc
 50
90.0
 51
180.0000000000089
  0
LINE
  5
293B
330
18
100
AcDbEntity
  8
1
  6
Continuous
100
AcDbLine
 10
29.48162096663907
 20
147.3617556969991
 30
0.0
 11
29.48162096663907
 21
141.1061615848
 31
0.0
  0
LINE
  5
293C
330
18
100
AcDbEntity
  8
1
  6
Continuous
100
AcDbLine
 10
27.08162096663716
 20
141.1061615848
 30
0.0
 11
27.08162096663716
 21
141.8765426225292
 31
0.0
  0
LINE
  5
293D
330
18
100
AcDbEntity
  8
1
  6
Continuous
100
AcDbLine
 10
24.68162096663514
 20
141.8765426225292
 30
0.0
 11
24.68162096663514
 21
141.1061615848
 31
0.0
  0
LINE
  5
293F
330
18
100
AcDbEntity
  8
1
  6
Continuous
100
AcDbLine
 10
22.98025041861581
 20
140.9537194176072
 30
0.0
 11
22.97052390062629
 21
140.96078305976
 31
0.0
  0
LINE
  5
2940
330
18
100
AcDbEntity
  8
1
  6
Continuous
100
AcDbLine
 10
22.98025041783512
 20
140.9537085557344
 30
0.0
 11
22.97078801124291
 21
140.9605797273896
 31
0.0
  0
LINE
  5
2941
330
18
100
AcDbEntity
  8
1
  6
Continuous
100
AcDbLine
 10
28.98162096663872
 20
147.3617556969991
 30
0.0
 11
29.48162096663907
 21
147.3617556969991
 31
0.0
  0
LINE
  5
2942
330
18
100
AcDbEntity
  8
1
  6
Continuous
100
AcDbLine
 10
30.63162096663518
 20
143.9265426225292
 30
0.0
 11
30.63162096663518
 21
140.9537085557344
 31
0.0
  0
LINE
  5
2943
330
18
100
AcDbEntity
  8
1
  6
Continuous
100
AcDbLine
 10
23.123507979348
 20
141.1061615848
 30
0.0
 11
30.27879174264524
 21
141.1061615848
 31
0.0
  0
LINE
  5
2944
330
18
100
AcDbEntity
  8
1
  6
Continuous
100
AcDbLine
 10
21.68824576299869
 20
141.7813604751804
 30
0.0
 11
21.63162096663518
 21
141.8147458962133
 31
0.0
  0
LINE
  5
2945
330
18
100
AcDbEntity
  8
1
  6
Continuous
100
AcDbLine
 10
21.63162096663518
 20
141.8147458962133
 30
0.0
 11
21.63162096663515
 21
143.9265426225292
 31
0.0
  0
ARC
  5
2946
330
18
100
AcDbEntity
  8
1
  6
Continuous
100
AcDbCircle
 10
22.31791193228804
 20
142.58200358823
 30
0.0
 40
0.8469097610255083
100
AcDbArc
 50
219.0199598191834
 51
242.4566929819341
  0
LINE
  5
2947
330
18
100
AcDbEntity
  8
1
  6
Continuous
100
AcDbLine
 10
21.89512093248835
 20
141.8435354987783
 30
0.0
 11
21.92361809514599
 21
141.832489627067
 31
0.0
  0
ARC
  5
2948
330
18
100
AcDbEntity
  8
1
  6
Continuous
100
AcDbCircle
 10
22.02333175948749
 20
141.6920593814092
 30
0.0
 40
0.5092405354121627
100
AcDbArc
 50
135.530600294961
 51
140.2826272789818
  0
ARC
  5
2949
330
18
100
AcDbEntity
  8
1
  6
Continuous
100
AcDbCircle
 10
21.86057467378657
 20
141.5832145792121
 30
0.0
 40
0.2626031704951592
100
AcDbArc
 50
82.44065129309237
 51
131.0132501696418
  0
LINE
  5
294A
330
18
100
AcDbEntity
  8
1
  6
Continuous
100
AcDbLine
 10
21.78162096663516
 20
143.8644813022731
 30
0.0
 11
21.78162096663516
 21
141.9333152969147
 31
0.0
  0
LINE
  5
294B
330
18
100
AcDbEntity
  8
1
  6
Continuous
100
AcDbLine
 10
19.63162096663518
 20
143.9265426225292
 30
0.0
 11
21.63162096663515
 21
143.9265426225292
 31
0.0
  0
ARC
  5
294C
330
18
100
AcDbEntity
  8
1
  6
Continuous
100
AcDbCircle
 10
19.63162096663518
 20
143.4265426225291
 30
0.0
 40
0.5
100
AcDbArc
 50
90.0
 51
180.0000732052131
  0
LINE
  5
294D
330
18
100
AcDbEntity
  8
4
  6
CENTER
 48
0.2
100
AcDbLine
 10
124.0306968608104
 20
185.4606909485131
 30
0.0
 11
124.0306968608104
 21
235.4606909485131
 31
0.0
  0
LINE
  5
294E
330
18
100
AcDbEntity
  8
1
  6
Continuous
100
AcDbLine
 10
133.7806968608104
 20
216.4606909485131
 30
0.0
 11
133.7806968608104
 21
231.9606909485131
 31
0.0
  0
LINE
  5
294F
330
18
100
AcDbEntity
  8
1
  6
Continuous
100
AcDbLine
 10
114.2806968608104
 20
231.9606909485131
 30
0.0
 11
114.2806968608104
 21
216.4606909485131
 31
0.0
  0
LINE
  5
2950
330
18
100
AcDbEntity
  8
1
  6
Continuous
100
AcDbLine
 10
134.0306968608104
 20
216.4606909485131
 30
0.0
 11
114.0306968608104
 21
216.4606909485131
 31
0.0
  0
LINE
  5
2951
330
18
100
AcDbEntity
  8
1
  6
Continuous
100
AcDbLine
 10
108.4422395926903
 20
204.4606909485131
 30
0.0
 11
139.6191541289291
 21
204.4606909485131
 31
0.0
  0
LINE
  5
2952
330
18
100
AcDbEntity
  8
1
  6
Continuous
100
AcDbLine
 10
108.4422395926903
 20
208.4606909485131
 30
0.0
 11
139.6191541289291
 21
208.4606909485131
 31
0.0
  0
ARC
  5
2953
330
18
100
AcDbEntity
  8
1
  6
Continuous
100
AcDbCircle
 10
124.0306968608104
 20
205.4606909485126
 30
0.0
 40
11.00000000000062
100
AcDbArc
 50
65.38002267134364
 51
114.6199773286563
  0
LINE
  5
2954
330
18
100
AcDbEntity
  8
1
  6
Continuous
100
AcDbLine
 10
138.0306968608104
 20
201.4606909485132
 30
0.0
 11
110.0306968608104
 21
201.4606909485131
 31
0.0
  0
LINE
  5
2955
330
18
100
AcDbEntity
  8
1
  6
Continuous
100
AcDbLine
 10
135.0306968608104
 20
195.4606909485132
 30
0.0
 11
113.0306968608103
 21
195.4606909485131
 31
0.0
  0
LINE
  5
2956
330
18
100
AcDbEntity
  8
1
  6
Continuous
100
AcDbLine
 10
138.0306968608104
 20
199.9606909485131
 30
0.0
 11
110.0306968608104
 21
199.9606909485131
 31
0.0
  0
LINE
  5
2957
330
18
100
AcDbEntity
  8
1
  6
Continuous
100
AcDbLine
 10
131.0306968608103
 20
188.4606909485131
 30
0.0
 11
117.0306968608104
 21
188.4606909485131
 31
0.0
  0
LINE
  5
2958
330
18
100
AcDbEntity
  8
1
  6
Continuous
100
AcDbLine
 10
131.5306968608104
 20
188.9606909485131
 30
0.0
 11
116.5306968608104
 21
188.9606909485131
 31
0.0
  0
LINE
  5
2959
330
18
100
AcDbEntity
  8
1
  6
Continuous
100
AcDbLine
 10
131.5306968608104
 20
188.9606909485131
 30
0.0
 11
131.5306968608104
 21
195.4606909484988
 31
0.0
  0
LINE
  5
295A
330
18
100
AcDbEntity
  8
1
  6
Continuous
100
AcDbLine
 10
131.0306968608103
 20
188.4606909485131
 30
0.0
 11
131.5274084726268
 21
188.9574025603295
 31
0.0
  0
LINE
  5
295B
330
18
100
AcDbEntity
  8
1
  6
Continuous
100
AcDbLine
 10
134.0306968608104
 20
204.4606909485131
 30
0.0
 11
134.0306968608104
 21
201.4606909485131
 31
0.0
  0
LINE
  5
295C
330
18
100
AcDbEntity
  8
1
  6
Continuous
100
AcDbLine
 10
128.613143576313
 20
201.4606909480961
 30
0.0
 11
128.6131712148314
 21
204.4606909485131
 31
0.0
  0
LINE
  5
295D
330
18
100
AcDbEntity
  8
1
  6
Continuous
100
AcDbLine
 10
138.0306968608104
 20
201.4606909485132
 30
0.0
 11
138.0306968608104
 21
199.9606909485131
 31
0.0
  0
LINE
  5
295E
330
18
100
AcDbEntity
  8
1
  6
Continuous
100
AcDbLine
 10
135.0306968608104
 20
195.4606909485132
 30
0.0
 11
138.0306968608104
 21
199.9606909485131
 31
0.0
  0
LINE
  5
295F
330
18
100
AcDbEntity
  8
1
  6
Continuous
100
AcDbLine
 10
134.0306968608104
 20
216.4606909485131
 30
0.0
 11
134.0306968608104
 21
208.4606909485131
 31
0.0
  0
LINE
  5
2960
330
18
100
AcDbEntity
  8
1
  6
Continuous
100
AcDbLine
 10
134.0306968608103
 20
215.4606909485131
 30
0.0
 11
128.6132725557664
 21
215.4606909485131
 31
0.0
  0
LINE
  5
2964
330
18
100
AcDbEntity
  8
1
  6
Continuous
100
AcDbLine
 10
128.6132080661349
 20
208.4606909485131
 30
0.0
 11
128.6132725557664
 21
215.4606909485131
 31
0.0
  0
LINE
  5
2965
330
18
100
AcDbEntity
  8
1
  6
Continuous
100
AcDbLine
 10
116.5306968608104
 20
195.4606909484988
 30
0.0
 11
116.5306968608104
 21
188.9606909485957
 31
0.0
  0
LINE
  5
2966
330
18
100
AcDbEntity
  8
1
  6
Continuous
100
AcDbLine
 10
116.5339852489231
 20
188.9574025604003
 30
0.0
 11
117.0306968608104
 21
188.4606909485131
 31
0.0
  0
LINE
  5
2967
330
18
100
AcDbEntity
  8
1
  6
Continuous
100
AcDbLine
 10
119.4481211658544
 20
215.4606909485131
 30
0.0
 11
114.0306968608104
 21
215.4606909485131
 31
0.0
  0
LINE
  5
2969
330
18
100
AcDbEntity
  8
1
  6
Continuous
100
AcDbLine
 10
119.4482225067893
 20
204.4606909485135
 30
0.0
 11
119.4482501453078
 21
201.4606909485131
 31
0.0
  0
LINE
  5
296B
330
18
100
AcDbEntity
  8
1
  6
Continuous
100
AcDbLine
 10
119.4481211658544
 20
215.4606909485131
 30
0.0
 11
119.4481856554858
 21
208.4606909485131
 31
0.0
  0
LINE
  5
296C
330
18
100
AcDbEntity
  8
1
  6
Continuous
100
AcDbLine
 10
114.0306968608104
 20
204.4606909485131
 30
0.0
 11
114.0306968608104
 21
201.4606909485131
 31
0.0
  0
LINE
  5
296D
330
18
100
AcDbEntity
  8
1
  6
Continuous
100
AcDbLine
 10
110.0306968608104
 20
199.9606909485131
 30
0.0
 11
113.0306968608103
 21
195.4606909485131
 31
0.0
  0
LINE
  5
296E
330
18
100
AcDbEntity
  8
1
  6
Continuous
100
AcDbLine
 10
110.0306968608104
 20
199.9606909485131
 30
0.0
 11
110.0306968608104
 21
201.4606909485131
 31
0.0
  0
LINE
  5
2970
330
18
100
AcDbEntity
  8
1
  6
Continuous
100
AcDbLine
 10
114.0306968608104
 20
216.4606909485131
 30
0.0
 11
114.0306968608104
 21
208.4606909485131
 31
0.0
  0
LINE
  5
2972
330
18
100
AcDbEntity
  8
1
  6
Continuous
100
AcDbLine
 10
114.7806974996464
 20
232.4606909485131
 30
0.0
 11
133.2806968608104
 21
232.4606909485131
 31
0.0
  0
ARC
  5
2973
330
18
100
AcDbEntity
  8
1
  6
Continuous
100
AcDbCircle
 10
133.2806968608104
 20
231.9606909485131
 30
0.0
 40
0.5
100
AcDbArc
 50
0.0
 51
90.0
  0
ARC
  5
2997
330
18
100
AcDbEntity
  8
1
  6
Continuous
100
AcDbCircle
 10
114.7806968608104
 20
231.9606909485131
 30
0.0
 40
0.5
100
AcDbArc
 50
89.99992679478692
 51
180.0
  0
LINE
  5
2998
330
18
100
AcDbEntity
  8
1
  6
Continuous
100
AcDbLine
 10
108.4422395926903
 20
204.4606909485131
 30
0.0
 11
108.4422395926903
 21
208.4606909485131
 31
0.0
  0
LINE
  5
2999
330
18
100
AcDbEntity
  8
1
  6
Continuous
100
AcDbLine
 10
116.2364682267501
 20
208.4606909485131
 30
0.0
 11
116.2364682267501
 21
204.4606909485131
 31
0.0
  0
LINE
  5
299A
330
18
100
AcDbEntity
  8
1
  6
Continuous
100
AcDbLine
 10
131.8249254948699
 20
208.4606909485131
 30
0.0
 11
131.8249254948699
 21
204.4606909485131
 31
0.0
  0
LINE
  5
299B
330
18
100
AcDbEntity
  8
1
  6
Continuous
100
AcDbLine
 10
139.6191541289291
 20
208.4606909485131
 30
0.0
 11
139.6191541289291
 21
204.4606909485131
 31
0.0
  0
ARC
  5
299C
330
18
100
AcDbEntity
  8
1
  6
Continuous
100
AcDbCircle
 10
124.030877941664
 20
210.8604360888873
 30
0.0
 40
2.000301463514452
100
AcDbArc
 50
358.7414593115003
 51
180.6285995203401
  0
LINE
  5
299D
330
18
100
AcDbEntity
  8
1
  6
Continuous
100
AcDbLine
 10
126.0325962496682
 20
210.1606909485131
 30
0.0
 11
122.0291961184442
 21
210.1606909485131
 31
0.0
  0
LINE
  5
299E
330
18
100
AcDbEntity
  8
1
  6
Continuous
100
AcDbLine
 10
126.0306968608092
 20
208.4606909485131
 30
0.0
 11
126.0306968608092
 21
210.8165016426624
 31
0.0
  0
LINE
  5
299F
330
18
100
AcDbEntity
  8
1
  6
Continuous
100
AcDbLine
 10
122.0306968608075
 20
210.8384909591252
 30
0.0
 11
122.0306968608075
 21
208.4606909485131
 31
0.0
  0
ARC
  5
29A0
330
18
100
AcDbEntity
  8
1
  6
Continuous
100
AcDbCircle
 10
124.0326871994419
 20
204.0616836018068
 30
0.0
 40
2.00217097341008
100
AcDbArc
 50
180.0284091478793
 51
359.9715342519786
  0
LINE
  5
29A1
330
18
100
AcDbEntity
  8
1
  6
Continuous
100
AcDbLine
 10
122.0306968608075
 20
204.4606909485131
 30
0.0
 11
122.0306968608075
 21
204.0606909485132
 31
0.0
  0
LINE
  5
29A2
330
18
100
AcDbEntity
  8
1
  6
Continuous
100
AcDbLine
 10
126.0306968608092
 20
204.0606909485132
 30
0.0
 11
126.0306968608092
 21
204.4606909485131
 31
0.0
  0
LINE
  5
29A3
330
18
100
AcDbEntity
  8
1
  6
Continuous
100
AcDbLine
 10
131.0401563202693
 20
220.9606909485131
 30
0.0
 11
117.0212374013511
 21
220.9606909485131
 31
0.0
  0
LINE
  5
29A4
330
18
100
AcDbEntity
  8
1
  6
Continuous
100
AcDbLine
 10
117.0212374013514
 20
220.9606909485131
 30
0.0
 11
117.0212374013513
 21
228.6120669757329
 31
0.0
  0
LINE
  5
29A5
330
18
100
AcDbEntity
  8
1
  6
Continuous
100
AcDbLine
 10
117.968909755797
 20
229.9606909485132
 30
0.0
 11
117.0212374013513
 21
228.6120669757329
 31
0.0
  0
LINE
  5
29A7
330
18
100
AcDbEntity
  8
1
  6
Continuous
100
AcDbLine
 10
130.0924839658241
 20
229.9606909485126
 30
0.0
 11
117.968909755797
 21
229.9606909485132
 31
0.0
  0
ARC
  5
29A9
330
18
100
AcDbEntity
  8
1
  6
Continuous
100
AcDbCircle
 10
119.6401772602722
 20
228.2390735502115
 30
0.0
 40
1.783611846433925
100
AcDbArc
 50
105.1506015266814
 51
119.1474715704201
  0
LINE
  5
29AC
330
18
100
AcDbEntity
  8
1
  6
Continuous
100
AcDbLine
 10
118.7714527646252
 20
229.796824804232
 30
0.0
 11
117.8806968608103
 21
228.4606909485146
 31
0.0
  0
LINE
  5
29AF
330
18
100
AcDbEntity
  8
1
  6
Continuous
100
AcDbLine
 10
118.0306968608104
 20
227.9662459737938
 30
0.0
 11
118.0306968608104
 21
221.9766909485132
 31
0.0
  0
LINE
  5
29B0
330
18
100
AcDbEntity
  8
1
  6
Continuous
100
AcDbLine
 10
117.8806968608103
 20
221.4606909485131
 30
0.0
 11
117.8806968608103
 21
228.4606909485146
 31
0.0
  0
LINE
  5
29B1
330
18
100
AcDbEntity
  8
1
  6
Continuous
100
AcDbLine
 10
119.0236061421829
 20
229.3842673848619
 30
0.0
 11
118.0306968608104
 21
227.9662459737938
 31
0.0
  0
ARC
  5
29B2
330
18
100
AcDbEntity
  8
1
  6
Continuous
100
AcDbCircle
 10
119.8427581864723
 20
228.8106909485132
 30
0.0
 40
1.0
100
AcDbArc
 50
90.0
 51
145.0000000000023
  0
LINE
  5
29B3
330
18
100
AcDbEntity
  8
1
  6
Continuous
100
AcDbLine
 10
119.8427581810664
 20
229.8106909485131
 30
0.0
 11
128.2186355405543
 21
229.8106909485131
 31
0.0
  0
LINE
  5
29B4
330
18
100
AcDbEntity
  8
1
  6
Continuous
100
AcDbLine
 10
117.8806968608103
 20
221.4606909485131
 30
0.0
 11
130.1806968608104
 21
221.4606909485131
 31
0.0
  0
LINE
  5
29B7
330
18
100
AcDbEntity
  8
1
  6
Continuous
100
AcDbLine
 10
118.0306968608104
 20
222.1106909485096
 30
0.0
 11
118.5306968608106
 21
221.6106909485166
 31
0.0
  0
LINE
  5
29B8
330
18
100
AcDbEntity
  8
1
  6
Continuous
100
AcDbLine
 10
129.5307388362222
 20
221.6106909485132
 30
0.0
 11
118.5306631061164
 21
221.6106909485132
 31
0.0
  0
LINE
  5
29B9
330
18
100
AcDbEntity
  8
1
  6
Continuous
100
AcDbLine
 10
118.0306968608105
 20
222.6106909485132
 30
0.0
 11
130.0306968608102
 21
222.6106909485132
 31
0.0
  0
LINE
  5
29BA
330
18
100
AcDbEntity
  8
1
  6
Continuous
100
AcDbLine
 10
118.1623108428365
 20
221.9766909485132
 30
0.0
 11
118.0306968608104
 21
221.9766909485132
 31
0.0
  0
LINE
  5
29BB
330
18
100
AcDbEntity
  8
1
  6
Continuous
100
AcDbLine
 10
129.0377875794378
 20
229.3842673848619
 30
0.0
 11
130.0306968608103
 21
227.9662459737938
 31
0.0
  0
LINE
  5
29BC
330
18
100
AcDbEntity
  8
1
  6
Continuous
100
AcDbLine
 10
129.2899409569955
 20
229.796824804232
 30
0.0
 11
130.1806968608103
 21
228.4606909485146
 31
0.0
  0
ARC
  5
29BD
330
18
100
AcDbEntity
  8
1
  6
Continuous
100
AcDbCircle
 10
128.4212164613485
 20
228.2390735502115
 30
0.0
 40
1.783611846433925
100
AcDbArc
 50
60.85252842957984
 51
74.84939847331851
  0
LINE
  5
29BE
330
18
100
AcDbEntity
  8
1
  6
Continuous
100
AcDbLine
 10
130.0924839658241
 20
229.9606909485126
 30
0.0
 11
131.0401563202694
 21
228.6120669757329
 31
0.0
  0
ARC
  5
29BF
330
18
100
AcDbEntity
  8
1
  6
Continuous
100
AcDbCircle
 10
128.2186355351484
 20
228.8106909485132
 30
0.0
 40
1.0
100
AcDbArc
 50
34.9999999999977
 51
90.0
  0
LINE
  5
29C0
330
18
100
AcDbEntity
  8
1
  6
Continuous
100
AcDbLine
 10
130.0306968608103
 20
227.9662459737938
 30
0.0
 11
130.0306968608103
 21
221.9766909485132
 31
0.0
  0
LINE
  5
29C1
330
18
100
AcDbEntity
  8
1
  6
Continuous
100
AcDbLine
 10
130.1806968608104
 20
221.4606909485131
 30
0.0
 11
130.1806968608103
 21
228.4606909485146
 31
0.0
  0
LINE
  5
29C2
330
18
100
AcDbEntity
  8
1
  6
Continuous
100
AcDbLine
 10
131.0401563202693
 20
220.9606909485131
 30
0.0
 11
131.0401563202694
 21
228.6120669757329
 31
0.0
  0
LINE
  5
29C3
330
18
100
AcDbEntity
  8
1
  6
Continuous
100
AcDbLine
 10
129.8990828787841
 20
221.9766909485132
 30
0.0
 11
130.0306968608103
 21
221.9766909485132
 31
0.0
  0
LINE
  5
29C4
330
18
100
AcDbEntity
  8
1
  6
Continuous
100
AcDbLine
 10
130.0306968608103
 20
222.1106909485096
 30
0.0
 11
129.5306968608101
 21
221.6106909485166
 31
0.0
  0
LINE
  5
2A0D
330
18
100
AcDbEntity
  8
4
  6
CENTER
 48
0.2
100
AcDbLine
 10
124.0306968608104
 20
81.81251508772485
 30
0.0
 11
124.0306968608104
 21
31.81251508772481
 31
0.0
  0
LINE
  5
2A0E
330
18
100
AcDbEntity
  8
1
  6
Continuous
100
AcDbLine
 10
134.0306968608104
 20
50.81251508772481
 30
0.0
 11
134.0306968608104
 21
58.81251508772482
 31
0.0
  0
LINE
  5
2A0F
330
18
100
AcDbEntity
  8
1
  6
Continuous
100
AcDbLine
 10
128.6132080661349
 20
58.81251508772482
 30
0.0
 11
128.6132725557664
 21
51.81251508772482
 31
0.0
  0
LINE
  5
2A10
330
18
100
AcDbEntity
  8
1
  6
Continuous
100
AcDbLine
 10
114.0306968608104
 20
50.81251508772481
 30
0.0
 11
114.0306968608104
 21
58.81251508772482
 31
0.0
  0
LINE
  5
2A11
330
18
100
AcDbEntity
  8
1
  6
Continuous
100
AcDbLine
 10
119.4481211658544
 20
51.81251508772482
 30
0.0
 11
119.4481856554858
 21
58.81251508772482
 31
0.0
  0
LINE
  5
2A12
330
18
100
AcDbEntity
  8
1
  6
Continuous
100
AcDbLine
 10
131.5306968608104
 20
78.31251508772485
 30
0.0
 11
131.5306968608104
 21
71.81251508773917
 31
0.0
  0
LINE
  5
2A13
330
18
100
AcDbEntity
  8
1
  6
Continuous
100
AcDbLine
 10
116.5306968608104
 20
71.81251508773917
 30
0.0
 11
116.5306968608104
 21
78.31251508764231
 31
0.0
  0
LINE
  5
2A14
330
18
100
AcDbEntity
  8
1
  6
Continuous
100
AcDbLine
 10
131.5306968608104
 20
78.31251508772485
 30
0.0
 11
116.5306968608104
 21
78.31251508772485
 31
0.0
  0
LINE
  5
2A15
330
18
100
AcDbEntity
  8
1
  6
Continuous
100
AcDbLine
 10
131.0306968608103
 20
78.81251508772485
 30
0.0
 11
117.0306968608104
 21
78.81251508772485
 31
0.0
  0
LINE
  5
2A16
330
18
100
AcDbEntity
  8
1
  6
Continuous
100
AcDbLine
 10
116.5339852489231
 20
78.31580347583761
 30
0.0
 11
117.0306968608104
 21
78.81251508772485
 31
0.0
  0
LINE
  5
2A17
330
18
100
AcDbEntity
  8
1
  6
Continuous
100
AcDbLine
 10
131.0306968608103
 20
78.81251508772485
 30
0.0
 11
131.5274084726268
 21
78.31580347590843
 31
0.0
  0
LINE
  5
2A18
330
18
100
AcDbEntity
  8
1
  6
Continuous
100
AcDbLine
 10
135.0306968608104
 20
71.81251508772473
 30
0.0
 11
113.0306968608103
 21
71.81251508772485
 31
0.0
  0
LINE
  5
2A19
330
18
100
AcDbEntity
  8
1
  6
Continuous
100
AcDbLine
 10
108.4422395926903
 20
62.81251508772484
 30
0.0
 11
139.6191541289291
 21
62.81251508772484
 31
0.0
  0
LINE
  5
2A1A
330
18
100
AcDbEntity
  8
1
  6
Continuous
100
AcDbLine
 10
108.4422395926903
 20
58.81251508772482
 30
0.0
 11
139.6191541289291
 21
58.81251508772482
 31
0.0
  0
LINE
  5
2A1B
330
18
100
AcDbEntity
  8
1
  6
Continuous
100
AcDbLine
 10
138.0306968608104
 20
67.31251508772484
 30
0.0
 11
110.0306968608104
 21
67.31251508772484
 31
0.0
  0
LINE
  5
2A1C
330
18
100
AcDbEntity
  8
1
  6
Continuous
100
AcDbLine
 10
138.0306968608104
 20
65.81251508772472
 30
0.0
 11
110.0306968608104
 21
65.81251508772485
 31
0.0
  0
LINE
  5
2A1D
330
18
100
AcDbEntity
  8
1
  6
Continuous
100
AcDbLine
 10
116.2364682267501
 20
58.81251508772482
 30
0.0
 11
116.2364682267501
 21
62.81251508772484
 31
0.0
  0
LINE
  5
2A1E
330
18
100
AcDbEntity
  8
1
  6
Continuous
100
AcDbLine
 10
108.4422395926903
 20
62.81251508772484
 30
0.0
 11
108.4422395926903
 21
58.81251508772482
 31
0.0
  0
LINE
  5
2A1F
330
18
100
AcDbEntity
  8
1
  6
Continuous
100
AcDbLine
 10
114.0306968608104
 20
62.81251508772484
 30
0.0
 11
114.0306968608104
 21
65.81251508772485
 31
0.0
  0
LINE
  5
2A20
330
18
100
AcDbEntity
  8
1
  6
Continuous
100
AcDbLine
 10
119.4482225067893
 20
62.8125150877245
 30
0.0
 11
119.4482501453078
 21
65.81251508772485
 31
0.0
  0
LINE
  5
2A21
330
18
100
AcDbEntity
  8
1
  6
Continuous
100
AcDbLine
 10
110.0306968608104
 20
67.31251508772484
 30
0.0
 11
110.0306968608104
 21
65.81251508772485
 31
0.0
  0
LINE
  5
2A22
330
18
100
AcDbEntity
  8
1
  6
Continuous
100
AcDbLine
 10
110.0306968608104
 20
67.31251508772484
 30
0.0
 11
113.0306968608103
 21
71.81251508772485
 31
0.0
  0
LINE
  5
2A23
330
18
100
AcDbEntity
  8
1
  6
Continuous
100
AcDbLine
 10
139.6191541289291
 20
58.81251508772482
 30
0.0
 11
139.6191541289291
 21
62.81251508772484
 31
0.0
  0
LINE
  5
2A24
330
18
100
AcDbEntity
  8
1
  6
Continuous
100
AcDbLine
 10
131.8249254948699
 20
58.81251508772482
 30
0.0
 11
131.8249254948699
 21
62.81251508772484
 31
0.0
  0
LINE
  5
2A25
330
18
100
AcDbEntity
  8
1
  6
Continuous
100
AcDbLine
 10
134.0306968608104
 20
62.81251508772484
 30
0.0
 11
134.0306968608104
 21
65.81251508772485
 31
0.0
  0
LINE
  5
2A26
330
18
100
AcDbEntity
  8
1
  6
Continuous
100
AcDbLine
 10
128.613143576313
 20
65.81251508814185
 30
0.0
 11
128.6131712148314
 21
62.81251508772484
 31
0.0
  0
LINE
  5
2A2A
330
18
100
AcDbEntity
  8
1
  6
Continuous
100
AcDbLine
 10
138.0306968608104
 20
65.81251508772472
 30
0.0
 11
138.0306968608104
 21
67.31251508772484
 31
0.0
  0
LINE
  5
2A2B
330
18
100
AcDbEntity
  8
1
  6
Continuous
100
AcDbLine
 10
135.0306968608104
 20
71.81251508772473
 30
0.0
 11
138.0306968608104
 21
67.31251508772484
 31
0.0
  0
LINE
  5
2A30
330
18
100
AcDbEntity
  8
1
  6
Continuous
100
AcDbLine
 10
114.7806974996464
 20
34.81251508772482
 30
0.0
 11
133.2806968608104
 21
34.81251508772482
 31
0.0
  0
LINE
  5
2A33
330
18
100
AcDbEntity
  8
1
  6
Continuous
100
AcDbLine
 10
134.0306968608104
 20
50.81251508772481
 30
0.0
 11
114.0306968608104
 21
50.81251508772481
 31
0.0
  0
ARC
  5
2A34
330
18
100
AcDbEntity
  8
1
  6
Continuous
100
AcDbCircle
 10
124.0306968608104
 20
61.81251508772541
 30
0.0
 40
11.00000000000062
100
AcDbArc
 50
245.3800226713436
 51
294.6199773286563
  0
LINE
  5
2A39
330
18
100
AcDbEntity
  8
1
  6
Continuous
100
AcDbLine
 10
114.2806968608104
 20
35.31251508772482
 30
0.0
 11
114.2806968608104
 21
50.81251508772481
 31
0.0
  0
LINE
  5
2A3D
330
18
100
AcDbEntity
  8
1
  6
Continuous
100
AcDbLine
 10
114.0306968608104
 20
51.81251508772482
 30
0.0
 11
119.4481211658544
 21
51.81251508772482
 31
0.0
  0
ARC
  5
2A41
330
18
100
AcDbEntity
  8
1
  6
Continuous
100
AcDbCircle
 10
114.7806968608104
 20
35.31251508772482
 30
0.0
 40
0.5
100
AcDbArc
 50
180.0
 51
270.0000732052131
  0
LINE
  5
2A47
330
18
100
AcDbEntity
  8
1
  6
Continuous
100
AcDbLine
 10
133.7806968608104
 20
50.81251508772481
 30
0.0
 11
133.7806968608104
 21
35.31251508772482
 31
0.0
  0
LINE
  5
2A4B
330
18
100
AcDbEntity
  8
1
  6
Continuous
100
AcDbLine
 10
128.6132725557664
 20
51.81251508772482
 30
0.0
 11
134.0306968608103
 21
51.81251508772482
 31
0.0
  0
ARC
  5
2A4F
330
18
100
AcDbEntity
  8
1
  6
Continuous
100
AcDbCircle
 10
133.2806968608104
 20
35.31251508772482
 30
0.0
 40
0.5
100
AcDbArc
 50
270.0
 51
0.0
  0
CIRCLE
  5
2A5F
330
18
100
AcDbEntity
  8
1
  6
Continuous
100
AcDbCircle
 10
279.0037293411988
 20
136.6751666219813
 30
0.0
 40
2.0
  0
LINE
  5
2A60
330
18
100
AcDbEntity
  8
4
  6
CENTER
 48
0.2
100
AcDbLine
 10
261.0046911383651
 20
134.1765426225292
 30
0.0
 11
297.0046911383652
 21
134.1765426225292
 31
0.0
  0
LINE
  5
2A61
330
18
100
AcDbEntity
  8
4
  6
CENTER
 48
0.2
100
AcDbLine
 10
279.0046911383651
 20
116.1765426225292
 30
0.0
 11
279.0046911383651
 21
152.1765426225291
 31
0.0
  0
CIRCLE
  5
2A63
330
18
100
AcDbEntity
  8
1
  6
Continuous
100
AcDbCircle
 10
279.0046911383651
 20
134.1765426225292
 30
0.0
 40
9.749999999999973
  0
LINE
  5
2A64
330
18
100
AcDbEntity
  8
1
  6
Continuous
100
AcDbLine
 10
285.0056529355314
 20
141.861004705782
 30
0.0
 11
285.0056529355314
 21
147.3603796964513
 31
0.0
  0
LINE
  5
2B8F
330
18
100
AcDbEntity
  8
1
  6
Continuous
100
AcDbLine
 10
271.2104621341054
 20
120.6765419813171
 30
0.0
 11
263.4162331298392
 21
134.1765426225325
 31
0.0
  0
ARC
  5
2B90
330
18
100
AcDbEntity
  8
2
  6
Continuous
100
AcDbCircle
 10
279.0046911383651
 20
134.1765426225292
 30
0.0
 40
11.00000052247196
100
AcDbArc
 50
155.3800227287924
 51
204.6199773286554
  0
LINE
  5
2B91
330
18
100
AcDbEntity
  8
1
  6
Continuous
100
AcDbLine
 10
269.0046906633906
 20
138.7591185251187
 30
0.0
 11
269.0046906633906
 21
129.5939667099128
 31
0.0
  0
ARC
  5
2B92
330
18
100
AcDbEntity
  8
2
  6
Continuous
100
AcDbCircle
 10
279.0046911383632
 20
134.176542622529
 30
0.0
 40
10.18800048390212
100
AcDbArc
 50
191.0240759833058
 51
258.9759240421855
  0
ARC
  5
2B93
330
18
100
AcDbEntity
  8
2
  6
Continuous
100
AcDbCircle
 10
279.0046911383671
 20
134.176542622529
 30
0.0
 40
10.18800048390212
100
AcDbArc
 50
281.0240759578144
 51
348.9759240166942
  0
LINE
  5
2B94
330
18
100
AcDbEntity
  8
1
  6
Continuous
100
AcDbLine
 10
294.5931491469035
 20
134.1765426225329
 30
0.0
 11
286.7989201426372
 21
120.6765419813172
 31
0.0
  0
LINE
  5
2B95
330
18
100
AcDbEntity
  8
1
  6
Continuous
100
AcDbLine
 10
289.0046916225297
 20
129.5939667299669
 30
0.0
 11
289.0046915875473
 21
138.7591185251186
 31
0.0
  0
ARC
  5
2B96
330
18
100
AcDbEntity
  8
2
  6
Continuous
100
AcDbCircle
 10
279.0046911383651
 20
134.1765426225292
 30
0.0
 40
11.00000052247196
100
AcDbArc
 50
335.3800227862446
 51
24.6199772712075
  0
ARC
  5
2B97
330
18
100
AcDbEntity
  8
1
  6
Continuous
100
AcDbCircle
 10
279.0046911383741
 20
134.1765426225292
 30
0.0
 40
14.0
100
AcDbArc
 50
194.6411243269515
 51
225.3588756730507
  0
LINE
  5
2B98
330
18
100
AcDbEntity
  8
1
  6
Continuous
100
AcDbLine
 10
286.7989201426372
 20
120.6765419813172
 30
0.0
 11
271.2104621341054
 21
120.6765419813171
 31
0.0
  0
ARC
  5
2B99
330
18
100
AcDbEntity
  8
1
  6
Continuous
100
AcDbCircle
 10
279.0046911383651
 20
134.1765426225294
 30
0.0
 40
10.1880004839041
100
AcDbArc
 50
258.9988374374418
 51
281.0267300396464
  0
LINE
  5
2B9A
330
18
100
AcDbEntity
  8
1
  6
Continuous
100
AcDbLine
 10
283.5872670509818
 20
124.1765421475549
 30
0.0
 11
274.4221152257487
 21
124.1765421475548
 31
0.0
  0
ARC
  5
2B9B
330
18
100
AcDbEntity
  8
2
  6
Continuous
100
AcDbCircle
 10
279.0046911383651
 20
134.1765426225293
 30
0.0
 40
11.00000052247196
100
AcDbArc
 50
245.3800226713439
 51
294.6199773286589
  0
ARC
  5
2B9C
330
18
100
AcDbEntity
  8
1
  6
Continuous
100
AcDbCircle
 10
279.0046911383651
 20
134.1765426225292
 30
0.0
 40
11.00000052247195
100
AcDbArc
 50
204.6199772137553
 51
245.3800227862446
  0
ARC
  5
2B9D
330
18
100
AcDbEntity
  8
1
  6
Continuous
100
AcDbCircle
 10
279.0046911383651
 20
134.1765426225292
 30
0.0
 40
11.00000052247195
100
AcDbArc
 50
294.6199772137553
 51
335.3800227862446
  0
ARC
  5
2B9E
330
18
100
AcDbEntity
  8
1
  6
Continuous
100
AcDbCircle
 10
279.0046911383632
 20
134.176542622529
 30
0.0
 40
14.0
100
AcDbArc
 50
134.6411243268549
 51
165.3588756731426
  0
LINE
  5
2B9F
330
18
100
AcDbEntity
  8
1
  6
Continuous
100
AcDbLine
 10
263.4162331298392
 20
134.1765426225325
 30
0.0
 11
271.2104621341056
 21
147.6765432637483
 31
0.0
  0
LINE
  5
2BA0
330
18
100
AcDbEntity
  8
1
  6
Continuous
100
AcDbLine
 10
286.7989201426373
 20
147.6765432637483
 30
0.0
 11
294.5931491469035
 21
134.1765426225329
 31
0.0
  0
ARC
  5
2BA1
330
18
100
AcDbEntity
  8
1
  6
Continuous
100
AcDbCircle
 10
279.0046911383651
 20
134.1765426225292
 30
0.0
 40
11.00000052247191
100
AcDbArc
 50
24.6199772712075
 51
56.938293233175
  0
ARC
  5
2BA2
330
18
100
AcDbEntity
  8
2
  6
Continuous
100
AcDbCircle
 10
279.0046911383671
 20
134.1765426225294
 30
0.0
 40
10.18800048390212
100
AcDbArc
 50
11.0240764206884
 51
53.91232555635776
  0
ARC
  5
2BA3
330
18
100
AcDbEntity
  8
2
  6
Continuous
100
AcDbCircle
 10
279.0046911383632
 20
134.1765426225294
 30
0.0
 40
10.18800048390212
100
AcDbArc
 50
126.0876744436423
 51
168.9759240421424
  0
ARC
  5
2BA4
330
18
100
AcDbEntity
  8
1
  6
Continuous
100
AcDbCircle
 10
279.0046911383651
 20
134.1765426225293
 30
0.0
 40
11.00000052247191
100
AcDbArc
 50
123.061706766825
 51
155.3800227287924
  0
ARC
  5
2BA5
330
18
100
AcDbEntity
  8
1
  6
Continuous
100
AcDbCircle
 10
279.0046911383741
 20
134.1765426225292
 30
0.0
 40
10.18800048390404
100
AcDbArc
 50
168.975924042129
 51
191.0240759578742
  0
ARC
  5
2BA6
330
18
100
AcDbEntity
  8
1
  6
Continuous
100
AcDbCircle
 10
279.004691138365
 20
134.1765426225292
 30
0.0
 40
10.18800048390404
100
AcDbArc
 50
348.9759240421258
 51
11.02407595787098
  0
LINE
  5
2BA8
330
18
100
AcDbEntity
  8
1
  6
Continuous
100
AcDbLine
 10
271.2104621341056
 20
147.6765432637483
 30
0.0
 11
273.4323316856203
 21
147.6765432637483
 31
0.0
  0
LINE
  5
2BAC
330
18
100
AcDbEntity
  8
1
  6
Continuous
100
AcDbLine
 10
284.5751269967773
 20
147.6765432637483
 30
0.0
 11
286.7989201426373
 21
147.6765432637483
 31
0.0
  0
ARC
  5
2BAD
330
18
100
AcDbEntity
  8
1
  6
Continuous
100
AcDbCircle
 10
279.0046911383632
 20
134.1765426225293
 30
0.0
 40
14.0
100
AcDbArc
 50
254.6411243269948
 51
285.3588756730047
  0
ARC
  5
2BAE
330
18
100
AcDbEntity
  8
1
  6
Continuous
100
AcDbCircle
 10
279.0046911383561
 20
134.1765426225292
 30
0.0
 40
14.0
100
AcDbArc
 50
314.6411243269492
 51
345.3588756730484
  0
ARC
  5
2BAF
330
18
100
AcDbEntity
  8
1
  6
Continuous
100
AcDbCircle
 10
279.0046911383671
 20
134.176542622529
 30
0.0
 40
14.0
100
AcDbArc
 50
14.64112432685736
 51
45.35887567314502
  0
ENDSEC
  0
SECTION
  2
OBJECTS
  0
DICTIONARY
  5
C
330
0
100
AcDbDictionary
281
     1
  3
ACAD_CIP_PREVIOUS_PRODUCT_INFO
350
338E
  3
ACAD_COLOR
350
3371
  3
ACAD_DETAILVIEWSTYLE
350
338A
  3
ACAD_GROUP
350
D
  3
ACAD_LAYOUT
350
94
  3
ACAD_MATERIAL
350
333F
  3
ACAD_MLEADERSTYLE
350
3386
  3
ACAD_MLINESTYLE
350
1B
  3
ACAD_PLOTSETTINGS
350
95
  3
ACAD_PLOTSTYLENAME
350
333D
  3
ACAD_SCALELIST
350
3374
  3
ACAD_SECTIONVIEWSTYLE
350
3388
  3
ACAD_TABLESTYLE
350
3372
  3
ACAD_VISUALSTYLE
350
3358
  3
ACDB_RECOMPOSE_DATA
350
33AC
  3
AcDbVariableDictionary
350
339F
  3
CONTENTDICTIONARY
350
3D
  3
DWGPROPS
350
33AD
  0
DICTIONARY
  5
338F
330
E
100
AcDbDictionary
280
     1
281
     1
  3
ADSK_XREC_LAYER_RECONCILED
360
3390
  0
DICTIONARY
  5
3391
330
4E
100
AcDbDictionary
280
     1
281
     1
  3
ADSK_XREC_LAYER_RECONCILED
360
3392
  0
DICTIONARY
  5
3393
330
4F
100
AcDbDictionary
280
     1
281
     1
  3
ADSK_XREC_LAYER_RECONCILED
360
3394
  0
DICTIONARY
  5
3395
330
50
100
AcDbDictionary
280
     1
281
     1
  3
ADSK_XREC_LAYER_RECONCILED
360
3396
  0
DICTIONARY
  5
3397
330
51
100
AcDbDictionary
280
     1
281
     1
  3
ADSK_XREC_LAYER_RECONCILED
360
3398
  0
DICTIONARY
  5
3399
330
52
100
AcDbDictionary
280
     1
281
     1
  3
ADSK_XREC_LAYER_RECONCILED
360
339A
  0
DICTIONARY
  5
339B
330
53
100
AcDbDictionary
280
     1
281
     1
  3
ADSK_XREC_LAYER_RECONCILED
360
339C
  0
DICTIONARY
  5
339D
330
54
100
AcDbDictionary
280
     1
281
     1
  3
ADSK_XREC_LAYER_RECONCILED
360
339E
  0
DICTIONARY
  5
3338
330
18
100
AcDbDictionary
281
     1
  3
ACAD_LAYOUTSELFREF
350
3339
  0
DICTIONARY
  5
3336
330
15
100
AcDbDictionary
281
     1
  3
ACAD_LAYOUTSELFREF
350
3337
  0
XRECORD
  5
338E
102
{ACAD_REACTORS
330
C
102
}
330
C
100
AcDbXrecord
280
     1
300
ACDLT
300
2014
300
ACDLT_F_S
  0
DICTIONARY
  5
3371
102
{ACAD_REACTORS
330
C
102
}
330
C
100
AcDbDictionary
281
     1
  0
DICTIONARY
  5
338A
102
{ACAD_REACTORS
330
C
102
}
330
C
100
AcDbDictionary
281
     1
  3
Imperial24
350
338B
  0
DICTIONARY
  5
D
102
{ACAD_REACTORS
330
C
102
}
330
C
100
AcDbDictionary
281
     1
  0
DICTIONARY
  5
94
102
{ACAD_REACTORS
330
C
102
}
330
C
100
AcDbDictionary
281
     1
  3
Model
350
338C
  3
レイアウト1
350
338D
  0
DICTIONARY
  5
333F
102
{ACAD_REACTORS
330
C
102
}
330
C
100
AcDbDictionary
281
     1
  3
ByBlock
350
3348
  3
ByLayer
350
3340
  3
Global
350
3350
  0
DICTIONARY
  5
3386
102
{ACAD_REACTORS
330
C
102
}
330
C
100
AcDbDictionary
281
     1
  3
Standard
350
3387
  0
DICTIONARY
  5
1B
102
{ACAD_REACTORS
330
C
102
}
330
C
100
AcDbDictionary
281
     1
  3
STANDARD
350
1C
  0
DICTIONARY
  5
95
102
{ACAD_REACTORS
330
C
102
}
330
C
100
AcDbDictionary
281
     1
  0
ACDBDICTIONARYWDFLT
  5
333D
102
{ACAD_REACTORS
330
C
102
}
330
C
100
AcDbDictionary
281
     1
  3
Normal
350
333E
100
AcDbDictionaryWithDefault
340
333E
  0
DICTIONARY
  5
3374
102
{ACAD_REACTORS
330
C
102
}
330
C
100
AcDbDictionary
281
     1
  3
A0
350
3375
  3
A1
350
3376
  3
A2
350
3377
  3
A3
350
3378
  3
A4
350
3379
  3
A5
350
337A
  3
A6
350
337B
  3
A7
350
337C
  3
A8
350
337D
  3
A9
350
337E
  3
B0
350
337F
  3
B1
350
3380
  3
B2
350
3381
  3
B3
350
3382
  3
B4
350
3383
  3
B5
350
3384
  3
B6
350
3385
  0
DICTIONARY
  5
3388
102
{ACAD_REACTORS
330
C
102
}
330
C
100
AcDbDictionary
281
     1
  3
Imperial24
350
3389
  0
DICTIONARY
  5
3372
102
{ACAD_REACTORS
330
C
102
}
330
C
100
AcDbDictionary
281
     1
  3
Standard
350
3373
  0
DICTIONARY
  5
3358
102
{ACAD_REACTORS
330
C
102
}
330
C
100
AcDbDictionary
281
     1
  3
2dWireframe
350
335E
  3
Basic
350
335D
  3
Brighten
350
3364
  3
ColorChange
350
3368
  3
Conceptual
350
3361
  3
Dim
350
3363
  3
EdgeColorOff
350
3370
  3
Facepattern
350
3367
  3
Flat
350
3359
  3
FlatWithEdges
350
335A
  3
Gouraud
350
335B
  3
GouraudWithEdges
350
335C
  3
Hidden
350
3360
  3
JitterOff
350
336E
  3
Linepattern
350
3366
  3
OverhangOff
350
336F
  3
Realistic
350
3362
  3
Shaded
350
336D
  3
Shaded with edges
350
336C
  3
Shades of Gray
350
3369
  3
Sketchy
350
336A
  3
Thicken
350
3365
  3
Wireframe
350
335F
  3
X-Ray
350
336B
  0
XRECORD
  5
33AC
102
{ACAD_REACTORS
330
C
102
}
330
C
100
AcDbXrecord
280
     1
 90
        1
330
3373
  0
DICTIONARY
  5
339F
102
{ACAD_REACTORS
330
C
102
}
330
C
100
AcDbDictionary
281
     1
  3
CANNOSCALE
350
33A4
  3
CMLEADERSTYLE
350
33A1
  3
CTABLESTYLE
350
33A0
  3
CVIEWDETAILSTYLE
350
33A2
  3
CVIEWSECTIONSTYLE
350
33A3
  3
DIMASSOC
350
33A7
  3
INDEXCTL
350
33A6
  3
SORTENTS
350
33A5
  3
XCLIPFRAME
350
33A8
  0
DICTIONARY
  5
3D
102
{ACAD_REACTORS
330
C
102
}
330
C
100
AcDbDictionary
281
     1
  0
XRECORD
  5
33AD
102
{ACAD_REACTORS
330
C
102
}
330
C
100
AcDbXrecord
280
     1
  1
DWGPROPS COOKIE
  2

  3

  4

  6

  7

  8
Yoshitsune
  9

300
=
301
=
302
=
303
=
304
=
305
=
306
=
307
=
308
=
309
=
 40
0.1328850925925926
 41
2453783.543007083
 42
2457192.700463449
  1

 90
        0
  0
XRECORD
  5
3390
102
{ACAD_REACTORS
330
338F
102
}
330
338F
100
AcDbXrecord
280
     1
290
     1
  0
XRECORD
  5
3392
102
{ACAD_REACTORS
330
3391
102
}
330
3391
100
AcDbXrecord
280
     1
290
     1
  0
XRECORD
  5
3394
102
{ACAD_REACTORS
330
3393
102
}
330
3393
100
AcDbXrecord
280
     1
290
     1
  0
XRECORD
  5
3396
102
{ACAD_REACTORS
330
3395
102
}
330
3395
100
AcDbXrecord
280
     1
290
     1
  0
XRECORD
  5
3398
102
{ACAD_REACTORS
330
3397
102
}
330
3397
100
AcDbXrecord
280
     1
290
     1
  0
XRECORD
  5
339A
102
{ACAD_REACTORS
330
3399
102
}
330
3399
100
AcDbXrecord
280
     1
290
     1
  0
XRECORD
  5
339C
102
{ACAD_REACTORS
330
339B
102
}
330
339B
100
AcDbXrecord
280
     1
290
     1
  0
XRECORD
  5
339E
102
{ACAD_REACTORS
330
339D
102
}
330
339D
100
AcDbXrecord
280
     1
290
     1
  0
XRECORD
  5
3339
102
{ACAD_REACTORS
330
3338
102
}
330
3338
100
AcDbXrecord
280
     1
340
18
  0
XRECORD
  5
3337
102
{ACAD_REACTORS
330
3336
102
}
330
3336
100
AcDbXrecord
280
     1
340
15
  0
ACDBDETAILVIEWSTYLE
  5
338B
102
{ACAD_XDICTIONARY
360
33E5
102
}
102
{ACAD_REACTORS
330
338A
102
}
330
338A
100
AcDbModelDocViewStyle
 70
     0
  3
Imperial24
290
     0
100
AcDbDetailViewStyle
 70
     0
 71
     0
 90
        3
 71
     1
340
F
 40
0.24
340
0
 40
0.24
300

 40
0.36
280
     3
 71
     2
340
14
 90
       25
 71
     3
340
F
 40
0.24
 90
        1
 40
0.75
 90
        1
300
%<\AcVar ViewType \f "%tc1">% %<\AcVar ViewDetailId>%\PSCALE %<\AcVar ViewScale \f "%sn">%
 71
     4
340
14
 90
       25
340
14
 90
       25
280
     0
  0
LAYOUT
  5
338C
102
{ACAD_XDICTIONARY
360
33E7
102
}
102
{ACAD_REACTORS
330
94
102
}
330
94
100
AcDbPlotSettings
  1

  2
Canon LBP9100C
  4

  6

 40
0.0
 41
0.0
 42
0.0
 43
0.0
 44
0.0
 45
0.0
 46
0.0
 47
0.0
 48
0.0
 49
0.0
140
0.0
141
0.0
142
1.0
143
1.0
 70
  1712
 72
     0
 73
     0
 74
     0
  7

 75
     0
147
1.0
148
0.0
149
0.0
100
AcDbLayout
  1
Model
 70
     1
 71
     0
 10
0.0
 20
0.0
 11
12.0
 21
9.0
 12
0.0
 22
0.0
 32
0.0
 14
0.0
 24
0.0
 34
0.0
 15
0.0
 25
0.0
 35
0.0
146
0.0
 13
0.0
 23
0.0
 33
0.0
 16
1.0
 26
0.0
 36
0.0
 17
0.0
 27
1.0
 37
0.0
 76
     0
330
18
331
3335
  0
LAYOUT
  5
338D
102
{ACAD_XDICTIONARY
360
33E9
102
}
102
{ACAD_REACTORS
330
94
102
}
330
94
100
AcDbPlotSettings
  1

  2
Canon LBP9100C
  4

  6

 40
0.0
 41
0.0
 42
0.0
 43
0.0
 44
0.0
 45
0.0
 46
0.0
 47
0.0
 48
0.0
 49
0.0
140
0.0
141
0.0
142
1.0
143
1.0
 70
   688
 72
     0
 73
     0
 74
     5
  7

 75
    16
147
1.0
148
0.0
149
0.0
100
AcDbLayout
  1
レイアウト1
 70
     1
 71
     1
 10
-3.757080078125
 20
-3.757083177566528
 11
293.2112426757812
 21
206.2162444591522
 12
0.0
 22
0.0
 32
0.0
 14
27.8447512626648
 24
20.24591643810271
 34
0.0
 15
250.6027613639831
 25
182.2132479429244
 35
0.0
146
0.0
 13
0.0
 23
0.0
 33
0.0
 16
1.0
 26
0.0
 36
0.0
 17
0.0
 27
1.0
 37
0.0
 76
     0
330
15
  0
MATERIAL
  5
3348
102
{ACAD_XDICTIONARY
360
3349
102
}
102
{ACAD_REACTORS
330
333F
102
}
330
333F
100
AcDbMaterial
  1
ByBlock
 72
     0
 43
0.0208333333333333
 43
0.0
 43
0.0
 43
0.0
 43
0.0
 43
0.0208333333333333
 43
0.0
 43
0.0
 43
0.0
 43
0.0
 43
1.0
 43
0.0
 43
0.0
 43
0.0
 43
0.0
 43
1.0
 77
     0
 47
0.0208333333333333
 47
0.0
 47
0.0
 47
0.0
 47
0.0
 47
0.0208333333333333
 47
0.0
 47
0.0
 47
0.0
 47
0.0
 47
1.0
 47
0.0
 47
0.0
 47
0.0
 47
0.0
 47
1.0
171
     0
 49
0.0208333333333333
 49
0.0
 49
0.0
 49
0.0
 49
0.0
 49
0.0208333333333333
 49
0.0
 49
0.0
 49
0.0
 49
0.0
 49
1.0
 49
0.0
 49
0.0
 49
0.0
 49
0.0
 49
1.0
175
     0
142
0.0208333333333333
142
0.0
142
0.0
142
0.0
142
0.0
142
0.0208333333333333
142
0.0
142
0.0
142
0.0
142
0.0
142
1.0
142
0.0
142
0.0
142
0.0
142
0.0
142
1.0
179
     0
144
0.0208333333333333
144
0.0
144
0.0
144
0.0
144
0.0
144
0.0208333333333333
144
0.0
144
0.0
144
0.0
144
0.0
144
1.0
144
0.0
144
0.0
144
0.0
144
0.0
144
1.0
147
0.0208333333333333
147
0.0
147
0.0
147
0.0
147
0.0
147
0.0208333333333333
147
0.0
147
0.0
147
0.0
147
0.0
147
1.0
147
0.0
147
0.0
147
0.0
147
0.0
147
1.0
  0
MATERIAL
  5
3340
102
{ACAD_XDICTIONARY
360
3341
102
}
102
{ACAD_REACTORS
330
333F
102
}
330
333F
100
AcDbMaterial
  1
ByLayer
 72
     0
 43
0.0208333333333333
 43
0.0
 43
0.0
 43
0.0
 43
0.0
 43
0.0208333333333333
 43
0.0
 43
0.0
 43
0.0
 43
0.0
 43
1.0
 43
0.0
 43
0.0
 43
0.0
 43
0.0
 43
1.0
 77
     0
 47
0.0208333333333333
 47
0.0
 47
0.0
 47
0.0
 47
0.0
 47
0.0208333333333333
 47
0.0
 47
0.0
 47
0.0
 47
0.0
 47
1.0
 47
0.0
 47
0.0
 47
0.0
 47
0.0
 47
1.0
171
     0
 49
0.0208333333333333
 49
0.0
 49
0.0
 49
0.0
 49
0.0
 49
0.0208333333333333
 49
0.0
 49
0.0
 49
0.0
 49
0.0
 49
1.0
 49
0.0
 49
0.0
 49
0.0
 49
0.0
 49
1.0
175
     0
142
0.0208333333333333
142
0.0
142
0.0
142
0.0
142
0.0
142
0.0208333333333333
142
0.0
142
0.0
142
0.0
142
0.0
142
1.0
142
0.0
142
0.0
142
0.0
142
0.0
142
1.0
179
     0
144
0.0208333333333333
144
0.0
144
0.0
144
0.0
144
0.0
144
0.0208333333333333
144
0.0
144
0.0
144
0.0
144
0.0
144
1.0
144
0.0
144
0.0
144
0.0
144
0.0
144
1.0
147
0.0208333333333333
147
0.0
147
0.0
147
0.0
147
0.0
147
0.0208333333333333
147
0.0
147
0.0
147
0.0
147
0.0
147
1.0
147
0.0
147
0.0
147
0.0
147
0.0
147
1.0
  0
MATERIAL
  5
3350
102
{ACAD_XDICTIONARY
360
3351
102
}
102
{ACAD_REACTORS
330
333F
102
}
330
333F
100
AcDbMaterial
  1
Global
 72
     0
 43
0.0208333333333333
 43
0.0
 43
0.0
 43
0.0
 43
0.0
 43
0.0208333333333333
 43
0.0
 43
0.0
 43
0.0
 43
0.0
 43
1.0
 43
0.0
 43
0.0
 43
0.0
 43
0.0
 43
1.0
 77
     0
 47
0.0208333333333333
 47
0.0
 47
0.0
 47
0.0
 47
0.0
 47
0.0208333333333333
 47
0.0
 47
0.0
 47
0.0
 47
0.0
 47
1.0
 47
0.0
 47
0.0
 47
0.0
 47
0.0
 47
1.0
171
     0
 49
0.0208333333333333
 49
0.0
 49
0.0
 49
0.0
 49
0.0
 49
0.0208333333333333
 49
0.0
 49
0.0
 49
0.0
 49
0.0
 49
1.0
 49
0.0
 49
0.0
 49
0.0
 49
0.0
 49
1.0
175
     0
142
0.0208333333333333
142
0.0
142
0.0
142
0.0
142
0.0
142
0.0208333333333333
142
0.0
142
0.0
142
0.0
142
0.0
142
1.0
142
0.0
142
0.0
142
0.0
142
0.0
142
1.0
179
     0
144
0.0208333333333333
144
0.0
144
0.0
144
0.0
144
0.0
144
0.0208333333333333
144
0.0
144
0.0
144
0.0
144
0.0
144
1.0
144
0.0
144
0.0
144
0.0
144
0.0
144
1.0
147
0.0208333333333333
147
0.0
147
0.0
147
0.0
147
0.0
147
0.0208333333333333
147
0.0
147
0.0
147
0.0
147
0.0
147
1.0
147
0.0
147
0.0
147
0.0
147
0.0
147
1.0
  0
MLEADERSTYLE
  5
3387
102
{ACAD_REACTORS
330
3386
102
}
330
3386
100
AcDbMLeaderStyle
170
     2
171
     1
172
     0
 90
        2
 40
0.0
 41
0.0
173
     1
 91
-1056964608
340
12
 92
       -2
290
     1
 42
0.09
291
     1
 43
0.36
  3
Standard
 44
0.18
300

342
F
174
     1
178
     6
175
     1
176
     0
 93
-1056964608
 45
0.18
292
     0
297
     0
 46
0.18
 94
-1056964608
 47
1.0
 49
1.0
140
1.0
293
     1
141
0.0
294
     1
177
     0
142
1.0
295
     0
296
     0
143
0.125
1001
ACAD_MLEADERVER
1070
     2
  0
MLINESTYLE
  5
1C
102
{ACAD_REACTORS
330
1B
102
}
330
1B
100
AcDbMlineStyle
  2
STANDARD
 70
     0
  3

 62
   256
 51
90.0
 52
90.0
 71
     2
 49
0.5
 62
   256
  6
BYLAYER
 49
-0.5
 62
   256
  6
BYLAYER
  0
ACDBPLACEHOLDER
  5
333E
102
{ACAD_REACTORS
330
333D
102
}
330
333D
  0
SCALE
  5
3375
102
{ACAD_REACTORS
330
3374
102
}
330
3374
100
AcDbScale
 70
     0
300
1:1
140
1.0
141
1.0
290
     1
  0
SCALE
  5
3376
102
{ACAD_REACTORS
330
3374
102
}
330
3374
100
AcDbScale
 70
     0
300
1/128" = 1'-0"
140
0.0078125
141
12.0
290
     0
  0
SCALE
  5
3377
102
{ACAD_REACTORS
330
3374
102
}
330
3374
100
AcDbScale
 70
     0
300
1/64" = 1'-0"
140
0.015625
141
12.0
290
     0
  0
SCALE
  5
3378
102
{ACAD_REACTORS
330
3374
102
}
330
3374
100
AcDbScale
 70
     0
300
1/32" = 1'-0"
140
0.03125
141
12.0
290
     0
  0
SCALE
  5
3379
102
{ACAD_REACTORS
330
3374
102
}
330
3374
100
AcDbScale
 70
     0
300
1/16" = 1'-0"
140
0.0625
141
12.0
290
     0
  0
SCALE
  5
337A
102
{ACAD_REACTORS
330
3374
102
}
330
3374
100
AcDbScale
 70
     0
300
3/32" = 1'-0"
140
0.09375
141
12.0
290
     0
  0
SCALE
  5
337B
102
{ACAD_REACTORS
330
3374
102
}
330
3374
100
AcDbScale
 70
     0
300
1/8" = 1'-0"
140
0.125
141
12.0
290
     0
  0
SCALE
  5
337C
102
{ACAD_REACTORS
330
3374
102
}
330
3374
100
AcDbScale
 70
     0
300
3/16" = 1'-0"
140
0.1875
141
12.0
290
     0
  0
SCALE
  5
337D
102
{ACAD_REACTORS
330
3374
102
}
330
3374
100
AcDbScale
 70
     0
300
1/4" = 1'-0"
140
0.25
141
12.0
290
     0
  0
SCALE
  5
337E
102
{ACAD_REACTORS
330
3374
102
}
330
3374
100
AcDbScale
 70
     0
300
3/8" = 1'-0"
140
0.375
141
12.0
290
     0
  0
SCALE
  5
337F
102
{ACAD_REACTORS
330
3374
102
}
330
3374
100
AcDbScale
 70
     0
300
1/2" = 1'-0"
140
0.5
141
12.0
290
     0
  0
SCALE
  5
3380
102
{ACAD_REACTORS
330
3374
102
}
330
3374
100
AcDbScale
 70
     0
300
3/4" = 1'-0"
140
0.75
141
12.0
290
     0
  0
SCALE
  5
3381
102
{ACAD_REACTORS
330
3374
102
}
330
3374
100
AcDbScale
 70
     0
300
1" = 1'-0"
140
1.0
141
12.0
290
     0
  0
SCALE
  5
3382
102
{ACAD_REACTORS
330
3374
102
}
330
3374
100
AcDbScale
 70
     0
300
1-1/2" = 1'-0"
140
1.5
141
12.0
290
     0
  0
SCALE
  5
3383
102
{ACAD_REACTORS
330
3374
102
}
330
3374
100
AcDbScale
 70
     0
300
3" = 1'-0"
140
3.0
141
12.0
290
     0
  0
SCALE
  5
3384
102
{ACAD_REACTORS
330
3374
102
}
330
3374
100
AcDbScale
 70
     0
300
6" = 1'-0"
140
6.0
141
12.0
290
     0
  0
SCALE
  5
3385
102
{ACAD_REACTORS
330
3374
102
}
330
3374
100
AcDbScale
 70
     0
300
1'-0" = 1'-0"
140
12.0
141
12.0
290
     0
  0
ACDBSECTIONVIEWSTYLE
  5
3389
102
{ACAD_XDICTIONARY
360
33E3
102
}
102
{ACAD_REACTORS
330
3388
102
}
330
3388
100
AcDbModelDocViewStyle
 70
     0
  3
Imperial24
290
     0
100
AcDbSectionViewStyle
 70
     0
 71
     0
 90
       78
 71
     1
340
F
 40
0.24
340
0
340
0
 40
0.24
300
I, O, Q, S, X, Z
 40
0.48
 90
        3
 40
0.18
 90
        1
 71
     2
340
14
 90
       25
340
14
 90
       50
 40
0.24
 40
0.0
 40
0.24
 71
     3
340
F
 40
0.24
 90
        1
 40
0.75
 90
        1
300
%<\AcVar ViewType \f "%tc1">% %<\AcVar ViewSectionStartId>%-%<\AcVar ViewSectionEndId>%\PSCALE %<\AcVar ViewScale \f "%sn">%
 71
     4
300
ANSI31
 40
1.0
 90
        0
290
     0
290
     0
 90
        6
 40
0.0
 40
1.570796326794896
 40
0.2617993877991494
 40
1.308996938995747
 40
-0.2617993877991494
 40
1.832595714594046
  0
TABLESTYLE
  5
3373
102
{ACAD_XDICTIONARY
360
33AA
102
}
102
{ACAD_REACTORS
330
3372
102
}
330
3372
100
AcDbTableStyle
  3
Standard
 70
     0
 71
     0
 40
0.06
 41
0.06
280
     0
281
     0
  7
STANDARD
140
0.18
170
     2
 62
     0
 63
     7
283
     0
274
    -2
284
     1
 64
     0
275
    -2
285
     1
 65
     0
276
    -2
286
     1
 66
     0
277
    -2
287
     1
 67
     0
278
    -2
288
     1
 68
     0
279
    -2
289
     1
 69
     0
  7
STANDARD
140
0.25
170
     5
 62
     0
 63
     7
283
     0
274
    -2
284
     1
 64
     0
275
    -2
285
     1
 65
     0
276
    -2
286
     1
 66
     0
277
    -2
287
     1
 67
     0
278
    -2
288
     1
 68
     0
279
    -2
289
     1
 69
     0
  7
STANDARD
140
0.18
170
     5
 62
     0
 63
     7
283
     0
274
    -2
284
     1
 64
     0
275
    -2
285
     1
 65
     0
276
    -2
286
     1
 66
     0
277
    -2
287
     1
 67
     0
278
    -2
288
     1
 68
     0
279
    -2
289
     1
 69
     0
  0
VISUALSTYLE
  5
335E
102
{ACAD_XDICTIONARY
360
33BB
102
}
102
{ACAD_REACTORS
330
3358
102
}
330
3358
100
AcDbVisualStyle
  2
2dWireframe
 70
     4
 71
     0
 72
     2
 73
     0
 90
        0
 40
-0.6
 41
-30.0
 62
     5
 63
     7
 74
     1
 91
        4
 64
     7
 65
   257
 75
     1
175
     1
 42
1.0
 92
        0
 66
   257
 43
1.0
 76
     1
 77
     6
 78
     2
 67
     7
 79
     5
170
     0
171
     0
290
     0
174
     0
 93
        1
 44
0.0
173
     0
291
     0
 45
0.0
1001
ACAD
1000
AcDbSavedByObjectVersion
1070
     0
  0
VISUALSTYLE
  5
335D
102
{ACAD_XDICTIONARY
360
33B9
102
}
102
{ACAD_REACTORS
330
3358
102
}
330
3358
100
AcDbVisualStyle
  2
Basic
 70
     7
 71
     1
 72
     0
 73
     1
 90
        0
 40
-0.6
 41
-30.0
 62
     5
 63
     7
 74
     0
 91
        4
 64
     7
 65
   257
 75
     1
175
     1
 42
1.0
 92
        8
 66
     7
 43
1.0
 76
     1
 77
     6
 78
     2
 67
     7
 79
     5
170
     0
171
     0
290
     0
174
     0
 93
        1
 44
0.0
173
     0
291
     1
 45
0.0
1001
ACAD
1000
AcDbSavedByObjectVersion
1070
     0
  0
VISUALSTYLE
  5
3364
102
{ACAD_XDICTIONARY
360
33C7
102
}
102
{ACAD_REACTORS
330
3358
102
}
330
3358
100
AcDbVisualStyle
  2
Brighten
 70
    12
 71
     2
 72
     2
 73
     0
 90
        0
 40
-0.6
 41
-30.0
 62
     5
 63
     7
 74
     1
 91
        4
 64
     7
 65
   257
 75
     1
175
     1
 42
1.0
 92
        8
 66
     7
 43
1.0
 76
     1
 77
     6
 78
     2
 67
     7
 79
     5
170
     0
171
     0
290
     0
174
     0
 93
        1
 44
50.0
173
     0
291
     1
 45
0.0
1001
ACAD
1000
AcDbSavedByObjectVersion
1070
     0
  0
VISUALSTYLE
  5
3368
102
{ACAD_XDICTIONARY
360
33CF
102
}
102
{ACAD_REACTORS
330
3358
102
}
330
3358
100
AcDbVisualStyle
  2
ColorChange
 70
    16
 71
     2
 72
     2
 73
     3
 90
        0
 40
-0.6
 41
-30.0
 62
     5
 63
     8
 74
     1
 91
        4
 64
     7
 65
   257
 75
     1
175
     1
 42
1.0
 92
        8
 66
     8
 43
1.0
 76
     1
 77
     6
 78
     2
 67
     7
 79
     5
170
     0
171
     0
290
     0
174
     0
 93
        1
 44
0.0
173
     0
291
     1
 45
0.0
1001
ACAD
1000
AcDbSavedByObjectVersion
1070
     0
  0
VISUALSTYLE
  5
3361
102
{ACAD_XDICTIONARY
360
33C1
102
}
102
{ACAD_REACTORS
330
3358
102
}
330
3358
100
AcDbVisualStyle
  2
Conceptual
 70
     9
 71
     3
 72
     2
 73
     0
 90
        0
 40
-0.6
 41
-30.0
 62
     5
 63
     7
 74
     2
 91
        2
 64
     7
 65
   257
 75
     1
175
     1
 42
179.0
 92
        8
 66
     7
 43
1.0
 76
     1
 77
     6
 78
     2
 67
     7
 79
     3
170
     0
171
     0
290
     0
174
     0
 93
        1
 44
0.0
173
     0
291
     0
 45
0.0
1001
ACAD
1000
AcDbSavedByObjectVersion
1070
     0
  0
VISUALSTYLE
  5
3363
102
{ACAD_XDICTIONARY
360
33C5
102
}
102
{ACAD_REACTORS
330
3358
102
}
330
3358
100
AcDbVisualStyle
  2
Dim
 70
    11
 71
     2
 72
     2
 73
     0
 90
        0
 40
-0.6
 41
-30.0
 62
     5
 63
     7
 74
     1
 91
        4
 64
     7
 65
   257
 75
     1
175
     1
 42
1.0
 92
        8
 66
     7
 43
1.0
 76
     1
 77
     6
 78
     2
 67
     7
 79
     5
170
     0
171
     0
290
     0
174
     0
 93
        1
 44
-50.0
173
     0
291
     1
 45
0.0
1001
ACAD
1000
AcDbSavedByObjectVersion
1070
     0
  0
VISUALSTYLE
  5
3370
102
{ACAD_XDICTIONARY
360
33DF
102
}
102
{ACAD_REACTORS
330
3358
102
}
330
3358
100
AcDbVisualStyle
  2
EdgeColorOff
 70
    22
 71
     2
 72
     2
 73
     0
 90
        0
 40
-0.6
 41
-30.0
 62
     5
 63
     7
 74
     1
 91
        4
 64
     7
 65
   257
 75
     1
175
     1
 42
1.0
 92
        8
 66
     7
 43
1.0
 76
     1
 77
     6
 78
     2
 67
     7
 79
     5
170
     0
171
     0
290
     0
174
     0
 93
        1
 44
0.0
173
     0
291
     1
 45
0.0
1001
ACAD
1000
AcDbSavedByObjectVersion
1070
     0
  0
VISUALSTYLE
  5
3367
102
{ACAD_XDICTIONARY
360
33CD
102
}
102
{ACAD_REACTORS
330
3358
102
}
330
3358
100
AcDbVisualStyle
  2
Facepattern
 70
    15
 71
     2
 72
     2
 73
     0
 90
        0
 40
-0.6
 41
-30.0
 62
     5
 63
     7
 74
     1
 91
        4
 64
     7
 65
   257
 75
     1
175
     1
 42
1.0
 92
        8
 66
     7
 43
1.0
 76
     1
 77
     6
 78
     2
 67
     7
 79
     5
170
     0
171
     0
290
     0
174
     0
 93
        1
 44
0.0
173
     0
291
     1
 45
0.0
1001
ACAD
1000
AcDbSavedByObjectVersion
1070
     0
  0
VISUALSTYLE
  5
3359
102
{ACAD_XDICTIONARY
360
33B1
102
}
102
{ACAD_REACTORS
330
3358
102
}
330
3358
100
AcDbVisualStyle
  2
Flat
 70
     0
 71
     2
 72
     1
 73
     1
 90
        2
 40
-0.6
 41
30.0
 62
     5
 63
     7
 74
     0
 91
        0
 64
     7
 65
   257
 75
     1
175
     1
 42
1.0
 92
        8
 66
     7
 43
1.0
 76
     1
 77
     6
 78
     2
 67
     7
 79
     5
170
     0
171
     0
290
     0
174
     0
 93
       13
 44
0.0
173
     0
291
     1
 45
0.0
1001
ACAD
1000
AcDbSavedByObjectVersion
1070
     0
  0
VISUALSTYLE
  5
335A
102
{ACAD_XDICTIONARY
360
33B3
102
}
102
{ACAD_REACTORS
330
3358
102
}
330
3358
100
AcDbVisualStyle
  2
FlatWithEdges
 70
     1
 71
     2
 72
     1
 73
     1
 90
        2
 40
-0.6
 41
30.0
 62
     5
 63
     7
 74
     1
 91
        0
 64
     7
 65
   257
 75
     1
175
     1
 42
1.0
 92
        0
 66
   257
 43
1.0
 76
     1
 77
     6
 78
     2
 67
     7
 79
     5
170
     0
171
     0
290
     0
174
     0
 93
       13
 44
0.0
173
     0
291
     1
 45
0.0
1001
ACAD
1000
AcDbSavedByObjectVersion
1070
     0
  0
VISUALSTYLE
  5
335B
102
{ACAD_XDICTIONARY
360
33B5
102
}
102
{ACAD_REACTORS
330
3358
102
}
330
3358
100
AcDbVisualStyle
  2
Gouraud
 70
     2
 71
     2
 72
     2
 73
     1
 90
        2
 40
-0.6
 41
30.0
 62
     5
 63
     7
 74
     0
 91
        0
 64
     7
 65
   257
 75
     1
175
     1
 42
1.0
 92
        0
 66
     7
 43
1.0
 76
     1
 77
     6
 78
     2
 67
     7
 79
     5
170
     0
171
     0
290
     0
174
     0
 93
       13
 44
0.0
173
     0
291
     1
 45
0.0
1001
ACAD
1000
AcDbSavedByObjectVersion
1070
     0
  0
VISUALSTYLE
  5
335C
102
{ACAD_XDICTIONARY
360
33B7
102
}
102
{ACAD_REACTORS
330
3358
102
}
330
3358
100
AcDbVisualStyle
  2
GouraudWithEdges
 70
     3
 71
     2
 72
     2
 73
     1
 90
        2
 40
-0.6
 41
30.0
 62
     5
 63
     7
 74
     1
 91
        0
 64
     7
 65
   257
 75
     1
175
     1
 42
1.0
 92
        0
 66
   257
 43
1.0
 76
     1
 77
     6
 78
     2
 67
     7
 79
     5
170
     0
171
     0
290
     0
174
     0
 93
       13
 44
0.0
173
     0
291
     1
 45
0.0
1001
ACAD
1000
AcDbSavedByObjectVersion
1070
     0
  0
VISUALSTYLE
  5
3360
102
{ACAD_XDICTIONARY
360
33BF
102
}
102
{ACAD_REACTORS
330
3358
102
}
330
3358
100
AcDbVisualStyle
  2
Hidden
 70
     6
 71
     1
 72
     2
 73
     2
 90
        0
 40
-0.6
 41
-30.0
 62
     5
 63
     7
 74
     2
 91
        2
 64
     7
 65
   257
 75
     2
175
     1
 42
40.0
 92
        0
 66
   257
 43
1.0
 76
     1
 77
     6
 78
     2
 67
     7
 79
     3
170
     0
171
     0
290
     0
174
     0
 93
        1
 44
0.0
173
     0
291
     0
 45
0.0
1001
ACAD
1000
AcDbSavedByObjectVersion
1070
     0
  0
VISUALSTYLE
  5
336E
102
{ACAD_XDICTIONARY
360
33DB
102
}
102
{ACAD_REACTORS
330
3358
102
}
330
3358
100
AcDbVisualStyle
  2
JitterOff
 70
    20
 71
     2
 72
     2
 73
     0
 90
        0
 40
-0.6
 41
-30.0
 62
     5
 63
     7
 74
     1
 91
        4
 64
     7
 65
   257
 75
     1
175
     1
 42
1.0
 92
       10
 66
     7
 43
1.0
 76
     1
 77
     6
 78
     2
 67
     7
 79
     5
170
     0
171
     0
290
     0
174
     0
 93
        1
 44
0.0
173
     0
291
     1
 45
0.0
1001
ACAD
1000
AcDbSavedByObjectVersion
1070
     0
  0
VISUALSTYLE
  5
3366
102
{ACAD_XDICTIONARY
360
33CB
102
}
102
{ACAD_REACTORS
330
3358
102
}
330
3358
100
AcDbVisualStyle
  2
Linepattern
 70
    14
 71
     2
 72
     2
 73
     0
 90
        0
 40
-0.6
 41
-30.0
 62
     5
 63
     7
 74
     1
 91
        4
 64
     7
 65
   257
 75
     7
175
     7
 42
1.0
 92
        8
 66
     7
 43
1.0
 76
     1
 77
     6
 78
     2
 67
     7
 79
     5
170
     0
171
     0
290
     0
174
     0
 93
        1
 44
0.0
173
     0
291
     1
 45
0.0
1001
ACAD
1000
AcDbSavedByObjectVersion
1070
     0
  0
VISUALSTYLE
  5
336F
102
{ACAD_XDICTIONARY
360
33DD
102
}
102
{ACAD_REACTORS
330
3358
102
}
330
3358
100
AcDbVisualStyle
  2
OverhangOff
 70
    21
 71
     2
 72
     2
 73
     0
 90
        0
 40
-0.6
 41
-30.0
 62
     5
 63
     7
 74
     1
 91
        4
 64
     7
 65
   257
 75
     1
175
     1
 42
1.0
 92
        9
 66
     7
 43
1.0
 76
     1
 77
     6
 78
     2
 67
     7
 79
     5
170
     0
171
     0
290
     0
174
     0
 93
        1
 44
0.0
173
     0
291
     1
 45
0.0
1001
ACAD
1000
AcDbSavedByObjectVersion
1070
     0
  0
VISUALSTYLE
  5
3362
102
{ACAD_XDICTIONARY
360
33C3
102
}
102
{ACAD_REACTORS
330
3358
102
}
330
3358
100
AcDbVisualStyle
  2
Realistic
 70
     8
 71
     2
 72
     3
 73
     0
 90
        2
 40
-0.6
 41
30.0
 62
     5
 63
     7
 74
     0
 91
        0
 64
     7
 65
   257
 75
     1
175
     1
 42
1.0
 92
        8
 66
   257
 43
1.0
 76
     1
 77
     6
 78
     2
 67
     7
 79
     3
170
     0
171
     0
290
     0
174
     0
 93
       13
 44
0.0
173
     0
291
     0
 45
0.0
1001
ACAD
1000
AcDbSavedByObjectVersion
1070
     0
  0
VISUALSTYLE
  5
336D
102
{ACAD_XDICTIONARY
360
33D9
102
}
102
{ACAD_REACTORS
330
3358
102
}
330
3358
100
AcDbVisualStyle
  2
Shaded
 70
    27
 71
     2
 72
     2
 73
     1
 90
        2
 40
-0.6
 41
30.0
 62
     5
 63
     7
 74
     0
 91
        4
 64
     7
 65
   257
 75
     1
175
     1
 42
1.0
 92
        8
 66
   257
 43
1.0
 76
     1
 77
     6
 78
     2
 67
     8
 79
     3
170
     0
171
     0
290
     0
174
     0
 93
        5
 44
0.0
173
     0
291
     0
 45
0.0
1001
ACAD
1000
AcDbSavedByObjectVersion
1070
     0
  0
VISUALSTYLE
  5
336C
102
{ACAD_XDICTIONARY
360
33D7
102
}
102
{ACAD_REACTORS
330
3358
102
}
330
3358
100
AcDbVisualStyle
  2
Shaded with edges
 70
    26
 71
     2
 72
     2
 73
     1
 90
        2
 40
-0.6
 41
30.0
 62
     5
 63
     7
 74
     1
 91
       10
 64
     7
 65
   257
 75
     2
175
     1
 42
1.0
 92
        8
 66
   257
 43
1.0
 76
     1
 77
     6
 78
     2
 67
     7
 79
     3
170
     0
171
     0
290
     0
174
     0
 93
        5
 44
0.0
173
     0
291
     0
 45
0.0
1001
ACAD
1000
AcDbSavedByObjectVersion
1070
     0
  0
VISUALSTYLE
  5
3369
102
{ACAD_XDICTIONARY
360
33D1
102
}
102
{ACAD_REACTORS
330
3358
102
}
330
3358
100
AcDbVisualStyle
  2
Shades of Gray
 70
    23
 71
     2
 72
     2
 73
     3
 90
        0
 40
-0.6
 41
-30.0
 62
     5
 63
     7
 74
     2
 91
        2
 64
     7
 65
     7
 75
     1
175
     1
 42
40.0
 92
        8
 66
     7
 43
1.0
 76
     1
 77
     6
 78
     2
 67
     7
 79
     3
170
     0
171
     0
290
     0
174
     0
 93
        1
 44
0.0
173
     0
291
     0
 45
0.0
1001
ACAD
1000
AcDbSavedByObjectVersion
1070
     0
  0
VISUALSTYLE
  5
336A
102
{ACAD_XDICTIONARY
360
33D3
102
}
102
{ACAD_REACTORS
330
3358
102
}
330
3358
100
AcDbVisualStyle
  2
Sketchy
 70
    24
 71
     1
 72
     2
 73
     2
 90
        0
 40
-0.6
 41
-30.0
 62
     5
 63
     7
 74
     2
 91
        2
 64
     7
 65
     7
 75
     1
175
     1
 42
40.0
 92
       11
 66
     7
 43
1.0
 76
     1
 77
     6
 78
     2
 67
     7
 79
     6
170
     0
171
     0
290
     0
174
     0
 93
        1
 44
0.0
173
     0
291
     0
 45
0.0
1001
ACAD
1000
AcDbSavedByObjectVersion
1070
     0
  0
VISUALSTYLE
  5
3365
102
{ACAD_XDICTIONARY
360
33C9
102
}
102
{ACAD_REACTORS
330
3358
102
}
330
3358
100
AcDbVisualStyle
  2
Thicken
 70
    13
 71
     2
 72
     2
 73
     0
 90
        0
 40
-0.6
 41
-30.0
 62
     5
 63
     7
 74
     1
 91
        4
 64
     7
 65
   257
 75
     1
175
     1
 42
1.0
 92
       12
 66
     7
 43
1.0
 76
     1
 77
     6
 78
     2
 67
     7
 79
     5
170
     0
171
     0
290
     0
174
     0
 93
        1
 44
0.0
173
     0
291
     1
 45
0.0
1001
ACAD
1000
AcDbSavedByObjectVersion
1070
     0
  0
VISUALSTYLE
  5
335F
102
{ACAD_XDICTIONARY
360
33BD
102
}
102
{ACAD_REACTORS
330
3358
102
}
330
3358
100
AcDbVisualStyle
  2
Wireframe
 70
     5
 71
     0
 72
     2
 73
     0
 90
        0
 40
-0.6
 41
-30.0
 62
     5
 63
     7
 74
     1
 91
        4
 64
     7
 65
   257
 75
     1
175
     1
 42
1.0
 92
        0
 66
   257
 43
1.0
 76
     1
 77
     6
 78
     2
 67
     7
 79
     3
170
     0
171
     0
290
     0
174
     0
 93
        1
 44
0.0
173
     0
291
     0
 45
0.0
1001
ACAD
1000
AcDbSavedByObjectVersion
1070
     0
  0
VISUALSTYLE
  5
336B
102
{ACAD_XDICTIONARY
360
33D5
102
}
102
{ACAD_REACTORS
330
3358
102
}
330
3358
100
AcDbVisualStyle
  2
X-Ray
 70
    25
 71
     2
 72
     2
 73
     1
 90
        1
 40
0.5
 41
-30.0
 62
     5
 63
     7
 74
     1
 91
        0
 64
     7
 65
   257
 75
     1
175
     1
 42
1.0
 92
        8
 66
     7
 43
1.0
 76
     1
 77
     6
 78
     2
 67
     7
 79
     3
170
     0
171
     0
290
     0
174
     0
 93
       13
 44
0.0
173
     0
291
     0
 45
0.0
1001
ACAD
1000
AcDbSavedByObjectVersion
1070
     0
  0
DICTIONARYVAR
  5
33A4
102
{ACAD_REACTORS
330
339F
102
}
330
339F
100
DictionaryVariables
280
     0
  1
1:1
  0
DICTIONARYVAR
  5
33A1
102
{ACAD_REACTORS
330
339F
102
}
330
339F
100
DictionaryVariables
280
     0
  1
STANDARD
  0
DICTIONARYVAR
  5
33A0
102
{ACAD_REACTORS
330
339F
102
}
330
339F
100
DictionaryVariables
280
     0
  1
STANDARD
  0
DICTIONARYVAR
  5
33A2
102
{ACAD_REACTORS
330
339F
102
}
330
339F
100
DictionaryVariables
280
     0
  1
Imperial24
  0
DICTIONARYVAR
  5
33A3
102
{ACAD_REACTORS
330
339F
102
}
330
339F
100
DictionaryVariables
280
     0
  1
Imperial24
  0
DICTIONARYVAR
  5
33A7
102
{ACAD_REACTORS
330
339F
102
}
330
339F
100
DictionaryVariables
280
     0
  1
1
  0
DICTIONARYVAR
  5
33A6
102
{ACAD_REACTORS
330
339F
102
}
330
339F
100
DictionaryVariables
280
     0
  1
0
  0
DICTIONARYVAR
  5
33A5
102
{ACAD_REACTORS
330
339F
102
}
330
339F
100
DictionaryVariables
280
     0
  1
127
  0
DICTIONARYVAR
  5
33A8
102
{ACAD_REACTORS
330
339F
102
}
330
339F
100
DictionaryVariables
280
     0
  1
2
  0
DICTIONARY
  5
33E5
330
338B
100
AcDbDictionary
280
     1
281
     1
  3
ACAD_XREC_ROUNDTRIP
360
33E6
  0
DICTIONARY
  5
33E7
330
338C
100
AcDbDictionary
280
     1
281
     1
  3
ACAD_XREC_ROUNDTRIP
360
33E8
  0
DICTIONARY
  5
33E9
330
338D
100
AcDbDictionary
280
     1
281
     1
  3
ACAD_XREC_ROUNDTRIP
360
33EA
  0
DICTIONARY
  5
3349
330
3348
100
AcDbDictionary
280
     1
281
     1
  3
ACAD_XREC_ROUNDTRIP
360
33AF
  3
BUMPTILE
360
334B
  3
DIFFUSETILE
360
334A
  3
OPACITYTILE
360
334E
  3
REFLECTIONTILE
360
334D
  3
REFRACTIONTILE
360
334F
  3
SPECULARTILE
360
334C
  0
DICTIONARY
  5
3341
330
3340
100
AcDbDictionary
280
     1
281
     1
  3
ACAD_XREC_ROUNDTRIP
360
33AE
  3
BUMPTILE
360
3343
  3
DIFFUSETILE
360
3342
  3
OPACITYTILE
360
3346
  3
REFLECTIONTILE
360
3345
  3
REFRACTIONTILE
360
3347
  3
SPECULARTILE
360
3344
  0
DICTIONARY
  5
3351
330
3350
100
AcDbDictionary
280
     1
281
     1
  3
ACAD_XREC_ROUNDTRIP
360
33B0
  3
BUMPTILE
360
3353
  3
DIFFUSETILE
360
3352
  3
OPACITYTILE
360
3356
  3
REFLECTIONTILE
360
3355
  3
REFRACTIONTILE
360
3357
  3
SPECULARTILE
360
3354
  0
DICTIONARY
  5
33E3
330
3389
100
AcDbDictionary
280
     1
281
     1
  3
ACAD_XREC_ROUNDTRIP
360
33E4
  0
DICTIONARY
  5
33AA
330
3373
100
AcDbDictionary
280
     1
281
     1
  3
ACAD_ROUNDTRIP_2008_TABLESTYLE_CELLSTYLEMAP
360
33AB
  3
ACAD_XREC_ROUNDTRIP
360
33E1
  0
DICTIONARY
  5
33BB
330
335E
100
AcDbDictionary
280
     1
281
     1
  3
ACAD_XREC_ROUNDTRIP
360
33BC
  0
DICTIONARY
  5
33B9
330
335D
100
AcDbDictionary
280
     1
281
     1
  3
ACAD_XREC_ROUNDTRIP
360
33BA
  0
DICTIONARY
  5
33C7
330
3364
100
AcDbDictionary
280
     1
281
     1
  3
ACAD_XREC_ROUNDTRIP
360
33C8
  0
DICTIONARY
  5
33CF
330
3368
100
AcDbDictionary
280
     1
281
     1
  3
ACAD_XREC_ROUNDTRIP
360
33D0
  0
DICTIONARY
  5
33C1
330
3361
100
AcDbDictionary
280
     1
281
     1
  3
ACAD_XREC_ROUNDTRIP
360
33C2
  0
DICTIONARY
  5
33C5
330
3363
100
AcDbDictionary
280
     1
281
     1
  3
ACAD_XREC_ROUNDTRIP
360
33C6
  0
DICTIONARY
  5
33DF
330
3370
100
AcDbDictionary
280
     1
281
     1
  3
ACAD_XREC_ROUNDTRIP
360
33E0
  0
DICTIONARY
  5
33CD
330
3367
100
AcDbDictionary
280
     1
281
     1
  3
ACAD_XREC_ROUNDTRIP
360
33CE
  0
DICTIONARY
  5
33B1
330
3359
100
AcDbDictionary
280
     1
281
     1
  3
ACAD_XREC_ROUNDTRIP
360
33B2
  0
DICTIONARY
  5
33B3
330
335A
100
AcDbDictionary
280
     1
281
     1
  3
ACAD_XREC_ROUNDTRIP
360
33B4
  0
DICTIONARY
  5
33B5
330
335B
100
AcDbDictionary
280
     1
281
     1
  3
ACAD_XREC_ROUNDTRIP
360
33B6
  0
DICTIONARY
  5
33B7
330
335C
100
AcDbDictionary
280
     1
281
     1
  3
ACAD_XREC_ROUNDTRIP
360
33B8
  0
DICTIONARY
  5
33BF
330
3360
100
AcDbDictionary
280
     1
281
     1
  3
ACAD_XREC_ROUNDTRIP
360
33C0
  0
DICTIONARY
  5
33DB
330
336E
100
AcDbDictionary
280
     1
281
     1
  3
ACAD_XREC_ROUNDTRIP
360
33DC
  0
DICTIONARY
  5
33CB
330
3366
100
AcDbDictionary
280
     1
281
     1
  3
ACAD_XREC_ROUNDTRIP
360
33CC
  0
DICTIONARY
  5
33DD
330
336F
100
AcDbDictionary
280
     1
281
     1
  3
ACAD_XREC_ROUNDTRIP
360
33DE
  0
DICTIONARY
  5
33C3
330
3362
100
AcDbDictionary
280
     1
281
     1
  3
ACAD_XREC_ROUNDTRIP
360
33C4
  0
DICTIONARY
  5
33D9
330
336D
100
AcDbDictionary
280
     1
281
     1
  3
ACAD_XREC_ROUNDTRIP
360
33DA
  0
DICTIONARY
  5
33D7
330
336C
100
AcDbDictionary
280
     1
281
     1
  3
ACAD_XREC_ROUNDTRIP
360
33D8
  0
DICTIONARY
  5
33D1
330
3369
100
AcDbDictionary
280
     1
281
     1
  3
ACAD_XREC_ROUNDTRIP
360
33D2
  0
DICTIONARY
  5
33D3
330
336A
100
AcDbDictionary
280
     1
281
     1
  3
ACAD_XREC_ROUNDTRIP
360
33D4
  0
DICTIONARY
  5
33C9
330
3365
100
AcDbDictionary
280
     1
281
     1
  3
ACAD_XREC_ROUNDTRIP
360
33CA
  0
DICTIONARY
  5
33BD
330
335F
100
AcDbDictionary
280
     1
281
     1
  3
ACAD_XREC_ROUNDTRIP
360
33BE
  0
DICTIONARY
  5
33D5
330
336B
100
AcDbDictionary
280
     1
281
     1
  3
ACAD_XREC_ROUNDTRIP
360
33D6
  0
XRECORD
  5
33E6
102
{ACAD_REACTORS
330
33E5
102
}
330
33E5
100
AcDbXrecord
280
     1
102
DISPLAYNAME
  1
Imperial24
102
FLAGS
 90
        0
  0
XRECORD
  5
33E8
102
{ACAD_REACTORS
330
33E7
102
}
330
33E7
100
AcDbXrecord
280
     1
102
SHADEPLOT
 70
     0
102
SHADEPLOTRESLEVEL
 70
     2
102
SHADEPLOTCUSTOMDPI
 70
   300
  0
XRECORD
  5
33EA
102
{ACAD_REACTORS
330
33E9
102
}
330
33E9
100
AcDbXrecord
280
     1
102
SHADEPLOT
 70
     0
102
SHADEPLOTRESLEVEL
 70
     2
102
SHADEPLOTCUSTOMDPI
 70
   300
  0
XRECORD
  5
33AF
102
{ACAD_REACTORS
330
3349
102
}
330
3349
100
AcDbXrecord
280
     1
102
MATERIAL
148
0.0
149
0.0
149
0.0
 93
        0
 94
      127
282
     0
 72
     0
 77
     0
171
     0
175
     0
179
     0
273
     0
  0
XRECORD
  5
334B
102
{ACAD_REACTORS
330
3349
102
}
330
3349
100
AcDbXrecord
280
     1
270
     1
271
     1
  0
XRECORD
  5
334A
102
{ACAD_REACTORS
330
3349
102
}
330
3349
100
AcDbXrecord
280
     1
270
     1
271
     1
  0
XRECORD
  5
334E
102
{ACAD_REACTORS
330
3349
102
}
330
3349
100
AcDbXrecord
280
     1
270
     1
271
     1
  0
XRECORD
  5
334D
102
{ACAD_REACTORS
330
3349
102
}
330
3349
100
AcDbXrecord
280
     1
270
     1
271
     1
  0
XRECORD
  5
334F
102
{ACAD_REACTORS
330
3349
102
}
330
3349
100
AcDbXrecord
280
     1
270
     1
271
     1
  0
XRECORD
  5
334C
102
{ACAD_REACTORS
330
3349
102
}
330
3349
100
AcDbXrecord
280
     1
270
     1
271
     1
  0
XRECORD
  5
33AE
102
{ACAD_REACTORS
330
3341
102
}
330
3341
100
AcDbXrecord
280
     1
102
MATERIAL
148
0.0
149
0.0
149
0.0
 93
        0
 94
      127
282
     0
 72
     0
 77
     0
171
     0
175
     0
179
     0
273
     0
  0
XRECORD
  5
3343
102
{ACAD_REACTORS
330
3341
102
}
330
3341
100
AcDbXrecord
280
     1
270
     1
271
     1
  0
XRECORD
  5
3342
102
{ACAD_REACTORS
330
3341
102
}
330
3341
100
AcDbXrecord
280
     1
270
     1
271
     1
  0
XRECORD
  5
3346
102
{ACAD_REACTORS
330
3341
102
}
330
3341
100
AcDbXrecord
280
     1
270
     1
271
     1
  0
XRECORD
  5
3345
102
{ACAD_REACTORS
330
3341
102
}
330
3341
100
AcDbXrecord
280
     1
270
     1
271
     1
  0
XRECORD
  5
3347
102
{ACAD_REACTORS
330
3341
102
}
330
3341
100
AcDbXrecord
280
     1
270
     1
271
     1
  0
XRECORD
  5
3344
102
{ACAD_REACTORS
330
3341
102
}
330
3341
100
AcDbXrecord
280
     1
270
     1
271
     1
  0
XRECORD
  5
33B0
102
{ACAD_REACTORS
330
3351
102
}
330
3351
100
AcDbXrecord
280
     1
102
MATERIAL
148
0.0
149
0.0
149
0.0
 93
        0
 94
      127
282
     0
 72
     0
 77
     0
171
     0
175
     0
179
     0
273
     0
  0
XRECORD
  5
3353
102
{ACAD_REACTORS
330
3351
102
}
330
3351
100
AcDbXrecord
280
     1
270
     1
271
     1
  0
XRECORD
  5
3352
102
{ACAD_REACTORS
330
3351
102
}
330
3351
100
AcDbXrecord
280
     1
270
     1
271
     1
  0
XRECORD
  5
3356
102
{ACAD_REACTORS
330
3351
102
}
330
3351
100
AcDbXrecord
280
     1
270
     1
271
     1
  0
XRECORD
  5
3355
102
{ACAD_REACTORS
330
3351
102
}
330
3351
100
AcDbXrecord
280
     1
270
     1
271
     1
  0
XRECORD
  5
3357
102
{ACAD_REACTORS
330
3351
102
}
330
3351
100
AcDbXrecord
280
     1
270
     1
271
     1
  0
XRECORD
  5
3354
102
{ACAD_REACTORS
330
3351
102
}
330
3351
100
AcDbXrecord
280
     1
270
     1
271
     1
  0
XRECORD
  5
33E4
102
{ACAD_REACTORS
330
33E3
102
}
330
33E3
100
AcDbXrecord
280
     1
102
DISPLAYNAME
  1
Imperial24
102
FLAGS
 90
        0
  0
CELLSTYLEMAP
  5
33AB
102
{ACAD_REACTORS
330
33AA
102
}
330
33AA
100
AcDbCellStyleMap
 90
        3
300
CELLSTYLE
  1
TABLEFORMAT_BEGIN
 90
        5
170
     1
 91
        0
 92
    32768
 62
   257
 93
        1
300
CONTENTFORMAT
  1
CONTENTFORMAT_BEGIN
 90
        0
 91
        0
 92
      512
 93
        0
300

 40
0.0
140
1.0
 94
        5
 62
     0
340
F
144
0.25
309
CONTENTFORMAT_END
171
     0
 94
        0
309
TABLEFORMAT_END
  1
CELLSTYLE_BEGIN
 90
        1
 91
        1
300
_TITLE
309
CELLSTYLE_END
300
CELLSTYLE
  1
TABLEFORMAT_BEGIN
 90
        5
170
     1
 91
        0
 92
        0
 62
   257
 93
        1
300
CONTENTFORMAT
  1
CONTENTFORMAT_BEGIN
 90
        0
 91
        0
 92
      512
 93
        0
300

 40
0.0
140
1.0
 94
        5
 62
     0
340
F
144
0.18
309
CONTENTFORMAT_END
171
     0
 94
        0
309
TABLEFORMAT_END
  1
CELLSTYLE_BEGIN
 90
        2
 91
        1
300
_HEADER
309
CELLSTYLE_END
300
CELLSTYLE
  1
TABLEFORMAT_BEGIN
 90
        5
170
     1
 91
        0
 92
        0
 62
   257
 93
        1
300
CONTENTFORMAT
  1
CONTENTFORMAT_BEGIN
 90
        0
 91
        0
 92
      512
 93
        0
300

 40
0.0
140
1.0
 94
        2
 62
     0
340
F
144
0.18
309
CONTENTFORMAT_END
171
     0
 94
        0
309
TABLEFORMAT_END
  1
CELLSTYLE_BEGIN
 90
        3
 91
        2
300
_DATA
309
CELLSTYLE_END
  0
XRECORD
  5
33E1
102
{ACAD_REACTORS
330
33AA
102
}
330
33AA
100
AcDbXrecord
280
     1
102
ACAD_ROUNDTRIP_PRE2007_TABLESTYLE
 90
      512
 91
        0
  1

 92
      512
 93
        0
  2

 94
      512
 95
        0
  3

  0
XRECORD
  5
33BC
102
{ACAD_REACTORS
330
33BB
102
}
330
33BB
100
AcDbXrecord
280
     1
102
RTVSPost2010Prop28
280
     1
102
RTVSPost2010PropOp28
 70
     1
102
RTVSPost2010Prop29
280
     1
102
RTVSPost2010PropOp29
 70
     1
102
RTVSPost2010Prop30
280
     0
102
RTVSPost2010PropOp30
 70
     1
102
RTVSPost2010Prop31
280
     0
102
RTVSPost2010PropOp31
 70
     1
102
RTVSPost2010Prop32
280
     0
102
RTVSPost2010PropOp32
 70
     1
102
RTVSPost2010Prop33
280
     0
102
RTVSPost2010PropOp33
 70
     1
102
RTVSPost2010Prop34
280
     0
102
RTVSPost2010PropOp34
 70
     1
102
RTVSPost2010Prop35
280
     0
102
RTVSPost2010PropOp35
 70
     1
102
RTVSPost2010Prop36
280
     0
102
RTVSPost2010PropOp36
 70
     1
102
RTVSPost2010Prop37
 90
       50
102
RTVSPost2010PropOp37
 70
     1
102
RTVSPost2010Prop38
140
0.0
102
RTVSPost2010PropOp38
 70
     1
102
RTVSPost2010Prop39
140
1.0
102
RTVSPost2010PropOp39
 70
     1
102
RTVSPost2010Prop40
 90
        0
102
RTVSPost2010PropOp40
 70
     1
102
RTVSPost2010Prop41ColorIndex
 90
       18
102
RTVSPost2010Prop41ColorRGB
 90
        0
102
RTVSPost2010PropOp41
 70
     1
102
RTVSPost2010Prop42
 90
       50
102
RTVSPost2010PropOp42
 70
     1
102
RTVSPost2010Prop43
 90
        3
102
RTVSPost2010PropOp43
 70
     1
102
RTVSPost2010Prop44ColorIndex
 90
        5
102
RTVSPost2010Prop44ColorRGB
 90
      255
102
RTVSPost2010PropOp44
 70
     1
102
RTVSPost2010Prop45
280
     0
102
RTVSPost2010PropOp45
 70
     1
102
RTVSPost2010Prop46
 90
       50
102
RTVSPost2010PropOp46
 70
     1
102
RTVSPost2010Prop47
 90
       50
102
RTVSPost2010PropOp47
 70
     1
102
RTVSPost2010Prop48
 90
       50
102
RTVSPost2010PropOp48
 70
     1
102
RTVSPost2010Prop49
280
     0
102
RTVSPost2010PropOp49
 70
     1
102
RTVSPost2010Prop50
 90
       50
102
RTVSPost2010PropOp50
 70
     1
102
RTVSPost2010Prop51ColorIndex
 90
      256
102
RTVSPost2010Prop51ColorRGB
 90
-16777216
102
RTVSPost2010PropOp51
 70
     0
102
RTVSPost2010Prop52
140
1.0
102
RTVSPost2010PropOp52
 70
     0
102
RTVSPost2010Prop53
 90
        2
102
RTVSPost2010PropOp53
 70
     1
102
RTVSPost2010Prop54
  1
strokes_ogs.tif
102
RTVSPost2010PropOp54
 70
     1
102
RTVSPost2010Prop55
280
     0
102
RTVSPost2010PropOp55
 70
     1
102
RTVSPost2010Prop56
140
1.0
102
RTVSPost2010PropOp56
 70
     1
102
RTVSPost2010Prop57
140
1.0
102
RTVSPost2010PropOp57
 70
     1
102
RTVSPropertyOp0
 70
     1
102
RTVSPropertyOp1
 70
     1
102
RTVSPropertyOp2
 70
     1
102
RTVSPropertyOp3
 70
     1
102
RTVSPropertyOp4
 70
     1
102
RTVSPropertyOp5
 70
     1
102
RTVSPropertyOp6
 70
     1
102
RTVSPropertyOp7
 70
     1
102
RTVSPropertyOp8
 70
     1
102
RTVSPropertyOp9
 70
     1
102
RTVSPropertyOp10
 70
     1
102
RTVSPropertyOp11
 70
     1
102
RTVSPropertyOp12
 70
     1
102
RTVSPropertyOp13
 70
     1
102
RTVSPropertyOp14
 70
     1
102
RTVSPropertyOp15
 70
     1
102
RTVSPropertyOp16
 70
     1
102
RTVSPropertyOp17
 70
     1
102
RTVSPropertyOp18
 70
     1
102
RTVSPropertyOp19
 70
     1
102
RTVSPropertyOp20
 70
     1
102
RTVSPropertyOp21
 70
     1
102
RTVSPropertyOp22
 70
     1
102
RTVSPropertyOp23
 70
     1
102
RTVSPropertyOp24
 70
     1
102
RTVSPropertyOp25
 70
     1
102
RTVSPropertyOp26
 70
     1
102
RTVSPropertyOp27
 70
     1
102
RTVSPropertyOp28
 70
     1
102
RTVSPropertyOp29
 70
     1
102
RTVSPropertyOp30
 70
     1
102
RTVSPropertyOp31
 70
     1
102
RTVSPropertyOp32
 70
     1
102
RTVSPropertyOp33
 70
     1
102
RTVSPropertyOp34
 70
     1
102
RTVSPropertyOp35
 70
     1
102
RTVSPropertyOp36
 70
     1
102
RTVSPropertyOp37
 70
     1
102
RTVSPropertyOp38
 70
     1
102
RTVSPropertyOp39
 70
     1
102
RTVSPropertyOp40
 70
     1
102
RTVSPropertyOp41
 70
     1
102
RTVSPropertyOp42
 70
     1
102
RTVSPropertyOp43
 70
     1
102
RTVSPropertyOp44
 70
     1
102
RTVSPropertyOp45
 70
     1
102
RTVSPropertyOp46
 70
     1
102
RTVSPropertyOp47
 70
     1
102
RTVSPropertyOp48
 70
     1
102
RTVSPropertyOp49
 70
     1
102
RTVSPropertyOp50
 70
     1
102
RTVSPropertyOp51
 70
     0
102
RTVSPropertyOp52
 70
     0
102
RTVSPropertyOp53
 70
     1
102
RTVSPropertyOp54
 70
     1
102
RTVSPropertyOp55
 70
     1
102
RTVSPropertyOp56
 70
     1
102
RTVSPropertyOp57
 70
     1
102
RTVSPropertyOp58
 70
     1
102
RTVSPropertyOp59
 70
     1
102
RTVSPropertyOp60
 70
     1
102
RTVSPropertyOp61
 70
     1
102
RTVSPropertyOp62
 70
     1
  0
XRECORD
  5
33BA
102
{ACAD_REACTORS
330
33B9
102
}
330
33B9
100
AcDbXrecord
280
     1
102
RTVSPost2010Prop28
280
     0
102
RTVSPost2010PropOp28
 70
     1
102
RTVSPost2010Prop29
280
     1
102
RTVSPost2010PropOp29
 70
     1
102
RTVSPost2010Prop30
280
     1
102
RTVSPost2010PropOp30
 70
     1
102
RTVSPost2010Prop31
280
     0
102
RTVSPost2010PropOp31
 70
     1
102
RTVSPost2010Prop32
280
     0
102
RTVSPost2010PropOp32
 70
     1
102
RTVSPost2010Prop33
280
     0
102
RTVSPost2010PropOp33
 70
     1
102
RTVSPost2010Prop34
280
     0
102
RTVSPost2010PropOp34
 70
     1
102
RTVSPost2010Prop35
280
     0
102
RTVSPost2010PropOp35
 70
     1
102
RTVSPost2010Prop36
280
     0
102
RTVSPost2010PropOp36
 70
     1
102
RTVSPost2010Prop37
 90
       50
102
RTVSPost2010PropOp37
 70
     1
102
RTVSPost2010Prop38
140
0.0
102
RTVSPost2010PropOp38
 70
     1
102
RTVSPost2010Prop39
140
1.0
102
RTVSPost2010PropOp39
 70
     1
102
RTVSPost2010Prop40
 90
        0
102
RTVSPost2010PropOp40
 70
     1
102
RTVSPost2010Prop41ColorIndex
 90
       18
102
RTVSPost2010Prop41ColorRGB
 90
        0
102
RTVSPost2010PropOp41
 70
     1
102
RTVSPost2010Prop42
 90
       50
102
RTVSPost2010PropOp42
 70
     1
102
RTVSPost2010Prop43
 90
        3
102
RTVSPost2010PropOp43
 70
     1
102
RTVSPost2010Prop44ColorIndex
 90
        5
102
RTVSPost2010Prop44ColorRGB
 90
      255
102
RTVSPost2010PropOp44
 70
     1
102
RTVSPost2010Prop45
280
     0
102
RTVSPost2010PropOp45
 70
     1
102
RTVSPost2010Prop46
 90
       50
102
RTVSPost2010PropOp46
 70
     1
102
RTVSPost2010Prop47
 90
       50
102
RTVSPost2010PropOp47
 70
     1
102
RTVSPost2010Prop48
 90
       50
102
RTVSPost2010PropOp48
 70
     1
102
RTVSPost2010Prop49
280
     0
102
RTVSPost2010PropOp49
 70
     1
102
RTVSPost2010Prop50
 90
       50
102
RTVSPost2010PropOp50
 70
     1
102
RTVSPost2010Prop51ColorIndex
 90
      256
102
RTVSPost2010Prop51ColorRGB
 90
-16777216
102
RTVSPost2010PropOp51
 70
     0
102
RTVSPost2010Prop52
140
1.0
102
RTVSPost2010PropOp52
 70
     0
102
RTVSPost2010Prop53
 90
        2
102
RTVSPost2010PropOp53
 70
     1
102
RTVSPost2010Prop54
  1
strokes_ogs.tif
102
RTVSPost2010PropOp54
 70
     1
102
RTVSPost2010Prop55
280
     0
102
RTVSPost2010PropOp55
 70
     1
102
RTVSPost2010Prop56
140
1.0
102
RTVSPost2010PropOp56
 70
     1
102
RTVSPost2010Prop57
140
1.0
102
RTVSPost2010PropOp57
 70
     1
102
RTVSPropertyOp0
 70
     1
102
RTVSPropertyOp1
 70
     1
102
RTVSPropertyOp2
 70
     1
102
RTVSPropertyOp3
 70
     1
102
RTVSPropertyOp4
 70
     1
102
RTVSPropertyOp5
 70
     1
102
RTVSPropertyOp6
 70
     1
102
RTVSPropertyOp7
 70
     1
102
RTVSPropertyOp8
 70
     1
102
RTVSPropertyOp9
 70
     1
102
RTVSPropertyOp10
 70
     1
102
RTVSPropertyOp11
 70
     1
102
RTVSPropertyOp12
 70
     1
102
RTVSPropertyOp13
 70
     1
102
RTVSPropertyOp14
 70
     1
102
RTVSPropertyOp15
 70
     1
102
RTVSPropertyOp16
 70
     1
102
RTVSPropertyOp17
 70
     1
102
RTVSPropertyOp18
 70
     1
102
RTVSPropertyOp19
 70
     1
102
RTVSPropertyOp20
 70
     1
102
RTVSPropertyOp21
 70
     1
102
RTVSPropertyOp22
 70
     1
102
RTVSPropertyOp23
 70
     1
102
RTVSPropertyOp24
 70
     1
102
RTVSPropertyOp25
 70
     1
102
RTVSPropertyOp26
 70
     1
102
RTVSPropertyOp27
 70
     1
102
RTVSPropertyOp28
 70
     1
102
RTVSPropertyOp29
 70
     1
102
RTVSPropertyOp30
 70
     1
102
RTVSPropertyOp31
 70
     1
102
RTVSPropertyOp32
 70
     1
102
RTVSPropertyOp33
 70
     1
102
RTVSPropertyOp34
 70
     1
102
RTVSPropertyOp35
 70
     1
102
RTVSPropertyOp36
 70
     1
102
RTVSPropertyOp37
 70
     1
102
RTVSPropertyOp38
 70
     1
102
RTVSPropertyOp39
 70
     1
102
RTVSPropertyOp40
 70
     1
102
RTVSPropertyOp41
 70
     1
102
RTVSPropertyOp42
 70
     1
102
RTVSPropertyOp43
 70
     1
102
RTVSPropertyOp44
 70
     1
102
RTVSPropertyOp45
 70
     1
102
RTVSPropertyOp46
 70
     1
102
RTVSPropertyOp47
 70
     1
102
RTVSPropertyOp48
 70
     1
102
RTVSPropertyOp49
 70
     1
102
RTVSPropertyOp50
 70
     1
102
RTVSPropertyOp51
 70
     0
102
RTVSPropertyOp52
 70
     0
102
RTVSPropertyOp53
 70
     1
102
RTVSPropertyOp54
 70
     1
102
RTVSPropertyOp55
 70
     1
102
RTVSPropertyOp56
 70
     1
102
RTVSPropertyOp57
 70
     1
102
RTVSPropertyOp58
 70
     1
102
RTVSPropertyOp59
 70
     1
102
RTVSPropertyOp60
 70
     1
102
RTVSPropertyOp61
 70
     1
102
RTVSPropertyOp62
 70
     1
  0
XRECORD
  5
33C8
102
{ACAD_REACTORS
330
33C7
102
}
330
33C7
100
AcDbXrecord
280
     1
102
RTVSPost2010Prop28
280
     0
102
RTVSPost2010PropOp28
 70
     1
102
RTVSPost2010Prop29
280
     1
102
RTVSPost2010PropOp29
 70
     1
102
RTVSPost2010Prop30
280
     1
102
RTVSPost2010PropOp30
 70
     1
102
RTVSPost2010Prop31
280
     0
102
RTVSPost2010PropOp31
 70
     1
102
RTVSPost2010Prop32
280
     0
102
RTVSPost2010PropOp32
 70
     1
102
RTVSPost2010Prop33
280
     0
102
RTVSPost2010PropOp33
 70
     1
102
RTVSPost2010Prop34
280
     0
102
RTVSPost2010PropOp34
 70
     1
102
RTVSPost2010Prop35
280
     0
102
RTVSPost2010PropOp35
 70
     1
102
RTVSPost2010Prop36
280
     0
102
RTVSPost2010PropOp36
 70
     1
102
RTVSPost2010Prop37
 90
       50
102
RTVSPost2010PropOp37
 70
     1
102
RTVSPost2010Prop38
140
0.0
102
RTVSPost2010PropOp38
 70
     1
102
RTVSPost2010Prop39
140
1.0
102
RTVSPost2010PropOp39
 70
     1
102
RTVSPost2010Prop40
 90
        0
102
RTVSPost2010PropOp40
 70
     1
102
RTVSPost2010Prop41ColorIndex
 90
       18
102
RTVSPost2010Prop41ColorRGB
 90
        0
102
RTVSPost2010PropOp41
 70
     1
102
RTVSPost2010Prop42
 90
       50
102
RTVSPost2010PropOp42
 70
     1
102
RTVSPost2010Prop43
 90
        3
102
RTVSPost2010PropOp43
 70
     1
102
RTVSPost2010Prop44ColorIndex
 90
        5
102
RTVSPost2010Prop44ColorRGB
 90
      255
102
RTVSPost2010PropOp44
 70
     1
102
RTVSPost2010Prop45
280
     0
102
RTVSPost2010PropOp45
 70
     1
102
RTVSPost2010Prop46
 90
       50
102
RTVSPost2010PropOp46
 70
     1
102
RTVSPost2010Prop47
 90
       50
102
RTVSPost2010PropOp47
 70
     1
102
RTVSPost2010Prop48
 90
       50
102
RTVSPost2010PropOp48
 70
     1
102
RTVSPost2010Prop49
280
     0
102
RTVSPost2010PropOp49
 70
     1
102
RTVSPost2010Prop50
 90
       50
102
RTVSPost2010PropOp50
 70
     1
102
RTVSPost2010Prop51ColorIndex
 90
      256
102
RTVSPost2010Prop51ColorRGB
 90
-16777216
102
RTVSPost2010PropOp51
 70
     0
102
RTVSPost2010Prop52
140
1.0
102
RTVSPost2010PropOp52
 70
     0
102
RTVSPost2010Prop53
 90
        2
102
RTVSPost2010PropOp53
 70
     1
102
RTVSPost2010Prop54
  1
strokes_ogs.tif
102
RTVSPost2010PropOp54
 70
     1
102
RTVSPost2010Prop55
280
     0
102
RTVSPost2010PropOp55
 70
     1
102
RTVSPost2010Prop56
140
1.0
102
RTVSPost2010PropOp56
 70
     1
102
RTVSPost2010Prop57
140
1.0
102
RTVSPost2010PropOp57
 70
     1
102
RTVSPropertyOp0
 70
     1
102
RTVSPropertyOp1
 70
     1
102
RTVSPropertyOp2
 70
     1
102
RTVSPropertyOp3
 70
     1
102
RTVSPropertyOp4
 70
     1
102
RTVSPropertyOp5
 70
     1
102
RTVSPropertyOp6
 70
     1
102
RTVSPropertyOp7
 70
     1
102
RTVSPropertyOp8
 70
     1
102
RTVSPropertyOp9
 70
     1
102
RTVSPropertyOp10
 70
     1
102
RTVSPropertyOp11
 70
     1
102
RTVSPropertyOp12
 70
     1
102
RTVSPropertyOp13
 70
     1
102
RTVSPropertyOp14
 70
     1
102
RTVSPropertyOp15
 70
     1
102
RTVSPropertyOp16
 70
     1
102
RTVSPropertyOp17
 70
     1
102
RTVSPropertyOp18
 70
     1
102
RTVSPropertyOp19
 70
     1
102
RTVSPropertyOp20
 70
     1
102
RTVSPropertyOp21
 70
     1
102
RTVSPropertyOp22
 70
     1
102
RTVSPropertyOp23
 70
     1
102
RTVSPropertyOp24
 70
     1
102
RTVSPropertyOp25
 70
     1
102
RTVSPropertyOp26
 70
     1
102
RTVSPropertyOp27
 70
     1
102
RTVSPropertyOp28
 70
     1
102
RTVSPropertyOp29
 70
     1
102
RTVSPropertyOp30
 70
     1
102
RTVSPropertyOp31
 70
     1
102
RTVSPropertyOp32
 70
     1
102
RTVSPropertyOp33
 70
     1
102
RTVSPropertyOp34
 70
     1
102
RTVSPropertyOp35
 70
     1
102
RTVSPropertyOp36
 70
     1
102
RTVSPropertyOp37
 70
     1
102
RTVSPropertyOp38
 70
     1
102
RTVSPropertyOp39
 70
     1
102
RTVSPropertyOp40
 70
     1
102
RTVSPropertyOp41
 70
     1
102
RTVSPropertyOp42
 70
     1
102
RTVSPropertyOp43
 70
     1
102
RTVSPropertyOp44
 70
     1
102
RTVSPropertyOp45
 70
     1
102
RTVSPropertyOp46
 70
     1
102
RTVSPropertyOp47
 70
     1
102
RTVSPropertyOp48
 70
     1
102
RTVSPropertyOp49
 70
     1
102
RTVSPropertyOp50
 70
     1
102
RTVSPropertyOp51
 70
     0
102
RTVSPropertyOp52
 70
     0
102
RTVSPropertyOp53
 70
     1
102
RTVSPropertyOp54
 70
     1
102
RTVSPropertyOp55
 70
     1
102
RTVSPropertyOp56
 70
     1
102
RTVSPropertyOp57
 70
     1
102
RTVSPropertyOp58
 70
     1
102
RTVSPropertyOp59
 70
     1
102
RTVSPropertyOp60
 70
     1
102
RTVSPropertyOp61
 70
     1
102
RTVSPropertyOp62
 70
     1
  0
XRECORD
  5
33D0
102
{ACAD_REACTORS
330
33CF
102
}
330
33CF
100
AcDbXrecord
280
     1
102
RTVSPost2010Prop28
280
     0
102
RTVSPost2010PropOp28
 70
     1
102
RTVSPost2010Prop29
280
     1
102
RTVSPost2010PropOp29
 70
     1
102
RTVSPost2010Prop30
280
     1
102
RTVSPost2010PropOp30
 70
     1
102
RTVSPost2010Prop31
280
     0
102
RTVSPost2010PropOp31
 70
     1
102
RTVSPost2010Prop32
280
     0
102
RTVSPost2010PropOp32
 70
     1
102
RTVSPost2010Prop33
280
     0
102
RTVSPost2010PropOp33
 70
     1
102
RTVSPost2010Prop34
280
     0
102
RTVSPost2010PropOp34
 70
     1
102
RTVSPost2010Prop35
280
     0
102
RTVSPost2010PropOp35
 70
     1
102
RTVSPost2010Prop36
280
     0
102
RTVSPost2010PropOp36
 70
     1
102
RTVSPost2010Prop37
 90
       50
102
RTVSPost2010PropOp37
 70
     1
102
RTVSPost2010Prop38
140
0.0
102
RTVSPost2010PropOp38
 70
     1
102
RTVSPost2010Prop39
140
1.0
102
RTVSPost2010PropOp39
 70
     1
102
RTVSPost2010Prop40
 90
        0
102
RTVSPost2010PropOp40
 70
     1
102
RTVSPost2010Prop41ColorIndex
 90
       18
102
RTVSPost2010Prop41ColorRGB
 90
        0
102
RTVSPost2010PropOp41
 70
     1
102
RTVSPost2010Prop42
 90
       50
102
RTVSPost2010PropOp42
 70
     1
102
RTVSPost2010Prop43
 90
        3
102
RTVSPost2010PropOp43
 70
     1
102
RTVSPost2010Prop44ColorIndex
 90
        5
102
RTVSPost2010Prop44ColorRGB
 90
      255
102
RTVSPost2010PropOp44
 70
     1
102
RTVSPost2010Prop45
280
     0
102
RTVSPost2010PropOp45
 70
     1
102
RTVSPost2010Prop46
 90
       50
102
RTVSPost2010PropOp46
 70
     1
102
RTVSPost2010Prop47
 90
       50
102
RTVSPost2010PropOp47
 70
     1
102
RTVSPost2010Prop48
 90
       50
102
RTVSPost2010PropOp48
 70
     1
102
RTVSPost2010Prop49
280
     0
102
RTVSPost2010PropOp49
 70
     1
102
RTVSPost2010Prop50
 90
       50
102
RTVSPost2010PropOp50
 70
     1
102
RTVSPost2010Prop51ColorIndex
 90
      256
102
RTVSPost2010Prop51ColorRGB
 90
-16777216
102
RTVSPost2010PropOp51
 70
     0
102
RTVSPost2010Prop52
140
1.0
102
RTVSPost2010PropOp52
 70
     0
102
RTVSPost2010Prop53
 90
        2
102
RTVSPost2010PropOp53
 70
     1
102
RTVSPost2010Prop54
  1
strokes_ogs.tif
102
RTVSPost2010PropOp54
 70
     1
102
RTVSPost2010Prop55
280
     0
102
RTVSPost2010PropOp55
 70
     1
102
RTVSPost2010Prop56
140
1.0
102
RTVSPost2010PropOp56
 70
     1
102
RTVSPost2010Prop57
140
1.0
102
RTVSPost2010PropOp57
 70
     1
102
RTVSPropertyOp0
 70
     1
102
RTVSPropertyOp1
 70
     1
102
RTVSPropertyOp2
 70
     1
102
RTVSPropertyOp3
 70
     1
102
RTVSPropertyOp4
 70
     1
102
RTVSPropertyOp5
 70
     1
102
RTVSPropertyOp6
 70
     1
102
RTVSPropertyOp7
 70
     1
102
RTVSPropertyOp8
 70
     1
102
RTVSPropertyOp9
 70
     1
102
RTVSPropertyOp10
 70
     1
102
RTVSPropertyOp11
 70
     1
102
RTVSPropertyOp12
 70
     1
102
RTVSPropertyOp13
 70
     1
102
RTVSPropertyOp14
 70
     1
102
RTVSPropertyOp15
 70
     1
102
RTVSPropertyOp16
 70
     1
102
RTVSPropertyOp17
 70
     1
102
RTVSPropertyOp18
 70
     1
102
RTVSPropertyOp19
 70
     1
102
RTVSPropertyOp20
 70
     1
102
RTVSPropertyOp21
 70
     1
102
RTVSPropertyOp22
 70
     1
102
RTVSPropertyOp23
 70
     1
102
RTVSPropertyOp24
 70
     1
102
RTVSPropertyOp25
 70
     1
102
RTVSPropertyOp26
 70
     1
102
RTVSPropertyOp27
 70
     1
102
RTVSPropertyOp28
 70
     1
102
RTVSPropertyOp29
 70
     1
102
RTVSPropertyOp30
 70
     1
102
RTVSPropertyOp31
 70
     1
102
RTVSPropertyOp32
 70
     1
102
RTVSPropertyOp33
 70
     1
102
RTVSPropertyOp34
 70
     1
102
RTVSPropertyOp35
 70
     1
102
RTVSPropertyOp36
 70
     1
102
RTVSPropertyOp37
 70
     1
102
RTVSPropertyOp38
 70
     1
102
RTVSPropertyOp39
 70
     1
102
RTVSPropertyOp40
 70
     1
102
RTVSPropertyOp41
 70
     1
102
RTVSPropertyOp42
 70
     1
102
RTVSPropertyOp43
 70
     1
102
RTVSPropertyOp44
 70
     1
102
RTVSPropertyOp45
 70
     1
102
RTVSPropertyOp46
 70
     1
102
RTVSPropertyOp47
 70
     1
102
RTVSPropertyOp48
 70
     1
102
RTVSPropertyOp49
 70
     1
102
RTVSPropertyOp50
 70
     1
102
RTVSPropertyOp51
 70
     0
102
RTVSPropertyOp52
 70
     0
102
RTVSPropertyOp53
 70
     1
102
RTVSPropertyOp54
 70
     1
102
RTVSPropertyOp55
 70
     1
102
RTVSPropertyOp56
 70
     1
102
RTVSPropertyOp57
 70
     1
102
RTVSPropertyOp58
 70
     1
102
RTVSPropertyOp59
 70
     1
102
RTVSPropertyOp60
 70
     1
102
RTVSPropertyOp61
 70
     1
102
RTVSPropertyOp62
 70
     1
  0
XRECORD
  5
33C2
102
{ACAD_REACTORS
330
33C1
102
}
330
33C1
100
AcDbXrecord
280
     1
102
RTVSPost2010Prop28
280
     0
102
RTVSPost2010PropOp28
 70
     1
102
RTVSPost2010Prop29
280
     1
102
RTVSPost2010PropOp29
 70
     1
102
RTVSPost2010Prop30
280
     1
102
RTVSPost2010PropOp30
 70
     1
102
RTVSPost2010Prop31
280
     0
102
RTVSPost2010PropOp31
 70
     1
102
RTVSPost2010Prop32
280
     0
102
RTVSPost2010PropOp32
 70
     1
102
RTVSPost2010Prop33
280
     0
102
RTVSPost2010PropOp33
 70
     1
102
RTVSPost2010Prop34
280
     0
102
RTVSPost2010PropOp34
 70
     1
102
RTVSPost2010Prop35
280
     0
102
RTVSPost2010PropOp35
 70
     1
102
RTVSPost2010Prop36
280
     0
102
RTVSPost2010PropOp36
 70
     1
102
RTVSPost2010Prop37
 90
       50
102
RTVSPost2010PropOp37
 70
     1
102
RTVSPost2010Prop38
140
0.0
102
RTVSPost2010PropOp38
 70
     1
102
RTVSPost2010Prop39
140
1.0
102
RTVSPost2010PropOp39
 70
     1
102
RTVSPost2010Prop40
 90
        0
102
RTVSPost2010PropOp40
 70
     1
102
RTVSPost2010Prop41ColorIndex
 90
       18
102
RTVSPost2010Prop41ColorRGB
 90
        0
102
RTVSPost2010PropOp41
 70
     1
102
RTVSPost2010Prop42
 90
       50
102
RTVSPost2010PropOp42
 70
     1
102
RTVSPost2010Prop43
 90
        3
102
RTVSPost2010PropOp43
 70
     1
102
RTVSPost2010Prop44ColorIndex
 90
        5
102
RTVSPost2010Prop44ColorRGB
 90
      255
102
RTVSPost2010PropOp44
 70
     1
102
RTVSPost2010Prop45
280
     0
102
RTVSPost2010PropOp45
 70
     1
102
RTVSPost2010Prop46
 90
       50
102
RTVSPost2010PropOp46
 70
     1
102
RTVSPost2010Prop47
 90
       50
102
RTVSPost2010PropOp47
 70
     1
102
RTVSPost2010Prop48
 90
       50
102
RTVSPost2010PropOp48
 70
     1
102
RTVSPost2010Prop49
280
     0
102
RTVSPost2010PropOp49
 70
     1
102
RTVSPost2010Prop50
 90
       50
102
RTVSPost2010PropOp50
 70
     1
102
RTVSPost2010Prop51ColorIndex
 90
      256
102
RTVSPost2010Prop51ColorRGB
 90
-16777216
102
RTVSPost2010PropOp51
 70
     0
102
RTVSPost2010Prop52
140
1.0
102
RTVSPost2010PropOp52
 70
     0
102
RTVSPost2010Prop53
 90
        2
102
RTVSPost2010PropOp53
 70
     1
102
RTVSPost2010Prop54
  1
strokes_ogs.tif
102
RTVSPost2010PropOp54
 70
     1
102
RTVSPost2010Prop55
280
     0
102
RTVSPost2010PropOp55
 70
     1
102
RTVSPost2010Prop56
140
1.0
102
RTVSPost2010PropOp56
 70
     1
102
RTVSPost2010Prop57
140
1.0
102
RTVSPost2010PropOp57
 70
     1
102
RTVSPropertyOp0
 70
     1
102
RTVSPropertyOp1
 70
     1
102
RTVSPropertyOp2
 70
     1
102
RTVSPropertyOp3
 70
     1
102
RTVSPropertyOp4
 70
     1
102
RTVSPropertyOp5
 70
     1
102
RTVSPropertyOp6
 70
     1
102
RTVSPropertyOp7
 70
     1
102
RTVSPropertyOp8
 70
     1
102
RTVSPropertyOp9
 70
     1
102
RTVSPropertyOp10
 70
     1
102
RTVSPropertyOp11
 70
     1
102
RTVSPropertyOp12
 70
     1
102
RTVSPropertyOp13
 70
     1
102
RTVSPropertyOp14
 70
     1
102
RTVSPropertyOp15
 70
     1
102
RTVSPropertyOp16
 70
     1
102
RTVSPropertyOp17
 70
     1
102
RTVSPropertyOp18
 70
     1
102
RTVSPropertyOp19
 70
     1
102
RTVSPropertyOp20
 70
     1
102
RTVSPropertyOp21
 70
     1
102
RTVSPropertyOp22
 70
     1
102
RTVSPropertyOp23
 70
     1
102
RTVSPropertyOp24
 70
     1
102
RTVSPropertyOp25
 70
     1
102
RTVSPropertyOp26
 70
     1
102
RTVSPropertyOp27
 70
     1
102
RTVSPropertyOp28
 70
     1
102
RTVSPropertyOp29
 70
     1
102
RTVSPropertyOp30
 70
     1
102
RTVSPropertyOp31
 70
     1
102
RTVSPropertyOp32
 70
     1
102
RTVSPropertyOp33
 70
     1
102
RTVSPropertyOp34
 70
     1
102
RTVSPropertyOp35
 70
     1
102
RTVSPropertyOp36
 70
     1
102
RTVSPropertyOp37
 70
     1
102
RTVSPropertyOp38
 70
     1
102
RTVSPropertyOp39
 70
     1
102
RTVSPropertyOp40
 70
     1
102
RTVSPropertyOp41
 70
     1
102
RTVSPropertyOp42
 70
     1
102
RTVSPropertyOp43
 70
     1
102
RTVSPropertyOp44
 70
     1
102
RTVSPropertyOp45
 70
     1
102
RTVSPropertyOp46
 70
     1
102
RTVSPropertyOp47
 70
     1
102
RTVSPropertyOp48
 70
     1
102
RTVSPropertyOp49
 70
     1
102
RTVSPropertyOp50
 70
     1
102
RTVSPropertyOp51
 70
     0
102
RTVSPropertyOp52
 70
     0
102
RTVSPropertyOp53
 70
     1
102
RTVSPropertyOp54
 70
     1
102
RTVSPropertyOp55
 70
     1
102
RTVSPropertyOp56
 70
     1
102
RTVSPropertyOp57
 70
     1
102
RTVSPropertyOp58
 70
     1
102
RTVSPropertyOp59
 70
     1
102
RTVSPropertyOp60
 70
     1
102
RTVSPropertyOp61
 70
     1
102
RTVSPropertyOp62
 70
     1
  0
XRECORD
  5
33C6
102
{ACAD_REACTORS
330
33C5
102
}
330
33C5
100
AcDbXrecord
280
     1
102
RTVSPost2010Prop28
280
     0
102
RTVSPost2010PropOp28
 70
     1
102
RTVSPost2010Prop29
280
     1
102
RTVSPost2010PropOp29
 70
     1
102
RTVSPost2010Prop30
280
     1
102
RTVSPost2010PropOp30
 70
     1
102
RTVSPost2010Prop31
280
     0
102
RTVSPost2010PropOp31
 70
     1
102
RTVSPost2010Prop32
280
     0
102
RTVSPost2010PropOp32
 70
     1
102
RTVSPost2010Prop33
280
     0
102
RTVSPost2010PropOp33
 70
     1
102
RTVSPost2010Prop34
280
     0
102
RTVSPost2010PropOp34
 70
     1
102
RTVSPost2010Prop35
280
     0
102
RTVSPost2010PropOp35
 70
     1
102
RTVSPost2010Prop36
280
     0
102
RTVSPost2010PropOp36
 70
     1
102
RTVSPost2010Prop37
 90
       50
102
RTVSPost2010PropOp37
 70
     1
102
RTVSPost2010Prop38
140
0.0
102
RTVSPost2010PropOp38
 70
     1
102
RTVSPost2010Prop39
140
1.0
102
RTVSPost2010PropOp39
 70
     1
102
RTVSPost2010Prop40
 90
        0
102
RTVSPost2010PropOp40
 70
     1
102
RTVSPost2010Prop41ColorIndex
 90
       18
102
RTVSPost2010Prop41ColorRGB
 90
        0
102
RTVSPost2010PropOp41
 70
     1
102
RTVSPost2010Prop42
 90
       50
102
RTVSPost2010PropOp42
 70
     1
102
RTVSPost2010Prop43
 90
        3
102
RTVSPost2010PropOp43
 70
     1
102
RTVSPost2010Prop44ColorIndex
 90
        5
102
RTVSPost2010Prop44ColorRGB
 90
      255
102
RTVSPost2010PropOp44
 70
     1
102
RTVSPost2010Prop45
280
     0
102
RTVSPost2010PropOp45
 70
     1
102
RTVSPost2010Prop46
 90
       50
102
RTVSPost2010PropOp46
 70
     1
102
RTVSPost2010Prop47
 90
       50
102
RTVSPost2010PropOp47
 70
     1
102
RTVSPost2010Prop48
 90
       50
102
RTVSPost2010PropOp48
 70
     1
102
RTVSPost2010Prop49
280
     0
102
RTVSPost2010PropOp49
 70
     1
102
RTVSPost2010Prop50
 90
       50
102
RTVSPost2010PropOp50
 70
     1
102
RTVSPost2010Prop51ColorIndex
 90
      256
102
RTVSPost2010Prop51ColorRGB
 90
-16777216
102
RTVSPost2010PropOp51
 70
     0
102
RTVSPost2010Prop52
140
1.0
102
RTVSPost2010PropOp52
 70
     0
102
RTVSPost2010Prop53
 90
        2
102
RTVSPost2010PropOp53
 70
     1
102
RTVSPost2010Prop54
  1
strokes_ogs.tif
102
RTVSPost2010PropOp54
 70
     1
102
RTVSPost2010Prop55
280
     0
102
RTVSPost2010PropOp55
 70
     1
102
RTVSPost2010Prop56
140
1.0
102
RTVSPost2010PropOp56
 70
     1
102
RTVSPost2010Prop57
140
1.0
102
RTVSPost2010PropOp57
 70
     1
102
RTVSPropertyOp0
 70
     1
102
RTVSPropertyOp1
 70
     1
102
RTVSPropertyOp2
 70
     1
102
RTVSPropertyOp3
 70
     1
102
RTVSPropertyOp4
 70
     1
102
RTVSPropertyOp5
 70
     1
102
RTVSPropertyOp6
 70
     1
102
RTVSPropertyOp7
 70
     1
102
RTVSPropertyOp8
 70
     1
102
RTVSPropertyOp9
 70
     1
102
RTVSPropertyOp10
 70
     1
102
RTVSPropertyOp11
 70
     1
102
RTVSPropertyOp12
 70
     1
102
RTVSPropertyOp13
 70
     1
102
RTVSPropertyOp14
 70
     1
102
RTVSPropertyOp15
 70
     1
102
RTVSPropertyOp16
 70
     1
102
RTVSPropertyOp17
 70
     1
102
RTVSPropertyOp18
 70
     1
102
RTVSPropertyOp19
 70
     1
102
RTVSPropertyOp20
 70
     1
102
RTVSPropertyOp21
 70
     1
102
RTVSPropertyOp22
 70
     1
102
RTVSPropertyOp23
 70
     1
102
RTVSPropertyOp24
 70
     1
102
RTVSPropertyOp25
 70
     1
102
RTVSPropertyOp26
 70
     1
102
RTVSPropertyOp27
 70
     1
102
RTVSPropertyOp28
 70
     1
102
RTVSPropertyOp29
 70
     1
102
RTVSPropertyOp30
 70
     1
102
RTVSPropertyOp31
 70
     1
102
RTVSPropertyOp32
 70
     1
102
RTVSPropertyOp33
 70
     1
102
RTVSPropertyOp34
 70
     1
102
RTVSPropertyOp35
 70
     1
102
RTVSPropertyOp36
 70
     1
102
RTVSPropertyOp37
 70
     1
102
RTVSPropertyOp38
 70
     1
102
RTVSPropertyOp39
 70
     1
102
RTVSPropertyOp40
 70
     1
102
RTVSPropertyOp41
 70
     1
102
RTVSPropertyOp42
 70
     1
102
RTVSPropertyOp43
 70
     1
102
RTVSPropertyOp44
 70
     1
102
RTVSPropertyOp45
 70
     1
102
RTVSPropertyOp46
 70
     1
102
RTVSPropertyOp47
 70
     1
102
RTVSPropertyOp48
 70
     1
102
RTVSPropertyOp49
 70
     1
102
RTVSPropertyOp50
 70
     1
102
RTVSPropertyOp51
 70
     0
102
RTVSPropertyOp52
 70
     0
102
RTVSPropertyOp53
 70
     1
102
RTVSPropertyOp54
 70
     1
102
RTVSPropertyOp55
 70
     1
102
RTVSPropertyOp56
 70
     1
102
RTVSPropertyOp57
 70
     1
102
RTVSPropertyOp58
 70
     1
102
RTVSPropertyOp59
 70
     1
102
RTVSPropertyOp60
 70
     1
102
RTVSPropertyOp61
 70
     1
102
RTVSPropertyOp62
 70
     1
  0
XRECORD
  5
33E0
102
{ACAD_REACTORS
330
33DF
102
}
330
33DF
100
AcDbXrecord
280
     1
102
RTVSPost2010Prop28
280
     0
102
RTVSPost2010PropOp28
 70
     1
102
RTVSPost2010Prop29
280
     1
102
RTVSPost2010PropOp29
 70
     1
102
RTVSPost2010Prop30
280
     1
102
RTVSPost2010PropOp30
 70
     1
102
RTVSPost2010Prop31
280
     0
102
RTVSPost2010PropOp31
 70
     1
102
RTVSPost2010Prop32
280
     0
102
RTVSPost2010PropOp32
 70
     1
102
RTVSPost2010Prop33
280
     0
102
RTVSPost2010PropOp33
 70
     1
102
RTVSPost2010Prop34
280
     0
102
RTVSPost2010PropOp34
 70
     1
102
RTVSPost2010Prop35
280
     0
102
RTVSPost2010PropOp35
 70
     1
102
RTVSPost2010Prop36
280
     0
102
RTVSPost2010PropOp36
 70
     1
102
RTVSPost2010Prop37
 90
       50
102
RTVSPost2010PropOp37
 70
     0
102
RTVSPost2010Prop38
140
0.0
102
RTVSPost2010PropOp38
 70
     0
102
RTVSPost2010Prop39
140
1.0
102
RTVSPost2010PropOp39
 70
     0
102
RTVSPost2010Prop40
 90
        0
102
RTVSPost2010PropOp40
 70
     0
102
RTVSPost2010Prop41ColorIndex
 90
       18
102
RTVSPost2010Prop41ColorRGB
 90
        0
102
RTVSPost2010PropOp41
 70
     0
102
RTVSPost2010Prop42
 90
       50
102
RTVSPost2010PropOp42
 70
     0
102
RTVSPost2010Prop43
 90
        3
102
RTVSPost2010PropOp43
 70
     0
102
RTVSPost2010Prop44ColorIndex
 90
        5
102
RTVSPost2010Prop44ColorRGB
 90
      255
102
RTVSPost2010PropOp44
 70
     0
102
RTVSPost2010Prop45
280
     0
102
RTVSPost2010PropOp45
 70
     1
102
RTVSPost2010Prop46
 90
       50
102
RTVSPost2010PropOp46
 70
     0
102
RTVSPost2010Prop47
 90
       50
102
RTVSPost2010PropOp47
 70
     0
102
RTVSPost2010Prop48
 90
       50
102
RTVSPost2010PropOp48
 70
     0
102
RTVSPost2010Prop49
280
     0
102
RTVSPost2010PropOp49
 70
     1
102
RTVSPost2010Prop50
 90
       50
102
RTVSPost2010PropOp50
 70
     0
102
RTVSPost2010Prop51ColorIndex
 90
      256
102
RTVSPost2010Prop51ColorRGB
 90
-16777216
102
RTVSPost2010PropOp51
 70
     0
102
RTVSPost2010Prop52
140
1.0
102
RTVSPost2010PropOp52
 70
     0
102
RTVSPost2010Prop53
 90
        2
102
RTVSPost2010PropOp53
 70
     0
102
RTVSPost2010Prop54
  1
strokes_ogs.tif
102
RTVSPost2010PropOp54
 70
     0
102
RTVSPost2010Prop55
280
     0
102
RTVSPost2010PropOp55
 70
     1
102
RTVSPost2010Prop56
140
1.0
102
RTVSPost2010PropOp56
 70
     0
102
RTVSPost2010Prop57
140
1.0
102
RTVSPost2010PropOp57
 70
     0
102
RTVSPropertyOp0
 70
     0
102
RTVSPropertyOp1
 70
     0
102
RTVSPropertyOp2
 70
     0
102
RTVSPropertyOp3
 70
     0
102
RTVSPropertyOp4
 70
     0
102
RTVSPropertyOp5
 70
     0
102
RTVSPropertyOp6
 70
     0
102
RTVSPropertyOp7
 70
     0
102
RTVSPropertyOp8
 70
     0
102
RTVSPropertyOp9
 70
     0
102
RTVSPropertyOp10
 70
     0
102
RTVSPropertyOp11
 70
     0
102
RTVSPropertyOp12
 70
     0
102
RTVSPropertyOp13
 70
     0
102
RTVSPropertyOp14
 70
     2
102
RTVSPropertyOp15
 70
     0
102
RTVSPropertyOp16
 70
     0
102
RTVSPropertyOp17
 70
     0
102
RTVSPropertyOp18
 70
     0
102
RTVSPropertyOp19
 70
     0
102
RTVSPropertyOp20
 70
     0
102
RTVSPropertyOp21
 70
     0
102
RTVSPropertyOp22
 70
     0
102
RTVSPropertyOp23
 70
     0
102
RTVSPropertyOp24
 70
     0
102
RTVSPropertyOp25
 70
     0
102
RTVSPropertyOp26
 70
     0
102
RTVSPropertyOp27
 70
     0
102
RTVSPropertyOp28
 70
     1
102
RTVSPropertyOp29
 70
     1
102
RTVSPropertyOp30
 70
     1
102
RTVSPropertyOp31
 70
     1
102
RTVSPropertyOp32
 70
     1
102
RTVSPropertyOp33
 70
     1
102
RTVSPropertyOp34
 70
     1
102
RTVSPropertyOp35
 70
     1
102
RTVSPropertyOp36
 70
     1
102
RTVSPropertyOp37
 70
     0
102
RTVSPropertyOp38
 70
     0
102
RTVSPropertyOp39
 70
     0
102
RTVSPropertyOp40
 70
     0
102
RTVSPropertyOp41
 70
     0
102
RTVSPropertyOp42
 70
     0
102
RTVSPropertyOp43
 70
     0
102
RTVSPropertyOp44
 70
     0
102
RTVSPropertyOp45
 70
     1
102
RTVSPropertyOp46
 70
     0
102
RTVSPropertyOp47
 70
     0
102
RTVSPropertyOp48
 70
     0
102
RTVSPropertyOp49
 70
     1
102
RTVSPropertyOp50
 70
     0
102
RTVSPropertyOp51
 70
     0
102
RTVSPropertyOp52
 70
     0
102
RTVSPropertyOp53
 70
     0
102
RTVSPropertyOp54
 70
     0
102
RTVSPropertyOp55
 70
     1
102
RTVSPropertyOp56
 70
     0
102
RTVSPropertyOp57
 70
     0
102
RTVSPropertyOp58
 70
     0
102
RTVSPropertyOp59
 70
     0
102
RTVSPropertyOp60
 70
     0
102
RTVSPropertyOp61
 70
     0
102
RTVSPropertyOp62
 70
     0
  0
XRECORD
  5
33CE
102
{ACAD_REACTORS
330
33CD
102
}
330
33CD
100
AcDbXrecord
280
     1
102
RTVSPost2010Prop28
280
     0
102
RTVSPost2010PropOp28
 70
     1
102
RTVSPost2010Prop29
280
     1
102
RTVSPost2010PropOp29
 70
     1
102
RTVSPost2010Prop30
280
     1
102
RTVSPost2010PropOp30
 70
     1
102
RTVSPost2010Prop31
280
     0
102
RTVSPost2010PropOp31
 70
     1
102
RTVSPost2010Prop32
280
     0
102
RTVSPost2010PropOp32
 70
     1
102
RTVSPost2010Prop33
280
     0
102
RTVSPost2010PropOp33
 70
     1
102
RTVSPost2010Prop34
280
     0
102
RTVSPost2010PropOp34
 70
     1
102
RTVSPost2010Prop35
280
     0
102
RTVSPost2010PropOp35
 70
     1
102
RTVSPost2010Prop36
280
     0
102
RTVSPost2010PropOp36
 70
     1
102
RTVSPost2010Prop37
 90
       50
102
RTVSPost2010PropOp37
 70
     1
102
RTVSPost2010Prop38
140
0.0
102
RTVSPost2010PropOp38
 70
     1
102
RTVSPost2010Prop39
140
1.0
102
RTVSPost2010PropOp39
 70
     1
102
RTVSPost2010Prop40
 90
        0
102
RTVSPost2010PropOp40
 70
     1
102
RTVSPost2010Prop41ColorIndex
 90
       18
102
RTVSPost2010Prop41ColorRGB
 90
        0
102
RTVSPost2010PropOp41
 70
     1
102
RTVSPost2010Prop42
 90
       50
102
RTVSPost2010PropOp42
 70
     1
102
RTVSPost2010Prop43
 90
        3
102
RTVSPost2010PropOp43
 70
     1
102
RTVSPost2010Prop44ColorIndex
 90
        5
102
RTVSPost2010Prop44ColorRGB
 90
      255
102
RTVSPost2010PropOp44
 70
     1
102
RTVSPost2010Prop45
280
     0
102
RTVSPost2010PropOp45
 70
     1
102
RTVSPost2010Prop46
 90
       50
102
RTVSPost2010PropOp46
 70
     1
102
RTVSPost2010Prop47
 90
       50
102
RTVSPost2010PropOp47
 70
     1
102
RTVSPost2010Prop48
 90
       50
102
RTVSPost2010PropOp48
 70
     1
102
RTVSPost2010Prop49
280
     0
102
RTVSPost2010PropOp49
 70
     1
102
RTVSPost2010Prop50
 90
       50
102
RTVSPost2010PropOp50
 70
     1
102
RTVSPost2010Prop51ColorIndex
 90
      256
102
RTVSPost2010Prop51ColorRGB
 90
-16777216
102
RTVSPost2010PropOp51
 70
     0
102
RTVSPost2010Prop52
140
1.0
102
RTVSPost2010PropOp52
 70
     0
102
RTVSPost2010Prop53
 90
        2
102
RTVSPost2010PropOp53
 70
     1
102
RTVSPost2010Prop54
  1
strokes_ogs.tif
102
RTVSPost2010PropOp54
 70
     1
102
RTVSPost2010Prop55
280
     0
102
RTVSPost2010PropOp55
 70
     1
102
RTVSPost2010Prop56
140
1.0
102
RTVSPost2010PropOp56
 70
     1
102
RTVSPost2010Prop57
140
1.0
102
RTVSPost2010PropOp57
 70
     1
102
RTVSPropertyOp0
 70
     1
102
RTVSPropertyOp1
 70
     1
102
RTVSPropertyOp2
 70
     1
102
RTVSPropertyOp3
 70
     1
102
RTVSPropertyOp4
 70
     1
102
RTVSPropertyOp5
 70
     1
102
RTVSPropertyOp6
 70
     1
102
RTVSPropertyOp7
 70
     1
102
RTVSPropertyOp8
 70
     1
102
RTVSPropertyOp9
 70
     1
102
RTVSPropertyOp10
 70
     1
102
RTVSPropertyOp11
 70
     1
102
RTVSPropertyOp12
 70
     1
102
RTVSPropertyOp13
 70
     1
102
RTVSPropertyOp14
 70
     1
102
RTVSPropertyOp15
 70
     1
102
RTVSPropertyOp16
 70
     1
102
RTVSPropertyOp17
 70
     1
102
RTVSPropertyOp18
 70
     1
102
RTVSPropertyOp19
 70
     1
102
RTVSPropertyOp20
 70
     1
102
RTVSPropertyOp21
 70
     1
102
RTVSPropertyOp22
 70
     1
102
RTVSPropertyOp23
 70
     1
102
RTVSPropertyOp24
 70
     1
102
RTVSPropertyOp25
 70
     1
102
RTVSPropertyOp26
 70
     1
102
RTVSPropertyOp27
 70
     1
102
RTVSPropertyOp28
 70
     1
102
RTVSPropertyOp29
 70
     1
102
RTVSPropertyOp30
 70
     1
102
RTVSPropertyOp31
 70
     1
102
RTVSPropertyOp32
 70
     1
102
RTVSPropertyOp33
 70
     1
102
RTVSPropertyOp34
 70
     1
102
RTVSPropertyOp35
 70
     1
102
RTVSPropertyOp36
 70
     1
102
RTVSPropertyOp37
 70
     1
102
RTVSPropertyOp38
 70
     1
102
RTVSPropertyOp39
 70
     1
102
RTVSPropertyOp40
 70
     1
102
RTVSPropertyOp41
 70
     1
102
RTVSPropertyOp42
 70
     1
102
RTVSPropertyOp43
 70
     1
102
RTVSPropertyOp44
 70
     1
102
RTVSPropertyOp45
 70
     1
102
RTVSPropertyOp46
 70
     1
102
RTVSPropertyOp47
 70
     1
102
RTVSPropertyOp48
 70
     1
102
RTVSPropertyOp49
 70
     1
102
RTVSPropertyOp50
 70
     1
102
RTVSPropertyOp51
 70
     0
102
RTVSPropertyOp52
 70
     0
102
RTVSPropertyOp53
 70
     1
102
RTVSPropertyOp54
 70
     1
102
RTVSPropertyOp55
 70
     1
102
RTVSPropertyOp56
 70
     1
102
RTVSPropertyOp57
 70
     1
102
RTVSPropertyOp58
 70
     1
102
RTVSPropertyOp59
 70
     1
102
RTVSPropertyOp60
 70
     1
102
RTVSPropertyOp61
 70
     1
102
RTVSPropertyOp62
 70
     1
  0
XRECORD
  5
33B2
102
{ACAD_REACTORS
330
33B1
102
}
330
33B1
100
AcDbXrecord
280
     1
102
RTVSPost2010Prop28
280
     0
102
RTVSPost2010PropOp28
 70
     1
102
RTVSPost2010Prop29
280
     1
102
RTVSPost2010PropOp29
 70
     1
102
RTVSPost2010Prop30
280
     1
102
RTVSPost2010PropOp30
 70
     1
102
RTVSPost2010Prop31
280
     0
102
RTVSPost2010PropOp31
 70
     1
102
RTVSPost2010Prop32
280
     0
102
RTVSPost2010PropOp32
 70
     1
102
RTVSPost2010Prop33
280
     0
102
RTVSPost2010PropOp33
 70
     1
102
RTVSPost2010Prop34
280
     0
102
RTVSPost2010PropOp34
 70
     1
102
RTVSPost2010Prop35
280
     0
102
RTVSPost2010PropOp35
 70
     1
102
RTVSPost2010Prop36
280
     0
102
RTVSPost2010PropOp36
 70
     1
102
RTVSPost2010Prop37
 90
       50
102
RTVSPost2010PropOp37
 70
     1
102
RTVSPost2010Prop38
140
0.0
102
RTVSPost2010PropOp38
 70
     1
102
RTVSPost2010Prop39
140
1.0
102
RTVSPost2010PropOp39
 70
     1
102
RTVSPost2010Prop40
 90
        0
102
RTVSPost2010PropOp40
 70
     1
102
RTVSPost2010Prop41ColorIndex
 90
       18
102
RTVSPost2010Prop41ColorRGB
 90
        0
102
RTVSPost2010PropOp41
 70
     1
102
RTVSPost2010Prop42
 90
       50
102
RTVSPost2010PropOp42
 70
     1
102
RTVSPost2010Prop43
 90
        3
102
RTVSPost2010PropOp43
 70
     1
102
RTVSPost2010Prop44ColorIndex
 90
        5
102
RTVSPost2010Prop44ColorRGB
 90
      255
102
RTVSPost2010PropOp44
 70
     1
102
RTVSPost2010Prop45
280
     0
102
RTVSPost2010PropOp45
 70
     1
102
RTVSPost2010Prop46
 90
       50
102
RTVSPost2010PropOp46
 70
     1
102
RTVSPost2010Prop47
 90
       50
102
RTVSPost2010PropOp47
 70
     1
102
RTVSPost2010Prop48
 90
       50
102
RTVSPost2010PropOp48
 70
     1
102
RTVSPost2010Prop49
280
     0
102
RTVSPost2010PropOp49
 70
     1
102
RTVSPost2010Prop50
 90
       50
102
RTVSPost2010PropOp50
 70
     1
102
RTVSPost2010Prop51ColorIndex
 90
      256
102
RTVSPost2010Prop51ColorRGB
 90
-16777216
102
RTVSPost2010PropOp51
 70
     0
102
RTVSPost2010Prop52
140
1.0
102
RTVSPost2010PropOp52
 70
     0
102
RTVSPost2010Prop53
 90
        2
102
RTVSPost2010PropOp53
 70
     1
102
RTVSPost2010Prop54
  1
strokes_ogs.tif
102
RTVSPost2010PropOp54
 70
     1
102
RTVSPost2010Prop55
280
     0
102
RTVSPost2010PropOp55
 70
     1
102
RTVSPost2010Prop56
140
1.0
102
RTVSPost2010PropOp56
 70
     1
102
RTVSPost2010Prop57
140
1.0
102
RTVSPost2010PropOp57
 70
     1
102
RTVSPropertyOp0
 70
     1
102
RTVSPropertyOp1
 70
     1
102
RTVSPropertyOp2
 70
     1
102
RTVSPropertyOp3
 70
     1
102
RTVSPropertyOp4
 70
     1
102
RTVSPropertyOp5
 70
     1
102
RTVSPropertyOp6
 70
     1
102
RTVSPropertyOp7
 70
     1
102
RTVSPropertyOp8
 70
     1
102
RTVSPropertyOp9
 70
     1
102
RTVSPropertyOp10
 70
     1
102
RTVSPropertyOp11
 70
     1
102
RTVSPropertyOp12
 70
     1
102
RTVSPropertyOp13
 70
     1
102
RTVSPropertyOp14
 70
     1
102
RTVSPropertyOp15
 70
     1
102
RTVSPropertyOp16
 70
     1
102
RTVSPropertyOp17
 70
     1
102
RTVSPropertyOp18
 70
     1
102
RTVSPropertyOp19
 70
     1
102
RTVSPropertyOp20
 70
     1
102
RTVSPropertyOp21
 70
     1
102
RTVSPropertyOp22
 70
     1
102
RTVSPropertyOp23
 70
     1
102
RTVSPropertyOp24
 70
     1
102
RTVSPropertyOp25
 70
     1
102
RTVSPropertyOp26
 70
     1
102
RTVSPropertyOp27
 70
     1
102
RTVSPropertyOp28
 70
     1
102
RTVSPropertyOp29
 70
     1
102
RTVSPropertyOp30
 70
     1
102
RTVSPropertyOp31
 70
     1
102
RTVSPropertyOp32
 70
     1
102
RTVSPropertyOp33
 70
     1
102
RTVSPropertyOp34
 70
     1
102
RTVSPropertyOp35
 70
     1
102
RTVSPropertyOp36
 70
     1
102
RTVSPropertyOp37
 70
     1
102
RTVSPropertyOp38
 70
     1
102
RTVSPropertyOp39
 70
     1
102
RTVSPropertyOp40
 70
     1
102
RTVSPropertyOp41
 70
     1
102
RTVSPropertyOp42
 70
     1
102
RTVSPropertyOp43
 70
     1
102
RTVSPropertyOp44
 70
     1
102
RTVSPropertyOp45
 70
     1
102
RTVSPropertyOp46
 70
     1
102
RTVSPropertyOp47
 70
     1
102
RTVSPropertyOp48
 70
     1
102
RTVSPropertyOp49
 70
     1
102
RTVSPropertyOp50
 70
     1
102
RTVSPropertyOp51
 70
     0
102
RTVSPropertyOp52
 70
     0
102
RTVSPropertyOp53
 70
     1
102
RTVSPropertyOp54
 70
     1
102
RTVSPropertyOp55
 70
     1
102
RTVSPropertyOp56
 70
     1
102
RTVSPropertyOp57
 70
     1
102
RTVSPropertyOp58
 70
     1
102
RTVSPropertyOp59
 70
     1
102
RTVSPropertyOp60
 70
     1
102
RTVSPropertyOp61
 70
     1
102
RTVSPropertyOp62
 70
     1
  0
XRECORD
  5
33B4
102
{ACAD_REACTORS
330
33B3
102
}
330
33B3
100
AcDbXrecord
280
     1
102
RTVSPost2010Prop28
280
     0
102
RTVSPost2010PropOp28
 70
     1
102
RTVSPost2010Prop29
280
     1
102
RTVSPost2010PropOp29
 70
     1
102
RTVSPost2010Prop30
280
     1
102
RTVSPost2010PropOp30
 70
     1
102
RTVSPost2010Prop31
280
     0
102
RTVSPost2010PropOp31
 70
     1
102
RTVSPost2010Prop32
280
     0
102
RTVSPost2010PropOp32
 70
     1
102
RTVSPost2010Prop33
280
     0
102
RTVSPost2010PropOp33
 70
     1
102
RTVSPost2010Prop34
280
     0
102
RTVSPost2010PropOp34
 70
     1
102
RTVSPost2010Prop35
280
     0
102
RTVSPost2010PropOp35
 70
     1
102
RTVSPost2010Prop36
280
     0
102
RTVSPost2010PropOp36
 70
     1
102
RTVSPost2010Prop37
 90
       50
102
RTVSPost2010PropOp37
 70
     1
102
RTVSPost2010Prop38
140
0.0
102
RTVSPost2010PropOp38
 70
     1
102
RTVSPost2010Prop39
140
1.0
102
RTVSPost2010PropOp39
 70
     1
102
RTVSPost2010Prop40
 90
        0
102
RTVSPost2010PropOp40
 70
     1
102
RTVSPost2010Prop41ColorIndex
 90
       18
102
RTVSPost2010Prop41ColorRGB
 90
        0
102
RTVSPost2010PropOp41
 70
     1
102
RTVSPost2010Prop42
 90
       50
102
RTVSPost2010PropOp42
 70
     1
102
RTVSPost2010Prop43
 90
        3
102
RTVSPost2010PropOp43
 70
     1
102
RTVSPost2010Prop44ColorIndex
 90
        5
102
RTVSPost2010Prop44ColorRGB
 90
      255
102
RTVSPost2010PropOp44
 70
     1
102
RTVSPost2010Prop45
280
     0
102
RTVSPost2010PropOp45
 70
     1
102
RTVSPost2010Prop46
 90
       50
102
RTVSPost2010PropOp46
 70
     1
102
RTVSPost2010Prop47
 90
       50
102
RTVSPost2010PropOp47
 70
     1
102
RTVSPost2010Prop48
 90
       50
102
RTVSPost2010PropOp48
 70
     1
102
RTVSPost2010Prop49
280
     0
102
RTVSPost2010PropOp49
 70
     1
102
RTVSPost2010Prop50
 90
       50
102
RTVSPost2010PropOp50
 70
     1
102
RTVSPost2010Prop51ColorIndex
 90
      256
102
RTVSPost2010Prop51ColorRGB
 90
-16777216
102
RTVSPost2010PropOp51
 70
     0
102
RTVSPost2010Prop52
140
1.0
102
RTVSPost2010PropOp52
 70
     0
102
RTVSPost2010Prop53
 90
        2
102
RTVSPost2010PropOp53
 70
     1
102
RTVSPost2010Prop54
  1
strokes_ogs.tif
102
RTVSPost2010PropOp54
 70
     1
102
RTVSPost2010Prop55
280
     0
102
RTVSPost2010PropOp55
 70
     1
102
RTVSPost2010Prop56
140
1.0
102
RTVSPost2010PropOp56
 70
     1
102
RTVSPost2010Prop57
140
1.0
102
RTVSPost2010PropOp57
 70
     1
102
RTVSPropertyOp0
 70
     1
102
RTVSPropertyOp1
 70
     1
102
RTVSPropertyOp2
 70
     1
102
RTVSPropertyOp3
 70
     1
102
RTVSPropertyOp4
 70
     1
102
RTVSPropertyOp5
 70
     1
102
RTVSPropertyOp6
 70
     1
102
RTVSPropertyOp7
 70
     1
102
RTVSPropertyOp8
 70
     1
102
RTVSPropertyOp9
 70
     1
102
RTVSPropertyOp10
 70
     1
102
RTVSPropertyOp11
 70
     1
102
RTVSPropertyOp12
 70
     1
102
RTVSPropertyOp13
 70
     1
102
RTVSPropertyOp14
 70
     1
102
RTVSPropertyOp15
 70
     1
102
RTVSPropertyOp16
 70
     1
102
RTVSPropertyOp17
 70
     1
102
RTVSPropertyOp18
 70
     1
102
RTVSPropertyOp19
 70
     1
102
RTVSPropertyOp20
 70
     1
102
RTVSPropertyOp21
 70
     1
102
RTVSPropertyOp22
 70
     1
102
RTVSPropertyOp23
 70
     1
102
RTVSPropertyOp24
 70
     1
102
RTVSPropertyOp25
 70
     1
102
RTVSPropertyOp26
 70
     1
102
RTVSPropertyOp27
 70
     1
102
RTVSPropertyOp28
 70
     1
102
RTVSPropertyOp29
 70
     1
102
RTVSPropertyOp30
 70
     1
102
RTVSPropertyOp31
 70
     1
102
RTVSPropertyOp32
 70
     1
102
RTVSPropertyOp33
 70
     1
102
RTVSPropertyOp34
 70
     1
102
RTVSPropertyOp35
 70
     1
102
RTVSPropertyOp36
 70
     1
102
RTVSPropertyOp37
 70
     1
102
RTVSPropertyOp38
 70
     1
102
RTVSPropertyOp39
 70
     1
102
RTVSPropertyOp40
 70
     1
102
RTVSPropertyOp41
 70
     1
102
RTVSPropertyOp42
 70
     1
102
RTVSPropertyOp43
 70
     1
102
RTVSPropertyOp44
 70
     1
102
RTVSPropertyOp45
 70
     1
102
RTVSPropertyOp46
 70
     1
102
RTVSPropertyOp47
 70
     1
102
RTVSPropertyOp48
 70
     1
102
RTVSPropertyOp49
 70
     1
102
RTVSPropertyOp50
 70
     1
102
RTVSPropertyOp51
 70
     0
102
RTVSPropertyOp52
 70
     0
102
RTVSPropertyOp53
 70
     1
102
RTVSPropertyOp54
 70
     1
102
RTVSPropertyOp55
 70
     1
102
RTVSPropertyOp56
 70
     1
102
RTVSPropertyOp57
 70
     1
102
RTVSPropertyOp58
 70
     1
102
RTVSPropertyOp59
 70
     1
102
RTVSPropertyOp60
 70
     1
102
RTVSPropertyOp61
 70
     1
102
RTVSPropertyOp62
 70
     1
  0
XRECORD
  5
33B6
102
{ACAD_REACTORS
330
33B5
102
}
330
33B5
100
AcDbXrecord
280
     1
102
RTVSPost2010Prop28
280
     0
102
RTVSPost2010PropOp28
 70
     1
102
RTVSPost2010Prop29
280
     1
102
RTVSPost2010PropOp29
 70
     1
102
RTVSPost2010Prop30
280
     1
102
RTVSPost2010PropOp30
 70
     1
102
RTVSPost2010Prop31
280
     0
102
RTVSPost2010PropOp31
 70
     1
102
RTVSPost2010Prop32
280
     0
102
RTVSPost2010PropOp32
 70
     1
102
RTVSPost2010Prop33
280
     0
102
RTVSPost2010PropOp33
 70
     1
102
RTVSPost2010Prop34
280
     0
102
RTVSPost2010PropOp34
 70
     1
102
RTVSPost2010Prop35
280
     0
102
RTVSPost2010PropOp35
 70
     1
102
RTVSPost2010Prop36
280
     0
102
RTVSPost2010PropOp36
 70
     1
102
RTVSPost2010Prop37
 90
       50
102
RTVSPost2010PropOp37
 70
     1
102
RTVSPost2010Prop38
140
0.0
102
RTVSPost2010PropOp38
 70
     1
102
RTVSPost2010Prop39
140
1.0
102
RTVSPost2010PropOp39
 70
     1
102
RTVSPost2010Prop40
 90
        0
102
RTVSPost2010PropOp40
 70
     1
102
RTVSPost2010Prop41ColorIndex
 90
       18
102
RTVSPost2010Prop41ColorRGB
 90
        0
102
RTVSPost2010PropOp41
 70
     1
102
RTVSPost2010Prop42
 90
       50
102
RTVSPost2010PropOp42
 70
     1
102
RTVSPost2010Prop43
 90
        3
102
RTVSPost2010PropOp43
 70
     1
102
RTVSPost2010Prop44ColorIndex
 90
        5
102
RTVSPost2010Prop44ColorRGB
 90
      255
102
RTVSPost2010PropOp44
 70
     1
102
RTVSPost2010Prop45
280
     0
102
RTVSPost2010PropOp45
 70
     1
102
RTVSPost2010Prop46
 90
       50
102
RTVSPost2010PropOp46
 70
     1
102
RTVSPost2010Prop47
 90
       50
102
RTVSPost2010PropOp47
 70
     1
102
RTVSPost2010Prop48
 90
       50
102
RTVSPost2010PropOp48
 70
     1
102
RTVSPost2010Prop49
280
     0
102
RTVSPost2010PropOp49
 70
     1
102
RTVSPost2010Prop50
 90
       50
102
RTVSPost2010PropOp50
 70
     1
102
RTVSPost2010Prop51ColorIndex
 90
      256
102
RTVSPost2010Prop51ColorRGB
 90
-16777216
102
RTVSPost2010PropOp51
 70
     0
102
RTVSPost2010Prop52
140
1.0
102
RTVSPost2010PropOp52
 70
     0
102
RTVSPost2010Prop53
 90
        2
102
RTVSPost2010PropOp53
 70
     1
102
RTVSPost2010Prop54
  1
strokes_ogs.tif
102
RTVSPost2010PropOp54
 70
     1
102
RTVSPost2010Prop55
280
     0
102
RTVSPost2010PropOp55
 70
     1
102
RTVSPost2010Prop56
140
1.0
102
RTVSPost2010PropOp56
 70
     1
102
RTVSPost2010Prop57
140
1.0
102
RTVSPost2010PropOp57
 70
     1
102
RTVSPropertyOp0
 70
     1
102
RTVSPropertyOp1
 70
     1
102
RTVSPropertyOp2
 70
     1
102
RTVSPropertyOp3
 70
     1
102
RTVSPropertyOp4
 70
     1
102
RTVSPropertyOp5
 70
     1
102
RTVSPropertyOp6
 70
     1
102
RTVSPropertyOp7
 70
     1
102
RTVSPropertyOp8
 70
     1
102
RTVSPropertyOp9
 70
     1
102
RTVSPropertyOp10
 70
     1
102
RTVSPropertyOp11
 70
     1
102
RTVSPropertyOp12
 70
     1
102
RTVSPropertyOp13
 70
     1
102
RTVSPropertyOp14
 70
     1
102
RTVSPropertyOp15
 70
     1
102
RTVSPropertyOp16
 70
     1
102
RTVSPropertyOp17
 70
     1
102
RTVSPropertyOp18
 70
     1
102
RTVSPropertyOp19
 70
     1
102
RTVSPropertyOp20
 70
     1
102
RTVSPropertyOp21
 70
     1
102
RTVSPropertyOp22
 70
     1
102
RTVSPropertyOp23
 70
     1
102
RTVSPropertyOp24
 70
     1
102
RTVSPropertyOp25
 70
     1
102
RTVSPropertyOp26
 70
     1
102
RTVSPropertyOp27
 70
     1
102
RTVSPropertyOp28
 70
     1
102
RTVSPropertyOp29
 70
     1
102
RTVSPropertyOp30
 70
     1
102
RTVSPropertyOp31
 70
     1
102
RTVSPropertyOp32
 70
     1
102
RTVSPropertyOp33
 70
     1
102
RTVSPropertyOp34
 70
     1
102
RTVSPropertyOp35
 70
     1
102
RTVSPropertyOp36
 70
     1
102
RTVSPropertyOp37
 70
     1
102
RTVSPropertyOp38
 70
     1
102
RTVSPropertyOp39
 70
     1
102
RTVSPropertyOp40
 70
     1
102
RTVSPropertyOp41
 70
     1
102
RTVSPropertyOp42
 70
     1
102
RTVSPropertyOp43
 70
     1
102
RTVSPropertyOp44
 70
     1
102
RTVSPropertyOp45
 70
     1
102
RTVSPropertyOp46
 70
     1
102
RTVSPropertyOp47
 70
     1
102
RTVSPropertyOp48
 70
     1
102
RTVSPropertyOp49
 70
     1
102
RTVSPropertyOp50
 70
     1
102
RTVSPropertyOp51
 70
     0
102
RTVSPropertyOp52
 70
     0
102
RTVSPropertyOp53
 70
     1
102
RTVSPropertyOp54
 70
     1
102
RTVSPropertyOp55
 70
     1
102
RTVSPropertyOp56
 70
     1
102
RTVSPropertyOp57
 70
     1
102
RTVSPropertyOp58
 70
     1
102
RTVSPropertyOp59
 70
     1
102
RTVSPropertyOp60
 70
     1
102
RTVSPropertyOp61
 70
     1
102
RTVSPropertyOp62
 70
     1
  0
XRECORD
  5
33B8
102
{ACAD_REACTORS
330
33B7
102
}
330
33B7
100
AcDbXrecord
280
     1
102
RTVSPost2010Prop28
280
     0
102
RTVSPost2010PropOp28
 70
     1
102
RTVSPost2010Prop29
280
     1
102
RTVSPost2010PropOp29
 70
     1
102
RTVSPost2010Prop30
280
     1
102
RTVSPost2010PropOp30
 70
     1
102
RTVSPost2010Prop31
280
     0
102
RTVSPost2010PropOp31
 70
     1
102
RTVSPost2010Prop32
280
     0
102
RTVSPost2010PropOp32
 70
     1
102
RTVSPost2010Prop33
280
     0
102
RTVSPost2010PropOp33
 70
     1
102
RTVSPost2010Prop34
280
     0
102
RTVSPost2010PropOp34
 70
     1
102
RTVSPost2010Prop35
280
     0
102
RTVSPost2010PropOp35
 70
     1
102
RTVSPost2010Prop36
280
     0
102
RTVSPost2010PropOp36
 70
     1
102
RTVSPost2010Prop37
 90
       50
102
RTVSPost2010PropOp37
 70
     1
102
RTVSPost2010Prop38
140
0.0
102
RTVSPost2010PropOp38
 70
     1
102
RTVSPost2010Prop39
140
1.0
102
RTVSPost2010PropOp39
 70
     1
102
RTVSPost2010Prop40
 90
        0
102
RTVSPost2010PropOp40
 70
     1
102
RTVSPost2010Prop41ColorIndex
 90
       18
102
RTVSPost2010Prop41ColorRGB
 90
        0
102
RTVSPost2010PropOp41
 70
     1
102
RTVSPost2010Prop42
 90
       50
102
RTVSPost2010PropOp42
 70
     1
102
RTVSPost2010Prop43
 90
        3
102
RTVSPost2010PropOp43
 70
     1
102
RTVSPost2010Prop44ColorIndex
 90
        5
102
RTVSPost2010Prop44ColorRGB
 90
      255
102
RTVSPost2010PropOp44
 70
     1
102
RTVSPost2010Prop45
280
     0
102
RTVSPost2010PropOp45
 70
     1
102
RTVSPost2010Prop46
 90
       50
102
RTVSPost2010PropOp46
 70
     1
102
RTVSPost2010Prop47
 90
       50
102
RTVSPost2010PropOp47
 70
     1
102
RTVSPost2010Prop48
 90
       50
102
RTVSPost2010PropOp48
 70
     1
102
RTVSPost2010Prop49
280
     0
102
RTVSPost2010PropOp49
 70
     1
102
RTVSPost2010Prop50
 90
       50
102
RTVSPost2010PropOp50
 70
     1
102
RTVSPost2010Prop51ColorIndex
 90
      256
102
RTVSPost2010Prop51ColorRGB
 90
-16777216
102
RTVSPost2010PropOp51
 70
     0
102
RTVSPost2010Prop52
140
1.0
102
RTVSPost2010PropOp52
 70
     0
102
RTVSPost2010Prop53
 90
        2
102
RTVSPost2010PropOp53
 70
     1
102
RTVSPost2010Prop54
  1
strokes_ogs.tif
102
RTVSPost2010PropOp54
 70
     1
102
RTVSPost2010Prop55
280
     0
102
RTVSPost2010PropOp55
 70
     1
102
RTVSPost2010Prop56
140
1.0
102
RTVSPost2010PropOp56
 70
     1
102
RTVSPost2010Prop57
140
1.0
102
RTVSPost2010PropOp57
 70
     1
102
RTVSPropertyOp0
 70
     1
102
RTVSPropertyOp1
 70
     1
102
RTVSPropertyOp2
 70
     1
102
RTVSPropertyOp3
 70
     1
102
RTVSPropertyOp4
 70
     1
102
RTVSPropertyOp5
 70
     1
102
RTVSPropertyOp6
 70
     1
102
RTVSPropertyOp7
 70
     1
102
RTVSPropertyOp8
 70
     1
102
RTVSPropertyOp9
 70
     1
102
RTVSPropertyOp10
 70
     1
102
RTVSPropertyOp11
 70
     1
102
RTVSPropertyOp12
 70
     1
102
RTVSPropertyOp13
 70
     1
102
RTVSPropertyOp14
 70
     1
102
RTVSPropertyOp15
 70
     1
102
RTVSPropertyOp16
 70
     1
102
RTVSPropertyOp17
 70
     1
102
RTVSPropertyOp18
 70
     1
102
RTVSPropertyOp19
 70
     1
102
RTVSPropertyOp20
 70
     1
102
RTVSPropertyOp21
 70
     1
102
RTVSPropertyOp22
 70
     1
102
RTVSPropertyOp23
 70
     1
102
RTVSPropertyOp24
 70
     1
102
RTVSPropertyOp25
 70
     1
102
RTVSPropertyOp26
 70
     1
102
RTVSPropertyOp27
 70
     1
102
RTVSPropertyOp28
 70
     1
102
RTVSPropertyOp29
 70
     1
102
RTVSPropertyOp30
 70
     1
102
RTVSPropertyOp31
 70
     1
102
RTVSPropertyOp32
 70
     1
102
RTVSPropertyOp33
 70
     1
102
RTVSPropertyOp34
 70
     1
102
RTVSPropertyOp35
 70
     1
102
RTVSPropertyOp36
 70
     1
102
RTVSPropertyOp37
 70
     1
102
RTVSPropertyOp38
 70
     1
102
RTVSPropertyOp39
 70
     1
102
RTVSPropertyOp40
 70
     1
102
RTVSPropertyOp41
 70
     1
102
RTVSPropertyOp42
 70
     1
102
RTVSPropertyOp43
 70
     1
102
RTVSPropertyOp44
 70
     1
102
RTVSPropertyOp45
 70
     1
102
RTVSPropertyOp46
 70
     1
102
RTVSPropertyOp47
 70
     1
102
RTVSPropertyOp48
 70
     1
102
RTVSPropertyOp49
 70
     1
102
RTVSPropertyOp50
 70
     1
102
RTVSPropertyOp51
 70
     0
102
RTVSPropertyOp52
 70
     0
102
RTVSPropertyOp53
 70
     1
102
RTVSPropertyOp54
 70
     1
102
RTVSPropertyOp55
 70
     1
102
RTVSPropertyOp56
 70
     1
102
RTVSPropertyOp57
 70
     1
102
RTVSPropertyOp58
 70
     1
102
RTVSPropertyOp59
 70
     1
102
RTVSPropertyOp60
 70
     1
102
RTVSPropertyOp61
 70
     1
102
RTVSPropertyOp62
 70
     1
  0
XRECORD
  5
33C0
102
{ACAD_REACTORS
330
33BF
102
}
330
33BF
100
AcDbXrecord
280
     1
102
RTVSPost2010Prop28
280
     0
102
RTVSPost2010PropOp28
 70
     1
102
RTVSPost2010Prop29
280
     1
102
RTVSPost2010PropOp29
 70
     1
102
RTVSPost2010Prop30
280
     1
102
RTVSPost2010PropOp30
 70
     1
102
RTVSPost2010Prop31
280
     0
102
RTVSPost2010PropOp31
 70
     1
102
RTVSPost2010Prop32
280
     0
102
RTVSPost2010PropOp32
 70
     1
102
RTVSPost2010Prop33
280
     0
102
RTVSPost2010PropOp33
 70
     1
102
RTVSPost2010Prop34
280
     0
102
RTVSPost2010PropOp34
 70
     1
102
RTVSPost2010Prop35
280
     0
102
RTVSPost2010PropOp35
 70
     1
102
RTVSPost2010Prop36
280
     0
102
RTVSPost2010PropOp36
 70
     1
102
RTVSPost2010Prop37
 90
       50
102
RTVSPost2010PropOp37
 70
     1
102
RTVSPost2010Prop38
140
0.0
102
RTVSPost2010PropOp38
 70
     1
102
RTVSPost2010Prop39
140
1.0
102
RTVSPost2010PropOp39
 70
     1
102
RTVSPost2010Prop40
 90
        0
102
RTVSPost2010PropOp40
 70
     1
102
RTVSPost2010Prop41ColorIndex
 90
       18
102
RTVSPost2010Prop41ColorRGB
 90
        0
102
RTVSPost2010PropOp41
 70
     1
102
RTVSPost2010Prop42
 90
       50
102
RTVSPost2010PropOp42
 70
     1
102
RTVSPost2010Prop43
 90
        3
102
RTVSPost2010PropOp43
 70
     1
102
RTVSPost2010Prop44ColorIndex
 90
        5
102
RTVSPost2010Prop44ColorRGB
 90
      255
102
RTVSPost2010PropOp44
 70
     1
102
RTVSPost2010Prop45
280
     0
102
RTVSPost2010PropOp45
 70
     1
102
RTVSPost2010Prop46
 90
       50
102
RTVSPost2010PropOp46
 70
     1
102
RTVSPost2010Prop47
 90
       50
102
RTVSPost2010PropOp47
 70
     1
102
RTVSPost2010Prop48
 90
       50
102
RTVSPost2010PropOp48
 70
     1
102
RTVSPost2010Prop49
280
     0
102
RTVSPost2010PropOp49
 70
     1
102
RTVSPost2010Prop50
 90
       50
102
RTVSPost2010PropOp50
 70
     1
102
RTVSPost2010Prop51ColorIndex
 90
      256
102
RTVSPost2010Prop51ColorRGB
 90
-16777216
102
RTVSPost2010PropOp51
 70
     0
102
RTVSPost2010Prop52
140
1.0
102
RTVSPost2010PropOp52
 70
     0
102
RTVSPost2010Prop53
 90
        2
102
RTVSPost2010PropOp53
 70
     1
102
RTVSPost2010Prop54
  1
strokes_ogs.tif
102
RTVSPost2010PropOp54
 70
     1
102
RTVSPost2010Prop55
280
     0
102
RTVSPost2010PropOp55
 70
     1
102
RTVSPost2010Prop56
140
1.0
102
RTVSPost2010PropOp56
 70
     1
102
RTVSPost2010Prop57
140
1.0
102
RTVSPost2010PropOp57
 70
     1
102
RTVSPropertyOp0
 70
     1
102
RTVSPropertyOp1
 70
     1
102
RTVSPropertyOp2
 70
     1
102
RTVSPropertyOp3
 70
     1
102
RTVSPropertyOp4
 70
     1
102
RTVSPropertyOp5
 70
     1
102
RTVSPropertyOp6
 70
     1
102
RTVSPropertyOp7
 70
     1
102
RTVSPropertyOp8
 70
     1
102
RTVSPropertyOp9
 70
     1
102
RTVSPropertyOp10
 70
     1
102
RTVSPropertyOp11
 70
     1
102
RTVSPropertyOp12
 70
     1
102
RTVSPropertyOp13
 70
     1
102
RTVSPropertyOp14
 70
     1
102
RTVSPropertyOp15
 70
     1
102
RTVSPropertyOp16
 70
     1
102
RTVSPropertyOp17
 70
     1
102
RTVSPropertyOp18
 70
     1
102
RTVSPropertyOp19
 70
     1
102
RTVSPropertyOp20
 70
     1
102
RTVSPropertyOp21
 70
     1
102
RTVSPropertyOp22
 70
     1
102
RTVSPropertyOp23
 70
     1
102
RTVSPropertyOp24
 70
     1
102
RTVSPropertyOp25
 70
     1
102
RTVSPropertyOp26
 70
     1
102
RTVSPropertyOp27
 70
     1
102
RTVSPropertyOp28
 70
     1
102
RTVSPropertyOp29
 70
     1
102
RTVSPropertyOp30
 70
     1
102
RTVSPropertyOp31
 70
     1
102
RTVSPropertyOp32
 70
     1
102
RTVSPropertyOp33
 70
     1
102
RTVSPropertyOp34
 70
     1
102
RTVSPropertyOp35
 70
     1
102
RTVSPropertyOp36
 70
     1
102
RTVSPropertyOp37
 70
     1
102
RTVSPropertyOp38
 70
     1
102
RTVSPropertyOp39
 70
     1
102
RTVSPropertyOp40
 70
     1
102
RTVSPropertyOp41
 70
     1
102
RTVSPropertyOp42
 70
     1
102
RTVSPropertyOp43
 70
     1
102
RTVSPropertyOp44
 70
     1
102
RTVSPropertyOp45
 70
     1
102
RTVSPropertyOp46
 70
     1
102
RTVSPropertyOp47
 70
     1
102
RTVSPropertyOp48
 70
     1
102
RTVSPropertyOp49
 70
     1
102
RTVSPropertyOp50
 70
     1
102
RTVSPropertyOp51
 70
     0
102
RTVSPropertyOp52
 70
     0
102
RTVSPropertyOp53
 70
     1
102
RTVSPropertyOp54
 70
     1
102
RTVSPropertyOp55
 70
     1
102
RTVSPropertyOp56
 70
     1
102
RTVSPropertyOp57
 70
     1
102
RTVSPropertyOp58
 70
     1
102
RTVSPropertyOp59
 70
     1
102
RTVSPropertyOp60
 70
     1
102
RTVSPropertyOp61
 70
     1
102
RTVSPropertyOp62
 70
     1
  0
XRECORD
  5
33DC
102
{ACAD_REACTORS
330
33DB
102
}
330
33DB
100
AcDbXrecord
280
     1
102
RTVSPost2010Prop28
280
     0
102
RTVSPost2010PropOp28
 70
     1
102
RTVSPost2010Prop29
280
     1
102
RTVSPost2010PropOp29
 70
     1
102
RTVSPost2010Prop30
280
     1
102
RTVSPost2010PropOp30
 70
     1
102
RTVSPost2010Prop31
280
     0
102
RTVSPost2010PropOp31
 70
     1
102
RTVSPost2010Prop32
280
     0
102
RTVSPost2010PropOp32
 70
     1
102
RTVSPost2010Prop33
280
     0
102
RTVSPost2010PropOp33
 70
     1
102
RTVSPost2010Prop34
280
     0
102
RTVSPost2010PropOp34
 70
     1
102
RTVSPost2010Prop35
280
     0
102
RTVSPost2010PropOp35
 70
     1
102
RTVSPost2010Prop36
280
     0
102
RTVSPost2010PropOp36
 70
     1
102
RTVSPost2010Prop37
 90
       50
102
RTVSPost2010PropOp37
 70
     0
102
RTVSPost2010Prop38
140
0.0
102
RTVSPost2010PropOp38
 70
     0
102
RTVSPost2010Prop39
140
1.0
102
RTVSPost2010PropOp39
 70
     0
102
RTVSPost2010Prop40
 90
        0
102
RTVSPost2010PropOp40
 70
     0
102
RTVSPost2010Prop41ColorIndex
 90
       18
102
RTVSPost2010Prop41ColorRGB
 90
        0
102
RTVSPost2010PropOp41
 70
     0
102
RTVSPost2010Prop42
 90
       50
102
RTVSPost2010PropOp42
 70
     0
102
RTVSPost2010Prop43
 90
        3
102
RTVSPost2010PropOp43
 70
     0
102
RTVSPost2010Prop44ColorIndex
 90
        5
102
RTVSPost2010Prop44ColorRGB
 90
      255
102
RTVSPost2010PropOp44
 70
     0
102
RTVSPost2010Prop45
280
     0
102
RTVSPost2010PropOp45
 70
     1
102
RTVSPost2010Prop46
 90
       50
102
RTVSPost2010PropOp46
 70
     0
102
RTVSPost2010Prop47
 90
       50
102
RTVSPost2010PropOp47
 70
     0
102
RTVSPost2010Prop48
 90
       50
102
RTVSPost2010PropOp48
 70
     0
102
RTVSPost2010Prop49
280
     0
102
RTVSPost2010PropOp49
 70
     1
102
RTVSPost2010Prop50
 90
       50
102
RTVSPost2010PropOp50
 70
     0
102
RTVSPost2010Prop51ColorIndex
 90
      256
102
RTVSPost2010Prop51ColorRGB
 90
-16777216
102
RTVSPost2010PropOp51
 70
     0
102
RTVSPost2010Prop52
140
1.0
102
RTVSPost2010PropOp52
 70
     0
102
RTVSPost2010Prop53
 90
        2
102
RTVSPost2010PropOp53
 70
     0
102
RTVSPost2010Prop54
  1
strokes_ogs.tif
102
RTVSPost2010PropOp54
 70
     0
102
RTVSPost2010Prop55
280
     0
102
RTVSPost2010PropOp55
 70
     1
102
RTVSPost2010Prop56
140
1.0
102
RTVSPost2010PropOp56
 70
     0
102
RTVSPost2010Prop57
140
1.0
102
RTVSPost2010PropOp57
 70
     0
102
RTVSPropertyOp0
 70
     0
102
RTVSPropertyOp1
 70
     0
102
RTVSPropertyOp2
 70
     0
102
RTVSPropertyOp3
 70
     0
102
RTVSPropertyOp4
 70
     0
102
RTVSPropertyOp5
 70
     0
102
RTVSPropertyOp6
 70
     0
102
RTVSPropertyOp7
 70
     0
102
RTVSPropertyOp8
 70
     0
102
RTVSPropertyOp9
 70
     0
102
RTVSPropertyOp10
 70
     0
102
RTVSPropertyOp11
 70
     0
102
RTVSPropertyOp12
 70
     0
102
RTVSPropertyOp13
 70
     0
102
RTVSPropertyOp14
 70
     2
102
RTVSPropertyOp15
 70
     0
102
RTVSPropertyOp16
 70
     0
102
RTVSPropertyOp17
 70
     0
102
RTVSPropertyOp18
 70
     0
102
RTVSPropertyOp19
 70
     0
102
RTVSPropertyOp20
 70
     0
102
RTVSPropertyOp21
 70
     0
102
RTVSPropertyOp22
 70
     0
102
RTVSPropertyOp23
 70
     0
102
RTVSPropertyOp24
 70
     0
102
RTVSPropertyOp25
 70
     0
102
RTVSPropertyOp26
 70
     0
102
RTVSPropertyOp27
 70
     0
102
RTVSPropertyOp28
 70
     1
102
RTVSPropertyOp29
 70
     1
102
RTVSPropertyOp30
 70
     1
102
RTVSPropertyOp31
 70
     1
102
RTVSPropertyOp32
 70
     1
102
RTVSPropertyOp33
 70
     1
102
RTVSPropertyOp34
 70
     1
102
RTVSPropertyOp35
 70
     1
102
RTVSPropertyOp36
 70
     1
102
RTVSPropertyOp37
 70
     0
102
RTVSPropertyOp38
 70
     0
102
RTVSPropertyOp39
 70
     0
102
RTVSPropertyOp40
 70
     0
102
RTVSPropertyOp41
 70
     0
102
RTVSPropertyOp42
 70
     0
102
RTVSPropertyOp43
 70
     0
102
RTVSPropertyOp44
 70
     0
102
RTVSPropertyOp45
 70
     1
102
RTVSPropertyOp46
 70
     0
102
RTVSPropertyOp47
 70
     0
102
RTVSPropertyOp48
 70
     0
102
RTVSPropertyOp49
 70
     1
102
RTVSPropertyOp50
 70
     0
102
RTVSPropertyOp51
 70
     0
102
RTVSPropertyOp52
 70
     0
102
RTVSPropertyOp53
 70
     0
102
RTVSPropertyOp54
 70
     0
102
RTVSPropertyOp55
 70
     1
102
RTVSPropertyOp56
 70
     0
102
RTVSPropertyOp57
 70
     0
102
RTVSPropertyOp58
 70
     0
102
RTVSPropertyOp59
 70
     0
102
RTVSPropertyOp60
 70
     0
102
RTVSPropertyOp61
 70
     0
102
RTVSPropertyOp62
 70
     0
  0
XRECORD
  5
33CC
102
{ACAD_REACTORS
330
33CB
102
}
330
33CB
100
AcDbXrecord
280
     1
102
RTVSPost2010Prop28
280
     0
102
RTVSPost2010PropOp28
 70
     1
102
RTVSPost2010Prop29
280
     1
102
RTVSPost2010PropOp29
 70
     1
102
RTVSPost2010Prop30
280
     1
102
RTVSPost2010PropOp30
 70
     1
102
RTVSPost2010Prop31
280
     0
102
RTVSPost2010PropOp31
 70
     1
102
RTVSPost2010Prop32
280
     0
102
RTVSPost2010PropOp32
 70
     1
102
RTVSPost2010Prop33
280
     0
102
RTVSPost2010PropOp33
 70
     1
102
RTVSPost2010Prop34
280
     0
102
RTVSPost2010PropOp34
 70
     1
102
RTVSPost2010Prop35
280
     0
102
RTVSPost2010PropOp35
 70
     1
102
RTVSPost2010Prop36
280
     0
102
RTVSPost2010PropOp36
 70
     1
102
RTVSPost2010Prop37
 90
       50
102
RTVSPost2010PropOp37
 70
     1
102
RTVSPost2010Prop38
140
0.0
102
RTVSPost2010PropOp38
 70
     1
102
RTVSPost2010Prop39
140
1.0
102
RTVSPost2010PropOp39
 70
     1
102
RTVSPost2010Prop40
 90
        0
102
RTVSPost2010PropOp40
 70
     1
102
RTVSPost2010Prop41ColorIndex
 90
       18
102
RTVSPost2010Prop41ColorRGB
 90
        0
102
RTVSPost2010PropOp41
 70
     1
102
RTVSPost2010Prop42
 90
       50
102
RTVSPost2010PropOp42
 70
     1
102
RTVSPost2010Prop43
 90
        3
102
RTVSPost2010PropOp43
 70
     1
102
RTVSPost2010Prop44ColorIndex
 90
        5
102
RTVSPost2010Prop44ColorRGB
 90
      255
102
RTVSPost2010PropOp44
 70
     1
102
RTVSPost2010Prop45
280
     0
102
RTVSPost2010PropOp45
 70
     1
102
RTVSPost2010Prop46
 90
       50
102
RTVSPost2010PropOp46
 70
     1
102
RTVSPost2010Prop47
 90
       50
102
RTVSPost2010PropOp47
 70
     1
102
RTVSPost2010Prop48
 90
       50
102
RTVSPost2010PropOp48
 70
     1
102
RTVSPost2010Prop49
280
     0
102
RTVSPost2010PropOp49
 70
     1
102
RTVSPost2010Prop50
 90
       50
102
RTVSPost2010PropOp50
 70
     1
102
RTVSPost2010Prop51ColorIndex
 90
      256
102
RTVSPost2010Prop51ColorRGB
 90
-16777216
102
RTVSPost2010PropOp51
 70
     0
102
RTVSPost2010Prop52
140
1.0
102
RTVSPost2010PropOp52
 70
     0
102
RTVSPost2010Prop53
 90
        2
102
RTVSPost2010PropOp53
 70
     1
102
RTVSPost2010Prop54
  1
strokes_ogs.tif
102
RTVSPost2010PropOp54
 70
     1
102
RTVSPost2010Prop55
280
     0
102
RTVSPost2010PropOp55
 70
     1
102
RTVSPost2010Prop56
140
1.0
102
RTVSPost2010PropOp56
 70
     1
102
RTVSPost2010Prop57
140
1.0
102
RTVSPost2010PropOp57
 70
     1
102
RTVSPropertyOp0
 70
     1
102
RTVSPropertyOp1
 70
     1
102
RTVSPropertyOp2
 70
     1
102
RTVSPropertyOp3
 70
     1
102
RTVSPropertyOp4
 70
     1
102
RTVSPropertyOp5
 70
     1
102
RTVSPropertyOp6
 70
     1
102
RTVSPropertyOp7
 70
     1
102
RTVSPropertyOp8
 70
     1
102
RTVSPropertyOp9
 70
     1
102
RTVSPropertyOp10
 70
     1
102
RTVSPropertyOp11
 70
     1
102
RTVSPropertyOp12
 70
     1
102
RTVSPropertyOp13
 70
     1
102
RTVSPropertyOp14
 70
     1
102
RTVSPropertyOp15
 70
     1
102
RTVSPropertyOp16
 70
     1
102
RTVSPropertyOp17
 70
     1
102
RTVSPropertyOp18
 70
     1
102
RTVSPropertyOp19
 70
     1
102
RTVSPropertyOp20
 70
     1
102
RTVSPropertyOp21
 70
     1
102
RTVSPropertyOp22
 70
     1
102
RTVSPropertyOp23
 70
     1
102
RTVSPropertyOp24
 70
     1
102
RTVSPropertyOp25
 70
     1
102
RTVSPropertyOp26
 70
     1
102
RTVSPropertyOp27
 70
     1
102
RTVSPropertyOp28
 70
     1
102
RTVSPropertyOp29
 70
     1
102
RTVSPropertyOp30
 70
     1
102
RTVSPropertyOp31
 70
     1
102
RTVSPropertyOp32
 70
     1
102
RTVSPropertyOp33
 70
     1
102
RTVSPropertyOp34
 70
     1
102
RTVSPropertyOp35
 70
     1
102
RTVSPropertyOp36
 70
     1
102
RTVSPropertyOp37
 70
     1
102
RTVSPropertyOp38
 70
     1
102
RTVSPropertyOp39
 70
     1
102
RTVSPropertyOp40
 70
     1
102
RTVSPropertyOp41
 70
     1
102
RTVSPropertyOp42
 70
     1
102
RTVSPropertyOp43
 70
     1
102
RTVSPropertyOp44
 70
     1
102
RTVSPropertyOp45
 70
     1
102
RTVSPropertyOp46
 70
     1
102
RTVSPropertyOp47
 70
     1
102
RTVSPropertyOp48
 70
     1
102
RTVSPropertyOp49
 70
     1
102
RTVSPropertyOp50
 70
     1
102
RTVSPropertyOp51
 70
     0
102
RTVSPropertyOp52
 70
     0
102
RTVSPropertyOp53
 70
     1
102
RTVSPropertyOp54
 70
     1
102
RTVSPropertyOp55
 70
     1
102
RTVSPropertyOp56
 70
     1
102
RTVSPropertyOp57
 70
     1
102
RTVSPropertyOp58
 70
     1
102
RTVSPropertyOp59
 70
     1
102
RTVSPropertyOp60
 70
     1
102
RTVSPropertyOp61
 70
     1
102
RTVSPropertyOp62
 70
     1
  0
XRECORD
  5
33DE
102
{ACAD_REACTORS
330
33DD
102
}
330
33DD
100
AcDbXrecord
280
     1
102
RTVSPost2010Prop28
280
     0
102
RTVSPost2010PropOp28
 70
     1
102
RTVSPost2010Prop29
280
     1
102
RTVSPost2010PropOp29
 70
     1
102
RTVSPost2010Prop30
280
     1
102
RTVSPost2010PropOp30
 70
     1
102
RTVSPost2010Prop31
280
     0
102
RTVSPost2010PropOp31
 70
     1
102
RTVSPost2010Prop32
280
     0
102
RTVSPost2010PropOp32
 70
     1
102
RTVSPost2010Prop33
280
     0
102
RTVSPost2010PropOp33
 70
     1
102
RTVSPost2010Prop34
280
     0
102
RTVSPost2010PropOp34
 70
     1
102
RTVSPost2010Prop35
280
     0
102
RTVSPost2010PropOp35
 70
     1
102
RTVSPost2010Prop36
280
     0
102
RTVSPost2010PropOp36
 70
     1
102
RTVSPost2010Prop37
 90
       50
102
RTVSPost2010PropOp37
 70
     0
102
RTVSPost2010Prop38
140
0.0
102
RTVSPost2010PropOp38
 70
     0
102
RTVSPost2010Prop39
140
1.0
102
RTVSPost2010PropOp39
 70
     0
102
RTVSPost2010Prop40
 90
        0
102
RTVSPost2010PropOp40
 70
     0
102
RTVSPost2010Prop41ColorIndex
 90
       18
102
RTVSPost2010Prop41ColorRGB
 90
        0
102
RTVSPost2010PropOp41
 70
     0
102
RTVSPost2010Prop42
 90
       50
102
RTVSPost2010PropOp42
 70
     0
102
RTVSPost2010Prop43
 90
        3
102
RTVSPost2010PropOp43
 70
     0
102
RTVSPost2010Prop44ColorIndex
 90
        5
102
RTVSPost2010Prop44ColorRGB
 90
      255
102
RTVSPost2010PropOp44
 70
     0
102
RTVSPost2010Prop45
280
     0
102
RTVSPost2010PropOp45
 70
     1
102
RTVSPost2010Prop46
 90
       50
102
RTVSPost2010PropOp46
 70
     0
102
RTVSPost2010Prop47
 90
       50
102
RTVSPost2010PropOp47
 70
     0
102
RTVSPost2010Prop48
 90
       50
102
RTVSPost2010PropOp48
 70
     0
102
RTVSPost2010Prop49
280
     0
102
RTVSPost2010PropOp49
 70
     1
102
RTVSPost2010Prop50
 90
       50
102
RTVSPost2010PropOp50
 70
     0
102
RTVSPost2010Prop51ColorIndex
 90
      256
102
RTVSPost2010Prop51ColorRGB
 90
-16777216
102
RTVSPost2010PropOp51
 70
     0
102
RTVSPost2010Prop52
140
1.0
102
RTVSPost2010PropOp52
 70
     0
102
RTVSPost2010Prop53
 90
        2
102
RTVSPost2010PropOp53
 70
     0
102
RTVSPost2010Prop54
  1
strokes_ogs.tif
102
RTVSPost2010PropOp54
 70
     0
102
RTVSPost2010Prop55
280
     0
102
RTVSPost2010PropOp55
 70
     1
102
RTVSPost2010Prop56
140
1.0
102
RTVSPost2010PropOp56
 70
     0
102
RTVSPost2010Prop57
140
1.0
102
RTVSPost2010PropOp57
 70
     0
102
RTVSPropertyOp0
 70
     0
102
RTVSPropertyOp1
 70
     0
102
RTVSPropertyOp2
 70
     0
102
RTVSPropertyOp3
 70
     0
102
RTVSPropertyOp4
 70
     0
102
RTVSPropertyOp5
 70
     0
102
RTVSPropertyOp6
 70
     0
102
RTVSPropertyOp7
 70
     0
102
RTVSPropertyOp8
 70
     0
102
RTVSPropertyOp9
 70
     0
102
RTVSPropertyOp10
 70
     0
102
RTVSPropertyOp11
 70
     0
102
RTVSPropertyOp12
 70
     0
102
RTVSPropertyOp13
 70
     0
102
RTVSPropertyOp14
 70
     2
102
RTVSPropertyOp15
 70
     0
102
RTVSPropertyOp16
 70
     0
102
RTVSPropertyOp17
 70
     0
102
RTVSPropertyOp18
 70
     0
102
RTVSPropertyOp19
 70
     0
102
RTVSPropertyOp20
 70
     0
102
RTVSPropertyOp21
 70
     0
102
RTVSPropertyOp22
 70
     0
102
RTVSPropertyOp23
 70
     0
102
RTVSPropertyOp24
 70
     0
102
RTVSPropertyOp25
 70
     0
102
RTVSPropertyOp26
 70
     0
102
RTVSPropertyOp27
 70
     0
102
RTVSPropertyOp28
 70
     1
102
RTVSPropertyOp29
 70
     1
102
RTVSPropertyOp30
 70
     1
102
RTVSPropertyOp31
 70
     1
102
RTVSPropertyOp32
 70
     1
102
RTVSPropertyOp33
 70
     1
102
RTVSPropertyOp34
 70
     1
102
RTVSPropertyOp35
 70
     1
102
RTVSPropertyOp36
 70
     1
102
RTVSPropertyOp37
 70
     0
102
RTVSPropertyOp38
 70
     0
102
RTVSPropertyOp39
 70
     0
102
RTVSPropertyOp40
 70
     0
102
RTVSPropertyOp41
 70
     0
102
RTVSPropertyOp42
 70
     0
102
RTVSPropertyOp43
 70
     0
102
RTVSPropertyOp44
 70
     0
102
RTVSPropertyOp45
 70
     1
102
RTVSPropertyOp46
 70
     0
102
RTVSPropertyOp47
 70
     0
102
RTVSPropertyOp48
 70
     0
102
RTVSPropertyOp49
 70
     1
102
RTVSPropertyOp50
 70
     0
102
RTVSPropertyOp51
 70
     0
102
RTVSPropertyOp52
 70
     0
102
RTVSPropertyOp53
 70
     0
102
RTVSPropertyOp54
 70
     0
102
RTVSPropertyOp55
 70
     1
102
RTVSPropertyOp56
 70
     0
102
RTVSPropertyOp57
 70
     0
102
RTVSPropertyOp58
 70
     0
102
RTVSPropertyOp59
 70
     0
102
RTVSPropertyOp60
 70
     0
102
RTVSPropertyOp61
 70
     0
102
RTVSPropertyOp62
 70
     0
  0
XRECORD
  5
33C4
102
{ACAD_REACTORS
330
33C3
102
}
330
33C3
100
AcDbXrecord
280
     1
102
RTVSPost2010Prop28
280
     0
102
RTVSPost2010PropOp28
 70
     1
102
RTVSPost2010Prop29
280
     1
102
RTVSPost2010PropOp29
 70
     1
102
RTVSPost2010Prop30
280
     1
102
RTVSPost2010PropOp30
 70
     1
102
RTVSPost2010Prop31
280
     0
102
RTVSPost2010PropOp31
 70
     1
102
RTVSPost2010Prop32
280
     0
102
RTVSPost2010PropOp32
 70
     1
102
RTVSPost2010Prop33
280
     0
102
RTVSPost2010PropOp33
 70
     1
102
RTVSPost2010Prop34
280
     0
102
RTVSPost2010PropOp34
 70
     1
102
RTVSPost2010Prop35
280
     0
102
RTVSPost2010PropOp35
 70
     1
102
RTVSPost2010Prop36
280
     0
102
RTVSPost2010PropOp36
 70
     1
102
RTVSPost2010Prop37
 90
       50
102
RTVSPost2010PropOp37
 70
     1
102
RTVSPost2010Prop38
140
0.0
102
RTVSPost2010PropOp38
 70
     1
102
RTVSPost2010Prop39
140
1.0
102
RTVSPost2010PropOp39
 70
     1
102
RTVSPost2010Prop40
 90
        0
102
RTVSPost2010PropOp40
 70
     1
102
RTVSPost2010Prop41ColorIndex
 90
       18
102
RTVSPost2010Prop41ColorRGB
 90
        0
102
RTVSPost2010PropOp41
 70
     1
102
RTVSPost2010Prop42
 90
       50
102
RTVSPost2010PropOp42
 70
     1
102
RTVSPost2010Prop43
 90
        3
102
RTVSPost2010PropOp43
 70
     1
102
RTVSPost2010Prop44ColorIndex
 90
        5
102
RTVSPost2010Prop44ColorRGB
 90
      255
102
RTVSPost2010PropOp44
 70
     1
102
RTVSPost2010Prop45
280
     0
102
RTVSPost2010PropOp45
 70
     1
102
RTVSPost2010Prop46
 90
       50
102
RTVSPost2010PropOp46
 70
     1
102
RTVSPost2010Prop47
 90
       50
102
RTVSPost2010PropOp47
 70
     1
102
RTVSPost2010Prop48
 90
       50
102
RTVSPost2010PropOp48
 70
     1
102
RTVSPost2010Prop49
280
     0
102
RTVSPost2010PropOp49
 70
     1
102
RTVSPost2010Prop50
 90
       50
102
RTVSPost2010PropOp50
 70
     1
102
RTVSPost2010Prop51ColorIndex
 90
      256
102
RTVSPost2010Prop51ColorRGB
 90
-16777216
102
RTVSPost2010PropOp51
 70
     0
102
RTVSPost2010Prop52
140
1.0
102
RTVSPost2010PropOp52
 70
     0
102
RTVSPost2010Prop53
 90
        2
102
RTVSPost2010PropOp53
 70
     1
102
RTVSPost2010Prop54
  1
strokes_ogs.tif
102
RTVSPost2010PropOp54
 70
     1
102
RTVSPost2010Prop55
280
     0
102
RTVSPost2010PropOp55
 70
     1
102
RTVSPost2010Prop56
140
1.0
102
RTVSPost2010PropOp56
 70
     1
102
RTVSPost2010Prop57
140
1.0
102
RTVSPost2010PropOp57
 70
     1
102
RTVSPropertyOp0
 70
     1
102
RTVSPropertyOp1
 70
     1
102
RTVSPropertyOp2
 70
     1
102
RTVSPropertyOp3
 70
     1
102
RTVSPropertyOp4
 70
     1
102
RTVSPropertyOp5
 70
     1
102
RTVSPropertyOp6
 70
     1
102
RTVSPropertyOp7
 70
     1
102
RTVSPropertyOp8
 70
     1
102
RTVSPropertyOp9
 70
     1
102
RTVSPropertyOp10
 70
     1
102
RTVSPropertyOp11
 70
     1
102
RTVSPropertyOp12
 70
     1
102
RTVSPropertyOp13
 70
     1
102
RTVSPropertyOp14
 70
     1
102
RTVSPropertyOp15
 70
     1
102
RTVSPropertyOp16
 70
     1
102
RTVSPropertyOp17
 70
     1
102
RTVSPropertyOp18
 70
     1
102
RTVSPropertyOp19
 70
     1
102
RTVSPropertyOp20
 70
     1
102
RTVSPropertyOp21
 70
     1
102
RTVSPropertyOp22
 70
     1
102
RTVSPropertyOp23
 70
     1
102
RTVSPropertyOp24
 70
     1
102
RTVSPropertyOp25
 70
     1
102
RTVSPropertyOp26
 70
     1
102
RTVSPropertyOp27
 70
     1
102
RTVSPropertyOp28
 70
     1
102
RTVSPropertyOp29
 70
     1
102
RTVSPropertyOp30
 70
     1
102
RTVSPropertyOp31
 70
     1
102
RTVSPropertyOp32
 70
     1
102
RTVSPropertyOp33
 70
     1
102
RTVSPropertyOp34
 70
     1
102
RTVSPropertyOp35
 70
     1
102
RTVSPropertyOp36
 70
     1
102
RTVSPropertyOp37
 70
     1
102
RTVSPropertyOp38
 70
     1
102
RTVSPropertyOp39
 70
     1
102
RTVSPropertyOp40
 70
     1
102
RTVSPropertyOp41
 70
     1
102
RTVSPropertyOp42
 70
     1
102
RTVSPropertyOp43
 70
     1
102
RTVSPropertyOp44
 70
     1
102
RTVSPropertyOp45
 70
     1
102
RTVSPropertyOp46
 70
     1
102
RTVSPropertyOp47
 70
     1
102
RTVSPropertyOp48
 70
     1
102
RTVSPropertyOp49
 70
     1
102
RTVSPropertyOp50
 70
     1
102
RTVSPropertyOp51
 70
     0
102
RTVSPropertyOp52
 70
     0
102
RTVSPropertyOp53
 70
     1
102
RTVSPropertyOp54
 70
     1
102
RTVSPropertyOp55
 70
     1
102
RTVSPropertyOp56
 70
     1
102
RTVSPropertyOp57
 70
     1
102
RTVSPropertyOp58
 70
     1
102
RTVSPropertyOp59
 70
     1
102
RTVSPropertyOp60
 70
     1
102
RTVSPropertyOp61
 70
     1
102
RTVSPropertyOp62
 70
     1
  0
XRECORD
  5
33DA
102
{ACAD_REACTORS
330
33D9
102
}
330
33D9
100
AcDbXrecord
280
     1
102
RTVSPost2010Prop28
280
     0
102
RTVSPost2010PropOp28
 70
     1
102
RTVSPost2010Prop29
280
     1
102
RTVSPost2010PropOp29
 70
     1
102
RTVSPost2010Prop30
280
     1
102
RTVSPost2010PropOp30
 70
     1
102
RTVSPost2010Prop31
280
     0
102
RTVSPost2010PropOp31
 70
     1
102
RTVSPost2010Prop32
280
     0
102
RTVSPost2010PropOp32
 70
     1
102
RTVSPost2010Prop33
280
     0
102
RTVSPost2010PropOp33
 70
     1
102
RTVSPost2010Prop34
280
     0
102
RTVSPost2010PropOp34
 70
     1
102
RTVSPost2010Prop35
280
     0
102
RTVSPost2010PropOp35
 70
     1
102
RTVSPost2010Prop36
280
     0
102
RTVSPost2010PropOp36
 70
     1
102
RTVSPost2010Prop37
 90
       50
102
RTVSPost2010PropOp37
 70
     1
102
RTVSPost2010Prop38
140
0.0
102
RTVSPost2010PropOp38
 70
     1
102
RTVSPost2010Prop39
140
1.0
102
RTVSPost2010PropOp39
 70
     1
102
RTVSPost2010Prop40
 90
        0
102
RTVSPost2010PropOp40
 70
     1
102
RTVSPost2010Prop41ColorIndex
 90
       18
102
RTVSPost2010Prop41ColorRGB
 90
        0
102
RTVSPost2010PropOp41
 70
     1
102
RTVSPost2010Prop42
 90
       50
102
RTVSPost2010PropOp42
 70
     1
102
RTVSPost2010Prop43
 90
        3
102
RTVSPost2010PropOp43
 70
     1
102
RTVSPost2010Prop44ColorIndex
 90
        5
102
RTVSPost2010Prop44ColorRGB
 90
      255
102
RTVSPost2010PropOp44
 70
     1
102
RTVSPost2010Prop45
280
     0
102
RTVSPost2010PropOp45
 70
     1
102
RTVSPost2010Prop46
 90
       50
102
RTVSPost2010PropOp46
 70
     1
102
RTVSPost2010Prop47
 90
       50
102
RTVSPost2010PropOp47
 70
     1
102
RTVSPost2010Prop48
 90
       50
102
RTVSPost2010PropOp48
 70
     1
102
RTVSPost2010Prop49
280
     0
102
RTVSPost2010PropOp49
 70
     1
102
RTVSPost2010Prop50
 90
       50
102
RTVSPost2010PropOp50
 70
     1
102
RTVSPost2010Prop51ColorIndex
 90
      256
102
RTVSPost2010Prop51ColorRGB
 90
-16777216
102
RTVSPost2010PropOp51
 70
     0
102
RTVSPost2010Prop52
140
1.0
102
RTVSPost2010PropOp52
 70
     0
102
RTVSPost2010Prop53
 90
        2
102
RTVSPost2010PropOp53
 70
     1
102
RTVSPost2010Prop54
  1
strokes_ogs.tif
102
RTVSPost2010PropOp54
 70
     1
102
RTVSPost2010Prop55
280
     0
102
RTVSPost2010PropOp55
 70
     1
102
RTVSPost2010Prop56
140
1.0
102
RTVSPost2010PropOp56
 70
     1
102
RTVSPost2010Prop57
140
1.0
102
RTVSPost2010PropOp57
 70
     1
102
RTVSPropertyOp0
 70
     1
102
RTVSPropertyOp1
 70
     1
102
RTVSPropertyOp2
 70
     1
102
RTVSPropertyOp3
 70
     1
102
RTVSPropertyOp4
 70
     1
102
RTVSPropertyOp5
 70
     1
102
RTVSPropertyOp6
 70
     1
102
RTVSPropertyOp7
 70
     1
102
RTVSPropertyOp8
 70
     1
102
RTVSPropertyOp9
 70
     1
102
RTVSPropertyOp10
 70
     1
102
RTVSPropertyOp11
 70
     1
102
RTVSPropertyOp12
 70
     1
102
RTVSPropertyOp13
 70
     1
102
RTVSPropertyOp14
 70
     1
102
RTVSPropertyOp15
 70
     1
102
RTVSPropertyOp16
 70
     1
102
RTVSPropertyOp17
 70
     1
102
RTVSPropertyOp18
 70
     1
102
RTVSPropertyOp19
 70
     1
102
RTVSPropertyOp20
 70
     1
102
RTVSPropertyOp21
 70
     1
102
RTVSPropertyOp22
 70
     1
102
RTVSPropertyOp23
 70
     1
102
RTVSPropertyOp24
 70
     1
102
RTVSPropertyOp25
 70
     1
102
RTVSPropertyOp26
 70
     1
102
RTVSPropertyOp27
 70
     1
102
RTVSPropertyOp28
 70
     1
102
RTVSPropertyOp29
 70
     1
102
RTVSPropertyOp30
 70
     1
102
RTVSPropertyOp31
 70
     1
102
RTVSPropertyOp32
 70
     1
102
RTVSPropertyOp33
 70
     1
102
RTVSPropertyOp34
 70
     1
102
RTVSPropertyOp35
 70
     1
102
RTVSPropertyOp36
 70
     1
102
RTVSPropertyOp37
 70
     1
102
RTVSPropertyOp38
 70
     1
102
RTVSPropertyOp39
 70
     1
102
RTVSPropertyOp40
 70
     1
102
RTVSPropertyOp41
 70
     1
102
RTVSPropertyOp42
 70
     1
102
RTVSPropertyOp43
 70
     1
102
RTVSPropertyOp44
 70
     1
102
RTVSPropertyOp45
 70
     1
102
RTVSPropertyOp46
 70
     1
102
RTVSPropertyOp47
 70
     1
102
RTVSPropertyOp48
 70
     1
102
RTVSPropertyOp49
 70
     1
102
RTVSPropertyOp50
 70
     1
102
RTVSPropertyOp51
 70
     0
102
RTVSPropertyOp52
 70
     0
102
RTVSPropertyOp53
 70
     1
102
RTVSPropertyOp54
 70
     1
102
RTVSPropertyOp55
 70
     1
102
RTVSPropertyOp56
 70
     1
102
RTVSPropertyOp57
 70
     1
102
RTVSPropertyOp58
 70
     1
102
RTVSPropertyOp59
 70
     1
102
RTVSPropertyOp60
 70
     1
102
RTVSPropertyOp61
 70
     1
102
RTVSPropertyOp62
 70
     1
  0
XRECORD
  5
33D8
102
{ACAD_REACTORS
330
33D7
102
}
330
33D7
100
AcDbXrecord
280
     1
102
RTVSPost2010Prop28
280
     0
102
RTVSPost2010PropOp28
 70
     1
102
RTVSPost2010Prop29
280
     1
102
RTVSPost2010PropOp29
 70
     1
102
RTVSPost2010Prop30
280
     1
102
RTVSPost2010PropOp30
 70
     1
102
RTVSPost2010Prop31
280
     0
102
RTVSPost2010PropOp31
 70
     1
102
RTVSPost2010Prop32
280
     0
102
RTVSPost2010PropOp32
 70
     1
102
RTVSPost2010Prop33
280
     0
102
RTVSPost2010PropOp33
 70
     1
102
RTVSPost2010Prop34
280
     0
102
RTVSPost2010PropOp34
 70
     1
102
RTVSPost2010Prop35
280
     0
102
RTVSPost2010PropOp35
 70
     1
102
RTVSPost2010Prop36
280
     0
102
RTVSPost2010PropOp36
 70
     1
102
RTVSPost2010Prop37
 90
       50
102
RTVSPost2010PropOp37
 70
     1
102
RTVSPost2010Prop38
140
0.0
102
RTVSPost2010PropOp38
 70
     1
102
RTVSPost2010Prop39
140
1.0
102
RTVSPost2010PropOp39
 70
     1
102
RTVSPost2010Prop40
 90
        0
102
RTVSPost2010PropOp40
 70
     1
102
RTVSPost2010Prop41ColorIndex
 90
       18
102
RTVSPost2010Prop41ColorRGB
 90
        0
102
RTVSPost2010PropOp41
 70
     1
102
RTVSPost2010Prop42
 90
       50
102
RTVSPost2010PropOp42
 70
     1
102
RTVSPost2010Prop43
 90
        3
102
RTVSPost2010PropOp43
 70
     1
102
RTVSPost2010Prop44ColorIndex
 90
        5
102
RTVSPost2010Prop44ColorRGB
 90
      255
102
RTVSPost2010PropOp44
 70
     1
102
RTVSPost2010Prop45
280
     0
102
RTVSPost2010PropOp45
 70
     1
102
RTVSPost2010Prop46
 90
       50
102
RTVSPost2010PropOp46
 70
     1
102
RTVSPost2010Prop47
 90
       50
102
RTVSPost2010PropOp47
 70
     1
102
RTVSPost2010Prop48
 90
       50
102
RTVSPost2010PropOp48
 70
     1
102
RTVSPost2010Prop49
280
     0
102
RTVSPost2010PropOp49
 70
     1
102
RTVSPost2010Prop50
 90
       50
102
RTVSPost2010PropOp50
 70
     1
102
RTVSPost2010Prop51ColorIndex
 90
      256
102
RTVSPost2010Prop51ColorRGB
 90
-16777216
102
RTVSPost2010PropOp51
 70
     0
102
RTVSPost2010Prop52
140
1.0
102
RTVSPost2010PropOp52
 70
     0
102
RTVSPost2010Prop53
 90
        2
102
RTVSPost2010PropOp53
 70
     1
102
RTVSPost2010Prop54
  1
strokes_ogs.tif
102
RTVSPost2010PropOp54
 70
     1
102
RTVSPost2010Prop55
280
     0
102
RTVSPost2010PropOp55
 70
     1
102
RTVSPost2010Prop56
140
1.0
102
RTVSPost2010PropOp56
 70
     1
102
RTVSPost2010Prop57
140
1.0
102
RTVSPost2010PropOp57
 70
     1
102
RTVSPropertyOp0
 70
     1
102
RTVSPropertyOp1
 70
     1
102
RTVSPropertyOp2
 70
     1
102
RTVSPropertyOp3
 70
     1
102
RTVSPropertyOp4
 70
     1
102
RTVSPropertyOp5
 70
     1
102
RTVSPropertyOp6
 70
     1
102
RTVSPropertyOp7
 70
     1
102
RTVSPropertyOp8
 70
     1
102
RTVSPropertyOp9
 70
     1
102
RTVSPropertyOp10
 70
     1
102
RTVSPropertyOp11
 70
     1
102
RTVSPropertyOp12
 70
     1
102
RTVSPropertyOp13
 70
     1
102
RTVSPropertyOp14
 70
     1
102
RTVSPropertyOp15
 70
     1
102
RTVSPropertyOp16
 70
     1
102
RTVSPropertyOp17
 70
     1
102
RTVSPropertyOp18
 70
     1
102
RTVSPropertyOp19
 70
     1
102
RTVSPropertyOp20
 70
     1
102
RTVSPropertyOp21
 70
     1
102
RTVSPropertyOp22
 70
     1
102
RTVSPropertyOp23
 70
     1
102
RTVSPropertyOp24
 70
     1
102
RTVSPropertyOp25
 70
     1
102
RTVSPropertyOp26
 70
     1
102
RTVSPropertyOp27
 70
     1
102
RTVSPropertyOp28
 70
     1
102
RTVSPropertyOp29
 70
     1
102
RTVSPropertyOp30
 70
     1
102
RTVSPropertyOp31
 70
     1
102
RTVSPropertyOp32
 70
     1
102
RTVSPropertyOp33
 70
     1
102
RTVSPropertyOp34
 70
     1
102
RTVSPropertyOp35
 70
     1
102
RTVSPropertyOp36
 70
     1
102
RTVSPropertyOp37
 70
     1
102
RTVSPropertyOp38
 70
     1
102
RTVSPropertyOp39
 70
     1
102
RTVSPropertyOp40
 70
     1
102
RTVSPropertyOp41
 70
     1
102
RTVSPropertyOp42
 70
     1
102
RTVSPropertyOp43
 70
     1
102
RTVSPropertyOp44
 70
     1
102
RTVSPropertyOp45
 70
     1
102
RTVSPropertyOp46
 70
     1
102
RTVSPropertyOp47
 70
     1
102
RTVSPropertyOp48
 70
     1
102
RTVSPropertyOp49
 70
     1
102
RTVSPropertyOp50
 70
     1
102
RTVSPropertyOp51
 70
     0
102
RTVSPropertyOp52
 70
     0
102
RTVSPropertyOp53
 70
     1
102
RTVSPropertyOp54
 70
     1
102
RTVSPropertyOp55
 70
     1
102
RTVSPropertyOp56
 70
     1
102
RTVSPropertyOp57
 70
     1
102
RTVSPropertyOp58
 70
     1
102
RTVSPropertyOp59
 70
     1
102
RTVSPropertyOp60
 70
     1
102
RTVSPropertyOp61
 70
     1
102
RTVSPropertyOp62
 70
     1
  0
XRECORD
  5
33D2
102
{ACAD_REACTORS
330
33D1
102
}
330
33D1
100
AcDbXrecord
280
     1
102
RTVSPost2010Prop28
280
     0
102
RTVSPost2010PropOp28
 70
     1
102
RTVSPost2010Prop29
280
     1
102
RTVSPost2010PropOp29
 70
     1
102
RTVSPost2010Prop30
280
     1
102
RTVSPost2010PropOp30
 70
     1
102
RTVSPost2010Prop31
280
     0
102
RTVSPost2010PropOp31
 70
     1
102
RTVSPost2010Prop32
280
     0
102
RTVSPost2010PropOp32
 70
     1
102
RTVSPost2010Prop33
280
     0
102
RTVSPost2010PropOp33
 70
     1
102
RTVSPost2010Prop34
280
     0
102
RTVSPost2010PropOp34
 70
     1
102
RTVSPost2010Prop35
280
     0
102
RTVSPost2010PropOp35
 70
     1
102
RTVSPost2010Prop36
280
     0
102
RTVSPost2010PropOp36
 70
     1
102
RTVSPost2010Prop37
 90
       50
102
RTVSPost2010PropOp37
 70
     1
102
RTVSPost2010Prop38
140
0.0
102
RTVSPost2010PropOp38
 70
     1
102
RTVSPost2010Prop39
140
1.0
102
RTVSPost2010PropOp39
 70
     1
102
RTVSPost2010Prop40
 90
        0
102
RTVSPost2010PropOp40
 70
     1
102
RTVSPost2010Prop41ColorIndex
 90
       18
102
RTVSPost2010Prop41ColorRGB
 90
        0
102
RTVSPost2010PropOp41
 70
     1
102
RTVSPost2010Prop42
 90
       50
102
RTVSPost2010PropOp42
 70
     1
102
RTVSPost2010Prop43
 90
        3
102
RTVSPost2010PropOp43
 70
     1
102
RTVSPost2010Prop44ColorIndex
 90
        5
102
RTVSPost2010Prop44ColorRGB
 90
      255
102
RTVSPost2010PropOp44
 70
     1
102
RTVSPost2010Prop45
280
     0
102
RTVSPost2010PropOp45
 70
     1
102
RTVSPost2010Prop46
 90
       50
102
RTVSPost2010PropOp46
 70
     1
102
RTVSPost2010Prop47
 90
       50
102
RTVSPost2010PropOp47
 70
     1
102
RTVSPost2010Prop48
 90
       50
102
RTVSPost2010PropOp48
 70
     1
102
RTVSPost2010Prop49
280
     0
102
RTVSPost2010PropOp49
 70
     1
102
RTVSPost2010Prop50
 90
       50
102
RTVSPost2010PropOp50
 70
     1
102
RTVSPost2010Prop51ColorIndex
 90
      256
102
RTVSPost2010Prop51ColorRGB
 90
-16777216
102
RTVSPost2010PropOp51
 70
     0
102
RTVSPost2010Prop52
140
1.0
102
RTVSPost2010PropOp52
 70
     0
102
RTVSPost2010Prop53
 90
        2
102
RTVSPost2010PropOp53
 70
     1
102
RTVSPost2010Prop54
  1
strokes_ogs.tif
102
RTVSPost2010PropOp54
 70
     1
102
RTVSPost2010Prop55
280
     0
102
RTVSPost2010PropOp55
 70
     1
102
RTVSPost2010Prop56
140
1.0
102
RTVSPost2010PropOp56
 70
     1
102
RTVSPost2010Prop57
140
1.0
102
RTVSPost2010PropOp57
 70
     1
102
RTVSPropertyOp0
 70
     1
102
RTVSPropertyOp1
 70
     1
102
RTVSPropertyOp2
 70
     1
102
RTVSPropertyOp3
 70
     1
102
RTVSPropertyOp4
 70
     1
102
RTVSPropertyOp5
 70
     1
102
RTVSPropertyOp6
 70
     1
102
RTVSPropertyOp7
 70
     1
102
RTVSPropertyOp8
 70
     1
102
RTVSPropertyOp9
 70
     1
102
RTVSPropertyOp10
 70
     1
102
RTVSPropertyOp11
 70
     1
102
RTVSPropertyOp12
 70
     1
102
RTVSPropertyOp13
 70
     1
102
RTVSPropertyOp14
 70
     1
102
RTVSPropertyOp15
 70
     1
102
RTVSPropertyOp16
 70
     1
102
RTVSPropertyOp17
 70
     1
102
RTVSPropertyOp18
 70
     1
102
RTVSPropertyOp19
 70
     1
102
RTVSPropertyOp20
 70
     1
102
RTVSPropertyOp21
 70
     1
102
RTVSPropertyOp22
 70
     1
102
RTVSPropertyOp23
 70
     1
102
RTVSPropertyOp24
 70
     1
102
RTVSPropertyOp25
 70
     1
102
RTVSPropertyOp26
 70
     1
102
RTVSPropertyOp27
 70
     1
102
RTVSPropertyOp28
 70
     1
102
RTVSPropertyOp29
 70
     1
102
RTVSPropertyOp30
 70
     1
102
RTVSPropertyOp31
 70
     1
102
RTVSPropertyOp32
 70
     1
102
RTVSPropertyOp33
 70
     1
102
RTVSPropertyOp34
 70
     1
102
RTVSPropertyOp35
 70
     1
102
RTVSPropertyOp36
 70
     1
102
RTVSPropertyOp37
 70
     1
102
RTVSPropertyOp38
 70
     1
102
RTVSPropertyOp39
 70
     1
102
RTVSPropertyOp40
 70
     1
102
RTVSPropertyOp41
 70
     1
102
RTVSPropertyOp42
 70
     1
102
RTVSPropertyOp43
 70
     1
102
RTVSPropertyOp44
 70
     1
102
RTVSPropertyOp45
 70
     1
102
RTVSPropertyOp46
 70
     1
102
RTVSPropertyOp47
 70
     1
102
RTVSPropertyOp48
 70
     1
102
RTVSPropertyOp49
 70
     1
102
RTVSPropertyOp50
 70
     1
102
RTVSPropertyOp51
 70
     0
102
RTVSPropertyOp52
 70
     0
102
RTVSPropertyOp53
 70
     1
102
RTVSPropertyOp54
 70
     1
102
RTVSPropertyOp55
 70
     1
102
RTVSPropertyOp56
 70
     1
102
RTVSPropertyOp57
 70
     1
102
RTVSPropertyOp58
 70
     1
102
RTVSPropertyOp59
 70
     1
102
RTVSPropertyOp60
 70
     1
102
RTVSPropertyOp61
 70
     1
102
RTVSPropertyOp62
 70
     1
  0
XRECORD
  5
33D4
102
{ACAD_REACTORS
330
33D3
102
}
330
33D3
100
AcDbXrecord
280
     1
102
RTVSPost2010Prop28
280
     0
102
RTVSPost2010PropOp28
 70
     1
102
RTVSPost2010Prop29
280
     1
102
RTVSPost2010PropOp29
 70
     1
102
RTVSPost2010Prop30
280
     1
102
RTVSPost2010PropOp30
 70
     1
102
RTVSPost2010Prop31
280
     0
102
RTVSPost2010PropOp31
 70
     1
102
RTVSPost2010Prop32
280
     0
102
RTVSPost2010PropOp32
 70
     1
102
RTVSPost2010Prop33
280
     0
102
RTVSPost2010PropOp33
 70
     1
102
RTVSPost2010Prop34
280
     0
102
RTVSPost2010PropOp34
 70
     1
102
RTVSPost2010Prop35
280
     0
102
RTVSPost2010PropOp35
 70
     1
102
RTVSPost2010Prop36
280
     0
102
RTVSPost2010PropOp36
 70
     1
102
RTVSPost2010Prop37
 90
       50
102
RTVSPost2010PropOp37
 70
     1
102
RTVSPost2010Prop38
140
0.0
102
RTVSPost2010PropOp38
 70
     1
102
RTVSPost2010Prop39
140
1.0
102
RTVSPost2010PropOp39
 70
     1
102
RTVSPost2010Prop40
 90
        0
102
RTVSPost2010PropOp40
 70
     1
102
RTVSPost2010Prop41ColorIndex
 90
       18
102
RTVSPost2010Prop41ColorRGB
 90
        0
102
RTVSPost2010PropOp41
 70
     1
102
RTVSPost2010Prop42
 90
       50
102
RTVSPost2010PropOp42
 70
     1
102
RTVSPost2010Prop43
 90
        3
102
RTVSPost2010PropOp43
 70
     1
102
RTVSPost2010Prop44ColorIndex
 90
        5
102
RTVSPost2010Prop44ColorRGB
 90
      255
102
RTVSPost2010PropOp44
 70
     1
102
RTVSPost2010Prop45
280
     0
102
RTVSPost2010PropOp45
 70
     1
102
RTVSPost2010Prop46
 90
       50
102
RTVSPost2010PropOp46
 70
     1
102
RTVSPost2010Prop47
 90
       50
102
RTVSPost2010PropOp47
 70
     1
102
RTVSPost2010Prop48
 90
       50
102
RTVSPost2010PropOp48
 70
     1
102
RTVSPost2010Prop49
280
     0
102
RTVSPost2010PropOp49
 70
     1
102
RTVSPost2010Prop50
 90
       50
102
RTVSPost2010PropOp50
 70
     1
102
RTVSPost2010Prop51ColorIndex
 90
      256
102
RTVSPost2010Prop51ColorRGB
 90
-16777216
102
RTVSPost2010PropOp51
 70
     0
102
RTVSPost2010Prop52
140
1.0
102
RTVSPost2010PropOp52
 70
     0
102
RTVSPost2010Prop53
 90
        2
102
RTVSPost2010PropOp53
 70
     1
102
RTVSPost2010Prop54
  1
strokes_ogs.tif
102
RTVSPost2010PropOp54
 70
     1
102
RTVSPost2010Prop55
280
     0
102
RTVSPost2010PropOp55
 70
     1
102
RTVSPost2010Prop56
140
1.0
102
RTVSPost2010PropOp56
 70
     1
102
RTVSPost2010Prop57
140
1.0
102
RTVSPost2010PropOp57
 70
     1
102
RTVSPropertyOp0
 70
     1
102
RTVSPropertyOp1
 70
     1
102
RTVSPropertyOp2
 70
     1
102
RTVSPropertyOp3
 70
     1
102
RTVSPropertyOp4
 70
     1
102
RTVSPropertyOp5
 70
     1
102
RTVSPropertyOp6
 70
     1
102
RTVSPropertyOp7
 70
     1
102
RTVSPropertyOp8
 70
     1
102
RTVSPropertyOp9
 70
     1
102
RTVSPropertyOp10
 70
     1
102
RTVSPropertyOp11
 70
     1
102
RTVSPropertyOp12
 70
     1
102
RTVSPropertyOp13
 70
     1
102
RTVSPropertyOp14
 70
     1
102
RTVSPropertyOp15
 70
     1
102
RTVSPropertyOp16
 70
     1
102
RTVSPropertyOp17
 70
     1
102
RTVSPropertyOp18
 70
     1
102
RTVSPropertyOp19
 70
     1
102
RTVSPropertyOp20
 70
     1
102
RTVSPropertyOp21
 70
     1
102
RTVSPropertyOp22
 70
     1
102
RTVSPropertyOp23
 70
     1
102
RTVSPropertyOp24
 70
     1
102
RTVSPropertyOp25
 70
     1
102
RTVSPropertyOp26
 70
     1
102
RTVSPropertyOp27
 70
     1
102
RTVSPropertyOp28
 70
     1
102
RTVSPropertyOp29
 70
     1
102
RTVSPropertyOp30
 70
     1
102
RTVSPropertyOp31
 70
     1
102
RTVSPropertyOp32
 70
     1
102
RTVSPropertyOp33
 70
     1
102
RTVSPropertyOp34
 70
     1
102
RTVSPropertyOp35
 70
     1
102
RTVSPropertyOp36
 70
     1
102
RTVSPropertyOp37
 70
     1
102
RTVSPropertyOp38
 70
     1
102
RTVSPropertyOp39
 70
     1
102
RTVSPropertyOp40
 70
     1
102
RTVSPropertyOp41
 70
     1
102
RTVSPropertyOp42
 70
     1
102
RTVSPropertyOp43
 70
     1
102
RTVSPropertyOp44
 70
     1
102
RTVSPropertyOp45
 70
     1
102
RTVSPropertyOp46
 70
     1
102
RTVSPropertyOp47
 70
     1
102
RTVSPropertyOp48
 70
     1
102
RTVSPropertyOp49
 70
     1
102
RTVSPropertyOp50
 70
     1
102
RTVSPropertyOp51
 70
     0
102
RTVSPropertyOp52
 70
     0
102
RTVSPropertyOp53
 70
     1
102
RTVSPropertyOp54
 70
     1
102
RTVSPropertyOp55
 70
     1
102
RTVSPropertyOp56
 70
     1
102
RTVSPropertyOp57
 70
     1
102
RTVSPropertyOp58
 70
     1
102
RTVSPropertyOp59
 70
     1
102
RTVSPropertyOp60
 70
     1
102
RTVSPropertyOp61
 70
     1
102
RTVSPropertyOp62
 70
     1
  0
XRECORD
  5
33CA
102
{ACAD_REACTORS
330
33C9
102
}
330
33C9
100
AcDbXrecord
280
     1
102
RTVSPost2010Prop28
280
     0
102
RTVSPost2010PropOp28
 70
     1
102
RTVSPost2010Prop29
280
     1
102
RTVSPost2010PropOp29
 70
     1
102
RTVSPost2010Prop30
280
     1
102
RTVSPost2010PropOp30
 70
     1
102
RTVSPost2010Prop31
280
     0
102
RTVSPost2010PropOp31
 70
     1
102
RTVSPost2010Prop32
280
     0
102
RTVSPost2010PropOp32
 70
     1
102
RTVSPost2010Prop33
280
     0
102
RTVSPost2010PropOp33
 70
     1
102
RTVSPost2010Prop34
280
     0
102
RTVSPost2010PropOp34
 70
     1
102
RTVSPost2010Prop35
280
     0
102
RTVSPost2010PropOp35
 70
     1
102
RTVSPost2010Prop36
280
     0
102
RTVSPost2010PropOp36
 70
     1
102
RTVSPost2010Prop37
 90
       50
102
RTVSPost2010PropOp37
 70
     1
102
RTVSPost2010Prop38
140
0.0
102
RTVSPost2010PropOp38
 70
     1
102
RTVSPost2010Prop39
140
1.0
102
RTVSPost2010PropOp39
 70
     1
102
RTVSPost2010Prop40
 90
        0
102
RTVSPost2010PropOp40
 70
     1
102
RTVSPost2010Prop41ColorIndex
 90
       18
102
RTVSPost2010Prop41ColorRGB
 90
        0
102
RTVSPost2010PropOp41
 70
     1
102
RTVSPost2010Prop42
 90
       50
102
RTVSPost2010PropOp42
 70
     1
102
RTVSPost2010Prop43
 90
        3
102
RTVSPost2010PropOp43
 70
     1
102
RTVSPost2010Prop44ColorIndex
 90
        5
102
RTVSPost2010Prop44ColorRGB
 90
      255
102
RTVSPost2010PropOp44
 70
     1
102
RTVSPost2010Prop45
280
     0
102
RTVSPost2010PropOp45
 70
     1
102
RTVSPost2010Prop46
 90
       50
102
RTVSPost2010PropOp46
 70
     1
102
RTVSPost2010Prop47
 90
       50
102
RTVSPost2010PropOp47
 70
     1
102
RTVSPost2010Prop48
 90
       50
102
RTVSPost2010PropOp48
 70
     1
102
RTVSPost2010Prop49
280
     0
102
RTVSPost2010PropOp49
 70
     1
102
RTVSPost2010Prop50
 90
       50
102
RTVSPost2010PropOp50
 70
     1
102
RTVSPost2010Prop51ColorIndex
 90
      256
102
RTVSPost2010Prop51ColorRGB
 90
-16777216
102
RTVSPost2010PropOp51
 70
     0
102
RTVSPost2010Prop52
140
1.0
102
RTVSPost2010PropOp52
 70
     0
102
RTVSPost2010Prop53
 90
        2
102
RTVSPost2010PropOp53
 70
     1
102
RTVSPost2010Prop54
  1
strokes_ogs.tif
102
RTVSPost2010PropOp54
 70
     1
102
RTVSPost2010Prop55
280
     0
102
RTVSPost2010PropOp55
 70
     1
102
RTVSPost2010Prop56
140
1.0
102
RTVSPost2010PropOp56
 70
     1
102
RTVSPost2010Prop57
140
1.0
102
RTVSPost2010PropOp57
 70
     1
102
RTVSPropertyOp0
 70
     1
102
RTVSPropertyOp1
 70
     1
102
RTVSPropertyOp2
 70
     1
102
RTVSPropertyOp3
 70
     1
102
RTVSPropertyOp4
 70
     1
102
RTVSPropertyOp5
 70
     1
102
RTVSPropertyOp6
 70
     1
102
RTVSPropertyOp7
 70
     1
102
RTVSPropertyOp8
 70
     1
102
RTVSPropertyOp9
 70
     1
102
RTVSPropertyOp10
 70
     1
102
RTVSPropertyOp11
 70
     1
102
RTVSPropertyOp12
 70
     1
102
RTVSPropertyOp13
 70
     1
102
RTVSPropertyOp14
 70
     1
102
RTVSPropertyOp15
 70
     1
102
RTVSPropertyOp16
 70
     1
102
RTVSPropertyOp17
 70
     1
102
RTVSPropertyOp18
 70
     1
102
RTVSPropertyOp19
 70
     1
102
RTVSPropertyOp20
 70
     1
102
RTVSPropertyOp21
 70
     1
102
RTVSPropertyOp22
 70
     1
102
RTVSPropertyOp23
 70
     1
102
RTVSPropertyOp24
 70
     1
102
RTVSPropertyOp25
 70
     1
102
RTVSPropertyOp26
 70
     1
102
RTVSPropertyOp27
 70
     1
102
RTVSPropertyOp28
 70
     1
102
RTVSPropertyOp29
 70
     1
102
RTVSPropertyOp30
 70
     1
102
RTVSPropertyOp31
 70
     1
102
RTVSPropertyOp32
 70
     1
102
RTVSPropertyOp33
 70
     1
102
RTVSPropertyOp34
 70
     1
102
RTVSPropertyOp35
 70
     1
102
RTVSPropertyOp36
 70
     1
102
RTVSPropertyOp37
 70
     1
102
RTVSPropertyOp38
 70
     1
102
RTVSPropertyOp39
 70
     1
102
RTVSPropertyOp40
 70
     1
102
RTVSPropertyOp41
 70
     1
102
RTVSPropertyOp42
 70
     1
102
RTVSPropertyOp43
 70
     1
102
RTVSPropertyOp44
 70
     1
102
RTVSPropertyOp45
 70
     1
102
RTVSPropertyOp46
 70
     1
102
RTVSPropertyOp47
 70
     1
102
RTVSPropertyOp48
 70
     1
102
RTVSPropertyOp49
 70
     1
102
RTVSPropertyOp50
 70
     1
102
RTVSPropertyOp51
 70
     0
102
RTVSPropertyOp52
 70
     0
102
RTVSPropertyOp53
 70
     1
102
RTVSPropertyOp54
 70
     1
102
RTVSPropertyOp55
 70
     1
102
RTVSPropertyOp56
 70
     1
102
RTVSPropertyOp57
 70
     1
102
RTVSPropertyOp58
 70
     1
102
RTVSPropertyOp59
 70
     1
102
RTVSPropertyOp60
 70
     1
102
RTVSPropertyOp61
 70
     1
102
RTVSPropertyOp62
 70
     1
  0
XRECORD
  5
33BE
102
{ACAD_REACTORS
330
33BD
102
}
330
33BD
100
AcDbXrecord
280
     1
102
RTVSPost2010Prop28
280
     0
102
RTVSPost2010PropOp28
 70
     1
102
RTVSPost2010Prop29
280
     1
102
RTVSPost2010PropOp29
 70
     1
102
RTVSPost2010Prop30
280
     1
102
RTVSPost2010PropOp30
 70
     1
102
RTVSPost2010Prop31
280
     0
102
RTVSPost2010PropOp31
 70
     1
102
RTVSPost2010Prop32
280
     0
102
RTVSPost2010PropOp32
 70
     1
102
RTVSPost2010Prop33
280
     0
102
RTVSPost2010PropOp33
 70
     1
102
RTVSPost2010Prop34
280
     0
102
RTVSPost2010PropOp34
 70
     1
102
RTVSPost2010Prop35
280
     0
102
RTVSPost2010PropOp35
 70
     1
102
RTVSPost2010Prop36
280
     0
102
RTVSPost2010PropOp36
 70
     1
102
RTVSPost2010Prop37
 90
       50
102
RTVSPost2010PropOp37
 70
     1
102
RTVSPost2010Prop38
140
0.0
102
RTVSPost2010PropOp38
 70
     1
102
RTVSPost2010Prop39
140
1.0
102
RTVSPost2010PropOp39
 70
     1
102
RTVSPost2010Prop40
 90
        0
102
RTVSPost2010PropOp40
 70
     1
102
RTVSPost2010Prop41ColorIndex
 90
       18
102
RTVSPost2010Prop41ColorRGB
 90
        0
102
RTVSPost2010PropOp41
 70
     1
102
RTVSPost2010Prop42
 90
       50
102
RTVSPost2010PropOp42
 70
     1
102
RTVSPost2010Prop43
 90
        3
102
RTVSPost2010PropOp43
 70
     1
102
RTVSPost2010Prop44ColorIndex
 90
        5
102
RTVSPost2010Prop44ColorRGB
 90
      255
102
RTVSPost2010PropOp44
 70
     1
102
RTVSPost2010Prop45
280
     0
102
RTVSPost2010PropOp45
 70
     1
102
RTVSPost2010Prop46
 90
       50
102
RTVSPost2010PropOp46
 70
     1
102
RTVSPost2010Prop47
 90
       50
102
RTVSPost2010PropOp47
 70
     1
102
RTVSPost2010Prop48
 90
       50
102
RTVSPost2010PropOp48
 70
     1
102
RTVSPost2010Prop49
280
     0
102
RTVSPost2010PropOp49
 70
     1
102
RTVSPost2010Prop50
 90
       50
102
RTVSPost2010PropOp50
 70
     1
102
RTVSPost2010Prop51ColorIndex
 90
      256
102
RTVSPost2010Prop51ColorRGB
 90
-16777216
102
RTVSPost2010PropOp51
 70
     0
102
RTVSPost2010Prop52
140
1.0
102
RTVSPost2010PropOp52
 70
     0
102
RTVSPost2010Prop53
 90
        2
102
RTVSPost2010PropOp53
 70
     1
102
RTVSPost2010Prop54
  1
strokes_ogs.tif
102
RTVSPost2010PropOp54
 70
     1
102
RTVSPost2010Prop55
280
     0
102
RTVSPost2010PropOp55
 70
     1
102
RTVSPost2010Prop56
140
1.0
102
RTVSPost2010PropOp56
 70
     1
102
RTVSPost2010Prop57
140
1.0
102
RTVSPost2010PropOp57
 70
     1
102
RTVSPropertyOp0
 70
     1
102
RTVSPropertyOp1
 70
     1
102
RTVSPropertyOp2
 70
     1
102
RTVSPropertyOp3
 70
     1
102
RTVSPropertyOp4
 70
     1
102
RTVSPropertyOp5
 70
     1
102
RTVSPropertyOp6
 70
     1
102
RTVSPropertyOp7
 70
     1
102
RTVSPropertyOp8
 70
     1
102
RTVSPropertyOp9
 70
     1
102
RTVSPropertyOp10
 70
     1
102
RTVSPropertyOp11
 70
     1
102
RTVSPropertyOp12
 70
     1
102
RTVSPropertyOp13
 70
     1
102
RTVSPropertyOp14
 70
     1
102
RTVSPropertyOp15
 70
     1
102
RTVSPropertyOp16
 70
     1
102
RTVSPropertyOp17
 70
     1
102
RTVSPropertyOp18
 70
     1
102
RTVSPropertyOp19
 70
     1
102
RTVSPropertyOp20
 70
     1
102
RTVSPropertyOp21
 70
     1
102
RTVSPropertyOp22
 70
     1
102
RTVSPropertyOp23
 70
     1
102
RTVSPropertyOp24
 70
     1
102
RTVSPropertyOp25
 70
     1
102
RTVSPropertyOp26
 70
     1
102
RTVSPropertyOp27
 70
     1
102
RTVSPropertyOp28
 70
     1
102
RTVSPropertyOp29
 70
     1
102
RTVSPropertyOp30
 70
     1
102
RTVSPropertyOp31
 70
     1
102
RTVSPropertyOp32
 70
     1
102
RTVSPropertyOp33
 70
     1
102
RTVSPropertyOp34
 70
     1
102
RTVSPropertyOp35
 70
     1
102
RTVSPropertyOp36
 70
     1
102
RTVSPropertyOp37
 70
     1
102
RTVSPropertyOp38
 70
     1
102
RTVSPropertyOp39
 70
     1
102
RTVSPropertyOp40
 70
     1
102
RTVSPropertyOp41
 70
     1
102
RTVSPropertyOp42
 70
     1
102
RTVSPropertyOp43
 70
     1
102
RTVSPropertyOp44
 70
     1
102
RTVSPropertyOp45
 70
     1
102
RTVSPropertyOp46
 70
     1
102
RTVSPropertyOp47
 70
     1
102
RTVSPropertyOp48
 70
     1
102
RTVSPropertyOp49
 70
     1
102
RTVSPropertyOp50
 70
     1
102
RTVSPropertyOp51
 70
     0
102
RTVSPropertyOp52
 70
     0
102
RTVSPropertyOp53
 70
     1
102
RTVSPropertyOp54
 70
     1
102
RTVSPropertyOp55
 70
     1
102
RTVSPropertyOp56
 70
     1
102
RTVSPropertyOp57
 70
     1
102
RTVSPropertyOp58
 70
     1
102
RTVSPropertyOp59
 70
     1
102
RTVSPropertyOp60
 70
     1
102
RTVSPropertyOp61
 70
     1
102
RTVSPropertyOp62
 70
     1
  0
XRECORD
  5
33D6
102
{ACAD_REACTORS
330
33D5
102
}
330
33D5
100
AcDbXrecord
280
     1
102
RTVSPost2010Prop28
280
     0
102
RTVSPost2010PropOp28
 70
     1
102
RTVSPost2010Prop29
280
     1
102
RTVSPost2010PropOp29
 70
     1
102
RTVSPost2010Prop30
280
     1
102
RTVSPost2010PropOp30
 70
     1
102
RTVSPost2010Prop31
280
     0
102
RTVSPost2010PropOp31
 70
     1
102
RTVSPost2010Prop32
280
     0
102
RTVSPost2010PropOp32
 70
     1
102
RTVSPost2010Prop33
280
     0
102
RTVSPost2010PropOp33
 70
     1
102
RTVSPost2010Prop34
280
     0
102
RTVSPost2010PropOp34
 70
     1
102
RTVSPost2010Prop35
280
     0
102
RTVSPost2010PropOp35
 70
     1
102
RTVSPost2010Prop36
280
     0
102
RTVSPost2010PropOp36
 70
     1
102
RTVSPost2010Prop37
 90
       50
102
RTVSPost2010PropOp37
 70
     1
102
RTVSPost2010Prop38
140
0.0
102
RTVSPost2010PropOp38
 70
     1
102
RTVSPost2010Prop39
140
1.0
102
RTVSPost2010PropOp39
 70
     1
102
RTVSPost2010Prop40
 90
        0
102
RTVSPost2010PropOp40
 70
     1
102
RTVSPost2010Prop41ColorIndex
 90
       18
102
RTVSPost2010Prop41ColorRGB
 90
        0
102
RTVSPost2010PropOp41
 70
     1
102
RTVSPost2010Prop42
 90
       50
102
RTVSPost2010PropOp42
 70
     1
102
RTVSPost2010Prop43
 90
        3
102
RTVSPost2010PropOp43
 70
     1
102
RTVSPost2010Prop44ColorIndex
 90
        5
102
RTVSPost2010Prop44ColorRGB
 90
      255
102
RTVSPost2010PropOp44
 70
     1
102
RTVSPost2010Prop45
280
     0
102
RTVSPost2010PropOp45
 70
     1
102
RTVSPost2010Prop46
 90
       50
102
RTVSPost2010PropOp46
 70
     1
102
RTVSPost2010Prop47
 90
       50
102
RTVSPost2010PropOp47
 70
     1
102
RTVSPost2010Prop48
 90
       50
102
RTVSPost2010PropOp48
 70
     1
102
RTVSPost2010Prop49
280
     0
102
RTVSPost2010PropOp49
 70
     1
102
RTVSPost2010Prop50
 90
       50
102
RTVSPost2010PropOp50
 70
     1
102
RTVSPost2010Prop51ColorIndex
 90
      256
102
RTVSPost2010Prop51ColorRGB
 90
-16777216
102
RTVSPost2010PropOp51
 70
     0
102
RTVSPost2010Prop52
140
1.0
102
RTVSPost2010PropOp52
 70
     0
102
RTVSPost2010Prop53
 90
        2
102
RTVSPost2010PropOp53
 70
     1
102
RTVSPost2010Prop54
  1
strokes_ogs.tif
102
RTVSPost2010PropOp54
 70
     1
102
RTVSPost2010Prop55
280
     0
102
RTVSPost2010PropOp55
 70
     1
102
RTVSPost2010Prop56
140
1.0
102
RTVSPost2010PropOp56
 70
     1
102
RTVSPost2010Prop57
140
1.0
102
RTVSPost2010PropOp57
 70
     1
102
RTVSPropertyOp0
 70
     1
102
RTVSPropertyOp1
 70
     1
102
RTVSPropertyOp2
 70
     1
102
RTVSPropertyOp3
 70
     1
102
RTVSPropertyOp4
 70
     1
102
RTVSPropertyOp5
 70
     1
102
RTVSPropertyOp6
 70
     1
102
RTVSPropertyOp7
 70
     1
102
RTVSPropertyOp8
 70
     1
102
RTVSPropertyOp9
 70
     1
102
RTVSPropertyOp10
 70
     1
102
RTVSPropertyOp11
 70
     1
102
RTVSPropertyOp12
 70
     1
102
RTVSPropertyOp13
 70
     1
102
RTVSPropertyOp14
 70
     1
102
RTVSPropertyOp15
 70
     1
102
RTVSPropertyOp16
 70
     1
102
RTVSPropertyOp17
 70
     1
102
RTVSPropertyOp18
 70
     1
102
RTVSPropertyOp19
 70
     1
102
RTVSPropertyOp20
 70
     1
102
RTVSPropertyOp21
 70
     1
102
RTVSPropertyOp22
 70
     1
102
RTVSPropertyOp23
 70
     1
102
RTVSPropertyOp24
 70
     1
102
RTVSPropertyOp25
 70
     1
102
RTVSPropertyOp26
 70
     1
102
RTVSPropertyOp27
 70
     1
102
RTVSPropertyOp28
 70
     1
102
RTVSPropertyOp29
 70
     1
102
RTVSPropertyOp30
 70
     1
102
RTVSPropertyOp31
 70
     1
102
RTVSPropertyOp32
 70
     1
102
RTVSPropertyOp33
 70
     1
102
RTVSPropertyOp34
 70
     1
102
RTVSPropertyOp35
 70
     1
102
RTVSPropertyOp36
 70
     1
102
RTVSPropertyOp37
 70
     1
102
RTVSPropertyOp38
 70
     1
102
RTVSPropertyOp39
 70
     1
102
RTVSPropertyOp40
 70
     1
102
RTVSPropertyOp41
 70
     1
102
RTVSPropertyOp42
 70
     1
102
RTVSPropertyOp43
 70
     1
102
RTVSPropertyOp44
 70
     1
102
RTVSPropertyOp45
 70
     1
102
RTVSPropertyOp46
 70
     1
102
RTVSPropertyOp47
 70
     1
102
RTVSPropertyOp48
 70
     1
102
RTVSPropertyOp49
 70
     1
102
RTVSPropertyOp50
 70
     1
102
RTVSPropertyOp51
 70
     0
102
RTVSPropertyOp52
 70
     0
102
RTVSPropertyOp53
 70
     1
102
RTVSPropertyOp54
 70
     1
102
RTVSPropertyOp55
 70
     1
102
RTVSPropertyOp56
 70
     1
102
RTVSPropertyOp57
 70
     1
102
RTVSPropertyOp58
 70
     1
102
RTVSPropertyOp59
 70
     1
102
RTVSPropertyOp60
 70
     1
102
RTVSPropertyOp61
 70
     1
102
RTVSPropertyOp62
 70
     1
  0
ENDSEC
  0
EOF
