  0
SECTION
  2
HEADER
  9
$ACADVER
  1
AC1015
  9
$ACADMAINTVER
 70
    20
  9
$DWGCODEPAGE
  3
ANSI_932
  9
$INSBASE
 10
0.0
 20
0.0
 30
0.0
  9
$EXTMIN
 10
9.9999975266385
 20
10.0
 30
0.0
  9
$EXTMAX
 10
287.1870557476504
 20
267.1954850306049
 30
0.0
  9
$LIMMIN
 10
0.0000015376081137
 20
-0.0000001931532552
  9
$LIMMAX
 10
396.0000015376081
 20
272.9999998068465
  9
$ORTHOMODE
 70
     1
  9
$REGENMODE
 70
     1
  9
$FILLMODE
 70
     1
  9
$QTEXTMODE
 70
     0
  9
$MIRRTEXT
 70
     1
  9
$LTSCALE
 40
1.0
  9
$ATTMODE
 70
     1
  9
$TEXTSIZE
 40
2.5
  9
$TRACEWID
 40
1.0
  9
$TEXTSTYLE
  7
STANDARD
  9
$CLAYER
  8
0
  9
$CELTYPE
  6
BYLAYER
  9
$CECOLOR
 62
   256
  9
$CELTSCALE
 40
1.0
  9
$DISPSILH
 70
     0
  9
$DIMSCALE
 40
1.0
  9
$DIMASZ
 40
3.0
  9
$DIMEXO
 40
1.0
  9
$DIMDLI
 40
10.0
  9
$DIMRND
 40
0.0
  9
$DIMDLE
 40
0.0
  9
$DIMEXE
 40
1.0
  9
$DIMTP
 40
0.0
  9
$DIMTM
 40
0.0
  9
$DIMTXT
 40
3.2
  9
$DIMCEN
 40
0.0
  9
$DIMTSZ
 40
0.0
  9
$DIMTOL
 70
     0
  9
$DIMLIM
 70
     0
  9
$DIMTIH
 70
     0
  9
$DIMTOH
 70
     0
  9
$DIMSE1
 70
     0
  9
$DIMSE2
 70
     0
  9
$DIMTAD
 70
     3
  9
$DIMZIN
 70
     8
  9
$DIMBLK
  1

  9
$DIMASO
 70
     1
  9
$DIMSHO
 70
     1
  9
$DIMPOST
  1

  9
$DIMAPOST
  1

  9
$DIMALT
 70
     0
  9
$DIMALTD
 70
     2
  9
$DIMALTF
 40
25.4
  9
$DIMLFAC
 40
1.0
  9
$DIMTOFL
 70
     1
  9
$DIMTVP
 40
0.0
  9
$DIMTIX
 70
     0
  9
$DIMSOXD
 70
     0
  9
$DIMSAH
 70
     1
  9
$DIMBLK1
  1
OPEN
  9
$DIMBLK2
  1
OPEN
  9
$DIMSTYLE
  2
STANDARD
  9
$DIMCLRD
 70
     0
  9
$DIMCLRE
 70
     0
  9
$DIMCLRT
 70
     0
  9
$DIMTFAC
 40
1.0
  9
$DIMGAP
 40
1.0
  9
$DIMJUST
 70
     0
  9
$DIMSD1
 70
     0
  9
$DIMSD2
 70
     0
  9
$DIMTOLJ
 70
     1
  9
$DIMTZIN
 70
     0
  9
$DIMALTZ
 70
     0
  9
$DIMALTTZ
 70
     0
  9
$DIMUPT
 70
     0
  9
$DIMDEC
 70
     4
  9
$DIMTDEC
 70
     4
  9
$DIMALTU
 70
     2
  9
$DIMALTTD
 70
     2
  9
$DIMTXSTY
  7
STANDARD
  9
$DIMAUNIT
 70
     0
  9
$DIMADEC
 70
     0
  9
$DIMALTRND
 40
0.0
  9
$DIMAZIN
 70
     0
  9
$DIMDSEP
 70
    46
  9
$DIMATFIT
 70
     3
  9
$DIMFRAC
 70
     0
  9
$DIMLDRBLK
  1
OPEN
  9
$DIMLUNIT
 70
     2
  9
$DIMLWD
 70
    -2
  9
$DIMLWE
 70
    -2
  9
$DIMTMOVE
 70
     0
  9
$LUNITS
 70
     2
  9
$LUPREC
 70
     4
  9
$SKETCHINC
 40
1.0
  9
$FILLETRAD
 40
0.0
  9
$AUNITS
 70
     0
  9
$AUPREC
 70
     0
  9
$MENU
  1
.
  9
$ELEVATION
 40
0.0
  9
$PELEVATION
 40
0.0
  9
$THICKNESS
 40
0.0
  9
$LIMCHECK
 70
     0
  9
$CHAMFERA
 40
10.0
  9
$CHAMFERB
 40
10.0
  9
$CHAMFERC
 40
20.0
  9
$CHAMFERD
 40
0.0
  9
$SKPOLY
 70
     0
  9
$TDCREATE
 40
2453781.600612697
  9
$TDUCREATE
 40
2453781.225612697
  9
$TDUPDATE
 40
2457192.700706019
  9
$TDUUPDATE
 40
2457192.325706019
  9
$TDINDWG
 40
0.1263115856
  9
$TDUSRTIMER
 40
0.1263115625
  9
$USRTIMER
 70
     1
  9
$ANGBASE
 50
0.0
  9
$ANGDIR
 70
     0
  9
$PDMODE
 70
     0
  9
$PDSIZE
 40
0.0
  9
$PLINEWID
 40
0.0
  9
$SPLFRAME
 70
     0
  9
$SPLINETYPE
 70
     6
  9
$SPLINESEGS
 70
     8
  9
$HANDSEED
  5
31E6
  9
$SURFTAB1
 70
     6
  9
$SURFTAB2
 70
     6
  9
$SURFTYPE
 70
     6
  9
$SURFU
 70
     6
  9
$SURFV
 70
     6
  9
$UCSBASE
  2

  9
$UCSNAME
  2

  9
$UCSORG
 10
0.0
 20
0.0
 30
0.0
  9
$UCSXDIR
 10
1.0
 20
0.0
 30
0.0
  9
$UCSYDIR
 10
0.0
 20
1.0
 30
0.0
  9
$UCSORTHOREF
  2

  9
$UCSORTHOVIEW
 70
     0
  9
$UCSORGTOP
 10
0.0
 20
0.0
 30
0.0
  9
$UCSORGBOTTOM
 10
0.0
 20
0.0
 30
0.0
  9
$UCSORGLEFT
 10
0.0
 20
0.0
 30
0.0
  9
$UCSORGRIGHT
 10
0.0
 20
0.0
 30
0.0
  9
$UCSORGFRONT
 10
0.0
 20
0.0
 30
0.0
  9
$UCSORGBACK
 10
0.0
 20
0.0
 30
0.0
  9
$PUCSBASE
  2

  9
$PUCSNAME
  2

  9
$PUCSORG
 10
0.0
 20
0.0
 30
0.0
  9
$PUCSXDIR
 10
1.0
 20
0.0
 30
0.0
  9
$PUCSYDIR
 10
0.0
 20
1.0
 30
0.0
  9
$PUCSORTHOREF
  2

  9
$PUCSORTHOVIEW
 70
     0
  9
$PUCSORGTOP
 10
0.0
 20
0.0
 30
0.0
  9
$PUCSORGBOTTOM
 10
0.0
 20
0.0
 30
0.0
  9
$PUCSORGLEFT
 10
0.0
 20
0.0
 30
0.0
  9
$PUCSORGRIGHT
 10
0.0
 20
0.0
 30
0.0
  9
$PUCSORGFRONT
 10
0.0
 20
0.0
 30
0.0
  9
$PUCSORGBACK
 10
0.0
 20
0.0
 30
0.0
  9
$USERI1
 70
     0
  9
$USERI2
 70
     0
  9
$USERI3
 70
     0
  9
$USERI4
 70
     0
  9
$USERI5
 70
     0
  9
$USERR1
 40
0.0
  9
$USERR2
 40
0.0
  9
$USERR3
 40
0.0
  9
$USERR4
 40
0.0
  9
$USERR5
 40
0.0
  9
$WORLDVIEW
 70
     1
  9
$SHADEDGE
 70
     3
  9
$SHADEDIF
 70
    70
  9
$TILEMODE
 70
     1
  9
$MAXACTVP
 70
    48
  9
$PINSBASE
 10
0.0
 20
0.0
 30
0.0
  9
$PLIMCHECK
 70
     0
  9
$PEXTMIN
 10
27.8447512626648
 20
20.24591643810271
 30
0.0
  9
$PEXTMAX
 10
250.6027613639831
 20
182.2132479429244
 30
0.0
  9
$PLIMMIN
 10
-3.757080078125
 20
-3.757083177566528
  9
$PLIMMAX
 10
293.2112426757812
 20
206.2162444591522
  9
$UNITMODE
 70
     0
  9
$VISRETAIN
 70
     1
  9
$PLINEGEN
 70
     0
  9
$PSLTSCALE
 70
     1
  9
$TREEDEPTH
 70
  3020
  9
$CMLSTYLE
  2
STANDARD
  9
$CMLJUST
 70
     0
  9
$CMLSCALE
 40
20.0
  9
$PROXYGRAPHICS
 70
     1
  9
$MEASUREMENT
 70
     0
  9
$CELWEIGHT
370
    -1
  9
$ENDCAPS
280
     0
  9
$JOINSTYLE
280
     0
  9
$LWDISPLAY
290
     0
  9
$INSUNITS
 70
     0
  9
$HYPERLINKBASE
  1

  9
$STYLESHEET
  1

  9
$XEDIT
290
     1
  9
$CEPSNTYPE
380
     0
  9
$PSTYLEMODE
290
     1
  9
$FINGERPRINTGUID
  2
{2BCF3919-BAF3-474F-BA4E-4D49942D018C}
  9
$VERSIONGUID
  2
{68BF738F-EA2B-4AFE-8103-A5ADDA92B93A}
  9
$EXTNAMES
290
     1
  9
$PSVPSCALE
 40
0.0
  9
$OLESTARTUP
290
     0
  0
ENDSEC
  0
SECTION
  2
CLASSES
  0
CLASS
  1
ACDBDICTIONARYWDFLT
  2
AcDbDictionaryWithDefault
  3
ObjectDBX Classes
 90
        0
280
     0
281
     0
  0
CLASS
  1
ACDBPLACEHOLDER
  2
AcDbPlaceHolder
  3
ObjectDBX Classes
 90
        0
280
     0
281
     0
  0
CLASS
  1
LAYOUT
  2
AcDbLayout
  3
ObjectDBX Classes
 90
        0
280
     0
281
     0
  0
CLASS
  1
DICTIONARYVAR
  2
AcDbDictionaryVar
  3
ObjectDBX Classes
 90
        0
280
     0
281
     0
  0
CLASS
  1
MATERIAL
  2
AcDbMaterial
  3
ObjectDBX Classes
 90
     1153
280
     0
281
     0
  0
CLASS
  1
VISUALSTYLE
  2
AcDbVisualStyle
  3
ObjectDBX Classes
 90
     4095
280
     0
281
     0
  0
CLASS
  1
TABLESTYLE
  2
AcDbTableStyle
  3
ObjectDBX Classes
 90
     4095
280
     0
281
     0
  0
CLASS
  1
SCALE
  2
AcDbScale
  3
ObjectDBX Classes
 90
     1153
280
     0
281
     0
  0
CLASS
  1
MLEADERSTYLE
  2
AcDbMLeaderStyle
  3
ACDB_MLEADERSTYLE_CLASS
 90
     4095
280
     0
281
     0
  0
CLASS
  1
ACDBSECTIONVIEWSTYLE
  2
AcDbSectionViewStyle
  3
ObjectDBX Classes
 90
     1025
280
     0
281
     0
  0
CLASS
  1
ACDBDETAILVIEWSTYLE
  2
AcDbDetailViewStyle
  3
ObjectDBX Classes
 90
     1025
280
     0
281
     0
  0
CLASS
  1
CELLSTYLEMAP
  2
AcDbCellStyleMap
  3
ObjectDBX Classes
 90
     1152
280
     0
281
     0
  0
ENDSEC
  0
SECTION
  2
TABLES
  0
TABLE
  2
VPORT
  5
8
330
0
100
AcDbSymbolTable
 70
     1
  0
VPORT
  5
3130
330
8
100
AcDbSymbolTableRecord
100
AcDbViewportTableRecord
  2
*ACTIVE
 70
     0
 10
0.0
 20
0.0
 11
1.0
 21
1.0
 12
231.2647034045506
 22
138.5932392754775
 13
0.0
 23
0.0
 14
10.0
 24
10.0
 15
10.0
 25
10.0
 16
0.0
 26
0.0
 36
1.0
 17
0.0
 27
0.0
 37
0.0
 40
259.6615177084172
 41
2.35006605019815
 42
50.0
 43
0.0
 44
0.0
 50
0.0
 51
0.0
 71
     0
 72
   100
 73
     1
 74
     0
 75
     0
 76
     0
 77
     0
 78
     0
281
     0
 65
     1
110
0.0
120
0.0
130
0.0
111
1.0
121
0.0
131
0.0
112
0.0
122
1.0
132
0.0
 79
     0
146
0.0
1001
ACAD_NAV_VCDISPLAY
1070
     3
  0
ENDTAB
  0
TABLE
  2
LTYPE
  5
5
330
0
100
AcDbSymbolTable
 70
     4
  0
LTYPE
  5
12
330
5
100
AcDbSymbolTableRecord
100
AcDbLinetypeTableRecord
  2
BYBLOCK
 70
     0
  3

 72
    65
 73
     0
 40
0.0
  0
LTYPE
  5
13
330
5
100
AcDbSymbolTableRecord
100
AcDbLinetypeTableRecord
  2
BYLAYER
 70
     0
  3

 72
    65
 73
     0
 40
0.0
  0
LTYPE
  5
14
330
5
100
AcDbSymbolTableRecord
100
AcDbLinetypeTableRecord
  2
CONTINUOUS
 70
     0
  3
Solid line
 72
    65
 73
     0
 40
0.0
  0
LTYPE
  5
4B
330
5
100
AcDbSymbolTableRecord
100
AcDbLinetypeTableRecord
  2
DASHED
 70
     0
  3
Dashed __ __ __ __ __ __ __ __ __ __ __ __ __ _
 72
    65
 73
     2
 40
19.04999999999999
 49
12.7
 74
     0
 49
-6.349999999999998
 74
     0
  0
LTYPE
  5
4C
330
5
100
AcDbSymbolTableRecord
100
AcDbLinetypeTableRecord
  2
CENTER
 70
     0
  3
Center ____ _ ____ _ ____ _ ____ _ ____ _ ____
 72
    65
 73
     4
 40
50.8
 49
31.75
 74
     0
 49
-6.349999999999998
 74
     0
 49
6.349999999999998
 74
     0
 49
-6.349999999999998
 74
     0
  0
LTYPE
  5
4D
330
5
100
AcDbSymbolTableRecord
100
AcDbLinetypeTableRecord
  2
PHANTOM
 70
     0
  3
Phantom ______  __  __  ______  __  __  ______
 72
    65
 73
     6
 40
63.5
 49
31.75
 74
     0
 49
-6.349999999999998
 74
     0
 49
6.349999999999998
 74
     0
 49
-6.349999999999998
 74
     0
 49
6.349999999999998
 74
     0
 49
-6.349999999999998
 74
     0
  0
ENDTAB
  0
TABLE
  2
LAYER
  5
2
330
0
100
AcDbSymbolTable
 70
     8
  0
LAYER
  5
E
102
{ACAD_XDICTIONARY
360
318A
102
}
330
2
100
AcDbSymbolTableRecord
100
AcDbLayerTableRecord
  2
0
 70
     0
 62
     7
  6
CONTINUOUS
370
    -3
390
3139
  0
LAYER
  5
4E
102
{ACAD_XDICTIONARY
360
318C
102
}
330
2
100
AcDbSymbolTableRecord
100
AcDbLayerTableRecord
  2
4
 70
     0
 62
     1
  6
CENTER
370
    -3
390
3139
  0
LAYER
  5
4F
102
{ACAD_XDICTIONARY
360
318E
102
}
330
2
100
AcDbSymbolTableRecord
100
AcDbLayerTableRecord
  2
5
 70
     0
 62
     6
  6
PHANTOM
370
    -3
390
3139
  0
LAYER
  5
50
102
{ACAD_XDICTIONARY
360
3190
102
}
330
2
100
AcDbSymbolTableRecord
100
AcDbLayerTableRecord
  2
1
 70
     0
 62
     7
  6
CONTINUOUS
370
    -3
390
3139
  0
LAYER
  5
51
102
{ACAD_XDICTIONARY
360
3192
102
}
330
2
100
AcDbSymbolTableRecord
100
AcDbLayerTableRecord
  2
2
 70
     0
 62
     4
  6
CONTINUOUS
370
    -3
390
3139
  0
LAYER
  5
52
102
{ACAD_XDICTIONARY
360
3194
102
}
330
2
100
AcDbSymbolTableRecord
100
AcDbLayerTableRecord
  2
3
 70
     0
 62
     2
  6
DASHED
370
    -3
390
3139
  0
LAYER
  5
53
102
{ACAD_XDICTIONARY
360
3196
102
}
330
2
100
AcDbSymbolTableRecord
100
AcDbLayerTableRecord
  2
6
 70
     0
 62
     5
  6
CONTINUOUS
370
    -3
390
3139
  0
LAYER
  5
54
102
{ACAD_XDICTIONARY
360
3198
102
}
330
2
100
AcDbSymbolTableRecord
100
AcDbLayerTableRecord
  2
7
 70
     0
 62
     3
  6
CONTINUOUS
370
    -3
390
3139
  0
ENDTAB
  0
TABLE
  2
STYLE
  5
3
330
0
100
AcDbSymbolTable
 70
     1
  0
STYLE
  5
F
330
3
100
AcDbSymbolTableRecord
100
AcDbTextStyleTableRecord
  2
STANDARD
 70
     0
 40
0.0
 41
1.0
 50
0.0
 71
     0
 42
2.5
  3
simplex.shx
  4

  0
ENDTAB
  0
TABLE
  2
VIEW
  5
6
330
0
100
AcDbSymbolTable
 70
     0
  0
ENDTAB
  0
TABLE
  2
UCS
  5
7
330
0
100
AcDbSymbolTable
 70
     0
  0
ENDTAB
  0
TABLE
  2
APPID
  5
9
330
0
100
AcDbSymbolTable
 70
     5
  0
APPID
  5
10
330
9
100
AcDbSymbolTableRecord
100
AcDbRegAppTableRecord
  2
ACAD
 70
     0
  0
APPID
  5
3E
330
9
100
AcDbSymbolTableRecord
100
AcDbRegAppTableRecord
  2
CONTENTTABDATA
 70
     0
  0
APPID
  5
3F
330
9
100
AcDbSymbolTableRecord
100
AcDbRegAppTableRecord
  2
CONTENTCURRENTTAB
 70
     0
  0
APPID
  5
31A4
330
9
100
AcDbSymbolTableRecord
100
AcDbRegAppTableRecord
  2
ACAD_NAV_VCDISPLAY
 70
     0
  0
APPID
  5
31DD
330
9
100
AcDbSymbolTableRecord
100
AcDbRegAppTableRecord
  2
ACAD_MLEADERVER
 70
     0
  0
ENDTAB
  0
TABLE
  2
DIMSTYLE
  5
A
330
0
100
AcDbSymbolTable
 70
     1
100
AcDbDimStyleTable
 71
     0
  0
DIMSTYLE
105
1D
330
A
100
AcDbSymbolTableRecord
100
AcDbDimStyleTableRecord
  2
STANDARD
 70
     0
 41
3.0
 42
1.0
 43
10.0
 44
1.0
 73
     0
 74
     0
 77
     3
 78
     8
140
3.2
141
0.0
147
1.0
172
     1
173
     1
340
F
341
2E
343
2E
344
2E
  0
ENDTAB
  0
TABLE
  2
BLOCK_RECORD
  5
1
330
0
100
AcDbSymbolTable
 70
     1
  0
BLOCK_RECORD
  5
18
102
{ACAD_XDICTIONARY
360
3133
102
}
330
1
100
AcDbSymbolTableRecord
100
AcDbBlockTableRecord
  2
*MODEL_SPACE
340
3187
  0
BLOCK_RECORD
  5
15
102
{ACAD_XDICTIONARY
360
3131
102
}
330
1
100
AcDbSymbolTableRecord
100
AcDbBlockTableRecord
  2
*PAPER_SPACE
340
3188
  0
BLOCK_RECORD
  5
2E
330
1
100
AcDbSymbolTableRecord
100
AcDbBlockTableRecord
  2
_OPEN
340
0
  0
ENDTAB
  0
ENDSEC
  0
SECTION
  2
BLOCKS
  0
BLOCK
  5
19
330
18
100
AcDbEntity
  8
0
100
AcDbBlockBegin
  2
*MODEL_SPACE
 70
     0
 10
0.0
 20
0.0
 30
0.0
  3
*MODEL_SPACE
  1

  0
ENDBLK
  5
1A
330
18
100
AcDbEntity
  8
0
100
AcDbBlockEnd
  0
BLOCK
  5
16
330
15
100
AcDbEntity
 67
     1
  8
0
100
AcDbBlockBegin
  2
*PAPER_SPACE
 70
     0
 10
0.0
 20
0.0
 30
0.0
  3
*PAPER_SPACE
  1

  0
ENDBLK
  5
17
330
15
100
AcDbEntity
 67
     1
  8
0
100
AcDbBlockEnd
  0
BLOCK
  5
2F
330
2E
100
AcDbEntity
  8
0
100
AcDbBlockBegin
  2
_OPEN
 70
     0
 10
0.0
 20
0.0
 30
0.0
  3
_OPEN
  1

  0
LINE
  5
30
330
2E
100
AcDbEntity
  8
0
  6
ByBlock
 62
     0
100
AcDbLine
 10
-1.0
 20
0.1666666666666666
 30
0.0
 11
0.0
 21
0.0
 31
0.0
  0
LINE
  5
31
330
2E
100
AcDbEntity
  8
0
  6
ByBlock
 62
     0
100
AcDbLine
 10
0.0
 20
0.0
 30
0.0
 11
-1.0
 21
-0.1666666666666666
 31
0.0
  0
LINE
  5
32
330
2E
100
AcDbEntity
  8
0
  6
ByBlock
 62
     0
100
AcDbLine
 10
0.0
 20
0.0
 30
0.0
 11
-1.0
 21
0.0
 31
0.0
  0
ENDBLK
  5
33
330
2E
100
AcDbEntity
  8
0
100
AcDbBlockEnd
  0
ENDSEC
  0
SECTION
  2
ENTITIES
  0
TEXT
  5
63
330
18
100
AcDbEntity
  8
4
  6
CENTER
 48
0.25
100
AcDbText
 10
23.97950852663849
 20
10.0
 30
0.0
 40
1.399999999999999
  1
4
100
AcDbText
  0
TEXT
  5
64
330
18
100
AcDbEntity
  8
7
  6
Continuous
 48
0.25
100
AcDbText
 10
9.999997526638502
 20
26.0000007607689
 30
0.0
 40
3.0
  1
CODE No.13418
100
AcDbText
  0
TEXT
  5
65
330
18
100
AcDbEntity
  8
7
  6
Continuous
 48
0.25
100
AcDbText
 10
9.999997526638502
 20
18.00000076076889
 30
0.0
 40
3.0
  1
TYPE No.TEA-1152-U2
100
AcDbText
  0
TEXT
  5
66
330
18
100
AcDbEntity
  8
1
  6
Continuous
 48
0.25
100
AcDbText
 10
9.999997526638502
 20
10.00000076076889
 30
0.0
 40
1.399999999999999
  1
LAYER
100
AcDbText
  0
TEXT
  5
67
330
18
100
AcDbEntity
  8
2
  6
Continuous
 48
0.25
100
AcDbText
 10
19.9795085266385
 20
10.0
 30
0.0
 40
1.399999999999999
  1
2
100
AcDbText
  0
TEXT
  5
68
330
18
100
AcDbEntity
  8
3
  6
DASHED
 48
0.25
100
AcDbText
 10
21.9795085266385
 20
10.0
 30
0.0
 40
1.399999999999999
  1
3
100
AcDbText
  0
TEXT
  5
69
330
18
100
AcDbEntity
  8
1
  6
Continuous
 48
0.25
100
AcDbText
 10
17.9795085266385
 20
10.0
 30
0.0
 40
1.399999999999999
  1
1
100
AcDbText
  0
TEXT
  5
6A
330
18
100
AcDbEntity
  8
5
  6
PHANTOM
 48
0.25
100
AcDbText
 10
25.9795085266385
 20
10.0
 30
0.0
 40
1.399999999999999
  1
5
100
AcDbText
  0
TEXT
  5
6B
330
18
100
AcDbEntity
  8
6
  6
Continuous
 48
0.25
100
AcDbText
 10
27.9795085266385
 20
10.0
 30
0.0
 40
1.399999999999999
  1
6
100
AcDbText
  0
TEXT
  5
6C
330
18
100
AcDbEntity
  8
7
  6
Continuous
 48
0.25
100
AcDbText
 10
29.9795085266385
 20
10.0
 30
0.0
 40
1.399999999999999
  1
7
100
AcDbText
  0
LINE
  5
1F55
330
18
100
AcDbEntity
  8
4
  6
CENTER
 48
0.2
100
AcDbLine
 10
112.7803469164123
 20
104.4201255312411
 30
0.0
 11
112.7803469164123
 21
190.4201293310372
 31
0.0
  0
LINE
  5
1F57
330
18
100
AcDbEntity
  8
1
  6
Continuous
100
AcDbLine
 10
96.28034613270429
 20
187.4201293310371
 30
0.0
 11
129.2803477001202
 21
187.4201293310371
 31
0.0
  0
ARC
  5
1F58
330
18
100
AcDbEntity
  8
1
  6
Continuous
100
AcDbCircle
 10
112.7802938599536
 20
167.4200687672552
 30
0.0
 40
11.25005962397112
100
AcDbArc
 50
7.907845177077441
 51
172.0766002778923
  0
ARC
  5
1F59
330
18
100
AcDbEntity
  8
1
  6
Continuous
100
AcDbCircle
 10
112.7803469163943
 20
167.4201617589554
 30
0.0
 40
13.00000061753016
100
AcDbArc
 50
359.9999999999918
 51
179.9999999999951
  0
ARC
  5
1F5A
330
18
100
AcDbEntity
  8
1
  6
Continuous
100
AcDbCircle
 10
112.7803469164123
 20
167.4201283810881
 30
0.0
 40
11.50000054622066
100
AcDbArc
 50
359.9999999998672
 51
180.0
  0
LINE
  5
1F5B
330
18
100
AcDbEntity
  8
1
  6
Continuous
100
AcDbLine
 10
127.9107490532277
 20
108.2108797011961
 30
0.0
 11
123.2874685880624
 21
112.4149779500816
 31
0.0
  0
LINE
  5
1F5C
330
18
100
AcDbEntity
  8
4
  6
CENTER
 48
0.2
100
AcDbLine
 10
121.0752009935456
 20
167.4200651600533
 30
0.0
 11
133.7803477713664
 21
167.4200651600533
 31
0.0
  0
ARC
  5
1F5D
330
18
100
AcDbEntity
  8
1
  6
Continuous
100
AcDbCircle
 10
112.8146016637531
 20
118.6665567246967
 30
0.0
 40
11.21216075913155
100
AcDbArc
 50
332.1290765260128
 51
0.0182400172867178
  0
ARC
  5
1F5E
330
18
100
AcDbEntity
  8
1
  6
Continuous
100
AcDbCircle
 10
127.7589053257781
 20
175.7586146878507
 30
0.0
 40
11.06258594321626
100
AcDbArc
 50
240.6125250871069
 51
249.7660479668102
  0
LINE
  5
1F5F
330
18
100
AcDbEntity
  8
1
  6
Continuous
100
AcDbLine
 10
123.544120721606
 20
167.4201283810881
 30
0.0
 11
121.0750745512348
 21
167.4201283810881
 31
0.0
  0
LINE
  5
1F60
330
18
100
AcDbEntity
  8
1
  6
Continuous
100
AcDbLine
 10
129.2803477001202
 20
107.4201255312411
 30
0.0
 11
96.28034613270436
 21
107.4201255312411
 31
0.0
  0
LINE
  5
1F61
330
18
100
AcDbEntity
  8
1
  6
Continuous
100
AcDbLine
 10
127.7634483877715
 20
186.7188194243211
 30
0.0
 11
118.2232215996149
 21
180.1393526424752
 31
0.0
  0
LINE
  5
1F69
330
18
100
AcDbEntity
  8
1
  6
Continuous
100
AcDbLine
 10
101.530352101206
 20
165.5194267201598
 30
0.0
 11
101.530352101206
 21
118.6701260656474
 31
0.0
  0
LINE
  5
1F6A
330
18
100
AcDbEntity
  8
1
  6
Continuous
100
AcDbLine
 10
122.3303473700129
 20
113.9563163419335
 30
0.0
 11
122.3303473700129
 21
166.1195500925692
 31
0.0
  0
LINE
  5
1F6B
330
18
100
AcDbEntity
  8
1
  6
Continuous
100
AcDbLine
 10
99.78034629894523
 20
126.9201408241273
 30
0.0
 11
99.78034629894878
 21
167.4201617589565
 31
0.0
  0
LINE
  5
1F6C
330
18
100
AcDbEntity
  8
1
  6
Continuous
100
AcDbLine
 10
101.2803463701916
 20
167.4201283810881
 30
0.0
 11
101.2803463701916
 21
129.9201265999604
 31
0.0
  0
LINE
  5
1F6D
330
18
100
AcDbEntity
  8
1
  6
Continuous
100
AcDbLine
 10
103.2303464628115
 20
113.9563163419335
 30
0.0
 11
103.2303464628115
 21
166.1195500925692
 31
0.0
  0
LINE
  5
1F72
330
18
100
AcDbEntity
  8
1
  6
Continuous
100
AcDbLine
 10
94.7803460614582
 20
109.420125626236
 30
0.0
 11
94.7803460614582
 21
185.4201292360423
 31
0.0
  0
ARC
  5
1FA7
330
18
100
AcDbEntity
  8
1
  6
Continuous
100
AcDbCircle
 10
112.7881502124423
 20
126.9226540396287
 30
0.0
 40
13.00780415628415
100
AcDbArc
 50
180.0110700192289
 51
210.0465148382439
  0
LINE
  5
1FA9
330
18
100
AcDbEntity
  8
1
  6
Continuous
100
AcDbLine
 10
97.64994477959692
 20
108.2108797011961
 30
0.0
 11
102.2732252447622
 21
112.4149779500816
 31
0.0
  0
LINE
  5
1FAA
330
18
100
AcDbEntity
  8
1
  6
Continuous
100
AcDbLine
 10
96.28034613270436
 20
107.483633861153
 30
0.0
 11
96.28034613270436
 21
107.4201255312411
 31
0.0
  0
ARC
  5
1FAB
330
18
100
AcDbEntity
  8
1
  6
Continuous
100
AcDbCircle
 10
96.78034615645584
 20
109.4201256262389
 30
0.0
 40
2.000000094999298
100
AcDbArc
 50
180.0000000000814
 51
269.9999999999608
  0
ARC
  5
1FAC
330
18
100
AcDbEntity
  8
1
  6
Continuous
100
AcDbCircle
 10
112.7460921690715
 20
118.6665567246967
 30
0.0
 40
11.21216075913155
100
AcDbArc
 50
179.9817599827133
 51
207.8709234739871
  0
ARC
  5
1FAD
330
18
100
AcDbEntity
  8
1
  6
Continuous
100
AcDbCircle
 10
112.7803469164123
 20
118.6591094088422
 30
0.0
 40
11.23898329381496
100
AcDbArc
 50
207.7557255112373
 51
332.2442744887625
  0
ARC
  5
1FAE
330
18
100
AcDbEntity
  8
1
  6
Continuous
100
AcDbCircle
 10
112.7803469164124
 20
118.6701260655875
 30
0.0
 40
10.65011151102152
100
AcDbArc
 50
206.2706063469613
 51
333.7293936530387
  0
ARC
  5
1FAF
330
18
100
AcDbEntity
  8
1
  6
Continuous
100
AcDbCircle
 10
102.8374780811429
 20
113.9037847267635
 30
0.0
 40
0.3962597306435394
100
AcDbArc
 50
319.1327123640218
 51
7.610882468030502
  0
ARC
  5
1FB0
330
18
100
AcDbEntity
  8
1
  6
Continuous
100
AcDbCircle
 10
104.2413037262432
 20
111.8032463043662
 30
0.0
 40
2.146956560447804
100
AcDbArc
 50
120.9501644846517
 51
130.9386731049396
  0
LINE
  5
1FB1
330
18
100
AcDbEntity
  8
1
  6
Continuous
100
AcDbLine
 10
101.5308862669421
 20
118.6701260814728
 30
0.0
 11
101.5303463820658
 21
118.6701260827084
 31
0.0
  0
LINE
  5
1FB2
330
18
100
AcDbEntity
  8
1
  6
Continuous
100
AcDbLine
 10
101.5339210589803
 20
118.6701260795276
 30
0.0
 11
101.5308862669421
 21
118.6701260814728
 31
0.0
  0
ARC
  5
1FB3
330
18
100
AcDbEntity
  8
1
  6
Continuous
100
AcDbCircle
 10
121.3193901065814
 20
111.8032463043662
 30
0.0
 40
2.146956560447804
100
AcDbArc
 50
49.06132689506041
 51
59.04983551534821
  0
ARC
  5
1FB4
330
18
100
AcDbEntity
  8
1
  6
Continuous
100
AcDbCircle
 10
122.7232157516816
 20
113.9037847267635
 30
0.0
 40
0.3962597306435394
100
AcDbArc
 50
172.3891175319687
 51
220.8672876359781
  0
ARC
  5
1FB6
330
18
100
AcDbEntity
  8
1
  6
Continuous
100
AcDbCircle
 10
112.7803469164123
 20
129.9201265999338
 30
0.0
 40
11.50000054622067
100
AcDbArc
 50
179.9999999998672
 51
191.7333896438749
  0
ARC
  5
1FB7
330
18
100
AcDbEntity
  8
1
  6
Continuous
100
AcDbCircle
 10
102.8039832255536
 20
139.3240255303339
 30
0.0
 40
1.526083014648673
100
AcDbArc
 50
176.7554912803986
 51
213.4207756909209
  0
ARC
  5
1FE6
330
18
100
AcDbEntity
  8
1
  6
Continuous
100
AcDbCircle
 10
126.5254525976412
 20
171.1144555766041
 30
0.0
 40
6.52288192943224
100
AcDbArc
 50
214.4970816704131
 51
229.9738796493858
  0
ARC
  5
1FE7
330
18
100
AcDbEntity
  8
1
  6
Continuous
100
AcDbCircle
 10
88.53867712294869
 20
169.8553855591051
 30
0.0
 40
13.69613660101661
100
AcDbArc
 50
341.5436182827421
 51
349.7580003507946
  0
LINE
  5
1FE8
330
18
100
AcDbEntity
  8
1
  6
Continuous
100
AcDbLine
 10
101.6376357654128
 20
165.8552055285665
 30
0.0
 11
101.6376357654126
 21
168.9708789203899
 31
0.0
  0
ARC
  5
1FE9
330
18
100
AcDbEntity
  8
1
  6
Continuous
100
AcDbCircle
 10
99.03524123518344
 20
171.1144555766041
 30
0.0
 40
6.52288192943224
100
AcDbArc
 50
310.0261203506142
 51
325.5029183295868
  0
ARC
  5
1FEA
330
18
100
AcDbEntity
  8
1
  6
Continuous
100
AcDbCircle
 10
97.80178850704658
 20
175.7586146878507
 30
0.0
 40
11.06258594321626
100
AcDbArc
 50
290.2339520331898
 51
299.387474912893
  0
ARC
  5
1FEB
330
18
100
AcDbEntity
  8
1
  6
Continuous
100
AcDbCircle
 10
101.6026913126896
 20
165.4469836769029
 30
0.0
 40
0.0727453539352217
100
AcDbArc
 50
186.0572633792602
 51
290.2175343671572
  0
LINE
  5
1FEC
330
18
100
AcDbEntity
  8
1
  6
Continuous
100
AcDbLine
 10
97.79724544505313
 20
186.7188194243211
 30
0.0
 11
107.3374722332097
 21
180.1393526424752
 31
0.0
  0
LINE
  5
1FED
330
18
100
AcDbEntity
  8
1
  6
Continuous
100
AcDbLine
 10
95.6085267560752
 20
182.4386759193838
 30
0.0
 11
99.24505883705684
 21
169.3471534287406
 31
0.0
  0
LINE
  5
1FEE
330
18
100
AcDbEntity
  8
1
  6
Continuous
100
AcDbLine
 10
96.28034613270429
 20
187.4201293310371
 30
0.0
 11
96.28034613270436
 21
187.3559456839673
 31
0.0
  0
ARC
  5
1FEF
330
18
100
AcDbEntity
  8
1
  6
Continuous
100
AcDbCircle
 10
96.78034615645309
 20
185.4201292360423
 30
0.0
 40
2.000000094994905
100
AcDbArc
 50
90.0
 51
180.0
  0
ARC
  5
1FF0
330
18
100
AcDbEntity
  8
1
  6
Continuous
100
AcDbCircle
 10
112.7804101374472
 20
167.4200651600533
 30
0.0
 40
8.294790856098316
100
AcDbArc
 50
0.0
 51
179.9995633044227
  0
LINE
  5
1FF2
330
18
100
AcDbEntity
  8
1
  6
Continuous
100
AcDbLine
 10
102.0165731112185
 20
167.4201283810881
 30
0.0
 11
104.4856192815898
 21
167.4201283810881
 31
0.0
  0
LINE
  5
1FF8
330
18
100
AcDbEntity
  8
1
  6
Continuous
100
AcDbLine
 10
177.9356819366689
 20
134.920126837421
 30
0.0
 11
177.9356819366689
 21
174.4201287135704
 31
0.0
  0
LINE
  5
1FF9
330
18
100
AcDbEntity
  8
1
  6
Continuous
100
AcDbLine
 10
168.9356815091916
 20
180.4201289985548
 30
0.0
 11
168.9356815091931
 21
116.9201259824632
 31
0.0
  0
LINE
  5
1FFA
330
18
100
AcDbEntity
  8
1
  6
Continuous
100
AcDbLine
 10
166.535681383277
 20
108.0201255597397
 30
0.0
 11
166.535681383277
 21
175.7148559923665
 31
0.0
  0
LINE
  5
1FFB
330
18
100
AcDbEntity
  8
1
  6
Continuous
100
AcDbLine
 10
124.0303417316185
 20
165.5194267201598
 30
0.0
 11
124.0303417316185
 21
118.6701260656474
 31
0.0
  0
LINE
  5
1FFC
330
18
100
AcDbEntity
  8
1
  6
Continuous
100
AcDbLine
 10
124.280347462633
 20
167.4201283810881
 30
0.0
 11
124.280347462633
 21
129.9201265999604
 31
0.0
  0
LINE
  5
1FFD
330
18
100
AcDbEntity
  8
1
  6
Continuous
100
AcDbLine
 10
125.7803475338794
 20
126.9201408241272
 30
0.0
 11
125.780347533876
 21
167.4201617589565
 31
0.0
  0
LINE
  5
1FFE
330
18
100
AcDbEntity
  8
1
  6
Continuous
100
AcDbLine
 10
167.9219481062443
 20
165.5194095841483
 30
0.0
 11
167.9219481062443
 21
118.6701260655874
 31
0.0
  0
LINE
  5
1FFF
330
18
100
AcDbEntity
  8
1
  6
Continuous
100
AcDbLine
 10
178.9356819841664
 20
173.4201286660729
 30
0.0
 11
178.9356819841664
 21
121.4201261962055
 31
0.0
  0
LINE
  5
2000
330
18
100
AcDbEntity
  8
1
  6
Continuous
100
AcDbLine
 10
174.0962443702088
 20
185.4201293310372
 30
0.0
 11
174.0962443702088
 21
109.4201255312411
 31
0.0
  0
LINE
  5
2001
330
18
100
AcDbEntity
  8
1
  6
Continuous
100
AcDbLine
 10
175.935681841674
 20
187.4201293310371
 30
0.0
 11
175.935681841674
 21
107.4201255312411
 31
0.0
  0
LINE
  5
2002
330
18
100
AcDbEntity
  8
1
  6
Continuous
100
AcDbLine
 10
130.7803477713664
 20
185.4201292360423
 30
0.0
 11
130.7803477713664
 21
109.4201256262375
 31
0.0
  0
LINE
  5
2003
330
18
100
AcDbEntity
  8
1
  6
Continuous
100
AcDbLine
 10
167.1356814117746
 20
107.4201255312412
 30
0.0
 11
168.7356814877704
 21
107.4201255312412
 31
0.0
  0
ARC
  5
2004
330
18
100
AcDbEntity
  8
1
  6
Continuous
100
AcDbCircle
 10
170.6261273183347
 20
118.8183694098098
 30
0.0
 40
2.70823952049185
100
AcDbArc
 50
183.1378189272612
 51
225.7304406213539
  0
ARC
  5
2006
330
18
100
AcDbEntity
  8
1
  6
Continuous
100
AcDbCircle
 10
112.7787524150398
 20
126.9202535771543
 30
0.0
 40
13.00159511932837
100
AcDbArc
 50
329.949878561031
 51
359.9995031169239
  0
LINE
  5
2008
330
18
100
AcDbEntity
  8
1
  6
Continuous
100
AcDbLine
 10
129.2803477001202
 20
107.4836338611529
 30
0.0
 11
129.2803477001202
 21
107.4201255312411
 31
0.0
  0
ARC
  5
2009
330
18
100
AcDbEntity
  8
1
  6
Continuous
100
AcDbCircle
 10
128.7803476763688
 20
109.4201256262389
 30
0.0
 40
2.000000094999314
100
AcDbArc
 50
270.0000000000781
 51
359.9999999999583
  0
ARC
  5
200A
330
18
100
AcDbEntity
  8
1
  6
Continuous
100
AcDbCircle
 10
167.1356814117755
 20
108.0201255597397
 30
0.0
 40
0.6000000284984701
100
AcDbArc
 50
180.0
 51
269.9999999999088
  0
ARC
  5
200C
330
18
100
AcDbEntity
  8
1
  6
Continuous
100
AcDbCircle
 10
112.7803469164123
 20
129.9201265999338
 30
0.0
 40
11.50000054622067
100
AcDbArc
 50
348.2666103561251
 51
0.000000000131904
  0
ARC
  5
200D
330
18
100
AcDbEntity
  8
1
  6
Continuous
100
AcDbCircle
 10
122.7567106072709
 20
139.3240255303339
 30
0.0
 40
1.526083014648673
100
AcDbArc
 50
326.5792243090789
 51
3.244508719601256
  0
LINE
  5
2013
330
18
100
AcDbEntity
  8
1
  6
Continuous
100
AcDbLine
 10
177.9356819366689
 20
120.420126148708
 30
0.0
 11
177.9356819366689
 21
127.9201265049589
 31
0.0
  0
LINE
  5
2014
330
18
100
AcDbEntity
  8
1
  6
Continuous
100
AcDbLine
 10
168.7356814877704
 20
107.4201255312412
 30
0.0
 11
168.7356814877704
 21
133.7904524717686
 31
0.0
  0
LINE
  5
2015
330
18
100
AcDbEntity
  8
1
  6
Continuous
100
AcDbLine
 10
186.598454488087
 20
118.9201260774618
 30
0.0
 11
186.5984544880869
 21
138.4201270036621
 31
0.0
  0
LINE
  5
2018
330
18
100
AcDbEntity
  8
1
  6
Continuous
100
AcDbLine
 10
177.9356819366689
 20
109.420125626236
 30
0.0
 11
177.9356819366689
 21
117.8201260252146
 31
0.0
  0
LINE
  5
2019
330
18
100
AcDbEntity
  8
1
  6
Continuous
100
AcDbLine
 10
187.4356823878945
 20
107.4201255312411
 30
0.0
 11
187.4356823878945
 21
113.9201258399746
 31
0.0
  0
LINE
  5
201A
330
18
100
AcDbEntity
  8
1
  6
Continuous
100
AcDbLine
 10
168.9356815091931
 20
116.9201259824632
 30
0.0
 11
173.8715666123181
 21
107.5419442865248
 31
0.0
  0
ARC
  5
201B
330
18
100
AcDbEntity
  8
1
  6
Continuous
100
AcDbCircle
 10
179.9356820316638
 20
109.420125626236
 30
0.0
 40
2.000000094994864
100
AcDbArc
 50
180.0
 51
270.0
  0
LINE
  5
201C
330
18
100
AcDbEntity
  8
1
  6
Continuous
100
AcDbLine
 10
175.9356818416739
 20
112.9201257924797
 30
0.0
 11
177.9356819366689
 21
113.0249413560242
 31
0.0
  0
ARC
  5
201D
330
18
100
AcDbEntity
  8
1
  6
Continuous
100
AcDbCircle
 10
174.3499033115028
 20
108.420156923505
 30
0.0
 40
1.000031392295892
100
AcDbArc
 50
241.4241364612971
 51
269.999542634952
  0
LINE
  5
201E
330
18
100
AcDbEntity
  8
1
  6
Continuous
100
AcDbLine
 10
175.935681841674
 20
107.4201255312411
 30
0.0
 11
174.3498953287263
 21
107.4201255312411
 31
0.0
  0
LINE
  5
2020
330
18
100
AcDbEntity
  8
1
  6
Continuous
100
AcDbLine
 10
179.9356820316638
 20
107.4201255312411
 30
0.0
 11
187.4356823878945
 21
107.4201255312411
 31
0.0
  0
LINE
  5
2021
330
18
100
AcDbEntity
  8
1
  6
Continuous
100
AcDbLine
 10
178.9356819841664
 20
121.4201261962055
 30
0.0
 11
176.6356818749222
 21
119.1201260869613
 31
0.0
  0
LINE
  5
2022
330
18
100
AcDbEntity
  8
1
  6
Continuous
100
AcDbLine
 10
168.7356814877704
 20
120.9201261724567
 30
0.0
 11
168.9356815091919
 21
120.9301261735278
 31
0.0
  0
LINE
  5
2023
330
18
100
AcDbEntity
  8
1
  6
Continuous
100
AcDbLine
 10
176.6356820516989
 20
119.1201259101846
 30
0.0
 11
177.9356819366689
 21
117.8201260252146
 31
0.0
  0
ARC
  5
2024
330
18
100
AcDbEntity
  8
1
  6
Continuous
100
AcDbCircle
 10
204.5098136798484
 20
118.0977842828212
 30
0.0
 40
17.93022682855705
100
AcDbArc
 50
177.3712966247229
 51
193.0964242398347
  0
ARC
  5
2025
330
18
100
AcDbEntity
  8
1
  6
Continuous
100
AcDbCircle
 10
187.1791395388283
 20
114.0430308754139
 30
0.0
 40
0.133433487183598
100
AcDbArc
 50
183.465643172861
 51
247.086821726868
  0
LINE
  5
2027
330
18
100
AcDbEntity
  8
1
  6
Continuous
100
AcDbLine
 10
187.1271891031594
 20
113.9201258399746
 30
0.0
 11
187.4356823878946
 21
113.9201258399746
 31
0.0
  0
LINE
  5
202A
330
18
100
AcDbEntity
  8
1
  6
Continuous
100
AcDbLine
 10
168.9325668612658
 20
133.8203294854213
 30
0.0
 11
168.7356814877698
 21
133.7904524717685
 31
0.0
  0
LINE
  5
202B
330
18
100
AcDbEntity
  8
1
  6
Continuous
100
AcDbLine
 10
177.9356819366689
 20
142.9201272174007
 30
0.0
 11
178.9356819841664
 21
142.9201272174007
 31
0.0
  0
LINE
  5
202C
330
18
100
AcDbEntity
  8
1
  6
Continuous
100
AcDbLine
 10
178.9356819841664
 20
139.9201270749083
 30
0.0
 11
177.9356819366689
 21
139.9201270749083
 31
0.0
  0
ARC
  5
202D
330
18
100
AcDbEntity
  8
1
  6
Continuous
100
AcDbCircle
 10
287.1423305856628
 20
131.1519930866823
 30
0.0
 40
100.4343463345916
100
AcDbArc
 50
173.0986396270271
 51
174.4186525502499
  0
ARC
  5
202E
330
18
100
AcDbEntity
  8
1
  6
Continuous
100
AcDbCircle
 10
186.9473671863913
 20
140.7972220869688
 30
0.0
 40
0.133433487183598
100
AcDbArc
 50
112.913178273132
 51
176.5343568271381
  0
LINE
  5
2031
330
18
100
AcDbEntity
  8
1
  6
Continuous
100
AcDbLine
 10
186.8954167507223
 20
140.9201271224058
 30
0.0
 11
187.1841319168349
 21
140.9201271224058
 31
0.0
  0
ARC
  5
203C
330
18
100
AcDbEntity
  8
1
  6
Continuous
100
AcDbCircle
 10
196.1577438300129
 20
138.7578837659343
 30
0.0
 40
9.565254432220783
100
AcDbArc
 50
167.6404362037517
 51
182.0235803341979
  0
LINE
  5
2040
330
18
100
AcDbEntity
  8
1
  6
Continuous
100
AcDbLine
 10
167.9219481062451
 20
165.5194095841473
 30
0.0
 11
167.710646614433
 21
165.4393379447477
 31
0.0
  0
LINE
  5
2041
330
18
100
AcDbEntity
  8
1
  6
Continuous
100
AcDbLine
 10
168.932623982062
 20
167.4201283810881
 30
0.0
 11
166.5356813832769
 21
167.4201283810881
 31
0.0
  0
ARC
  5
2042
330
18
100
AcDbEntity
  8
1
  6
Continuous
100
AcDbCircle
 10
174.1346076150947
 20
167.4214140593
 30
0.0
 40
11.24832694109443
100
AcDbArc
 50
122.0503211561936
 51
132.4976973216509
  0
ARC
  5
2043
330
18
100
AcDbEntity
  8
1
  6
Continuous
100
AcDbCircle
 10
137.0220167098759
 20
169.8553855591051
 30
0.0
 40
13.69613660101661
100
AcDbArc
 50
190.2419996492053
 51
198.4563817172578
  0
LINE
  5
2044
330
18
100
AcDbEntity
  8
1
  6
Continuous
100
AcDbLine
 10
123.9230580674118
 20
165.8552055285665
 30
0.0
 11
123.923058067412
 21
168.9708789203899
 31
0.0
  0
ARC
  5
2045
330
18
100
AcDbEntity
  8
1
  6
Continuous
100
AcDbCircle
 10
123.9580025201349
 20
165.4469836769029
 30
0.0
 40
0.0727453539352217
100
AcDbArc
 50
249.7824656328428
 51
353.9427366207389
  0
ARC
  5
2046
330
18
100
AcDbEntity
  8
1
  6
Continuous
100
AcDbCircle
 10
174.6277150562524
 20
173.1258715335999
 30
0.0
 40
10.70371660217193
100
AcDbArc
 50
220.8869799367051
 51
225.8151009055617
  0
ARC
  5
2047
330
18
100
AcDbEntity
  8
1
  6
Continuous
100
AcDbCircle
 10
167.4492633971761
 20
165.9503617752535
 30
0.0
 40
0.573991760924312
100
AcDbArc
 50
240.5990149259138
 51
297.0892577306113
  0
LINE
  5
2048
330
18
100
AcDbEntity
  8
1
  6
Continuous
100
AcDbLine
 10
129.9521670767494
 20
182.4386759193838
 30
0.0
 11
126.3156349957678
 21
169.3471534287406
 31
0.0
  0
LINE
  5
2049
330
18
100
AcDbEntity
  8
1
  6
Continuous
100
AcDbLine
 10
129.2803477001202
 20
187.4201293310371
 30
0.0
 11
129.2803477001202
 21
187.3559456839673
 31
0.0
  0
ARC
  5
204A
330
18
100
AcDbEntity
  8
1
  6
Continuous
100
AcDbCircle
 10
128.7803476763715
 20
185.4201292360423
 30
0.0
 40
2.000000094994855
100
AcDbArc
 50
0.0
 51
90.0
  0
LINE
  5
204B
330
18
100
AcDbEntity
  8
1
  6
Continuous
100
AcDbLine
 10
205.5856828685036
 20
171.704918869084
 30
0.0
 11
205.5856828685037
 21
163.1353378216626
 31
0.0
  0
LINE
  5
204C
330
18
100
AcDbEntity
  8
1
  6
Continuous
100
AcDbLine
 10
199.7356837341453
 20
171.1195657233816
 30
0.0
 11
199.7356837341453
 21
163.7201096375663
 31
0.0
  0
LINE
  5
204D
330
18
100
AcDbEntity
  8
1
  6
Continuous
100
AcDbLine
 10
194.1356827061255
 20
179.8201289700566
 30
0.0
 11
194.1356827061255
 21
163.5550255306185
 31
0.0
  0
LINE
  5
204E
330
18
100
AcDbEntity
  8
1
  6
Continuous
100
AcDbLine
 10
194.3356823341574
 20
179.8201289700566
 30
0.0
 11
194.3356823341574
 21
162.6748535943728
 31
0.0
  0
LINE
  5
204F
330
18
100
AcDbEntity
  8
1
  6
Continuous
100
AcDbLine
 10
192.6356826348846
 20
178.8762351283641
 30
0.0
 11
192.6356826348845
 21
155.9640216338123
 31
0.0
  0
LINE
  5
2050
330
18
100
AcDbEntity
  8
1
  6
Continuous
100
AcDbLine
 10
196.3356823980291
 20
179.3199525284885
 30
0.0
 11
196.3356823980291
 21
155.5199513980088
 31
0.0
  0
LINE
  5
2051
330
18
100
AcDbEntity
  8
1
  6
Continuous
100
AcDbLine
 10
200.0856826072678
 20
160.9701280747297
 30
0.0
 11
200.0856826072678
 21
173.8701286874468
 31
0.0
  0
LINE
  5
2052
330
18
100
AcDbEntity
  8
1
  6
Continuous
100
AcDbLine
 10
201.0856826547652
 20
160.6701280604804
 30
0.0
 11
201.0856826547652
 21
174.170128701696
 31
0.0
  0
LINE
  5
2053
330
18
100
AcDbEntity
  8
1
  6
Continuous
100
AcDbLine
 10
186.5984544880868
 20
159.670128012983
 30
0.0
 11
186.5984544880868
 21
175.1701287491935
 31
0.0
  0
LINE
  5
2054
330
18
100
AcDbEntity
  8
1
  6
Continuous
100
AcDbLine
 10
201.5856826785139
 20
161.2826280895726
 30
0.0
 11
201.5856826785139
 21
173.5576286726038
 31
0.0
  0
LINE
  5
2058
330
18
100
AcDbEntity
  8
1
  6
Continuous
100
AcDbLine
 10
186.9926773368908
 20
155.0201277921199
 30
0.0
 11
194.1356827061277
 21
155.0201277921199
 31
0.0
  0
ARC
  5
2059
330
18
100
AcDbEntity
  8
1
  6
Continuous
100
AcDbCircle
 10
208.1149806220435
 20
159.1525741802263
 30
0.0
 40
21.52275096776752
100
AcDbArc
 50
178.6220785479736
 51
192.0207252169254
  0
LINE
  5
205A
330
18
100
AcDbEntity
  8
1
  6
Continuous
100
AcDbLine
 10
178.9356819841664
 20
151.9201276448777
 30
0.0
 11
177.9356819366689
 21
151.9201276448777
 31
0.0
  0
LINE
  5
205B
330
18
100
AcDbEntity
  8
1
  6
Continuous
100
AcDbLine
 10
177.9356819366689
 20
155.0201277921199
 30
0.0
 11
178.9356819841664
 21
155.0201277921199
 31
0.0
  0
LINE
  5
2060
330
18
100
AcDbEntity
  8
1
  6
Continuous
100
AcDbLine
 10
187.0641734296989
 20
154.6701277754956
 30
0.0
 11
187.4356823878945
 21
154.6701277754956
 31
0.0
  0
LINE
  5
206F
330
18
100
AcDbEntity
  8
1
  6
Continuous
100
AcDbLine
 10
187.4356823878946
 20
143.2202253028406
 30
0.0
 11
187.4356823878945
 21
154.6701277754956
 31
0.0
  0
ARC
  5
2070
330
18
100
AcDbEntity
  8
1
  6
Continuous
100
AcDbCircle
 10
162.1266118396579
 20
176.9842507140895
 30
0.0
 40
12.84634206992654
100
AcDbArc
 50
296.8160366450389
 51
302.0081286766918
  0
LINE
  5
2071
330
18
100
AcDbEntity
  8
1
  6
Continuous
100
AcDbLine
 10
192.7356822581615
 20
155.9640216338124
 30
0.0
 11
192.7356822581615
 21
163.5550255306185
 31
0.0
  0
LINE
  5
2073
330
18
100
AcDbEntity
  8
1
  6
Continuous
100
AcDbLine
 10
194.3356823341574
 20
155.9640216338124
 30
0.0
 11
194.3356823341574
 21
155.0201277921198
 31
0.0
  0
LINE
  5
2074
330
18
100
AcDbEntity
  8
1
  6
Continuous
100
AcDbLine
 10
194.3356823341574
 20
155.9640216338124
 30
0.0
 11
192.6356826348845
 21
155.9640216338123
 31
0.0
  0
LINE
  5
2075
330
18
100
AcDbEntity
  8
1
  6
Continuous
100
AcDbLine
 10
194.3356823341574
 20
155.0201277921198
 30
0.0
 11
195.8356824054036
 21
155.0201277921198
 31
0.0
  0
LINE
  5
2076
330
18
100
AcDbEntity
  8
1
  6
Continuous
100
AcDbLine
 10
194.1356827061277
 20
155.9640216338124
 30
0.0
 11
194.1356827061277
 21
155.0201277921198
 31
0.0
  0
ARC
  5
2077
330
18
100
AcDbEntity
  8
1
  6
Continuous
100
AcDbCircle
 10
195.8356824054036
 20
155.5201278158685
 30
0.0
 40
0.5000000237487347
100
AcDbArc
 50
270.0
 51
359.9833661577755
  0
LINE
  5
2078
330
18
100
AcDbEntity
  8
1
  6
Continuous
100
AcDbLine
 10
201.0856826547652
 20
160.6701280604805
 30
0.0
 11
201.5857826785139
 21
161.2827505895726
 31
0.0
  0
LINE
  5
2079
330
18
100
AcDbEntity
  8
1
  6
Continuous
100
AcDbLine
 10
200.0856826072932
 20
162.1365975227146
 30
0.0
 11
199.9356826001432
 21
162.1365975227146
 31
0.0
  0
LINE
  5
207A
330
18
100
AcDbEntity
  8
1
  6
Continuous
100
AcDbLine
 10
200.0856826072932
 20
162.859289493349
 30
0.0
 11
199.9356826001432
 21
162.859289493349
 31
0.0
  0
LINE
  5
207B
330
18
100
AcDbEntity
  8
1
  6
Continuous
100
AcDbLine
 10
194.3356823341574
 20
162.6748535943728
 30
0.0
 11
192.7356822581615
 21
162.6748535943728
 31
0.0
  0
LINE
  5
207C
330
18
100
AcDbEntity
  8
1
  6
Continuous
100
AcDbLine
 10
194.3356823341574
 20
163.5550255306185
 30
0.0
 11
192.7356822581615
 21
163.5550255306185
 31
0.0
  0
LINE
  5
207D
330
18
100
AcDbEntity
  8
2
  6
Continuous
100
AcDbLine
 10
199.9356822459288
 20
164.9406289861846
 30
0.0
 11
199.7356833808386
 21
164.9406290147559
 31
0.0
  0
ARC
  5
207E
330
18
100
AcDbEntity
  8
1
  6
Continuous
100
AcDbCircle
 10
199.6638483071144
 20
164.6178747220533
 30
0.0
 40
0.0732312933409497
100
AcDbArc
 50
292.7511087661017
 51
348.7952168183992
  0
ARC
  5
207F
330
18
100
AcDbEntity
  8
1
  6
Continuous
100
AcDbCircle
 10
199.470446410665
 20
165.0471741796996
 30
0.0
 40
0.5440623108393645
100
AcDbArc
 50
266.3366086871318
 51
294.0498635602633
  0
LINE
  5
2080
330
18
100
AcDbEntity
  8
1
  6
Continuous
100
AcDbLine
 10
200.0856826072678
 20
166.3848521515053
 30
0.0
 11
199.9356826001431
 21
166.3848521515053
 31
0.0
  0
LINE
  5
2081
330
18
100
AcDbEntity
  8
1
  6
Continuous
100
AcDbLine
 10
199.7356837350529
 20
164.6701282504702
 30
0.0
 11
199.9356826001432
 21
164.6701282504702
 31
0.0
  0
LINE
  5
2082
330
18
100
AcDbEntity
  8
1
  6
Continuous
100
AcDbLine
 10
200.0856826072931
 20
163.7205602456914
 30
0.0
 11
199.9356826001432
 21
163.7205602456914
 31
0.0
  0
LINE
  5
2083
330
18
100
AcDbEntity
  8
1
  6
Continuous
100
AcDbLine
 10
200.0856826072924
 20
165.7507454856078
 30
0.0
 11
199.9356826001432
 21
165.7507454856078
 31
0.0
  0
LINE
  5
2084
330
18
100
AcDbEntity
  8
1
  6
Continuous
100
AcDbLine
 10
200.0856826072931
 20
164.6942405037565
 30
0.0
 11
199.9356826001432
 21
164.6942405037565
 31
0.0
  0
ARC
  5
2085
330
18
100
AcDbEntity
  8
1
  6
Continuous
100
AcDbCircle
 10
199.4356837208036
 20
163.7201282053477
 30
0.0
 40
0.3000000142492287
100
AcDbArc
 50
270.0
 51
0.0
  0
LINE
  5
2086
330
18
100
AcDbEntity
  8
1
  6
Continuous
100
AcDbLine
 10
194.3356823341574
 20
164.5042235802255
 30
0.0
 11
194.1356834690671
 21
164.5042235802255
 31
0.0
  0
LINE
  5
2087
330
18
100
AcDbEntity
  8
1
  6
Continuous
100
AcDbLine
 10
199.4356837208036
 20
163.4201281910984
 30
0.0
 11
196.3356823980291
 21
163.4201281910984
 31
0.0
  0
LINE
  5
2088
330
18
100
AcDbEntity
  8
1
  6
Continuous
100
AcDbLine
 10
199.4356837208036
 20
164.5042235802255
 30
0.0
 11
196.3356823980291
 21
164.5042235802255
 31
0.0
  0
LINE
  5
2089
330
18
100
AcDbEntity
  8
1
  6
Continuous
100
AcDbLine
 10
200.0856826072679
 20
160.9946723445705
 30
0.0
 11
199.9356826001432
 21
160.9946723445704
 31
0.0
  0
ARC
  5
208A
330
18
100
AcDbEntity
  8
1
  6
Continuous
100
AcDbCircle
 10
200.385682621517
 20
160.9701280747297
 30
0.0
 40
0.3000000142492368
100
AcDbArc
 50
180.0
 51
269.9999999999934
  0
LINE
  5
208B
330
18
100
AcDbEntity
  8
1
  6
Continuous
100
AcDbLine
 10
200.0856826072932
 20
161.1899065978684
 30
0.0
 11
199.9356826001432
 21
161.1899065978684
 31
0.0
  0
LINE
  5
208C
330
18
100
AcDbEntity
  8
1
  6
Continuous
100
AcDbLine
 10
200.0856826072932
 20
161.5744429419736
 30
0.0
 11
199.9356826001432
 21
161.5744429419736
 31
0.0
  0
LINE
  5
208E
330
18
100
AcDbEntity
  8
1
  6
Continuous
100
AcDbLine
 10
200.385682621517
 20
160.6701280604804
 30
0.0
 11
201.0856826547651
 21
160.6701280604804
 31
0.0
  0
LINE
  5
208F
330
18
100
AcDbEntity
  8
1
  6
Continuous
100
AcDbLine
 10
192.7356822581615
 20
158.1813326171585
 30
0.0
 11
192.6356826348811
 21
158.1813326171585
 31
0.0
  0
LINE
  5
2090
330
18
100
AcDbEntity
  8
1
  6
Continuous
100
AcDbLine
 10
199.9356826001432
 20
160.9946723445704
 30
0.0
 11
199.9356826001431
 21
166.3848521515053
 31
0.0
  0
ARC
  5
2091
330
18
100
AcDbEntity
  8
1
  6
Continuous
100
AcDbCircle
 10
205.085682844755
 20
163.1353378216626
 30
0.0
 40
0.5000000237487267
100
AcDbArc
 50
270.0
 51
359.9999999999992
  0
LINE
  5
2092
330
18
100
AcDbEntity
  8
1
  6
Continuous
100
AcDbLine
 10
205.085682844755
 20
162.6353377979139
 30
0.0
 11
201.5856826785139
 21
162.6353377979139
 31
0.0
  0
LINE
  5
2093
330
18
100
AcDbEntity
  8
4
  6
CENTER
 48
0.2
100
AcDbLine
 10
208.5856828685036
 20
167.4201286310881
 30
0.0
 11
183.5614407554148
 21
167.4201286310881
 31
0.0
  0
LINE
  5
2094
330
18
100
AcDbEntity
  8
1
  6
Continuous
100
AcDbLine
 10
194.1356827061255
 20
179.8201289700566
 30
0.0
 11
186.9926786026364
 21
179.8201289700566
 31
0.0
  0
ARC
  5
2095
330
18
100
AcDbEntity
  8
1
  6
Continuous
100
AcDbCircle
 10
208.1149818031227
 20
175.6876821491931
 30
0.0
 40
21.52275096776752
100
AcDbArc
 50
168.2478895029784
 51
181.377913266913
  0
ARC
  5
2096
330
18
100
AcDbEntity
  8
1
  6
Continuous
100
AcDbCircle
 10
173.9425135730687
 20
167.7187870088111
 30
0.0
 40
10.89434265913788
100
AcDbArc
 50
117.3843024068164
 51
122.0239701369851
  0
LINE
  5
2097
330
18
100
AcDbEntity
  8
1
  6
Continuous
100
AcDbLine
 10
177.9356819366689
 20
185.4201292360423
 30
0.0
 11
177.9356819366689
 21
177.0201288370637
 31
0.0
  0
LINE
  5
2098
330
18
100
AcDbEntity
  8
1
  6
Continuous
100
AcDbLine
 10
176.6356820516989
 20
175.7201285985404
 30
0.0
 11
178.9356819841664
 21
173.4201286660729
 31
0.0
  0
LINE
  5
2099
330
18
100
AcDbEntity
  8
1
  6
Continuous
100
AcDbLine
 10
177.9356819366689
 20
177.0201288370637
 30
0.0
 11
176.6356818749222
 21
175.7201287753171
 31
0.0
  0
ARC
  5
209A
330
18
100
AcDbEntity
  8
1
  6
Continuous
100
AcDbCircle
 10
179.9356820316638
 20
185.4201292360423
 30
0.0
 40
2.000000094994899
100
AcDbArc
 50
89.99999831743956
 51
180.0
  0
LINE
  5
209B
330
18
100
AcDbEntity
  8
1
  6
Continuous
100
AcDbLine
 10
175.935681841674
 20
187.4201293310371
 30
0.0
 11
174.3498953287263
 21
187.4201293310371
 31
0.0
  0
ARC
  5
209E
330
18
100
AcDbEntity
  8
1
  6
Continuous
100
AcDbCircle
 10
174.3498953287264
 20
186.4201292835398
 30
0.0
 40
1.000000047497497
100
AcDbArc
 50
90.0
 51
121.1407851217422
  0
LINE
  5
209F
330
18
100
AcDbEntity
  8
1
  6
Continuous
100
AcDbLine
 10
175.9356818416739
 20
181.9201290698013
 30
0.0
 11
177.9356819366689
 21
181.8153135062567
 31
0.0
  0
LINE
  5
20A0
330
18
100
AcDbEntity
  8
1
  6
Continuous
100
AcDbLine
 10
173.832752585625
 20
187.2760285055586
 30
0.0
 11
168.9356815091916
 21
180.4201289985548
 31
0.0
  0
LINE
  5
20A1
330
18
100
AcDbEntity
  8
1
  6
Continuous
100
AcDbLine
 10
179.9356820903964
 20
187.4201293310371
 30
0.0
 11
187.4356823878944
 21
187.4201293310371
 31
0.0
  0
ARC
  5
20A2
330
18
100
AcDbEntity
  8
1
  6
Continuous
100
AcDbCircle
 10
187.1762084287685
 20
180.0435993851829
 30
0.0
 40
0.1356931624570248
100
AcDbArc
 50
111.1770599448457
 51
168.1823472659827
  0
LINE
  5
20A3
330
18
100
AcDbEntity
  8
1
  6
Continuous
100
AcDbLine
 10
187.1271891031591
 20
180.1701289866807
 30
0.0
 11
187.4356823878944
 21
180.1701289866807
 31
0.0
  0
LINE
  5
20A4
330
18
100
AcDbEntity
  8
1
  6
Continuous
100
AcDbLine
 10
187.4356823878944
 20
180.1701289866807
 30
0.0
 11
187.4356823878944
 21
187.4201293310371
 31
0.0
  0
LINE
  5
20A5
330
18
100
AcDbEntity
  8
1
  6
Continuous
100
AcDbLine
 10
201.5856826785139
 20
173.5576286726038
 30
0.0
 11
201.0856826547652
 21
174.170128701696
 31
0.0
  0
LINE
  5
20A6
330
18
100
AcDbEntity
  8
1
  6
Continuous
100
AcDbLine
 10
200.0856826072925
 20
173.2658137985602
 30
0.0
 11
199.9356826001432
 21
173.2658137985602
 31
0.0
  0
LINE
  5
20A7
330
18
100
AcDbEntity
  8
1
  6
Continuous
100
AcDbLine
 10
200.0856826072927
 20
172.7036592394625
 30
0.0
 11
199.9356826001432
 21
172.7036592394625
 31
0.0
  0
LINE
  5
20A8
330
18
100
AcDbEntity
  8
1
  6
Continuous
100
AcDbLine
 10
200.085682607268
 20
173.8455843938172
 30
0.0
 11
199.9356826001431
 21
173.8455843938172
 31
0.0
  0
ARC
  5
20A9
330
18
100
AcDbEntity
  8
1
  6
Continuous
100
AcDbCircle
 10
200.385682621517
 20
173.8701286874468
 30
0.0
 40
0.3000000142492368
100
AcDbArc
 50
90.0
 51
180.0
  0
LINE
  5
20AA
330
18
100
AcDbEntity
  8
1
  6
Continuous
100
AcDbLine
 10
200.0856826072925
 20
173.6503501643079
 30
0.0
 11
199.9356826001432
 21
173.6503501643079
 31
0.0
  0
LINE
  5
20AB
330
18
100
AcDbEntity
  8
1
  6
Continuous
100
AcDbLine
 10
201.0856826547652
 20
174.170128701696
 30
0.0
 11
200.385682621517
 21
174.170128701696
 31
0.0
  0
LINE
  5
20AC
330
18
100
AcDbEntity
  8
1
  6
Continuous
100
AcDbLine
 10
201.0856826547652
 20
174.170128701696
 30
0.0
 11
201.085601022112
 21
174.170228701696
 31
0.0
  0
LINE
  5
20AD
330
18
100
AcDbEntity
  8
1
  6
Continuous
100
AcDbLine
 10
194.1356827061266
 20
176.6589241450199
 30
0.0
 11
192.6356826348811
 21
176.6589241450199
 31
0.0
  0
LINE
  5
20AE
330
18
100
AcDbEntity
  8
1
  6
Continuous
100
AcDbLine
 10
194.3356823341574
 20
176.7513121026598
 30
0.0
 11
194.1356827061276
 21
176.7513121026598
 31
0.0
  0
LINE
  5
20AF
330
18
100
AcDbEntity
  8
2
  6
Continuous
100
AcDbLine
 10
199.9356826001432
 20
169.8996285117061
 30
0.0
 11
199.7356837350529
 21
169.8996285117061
 31
0.0
  0
ARC
  5
20B0
330
18
100
AcDbEntity
  8
1
  6
Continuous
100
AcDbCircle
 10
199.4356842493752
 20
171.1201293639716
 30
0.0
 40
0.3000000142492287
100
AcDbArc
 50
359.8923525185564
 51
89.9999918148868
  0
ARC
  5
20B1
330
18
100
AcDbEntity
  8
1
  6
Continuous
100
AcDbCircle
 10
199.6638487074364
 20
170.222382814671
 30
0.0
 40
0.0732312933409497
100
AcDbArc
 50
11.20477499648885
 51
67.24888304878807
  0
LINE
  5
20B2
330
18
100
AcDbEntity
  8
1
  6
Continuous
100
AcDbLine
 10
199.4356841373616
 20
170.3360339890937
 30
0.0
 11
196.3356828145871
 21
170.3360344319511
 31
0.0
  0
LINE
  5
20B3
330
18
100
AcDbEntity
  8
1
  6
Continuous
100
AcDbLine
 10
199.4356842922325
 20
171.4201293782208
 30
0.0
 11
196.3356829694579
 21
171.4201298210781
 31
0.0
  0
ARC
  5
20B4
330
18
100
AcDbEntity
  8
1
  6
Continuous
100
AcDbCircle
 10
199.4704467496587
 20
169.7930833846535
 30
0.0
 40
0.5440623108393645
100
AcDbArc
 50
65.9501282546249
 51
93.66338312775726
  0
LINE
  5
20B5
330
18
100
AcDbEntity
  8
1
  6
Continuous
100
AcDbLine
 10
200.0856826072678
 20
168.4554046106713
 30
0.0
 11
199.9356826001432
 21
168.4554046106713
 31
0.0
  0
LINE
  5
20B6
330
18
100
AcDbEntity
  8
1
  6
Continuous
100
AcDbLine
 10
200.0856826072927
 20
171.9809672688276
 30
0.0
 11
199.9356826001432
 21
171.9809672688276
 31
0.0
  0
LINE
  5
20B7
330
18
100
AcDbEntity
  8
1
  6
Continuous
100
AcDbLine
 10
199.9356826001432
 20
170.1701285117061
 30
0.0
 11
199.7356837350529
 21
170.1701285117061
 31
0.0
  0
LINE
  5
20B8
330
18
100
AcDbEntity
  8
1
  6
Continuous
100
AcDbLine
 10
200.0856826072932
 20
171.1196965164853
 30
0.0
 11
199.9356826001432
 21
171.1196965164853
 31
0.0
  0
LINE
  5
20B9
330
18
100
AcDbEntity
  8
1
  6
Continuous
100
AcDbLine
 10
200.085682607293
 20
169.0895112765687
 30
0.0
 11
199.9356826001432
 21
169.0895112765687
 31
0.0
  0
LINE
  5
20BA
330
18
100
AcDbEntity
  8
1
  6
Continuous
100
AcDbLine
 10
200.0856826072932
 20
170.1460162584203
 30
0.0
 11
199.9356826001432
 21
170.1460162584203
 31
0.0
  0
LINE
  5
20BB
330
18
100
AcDbEntity
  8
1
  6
Continuous
100
AcDbLine
 10
200.085682607293
 20
167.9822829401866
 30
0.0
 11
199.9356826001432
 21
167.9822829401866
 31
0.0
  0
LINE
  5
20BC
330
18
100
AcDbEntity
  8
1
  6
Continuous
100
AcDbLine
 10
199.9356826001432
 20
166.8579738219899
 30
0.0
 11
199.9356826001432
 21
167.9822829401865
 31
0.0
  0
LINE
  5
20BD
330
18
100
AcDbEntity
  8
1
  6
Continuous
100
AcDbLine
 10
200.0856826072924
 20
166.8579738219899
 30
0.0
 11
199.9356826001432
 21
166.8579738219899
 31
0.0
  0
LINE
  5
20BE
330
18
100
AcDbEntity
  8
1
  6
Continuous
100
AcDbLine
 10
194.3356823341574
 20
171.420128571078
 30
0.0
 11
194.1356834690671
 21
171.420128571078
 31
0.0
  0
LINE
  5
20BF
330
18
100
AcDbEntity
  8
1
  6
Continuous
100
AcDbLine
 10
194.3356823341574
 20
170.336033181951
 30
0.0
 11
194.1356834690671
 21
170.336033181951
 31
0.0
  0
LINE
  5
20C0
330
18
100
AcDbEntity
  8
1
  6
Continuous
100
AcDbLine
 10
199.9356826001432
 20
168.4554046106713
 30
0.0
 11
199.9356826001431
 21
173.8455843938172
 31
0.0
  0
ARC
  5
20C1
330
18
100
AcDbEntity
  8
1
  6
Continuous
100
AcDbCircle
 10
205.085677693368
 20
171.70491336554
 30
0.0
 40
0.500005175165958
100
AcDbArc
 50
0.0006306531728667
 51
89.99979583989171
  0
LINE
  5
20C2
330
18
100
AcDbEntity
  8
1
  6
Continuous
100
AcDbLine
 10
205.0856794750195
 20
172.2049185407028
 30
0.0
 11
201.5856793087792
 21
172.2049160757933
 31
0.0
  0
LINE
  5
20C3
330
18
100
AcDbEntity
  8
1
  6
Continuous
100
AcDbLine
 10
205.5856828685037
 20
167.4201283453739
 30
0.0
 11
201.5856826785139
 21
167.4201286310881
 31
0.0
  0
LINE
  5
20C4
330
18
100
AcDbEntity
  8
1
  6
Continuous
100
AcDbLine
 10
192.635682634883
 20
178.8762351283641
 30
0.0
 11
194.3356823341574
 21
178.8762351283641
 31
0.0
  0
ARC
  5
20C5
330
18
100
AcDbEntity
  8
1
  6
Continuous
100
AcDbCircle
 10
195.8356824054036
 20
179.3201289463079
 30
0.0
 40
0.5000000237487347
100
AcDbArc
 50
359.9797840075748
 51
90.0
  0
LINE
  5
20C6
330
18
100
AcDbEntity
  8
1
  6
Continuous
100
AcDbLine
 10
195.8356824054036
 20
179.8201289700566
 30
0.0
 11
194.3356823341574
 21
179.8201289700566
 31
0.0
  0
LINE
  5
20C7
330
18
100
AcDbEntity
  8
1
  6
Continuous
100
AcDbLine
 10
125.7803475338816
 20
227.545483671293
 30
0.0
 11
99.78034629894851
 21
227.545483671293
 31
0.0
  0
ARC
  5
20C8
330
18
100
AcDbEntity
  8
1
  6
Continuous
100
AcDbCircle
 10
112.7803469159992
 20
7237.358052134796
 30
0.0
 40
7004.915498409913
100
AcDbArc
 50
269.8707142343728
 51
270.1292857656336
  0
LINE
  5
20C9
330
18
100
AcDbEntity
  8
1
  6
Continuous
100
AcDbLine
 10
94.7803460614582
 20
234.5454840037752
 30
0.0
 11
130.7803477713664
 21
234.5454840037752
 31
0.0
  0
LINE
  5
20CB
330
18
100
AcDbEntity
  8
1
  6
Continuous
100
AcDbLine
 10
123.6839183913452
 20
225.7766640784822
 30
0.0
 11
122.3303473700129
 21
225.1454835453782
 31
0.0
  0
ARC
  5
20CC
330
18
100
AcDbEntity
  8
1
  6
Continuous
100
AcDbCircle
 10
112.7803469164123
 20
148.5430804636496
 30
0.0
 40
95.50240399135134
100
AcDbArc
 50
81.7869992752602
 51
98.21300072473981
  0
ARC
  5
20CD
330
18
100
AcDbEntity
  8
1
  6
Continuous
100
AcDbCircle
 10
112.7803469164123
 20
148.5430804636504
 30
0.0
 40
97.50240408634514
100
AcDbArc
 50
81.7869992752602
 51
98.21300072473981
  0
LINE
  5
20D2
330
18
100
AcDbEntity
  8
1
  6
Continuous
100
AcDbLine
 10
95.0732392941834
 20
232.252590676058
 30
0.0
 11
99.78034629894851
 21
227.545483671293
 31
0.0
  0
LINE
  5
20D3
330
18
100
AcDbEntity
  8
4
  6
CENTER
 48
0.2
100
AcDbLine
 10
112.7803469164123
 20
220.654913620562
 30
0.0
 11
112.7803469164123
 21
267.1954850306049
 31
0.0
  0
LINE
  5
20D6
330
18
100
AcDbEntity
  8
1
  6
Continuous
100
AcDbLine
 10
122.330347370013
 20
225.1454835453782
 30
0.0
 11
103.2303464628115
 21
225.1454835453782
 31
0.0
  0
LINE
  5
20D7
330
18
100
AcDbEntity
  8
1
  6
Continuous
100
AcDbLine
 10
101.7098809084205
 20
227.549941163655
 30
0.0
 11
101.5303463820659
 21
226.5317502683462
 31
0.0
  0
LINE
  5
20D8
330
18
100
AcDbEntity
  8
1
  6
Continuous
100
AcDbLine
 10
101.5303463820659
 20
226.3204487765341
 30
0.0
 11
101.5303463820659
 21
226.5317502683462
 31
0.0
  0
ARC
  5
20D9
330
18
100
AcDbEntity
  8
1
  6
Continuous
100
AcDbCircle
 10
102.1303464105644
 20
226.3204487765341
 30
0.0
 40
0.6000000284985063
100
AcDbArc
 50
180.0
 51
245.0000000003445
  0
ARC
  5
20DF
330
18
100
AcDbEntity
  8
1
  6
Continuous
100
AcDbCircle
 10
112.7803469164126
 20
232.7454839063584
 30
0.0
 40
11.25000053434688
100
AcDbArc
 50
207.5428483775021
 51
222.4973071543783
  0
ARC
  5
20E0
330
18
100
AcDbEntity
  8
1
  6
Continuous
100
AcDbCircle
 10
112.7803469164123
 20
232.7454839063587
 30
0.0
 40
11.30505101039828
100
AcDbArc
 50
207.4027157163303
 51
222.2421903250916
  0
LINE
  5
20E1
330
18
100
AcDbEntity
  8
1
  6
Continuous
100
AcDbLine
 10
103.2303464628115
 20
225.1454835453782
 30
0.0
 11
101.8767754414793
 21
225.7766640784822
 31
0.0
  0
ARC
  5
20E9
330
18
100
AcDbEntity
  8
1
  6
Continuous
100
AcDbCircle
 10
112.7803469164125
 20
232.7454839063587
 30
0.0
 40
11.25000053434605
100
AcDbArc
 50
317.5026928456142
 51
332.4607918755156
  0
ARC
  5
20EA
330
18
100
AcDbEntity
  8
1
  6
Continuous
100
AcDbCircle
 10
112.7803469164119
 20
232.7454839063591
 30
0.0
 40
11.30505101039873
100
AcDbArc
 50
317.7578096749083
 51
332.5972842836689
  0
LINE
  5
20F1
330
18
100
AcDbEntity
  8
1
  6
Continuous
100
AcDbLine
 10
100.3803463274439
 20
243.2370567954146
 30
0.0
 11
100.3803463274439
 21
234.5454840037752
 31
0.0
  0
LINE
  5
20F2
330
18
100
AcDbEntity
  8
1
  6
Continuous
100
AcDbLine
 10
98.28034622769928
 20
242.0762528350305
 30
0.0
 11
98.28034622769928
 21
235.2454840370235
 31
0.0
  0
LINE
  5
20F3
330
18
100
AcDbEntity
  8
1
  6
Continuous
100
AcDbLine
 10
96.28034613270436
 20
242.0762528350305
 30
0.0
 11
96.28034613270436
 21
235.2454840370235
 31
0.0
  0
LINE
  5
20F4
330
18
100
AcDbEntity
  8
1
  6
Continuous
100
AcDbLine
 10
96.28034613270436
 20
236.5454840987701
 30
0.0
 11
98.28034622769928
 21
236.5454840987701
 31
0.0
  0
ARC
  5
20F5
330
18
100
AcDbEntity
  8
1
  6
Continuous
100
AcDbCircle
 10
94.94853489097884
 20
232.4506559289383
 30
0.0
 40
0.0255997669687548
100
AcDbArc
 50
101.5419556384694
 51
197.1329978319658
  0
ARC
  5
20F6
330
18
100
AcDbEntity
  8
1
  6
Continuous
100
AcDbCircle
 10
95.19288716901952
 20
231.2433212973019
 30
0.0
 40
1.257413411004982
100
AcDbArc
 50
89.31257266875036
 51
101.4435782393011
  0
ARC
  5
20F7
330
18
100
AcDbEntity
  8
1
  6
Continuous
100
AcDbCircle
 10
95.55545609662273
 20
210.7223779988663
 30
0.0
 40
21.78103816408254
100
AcDbArc
 50
86.77621463544253
 51
90.91410492938587
  0
LINE
  5
20F8
330
18
100
AcDbEntity
  8
1
  6
Continuous
100
AcDbLine
 10
94.7803460614582
 20
234.5454840037752
 30
0.0
 11
94.7803460614582
 21
232.9596974908275
 31
0.0
  0
LINE
  5
20F9
330
18
100
AcDbEntity
  8
1
  6
Continuous
100
AcDbLine
 10
96.28034613270436
 20
235.2454840370235
 30
0.0
 11
98.28034622769928
 21
235.2454840370235
 31
0.0
  0
LINE
  5
20FA
330
18
100
AcDbEntity
  8
1
  6
Continuous
100
AcDbLine
 10
96.97403268925279
 20
232.4603869084274
 30
0.0
 11
96.78034615645335
 21
232.4689864685853
 31
0.0
  0
LINE
  5
20FB
330
18
100
AcDbEntity
  8
1
  6
Continuous
100
AcDbLine
 10
94.93069734086521
 20
232.4323483978683
 30
0.0
 11
95.07323929419179
 21
232.2525906760671
 31
0.0
  0
ARC
  5
20FC
330
18
100
AcDbEntity
  8
1
  6
Continuous
100
AcDbCircle
 10
95.78034610895576
 20
232.9596974908275
 30
0.0
 40
1.000000047497572
100
AcDbArc
 50
180.0000000000073
 51
211.8265163878097
  0
ARC
  5
20FD
330
18
100
AcDbEntity
  8
1
  6
Continuous
100
AcDbCircle
 10
99.28034627519672
 20
242.0762528350305
 30
0.0
 40
1.000000047497457
100
AcDbArc
 50
98.21300072446344
 51
179.9999999999983
  0
ARC
  5
20FE
330
18
100
AcDbEntity
  8
1
  6
Continuous
100
AcDbCircle
 10
99.28034627519672
 20
242.0762528350305
 30
0.0
 40
3.000000142492353
100
AcDbArc
 50
98.21300072465435
 51
179.9999999999991
  0
LINE
  5
2100
330
18
100
AcDbEntity
  8
1
  6
Continuous
100
AcDbLine
 10
100.4055890121401
 20
238.545484193765
 30
0.0
 11
125.1551048206807
 21
238.545484193765
 31
0.0
  0
LINE
  5
2106
330
18
100
AcDbEntity
  8
1
  6
Continuous
100
AcDbLine
 10
113.5303469520354
 20
263.8954850163556
 30
0.0
 11
113.5303469520354
 21
261.6954849118612
 31
0.0
  0
LINE
  5
2107
330
18
100
AcDbEntity
  8
1
  6
Continuous
100
AcDbLine
 10
115.542847047624
 20
263.6954850068562
 30
0.0
 11
115.542847047624
 21
260.1954848406151
 31
0.0
  0
LINE
  5
2108
330
18
100
AcDbEntity
  8
1
  6
Continuous
100
AcDbLine
 10
118.3053471788357
 20
263.6954850068562
 30
0.0
 11
118.3053470344982
 21
260.1954848406151
 31
0.0
  0
LINE
  5
2109
330
18
100
AcDbEntity
  8
1
  6
Continuous
100
AcDbLine
 10
107.2553466539889
 20
263.6954850068562
 30
0.0
 11
107.2553467983264
 21
260.1954848406151
 31
0.0
  0
LINE
  5
210A
330
18
100
AcDbEntity
  8
1
  6
Continuous
100
AcDbLine
 10
110.0178467852006
 20
263.6954850068562
 30
0.0
 11
110.0178467852006
 21
260.1954848406151
 31
0.0
  0
LINE
  5
210B
330
18
100
AcDbEntity
  8
1
  6
Continuous
100
AcDbLine
 10
112.0303468807892
 20
263.8954850163556
 30
0.0
 11
112.0303468807892
 21
261.6954849118612
 31
0.0
  0
LINE
  5
210C
330
18
100
AcDbEntity
  8
1
  6
Continuous
100
AcDbLine
 10
109.0803701514265
 20
258.3454858962464
 30
0.0
 11
116.4803656599342
 21
258.3454858962464
 31
0.0
  0
LINE
  5
210D
330
18
100
AcDbEntity
  8
1
  6
Continuous
100
AcDbLine
 10
119.2303472227708
 20
258.6954847693691
 30
0.0
 11
106.3303466100537
 21
258.6954847693691
 31
0.0
  0
LINE
  5
210E
330
18
100
AcDbEntity
  8
1
  6
Continuous
100
AcDbLine
 10
106.3303467055727
 20
258.5454847622443
 30
0.0
 11
112.431723928863
 21
258.5454847622443
 31
0.0
  0
LINE
  5
210F
330
18
100
AcDbEntity
  8
1
  6
Continuous
100
AcDbLine
 10
119.5303472370201
 20
259.6954848168663
 30
0.0
 11
106.0303465958045
 21
259.6954848168663
 31
0.0
  0
LINE
  5
2110
330
18
100
AcDbEntity
  8
1
  6
Continuous
100
AcDbLine
 10
118.9178472079279
 20
260.1954848406151
 30
0.0
 11
106.6428466248966
 21
260.1954848406151
 31
0.0
  0
LINE
  5
2111
330
18
100
AcDbEntity
  8
1
  6
Continuous
100
AcDbLine
 10
113.5303469520354
 20
261.6954849118612
 30
0.0
 11
112.0303468807892
 21
261.6954849118612
 31
0.0
  0
ARC
  5
2113
330
18
100
AcDbEntity
  8
1
  6
Continuous
100
AcDbCircle
 10
106.3303466100537
 20
258.9954847836181
 30
0.0
 40
0.3000000142492368
100
AcDbArc
 50
180.0000000000024
 51
270.0
  0
ARC
  5
2114
330
18
100
AcDbEntity
  8
1
  6
Continuous
100
AcDbCircle
 10
109.0803467406717
 20
258.0454858829048
 30
0.0
 40
0.3000000142492318
100
AcDbArc
 50
89.99552887538511
 51
180.0000000000007
  0
ARC
  5
2115
330
18
100
AcDbEntity
  8
1
  6
Continuous
100
AcDbCircle
 10
110.0078745474236
 20
258.2335515735326
 30
0.0
 40
0.120270717721409
100
AcDbArc
 50
111.4579319735588
 51
172.8274708153946
  0
ARC
  5
2116
330
18
100
AcDbEntity
  8
1
  6
Continuous
100
AcDbCircle
 10
110.6166848427424
 20
258.059177343738
 30
0.0
 40
0.7523673150226637
100
AcDbArc
 50
165.420287462433
 51
181.0427170468571
  0
LINE
  5
2117
330
18
100
AcDbEntity
  8
1
  6
Continuous
100
AcDbLine
 10
110.0303467857943
 20
258.3454858971541
 30
0.0
 11
110.0303467857943
 21
258.5454847622443
 31
0.0
  0
LINE
  5
2118
330
18
100
AcDbEntity
  8
2
  6
Continuous
100
AcDbLine
 10
110.3008467857943
 20
258.3454858971541
 30
0.0
 11
110.3008467857943
 21
258.5454847622443
 31
0.0
  0
LINE
  5
2119
330
18
100
AcDbEntity
  8
1
  6
Continuous
100
AcDbLine
 10
106.3303467055727
 20
258.6954847693689
 30
0.0
 11
106.3303467055727
 21
258.5454847622443
 31
0.0
  0
LINE
  5
211A
330
18
100
AcDbEntity
  8
1
  6
Continuous
100
AcDbLine
 10
110.0544590390805
 20
258.6954847693941
 30
0.0
 11
110.0544590390805
 21
258.5454847622443
 31
0.0
  0
LINE
  5
211B
330
18
100
AcDbEntity
  8
1
  6
Continuous
100
AcDbLine
 10
109.0807787810154
 20
258.6954847693944
 30
0.0
 11
109.0807787810154
 21
258.5454847622443
 31
0.0
  0
LINE
  5
211C
330
18
100
AcDbEntity
  8
1
  6
Continuous
100
AcDbLine
 10
107.4968160580385
 20
258.6954847693935
 30
0.0
 11
107.4968160580385
 21
258.5454847622443
 31
0.0
  0
LINE
  5
211D
330
18
100
AcDbEntity
  8
1
  6
Continuous
100
AcDbLine
 10
108.219508028673
 20
258.6954847693943
 30
0.0
 11
108.219508028673
 21
258.5454847622443
 31
0.0
  0
LINE
  5
211F
330
18
100
AcDbEntity
  8
1
  6
Continuous
100
AcDbLine
 10
106.5501251331924
 20
258.6954847693937
 30
0.0
 11
106.5501251331924
 21
258.5454847622443
 31
0.0
  0
LINE
  5
2120
330
18
100
AcDbEntity
  8
1
  6
Continuous
100
AcDbLine
 10
106.9346614989403
 20
258.6954847693935
 30
0.0
 11
106.9346614989403
 21
258.5454847622443
 31
0.0
  0
LINE
  5
2121
330
18
100
AcDbEntity
  8
1
  6
Continuous
100
AcDbLine
 10
111.0898737891564
 20
258.6954847693689
 30
0.0
 11
111.0898737891564
 21
258.5454847622443
 31
0.0
  0
LINE
  5
2122
330
18
100
AcDbEntity
  8
1
  6
Continuous
100
AcDbLine
 10
106.6428466248966
 20
260.1954848406151
 30
0.0
 11
106.0303465958045
 21
259.6954848168663
 31
0.0
  0
LINE
  5
2124
330
18
100
AcDbEntity
  8
1
  6
Continuous
100
AcDbLine
 10
106.0303465958045
 20
259.6954848168663
 30
0.0
 11
106.0303465958045
 21
258.9954847836181
 31
0.0
  0
LINE
  5
2128
330
18
100
AcDbEntity
  8
1
  6
Continuous
100
AcDbLine
 10
108.7803467264225
 20
258.0454858829048
 30
0.0
 11
108.7803467264225
 21
254.9454845701827
 31
0.0
  0
LINE
  5
2129
330
18
100
AcDbEntity
  8
1
  6
Continuous
100
AcDbLine
 10
109.8644421155496
 20
258.0454858829048
 30
0.0
 11
109.8644421155496
 21
254.9454845701827
 31
0.0
  0
ARC
  5
212A
330
18
100
AcDbEntity
  8
1
  6
Continuous
100
AcDbCircle
 10
119.2303472227708
 20
258.9954847836181
 30
0.0
 40
0.3000000142492368
100
AcDbArc
 50
270.0
 51
359.9999999999967
  0
ARC
  5
212B
330
18
100
AcDbEntity
  8
1
  6
Continuous
100
AcDbCircle
 10
115.552819285401
 20
258.2335515735326
 30
0.0
 40
0.120270717721409
100
AcDbArc
 50
7.172529184606141
 51
68.54206802644114
  0
ARC
  5
212C
330
18
100
AcDbEntity
  8
1
  6
Continuous
100
AcDbCircle
 10
114.9440089900822
 20
258.059177343738
 30
0.0
 40
0.7523673150226637
100
AcDbArc
 50
358.9572829531428
 51
14.57971253756698
  0
LINE
  5
212D
330
18
100
AcDbEntity
  8
2
  6
Continuous
100
AcDbLine
 10
115.2598470470303
 20
258.3454858971541
 30
0.0
 11
115.2598470470303
 21
258.5454847622443
 31
0.0
  0
LINE
  5
212E
330
18
100
AcDbEntity
  8
1
  6
Continuous
100
AcDbLine
 10
113.1289699039616
 20
258.5454847622443
 30
0.0
 11
119.2303471272518
 21
258.5454847622443
 31
0.0
  0
LINE
  5
212F
330
18
100
AcDbEntity
  8
1
  6
Continuous
100
AcDbLine
 10
113.1289699039616
 20
258.6954847693689
 30
0.0
 11
113.1289699039616
 21
258.5454847622443
 31
0.0
  0
ARC
  5
2130
330
18
100
AcDbEntity
  8
1
  6
Continuous
100
AcDbCircle
 10
116.4803470921528
 20
258.0454858829048
 30
0.0
 40
0.3000000142492318
100
AcDbArc
 50
359.9999999999992
 51
90.0
  0
LINE
  5
2131
330
18
100
AcDbEntity
  8
1
  6
Continuous
100
AcDbLine
 10
113.3425014755106
 20
258.6954847693691
 30
0.0
 11
113.3425014755106
 21
258.5454847622443
 31
0.0
  0
LINE
  5
2132
330
18
100
AcDbEntity
  8
1
  6
Continuous
100
AcDbLine
 10
112.431723928863
 20
258.6954847693689
 30
0.0
 11
112.431723928863
 21
258.5454847622443
 31
0.0
  0
LINE
  5
2133
330
18
100
AcDbEntity
  8
1
  6
Continuous
100
AcDbLine
 10
112.218192357314
 20
258.695484769369
 30
0.0
 11
112.218192357314
 21
258.5454847622443
 31
0.0
  0
LINE
  5
2134
330
18
100
AcDbEntity
  8
1
  6
Continuous
100
AcDbLine
 10
115.5062347937444
 20
258.6954847693937
 30
0.0
 11
115.5062347937444
 21
258.5454847622443
 31
0.0
  0
LINE
  5
2135
330
18
100
AcDbEntity
  8
1
  6
Continuous
100
AcDbLine
 10
114.4708200436684
 20
258.6954847693689
 30
0.0
 11
114.4708200436684
 21
258.5454847622443
 31
0.0
  0
LINE
  5
2136
330
18
100
AcDbEntity
  8
1
  6
Continuous
100
AcDbLine
 10
116.4799150518093
 20
258.6954847693938
 30
0.0
 11
116.4799150518093
 21
258.5454847622443
 31
0.0
  0
LINE
  5
2137
330
18
100
AcDbEntity
  8
1
  6
Continuous
100
AcDbLine
 10
115.5303470470303
 20
258.3454858971541
 30
0.0
 11
115.5303470470303
 21
258.5454847622443
 31
0.0
  0
LINE
  5
2138
330
18
100
AcDbEntity
  8
1
  6
Continuous
100
AcDbLine
 10
118.0638777747865
 20
258.6954847693943
 30
0.0
 11
118.0638777747865
 21
258.5454847622443
 31
0.0
  0
LINE
  5
2139
330
18
100
AcDbEntity
  8
1
  6
Continuous
100
AcDbLine
 10
117.3411858041515
 20
258.6954847693938
 30
0.0
 11
117.3411858041515
 21
258.5454847622443
 31
0.0
  0
LINE
  5
213A
330
18
100
AcDbEntity
  8
1
  6
Continuous
100
AcDbLine
 10
118.6260323338842
 20
258.6954847693943
 30
0.0
 11
118.6260323338842
 21
258.5454847622443
 31
0.0
  0
LINE
  5
213B
330
18
100
AcDbEntity
  8
1
  6
Continuous
100
AcDbLine
 10
119.0105686996319
 20
258.6954847693941
 30
0.0
 11
119.0105686996319
 21
258.5454847622443
 31
0.0
  0
LINE
  5
213C
330
18
100
AcDbEntity
  8
1
  6
Continuous
100
AcDbLine
 10
119.2303471272518
 20
258.5454847622443
 30
0.0
 11
119.2303471272518
 21
258.6954847693689
 31
0.0
  0
LINE
  5
213E
330
18
100
AcDbEntity
  8
1
  6
Continuous
100
AcDbLine
 10
119.5303472370201
 20
258.9954847836181
 30
0.0
 11
119.5303472370201
 21
259.6954848168663
 31
0.0
  0
LINE
  5
213F
330
18
100
AcDbEntity
  8
1
  6
Continuous
100
AcDbLine
 10
119.5303472370201
 20
259.6954848168663
 30
0.0
 11
118.9178472079279
 21
260.1954848406151
 31
0.0
  0
LINE
  5
2143
330
18
100
AcDbEntity
  8
1
  6
Continuous
100
AcDbLine
 10
115.696251717275
 20
258.0454858829048
 30
0.0
 11
115.696251717275
 21
254.9454845701827
 31
0.0
  0
LINE
  5
2144
330
18
100
AcDbEntity
  8
1
  6
Continuous
100
AcDbLine
 10
116.7803471064021
 20
258.0454858829048
 30
0.0
 11
116.7803471064021
 21
254.9454845701827
 31
0.0
  0
ARC
  5
2145
330
18
100
AcDbEntity
  8
1
  6
Continuous
100
AcDbCircle
 10
110.3308629999423
 20
263.9499718621398
 30
0.0
 40
0.2467168486443193
100
AcDbArc
 50
95.66200837969532
 51
152.8018502206851
  0
ARC
  5
2146
330
18
100
AcDbEntity
  8
1
  6
Continuous
100
AcDbCircle
 10
110.7233828312886
 20
263.7112588470444
 30
0.0
 40
0.7057123538415682
100
AcDbArc
 50
150.12895997612
 51
181.2807622472198
  0
LINE
  5
2147
330
18
100
AcDbEntity
  8
1
  6
Continuous
100
AcDbLine
 10
111.7303468665399
 20
264.1954850306049
 30
0.0
 11
107.8326969505332
 21
264.1954850306049
 31
0.0
  0
ARC
  5
2148
330
18
100
AcDbEntity
  8
1
  6
Continuous
100
AcDbCircle
 10
107.7996806717064
 20
263.6502755845796
 30
0.0
 40
0.5462082155252018
100
AcDbArc
 50
86.53456824445042
 51
175.2522210609296
  0
ARC
  5
2149
330
18
100
AcDbEntity
  8
1
  6
Continuous
100
AcDbCircle
 10
111.7303468665399
 20
263.8954850163556
 30
0.0
 40
0.3000000142492212
100
AcDbArc
 50
0.0
 51
90.0
  0
ARC
  5
214A
330
18
100
AcDbEntity
  8
1
  6
Continuous
100
AcDbCircle
 10
113.8303469662846
 20
263.8954850163556
 30
0.0
 40
0.3000000142492212
100
AcDbArc
 50
89.99999999999348
 51
180.0
  0
ARC
  5
214B
330
18
100
AcDbEntity
  8
1
  6
Continuous
100
AcDbCircle
 10
117.7610131611181
 20
263.6502755845796
 30
0.0
 40
0.5462082155252018
100
AcDbArc
 50
4.747778939070387
 51
93.46543175554955
  0
LINE
  5
214C
330
18
100
AcDbEntity
  8
1
  6
Continuous
100
AcDbLine
 10
113.8303469662846
 20
264.1954850306049
 30
0.0
 11
117.7279968822914
 21
264.1954850306049
 31
0.0
  0
ARC
  5
214D
330
18
100
AcDbEntity
  8
1
  6
Continuous
100
AcDbCircle
 10
114.837311001536
 20
263.7112588470444
 30
0.0
 40
0.7057123538415682
100
AcDbArc
 50
358.7192377527801
 51
29.87104002387997
  0
ARC
  5
214E
330
18
100
AcDbEntity
  8
1
  6
Continuous
100
AcDbCircle
 10
115.2298308328822
 20
263.9499718621398
 30
0.0
 40
0.2467168486443193
100
AcDbArc
 50
27.19814977931489
 51
84.33799162030465
  0
LINE
  5
214F
330
18
100
AcDbEntity
  8
1
  6
Continuous
100
AcDbLine
 10
130.487454538643
 20
232.2525906760569
 30
0.0
 11
125.7803475338791
 21
227.545483671293
 31
0.0
  0
LINE
  5
2150
330
18
100
AcDbEntity
  8
1
  6
Continuous
100
AcDbLine
 10
124.0303474507541
 20
226.5317502683442
 30
0.0
 11
123.8512203783569
 21
227.5476303774317
 31
0.0
  0
LINE
  5
2151
330
18
100
AcDbEntity
  8
1
  6
Continuous
100
AcDbLine
 10
124.0303474507586
 20
226.5317502683462
 30
0.0
 11
124.0303474507586
 21
226.3204487765341
 31
0.0
  0
ARC
  5
2152
330
18
100
AcDbEntity
  8
1
  6
Continuous
100
AcDbCircle
 10
123.4303474222599
 20
226.3204487765325
 30
0.0
 40
0.6000000284996462
100
AcDbArc
 50
294.9999999996904
 51
0.000000000168544
  0
LINE
  5
2154
330
18
100
AcDbEntity
  8
1
  6
Continuous
100
AcDbLine
 10
125.1803475053807
 20
234.5454840037753
 30
0.0
 11
125.1803475053807
 21
243.2370567954146
 31
0.0
  0
LINE
  5
2155
330
18
100
AcDbEntity
  8
1
  6
Continuous
100
AcDbLine
 10
129.2803477001202
 20
235.2454840370235
 30
0.0
 11
129.2803477001202
 21
242.0762528350305
 31
0.0
  0
LINE
  5
2156
330
18
100
AcDbEntity
  8
1
  6
Continuous
100
AcDbLine
 10
127.2803476051252
 20
235.2454840370234
 30
0.0
 11
127.2803476051253
 21
242.0762528350305
 31
0.0
  0
LINE
  5
2157
330
18
100
AcDbEntity
  8
1
  6
Continuous
100
AcDbLine
 10
129.2803477001202
 20
236.5454840987701
 30
0.0
 11
127.2803476051253
 21
236.5454840987701
 31
0.0
  0
ARC
  5
2158
330
18
100
AcDbEntity
  8
1
  6
Continuous
100
AcDbCircle
 10
130.6121470792917
 20
232.4506990527725
 30
0.0
 40
0.0255997669687548
100
AcDbArc
 50
342.8671407302004
 51
78.45818292369449
  0
ARC
  5
2159
330
18
100
AcDbEntity
  8
1
  6
Continuous
100
AcDbCircle
 10
129.7803226286292
 20
232.9597046456733
 30
0.0
 40
1.000025142762739
100
AcDbArc
 50
328.1738935443677
 51
359.9995900678387
  0
ARC
  5
215A
330
18
100
AcDbEntity
  8
1
  6
Continuous
100
AcDbCircle
 10
130.0052784205788
 20
210.7224196550065
 30
0.0
 40
21.78103816408254
100
AcDbArc
 50
89.08603363278244
 51
93.22392392672428
  0
ARC
  5
215B
330
18
100
AcDbEntity
  8
1
  6
Continuous
100
AcDbCircle
 10
130.3677977210288
 20
231.2433638302063
 30
0.0
 40
1.257413411004982
100
AcDbArc
 50
78.55656032286751
 51
90.68756589341505
  0
LINE
  5
215C
330
18
100
AcDbEntity
  8
1
  6
Continuous
100
AcDbLine
 10
130.7803477713664
 20
234.5454840037752
 30
0.0
 11
130.7803477713664
 21
232.9596974908275
 31
0.0
  0
LINE
  5
215D
330
18
100
AcDbEntity
  8
1
  6
Continuous
100
AcDbLine
 10
129.2803477001202
 20
235.2454840370235
 30
0.0
 11
127.2803476051252
 21
235.2454840370234
 31
0.0
  0
LINE
  5
215E
330
18
100
AcDbEntity
  8
1
  6
Continuous
100
AcDbLine
 10
128.7803476763714
 20
232.4689864685776
 30
0.0
 11
128.5866611435719
 21
232.4603869084207
 31
0.0
  0
LINE
  5
215F
330
18
100
AcDbEntity
  8
1
  6
Continuous
100
AcDbLine
 10
130.4874545386429
 20
232.2525906760569
 30
0.0
 11
130.6299964919727
 21
232.4323483978592
 31
0.0
  0
ARC
  5
2160
330
18
100
AcDbEntity
  8
1
  6
Continuous
100
AcDbCircle
 10
126.2803475576279
 20
242.0762528350305
 30
0.0
 40
3.000000142492365
100
AcDbArc
 50
0.0
 51
81.78699927534564
  0
ARC
  5
2161
330
18
100
AcDbEntity
  8
1
  6
Continuous
100
AcDbCircle
 10
126.2803475576279
 20
242.0762528350305
 30
0.0
 40
1.000000047497442
100
AcDbArc
 50
0.0
 51
81.78699927553655
  0
LINE
  5
2165
330
18
100
AcDbEntity
  8
4
  6
CENTER
 48
0.2
100
AcDbLine
 10
266.1870548926963
 20
190.4201293310361
 30
0.0
 11
266.1870548926963
 21
104.4201255312404
 31
0.0
  0
LINE
  5
2170
330
18
100
AcDbEntity
  8
1
  6
Continuous
100
AcDbLine
 10
249.6870541089883
 20
187.4201293310359
 30
0.0
 11
249.6870541089883
 21
107.420125531241
 31
0.0
  0
LINE
  5
2171
330
18
100
AcDbEntity
  8
1
  6
Continuous
100
AcDbLine
 10
282.6870556764042
 20
187.4201293310363
 30
0.0
 11
282.6870556764042
 21
107.4201255312403
 31
0.0
  0
LINE
  5
2172
330
18
100
AcDbEntity
  8
1
  6
Continuous
100
AcDbLine
 10
284.1870557476504
 20
109.4201256262351
 30
0.0
 11
284.1870557476504
 21
185.4201292360414
 31
0.0
  0
LINE
  5
2173
330
18
100
AcDbEntity
  8
1
  6
Continuous
100
AcDbLine
 10
248.1870540377422
 20
185.4201292360414
 30
0.0
 11
248.1870540377422
 21
109.4201256262351
 31
0.0
  0
LINE
  5
2174
330
18
100
AcDbEntity
  8
1
  6
Continuous
100
AcDbLine
 10
255.9370544058484
 20
140.9201271224048
 30
0.0
 11
259.0064498040969
 21
140.9201271224048
 31
0.0
  0
ARC
  5
2176
330
18
100
AcDbEntity
  8
1
  6
Continuous
100
AcDbCircle
 10
258.6559083427612
 20
118.8728403018154
 30
0.0
 40
4.957547532222061
100
AcDbArc
 50
179.4534966252071
 51
267.4698222315251
  0
ARC
  5
2177
330
18
100
AcDbEntity
  8
1
  6
Continuous
100
AcDbCircle
 10
258.4370578105926
 20
118.9201293634624
 30
0.0
 40
5.000003523489795
100
AcDbArc
 50
180.0000376547759
 51
269.9999623452224
  0
LINE
  5
2178
330
18
100
AcDbEntity
  8
1
  6
Continuous
100
AcDbLine
 10
249.6870541089883
 20
107.420125531241
 30
0.0
 11
282.6870556764042
 21
107.4201255312404
 31
0.0
  0
LINE
  5
2179
330
18
100
AcDbEntity
  8
1
  6
Continuous
100
AcDbLine
 10
255.8049148884303
 20
114.8153103239266
 30
0.0
 11
261.8206624370511
 21
114.8153103239266
 31
0.0
  0
LINE
  5
217B
330
18
100
AcDbEntity
  8
1
  6
Continuous
100
AcDbLine
 10
253.7870543037279
 20
117.9392783698423
 30
0.0
 11
253.7870543037279
 21
139.0958998855971
 31
0.0
  0
LINE
  5
217C
330
18
100
AcDbEntity
  8
1
  6
Continuous
100
AcDbLine
 10
253.437054287104
 20
118.9201260774609
 30
0.0
 11
253.437054287104
 21
138.4201270036612
 31
0.0
  0
LINE
  5
217D
330
18
100
AcDbEntity
  8
1
  6
Continuous
100
AcDbLine
 10
253.6985863248101
 20
118.920126077461
 30
0.0
 11
253.6985863248101
 21
138.4201270036612
 31
0.0
  0
ARC
  5
217E
330
18
100
AcDbEntity
  8
1
  6
Continuous
100
AcDbCircle
 10
250.1870541327371
 20
109.4201256262351
 30
0.0
 40
2.000000094994893
100
AcDbArc
 50
180.0
 51
255.52248781407
  0
LINE
  5
217F
330
18
100
AcDbEntity
  8
1
  6
Continuous
100
AcDbLine
 10
253.4370542870975
 20
138.4201270036612
 30
0.0
 11
253.69858632482
 21
138.4201270036612
 31
0.0
  0
ARC
  5
2180
330
18
100
AcDbEntity
  8
1
  6
Continuous
100
AcDbCircle
 10
256.1950375612774
 20
138.4369844280996
 30
0.0
 40
2.496508151151901
100
AcDbArc
 50
95.93139690118631
 51
180.3868870258632
  0
ARC
  5
2181
330
18
100
AcDbEntity
  8
1
  6
Continuous
100
AcDbCircle
 10
255.9496801072364
 20
138.4152805914131
 30
0.0
 40
2.512630494065498
100
AcDbArc
 50
85.48886439364883
 51
179.8894866792253
  0
LINE
  5
2182
330
18
100
AcDbEntity
  8
1
  6
Continuous
100
AcDbLine
 10
278.6755234605824
 20
118.920126077461
 30
0.0
 11
278.6755234605824
 21
138.4201270036612
 31
0.0
  0
LINE
  5
2183
330
18
100
AcDbEntity
  8
1
  6
Continuous
100
AcDbLine
 10
278.9370554982886
 20
118.9201260774609
 30
0.0
 11
278.9370554982886
 21
138.4201270036612
 31
0.0
  0
ARC
  5
2185
330
18
100
AcDbEntity
  8
1
  6
Continuous
100
AcDbCircle
 10
273.9370519747999
 20
118.9201293634624
 30
0.0
 40
5.000003523489795
100
AcDbArc
 50
270.0000376547776
 51
359.999962345224
  0
ARC
  5
2186
330
18
100
AcDbEntity
  8
1
  6
Continuous
100
AcDbCircle
 10
273.7182014426314
 20
118.8728403018154
 30
0.0
 40
4.957547532222061
100
AcDbArc
 50
272.5301777684748
 51
0.5465033747927566
  0
LINE
  5
2187
330
18
100
AcDbEntity
  8
1
  6
Continuous
100
AcDbLine
 10
258.4370545245913
 20
113.9201258399737
 30
0.0
 11
273.9370552608013
 21
113.9201258399737
 31
0.0
  0
ARC
  5
2188
330
18
100
AcDbEntity
  8
1
  6
Continuous
100
AcDbCircle
 10
282.1870556526555
 20
109.4201256262351
 30
0.0
 40
2.000000094994858
100
AcDbArc
 50
284.4775121859298
 51
0.0000000000008142
  0
ARC
  5
2189
330
18
100
AcDbEntity
  8
1
  6
Continuous
100
AcDbCircle
 10
276.4244296781562
 20
138.4152805914131
 30
0.0
 40
2.512630494065498
100
AcDbArc
 50
0.1105133207746845
 51
94.51113560635119
  0
ARC
  5
218E
330
18
100
AcDbEntity
  8
1
  6
Continuous
100
AcDbCircle
 10
266.1909020625675
 20
131.4135757240209
 30
0.0
 40
11.80754261102097
100
AcDbArc
 50
109.3525231439117
 51
124.8856236513644
  0
ARC
  5
218F
330
18
100
AcDbEntity
  8
1
  6
Continuous
100
AcDbCircle
 10
266.2431504752745
 20
131.7379193166912
 30
0.0
 40
11.49275807632671
100
AcDbArc
 50
109.8141883075176
 51
125.4135132761916
  0
LINE
  5
2190
330
18
100
AcDbEntity
  8
1
  6
Continuous
100
AcDbLine
 10
259.5797673055543
 20
141.1018383438691
 30
0.0
 11
259.4413981658718
 21
141.1018385915384
 31
0.0
  0
ARC
  5
2192
330
18
100
AcDbEntity
  8
1
  6
Continuous
100
AcDbCircle
 10
258.8679212221295
 20
141.9159173673795
 30
0.0
 40
0.995790257298654
100
AcDbArc
 50
270.0090220647893
 51
304.9027454746541
  0
ARC
  5
2193
330
18
100
AcDbEntity
  8
1
  6
Continuous
100
AcDbCircle
 10
259.0062860930514
 20
141.9159418730407
 30
0.0
 40
0.9958147640664892
100
AcDbArc
 50
270.0094193743131
 51
305.4185201169643
  0
LINE
  5
219B
330
18
100
AcDbEntity
  8
1
  6
Continuous
100
AcDbLine
 10
276.4370553795441
 20
140.9201271224048
 30
0.0
 11
273.5060317614139
 21
140.9201271224048
 31
0.0
  0
ARC
  5
219C
330
18
100
AcDbEntity
  8
1
  6
Continuous
100
AcDbCircle
 10
273.3678169542558
 20
141.9158986555136
 30
0.0
 40
0.9957715454549664
100
AcDbArc
 50
234.5803541049867
 51
269.9909679201089
  0
ARC
  5
219D
330
18
100
AcDbEntity
  8
1
  6
Continuous
100
AcDbCircle
 10
273.5061885632631
 20
141.9159173673795
 30
0.0
 40
0.995790257298654
100
AcDbArc
 50
235.0972545253458
 51
269.9909779352106
  0
LINE
  5
219E
330
18
100
AcDbEntity
  8
1
  6
Continuous
100
AcDbLine
 10
272.7943424798382
 20
141.1018383438691
 30
0.0
 11
272.9327116195207
 21
141.1018385915384
 31
0.0
  0
LINE
  5
21A1
330
18
100
AcDbEntity
  8
1
  6
Continuous
100
AcDbLine
 10
278.9370554982951
 20
138.4201270036612
 30
0.0
 11
278.6755234605725
 21
138.4201270036612
 31
0.0
  0
ARC
  5
21A2
330
18
100
AcDbEntity
  8
1
  6
Continuous
100
AcDbCircle
 10
276.1790722241152
 20
138.4369844280996
 30
0.0
 40
2.496508151151901
100
AcDbArc
 50
359.6131129741366
 51
84.06860309881365
  0
LINE
  5
21A3
330
18
100
AcDbEntity
  8
1
  6
Continuous
100
AcDbLine
 10
249.6870541089883
 20
187.4201293310359
 30
0.0
 11
282.6870556764042
 21
187.4201293310362
 31
0.0
  0
CIRCLE
  5
21A4
330
18
100
AcDbEntity
  8
1
  6
Continuous
100
AcDbCircle
 10
266.1870548926963
 20
167.4201283810873
 30
0.0
 40
12.40000058896842
  0
ARC
  5
21A6
330
18
100
AcDbEntity
  8
1
  6
Continuous
100
AcDbCircle
 10
258.6482251740976
 20
159.6197477656904
 30
0.0
 40
4.949895242092841
100
AcDbArc
 50
179.4168310156589
 51
269.395763714504
  0
LINE
  5
21A7
330
18
100
AcDbEntity
  8
4
  6
CENTER
 48
0.2
100
AcDbLine
 10
245.1870540377421
 20
167.4201283810874
 30
0.0
 11
287.1870557476504
 21
167.4201283810874
 31
0.0
  0
ARC
  5
21A8
330
18
100
AcDbEntity
  8
1
  6
Continuous
100
AcDbCircle
 10
258.4370578105971
 20
159.6701312989873
 30
0.0
 40
5.00000352349366
100
AcDbArc
 50
180.0000376548191
 51
269.9999623451702
  0
ARC
  5
21A9
330
18
100
AcDbEntity
  8
1
  6
Continuous
100
AcDbCircle
 10
258.6482251740976
 20
175.2205089964843
 30
0.0
 40
4.949895242092841
100
AcDbArc
 50
90.60423628549598
 51
180.5831689843401
  0
ARC
  5
21AA
330
18
100
AcDbEntity
  8
1
  6
Continuous
100
AcDbCircle
 10
258.4370577789016
 20
175.1701254948789
 30
0.0
 40
5.000003491798827
100
AcDbArc
 50
90.00003729162157
 51
179.9999627083385
  0
LINE
  5
21AB
330
18
100
AcDbEntity
  8
1
  6
Continuous
100
AcDbLine
 10
253.7870543037279
 20
158.6867522261716
 30
0.0
 11
253.7870543037279
 21
176.1535045360028
 31
0.0
  0
LINE
  5
21AC
330
18
100
AcDbEntity
  8
1
  6
Continuous
100
AcDbLine
 10
253.6985863248101
 20
159.6701280129821
 30
0.0
 11
253.6985863248101
 21
175.1701287491927
 31
0.0
  0
LINE
  5
21AD
330
18
100
AcDbEntity
  8
1
  6
Continuous
100
AcDbLine
 10
253.437054287104
 20
159.6701280129821
 30
0.0
 11
253.437054287104
 21
175.1701287491925
 31
0.0
  0
LINE
  5
21AE
330
18
100
AcDbEntity
  8
1
  6
Continuous
100
AcDbLine
 10
253.4370542870997
 20
159.6701280129821
 30
0.0
 11
253.6985863248101
 21
159.6701280129821
 31
0.0
  0
LINE
  5
21AF
330
18
100
AcDbEntity
  8
1
  6
Continuous
100
AcDbLine
 10
253.4370542870999
 20
175.1701287491925
 30
0.0
 11
253.6985863248195
 21
175.1701287491925
 31
0.0
  0
ARC
  5
21B0
330
18
100
AcDbEntity
  8
1
  6
Continuous
100
AcDbCircle
 10
250.1870541327371
 20
185.4201292360414
 30
0.0
 40
2.000000094994858
100
AcDbArc
 50
104.4775121859298
 51
180.0
  0
LINE
  5
21B1
330
18
100
AcDbEntity
  8
1
  6
Continuous
100
AcDbLine
 10
268.9495550239084
 20
162.6353377979127
 30
0.0
 11
271.7120551551203
 21
167.4201283810871
 31
0.0
  0
LINE
  5
21B2
330
18
100
AcDbEntity
  8
1
  6
Continuous
100
AcDbLine
 10
260.6620546302729
 20
167.4201283810874
 30
0.0
 11
263.4245547614847
 21
162.635337797913
 31
0.0
  0
ARC
  5
21B3
330
18
100
AcDbEntity
  8
1
  6
Continuous
100
AcDbCircle
 10
266.9870549306943
 20
166.6201283430894
 30
0.0
 40
0.3000000142492361
100
AcDbArc
 50
90.0
 51
180.0
  0
ARC
  5
21B4
330
18
100
AcDbEntity
  8
1
  6
Continuous
100
AcDbCircle
 10
265.3870548546983
 20
166.6201283430894
 30
0.0
 40
0.3000000142492361
100
AcDbArc
 50
0.0
 51
90.0
  0
ARC
  5
21B5
330
18
100
AcDbEntity
  8
1
  6
Continuous
100
AcDbCircle
 10
266.1870548926963
 20
167.4201283810874
 30
0.0
 40
4.000000189989809
100
AcDbArc
 50
104.1337367207014
 51
255.8662632792922
  0
ARC
  5
21B6
330
18
100
AcDbEntity
  8
1
  6
Continuous
100
AcDbCircle
 10
267.437054952068
 20
166.4201283335899
 30
0.0
 40
0.5000000237487303
100
AcDbArc
 50
89.99999999999348
 51
180.0000000361213
  0
ARC
  5
21B7
330
18
100
AcDbEntity
  8
1
  6
Continuous
100
AcDbCircle
 10
264.9370548333245
 20
166.4201283335903
 30
0.0
 40
0.5000000237485136
100
AcDbArc
 50
359.9999999999544
 51
90.0
  0
ARC
  5
21B8
330
18
100
AcDbEntity
  8
1
  6
Continuous
100
AcDbCircle
 10
266.1870548926963
 20
167.4201283810874
 30
0.0
 40
4.000000189989809
100
AcDbArc
 50
284.1337367207014
 51
75.86626327929855
  0
LINE
  5
21B9
330
18
100
AcDbEntity
  8
1
  6
Continuous
100
AcDbLine
 10
278.6755234605824
 20
159.6701280129821
 30
0.0
 11
278.6755234605824
 21
175.1701287491927
 31
0.0
  0
LINE
  5
21BA
330
18
100
AcDbEntity
  8
1
  6
Continuous
100
AcDbLine
 10
278.5870554816647
 20
158.6867522261716
 30
0.0
 11
278.5870554816647
 21
176.1535045360028
 31
0.0
  0
CIRCLE
  5
21BB
330
18
100
AcDbEntity
  8
1
  6
Continuous
100
AcDbCircle
 10
266.1870548926963
 20
167.4201283810874
 30
0.0
 40
6.750000320607822
  0
LINE
  5
21BC
330
18
100
AcDbEntity
  8
1
  6
Continuous
100
AcDbLine
 10
278.9370554982931
 20
159.6701280129821
 30
0.0
 11
278.9370554982931
 21
175.1701287491925
 31
0.0
  0
CIRCLE
  5
21BD
330
18
100
AcDbEntity
  8
1
  6
Continuous
100
AcDbCircle
 10
266.1870548926963
 20
167.4201283810874
 30
0.0
 40
6.137500291515662
  0
ARC
  5
21BE
330
18
100
AcDbEntity
  8
1
  6
Continuous
100
AcDbCircle
 10
273.725884611295
 20
159.6197477656904
 30
0.0
 40
4.949895242092841
100
AcDbArc
 50
270.6042362854959
 51
0.5831689843410449
  0
ARC
  5
21BF
330
18
100
AcDbEntity
  8
1
  6
Continuous
100
AcDbCircle
 10
273.9370520064776
 20
159.6701312673102
 30
0.0
 40
5.000003491816507
100
AcDbArc
 50
270.0000372917779
 51
359.9999627081732
  0
LINE
  5
21C1
330
18
100
AcDbEntity
  8
1
  6
Continuous
100
AcDbLine
 10
258.4370545245913
 20
154.6701277754948
 30
0.0
 11
273.9370552608013
 21
154.6701277754948
 31
0.0
  0
LINE
  5
21E3
330
18
100
AcDbEntity
  8
1
  6
Continuous
100
AcDbLine
 10
263.4245547614847
 20
162.635337797913
 30
0.0
 11
268.949555023908
 21
162.635337797913
 31
0.0
  0
ARC
  5
21E4
330
18
100
AcDbEntity
  8
1
  6
Continuous
100
AcDbCircle
 10
265.137054842824
 20
162.9353378121622
 30
0.0
 40
0.3000000142492345
100
AcDbArc
 50
269.9999999999934
 51
0.0
  0
ARC
  5
21E5
330
18
100
AcDbEntity
  8
1
  6
Continuous
100
AcDbCircle
 10
267.2370549425686
 20
162.9353378121622
 30
0.0
 40
0.3000000142492331
100
AcDbArc
 50
180.0
 51
270.0
  0
ARC
  5
21E6
330
18
100
AcDbEntity
  8
1
  6
Continuous
100
AcDbCircle
 10
267.2370549425686
 20
163.250296052117
 30
0.0
 40
0.3000000142492326
100
AcDbArc
 50
104.1337367206808
 51
180.0
  0
ARC
  5
21E7
330
18
100
AcDbEntity
  8
1
  6
Continuous
100
AcDbCircle
 10
265.137054842824
 20
163.250296052117
 30
0.0
 40
0.3000000142492345
100
AcDbArc
 50
0.0
 51
75.86626327931887
  0
LINE
  5
21E8
330
18
100
AcDbEntity
  8
1
  6
Continuous
100
AcDbLine
 10
265.4370548570732
 20
166.4201283335899
 30
0.0
 11
265.4370548570732
 21
162.9353378121622
 31
0.0
  0
LINE
  5
21E9
330
18
100
AcDbEntity
  8
1
  6
Continuous
100
AcDbLine
 10
266.9370549283194
 20
162.9353378121622
 30
0.0
 11
266.9370549283194
 21
166.4201283332746
 31
0.0
  0
LINE
  5
21EA
330
18
100
AcDbEntity
  8
1
  6
Continuous
100
AcDbLine
 10
265.6870548689476
 20
166.6201283430894
 30
0.0
 11
265.6870548689476
 21
165.4701282884673
 31
0.0
  0
LINE
  5
21EB
330
18
100
AcDbEntity
  8
1
  6
Continuous
100
AcDbLine
 10
265.9870548831968
 20
165.1701282742181
 30
0.0
 11
266.3870549021958
 21
165.1701282742181
 31
0.0
  0
LINE
  5
21EC
330
18
100
AcDbEntity
  8
1
  6
Continuous
100
AcDbLine
 10
266.687054916445
 20
165.4701282884673
 30
0.0
 11
266.687054916445
 21
166.6201283430894
 31
0.0
  0
ARC
  5
21ED
330
18
100
AcDbEntity
  8
1
  6
Continuous
100
AcDbCircle
 10
265.9870548831968
 20
165.4701282884673
 30
0.0
 40
0.3000000142492396
100
AcDbArc
 50
180.0
 51
270.0
  0
ARC
  5
21EE
330
18
100
AcDbEntity
  8
1
  6
Continuous
100
AcDbCircle
 10
266.3870549021958
 20
165.4701282884673
 30
0.0
 40
0.3000000142492363
100
AcDbArc
 50
270.0
 51
359.9999999999992
  0
LINE
  5
21EF
330
18
100
AcDbEntity
  8
1
  6
Continuous
100
AcDbLine
 10
278.9370554982929
 20
159.6701280129821
 30
0.0
 11
278.6755234605824
 21
159.6701280129821
 31
0.0
  0
ARC
  5
21F0
330
18
100
AcDbEntity
  8
1
  6
Continuous
100
AcDbCircle
 10
273.725884611295
 20
175.2205089964843
 30
0.0
 40
4.949895242092841
100
AcDbArc
 50
359.4168310156597
 51
89.39576371450398
  0
ARC
  5
21F1
330
18
100
AcDbEntity
  8
1
  6
Continuous
100
AcDbCircle
 10
273.937051974804
 20
175.1701254631934
 30
0.0
 40
5.000003523485217
100
AcDbArc
 50
0.0000376547499218
 51
89.99996234527452
  0
LINE
  5
21F2
330
18
100
AcDbEntity
  8
1
  6
Continuous
100
AcDbLine
 10
268.949555023908
 20
172.2049189642617
 30
0.0
 11
263.424554761484
 21
172.2049189642617
 31
0.0
  0
LINE
  5
21F3
330
18
100
AcDbEntity
  8
1
  6
Continuous
100
AcDbLine
 10
266.9870549306943
 20
167.920128404836
 30
0.0
 11
268.1370549853269
 21
167.9201284048361
 31
0.0
  0
LINE
  5
21F4
330
18
100
AcDbEntity
  8
1
  6
Continuous
100
AcDbLine
 10
268.1370549853163
 20
166.9201283573386
 30
0.0
 11
266.9870549306943
 21
166.9201283573386
 31
0.0
  0
LINE
  5
21F5
330
18
100
AcDbEntity
  8
1
  6
Continuous
100
AcDbLine
 10
263.424554761484
 20
172.2049189642617
 30
0.0
 11
260.6620546302723
 21
167.4201283810877
 31
0.0
  0
ARC
  5
21F6
330
18
100
AcDbEntity
  8
1
  6
Continuous
100
AcDbCircle
 10
267.2370549425686
 20
171.5899607100577
 30
0.0
 40
0.3000000142492345
100
AcDbArc
 50
180.0
 51
255.8662632792853
  0
ARC
  5
21F7
330
18
100
AcDbEntity
  8
1
  6
Continuous
100
AcDbCircle
 10
265.137054842824
 20
171.5899607100577
 30
0.0
 40
0.3000000142492326
100
AcDbArc
 50
284.1337367207146
 51
0.0
  0
ARC
  5
21F8
330
18
100
AcDbEntity
  8
1
  6
Continuous
100
AcDbCircle
 10
267.2370549425686
 20
171.9049189500125
 30
0.0
 40
0.3000000142492336
100
AcDbArc
 50
90.0
 51
180.0
  0
LINE
  5
21F9
330
18
100
AcDbEntity
  8
1
  6
Continuous
100
AcDbLine
 10
266.9370549283194
 20
168.4201284285848
 30
0.0
 11
266.9370549283194
 21
171.9049189500125
 31
0.0
  0
ARC
  5
21FA
330
18
100
AcDbEntity
  8
1
  6
Continuous
100
AcDbCircle
 10
265.137054842824
 20
171.9049189500125
 30
0.0
 40
0.3000000142492338
100
AcDbArc
 50
0.0
 51
90.0
  0
LINE
  5
21FB
330
18
100
AcDbEntity
  8
1
  6
Continuous
100
AcDbLine
 10
265.4370548570732
 20
171.9049189500125
 30
0.0
 11
265.4370548570732
 21
168.4201284293511
 31
0.0
  0
LINE
  5
21FC
330
18
100
AcDbEntity
  8
1
  6
Continuous
100
AcDbLine
 10
264.2370548000763
 20
167.9201284048361
 30
0.0
 11
265.3870548546983
 21
167.9201284048361
 31
0.0
  0
ARC
  5
21FD
330
18
100
AcDbEntity
  8
1
  6
Continuous
100
AcDbCircle
 10
265.3870548546983
 20
168.2201284190853
 30
0.0
 40
0.3000000142492361
100
AcDbArc
 50
270.0
 51
0.0
  0
ARC
  5
21FE
330
18
100
AcDbEntity
  8
1
  6
Continuous
100
AcDbCircle
 10
266.9870549306943
 20
168.2201284190853
 30
0.0
 40
0.3000000142492361
100
AcDbArc
 50
180.0
 51
270.0
  0
LINE
  5
21FF
330
18
100
AcDbEntity
  8
1
  6
Continuous
100
AcDbLine
 10
265.3870548546983
 20
166.9201283573386
 30
0.0
 11
264.2370548000617
 21
166.9201283573386
 31
0.0
  0
LINE
  5
2200
330
18
100
AcDbEntity
  8
1
  6
Continuous
100
AcDbLine
 10
263.937054785827
 20
167.2201283715879
 30
0.0
 11
263.937054785827
 21
167.6201283906115
 31
0.0
  0
ARC
  5
2201
330
18
100
AcDbEntity
  8
1
  6
Continuous
100
AcDbCircle
 10
264.2370548000763
 20
167.2201283715879
 30
0.0
 40
0.3000000142492404
100
AcDbArc
 50
180.0
 51
269.9999999972055
  0
ARC
  5
2202
330
18
100
AcDbEntity
  8
1
  6
Continuous
100
AcDbCircle
 10
264.2370548000763
 20
167.6201283905869
 30
0.0
 40
0.3000000142492358
100
AcDbArc
 50
90.0
 51
179.9999999952897
  0
LINE
  5
2203
330
18
100
AcDbEntity
  8
1
  6
Continuous
100
AcDbLine
 10
266.687054916445
 20
168.2201284190853
 30
0.0
 11
266.687054916445
 21
169.3701284737074
 31
0.0
  0
LINE
  5
2204
330
18
100
AcDbEntity
  8
1
  6
Continuous
100
AcDbLine
 10
266.3870549021958
 20
169.6701284879566
 30
0.0
 11
265.9870548831968
 21
169.6701284879566
 31
0.0
  0
LINE
  5
2205
330
18
100
AcDbEntity
  8
1
  6
Continuous
100
AcDbLine
 10
265.6870548689476
 20
169.3701284737074
 30
0.0
 11
265.6870548689476
 21
168.2201284190853
 31
0.0
  0
ARC
  5
2206
330
18
100
AcDbEntity
  8
1
  6
Continuous
100
AcDbCircle
 10
264.9370548333246
 20
168.4201284285849
 30
0.0
 40
0.5000000237487306
100
AcDbArc
 50
269.9999999620636
 51
0.0000000878073288
  0
ARC
  5
2207
330
18
100
AcDbEntity
  8
1
  6
Continuous
100
AcDbCircle
 10
267.4370549520681
 20
168.4201284285844
 30
0.0
 40
0.5000000237485136
100
AcDbArc
 50
179.9999999999544
 51
270.0
  0
ARC
  5
2208
330
18
100
AcDbEntity
  8
1
  6
Continuous
100
AcDbCircle
 10
266.3870549021958
 20
169.3701284737074
 30
0.0
 40
0.3000000142492396
100
AcDbArc
 50
0.0
 51
90.0
  0
ARC
  5
2209
330
18
100
AcDbEntity
  8
1
  6
Continuous
100
AcDbCircle
 10
265.9870548831968
 20
169.3701284737074
 30
0.0
 40
0.3000000142492363
100
AcDbArc
 50
90.0
 51
179.9999999999991
  0
LINE
  5
220A
330
18
100
AcDbEntity
  8
1
  6
Continuous
100
AcDbLine
 10
278.9370554982927
 20
175.1701287491925
 30
0.0
 11
278.6755234605731
 21
175.1701287491925
 31
0.0
  0
LINE
  5
220B
330
18
100
AcDbEntity
  8
1
  6
Continuous
100
AcDbLine
 10
268.4370549995656
 20
167.6201283905869
 30
0.0
 11
268.4370549995656
 21
167.2201283715773
 31
0.0
  0
ARC
  5
220C
330
18
100
AcDbEntity
  8
1
  6
Continuous
100
AcDbCircle
 10
268.1370549853163
 20
167.2201283715879
 30
0.0
 40
0.3000000142492357
100
AcDbArc
 50
270.0
 51
359.9999999979758
  0
ARC
  5
220D
330
18
100
AcDbEntity
  8
1
  6
Continuous
100
AcDbCircle
 10
268.1370549853163
 20
167.6201283905869
 30
0.0
 40
0.3000000142492342
100
AcDbArc
 50
359.9999999999992
 51
89.99999999797422
  0
LINE
  5
220E
330
18
100
AcDbEntity
  8
1
  6
Continuous
100
AcDbLine
 10
271.7120551551197
 20
167.4201283810873
 30
0.0
 11
268.9495550239079
 21
172.2049189642616
 31
0.0
  0
LINE
  5
220F
330
18
100
AcDbEntity
  8
1
  6
Continuous
100
AcDbLine
 10
258.4370545245913
 20
180.1701289866798
 30
0.0
 11
273.9370552608012
 21
180.1701289866798
 31
0.0
  0
ARC
  5
2210
330
18
100
AcDbEntity
  8
1
  6
Continuous
100
AcDbCircle
 10
282.1870556526555
 20
185.4201292360414
 30
0.0
 40
2.000000094994899
100
AcDbArc
 50
0.0
 51
75.52248781407016
  0
CIRCLE
  5
22FD
330
18
100
AcDbEntity
  8
1
  6
Continuous
100
AcDbCircle
 10
112.7803469164123
 20
130.4201266236825
 30
0.0
 40
7.400000426143754
  0
ARC
  5
22FE
330
18
100
AcDbEntity
  8
1
  6
Continuous
100
AcDbCircle
 10
112.7803469164123
 20
130.4201266236825
 30
0.0
 40
4.400647677260933
100
AcDbArc
 50
286.5172967972961
 51
73.4827082924778
  0
LINE
  5
22FF
330
18
100
AcDbEntity
  8
1
  6
Continuous
100
AcDbLine
 10
114.0313707349133
 20
124.2201263249344
 30
0.0
 11
114.0313707349133
 21
136.0201266354043
 31
0.0
  0
LINE
  5
2300
330
18
100
AcDbEntity
  8
1
  6
Continuous
100
AcDbLine
 10
111.5313706161697
 20
136.0201268854043
 30
0.0
 11
111.5313706161697
 21
124.2201265749343
 31
0.0
  0
CIRCLE
  5
2301
330
18
100
AcDbEntity
  8
1
  6
Continuous
100
AcDbCircle
 10
112.7813706755415
 20
130.4201266194185
 30
0.0
 40
7.500000356230907
  0
LINE
  5
2303
330
18
100
AcDbEntity
  8
1
  6
Continuous
100
AcDbLine
 10
111.5313706161697
 20
124.2201263249344
 30
0.0
 11
114.0313707349133
 21
124.2201263249344
 31
0.0
  0
LINE
  5
2304
330
18
100
AcDbEntity
  8
1
  6
Continuous
100
AcDbLine
 10
114.0313707349133
 20
136.0201268854043
 30
0.0
 11
111.5313708743441
 21
136.0201268854043
 31
0.0
  0
LINE
  5
2307
330
18
100
AcDbEntity
  8
1
  6
Continuous
100
AcDbLine
 10
95.34795716752796
 20
112.9067346844337
 30
0.0
 11
99.23091065161587
 21
126.497247697326
 31
0.0
  0
LINE
  5
2308
330
18
100
AcDbEntity
  8
1
  6
Continuous
100
AcDbLine
 10
130.2127366652969
 20
112.9067346844334
 30
0.0
 11
126.3297831812092
 21
126.4972476973258
 31
0.0
  0
LINE
  5
255D
330
18
100
AcDbEntity
  8
1
  6
Continuous
100
AcDbLine
 10
198.4356829103663
 20
140.0059572097438
 30
0.0
 11
198.4356829103663
 21
116.0203718609277
 31
0.0
  0
ARC
  5
255E
330
18
100
AcDbEntity
  8
1
  6
Continuous
100
AcDbCircle
 10
196.4356826524506
 20
116.0201258006703
 30
0.0
 40
2.000000273054546
100
AcDbArc
 50
270.0000023563258
 51
0.007049106183146
  0
LINE
  5
255F
330
18
100
AcDbEntity
  8
1
  6
Continuous
100
AcDbLine
 10
187.045730608153
 20
114.0201258447243
 30
0.0
 11
196.4356827750368
 21
114.0201258447243
 31
0.0
  0
ARC
  5
2560
330
18
100
AcDbEntity
  8
1
  6
Continuous
100
AcDbCircle
 10
196.4356816551894
 20
138.4201258434799
 30
0.0
 40
2.000001735740164
100
AcDbArc
 50
0.0000332367516988
 51
89.99998430650014
  0
LINE
  5
2562
330
18
100
AcDbEntity
  8
1
  6
Continuous
100
AcDbLine
 10
196.4356822029964
 20
140.4201275792201
 30
0.0
 11
186.726729345083
 21
140.4201275792201
 31
0.0
  0
LINE
  5
2563
330
18
100
AcDbEntity
  8
1
  6
Continuous
100
AcDbLine
 10
196.4356828153741
 20
142.0201271746529
 30
0.0
 11
187.297828779935
 21
142.0201271746529
 31
0.0
  0
ARC
  5
2564
330
18
100
AcDbEntity
  8
1
  6
Continuous
100
AcDbCircle
 10
196.4356049206836
 20
140.0199996431668
 30
0.0
 40
2.000127284649217
100
AcDbArc
 50
359.5977362114518
 51
89.99776862350534
  0
LINE
  5
2565
330
18
100
AcDbEntity
  8
1
  6
Continuous
100
AcDbLine
 10
193.233915632496
 20
152.4201276686264
 30
0.0
 11
187.7356825610917
 21
152.4201276686264
 31
0.0
  0
ARC
  5
2566
330
18
100
AcDbEntity
  8
1
  6
Continuous
100
AcDbCircle
 10
193.2350911163086
 20
151.918724404024
 30
0.0
 40
0.5014074708460809
100
AcDbArc
 50
356.7309646855173
 51
90.13432253598008
  0
LINE
  5
2567
330
18
100
AcDbEntity
  8
1
  6
Continuous
100
AcDbLine
 10
193.7356826871283
 20
142.923706422557
 30
0.0
 11
193.7356826871283
 21
151.8901319042288
 31
0.0
  0
LINE
  5
2569
330
18
100
AcDbEntity
  8
1
  6
Continuous
100
AcDbLine
 10
187.7356825610917
 20
142.4201267581855
 30
0.0
 11
187.7356825610917
 21
152.4201276686264
 31
0.0
  0
LINE
  5
256A
330
18
100
AcDbEntity
  8
1
  6
Continuous
100
AcDbLine
 10
187.7356825610917
 20
150.4201275736316
 30
0.0
 11
187.4356823878945
 21
150.4201275736315
 31
0.0
  0
LINE
  5
256B
330
18
100
AcDbEntity
  8
1
  6
Continuous
100
AcDbLine
 10
187.4356823878945
 20
144.4201272886468
 30
0.0
 11
187.7356825610915
 21
144.4201272886468
 31
0.0
  0
LINE
  5
256C
330
18
100
AcDbEntity
  8
1
  6
Continuous
100
AcDbLine
 10
193.2339160302499
 20
142.4201271955743
 30
0.0
 11
187.7356825610917
 21
142.4201267581855
 31
0.0
  0
ARC
  5
256D
330
18
100
AcDbEntity
  8
1
  6
Continuous
100
AcDbCircle
 10
193.2356586989246
 20
142.9201579099372
 30
0.0
 40
0.5000365794022259
100
AcDbArc
 50
269.8003190838975
 51
0.4066032598268005
  0
LINE
  5
256E
330
18
100
AcDbEntity
  8
2
  6
Continuous
100
AcDbLine
 10
187.7356825610917
 20
149.8786275736316
 30
0.0
 11
187.4356823878945
 21
149.8786275736315
 31
0.0
  0
LINE
  5
256F
330
18
100
AcDbEntity
  8
2
  6
Continuous
100
AcDbLine
 10
187.7356827566672
 20
144.9616268531804
 30
0.0
 11
187.43568258347
 21
144.9616268293151
 31
0.0
  0
LINE
  5
2570
330
18
100
AcDbEntity
  8
4
  6
CENTER
 48
0.2
100
AcDbLine
 10
196.7356826871283
 20
147.4201274520584
 30
0.0
 11
184.7114405740395
 21
147.4201274520584
 31
0.0
  0
LINE
  5
2619
330
18
100
AcDbEntity
  8
1
  6
Continuous
100
AcDbLine
 10
165.0856813263263
 20
121.8212179622306
 30
0.0
 11
165.0856813263263
 21
136.0190576077705
 31
0.0
  0
ARC
  5
261A
330
18
100
AcDbEntity
  8
1
  6
Continuous
100
AcDbCircle
 10
165.3856829647795
 20
136.0201232773837
 30
0.0
 40
0.3000035311714785
100
AcDbArc
 50
90.00033547343539
 51
180.2035259363705
  0
LINE
  5
261B
330
18
100
AcDbEntity
  8
1
  6
Continuous
100
AcDbLine
 10
166.5356813832771
 20
136.3201269039175
 30
0.0
 11
165.3856811790323
 21
136.3201269039175
 31
0.0
  0
LINE
  5
261D
330
18
100
AcDbEntity
  8
1
  6
Continuous
100
AcDbLine
 10
165.3856811790323
 20
121.5201262009552
 30
0.0
 11
166.535681383277
 21
121.5201262009552
 31
0.0
  0
ARC
  5
261F
330
18
100
AcDbEntity
  8
1
  6
Continuous
100
AcDbCircle
 10
165.3856830492548
 20
121.8201299920288
 30
0.0
 40
0.3000036957118362
100
AcDbArc
 50
179.7922151015791
 51
269.9996483933614
  0
LINE
  5
2648
330
18
100
AcDbEntity
  8
1
  6
Continuous
100
AcDbLine
 10
49.62501199115059
 20
187.4201293310371
 30
0.0
 11
49.62501199115059
 21
107.4201255312411
 31
0.0
  0
LINE
  5
2649
330
18
100
AcDbEntity
  8
1
  6
Continuous
100
AcDbLine
 10
51.46444946261578
 20
185.4201293310372
 30
0.0
 11
51.46444946261578
 21
109.4201255312411
 31
0.0
  0
LINE
  5
264A
330
18
100
AcDbEntity
  8
1
  6
Continuous
100
AcDbLine
 10
38.12501144493023
 20
180.1701289866807
 30
0.0
 11
38.12501144493023
 21
187.4201293310371
 31
0.0
  0
LINE
  5
264B
330
18
100
AcDbEntity
  8
1
  6
Continuous
100
AcDbLine
 10
51.72794124719963
 20
187.2760285055586
 30
0.0
 11
56.62501232363297
 21
180.4201289985548
 31
0.0
  0
LINE
  5
264C
330
18
100
AcDbEntity
  8
1
  6
Continuous
100
AcDbLine
 10
47.62501189615568
 20
185.4201292360423
 30
0.0
 11
47.62501189615568
 21
177.0201288370637
 31
0.0
  0
ARC
  5
264D
330
18
100
AcDbEntity
  8
1
  6
Continuous
100
AcDbCircle
 10
-61.58163675283822
 20
131.1519930866823
 30
0.0
 40
100.4343463345916
100
AcDbArc
 50
5.581347449750047
 51
6.901360372972852
  0
LINE
  5
264E
330
18
100
AcDbEntity
  8
1
  6
Continuous
100
AcDbLine
 10
37.82501127173294
 20
142.4201267581855
 30
0.0
 11
37.82501127173294
 21
152.4201276686264
 31
0.0
  0
ARC
  5
264F
330
18
100
AcDbEntity
  8
1
  6
Continuous
100
AcDbCircle
 10
32.32503513389997
 20
142.9201579099372
 30
0.0
 40
0.5000365794022259
100
AcDbArc
 50
179.5933967401732
 51
270.1996809161024
  0
LINE
  5
2650
330
18
100
AcDbEntity
  8
1
  6
Continuous
100
AcDbLine
 10
46.62501184865822
 20
173.4201286660729
 30
0.0
 11
46.62501184865822
 21
121.4201261962055
 31
0.0
  0
LINE
  5
2651
330
18
100
AcDbEntity
  8
1
  6
Continuous
100
AcDbLine
 10
47.62501189615568
 20
134.920126837421
 30
0.0
 11
47.62501189615568
 21
174.4201287135704
 31
0.0
  0
LINE
  5
2652
330
18
100
AcDbEntity
  8
1
  6
Continuous
100
AcDbLine
 10
57.63874572658028
 20
165.5194095841483
 30
0.0
 11
57.63874572658028
 21
118.6701260655874
 31
0.0
  0
LINE
  5
2653
330
18
100
AcDbEntity
  8
1
  6
Continuous
100
AcDbLine
 10
59.0250124495476
 20
108.0201255597397
 30
0.0
 11
59.0250124495476
 21
175.7148559923665
 31
0.0
  0
LINE
  5
2654
330
18
100
AcDbEntity
  8
1
  6
Continuous
100
AcDbLine
 10
56.62501232363297
 20
180.4201289985548
 30
0.0
 11
56.62501232363149
 21
116.9201259824632
 31
0.0
  0
LINE
  5
2655
330
18
100
AcDbEntity
  8
1
  6
Continuous
100
AcDbLine
 10
45.62501180116078
 20
107.4201255312411
 30
0.0
 11
38.12501144493012
 21
107.4201255312411
 31
0.0
  0
LINE
  5
2656
330
18
100
AcDbEntity
  8
1
  6
Continuous
100
AcDbLine
 10
47.62501189615568
 20
120.420126148708
 30
0.0
 11
47.62501189615568
 21
127.9201265049589
 31
0.0
  0
LINE
  5
2657
330
18
100
AcDbEntity
  8
1
  6
Continuous
100
AcDbLine
 10
56.82501234505423
 20
107.4201255312412
 30
0.0
 11
56.82501234505423
 21
133.7904524717686
 31
0.0
  0
LINE
  5
2658
330
18
100
AcDbEntity
  8
1
  6
Continuous
100
AcDbLine
 10
47.62501189615568
 20
109.420125626236
 30
0.0
 11
47.62501189615568
 21
117.8201260252146
 31
0.0
  0
LINE
  5
2659
330
18
100
AcDbEntity
  8
1
  6
Continuous
100
AcDbLine
 10
56.62501232363149
 20
116.9201259824632
 30
0.0
 11
51.68912722050652
 21
107.5419442865248
 31
0.0
  0
ARC
  5
265A
330
18
100
AcDbEntity
  8
1
  6
Continuous
100
AcDbCircle
 10
45.62501180116078
 20
109.420125626236
 30
0.0
 40
2.000000094994864
100
AcDbArc
 50
270.0
 51
0.000000000000007
  0
ARC
  5
265B
330
18
100
AcDbEntity
  8
1
  6
Continuous
100
AcDbCircle
 10
58.42501242104914
 20
108.0201255597397
 30
0.0
 40
0.6000000284984701
100
AcDbArc
 50
270.0000000000911
 51
0.000000000000007
  0
LINE
  5
265C
330
18
100
AcDbEntity
  8
1
  6
Continuous
100
AcDbLine
 10
58.42501242105004
 20
107.4201255312412
 30
0.0
 11
56.82501234505423
 21
107.4201255312412
 31
0.0
  0
LINE
  5
265E
330
18
100
AcDbEntity
  8
1
  6
Continuous
100
AcDbLine
 10
49.62501199115059
 20
107.4201255312411
 30
0.0
 11
51.21079850409831
 21
107.4201255312411
 31
0.0
  0
ARC
  5
265F
330
18
100
AcDbEntity
  8
1
  6
Continuous
100
AcDbCircle
 10
51.21079052132177
 20
108.420156923505
 30
0.0
 40
1.000031392295892
100
AcDbArc
 50
270.000457365048
 51
298.5758635387028
  0
ARC
  5
2660
330
18
100
AcDbEntity
  8
1
  6
Continuous
100
AcDbCircle
 10
54.9345665144899
 20
118.8183694098098
 30
0.0
 40
2.70823952049185
100
AcDbArc
 50
314.269559378646
 51
356.8621810727388
  0
LINE
  5
2661
330
18
100
AcDbEntity
  8
1
  6
Continuous
100
AcDbLine
 10
56.82501234505423
 20
120.9201261724567
 30
0.0
 11
56.62501232363275
 21
120.9301261735278
 31
0.0
  0
LINE
  5
2662
330
18
100
AcDbEntity
  8
1
  6
Continuous
100
AcDbLine
 10
48.92501178112571
 20
119.1201259101846
 30
0.0
 11
47.62501189615568
 21
117.8201260252146
 31
0.0
  0
LINE
  5
2663
330
18
100
AcDbEntity
  8
1
  6
Continuous
100
AcDbLine
 10
46.62501184865822
 20
121.4201261962055
 30
0.0
 11
48.92501195790236
 21
119.1201260869613
 31
0.0
  0
LINE
  5
2664
330
18
100
AcDbEntity
  8
1
  6
Continuous
100
AcDbLine
 10
49.6250119911507
 20
112.9201257924797
 30
0.0
 11
47.62501189615568
 21
113.0249413560242
 31
0.0
  0
LINE
  5
2665
330
18
100
AcDbEntity
  8
1
  6
Continuous
100
AcDbLine
 10
60.47501250649826
 20
121.8212179622306
 30
0.0
 11
60.47501250649826
 21
136.0190576129198
 31
0.0
  0
LINE
  5
2666
330
18
100
AcDbEntity
  8
1
  6
Continuous
100
AcDbLine
 10
60.17501265379235
 20
121.5201262009552
 30
0.0
 11
59.0250124495476
 21
121.5201262009552
 31
0.0
  0
ARC
  5
2667
330
18
100
AcDbEntity
  8
1
  6
Continuous
100
AcDbCircle
 10
60.17501078356985
 20
121.8201299920288
 30
0.0
 40
0.3000036957118362
100
AcDbArc
 50
270.0003516066384
 51
0.2077848984207842
  0
LINE
  5
2669
330
18
100
AcDbEntity
  8
1
  6
Continuous
100
AcDbLine
 10
59.02501244954748
 20
136.3201269039175
 30
0.0
 11
60.17501265379235
 21
136.3201269039175
 31
0.0
  0
ARC
  5
266B
330
18
100
AcDbEntity
  8
1
  6
Continuous
100
AcDbCircle
 10
60.17501086804509
 20
136.0201232773837
 30
0.0
 40
0.3000035311714785
100
AcDbArc
 50
359.7964750470632
 51
89.9996645265646
  0
LINE
  5
266C
330
18
100
AcDbEntity
  8
1
  6
Continuous
100
AcDbLine
 10
46.62501184865822
 20
139.9201270749083
 30
0.0
 11
47.62501189615568
 21
139.9201270749083
 31
0.0
  0
LINE
  5
266D
330
18
100
AcDbEntity
  8
1
  6
Continuous
100
AcDbLine
 10
56.6281269715588
 20
133.8203294854213
 30
0.0
 11
56.8250123450548
 21
133.7904524717685
 31
0.0
  0
LINE
  5
266E
330
18
100
AcDbEntity
  8
1
  6
Continuous
100
AcDbLine
 10
27.12501092245827
 20
140.0059572097438
 30
0.0
 11
27.12501092245827
 21
116.0203718609277
 31
0.0
  0
LINE
  5
266F
330
18
100
AcDbEntity
  8
1
  6
Continuous
100
AcDbLine
 10
38.96223934473755
 20
118.9201260774618
 30
0.0
 11
38.96223934473766
 21
138.4201270036621
 31
0.0
  0
LINE
  5
2670
330
18
100
AcDbEntity
  8
1
  6
Continuous
100
AcDbLine
 10
38.12501144493012
 20
107.4201255312411
 30
0.0
 11
38.12501144493012
 21
113.9201258399746
 31
0.0
  0
LINE
  5
2671
330
18
100
AcDbEntity
  8
1
  6
Continuous
100
AcDbLine
 10
38.51496322467153
 20
114.0201258447243
 30
0.0
 11
29.12501105778778
 21
114.0201258447243
 31
0.0
  0
LINE
  5
2672
330
18
100
AcDbEntity
  8
1
  6
Continuous
100
AcDbLine
 10
38.43350472966517
 20
113.9201258399746
 30
0.0
 11
38.12501144492989
 21
113.9201258399746
 31
0.0
  0
ARC
  5
2673
330
18
100
AcDbEntity
  8
1
  6
Continuous
100
AcDbCircle
 10
38.38155429399625
 20
114.0430308754139
 30
0.0
 40
0.133433487183598
100
AcDbArc
 50
292.9131782731318
 51
356.5343568271389
  0
ARC
  5
2674
330
18
100
AcDbEntity
  8
1
  6
Continuous
100
AcDbCircle
 10
21.05088015297622
 20
118.0977842828212
 30
0.0
 40
17.93022682855705
100
AcDbArc
 50
346.9035757601651
 51
2.628703375277062
  0
ARC
  5
2675
330
18
100
AcDbEntity
  8
1
  6
Continuous
100
AcDbCircle
 10
29.12501118037403
 20
116.0201258006703
 30
0.0
 40
2.000000273054546
100
AcDbArc
 50
179.9929508938168
 51
269.999997643674
  0
LINE
  5
2676
330
18
100
AcDbEntity
  8
1
  6
Continuous
100
AcDbLine
 10
29.12501101745045
 20
142.0201271746529
 30
0.0
 11
38.26286505288964
 21
142.0201271746529
 31
0.0
  0
LINE
  5
2677
330
18
100
AcDbEntity
  8
1
  6
Continuous
100
AcDbLine
 10
29.12501162982823
 20
140.4201275792201
 30
0.0
 11
38.83396448774158
 21
140.4201275792201
 31
0.0
  0
LINE
  5
2678
330
18
100
AcDbEntity
  8
1
  6
Continuous
100
AcDbLine
 10
32.32677780257472
 20
142.4201271955743
 30
0.0
 11
37.82501127173294
 21
142.4201267581855
 31
0.0
  0
ARC
  5
2679
330
18
100
AcDbEntity
  8
1
  6
Continuous
100
AcDbCircle
 10
29.40295000281173
 20
138.7578837659343
 30
0.0
 40
9.565254432220783
100
AcDbArc
 50
357.976419665802
 51
12.35956379624825
  0
LINE
  5
267A
330
18
100
AcDbEntity
  8
1
  6
Continuous
100
AcDbLine
 10
38.66527708210231
 20
140.9201271224058
 30
0.0
 11
38.37656191598965
 21
140.9201271224058
 31
0.0
  0
ARC
  5
267B
330
18
100
AcDbEntity
  8
1
  6
Continuous
100
AcDbCircle
 10
38.61332664643327
 20
140.7972220869688
 30
0.0
 40
0.133433487183598
100
AcDbArc
 50
3.465643172861891
 51
67.08682172686801
  0
ARC
  5
267C
330
18
100
AcDbEntity
  8
1
  6
Continuous
100
AcDbCircle
 10
29.12501217763519
 20
138.4201258434799
 30
0.0
 40
2.000001735740164
100
AcDbArc
 50
90.00001569349985
 51
179.9999667632483
  0
ARC
  5
267D
330
18
100
AcDbEntity
  8
1
  6
Continuous
100
AcDbCircle
 10
29.12508891214099
 20
140.0199996431668
 30
0.0
 40
2.000127284649217
100
AcDbArc
 50
90.00223137649465
 51
180.4022637885481
  0
LINE
  5
267E
330
18
100
AcDbEntity
  8
1
  6
Continuous
100
AcDbLine
 10
46.62501184865822
 20
151.9201276448777
 30
0.0
 11
47.62501189615568
 21
151.9201276448777
 31
0.0
  0
LINE
  5
267F
330
18
100
AcDbEntity
  8
1
  6
Continuous
100
AcDbLine
 10
47.62501189615568
 20
142.9201272174007
 30
0.0
 11
46.62501184865822
 21
142.9201272174007
 31
0.0
  0
LINE
  5
2680
330
18
100
AcDbEntity
  8
1
  6
Continuous
100
AcDbLine
 10
47.62501189615568
 20
155.0201277921199
 30
0.0
 11
46.62501184865822
 21
155.0201277921199
 31
0.0
  0
LINE
  5
2681
330
18
100
AcDbEntity
  8
1
  6
Continuous
100
AcDbLine
 10
48.92501178112571
 20
175.7201285985404
 30
0.0
 11
46.62501184865822
 21
173.4201286660729
 31
0.0
  0
ARC
  5
2682
330
18
100
AcDbEntity
  8
1
  6
Continuous
100
AcDbCircle
 10
63.43408199316672
 20
176.9842507140895
 30
0.0
 40
12.84634206992654
100
AcDbArc
 50
237.9918713233081
 51
243.183963354961
  0
ARC
  5
2683
330
18
100
AcDbEntity
  8
1
  6
Continuous
100
AcDbCircle
 10
58.11143043564857
 20
165.9503617752535
 30
0.0
 40
0.573991760924312
100
AcDbArc
 50
242.9107422693886
 51
299.4009850740862
  0
ARC
  5
2684
330
18
100
AcDbEntity
  8
1
  6
Continuous
100
AcDbCircle
 10
50.93297877657221
 20
173.1258715335999
 30
0.0
 40
10.70371660217193
100
AcDbArc
 50
314.1848990944383
 51
319.1130200632948
  0
LINE
  5
2685
330
18
100
AcDbEntity
  8
1
  6
Continuous
100
AcDbLine
 10
56.62806985076258
 20
167.4201283810881
 30
0.0
 11
59.02501244954772
 21
167.4201283810881
 31
0.0
  0
LINE
  5
2686
330
18
100
AcDbEntity
  8
1
  6
Continuous
100
AcDbLine
 10
57.63874572657949
 20
165.5194095841473
 30
0.0
 11
57.85004721839164
 21
165.4393379447477
 31
0.0
  0
ARC
  5
2687
330
18
100
AcDbEntity
  8
1
  6
Continuous
100
AcDbCircle
 10
51.61818025975595
 20
167.7187870088111
 30
0.0
 40
10.89434265913788
100
AcDbArc
 50
57.97602986301487
 51
62.61569759318359
  0
ARC
  5
2688
330
18
100
AcDbEntity
  8
1
  6
Continuous
100
AcDbCircle
 10
51.4260862177299
 20
167.4214140593
 30
0.0
 40
11.24832694109443
100
AcDbArc
 50
47.50230267834902
 51
57.94967884380633
  0
LINE
  5
2689
330
18
100
AcDbEntity
  8
1
  6
Continuous
100
AcDbLine
 10
49.6250119911507
 20
181.9201290698013
 30
0.0
 11
47.62501189615568
 21
181.8153135062567
 31
0.0
  0
LINE
  5
268A
330
18
100
AcDbEntity
  8
1
  6
Continuous
100
AcDbLine
 10
47.62501189615568
 20
177.0201288370637
 30
0.0
 11
48.92501195790236
 21
175.7201287753171
 31
0.0
  0
LINE
  5
268B
330
18
100
AcDbEntity
  8
1
  6
Continuous
100
AcDbLine
 10
25.62501123268146
 20
160.9946723445704
 30
0.0
 11
25.62501123268157
 21
166.3848521515053
 31
0.0
  0
LINE
  5
268C
330
18
100
AcDbEntity
  8
1
  6
Continuous
100
AcDbLine
 10
23.97501115431066
 20
161.2826280895726
 30
0.0
 11
23.97501115431066
 21
173.5576286726038
 31
0.0
  0
LINE
  5
268D
330
18
100
AcDbEntity
  8
1
  6
Continuous
100
AcDbLine
 10
38.96223934473778
 20
159.670128012983
 30
0.0
 11
38.96223934473778
 21
175.1701287491935
 31
0.0
  0
LINE
  5
268E
330
18
100
AcDbEntity
  8
1
  6
Continuous
100
AcDbLine
 10
24.4750111780594
 20
160.6701280604804
 30
0.0
 11
24.4750111780594
 21
174.170128701696
 31
0.0
  0
LINE
  5
268F
330
18
100
AcDbEntity
  8
1
  6
Continuous
100
AcDbLine
 10
25.47501122555684
 20
160.9701280747297
 30
0.0
 11
25.47501122555684
 21
173.8701286874468
 31
0.0
  0
LINE
  5
2694
330
18
100
AcDbEntity
  8
1
  6
Continuous
100
AcDbLine
 10
25.82501009867928
 20
171.1195657233816
 30
0.0
 11
25.82501009867928
 21
163.7201096375663
 31
0.0
  0
LINE
  5
2695
330
18
100
AcDbEntity
  8
1
  6
Continuous
100
AcDbLine
 10
19.97501096432097
 20
171.704918869084
 30
0.0
 11
19.97501096432086
 21
163.1353378216626
 31
0.0
  0
LINE
  5
2696
330
18
100
AcDbEntity
  8
1
  6
Continuous
100
AcDbLine
 10
38.12501144493001
 20
143.2202253028406
 30
0.0
 11
38.12501144493012
 21
154.6701277754956
 31
0.0
  0
LINE
  5
2697
330
18
100
AcDbEntity
  8
4
  6
CENTER
 48
0.2
100
AcDbLine
 10
28.82501114569629
 20
147.4201274520584
 30
0.0
 11
40.8492532587851
 21
147.4201274520584
 31
0.0
  0
LINE
  5
2698
330
18
100
AcDbEntity
  8
2
  6
Continuous
100
AcDbLine
 10
37.82501107615735
 20
144.9616268531804
 30
0.0
 11
38.12501124935454
 21
144.9616268293151
 31
0.0
  0
LINE
  5
2699
330
18
100
AcDbEntity
  8
2
  6
Continuous
100
AcDbLine
 10
37.82501127173294
 20
149.8786275736316
 30
0.0
 11
38.12501144493012
 21
149.8786275736315
 31
0.0
  0
LINE
  5
269A
330
18
100
AcDbEntity
  8
1
  6
Continuous
100
AcDbLine
 10
37.82501127173294
 20
150.4201275736316
 30
0.0
 11
38.12501144493012
 21
150.4201275736315
 31
0.0
  0
LINE
  5
269B
330
18
100
AcDbEntity
  8
1
  6
Continuous
100
AcDbLine
 10
38.12501144493012
 20
144.4201272886468
 30
0.0
 11
37.82501127173315
 21
144.4201272886468
 31
0.0
  0
LINE
  5
269C
330
18
100
AcDbEntity
  8
1
  6
Continuous
100
AcDbLine
 10
31.82501114569629
 20
142.923706422557
 30
0.0
 11
31.82501114569629
 21
151.8901319042288
 31
0.0
  0
ARC
  5
269E
330
18
100
AcDbEntity
  8
1
  6
Continuous
100
AcDbCircle
 10
32.32503549187606
 20
151.9200969544021
 30
0.0
 40
0.5000365794022259
100
AcDbArc
 50
89.80031452597295
 51
180.4130952421488
  0
LINE
  5
269F
330
18
100
AcDbEntity
  8
1
  6
Continuous
100
AcDbLine
 10
32.32677820032859
 20
152.4201276686264
 30
0.0
 11
37.82501127173294
 21
152.4201276686264
 31
0.0
  0
LINE
  5
26A8
330
18
100
AcDbEntity
  8
1
  6
Continuous
100
AcDbLine
 10
38.4965204031256
 20
154.6701277754956
 30
0.0
 11
38.12501144493012
 21
154.6701277754956
 31
0.0
  0
ARC
  5
26A9
330
18
100
AcDbEntity
  8
1
  6
Continuous
100
AcDbCircle
 10
17.44571321078115
 20
159.1525741802263
 30
0.0
 40
21.52275096776752
100
AcDbArc
 50
347.9792747830746
 51
1.377921452026227
  0
ARC
  5
26AB
330
18
100
AcDbEntity
  8
1
  6
Continuous
100
AcDbCircle
 10
20.47501098806958
 20
163.1353378216626
 30
0.0
 40
0.5000000237487267
100
AcDbArc
 50
180.0000000000008
 51
270.0
  0
LINE
  5
26AC
330
18
100
AcDbEntity
  8
1
  6
Continuous
100
AcDbLine
 10
25.1750112113076
 20
160.6701280604804
 30
0.0
 11
24.4750111780595
 21
160.6701280604804
 31
0.0
  0
LINE
  5
26AE
330
18
100
AcDbEntity
  8
1
  6
Continuous
100
AcDbLine
 10
25.47501122553137
 20
161.5744429419736
 30
0.0
 11
25.62501123268146
 21
161.5744429419736
 31
0.0
  0
LINE
  5
26AF
330
18
100
AcDbEntity
  8
1
  6
Continuous
100
AcDbLine
 10
25.47501122553137
 20
161.1899065978684
 30
0.0
 11
25.62501123268146
 21
161.1899065978684
 31
0.0
  0
ARC
  5
26B0
330
18
100
AcDbEntity
  8
1
  6
Continuous
100
AcDbCircle
 10
25.1750112113076
 20
160.9701280747297
 30
0.0
 40
0.3000000142492368
100
AcDbArc
 50
270.0000000000065
 51
0.000000000000007
  0
LINE
  5
26B1
330
18
100
AcDbEntity
  8
1
  6
Continuous
100
AcDbLine
 10
25.47501122555672
 20
160.9946723445705
 30
0.0
 11
25.62501123268146
 21
160.9946723445704
 31
0.0
  0
LINE
  5
26B2
330
18
100
AcDbEntity
  8
1
  6
Continuous
100
AcDbLine
 10
26.12501011202096
 20
163.4201281910984
 30
0.0
 11
29.22501143479554
 21
163.4201281910984
 31
0.0
  0
ARC
  5
26B3
330
18
100
AcDbEntity
  8
1
  6
Continuous
100
AcDbCircle
 10
26.12501011202096
 20
163.7201282053477
 30
0.0
 40
0.3000000142492287
100
AcDbArc
 50
180.0
 51
270.0
  0
LINE
  5
26B4
330
18
100
AcDbEntity
  8
1
  6
Continuous
100
AcDbLine
 10
25.47501122553148
 20
163.7205602456914
 30
0.0
 11
25.62501123268146
 21
163.7205602456914
 31
0.0
  0
LINE
  5
26B5
330
18
100
AcDbEntity
  8
1
  6
Continuous
100
AcDbLine
 10
25.47501122553137
 20
162.859289493349
 30
0.0
 11
25.62501123268146
 21
162.859289493349
 31
0.0
  0
LINE
  5
26B6
330
18
100
AcDbEntity
  8
1
  6
Continuous
100
AcDbLine
 10
25.47501122553137
 20
162.1365975227146
 30
0.0
 11
25.62501123268146
 21
162.1365975227146
 31
0.0
  0
LINE
  5
26B7
330
18
100
AcDbEntity
  8
1
  6
Continuous
100
AcDbLine
 10
24.4750111780594
 20
160.6701280604805
 30
0.0
 11
23.97491115431069
 21
161.2827505895726
 31
0.0
  0
LINE
  5
26B9
330
18
100
AcDbEntity
  8
1
  6
Continuous
100
AcDbLine
 10
20.47501098806958
 20
162.6353377979139
 30
0.0
 11
23.97501115431066
 21
162.6353377979139
 31
0.0
  0
LINE
  5
26BA
330
18
100
AcDbEntity
  8
4
  6
CENTER
 48
0.2
100
AcDbLine
 10
16.97501096432097
 20
167.4201286310881
 30
0.0
 11
41.99925307740977
 21
167.4201286310881
 31
0.0
  0
ARC
  5
26BE
330
18
100
AcDbEntity
  8
1
  6
Continuous
100
AcDbCircle
 10
20.47501613945655
 20
171.70491336554
 30
0.0
 40
0.500005175165958
100
AcDbArc
 50
90.0002041601083
 51
179.999369346827
  0
LINE
  5
26BF
330
18
100
AcDbEntity
  8
1
  6
Continuous
100
AcDbLine
 10
25.62501123268146
 20
168.4554046106713
 30
0.0
 11
25.62501123268157
 21
173.8455843938172
 31
0.0
  0
LINE
  5
26C0
330
18
100
AcDbEntity
  8
1
  6
Continuous
100
AcDbLine
 10
25.47501122553218
 20
166.8579738219899
 30
0.0
 11
25.62501123268146
 21
166.8579738219899
 31
0.0
  0
LINE
  5
26C1
330
18
100
AcDbEntity
  8
1
  6
Continuous
100
AcDbLine
 10
25.62501123268146
 20
166.8579738219899
 30
0.0
 11
25.62501123268146
 21
167.9822829401865
 31
0.0
  0
LINE
  5
26C2
330
18
100
AcDbEntity
  8
1
  6
Continuous
100
AcDbLine
 10
25.4750112255316
 20
167.9822829401866
 30
0.0
 11
25.62501123268146
 21
167.9822829401866
 31
0.0
  0
LINE
  5
26C3
330
18
100
AcDbEntity
  8
1
  6
Continuous
100
AcDbLine
 10
25.47501122553137
 20
170.1460162584203
 30
0.0
 11
25.62501123268146
 21
170.1460162584203
 31
0.0
  0
LINE
  5
26C4
330
18
100
AcDbEntity
  8
1
  6
Continuous
100
AcDbLine
 10
25.4750112255316
 20
169.0895112765687
 30
0.0
 11
25.62501123268146
 21
169.0895112765687
 31
0.0
  0
LINE
  5
26C5
330
18
100
AcDbEntity
  8
1
  6
Continuous
100
AcDbLine
 10
25.47501122553137
 20
171.1196965164853
 30
0.0
 11
25.62501123268146
 21
171.1196965164853
 31
0.0
  0
LINE
  5
26C6
330
18
100
AcDbEntity
  8
1
  6
Continuous
100
AcDbLine
 10
25.62501123268146
 20
170.1701285117061
 30
0.0
 11
25.82501009777172
 21
170.1701285117061
 31
0.0
  0
LINE
  5
26C7
330
18
100
AcDbEntity
  8
1
  6
Continuous
100
AcDbLine
 10
25.47501122553194
 20
171.9809672688276
 30
0.0
 11
25.62501123268146
 21
171.9809672688276
 31
0.0
  0
LINE
  5
26C8
330
18
100
AcDbEntity
  8
1
  6
Continuous
100
AcDbLine
 10
25.47501122555684
 20
168.4554046106713
 30
0.0
 11
25.62501123268146
 21
168.4554046106713
 31
0.0
  0
ARC
  5
26C9
330
18
100
AcDbEntity
  8
1
  6
Continuous
100
AcDbCircle
 10
26.09024708316587
 20
169.7930833846535
 30
0.0
 40
0.5440623108393645
100
AcDbArc
 50
86.33661687224275
 51
114.0498717453751
  0
LINE
  5
26CA
330
18
100
AcDbEntity
  8
1
  6
Continuous
100
AcDbLine
 10
26.12500954059215
 20
171.4201293782208
 30
0.0
 11
29.22501086336671
 21
171.4201298210781
 31
0.0
  0
LINE
  5
26CB
330
18
100
AcDbEntity
  8
1
  6
Continuous
100
AcDbLine
 10
26.12500969546295
 20
170.3360339890937
 30
0.0
 11
29.22501101823752
 21
170.3360344319511
 31
0.0
  0
ARC
  5
26CC
330
18
100
AcDbEntity
  8
1
  6
Continuous
100
AcDbCircle
 10
25.89684512538815
 20
170.222382814671
 30
0.0
 40
0.0732312933409497
100
AcDbArc
 50
112.7511169512119
 51
168.7952250035111
  0
ARC
  5
26CD
330
18
100
AcDbEntity
  8
1
  6
Continuous
100
AcDbCircle
 10
26.12500958344935
 20
171.1201293639716
 30
0.0
 40
0.3000000142492287
100
AcDbArc
 50
90.00000818511322
 51
180.1076474814435
  0
LINE
  5
26CE
330
18
100
AcDbEntity
  8
2
  6
Continuous
100
AcDbLine
 10
25.62501123268146
 20
169.8996285117061
 30
0.0
 11
25.82501009777172
 21
169.8996285117061
 31
0.0
  0
LINE
  5
26CF
330
18
100
AcDbEntity
  8
1
  6
Continuous
100
AcDbLine
 10
24.4750111780594
 20
174.170128701696
 30
0.0
 11
24.47509281071257
 21
174.170228701696
 31
0.0
  0
LINE
  5
26D0
330
18
100
AcDbEntity
  8
1
  6
Continuous
100
AcDbLine
 10
24.4750111780594
 20
174.170128701696
 30
0.0
 11
25.1750112113076
 21
174.170128701696
 31
0.0
  0
LINE
  5
26D1
330
18
100
AcDbEntity
  8
1
  6
Continuous
100
AcDbLine
 10
25.47501122553205
 20
173.6503501643079
 30
0.0
 11
25.62501123268146
 21
173.6503501643079
 31
0.0
  0
ARC
  5
26D2
330
18
100
AcDbEntity
  8
1
  6
Continuous
100
AcDbCircle
 10
25.1750112113076
 20
173.8701286874468
 30
0.0
 40
0.3000000142492368
100
AcDbArc
 50
0.000000000000007
 51
90.0
  0
LINE
  5
26D3
330
18
100
AcDbEntity
  8
1
  6
Continuous
100
AcDbLine
 10
25.47501122555661
 20
173.8455843938172
 30
0.0
 11
25.62501123268157
 21
173.8455843938172
 31
0.0
  0
LINE
  5
26D4
330
18
100
AcDbEntity
  8
1
  6
Continuous
100
AcDbLine
 10
25.47501122553194
 20
172.7036592394625
 30
0.0
 11
25.62501123268146
 21
172.7036592394625
 31
0.0
  0
LINE
  5
26D5
330
18
100
AcDbEntity
  8
1
  6
Continuous
100
AcDbLine
 10
25.47501122553205
 20
173.2658137985602
 30
0.0
 11
25.62501123268146
 21
173.2658137985602
 31
0.0
  0
LINE
  5
26D6
330
18
100
AcDbEntity
  8
1
  6
Continuous
100
AcDbLine
 10
23.97501115431066
 20
173.5576286726038
 30
0.0
 11
24.4750111780594
 21
174.170128701696
 31
0.0
  0
LINE
  5
26D7
330
18
100
AcDbEntity
  8
1
  6
Continuous
100
AcDbLine
 10
26.12501011202096
 20
164.5042235802255
 30
0.0
 11
29.22501143479554
 21
164.5042235802255
 31
0.0
  0
LINE
  5
26D8
330
18
100
AcDbEntity
  8
1
  6
Continuous
100
AcDbLine
 10
25.47501122553148
 20
164.6942405037565
 30
0.0
 11
25.62501123268146
 21
164.6942405037565
 31
0.0
  0
LINE
  5
26D9
330
18
100
AcDbEntity
  8
1
  6
Continuous
100
AcDbLine
 10
25.47501122553218
 20
165.7507454856078
 30
0.0
 11
25.62501123268146
 21
165.7507454856078
 31
0.0
  0
LINE
  5
26DA
330
18
100
AcDbEntity
  8
1
  6
Continuous
100
AcDbLine
 10
25.82501009777172
 20
164.6701282504702
 30
0.0
 11
25.62501123268146
 21
164.6701282504702
 31
0.0
  0
LINE
  5
26DB
330
18
100
AcDbEntity
  8
1
  6
Continuous
100
AcDbLine
 10
25.47501122555684
 20
166.3848521515053
 30
0.0
 11
25.62501123268157
 21
166.3848521515053
 31
0.0
  0
ARC
  5
26DC
330
18
100
AcDbEntity
  8
1
  6
Continuous
100
AcDbCircle
 10
26.09024742215956
 20
165.0471741796996
 30
0.0
 40
0.5440623108393645
100
AcDbArc
 50
245.9501364397367
 51
273.6633913128681
  0
ARC
  5
26DD
330
18
100
AcDbEntity
  8
1
  6
Continuous
100
AcDbCircle
 10
25.8968455257102
 20
164.6178747220533
 30
0.0
 40
0.0732312933409497
100
AcDbArc
 50
191.2047831816007
 51
247.2488912338982
  0
LINE
  5
26DE
330
18
100
AcDbEntity
  8
2
  6
Continuous
100
AcDbLine
 10
25.62501158689576
 20
164.9406289861846
 30
0.0
 11
25.82501045198603
 21
164.9406290147559
 31
0.0
  0
LINE
  5
26DF
330
18
100
AcDbEntity
  8
1
  6
Continuous
100
AcDbLine
 10
19.97501096432086
 20
167.4201283453739
 30
0.0
 11
23.97501115431066
 21
167.4201286310881
 31
0.0
  0
LINE
  5
26E0
330
18
100
AcDbEntity
  8
1
  6
Continuous
100
AcDbLine
 10
20.47501435780509
 20
172.2049185407028
 30
0.0
 11
23.97501452404537
 21
172.2049160757933
 31
0.0
  0
LINE
  5
26E5
330
18
100
AcDbEntity
  8
1
  6
Continuous
100
AcDbLine
 10
38.4335047296654
 20
180.1701289866807
 30
0.0
 11
38.12501144493023
 21
180.1701289866807
 31
0.0
  0
ARC
  5
26E6
330
18
100
AcDbEntity
  8
1
  6
Continuous
100
AcDbCircle
 10
38.38448540405614
 20
180.0435993851829
 30
0.0
 40
0.1356931624570248
100
AcDbArc
 50
11.8176527340173
 51
68.82294005515426
  0
ARC
  5
26E7
330
18
100
AcDbEntity
  8
1
  6
Continuous
100
AcDbCircle
 10
17.44571202970189
 20
175.6876821491931
 30
0.0
 40
21.52275096776752
100
AcDbArc
 50
358.6220867330869
 51
11.75211049702157
  0
LINE
  5
26EA
330
18
100
AcDbEntity
  8
1
  6
Continuous
100
AcDbLine
 10
45.62501174242821
 20
187.4201293310371
 30
0.0
 11
38.12501144493023
 21
187.4201293310371
 31
0.0
  0
ARC
  5
26EB
330
18
100
AcDbEntity
  8
1
  6
Continuous
100
AcDbCircle
 10
45.62501180116078
 20
185.4201292360423
 30
0.0
 40
2.000000094994899
100
AcDbArc
 50
0.000000000000007
 51
90.00000168256043
  0
ARC
  5
26EC
330
18
100
AcDbEntity
  8
1
  6
Continuous
100
AcDbCircle
 10
51.21079850409818
 20
186.4201292835398
 30
0.0
 40
1.000000047497497
100
AcDbArc
 50
58.85921487825777
 51
90.0
  0
LINE
  5
26EF
330
18
100
AcDbEntity
  8
1
  6
Continuous
100
AcDbLine
 10
49.62501199115059
 20
187.4201293310371
 30
0.0
 11
51.21079850409831
 21
187.4201293310371
 31
0.0
  0
ARC
  5
2808
330
18
100
AcDbEntity
  8
1
  6
Continuous
100
AcDbCircle
 10
119.881823959264
 20
223.994006429628
 30
0.0
 40
0.2985269179124652
100
AcDbArc
 50
269.7042629905666
 51
0.2834623483676759
  0
ARC
  5
2809
330
18
100
AcDbEntity
  8
1
  6
Continuous
100
AcDbCircle
 10
105.6788697695848
 20
223.9940064137355
 30
0.0
 40
0.2985269022644694
100
AcDbArc
 50
179.7165345865185
 51
270.2957479990712
  0
LINE
  5
280A
330
18
100
AcDbEntity
  8
1
  6
Continuous
100
AcDbLine
 10
119.8802830941834
 20
223.6954834884279
 30
0.0
 11
105.6804106918431
 21
223.6954834884279
 31
0.0
  0
LINE
  5
280B
330
18
100
AcDbEntity
  8
1
  6
Continuous
100
AcDbLine
 10
105.3803465208068
 20
225.1454835453782
 30
0.0
 11
105.3803465208067
 21
223.9954833411339
 31
0.0
  0
LINE
  5
280C
330
18
100
AcDbEntity
  8
1
  6
Continuous
100
AcDbLine
 10
120.180347223769
 20
223.9954833411339
 30
0.0
 11
120.1803472237691
 21
225.1454835453782
 31
0.0
  0
LINE
  5
280F
330
18
100
AcDbEntity
  8
1
  6
Continuous
100
AcDbLine
 10
108.0350720758667
 20
251.3454844238363
 30
0.0
 11
101.3242400384501
 21
251.3454844238363
 31
0.0
  0
LINE
  5
2810
330
18
100
AcDbEntity
  8
1
  6
Continuous
100
AcDbLine
 10
100.3803462833194
 20
251.2454853061161
 30
0.0
 11
108.0350721307066
 21
251.2454853061161
 31
0.0
  0
ARC
  5
2812
330
18
100
AcDbEntity
  8
1
  6
Continuous
100
AcDbCircle
 10
102.3803475384966
 20
255.0454838172906
 30
0.0
 40
2.00000173574049
100
AcDbArc
 50
89.96028059170456
 51
179.9999843064828
  0
LINE
  5
2813
330
18
100
AcDbEntity
  8
1
  6
Continuous
100
AcDbLine
 10
100.3803462833194
 20
252.9454846751712
 30
0.0
 11
101.3242401068955
 21
252.9454846751712
 31
0.0
  0
LINE
  5
2815
330
18
100
AcDbEntity
  8
1
  6
Continuous
100
AcDbLine
 10
100.8801852777959
 20
254.9454849727232
 30
0.0
 11
124.6772754303245
 21
254.9454849727232
 31
0.0
  0
ARC
  5
2818
330
18
100
AcDbEntity
  8
1
  6
Continuous
100
AcDbCircle
 10
100.8801852777959
 20
254.4454000914102
 30
0.0
 40
0.5000953319050362
100
AcDbArc
 50
90.0
 51
178.1671442546108
  0
LINE
  5
2819
330
18
100
AcDbEntity
  8
1
  6
Continuous
100
AcDbLine
 10
100.3803458027564
 20
255.0454843650982
 30
0.0
 11
100.3803458027564
 21
245.2537767438359
 31
0.0
  0
LINE
  5
281B
330
18
100
AcDbEntity
  8
1
  6
Continuous
100
AcDbLine
 10
102.380346569049
 20
255.0454849129059
 30
0.0
 11
100.3803458027562
 21
255.0454849129059
 31
0.0
  0
LINE
  5
281D
330
18
100
AcDbEntity
  8
1
  6
Continuous
100
AcDbLine
 10
102.7803463973133
 20
251.3454844238363
 30
0.0
 11
102.7803463973133
 21
251.2454853061256
 31
0.0
  0
LINE
  5
281E
330
18
100
AcDbEntity
  8
1
  6
Continuous
100
AcDbLine
 10
101.3242400887792
 20
252.9454847057398
 30
0.0
 11
101.3242400887792
 21
251.3454844856278
 31
0.0
  0
LINE
  5
2821
330
18
100
AcDbEntity
  8
1
  6
Continuous
100
AcDbLine
 10
102.3803466086078
 20
257.0454855530309
 30
0.0
 11
102.3803466086078
 21
255.0454848960129
 31
0.0
  0
LINE
  5
2823
330
18
100
AcDbEntity
  8
1
  6
Continuous
100
AcDbLine
 10
108.0350720758667
 20
252.9454846751712
 30
0.0
 11
125.1803474612562
 21
252.9454846751712
 31
0.0
  0
LINE
  5
2824
330
18
100
AcDbEntity
  8
1
  6
Continuous
100
AcDbLine
 10
108.7797110414732
 20
257.0454850724679
 30
0.0
 11
102.3817340084923
 21
257.0454850724679
 31
0.0
  0
LINE
  5
2825
330
18
100
AcDbEntity
  8
1
  6
Continuous
100
AcDbLine
 10
108.0350720758667
 20
252.7454853018695
 30
0.0
 11
122.7803473472622
 21
252.7454853018693
 31
0.0
  0
LINE
  5
282B
330
18
100
AcDbEntity
  8
1
  6
Continuous
100
AcDbLine
 10
108.0350721307067
 20
252.9454847128715
 30
0.0
 11
108.0350721307066
 21
251.2454853061161
 31
0.0
  0
LINE
  5
282E
330
18
100
AcDbEntity
  8
1
  6
Continuous
100
AcDbLine
 10
108.9152441337513
 20
252.9454847197359
 30
0.0
 11
108.9152441337513
 21
252.7454853018694
 31
0.0
  0
LINE
  5
282F
330
18
100
AcDbEntity
  8
1
  6
Continuous
100
AcDbLine
 10
117.5256217124457
 20
251.2454853061161
 30
0.0
 11
125.1803474612562
 21
251.2454853061161
 31
0.0
  0
LINE
  5
2831
330
18
100
AcDbEntity
  8
1
  6
Continuous
100
AcDbLine
 10
117.525621746477
 20
251.2454850515493
 30
0.0
 11
117.525621746477
 21
252.7454852122057
 31
0.0
  0
ARC
  5
2833
330
18
100
AcDbEntity
  8
1
  6
Continuous
100
AcDbCircle
 10
118.2948380819621
 20
252.5514633463981
 30
0.0
 40
0.4618102499748036
100
AcDbArc
 50
24.83381837453965
 51
58.56259120860828
  0
LINE
  5
2835
330
18
100
AcDbEntity
  8
1
  6
Continuous
100
AcDbLine
 10
124.2364536474906
 20
251.3454848017324
 30
0.0
 11
122.7803473472623
 21
251.3454848017324
 31
0.0
  0
LINE
  5
2836
330
18
100
AcDbEntity
  8
1
  6
Continuous
100
AcDbLine
 10
122.7803473472623
 20
251.2454853061256
 30
0.0
 11
122.7803473472622
 21
252.7454853018693
 31
0.0
  0
LINE
  5
2837
330
18
100
AcDbEntity
  8
1
  6
Continuous
100
AcDbLine
 10
124.2364536557964
 20
252.9454847057398
 30
0.0
 11
124.2364536557964
 21
251.3454846127844
 31
0.0
  0
LINE
  5
2839
330
18
100
AcDbEntity
  8
1
  6
Continuous
100
AcDbLine
 10
122.1115305051064
 20
252.9454847197359
 30
0.0
 11
122.1115305051064
 21
252.745485377387
 31
0.0
  0
LINE
  5
283A
330
18
100
AcDbEntity
  8
1
  6
Continuous
100
AcDbLine
 10
125.1803474612562
 20
245.2537768167675
 30
0.0
 11
125.1803474612562
 21
255.0440973469619
 31
0.0
  0
LINE
  5
283E
330
18
100
AcDbEntity
  8
1
  6
Continuous
100
AcDbLine
 10
123.1789597360016
 20
257.0454850724678
 30
0.0
 11
116.7809703436526
 21
257.0454850724679
 31
0.0
  0
LINE
  5
283F
330
18
100
AcDbEntity
  8
1
  6
Continuous
100
AcDbLine
 10
123.1803471196242
 20
257.0454855530308
 30
0.0
 11
123.1803471196242
 21
255.045484365098
 31
0.0
  0
ARC
  5
2843
330
18
100
AcDbEntity
  8
1
  6
Continuous
100
AcDbCircle
 10
124.680508466681
 20
254.4454000913603
 30
0.0
 40
0.5000953320036775
100
AcDbArc
 50
0.0096930057293794
 51
90.37041063319373
  0
LINE
  5
2846
330
18
100
AcDbEntity
  8
1
  6
Continuous
100
AcDbLine
 10
125.1802393159068
 20
255.0454849129053
 30
0.0
 11
123.1803466628516
 21
255.0454849129053
 31
0.0
  0
ARC
  5
284A
330
18
100
AcDbEntity
  8
1
  6
Continuous
100
AcDbCircle
 10
123.180346206079
 20
255.0454838172906
 30
0.0
 40
2.000001735740485
100
AcDbArc
 50
359.9602805821604
 51
90.03971941064362
  0
ARC
  5
284F
330
18
100
AcDbEntity
  8
1
  6
Continuous
100
AcDbCircle
 10
117.9389102001712
 20
256.6480803005201
 30
0.0
 40
0.4069025722475947
100
AcDbArc
 50
16.08689159536212
 51
77.59626918837746
  0
ARC
  5
2850
330
18
100
AcDbEntity
  8
1
  6
Continuous
100
AcDbCircle
 10
113.8860484647527
 20
255.1697417411399
 30
0.0
 40
4.720084651878947
100
AcDbArc
 50
357.2767850064233
 51
19.69962615403497
  0
ARC
  5
2851
330
18
100
AcDbEntity
  8
1
  6
Continuous
100
AcDbCircle
 10
111.6746453680718
 20
255.1697417411399
 30
0.0
 40
4.720084651878947
100
AcDbArc
 50
160.300373845965
 51
182.7232149935765
  0
ARC
  5
2852
330
18
100
AcDbEntity
  8
1
  6
Continuous
100
AcDbCircle
 10
107.6217836326534
 20
256.6480803005201
 30
0.0
 40
0.4069025722475947
100
AcDbArc
 50
102.4037308116225
 51
163.9131084046378
  0
LINE
  5
28FA
330
18
100
AcDbEntity
  8
1
  6
Continuous
100
AcDbLine
 10
100.3803463274439
 20
236.7188971097176
 30
0.0
 11
100.4055890121401
 21
238.545484193765
 31
0.0
  0
LINE
  5
28FB
330
18
100
AcDbEntity
  8
1
  6
Continuous
100
AcDbLine
 10
125.1551048206807
 20
238.545484193765
 30
0.0
 11
125.1803475053807
 21
236.7188971095797
 31
0.0
  0
LINE
  5
28FC
330
18
100
AcDbEntity
  8
1
  6
Continuous
100
AcDbLine
 10
130.487454538643
 20
67.22207777408185
 30
0.0
 11
125.7803475338791
 21
71.92918477884569
 31
0.0
  0
LINE
  5
28FD
330
18
100
AcDbEntity
  8
4
  6
CENTER
 48
0.2
100
AcDbLine
 10
112.7803469164123
 20
78.8197548295767
 30
0.0
 11
112.7803469164123
 21
32.27918341953386
 31
0.0
  0
LINE
  5
28FE
330
18
100
AcDbEntity
  8
1
  6
Continuous
100
AcDbLine
 10
95.0732392941834
 20
67.22207777408073
 30
0.0
 11
99.78034629894851
 21
71.92918477884569
 31
0.0
  0
LINE
  5
28FF
330
18
100
AcDbEntity
  8
1
  6
Continuous
100
AcDbLine
 10
119.8802830941834
 20
75.77918496171083
 30
0.0
 11
105.6804106918431
 21
75.77918496171083
 31
0.0
  0
LINE
  5
2900
330
18
100
AcDbEntity
  8
1
  6
Continuous
100
AcDbLine
 10
122.330347370013
 20
74.32918490476048
 30
0.0
 11
103.2303464628115
 21
74.32918490476048
 31
0.0
  0
LINE
  5
2901
330
18
100
AcDbEntity
  8
1
  6
Continuous
100
AcDbLine
 10
125.7803475338816
 20
71.92918477884569
 30
0.0
 11
99.78034629894851
 21
71.92918477884569
 31
0.0
  0
LINE
  5
2904
330
18
100
AcDbEntity
  8
1
  6
Continuous
100
AcDbLine
 10
103.2303464628115
 20
74.32918490476048
 30
0.0
 11
101.8767754414793
 21
73.6980043716565
 31
0.0
  0
ARC
  5
2905
330
18
100
AcDbEntity
  8
1
  6
Continuous
100
AcDbCircle
 10
102.1303464105644
 20
73.15421967360464
 30
0.0
 40
0.6000000284985063
100
AcDbArc
 50
114.9999999996554
 51
180.0
  0
LINE
  5
2906
330
18
100
AcDbEntity
  8
1
  6
Continuous
100
AcDbLine
 10
101.5303463820659
 20
73.15421967360464
 30
0.0
 11
101.5303463820659
 21
72.94291818179249
 31
0.0
  0
LINE
  5
2907
330
18
100
AcDbEntity
  8
1
  6
Continuous
100
AcDbLine
 10
101.7098809084205
 20
71.92472728648373
 30
0.0
 11
101.5303463820659
 21
72.94291818179249
 31
0.0
  0
LINE
  5
2908
330
18
100
AcDbEntity
  8
1
  6
Continuous
100
AcDbLine
 10
105.3803465208068
 20
74.32918490476048
 30
0.0
 11
105.3803465208067
 21
75.47918510900484
 31
0.0
  0
ARC
  5
2909
330
18
100
AcDbEntity
  8
1
  6
Continuous
100
AcDbCircle
 10
105.6788697695848
 20
75.48066203640323
 30
0.0
 40
0.2985269022644518
100
AcDbArc
 50
89.70425200092051
 51
180.2834654134869
  0
ARC
  5
290B
330
18
100
AcDbEntity
  8
1
  6
Continuous
100
AcDbCircle
 10
123.4303474222599
 20
73.15421967360624
 30
0.0
 40
0.6000000284996462
100
AcDbArc
 50
359.9999999998314
 51
65.00000000030954
  0
LINE
  5
290C
330
18
100
AcDbEntity
  8
1
  6
Continuous
100
AcDbLine
 10
124.0303474507586
 20
72.94291818179249
 30
0.0
 11
124.0303474507586
 21
73.15421967360464
 31
0.0
  0
LINE
  5
290D
330
18
100
AcDbEntity
  8
1
  6
Continuous
100
AcDbLine
 10
124.0303474507541
 20
72.94291818179456
 30
0.0
 11
123.8512203783569
 21
71.92703807270709
 31
0.0
  0
LINE
  5
290F
330
18
100
AcDbEntity
  8
1
  6
Continuous
100
AcDbLine
 10
123.6839183913452
 20
73.69800437165657
 30
0.0
 11
122.3303473700129
 21
74.32918490476048
 31
0.0
  0
LINE
  5
2910
330
18
100
AcDbEntity
  8
1
  6
Continuous
100
AcDbLine
 10
120.180347223769
 20
75.47918510900484
 30
0.0
 11
120.1803472237691
 21
74.32918490476048
 31
0.0
  0
ARC
  5
2911
330
18
100
AcDbEntity
  8
1
  6
Continuous
100
AcDbCircle
 10
119.8818239593498
 20
75.48066202054602
 30
0.0
 40
0.2985269178267483
100
AcDbArc
 50
359.7165376447758
 51
90.29573702596788
  0
LINE
  5
2914
330
18
100
AcDbEntity
  8
1
  6
Continuous
100
AcDbLine
 10
100.4055890121401
 20
60.92918425637373
 30
0.0
 11
125.1551048206807
 21
60.92918425637373
 31
0.0
  0
ARC
  5
291A
330
18
100
AcDbEntity
  8
1
  6
Continuous
100
AcDbCircle
 10
112.7803469164123
 20
150.9315879864882
 30
0.0
 40
97.50240408634514
100
AcDbArc
 50
261.7869992752602
 51
278.2130007247398
  0
ARC
  5
291B
330
18
100
AcDbEntity
  8
1
  6
Continuous
100
AcDbCircle
 10
112.7803469164123
 20
150.931587986489
 30
0.0
 40
95.50240399135134
100
AcDbArc
 50
261.7869992752602
 51
278.2130007247398
  0
LINE
  5
291C
330
18
100
AcDbEntity
  8
1
  6
Continuous
100
AcDbLine
 10
94.7803460614582
 20
64.92918444636353
 30
0.0
 11
130.7803477713664
 21
64.92918444636348
 31
0.0
  0
ARC
  5
291D
330
18
100
AcDbEntity
  8
1
  6
Continuous
100
AcDbCircle
 10
112.7803469159992
 20
-6937.883383684658
 30
0.0
 40
7004.915498409913
100
AcDbArc
 50
89.87071423436637
 51
90.12928576562712
  0
LINE
  5
291E
330
18
100
AcDbEntity
  8
1
  6
Continuous
100
AcDbLine
 10
100.3803458027564
 20
44.4291840850405
 30
0.0
 11
100.3803458027564
 21
54.2208917063029
 31
0.0
  0
LINE
  5
291F
330
18
100
AcDbEntity
  8
1
  6
Continuous
100
AcDbLine
 10
100.3803463274439
 20
56.2376116547241
 30
0.0
 11
100.3803463274439
 21
64.92918444636348
 31
0.0
  0
LINE
  5
2920
330
18
100
AcDbEntity
  8
1
  6
Continuous
100
AcDbLine
 10
96.28034613270436
 20
57.39841561510822
 30
0.0
 11
96.28034613270436
 21
64.22918441311527
 31
0.0
  0
LINE
  5
2921
330
18
100
AcDbEntity
  8
1
  6
Continuous
100
AcDbLine
 10
98.28034622769928
 20
57.39841561510822
 30
0.0
 11
98.28034622769928
 21
64.22918441311527
 31
0.0
  0
LINE
  5
2922
330
18
100
AcDbEntity
  8
1
  6
Continuous
100
AcDbLine
 10
100.3803463274439
 20
62.75577134042118
 30
0.0
 11
100.4055890121401
 21
60.92918425637373
 31
0.0
  0
ARC
  5
2923
330
18
100
AcDbEntity
  8
1
  6
Continuous
100
AcDbCircle
 10
95.78034610895576
 20
66.51497095931119
 30
0.0
 40
1.000000047497572
100
AcDbArc
 50
148.1734836121901
 51
179.9999999999926
  0
LINE
  5
2924
330
18
100
AcDbEntity
  8
1
  6
Continuous
100
AcDbLine
 10
94.93069734086521
 20
67.04232005227038
 30
0.0
 11
95.07323929419179
 21
67.22207777407163
 31
0.0
  0
LINE
  5
2925
330
18
100
AcDbEntity
  8
1
  6
Continuous
100
AcDbLine
 10
96.97403268925279
 20
67.0142815417113
 30
0.0
 11
96.78034615645335
 21
67.00568198155344
 31
0.0
  0
LINE
  5
2926
330
18
100
AcDbEntity
  8
1
  6
Continuous
100
AcDbLine
 10
96.28034613270436
 20
64.22918441311527
 30
0.0
 11
98.28034622769928
 21
64.22918441311527
 31
0.0
  0
LINE
  5
2927
330
18
100
AcDbEntity
  8
1
  6
Continuous
100
AcDbLine
 10
94.7803460614582
 20
64.92918444636353
 30
0.0
 11
94.7803460614582
 21
66.51497095931126
 31
0.0
  0
ARC
  5
2928
330
18
100
AcDbEntity
  8
1
  6
Continuous
100
AcDbCircle
 10
95.55545609662273
 20
88.75229045127241
 30
0.0
 40
21.78103816408254
100
AcDbArc
 50
269.085895070614
 51
273.2237853645575
  0
ARC
  5
2929
330
18
100
AcDbEntity
  8
1
  6
Continuous
100
AcDbCircle
 10
95.19288716901952
 20
68.23134715283686
 30
0.0
 40
1.257413411004982
100
AcDbArc
 50
258.5564217606988
 51
270.6874273312496
  0
ARC
  5
292A
330
18
100
AcDbEntity
  8
1
  6
Continuous
100
AcDbCircle
 10
94.94853489097884
 20
67.02401252120046
 30
0.0
 40
0.0255997669687548
100
AcDbArc
 50
162.8670021680341
 51
258.4580443615306
  0
LINE
  5
292B
330
18
100
AcDbEntity
  8
1
  6
Continuous
100
AcDbLine
 10
96.28034613270436
 20
62.92918435136864
 30
0.0
 11
98.28034622769928
 21
62.92918435136864
 31
0.0
  0
ARC
  5
292C
330
18
100
AcDbEntity
  8
1
  6
Continuous
100
AcDbCircle
 10
99.28034627519672
 20
57.39841561510822
 30
0.0
 40
3.000000142492353
100
AcDbArc
 50
180.0000000000007
 51
261.7869992753456
  0
ARC
  5
292D
330
18
100
AcDbEntity
  8
1
  6
Continuous
100
AcDbCircle
 10
99.28034627519672
 20
57.39841561510822
 30
0.0
 40
1.000000047497457
100
AcDbArc
 50
180.0000000000016
 51
261.7869992755365
  0
LINE
  5
292E
330
18
100
AcDbEntity
  8
1
  6
Continuous
100
AcDbLine
 10
119.5303472370201
 20
39.77918363327239
 30
0.0
 11
118.9177247079279
 21
39.27908360952363
 31
0.0
  0
LINE
  5
292F
330
18
100
AcDbEntity
  8
1
  6
Continuous
100
AcDbLine
 10
106.6428466248966
 20
39.27918360952367
 30
0.0
 11
106.0303465958045
 21
39.77918363327239
 31
0.0
  0
LINE
  5
2930
330
18
100
AcDbEntity
  8
1
  6
Continuous
100
AcDbLine
 10
123.1789597360593
 20
42.42918337767084
 30
0.0
 11
102.3817340085165
 21
42.42918337767082
 31
0.0
  0
ARC
  5
2933
330
18
100
AcDbEntity
  8
1
  6
Continuous
100
AcDbCircle
 10
102.3803475384966
 20
44.42918463284809
 30
0.0
 40
2.00000173574049
100
AcDbArc
 50
180.0000156935171
 51
270.0397194089923
  0
LINE
  5
2945
330
18
100
AcDbEntity
  8
1
  6
Continuous
100
AcDbLine
 10
116.7803471064021
 20
41.42918256723389
 30
0.0
 11
116.7803471064021
 21
42.42918337767082
 31
0.0
  0
LINE
  5
2946
330
18
100
AcDbEntity
  8
1
  6
Continuous
100
AcDbLine
 10
115.696251717275
 20
41.42918256723389
 30
0.0
 11
115.6962517172751
 21
42.42918337767082
 31
0.0
  0
LINE
  5
2947
330
18
100
AcDbEntity
  8
1
  6
Continuous
100
AcDbLine
 10
119.5303472370201
 20
40.47918366652061
 30
0.0
 11
119.5303472370201
 21
39.77918363327239
 31
0.0
  0
LINE
  5
2949
330
18
100
AcDbEntity
  8
1
  6
Continuous
100
AcDbLine
 10
119.2303471272518
 20
40.92918368789447
 30
0.0
 11
119.2303471272518
 21
40.77918368076978
 31
0.0
  0
LINE
  5
294A
330
18
100
AcDbEntity
  8
1
  6
Continuous
100
AcDbLine
 10
119.0105686996319
 20
40.77918368074461
 30
0.0
 11
119.0105686996319
 21
40.92918368789447
 31
0.0
  0
LINE
  5
294B
330
18
100
AcDbEntity
  8
1
  6
Continuous
100
AcDbLine
 10
118.6260323338842
 20
40.77918368074437
 30
0.0
 11
118.6260323338842
 21
40.92918368789447
 31
0.0
  0
LINE
  5
294C
330
18
100
AcDbEntity
  8
1
  6
Continuous
100
AcDbLine
 10
117.3411858041515
 20
40.77918368074493
 30
0.0
 11
117.3411858041515
 21
40.92918368789447
 31
0.0
  0
LINE
  5
294D
330
18
100
AcDbEntity
  8
1
  6
Continuous
100
AcDbLine
 10
118.0638777747865
 20
40.77918368074437
 30
0.0
 11
118.0638777747865
 21
40.92918368789447
 31
0.0
  0
LINE
  5
294E
330
18
100
AcDbEntity
  8
1
  6
Continuous
100
AcDbLine
 10
115.5303470470303
 20
41.12918255298467
 30
0.0
 11
115.5303470470303
 21
40.92918368789447
 31
0.0
  0
LINE
  5
294F
330
18
100
AcDbEntity
  8
1
  6
Continuous
100
AcDbLine
 10
116.4799150518093
 20
40.77918368074493
 30
0.0
 11
116.4799150518093
 21
40.92918368789447
 31
0.0
  0
LINE
  5
2950
330
18
100
AcDbEntity
  8
1
  6
Continuous
100
AcDbLine
 10
114.4708200436684
 20
40.77918368076985
 30
0.0
 11
114.4708200436684
 21
40.92918368789447
 31
0.0
  0
LINE
  5
2951
330
18
100
AcDbEntity
  8
1
  6
Continuous
100
AcDbLine
 10
115.5062347937444
 20
40.77918368074506
 30
0.0
 11
115.5062347937444
 21
40.92918368789447
 31
0.0
  0
LINE
  5
2952
330
18
100
AcDbEntity
  8
1
  6
Continuous
100
AcDbLine
 10
112.218192357314
 20
40.77918368076972
 30
0.0
 11
112.218192357314
 21
40.92918368789447
 31
0.0
  0
LINE
  5
2953
330
18
100
AcDbEntity
  8
1
  6
Continuous
100
AcDbLine
 10
112.431723928863
 20
40.77918368076985
 30
0.0
 11
112.431723928863
 21
40.92918368789447
 31
0.0
  0
LINE
  5
2954
330
18
100
AcDbEntity
  8
1
  6
Continuous
100
AcDbLine
 10
113.3425014755106
 20
40.77918368076961
 30
0.0
 11
113.3425014755106
 21
40.92918368789447
 31
0.0
  0
ARC
  5
2955
330
18
100
AcDbEntity
  8
1
  6
Continuous
100
AcDbCircle
 10
116.4803470921528
 20
41.42918256723389
 30
0.0
 40
0.3000000142492318
100
AcDbArc
 50
270.0
 51
0.0000000000008283
  0
LINE
  5
2956
330
18
100
AcDbEntity
  8
1
  6
Continuous
100
AcDbLine
 10
113.1289699039616
 20
40.77918368076985
 30
0.0
 11
113.1289699039616
 21
40.92918368789447
 31
0.0
  0
LINE
  5
2957
330
18
100
AcDbEntity
  8
1
  6
Continuous
100
AcDbLine
 10
113.1289699039616
 20
40.92918368789447
 30
0.0
 11
119.2303471272518
 21
40.92918368789447
 31
0.0
  0
LINE
  5
2958
330
18
100
AcDbEntity
  8
2
  6
Continuous
100
AcDbLine
 10
115.2598470470303
 20
41.12918255298467
 30
0.0
 11
115.2598470470303
 21
40.92918368789447
 31
0.0
  0
ARC
  5
2959
330
18
100
AcDbEntity
  8
1
  6
Continuous
100
AcDbCircle
 10
114.9440089900822
 20
41.41549110640073
 30
0.0
 40
0.7523673150226637
100
AcDbArc
 50
345.420287462433
 51
1.042717046857184
  0
ARC
  5
295A
330
18
100
AcDbEntity
  8
1
  6
Continuous
100
AcDbCircle
 10
115.552819285401
 20
41.2411168766061
 30
0.0
 40
0.120270717721409
100
AcDbArc
 50
291.4579319735588
 51
352.8274708153939
  0
ARC
  5
295B
330
18
100
AcDbEntity
  8
1
  6
Continuous
100
AcDbCircle
 10
119.2303472227708
 20
40.47918366652061
 30
0.0
 40
0.3000000142492368
100
AcDbArc
 50
0.0000000000032709
 51
90.00000000000005
  0
LINE
  5
295C
330
18
100
AcDbEntity
  8
1
  6
Continuous
100
AcDbLine
 10
109.8644421155496
 20
41.42918256723389
 30
0.0
 11
109.8644421155497
 21
42.42918337767082
 31
0.0
  0
LINE
  5
295D
330
18
100
AcDbEntity
  8
1
  6
Continuous
100
AcDbLine
 10
108.7803467264225
 20
41.42918256723389
 30
0.0
 11
108.7803467264225
 21
42.42918337767082
 31
0.0
  0
LINE
  5
295E
330
18
100
AcDbEntity
  8
1
  6
Continuous
100
AcDbLine
 10
111.0898737891564
 20
40.77918368076985
 30
0.0
 11
111.0898737891564
 21
40.92918368789447
 31
0.0
  0
LINE
  5
295F
330
18
100
AcDbEntity
  8
1
  6
Continuous
100
AcDbLine
 10
106.9346614989403
 20
40.77918368074517
 30
0.0
 11
106.9346614989403
 21
40.92918368789447
 31
0.0
  0
LINE
  5
2960
330
18
100
AcDbEntity
  8
1
  6
Continuous
100
AcDbLine
 10
106.5501251331924
 20
40.77918368074506
 30
0.0
 11
106.5501251331924
 21
40.92918368789447
 31
0.0
  0
LINE
  5
2961
330
18
100
AcDbEntity
  8
1
  6
Continuous
100
AcDbLine
 10
110.0303467857943
 20
40.92918368789447
 30
0.0
 11
110.0303467857943
 21
41.12918255298462
 31
0.0
  0
LINE
  5
2962
330
18
100
AcDbEntity
  8
1
  6
Continuous
100
AcDbLine
 10
108.219508028673
 20
40.77918368074437
 30
0.0
 11
108.219508028673
 21
40.92918368789447
 31
0.0
  0
LINE
  5
2963
330
18
100
AcDbEntity
  8
1
  6
Continuous
100
AcDbLine
 10
107.4968160580385
 20
40.77918368074517
 30
0.0
 11
107.4968160580385
 21
40.92918368789447
 31
0.0
  0
LINE
  5
2964
330
18
100
AcDbEntity
  8
1
  6
Continuous
100
AcDbLine
 10
109.0807787810154
 20
40.77918368074431
 30
0.0
 11
109.0807787810154
 21
40.92918368789447
 31
0.0
  0
LINE
  5
2965
330
18
100
AcDbEntity
  8
1
  6
Continuous
100
AcDbLine
 10
110.0544590390805
 20
40.77918368074466
 30
0.0
 11
110.0544590390805
 21
40.92918368789447
 31
0.0
  0
LINE
  5
2966
330
18
100
AcDbEntity
  8
1
  6
Continuous
100
AcDbLine
 10
106.3303467055727
 20
40.77918368076978
 30
0.0
 11
106.3303467055727
 21
40.92918368789447
 31
0.0
  0
LINE
  5
2967
330
18
100
AcDbEntity
  8
2
  6
Continuous
100
AcDbLine
 10
110.3008467857943
 20
41.12918255298467
 30
0.0
 11
110.3008467857943
 21
40.92918368789447
 31
0.0
  0
ARC
  5
2969
330
18
100
AcDbEntity
  8
1
  6
Continuous
100
AcDbCircle
 10
110.6166848427424
 20
41.41549110640073
 30
0.0
 40
0.7523673150226637
100
AcDbArc
 50
178.9572829531428
 51
194.5797125375669
  0
ARC
  5
296A
330
18
100
AcDbEntity
  8
1
  6
Continuous
100
AcDbCircle
 10
110.0078745474236
 20
41.2411168766061
 30
0.0
 40
0.120270717721409
100
AcDbArc
 50
187.1725291846053
 51
248.5420680264411
  0
ARC
  5
296B
330
18
100
AcDbEntity
  8
1
  6
Continuous
100
AcDbCircle
 10
109.0803467406717
 20
41.42918256723389
 30
0.0
 40
0.3000000142492318
100
AcDbArc
 50
179.9999999999991
 51
270.0044711246149
  0
LINE
  5
296C
330
18
100
AcDbEntity
  8
1
  6
Continuous
100
AcDbLine
 10
106.3303467055727
 20
40.92918368789447
 30
0.0
 11
112.431723928863
 21
40.92918368789447
 31
0.0
  0
LINE
  5
296D
330
18
100
AcDbEntity
  8
1
  6
Continuous
100
AcDbLine
 10
119.2303472227708
 20
40.77918368076961
 30
0.0
 11
106.3303466100537
 21
40.77918368076961
 31
0.0
  0
LINE
  5
296E
330
18
100
AcDbEntity
  8
1
  6
Continuous
100
AcDbLine
 10
109.0803701514265
 20
41.12918255389228
 30
0.0
 11
116.4803656599342
 21
41.12918255389228
 31
0.0
  0
LINE
  5
2970
330
18
100
AcDbEntity
  8
1
  6
Continuous
100
AcDbLine
 10
106.0303465958045
 20
39.77918363327239
 30
0.0
 11
106.0303465958045
 21
40.47918366652061
 31
0.0
  0
ARC
  5
2972
330
18
100
AcDbEntity
  8
1
  6
Continuous
100
AcDbCircle
 10
106.3303466100537
 20
40.47918366652061
 30
0.0
 40
0.3000000142492368
100
AcDbArc
 50
90.00000000000005
 51
179.9999999999974
  0
LINE
  5
2973
330
18
100
AcDbEntity
  8
1
  6
Continuous
100
AcDbLine
 10
119.5303472370201
 20
39.77918363327239
 30
0.0
 11
106.0303465958045
 21
39.77918363327239
 31
0.0
  0
ARC
  5
2974
330
18
100
AcDbEntity
  8
1
  6
Continuous
100
AcDbCircle
 10
115.2298308328822
 20
35.52469658799896
 30
0.0
 40
0.2467168486443193
100
AcDbArc
 50
275.6620083796953
 51
332.801850220685
  0
ARC
  5
2975
330
18
100
AcDbEntity
  8
1
  6
Continuous
100
AcDbCircle
 10
114.837311001536
 20
35.76340960309426
 30
0.0
 40
0.7057123538415682
100
AcDbArc
 50
330.12895997612
 51
1.280762247219828
  0
LINE
  5
2976
330
18
100
AcDbEntity
  8
1
  6
Continuous
100
AcDbLine
 10
113.8303469662846
 20
35.27918341953386
 30
0.0
 11
117.7279968822914
 21
35.27918341953386
 31
0.0
  0
ARC
  5
2977
330
18
100
AcDbEntity
  8
1
  6
Continuous
100
AcDbCircle
 10
117.7610131611181
 20
35.8243928655591
 30
0.0
 40
0.5462082155252018
100
AcDbArc
 50
266.5345682444504
 51
355.2522210609295
  0
ARC
  5
2978
330
18
100
AcDbEntity
  8
1
  6
Continuous
100
AcDbCircle
 10
113.8303469662846
 20
35.5791834337831
 30
0.0
 40
0.3000000142492212
100
AcDbArc
 50
180.0
 51
270.0000000000065
  0
ARC
  5
2979
330
18
100
AcDbEntity
  8
1
  6
Continuous
100
AcDbCircle
 10
111.7303468665399
 20
35.5791834337831
 30
0.0
 40
0.3000000142492212
100
AcDbArc
 50
270.0
 51
0.0
  0
LINE
  5
297A
330
18
100
AcDbEntity
  8
1
  6
Continuous
100
AcDbLine
 10
113.5303469520354
 20
37.77918353827749
 30
0.0
 11
112.0303468807892
 21
37.77918353827749
 31
0.0
  0
LINE
  5
297B
330
18
100
AcDbEntity
  8
1
  6
Continuous
100
AcDbLine
 10
112.0303468807892
 20
35.5791834337831
 30
0.0
 11
112.0303468807892
 21
37.77918353827749
 31
0.0
  0
LINE
  5
297C
330
18
100
AcDbEntity
  8
1
  6
Continuous
100
AcDbLine
 10
118.3053471788357
 20
35.7791834432826
 30
0.0
 11
118.3053470344982
 21
39.27918360952367
 31
0.0
  0
LINE
  5
297D
330
18
100
AcDbEntity
  8
1
  6
Continuous
100
AcDbLine
 10
115.542847047624
 20
35.7791834432826
 30
0.0
 11
115.542847047624
 21
39.27918360952367
 31
0.0
  0
LINE
  5
297E
330
18
100
AcDbEntity
  8
1
  6
Continuous
100
AcDbLine
 10
113.5303469520354
 20
35.5791834337831
 30
0.0
 11
113.5303469520354
 21
37.77918353827749
 31
0.0
  0
ARC
  5
297F
330
18
100
AcDbEntity
  8
1
  6
Continuous
100
AcDbCircle
 10
107.7996806717064
 20
35.8243928655591
 30
0.0
 40
0.5462082155252018
100
AcDbArc
 50
184.7477789390703
 51
273.4654317555495
  0
ARC
  5
2980
330
18
100
AcDbEntity
  8
1
  6
Continuous
100
AcDbCircle
 10
110.7233828312886
 20
35.76340960309426
 30
0.0
 40
0.7057123538415682
100
AcDbArc
 50
178.7192377527801
 51
209.8710400238799
  0
ARC
  5
2981
330
18
100
AcDbEntity
  8
1
  6
Continuous
100
AcDbCircle
 10
110.3308629999423
 20
35.52469658799896
 30
0.0
 40
0.2467168486443193
100
AcDbArc
 50
207.1981497793148
 51
264.3379916203047
  0
LINE
  5
2982
330
18
100
AcDbEntity
  8
1
  6
Continuous
100
AcDbLine
 10
110.0178467852006
 20
35.7791834432826
 30
0.0
 11
110.0178467852006
 21
39.27918360952367
 31
0.0
  0
LINE
  5
2983
330
18
100
AcDbEntity
  8
1
  6
Continuous
100
AcDbLine
 10
107.2553466539889
 20
35.7791834432826
 30
0.0
 11
107.2553467983264
 21
39.27918360952367
 31
0.0
  0
LINE
  5
2984
330
18
100
AcDbEntity
  8
1
  6
Continuous
100
AcDbLine
 10
111.7303468665399
 20
35.27918341953386
 30
0.0
 11
107.8326969505332
 21
35.27918341953386
 31
0.0
  0
LINE
  5
2985
330
18
100
AcDbEntity
  8
1
  6
Continuous
100
AcDbLine
 10
118.9178472079278
 20
39.27918360952367
 30
0.0
 11
106.6428466248966
 21
39.27918360952367
 31
0.0
  0
LINE
  5
2986
330
18
100
AcDbEntity
  8
1
  6
Continuous
100
AcDbLine
 10
125.1803474612562
 20
54.22939554659314
 30
0.0
 11
125.1803474612562
 21
44.43057110312785
 31
0.0
  0
LINE
  5
2987
330
18
100
AcDbEntity
  8
1
  6
Continuous
100
AcDbLine
 10
127.2803476051252
 20
64.22918441311536
 30
0.0
 11
127.2803476051253
 21
57.39841561510822
 31
0.0
  0
LINE
  5
2988
330
18
100
AcDbEntity
  8
1
  6
Continuous
100
AcDbLine
 10
129.2803477001202
 20
64.22918441311527
 30
0.0
 11
129.2803477001202
 21
57.39841561510822
 31
0.0
  0
LINE
  5
2989
330
18
100
AcDbEntity
  8
1
  6
Continuous
100
AcDbLine
 10
125.1803475053807
 20
64.92918444636342
 30
0.0
 11
125.1803475053807
 21
56.2376116547241
 31
0.0
  0
LINE
  5
298A
330
18
100
AcDbEntity
  8
1
  6
Continuous
100
AcDbLine
 10
125.1551048206807
 20
60.92918425637373
 30
0.0
 11
125.1803475053807
 21
62.75577134055902
 31
0.0
  0
LINE
  5
298B
330
18
100
AcDbEntity
  8
1
  6
Continuous
100
AcDbLine
 10
130.4874545386429
 20
67.22207777408181
 30
0.0
 11
130.6299964919727
 21
67.04232005227948
 31
0.0
  0
LINE
  5
298C
330
18
100
AcDbEntity
  8
1
  6
Continuous
100
AcDbLine
 10
128.7803476763714
 20
67.00568198156111
 30
0.0
 11
128.5866611435719
 21
67.01428154171805
 31
0.0
  0
LINE
  5
298D
330
18
100
AcDbEntity
  8
1
  6
Continuous
100
AcDbLine
 10
129.2803477001202
 20
64.22918441311527
 30
0.0
 11
127.2803476051252
 21
64.22918441311536
 31
0.0
  0
LINE
  5
298E
330
18
100
AcDbEntity
  8
1
  6
Continuous
100
AcDbLine
 10
130.7803477713664
 20
64.92918444636348
 30
0.0
 11
130.7803477713664
 21
66.51497095931126
 31
0.0
  0
ARC
  5
298F
330
18
100
AcDbEntity
  8
1
  6
Continuous
100
AcDbCircle
 10
130.3677977210288
 20
68.2313046199324
 30
0.0
 40
1.257413411004982
100
AcDbArc
 50
269.3124341065849
 51
281.4434396771325
  0
ARC
  5
2990
330
18
100
AcDbEntity
  8
1
  6
Continuous
100
AcDbCircle
 10
130.0052784205788
 20
88.75224879513224
 30
0.0
 40
21.78103816408254
100
AcDbArc
 50
266.7760760732757
 51
270.9139663672175
  0
ARC
  5
2991
330
18
100
AcDbEntity
  8
1
  6
Continuous
100
AcDbCircle
 10
129.7803226286292
 20
66.51496380446542
 30
0.0
 40
1.000025142762739
100
AcDbArc
 50
0.000409932161218
 51
31.82610645563221
  0
ARC
  5
2992
330
18
100
AcDbEntity
  8
1
  6
Continuous
100
AcDbCircle
 10
130.6121470792917
 20
67.02396939736627
 30
0.0
 40
0.0255997669687548
100
AcDbArc
 50
281.5418170763054
 51
17.13285926979963
  0
LINE
  5
2993
330
18
100
AcDbEntity
  8
1
  6
Continuous
100
AcDbLine
 10
129.2803477001202
 20
62.92918435136864
 30
0.0
 11
127.2803476051253
 21
62.92918435136864
 31
0.0
  0
ARC
  5
2994
330
18
100
AcDbEntity
  8
1
  6
Continuous
100
AcDbCircle
 10
126.2803475576279
 20
57.39841561510822
 30
0.0
 40
1.000000047497442
100
AcDbArc
 50
278.2130007244634
 51
0.0
  0
ARC
  5
2995
330
18
100
AcDbEntity
  8
1
  6
Continuous
100
AcDbCircle
 10
126.2803475576279
 20
57.39841561510822
 30
0.0
 40
3.000000142492365
100
AcDbArc
 50
278.2130007246543
 51
0.0
  0
ARC
  5
2996
330
18
100
AcDbEntity
  8
1
  6
Continuous
100
AcDbCircle
 10
123.180346206079
 20
44.42918463284809
 30
0.0
 40
2.000001735740485
100
AcDbArc
 50
269.9602805910141
 51
0.0397194164347866
  0
LINE
  5
2B63
330
18
100
AcDbEntity
  8
1
  6
Continuous
100
AcDbLine
 10
263.6896733808864
 20
148.8635029226655
 30
0.0
 11
263.6896733808864
 21
145.9767516896121
 31
0.0
  0
LINE
  5
2B64
330
18
100
AcDbEntity
  8
1
  6
Continuous
100
AcDbLine
 10
268.6896736183737
 20
145.9767519396121
 30
0.0
 11
268.6896736183737
 21
148.8635031726655
 31
0.0
  0
LINE
  5
2B6D
330
18
100
AcDbEntity
  8
1
  6
Continuous
100
AcDbLine
 10
263.6896735973928
 20
145.9767515646121
 30
0.0
 11
266.18967349963
 21
144.5333759480755
 31
0.0
  0
ARC
  5
2B6E
330
18
100
AcDbEntity
  8
1
  6
Continuous
100
AcDbCircle
 10
266.18967349963
 20
130.6201246331699
 30
0.0
 40
11.40000254148262
100
AcDbArc
 50
59.27721518493071
 51
120.7227869715314
  0
LINE
  5
2B75
330
18
100
AcDbEntity
  8
1
  6
Continuous
100
AcDbLine
 10
262.393816797104
 20
142.565695664936
 30
0.0
 11
262.3143259160248
 21
142.5656957470764
 31
0.0
  0
LINE
  5
2B81
330
18
100
AcDbEntity
  8
1
  6
Continuous
100
AcDbLine
 10
266.1896737161364
 20
144.5333760730754
 30
0.0
 11
268.6896736183737
 21
145.9767516896121
 31
0.0
  0
LINE
  5
2B8C
330
18
100
AcDbEntity
  8
1
  6
Continuous
100
AcDbLine
 10
266.1896732831237
 20
150.3068787892021
 30
0.0
 11
263.6896733808864
 21
148.8635031726655
 31
0.0
  0
LINE
  5
2B94
330
18
100
AcDbEntity
  8
1
  6
Continuous
100
AcDbLine
 10
268.6896734018673
 20
148.8635032976654
 30
0.0
 11
266.18967349963
 21
150.3068789142021
 31
0.0
  0
CIRCLE
  5
2C40
330
18
100
AcDbEntity
  8
1
  6
Continuous
100
AcDbCircle
 10
266.1896734996269
 20
147.4201992458094
 30
0.0
 40
5.000072052157786
  0
ARC
  5
2C41
330
18
100
AcDbEntity
  8
1
  6
Continuous
100
AcDbCircle
 10
266.18967349963
 20
126.4201264336923
 30
0.0
 40
12.40000058896833
100
AcDbArc
 50
180.0
 51
358.8224765161838
  0
LINE
  5
2C43
330
18
100
AcDbEntity
  8
1
  6
Continuous
100
AcDbLine
 10
260.365585009678
 20
140.4201275792195
 30
0.0
 11
255.7896737090662
 21
140.4201275792197
 31
0.0
  0
ARC
  5
2C47
330
18
100
AcDbEntity
  8
1
  6
Continuous
100
AcDbCircle
 10
255.8931181963113
 20
138.3062006683488
 30
0.0
 40
2.109050805868041
100
AcDbArc
 50
92.78949197905332
 51
176.9503030516911
  0
LINE
  5
2C49
330
18
100
AcDbEntity
  8
1
  6
Continuous
100
AcDbLine
 10
272.0085247757145
 20
140.4201275792195
 30
0.0
 11
276.5844360763263
 21
140.4201275792197
 31
0.0
  0
ARC
  5
2C4A
330
18
100
AcDbEntity
  8
1
  6
Continuous
100
AcDbCircle
 10
276.4809915890813
 20
138.3062006683488
 30
0.0
 40
2.109050805868041
100
AcDbArc
 50
3.049696948308853
 51
87.21050802094669
  0
LINE
  5
2C4B
330
18
100
AcDbEntity
  8
1
  6
Continuous
100
AcDbLine
 10
278.5870554816647
 20
117.9392783698423
 30
0.0
 11
278.5870554816647
 21
139.0958998855971
 31
0.0
  0
LINE
  5
2C4C
330
18
100
AcDbEntity
  8
1
  6
Continuous
100
AcDbLine
 10
270.5586845622089
 20
114.8153103239266
 30
0.0
 11
276.5696158484781
 21
114.8153103239266
 31
0.0
  0
ARC
  5
2C4E
330
18
100
AcDbEntity
  8
1
  6
Continuous
100
AcDbCircle
 10
261.9863626963819
 20
143.5159342842179
 30
0.0
 40
1.005242831810987
100
AcDbArc
 50
286.8723759455186
 51
3.553003076183486
  0
ARC
  5
2C4F
330
18
100
AcDbEntity
  8
1
  6
Continuous
100
AcDbCircle
 10
262.0549213269425
 20
143.5071485635833
 30
0.0
 40
1.00059167499393
100
AcDbArc
 50
286.9984356928816
 51
0.9910710894556759
  0
ARC
  5
2C50
330
18
100
AcDbEntity
  8
1
  6
Continuous
100
AcDbCircle
 10
266.1309593101181
 20
131.7379193166912
 30
0.0
 40
11.49275807632671
100
AcDbArc
 50
54.58648672380832
 51
70.18581169248239
  0
ARC
  5
2C51
330
18
100
AcDbEntity
  8
1
  6
Continuous
100
AcDbCircle
 10
266.183207722825
 20
131.4135757240209
 30
0.0
 40
11.80754261102097
100
AcDbArc
 50
55.11437634863558
 51
70.6474768560882
  0
ARC
  5
2C52
330
18
100
AcDbEntity
  8
1
  6
Continuous
100
AcDbCircle
 10
270.3877470890107
 20
143.5159342842179
 30
0.0
 40
1.005242831810987
100
AcDbArc
 50
176.7087220603611
 51
253.1276240544813
  0
ARC
  5
2C53
330
18
100
AcDbEntity
  8
1
  6
Continuous
100
AcDbCircle
 10
270.3191884584501
 20
143.5071485635833
 30
0.0
 40
1.00059167499393
100
AcDbArc
 50
179.2528721159887
 51
253.0015643071183
  0
LINE
  5
2C54
330
18
100
AcDbEntity
  8
1
  6
Continuous
100
AcDbLine
 10
269.9802929882886
 20
142.565695664936
 30
0.0
 11
270.0597838693677
 21
142.5656957470764
 31
0.0
  0
LINE
  5
2C55
330
18
100
AcDbEntity
  8
4
  6
CENTER
 48
0.2
100
AcDbLine
 10
258.1896014474691
 20
147.4201992458094
 30
0.0
 11
274.1897455517847
 21
147.4201992458094
 31
0.0
  0
ARC
  5
2C8D
330
18
100
AcDbEntity
  8
1
  6
Continuous
100
AcDbCircle
 10
34.73995219371727
 20
251.5034556257535
 30
0.0
 40
12.25000058184376
100
AcDbArc
 50
290.1530742569207
 51
339.8469257430778
  0
ARC
  5
2C8E
330
18
100
AcDbEntity
  8
1
  6
Continuous
100
AcDbCircle
 10
34.73995219371727
 20
251.5034556257535
 30
0.0
 40
11.25000058184376
100
AcDbArc
 50
291.0394697364657
 51
338.9605302635328
  0
ARC
  5
2C8F
330
18
100
AcDbEntity
  8
1
  6
Continuous
100
AcDbCircle
 10
34.73995219371727
 20
251.5034556257535
 30
0.0
 40
12.25000058184376
100
AcDbArc
 50
200.1530742571164
 51
249.846925743079
  0
ARC
  5
2C90
330
18
100
AcDbEntity
  8
1
  6
Continuous
100
AcDbCircle
 10
34.73995219371727
 20
251.5034556257535
 30
0.0
 40
11.25000058184376
100
AcDbArc
 50
201.0394697364671
 51
248.9605302635342
  0
LINE
  5
2C91
330
18
100
AcDbEntity
  8
1
  6
Continuous
100
AcDbLine
 10
38.960438148172
 20
240.0034550795328
 30
0.0
 11
30.51946623926256
 21
240.0034550795328
 31
0.0
  0
LINE
  5
2C92
330
18
100
AcDbEntity
  8
1
  6
Continuous
100
AcDbLine
 10
38.77882599973896
 20
241.0034550795328
 30
0.0
 11
30.70107838769581
 21
241.0034550795328
 31
0.0
  0
LINE
  5
2C93
330
18
100
AcDbEntity
  8
4
  6
CENTER
 48
0.2
100
AcDbLine
 10
20.23995164749658
 20
251.5034556257535
 30
0.0
 11
73.84963905162567
 21
251.5034556257535
 31
0.0
  0
LINE
  5
2C94
330
18
100
AcDbEntity
  8
1
  6
Continuous
100
AcDbLine
 10
70.86621616412253
 20
253.2593494341178
 30
0.0
 11
69.23995383237934
 21
254.8034557824951
 31
0.0
  0
LINE
  5
2C95
330
18
100
AcDbEntity
  8
1
  6
Continuous
100
AcDbLine
 10
67.23995373738805
 20
248.2034554690118
 30
0.0
 11
70.84963905162521
 21
251.5034556257535
 31
0.0
  0
LINE
  5
2C96
330
18
100
AcDbEntity
  8
1
  6
Continuous
100
AcDbLine
 10
30.51946623926301
 20
263.0034561719742
 30
0.0
 11
38.96043814817153
 21
263.0034561719742
 31
0.0
  0
ARC
  5
2C97
330
18
100
AcDbEntity
  8
1
  6
Continuous
100
AcDbCircle
 10
34.73995219371727
 20
251.5034556257535
 30
0.0
 40
11.25000058184379
100
AcDbArc
 50
21.03946973646715
 51
68.9605302635342
  0
ARC
  5
2C98
330
18
100
AcDbEntity
  8
1
  6
Continuous
100
AcDbCircle
 10
34.73995219371727
 20
251.5034556257535
 30
0.0
 40
12.25000058184376
100
AcDbArc
 50
110.1530742569209
 51
159.8469257430778
  0
LINE
  5
2C99
330
18
100
AcDbEntity
  8
1
  6
Continuous
100
AcDbLine
 10
23.23995164749657
 20
247.2829696712572
 30
0.0
 11
23.23995164749657
 21
255.7239415802078
 31
0.0
  0
LINE
  5
2C9A
330
18
100
AcDbEntity
  8
1
  6
Continuous
100
AcDbLine
 10
26.13994701670958
 20
249.353455523634
 30
0.0
 11
26.13994701670981
 21
253.653455727873
 31
0.0
  0
LINE
  5
2C9B
330
18
100
AcDbEntity
  8
1
  6
Continuous
100
AcDbLine
 10
31.13995202272644
 20
253.653455727873
 30
0.0
 11
31.13995202272644
 21
249.353455523634
 31
0.0
  0
LINE
  5
2C9C
330
18
100
AcDbEntity
  8
1
  6
Continuous
100
AcDbLine
 10
24.23995164749658
 20
247.464581819732
 30
0.0
 11
24.23995164749658
 21
255.5423294317749
 31
0.0
  0
ARC
  5
2C9D
330
18
100
AcDbEntity
  8
1
  6
Continuous
100
AcDbCircle
 10
28.63995190398282
 20
249.353455523634
 30
0.0
 40
2.500000118743622
100
AcDbArc
 50
180.0
 51
0.0
  0
LINE
  5
2C9E
330
18
100
AcDbEntity
  8
1
  6
Continuous
100
AcDbLine
 10
30.70107838769581
 20
262.0034561719742
 30
0.0
 11
38.77882599973871
 21
262.0034561719742
 31
0.0
  0
ARC
  5
2C9F
330
18
100
AcDbEntity
  8
1
  6
Continuous
100
AcDbCircle
 10
28.63995190398282
 20
253.653455727873
 30
0.0
 40
2.500000118743621
100
AcDbArc
 50
0.0
 51
180.0
  0
ARC
  5
2CA0
330
18
100
AcDbEntity
  8
1
  6
Continuous
100
AcDbCircle
 10
34.73995219371727
 20
251.5034556257535
 30
0.0
 40
11.25000058184376
100
AcDbArc
 50
111.0394697364657
 51
158.9605302635328
  0
ARC
  5
2CA1
330
18
100
AcDbEntity
  8
1
  6
Continuous
100
AcDbCircle
 10
34.73995219371727
 20
251.5034556257535
 30
0.0
 40
12.25000058184379
100
AcDbArc
 50
20.15307425692216
 51
69.84692574307906
  0
LINE
  5
2CA3
330
18
100
AcDbEntity
  8
1
  6
Continuous
100
AcDbLine
 10
69.23995383237934
 20
254.8034557824951
 30
0.0
 11
49.73995290617903
 21
254.8034557824951
 31
0.0
  0
LINE
  5
2CA4
330
18
100
AcDbEntity
  8
1
  6
Continuous
100
AcDbLine
 10
46.23995273993796
 20
255.7239415802082
 30
0.0
 11
46.23995273993796
 21
247.2829696712988
 31
0.0
  0
LINE
  5
2CA5
330
18
100
AcDbEntity
  8
1
  6
Continuous
100
AcDbLine
 10
45.23995273993796
 20
255.5423294317749
 30
0.0
 11
45.23995273993796
 21
247.4645818197322
 31
0.0
  0
LINE
  5
2CA6
330
18
100
AcDbEntity
  8
1
  6
Continuous
100
AcDbLine
 10
46.20108061141244
 20
247.1785221409155
 30
0.0
 11
49.15975484393289
 21
246.6977375781311
 31
0.0
  0
ARC
  5
2CA7
330
18
100
AcDbEntity
  8
1
  6
Continuous
100
AcDbCircle
 10
49.23995288243031
 20
247.1912639688844
 30
0.0
 40
0.5000000237487244
100
AcDbArc
 50
260.7701137562941
 51
0.0
  0
LINE
  5
2CA8
330
18
100
AcDbEntity
  8
1
  6
Continuous
100
AcDbLine
 10
49.73995290617903
 20
247.1912639688844
 30
0.0
 11
49.73995290617903
 21
248.2034554690119
 31
0.0
  0
LINE
  5
2CA9
330
18
100
AcDbEntity
  8
1
  6
Continuous
100
AcDbLine
 10
49.73995290617903
 20
248.2034554690119
 30
0.0
 11
67.23995373738805
 21
248.2034554690118
 31
0.0
  0
LINE
  5
2CAA
330
18
100
AcDbEntity
  8
1
  6
Continuous
100
AcDbLine
 10
49.15975484393289
 20
256.3091736733758
 30
0.0
 11
46.20108061141246
 21
255.8283891105915
 31
0.0
  0
LINE
  5
2CAB
330
18
100
AcDbEntity
  8
1
  6
Continuous
100
AcDbLine
 10
49.73995290617903
 20
254.8034557824951
 30
0.0
 11
49.73995290617903
 21
255.8156472826228
 31
0.0
  0
ARC
  5
2CAC
330
18
100
AcDbEntity
  8
1
  6
Continuous
100
AcDbCircle
 10
49.23995288243031
 20
255.8156472826226
 30
0.0
 40
0.5000000237487257
100
AcDbArc
 50
0.0000000000260551
 51
99.22988624373331
  0
ARC
  5
2CB4
330
18
100
AcDbEntity
  8
1
  6
Continuous
100
AcDbCircle
 10
70.03995387037729
 20
252.3891248891134
 30
0.0
 40
1.200000056996928
100
AcDbArc
 50
312.4337781267602
 51
46.48441343900508
  0
LINE
  5
2CD0
330
18
100
AcDbEntity
  8
1
  6
Continuous
100
AcDbLine
 10
31.42501112669913
 20
155.0201282921199
 30
0.0
 11
31.42501112669913
 21
171.285231731558
 31
0.0
  0
LINE
  5
2CD1
330
18
100
AcDbEntity
  8
1
  6
Continuous
100
AcDbLine
 10
31.22501149866718
 20
155.0201282921199
 30
0.0
 11
31.22501149866718
 21
172.1654036678037
 31
0.0
  0
LINE
  5
2CD2
330
18
100
AcDbEntity
  8
1
  6
Continuous
100
AcDbLine
 10
32.92501119793996
 20
155.9640221338124
 30
0.0
 11
32.92501119794008
 21
178.8762356283642
 31
0.0
  0
LINE
  5
2CD3
330
18
100
AcDbEntity
  8
1
  6
Continuous
100
AcDbLine
 10
29.22501143479554
 20
155.520304733688
 30
0.0
 11
29.22501143479554
 21
179.3203058641676
 31
0.0
  0
LINE
  5
2CD4
330
18
100
AcDbEntity
  8
1
  6
Continuous
100
AcDbLine
 10
31.22501149866718
 20
178.8762356283641
 30
0.0
 11
31.22501149866718
 21
179.8201294700566
 31
0.0
  0
LINE
  5
2CD5
330
18
100
AcDbEntity
  8
1
  6
Continuous
100
AcDbLine
 10
31.42501112669686
 20
178.8762356283641
 30
0.0
 11
31.42501112669686
 21
179.8201294700566
 31
0.0
  0
LINE
  5
2CD6
330
18
100
AcDbEntity
  8
1
  6
Continuous
100
AcDbLine
 10
38.56801649593375
 20
179.8201294700566
 30
0.0
 11
31.42501112669686
 21
179.8201294700566
 31
0.0
  0
ARC
  5
2CD7
330
18
100
AcDbEntity
  8
1
  6
Continuous
100
AcDbCircle
 10
29.72501142742101
 20
179.3201294463079
 30
0.0
 40
0.5000000237487347
100
AcDbArc
 50
90.00000000000005
 51
179.9833661577754
  0
LINE
  5
2CD8
330
18
100
AcDbEntity
  8
1
  6
Continuous
100
AcDbLine
 10
31.22501149866718
 20
179.8201294700566
 30
0.0
 11
29.72501142742101
 21
179.8201294700566
 31
0.0
  0
LINE
  5
2CD9
330
18
100
AcDbEntity
  8
1
  6
Continuous
100
AcDbLine
 10
31.22501149866718
 20
178.8762356283641
 30
0.0
 11
32.92501119794008
 21
178.8762356283642
 31
0.0
  0
LINE
  5
2CDA
330
18
100
AcDbEntity
  8
1
  6
Continuous
100
AcDbLine
 10
31.22501149866718
 20
172.1654036678037
 30
0.0
 11
32.8250115746631
 21
172.1654036678037
 31
0.0
  0
LINE
  5
2CDB
330
18
100
AcDbEntity
  8
1
  6
Continuous
100
AcDbLine
 10
31.22501149866718
 20
171.285231731558
 30
0.0
 11
32.8250115746631
 21
171.285231731558
 31
0.0
  0
LINE
  5
2CDC
330
18
100
AcDbEntity
  8
1
  6
Continuous
100
AcDbLine
 10
31.22501149866718
 20
170.336033681951
 30
0.0
 11
31.42501036375745
 21
170.336033681951
 31
0.0
  0
LINE
  5
2CDD
330
18
100
AcDbEntity
  8
1
  6
Continuous
100
AcDbLine
 10
32.8250115746631
 20
178.8762356283641
 30
0.0
 11
32.8250115746631
 21
171.285231731558
 31
0.0
  0
LINE
  5
2CDE
330
18
100
AcDbEntity
  8
1
  6
Continuous
100
AcDbLine
 10
32.8250115746631
 20
176.658924645018
 30
0.0
 11
32.92501119794337
 21
176.658924645018
 31
0.0
  0
LINE
  5
2CDF
330
18
100
AcDbEntity
  8
1
  6
Continuous
100
AcDbLine
 10
31.42501112669799
 20
158.1813331171566
 30
0.0
 11
32.92501119794337
 21
158.1813331171566
 31
0.0
  0
LINE
  5
2CE0
330
18
100
AcDbEntity
  8
1
  6
Continuous
100
AcDbLine
 10
31.22501149866718
 20
158.0889451595167
 30
0.0
 11
31.42501112669697
 21
158.0889451595167
 31
0.0
  0
LINE
  5
2CE1
330
18
100
AcDbEntity
  8
1
  6
Continuous
100
AcDbLine
 10
31.22501149866718
 20
163.4201286910985
 30
0.0
 11
31.42501036375745
 21
163.4201286910985
 31
0.0
  0
LINE
  5
2CE2
330
18
100
AcDbEntity
  8
1
  6
Continuous
100
AcDbLine
 10
31.22501149866718
 20
164.5042240802255
 30
0.0
 11
31.42501036375745
 21
164.5042240802255
 31
0.0
  0
LINE
  5
2CE3
330
18
100
AcDbEntity
  8
1
  6
Continuous
100
AcDbLine
 10
31.42501112669913
 20
155.0201282921199
 30
0.0
 11
38.56801523018815
 21
155.0201282921199
 31
0.0
  0
LINE
  5
2CE4
330
18
100
AcDbEntity
  8
1
  6
Continuous
100
AcDbLine
 10
32.92501119794156
 20
155.9640221338124
 30
0.0
 11
31.22501149866718
 21
155.9640221338124
 31
0.0
  0
ARC
  5
2CE5
330
18
100
AcDbEntity
  8
1
  6
Continuous
100
AcDbCircle
 10
29.72501142742101
 20
155.5201283158686
 30
0.0
 40
0.5000000237487347
100
AcDbArc
 50
179.979784007575
 51
270.0
  0
LINE
  5
2CE6
330
18
100
AcDbEntity
  8
1
  6
Continuous
100
AcDbLine
 10
29.72501142742101
 20
155.0201282921199
 30
0.0
 11
31.22501149866718
 21
155.0201282921199
 31
0.0
  0
ENDSEC
  0
SECTION
  2
OBJECTS
  0
DICTIONARY
  5
C
330
0
100
AcDbDictionary
281
     1
  3
ACAD_CIP_PREVIOUS_PRODUCT_INFO
350
3189
  3
ACAD_COLOR
350
316C
  3
ACAD_DETAILVIEWSTYLE
350
3185
  3
ACAD_GROUP
350
D
  3
ACAD_LAYOUT
350
94
  3
ACAD_MATERIAL
350
313A
  3
ACAD_MLEADERSTYLE
350
3181
  3
ACAD_MLINESTYLE
350
1B
  3
ACAD_PLOTSETTINGS
350
95
  3
ACAD_PLOTSTYLENAME
350
3138
  3
ACAD_SCALELIST
350
316F
  3
ACAD_SECTIONVIEWSTYLE
350
3183
  3
ACAD_TABLESTYLE
350
316D
  3
ACAD_VISUALSTYLE
350
3153
  3
ACDB_RECOMPOSE_DATA
350
31A7
  3
AcDbVariableDictionary
350
319A
  3
CONTENTDICTIONARY
350
3D
  3
DWGPROPS
350
31A8
  0
DICTIONARY
  5
318A
330
E
100
AcDbDictionary
280
     1
281
     1
  3
ADSK_XREC_LAYER_RECONCILED
360
318B
  0
DICTIONARY
  5
318C
330
4E
100
AcDbDictionary
280
     1
281
     1
  3
ADSK_XREC_LAYER_RECONCILED
360
318D
  0
DICTIONARY
  5
318E
330
4F
100
AcDbDictionary
280
     1
281
     1
  3
ADSK_XREC_LAYER_RECONCILED
360
318F
  0
DICTIONARY
  5
3190
330
50
100
AcDbDictionary
280
     1
281
     1
  3
ADSK_XREC_LAYER_RECONCILED
360
3191
  0
DICTIONARY
  5
3192
330
51
100
AcDbDictionary
280
     1
281
     1
  3
ADSK_XREC_LAYER_RECONCILED
360
3193
  0
DICTIONARY
  5
3194
330
52
100
AcDbDictionary
280
     1
281
     1
  3
ADSK_XREC_LAYER_RECONCILED
360
3195
  0
DICTIONARY
  5
3196
330
53
100
AcDbDictionary
280
     1
281
     1
  3
ADSK_XREC_LAYER_RECONCILED
360
3197
  0
DICTIONARY
  5
3198
330
54
100
AcDbDictionary
280
     1
281
     1
  3
ADSK_XREC_LAYER_RECONCILED
360
3199
  0
DICTIONARY
  5
3133
330
18
100
AcDbDictionary
281
     1
  3
ACAD_LAYOUTSELFREF
350
3134
  0
DICTIONARY
  5
3131
330
15
100
AcDbDictionary
281
     1
  3
ACAD_LAYOUTSELFREF
350
3132
  0
XRECORD
  5
3189
102
{ACAD_REACTORS
330
C
102
}
330
C
100
AcDbXrecord
280
     1
300
ACDLT
300
2014
300
ACDLT_F_S
  0
DICTIONARY
  5
316C
102
{ACAD_REACTORS
330
C
102
}
330
C
100
AcDbDictionary
281
     1
  0
DICTIONARY
  5
3185
102
{ACAD_REACTORS
330
C
102
}
330
C
100
AcDbDictionary
281
     1
  3
Imperial24
350
3186
  0
DICTIONARY
  5
D
102
{ACAD_REACTORS
330
C
102
}
330
C
100
AcDbDictionary
281
     1
  0
DICTIONARY
  5
94
102
{ACAD_REACTORS
330
C
102
}
330
C
100
AcDbDictionary
281
     1
  3
Model
350
3187
  3
レイアウト1
350
3188
  0
DICTIONARY
  5
313A
102
{ACAD_REACTORS
330
C
102
}
330
C
100
AcDbDictionary
281
     1
  3
ByBlock
350
3143
  3
ByLayer
350
313B
  3
Global
350
314B
  0
DICTIONARY
  5
3181
102
{ACAD_REACTORS
330
C
102
}
330
C
100
AcDbDictionary
281
     1
  3
Standard
350
3182
  0
DICTIONARY
  5
1B
102
{ACAD_REACTORS
330
C
102
}
330
C
100
AcDbDictionary
281
     1
  3
STANDARD
350
1C
  0
DICTIONARY
  5
95
102
{ACAD_REACTORS
330
C
102
}
330
C
100
AcDbDictionary
281
     1
  0
ACDBDICTIONARYWDFLT
  5
3138
102
{ACAD_REACTORS
330
C
102
}
330
C
100
AcDbDictionary
281
     1
  3
Normal
350
3139
100
AcDbDictionaryWithDefault
340
3139
  0
DICTIONARY
  5
316F
102
{ACAD_REACTORS
330
C
102
}
330
C
100
AcDbDictionary
281
     1
  3
A0
350
3170
  3
A1
350
3171
  3
A2
350
3172
  3
A3
350
3173
  3
A4
350
3174
  3
A5
350
3175
  3
A6
350
3176
  3
A7
350
3177
  3
A8
350
3178
  3
A9
350
3179
  3
B0
350
317A
  3
B1
350
317B
  3
B2
350
317C
  3
B3
350
317D
  3
B4
350
317E
  3
B5
350
317F
  3
B6
350
3180
  0
DICTIONARY
  5
3183
102
{ACAD_REACTORS
330
C
102
}
330
C
100
AcDbDictionary
281
     1
  3
Imperial24
350
3184
  0
DICTIONARY
  5
316D
102
{ACAD_REACTORS
330
C
102
}
330
C
100
AcDbDictionary
281
     1
  3
Standard
350
316E
  0
DICTIONARY
  5
3153
102
{ACAD_REACTORS
330
C
102
}
330
C
100
AcDbDictionary
281
     1
  3
2dWireframe
350
3159
  3
Basic
350
3158
  3
Brighten
350
315F
  3
ColorChange
350
3163
  3
Conceptual
350
315C
  3
Dim
350
315E
  3
EdgeColorOff
350
316B
  3
Facepattern
350
3162
  3
Flat
350
3154
  3
FlatWithEdges
350
3155
  3
Gouraud
350
3156
  3
GouraudWithEdges
350
3157
  3
Hidden
350
315B
  3
JitterOff
350
3169
  3
Linepattern
350
3161
  3
OverhangOff
350
316A
  3
Realistic
350
315D
  3
Shaded
350
3168
  3
Shaded with edges
350
3167
  3
Shades of Gray
350
3164
  3
Sketchy
350
3165
  3
Thicken
350
3160
  3
Wireframe
350
315A
  3
X-Ray
350
3166
  0
XRECORD
  5
31A7
102
{ACAD_REACTORS
330
C
102
}
330
C
100
AcDbXrecord
280
     1
 90
        1
330
316E
  0
DICTIONARY
  5
319A
102
{ACAD_REACTORS
330
C
102
}
330
C
100
AcDbDictionary
281
     1
  3
CANNOSCALE
350
319F
  3
CMLEADERSTYLE
350
319C
  3
CTABLESTYLE
350
319B
  3
CVIEWDETAILSTYLE
350
319D
  3
CVIEWSECTIONSTYLE
350
319E
  3
DIMASSOC
350
31A2
  3
INDEXCTL
350
31A1
  3
SORTENTS
350
31A0
  3
XCLIPFRAME
350
31A3
  0
DICTIONARY
  5
3D
102
{ACAD_REACTORS
330
C
102
}
330
C
100
AcDbDictionary
281
     1
  0
XRECORD
  5
31A8
102
{ACAD_REACTORS
330
C
102
}
330
C
100
AcDbXrecord
280
     1
  1
DWGPROPS COOKIE
  2

  3

  4

  6

  7

  8
Yoshitsune
  9

300
=
301
=
302
=
303
=
304
=
305
=
306
=
307
=
308
=
309
=
 40
0.1263109027777778
 41
2453781.600612697
 42
2457192.700706019
  1

 90
        0
  0
XRECORD
  5
318B
102
{ACAD_REACTORS
330
318A
102
}
330
318A
100
AcDbXrecord
280
     1
290
     1
  0
XRECORD
  5
318D
102
{ACAD_REACTORS
330
318C
102
}
330
318C
100
AcDbXrecord
280
     1
290
     1
  0
XRECORD
  5
318F
102
{ACAD_REACTORS
330
318E
102
}
330
318E
100
AcDbXrecord
280
     1
290
     1
  0
XRECORD
  5
3191
102
{ACAD_REACTORS
330
3190
102
}
330
3190
100
AcDbXrecord
280
     1
290
     1
  0
XRECORD
  5
3193
102
{ACAD_REACTORS
330
3192
102
}
330
3192
100
AcDbXrecord
280
     1
290
     1
  0
XRECORD
  5
3195
102
{ACAD_REACTORS
330
3194
102
}
330
3194
100
AcDbXrecord
280
     1
290
     1
  0
XRECORD
  5
3197
102
{ACAD_REACTORS
330
3196
102
}
330
3196
100
AcDbXrecord
280
     1
290
     1
  0
XRECORD
  5
3199
102
{ACAD_REACTORS
330
3198
102
}
330
3198
100
AcDbXrecord
280
     1
290
     1
  0
XRECORD
  5
3134
102
{ACAD_REACTORS
330
3133
102
}
330
3133
100
AcDbXrecord
280
     1
340
18
  0
XRECORD
  5
3132
102
{ACAD_REACTORS
330
3131
102
}
330
3131
100
AcDbXrecord
280
     1
340
15
  0
ACDBDETAILVIEWSTYLE
  5
3186
102
{ACAD_XDICTIONARY
360
31E0
102
}
102
{ACAD_REACTORS
330
3185
102
}
330
3185
100
AcDbModelDocViewStyle
 70
     0
  3
Imperial24
290
     0
100
AcDbDetailViewStyle
 70
     0
 71
     0
 90
        3
 71
     1
340
F
 40
0.24
340
0
 40
0.24
300

 40
0.36
280
     3
 71
     2
340
14
 90
       25
 71
     3
340
F
 40
0.24
 90
        1
 40
0.75
 90
        1
300
%<\AcVar ViewType \f "%tc1">% %<\AcVar ViewDetailId>%\PSCALE %<\AcVar ViewScale \f "%sn">%
 71
     4
340
14
 90
       25
340
14
 90
       25
280
     0
  0
LAYOUT
  5
3187
102
{ACAD_XDICTIONARY
360
31E2
102
}
102
{ACAD_REACTORS
330
94
102
}
330
94
100
AcDbPlotSettings
  1

  2
Canon LBP9100C
  4

  6

 40
0.0
 41
0.0
 42
0.0
 43
0.0
 44
0.0
 45
0.0
 46
0.0
 47
0.0
 48
0.0
 49
0.0
140
0.0
141
0.0
142
1.0
143
1.0
 70
  1712
 72
     0
 73
     0
 74
     0
  7

 75
     0
147
1.0
148
0.0
149
0.0
100
AcDbLayout
  1
Model
 70
     1
 71
     0
 10
0.0
 20
0.0
 11
12.0
 21
9.0
 12
0.0
 22
0.0
 32
0.0
 14
0.0
 24
0.0
 34
0.0
 15
0.0
 25
0.0
 35
0.0
146
0.0
 13
0.0
 23
0.0
 33
0.0
 16
1.0
 26
0.0
 36
0.0
 17
0.0
 27
1.0
 37
0.0
 76
     0
330
18
331
3130
  0
LAYOUT
  5
3188
102
{ACAD_XDICTIONARY
360
31E4
102
}
102
{ACAD_REACTORS
330
94
102
}
330
94
100
AcDbPlotSettings
  1

  2
Canon LBP9100C
  4

  6

 40
0.0
 41
0.0
 42
0.0
 43
0.0
 44
0.0
 45
0.0
 46
0.0
 47
0.0
 48
0.0
 49
0.0
140
0.0
141
0.0
142
1.0
143
1.0
 70
   688
 72
     0
 73
     0
 74
     5
  7

 75
    16
147
1.0
148
0.0
149
0.0
100
AcDbLayout
  1
レイアウト1
 70
     1
 71
     1
 10
-3.757080078125
 20
-3.757083177566528
 11
293.2112426757812
 21
206.2162444591522
 12
0.0
 22
0.0
 32
0.0
 14
27.8447512626648
 24
20.24591643810271
 34
0.0
 15
250.6027613639831
 25
182.2132479429244
 35
0.0
146
0.0
 13
0.0
 23
0.0
 33
0.0
 16
1.0
 26
0.0
 36
0.0
 17
0.0
 27
1.0
 37
0.0
 76
     0
330
15
  0
MATERIAL
  5
3143
102
{ACAD_XDICTIONARY
360
3144
102
}
102
{ACAD_REACTORS
330
313A
102
}
330
313A
100
AcDbMaterial
  1
ByBlock
 72
     0
 43
0.0208333333333333
 43
0.0
 43
0.0
 43
0.0
 43
0.0
 43
0.0208333333333333
 43
0.0
 43
0.0
 43
0.0
 43
0.0
 43
1.0
 43
0.0
 43
0.0
 43
0.0
 43
0.0
 43
1.0
 77
     0
 47
0.0208333333333333
 47
0.0
 47
0.0
 47
0.0
 47
0.0
 47
0.0208333333333333
 47
0.0
 47
0.0
 47
0.0
 47
0.0
 47
1.0
 47
0.0
 47
0.0
 47
0.0
 47
0.0
 47
1.0
171
     0
 49
0.0208333333333333
 49
0.0
 49
0.0
 49
0.0
 49
0.0
 49
0.0208333333333333
 49
0.0
 49
0.0
 49
0.0
 49
0.0
 49
1.0
 49
0.0
 49
0.0
 49
0.0
 49
0.0
 49
1.0
175
     0
142
0.0208333333333333
142
0.0
142
0.0
142
0.0
142
0.0
142
0.0208333333333333
142
0.0
142
0.0
142
0.0
142
0.0
142
1.0
142
0.0
142
0.0
142
0.0
142
0.0
142
1.0
179
     0
144
0.0208333333333333
144
0.0
144
0.0
144
0.0
144
0.0
144
0.0208333333333333
144
0.0
144
0.0
144
0.0
144
0.0
144
1.0
144
0.0
144
0.0
144
0.0
144
0.0
144
1.0
147
0.0208333333333333
147
0.0
147
0.0
147
0.0
147
0.0
147
0.0208333333333333
147
0.0
147
0.0
147
0.0
147
0.0
147
1.0
147
0.0
147
0.0
147
0.0
147
0.0
147
1.0
  0
MATERIAL
  5
313B
102
{ACAD_XDICTIONARY
360
313C
102
}
102
{ACAD_REACTORS
330
313A
102
}
330
313A
100
AcDbMaterial
  1
ByLayer
 72
     0
 43
0.0208333333333333
 43
0.0
 43
0.0
 43
0.0
 43
0.0
 43
0.0208333333333333
 43
0.0
 43
0.0
 43
0.0
 43
0.0
 43
1.0
 43
0.0
 43
0.0
 43
0.0
 43
0.0
 43
1.0
 77
     0
 47
0.0208333333333333
 47
0.0
 47
0.0
 47
0.0
 47
0.0
 47
0.0208333333333333
 47
0.0
 47
0.0
 47
0.0
 47
0.0
 47
1.0
 47
0.0
 47
0.0
 47
0.0
 47
0.0
 47
1.0
171
     0
 49
0.0208333333333333
 49
0.0
 49
0.0
 49
0.0
 49
0.0
 49
0.0208333333333333
 49
0.0
 49
0.0
 49
0.0
 49
0.0
 49
1.0
 49
0.0
 49
0.0
 49
0.0
 49
0.0
 49
1.0
175
     0
142
0.0208333333333333
142
0.0
142
0.0
142
0.0
142
0.0
142
0.0208333333333333
142
0.0
142
0.0
142
0.0
142
0.0
142
1.0
142
0.0
142
0.0
142
0.0
142
0.0
142
1.0
179
     0
144
0.0208333333333333
144
0.0
144
0.0
144
0.0
144
0.0
144
0.0208333333333333
144
0.0
144
0.0
144
0.0
144
0.0
144
1.0
144
0.0
144
0.0
144
0.0
144
0.0
144
1.0
147
0.0208333333333333
147
0.0
147
0.0
147
0.0
147
0.0
147
0.0208333333333333
147
0.0
147
0.0
147
0.0
147
0.0
147
1.0
147
0.0
147
0.0
147
0.0
147
0.0
147
1.0
  0
MATERIAL
  5
314B
102
{ACAD_XDICTIONARY
360
314C
102
}
102
{ACAD_REACTORS
330
313A
102
}
330
313A
100
AcDbMaterial
  1
Global
 72
     0
 43
0.0208333333333333
 43
0.0
 43
0.0
 43
0.0
 43
0.0
 43
0.0208333333333333
 43
0.0
 43
0.0
 43
0.0
 43
0.0
 43
1.0
 43
0.0
 43
0.0
 43
0.0
 43
0.0
 43
1.0
 77
     0
 47
0.0208333333333333
 47
0.0
 47
0.0
 47
0.0
 47
0.0
 47
0.0208333333333333
 47
0.0
 47
0.0
 47
0.0
 47
0.0
 47
1.0
 47
0.0
 47
0.0
 47
0.0
 47
0.0
 47
1.0
171
     0
 49
0.0208333333333333
 49
0.0
 49
0.0
 49
0.0
 49
0.0
 49
0.0208333333333333
 49
0.0
 49
0.0
 49
0.0
 49
0.0
 49
1.0
 49
0.0
 49
0.0
 49
0.0
 49
0.0
 49
1.0
175
     0
142
0.0208333333333333
142
0.0
142
0.0
142
0.0
142
0.0
142
0.0208333333333333
142
0.0
142
0.0
142
0.0
142
0.0
142
1.0
142
0.0
142
0.0
142
0.0
142
0.0
142
1.0
179
     0
144
0.0208333333333333
144
0.0
144
0.0
144
0.0
144
0.0
144
0.0208333333333333
144
0.0
144
0.0
144
0.0
144
0.0
144
1.0
144
0.0
144
0.0
144
0.0
144
0.0
144
1.0
147
0.0208333333333333
147
0.0
147
0.0
147
0.0
147
0.0
147
0.0208333333333333
147
0.0
147
0.0
147
0.0
147
0.0
147
1.0
147
0.0
147
0.0
147
0.0
147
0.0
147
1.0
  0
MLEADERSTYLE
  5
3182
102
{ACAD_REACTORS
330
3181
102
}
330
3181
100
AcDbMLeaderStyle
170
     2
171
     1
172
     0
 90
        2
 40
0.0
 41
0.0
173
     1
 91
-1056964608
340
12
 92
       -2
290
     1
 42
0.09
291
     1
 43
0.36
  3
Standard
 44
0.18
300

342
F
174
     1
178
     6
175
     1
176
     0
 93
-1056964608
 45
0.18
292
     0
297
     0
 46
0.18
 94
-1056964608
 47
1.0
 49
1.0
140
1.0
293
     1
141
0.0
294
     1
177
     0
142
1.0
295
     0
296
     0
143
0.125
1001
ACAD_MLEADERVER
1070
     2
  0
MLINESTYLE
  5
1C
102
{ACAD_REACTORS
330
1B
102
}
330
1B
100
AcDbMlineStyle
  2
STANDARD
 70
     0
  3

 62
   256
 51
90.0
 52
90.0
 71
     2
 49
0.5
 62
   256
  6
BYLAYER
 49
-0.5
 62
   256
  6
BYLAYER
  0
ACDBPLACEHOLDER
  5
3139
102
{ACAD_REACTORS
330
3138
102
}
330
3138
  0
SCALE
  5
3170
102
{ACAD_REACTORS
330
316F
102
}
330
316F
100
AcDbScale
 70
     0
300
1:1
140
1.0
141
1.0
290
     1
  0
SCALE
  5
3171
102
{ACAD_REACTORS
330
316F
102
}
330
316F
100
AcDbScale
 70
     0
300
1/128" = 1'-0"
140
0.0078125
141
12.0
290
     0
  0
SCALE
  5
3172
102
{ACAD_REACTORS
330
316F
102
}
330
316F
100
AcDbScale
 70
     0
300
1/64" = 1'-0"
140
0.015625
141
12.0
290
     0
  0
SCALE
  5
3173
102
{ACAD_REACTORS
330
316F
102
}
330
316F
100
AcDbScale
 70
     0
300
1/32" = 1'-0"
140
0.03125
141
12.0
290
     0
  0
SCALE
  5
3174
102
{ACAD_REACTORS
330
316F
102
}
330
316F
100
AcDbScale
 70
     0
300
1/16" = 1'-0"
140
0.0625
141
12.0
290
     0
  0
SCALE
  5
3175
102
{ACAD_REACTORS
330
316F
102
}
330
316F
100
AcDbScale
 70
     0
300
3/32" = 1'-0"
140
0.09375
141
12.0
290
     0
  0
SCALE
  5
3176
102
{ACAD_REACTORS
330
316F
102
}
330
316F
100
AcDbScale
 70
     0
300
1/8" = 1'-0"
140
0.125
141
12.0
290
     0
  0
SCALE
  5
3177
102
{ACAD_REACTORS
330
316F
102
}
330
316F
100
AcDbScale
 70
     0
300
3/16" = 1'-0"
140
0.1875
141
12.0
290
     0
  0
SCALE
  5
3178
102
{ACAD_REACTORS
330
316F
102
}
330
316F
100
AcDbScale
 70
     0
300
1/4" = 1'-0"
140
0.25
141
12.0
290
     0
  0
SCALE
  5
3179
102
{ACAD_REACTORS
330
316F
102
}
330
316F
100
AcDbScale
 70
     0
300
3/8" = 1'-0"
140
0.375
141
12.0
290
     0
  0
SCALE
  5
317A
102
{ACAD_REACTORS
330
316F
102
}
330
316F
100
AcDbScale
 70
     0
300
1/2" = 1'-0"
140
0.5
141
12.0
290
     0
  0
SCALE
  5
317B
102
{ACAD_REACTORS
330
316F
102
}
330
316F
100
AcDbScale
 70
     0
300
3/4" = 1'-0"
140
0.75
141
12.0
290
     0
  0
SCALE
  5
317C
102
{ACAD_REACTORS
330
316F
102
}
330
316F
100
AcDbScale
 70
     0
300
1" = 1'-0"
140
1.0
141
12.0
290
     0
  0
SCALE
  5
317D
102
{ACAD_REACTORS
330
316F
102
}
330
316F
100
AcDbScale
 70
     0
300
1-1/2" = 1'-0"
140
1.5
141
12.0
290
     0
  0
SCALE
  5
317E
102
{ACAD_REACTORS
330
316F
102
}
330
316F
100
AcDbScale
 70
     0
300
3" = 1'-0"
140
3.0
141
12.0
290
     0
  0
SCALE
  5
317F
102
{ACAD_REACTORS
330
316F
102
}
330
316F
100
AcDbScale
 70
     0
300
6" = 1'-0"
140
6.0
141
12.0
290
     0
  0
SCALE
  5
3180
102
{ACAD_REACTORS
330
316F
102
}
330
316F
100
AcDbScale
 70
     0
300
1'-0" = 1'-0"
140
12.0
141
12.0
290
     0
  0
ACDBSECTIONVIEWSTYLE
  5
3184
102
{ACAD_XDICTIONARY
360
31DE
102
}
102
{ACAD_REACTORS
330
3183
102
}
330
3183
100
AcDbModelDocViewStyle
 70
     0
  3
Imperial24
290
     0
100
AcDbSectionViewStyle
 70
     0
 71
     0
 90
       78
 71
     1
340
F
 40
0.24
340
0
340
0
 40
0.24
300
I, O, Q, S, X, Z
 40
0.48
 90
        3
 40
0.18
 90
        1
 71
     2
340
14
 90
       25
340
14
 90
       50
 40
0.24
 40
0.0
 40
0.24
 71
     3
340
F
 40
0.24
 90
        1
 40
0.75
 90
        1
300
%<\AcVar ViewType \f "%tc1">% %<\AcVar ViewSectionStartId>%-%<\AcVar ViewSectionEndId>%\PSCALE %<\AcVar ViewScale \f "%sn">%
 71
     4
300
ANSI31
 40
1.0
 90
        0
290
     0
290
     0
 90
        6
 40
0.0
 40
1.570796326794896
 40
0.2617993877991494
 40
1.308996938995747
 40
-0.2617993877991494
 40
1.832595714594046
  0
TABLESTYLE
  5
316E
102
{ACAD_XDICTIONARY
360
31A5
102
}
102
{ACAD_REACTORS
330
316D
102
}
330
316D
100
AcDbTableStyle
  3
Standard
 70
     0
 71
     0
 40
0.06
 41
0.06
280
     0
281
     0
  7
STANDARD
140
0.18
170
     2
 62
     0
 63
     7
283
     0
274
    -2
284
     1
 64
     0
275
    -2
285
     1
 65
     0
276
    -2
286
     1
 66
     0
277
    -2
287
     1
 67
     0
278
    -2
288
     1
 68
     0
279
    -2
289
     1
 69
     0
  7
STANDARD
140
0.25
170
     5
 62
     0
 63
     7
283
     0
274
    -2
284
     1
 64
     0
275
    -2
285
     1
 65
     0
276
    -2
286
     1
 66
     0
277
    -2
287
     1
 67
     0
278
    -2
288
     1
 68
     0
279
    -2
289
     1
 69
     0
  7
STANDARD
140
0.18
170
     5
 62
     0
 63
     7
283
     0
274
    -2
284
     1
 64
     0
275
    -2
285
     1
 65
     0
276
    -2
286
     1
 66
     0
277
    -2
287
     1
 67
     0
278
    -2
288
     1
 68
     0
279
    -2
289
     1
 69
     0
  0
VISUALSTYLE
  5
3159
102
{ACAD_XDICTIONARY
360
31B6
102
}
102
{ACAD_REACTORS
330
3153
102
}
330
3153
100
AcDbVisualStyle
  2
2dWireframe
 70
     4
 71
     0
 72
     2
 73
     0
 90
        0
 40
-0.6
 41
-30.0
 62
     5
 63
     7
 74
     1
 91
        4
 64
     7
 65
   257
 75
     1
175
     1
 42
1.0
 92
        0
 66
   257
 43
1.0
 76
     1
 77
     6
 78
     2
 67
     7
 79
     5
170
     0
171
     0
290
     0
174
     0
 93
        1
 44
0.0
173
     0
291
     0
 45
0.0
1001
ACAD
1000
AcDbSavedByObjectVersion
1070
     0
  0
VISUALSTYLE
  5
3158
102
{ACAD_XDICTIONARY
360
31B4
102
}
102
{ACAD_REACTORS
330
3153
102
}
330
3153
100
AcDbVisualStyle
  2
Basic
 70
     7
 71
     1
 72
     0
 73
     1
 90
        0
 40
-0.6
 41
-30.0
 62
     5
 63
     7
 74
     0
 91
        4
 64
     7
 65
   257
 75
     1
175
     1
 42
1.0
 92
        8
 66
     7
 43
1.0
 76
     1
 77
     6
 78
     2
 67
     7
 79
     5
170
     0
171
     0
290
     0
174
     0
 93
        1
 44
0.0
173
     0
291
     1
 45
0.0
1001
ACAD
1000
AcDbSavedByObjectVersion
1070
     0
  0
VISUALSTYLE
  5
315F
102
{ACAD_XDICTIONARY
360
31C2
102
}
102
{ACAD_REACTORS
330
3153
102
}
330
3153
100
AcDbVisualStyle
  2
Brighten
 70
    12
 71
     2
 72
     2
 73
     0
 90
        0
 40
-0.6
 41
-30.0
 62
     5
 63
     7
 74
     1
 91
        4
 64
     7
 65
   257
 75
     1
175
     1
 42
1.0
 92
        8
 66
     7
 43
1.0
 76
     1
 77
     6
 78
     2
 67
     7
 79
     5
170
     0
171
     0
290
     0
174
     0
 93
        1
 44
50.0
173
     0
291
     1
 45
0.0
1001
ACAD
1000
AcDbSavedByObjectVersion
1070
     0
  0
VISUALSTYLE
  5
3163
102
{ACAD_XDICTIONARY
360
31CA
102
}
102
{ACAD_REACTORS
330
3153
102
}
330
3153
100
AcDbVisualStyle
  2
ColorChange
 70
    16
 71
     2
 72
     2
 73
     3
 90
        0
 40
-0.6
 41
-30.0
 62
     5
 63
     8
 74
     1
 91
        4
 64
     7
 65
   257
 75
     1
175
     1
 42
1.0
 92
        8
 66
     8
 43
1.0
 76
     1
 77
     6
 78
     2
 67
     7
 79
     5
170
     0
171
     0
290
     0
174
     0
 93
        1
 44
0.0
173
     0
291
     1
 45
0.0
1001
ACAD
1000
AcDbSavedByObjectVersion
1070
     0
  0
VISUALSTYLE
  5
315C
102
{ACAD_XDICTIONARY
360
31BC
102
}
102
{ACAD_REACTORS
330
3153
102
}
330
3153
100
AcDbVisualStyle
  2
Conceptual
 70
     9
 71
     3
 72
     2
 73
     0
 90
        0
 40
-0.6
 41
-30.0
 62
     5
 63
     7
 74
     2
 91
        2
 64
     7
 65
   257
 75
     1
175
     1
 42
179.0
 92
        8
 66
     7
 43
1.0
 76
     1
 77
     6
 78
     2
 67
     7
 79
     3
170
     0
171
     0
290
     0
174
     0
 93
        1
 44
0.0
173
     0
291
     0
 45
0.0
1001
ACAD
1000
AcDbSavedByObjectVersion
1070
     0
  0
VISUALSTYLE
  5
315E
102
{ACAD_XDICTIONARY
360
31C0
102
}
102
{ACAD_REACTORS
330
3153
102
}
330
3153
100
AcDbVisualStyle
  2
Dim
 70
    11
 71
     2
 72
     2
 73
     0
 90
        0
 40
-0.6
 41
-30.0
 62
     5
 63
     7
 74
     1
 91
        4
 64
     7
 65
   257
 75
     1
175
     1
 42
1.0
 92
        8
 66
     7
 43
1.0
 76
     1
 77
     6
 78
     2
 67
     7
 79
     5
170
     0
171
     0
290
     0
174
     0
 93
        1
 44
-50.0
173
     0
291
     1
 45
0.0
1001
ACAD
1000
AcDbSavedByObjectVersion
1070
     0
  0
VISUALSTYLE
  5
316B
102
{ACAD_XDICTIONARY
360
31DA
102
}
102
{ACAD_REACTORS
330
3153
102
}
330
3153
100
AcDbVisualStyle
  2
EdgeColorOff
 70
    22
 71
     2
 72
     2
 73
     0
 90
        0
 40
-0.6
 41
-30.0
 62
     5
 63
     7
 74
     1
 91
        4
 64
     7
 65
   257
 75
     1
175
     1
 42
1.0
 92
        8
 66
     7
 43
1.0
 76
     1
 77
     6
 78
     2
 67
     7
 79
     5
170
     0
171
     0
290
     0
174
     0
 93
        1
 44
0.0
173
     0
291
     1
 45
0.0
1001
ACAD
1000
AcDbSavedByObjectVersion
1070
     0
  0
VISUALSTYLE
  5
3162
102
{ACAD_XDICTIONARY
360
31C8
102
}
102
{ACAD_REACTORS
330
3153
102
}
330
3153
100
AcDbVisualStyle
  2
Facepattern
 70
    15
 71
     2
 72
     2
 73
     0
 90
        0
 40
-0.6
 41
-30.0
 62
     5
 63
     7
 74
     1
 91
        4
 64
     7
 65
   257
 75
     1
175
     1
 42
1.0
 92
        8
 66
     7
 43
1.0
 76
     1
 77
     6
 78
     2
 67
     7
 79
     5
170
     0
171
     0
290
     0
174
     0
 93
        1
 44
0.0
173
     0
291
     1
 45
0.0
1001
ACAD
1000
AcDbSavedByObjectVersion
1070
     0
  0
VISUALSTYLE
  5
3154
102
{ACAD_XDICTIONARY
360
31AC
102
}
102
{ACAD_REACTORS
330
3153
102
}
330
3153
100
AcDbVisualStyle
  2
Flat
 70
     0
 71
     2
 72
     1
 73
     1
 90
        2
 40
-0.6
 41
30.0
 62
     5
 63
     7
 74
     0
 91
        0
 64
     7
 65
   257
 75
     1
175
     1
 42
1.0
 92
        8
 66
     7
 43
1.0
 76
     1
 77
     6
 78
     2
 67
     7
 79
     5
170
     0
171
     0
290
     0
174
     0
 93
       13
 44
0.0
173
     0
291
     1
 45
0.0
1001
ACAD
1000
AcDbSavedByObjectVersion
1070
     0
  0
VISUALSTYLE
  5
3155
102
{ACAD_XDICTIONARY
360
31AE
102
}
102
{ACAD_REACTORS
330
3153
102
}
330
3153
100
AcDbVisualStyle
  2
FlatWithEdges
 70
     1
 71
     2
 72
     1
 73
     1
 90
        2
 40
-0.6
 41
30.0
 62
     5
 63
     7
 74
     1
 91
        0
 64
     7
 65
   257
 75
     1
175
     1
 42
1.0
 92
        0
 66
   257
 43
1.0
 76
     1
 77
     6
 78
     2
 67
     7
 79
     5
170
     0
171
     0
290
     0
174
     0
 93
       13
 44
0.0
173
     0
291
     1
 45
0.0
1001
ACAD
1000
AcDbSavedByObjectVersion
1070
     0
  0
VISUALSTYLE
  5
3156
102
{ACAD_XDICTIONARY
360
31B0
102
}
102
{ACAD_REACTORS
330
3153
102
}
330
3153
100
AcDbVisualStyle
  2
Gouraud
 70
     2
 71
     2
 72
     2
 73
     1
 90
        2
 40
-0.6
 41
30.0
 62
     5
 63
     7
 74
     0
 91
        0
 64
     7
 65
   257
 75
     1
175
     1
 42
1.0
 92
        0
 66
     7
 43
1.0
 76
     1
 77
     6
 78
     2
 67
     7
 79
     5
170
     0
171
     0
290
     0
174
     0
 93
       13
 44
0.0
173
     0
291
     1
 45
0.0
1001
ACAD
1000
AcDbSavedByObjectVersion
1070
     0
  0
VISUALSTYLE
  5
3157
102
{ACAD_XDICTIONARY
360
31B2
102
}
102
{ACAD_REACTORS
330
3153
102
}
330
3153
100
AcDbVisualStyle
  2
GouraudWithEdges
 70
     3
 71
     2
 72
     2
 73
     1
 90
        2
 40
-0.6
 41
30.0
 62
     5
 63
     7
 74
     1
 91
        0
 64
     7
 65
   257
 75
     1
175
     1
 42
1.0
 92
        0
 66
   257
 43
1.0
 76
     1
 77
     6
 78
     2
 67
     7
 79
     5
170
     0
171
     0
290
     0
174
     0
 93
       13
 44
0.0
173
     0
291
     1
 45
0.0
1001
ACAD
1000
AcDbSavedByObjectVersion
1070
     0
  0
VISUALSTYLE
  5
315B
102
{ACAD_XDICTIONARY
360
31BA
102
}
102
{ACAD_REACTORS
330
3153
102
}
330
3153
100
AcDbVisualStyle
  2
Hidden
 70
     6
 71
     1
 72
     2
 73
     2
 90
        0
 40
-0.6
 41
-30.0
 62
     5
 63
     7
 74
     2
 91
        2
 64
     7
 65
   257
 75
     2
175
     1
 42
40.0
 92
        0
 66
   257
 43
1.0
 76
     1
 77
     6
 78
     2
 67
     7
 79
     3
170
     0
171
     0
290
     0
174
     0
 93
        1
 44
0.0
173
     0
291
     0
 45
0.0
1001
ACAD
1000
AcDbSavedByObjectVersion
1070
     0
  0
VISUALSTYLE
  5
3169
102
{ACAD_XDICTIONARY
360
31D6
102
}
102
{ACAD_REACTORS
330
3153
102
}
330
3153
100
AcDbVisualStyle
  2
JitterOff
 70
    20
 71
     2
 72
     2
 73
     0
 90
        0
 40
-0.6
 41
-30.0
 62
     5
 63
     7
 74
     1
 91
        4
 64
     7
 65
   257
 75
     1
175
     1
 42
1.0
 92
       10
 66
     7
 43
1.0
 76
     1
 77
     6
 78
     2
 67
     7
 79
     5
170
     0
171
     0
290
     0
174
     0
 93
        1
 44
0.0
173
     0
291
     1
 45
0.0
1001
ACAD
1000
AcDbSavedByObjectVersion
1070
     0
  0
VISUALSTYLE
  5
3161
102
{ACAD_XDICTIONARY
360
31C6
102
}
102
{ACAD_REACTORS
330
3153
102
}
330
3153
100
AcDbVisualStyle
  2
Linepattern
 70
    14
 71
     2
 72
     2
 73
     0
 90
        0
 40
-0.6
 41
-30.0
 62
     5
 63
     7
 74
     1
 91
        4
 64
     7
 65
   257
 75
     7
175
     7
 42
1.0
 92
        8
 66
     7
 43
1.0
 76
     1
 77
     6
 78
     2
 67
     7
 79
     5
170
     0
171
     0
290
     0
174
     0
 93
        1
 44
0.0
173
     0
291
     1
 45
0.0
1001
ACAD
1000
AcDbSavedByObjectVersion
1070
     0
  0
VISUALSTYLE
  5
316A
102
{ACAD_XDICTIONARY
360
31D8
102
}
102
{ACAD_REACTORS
330
3153
102
}
330
3153
100
AcDbVisualStyle
  2
OverhangOff
 70
    21
 71
     2
 72
     2
 73
     0
 90
        0
 40
-0.6
 41
-30.0
 62
     5
 63
     7
 74
     1
 91
        4
 64
     7
 65
   257
 75
     1
175
     1
 42
1.0
 92
        9
 66
     7
 43
1.0
 76
     1
 77
     6
 78
     2
 67
     7
 79
     5
170
     0
171
     0
290
     0
174
     0
 93
        1
 44
0.0
173
     0
291
     1
 45
0.0
1001
ACAD
1000
AcDbSavedByObjectVersion
1070
     0
  0
VISUALSTYLE
  5
315D
102
{ACAD_XDICTIONARY
360
31BE
102
}
102
{ACAD_REACTORS
330
3153
102
}
330
3153
100
AcDbVisualStyle
  2
Realistic
 70
     8
 71
     2
 72
     3
 73
     0
 90
        2
 40
-0.6
 41
30.0
 62
     5
 63
     7
 74
     0
 91
        0
 64
     7
 65
   257
 75
     1
175
     1
 42
1.0
 92
        8
 66
   257
 43
1.0
 76
     1
 77
     6
 78
     2
 67
     7
 79
     3
170
     0
171
     0
290
     0
174
     0
 93
       13
 44
0.0
173
     0
291
     0
 45
0.0
1001
ACAD
1000
AcDbSavedByObjectVersion
1070
     0
  0
VISUALSTYLE
  5
3168
102
{ACAD_XDICTIONARY
360
31D4
102
}
102
{ACAD_REACTORS
330
3153
102
}
330
3153
100
AcDbVisualStyle
  2
Shaded
 70
    27
 71
     2
 72
     2
 73
     1
 90
        2
 40
-0.6
 41
30.0
 62
     5
 63
     7
 74
     0
 91
        4
 64
     7
 65
   257
 75
     1
175
     1
 42
1.0
 92
        8
 66
   257
 43
1.0
 76
     1
 77
     6
 78
     2
 67
     8
 79
     3
170
     0
171
     0
290
     0
174
     0
 93
        5
 44
0.0
173
     0
291
     0
 45
0.0
1001
ACAD
1000
AcDbSavedByObjectVersion
1070
     0
  0
VISUALSTYLE
  5
3167
102
{ACAD_XDICTIONARY
360
31D2
102
}
102
{ACAD_REACTORS
330
3153
102
}
330
3153
100
AcDbVisualStyle
  2
Shaded with edges
 70
    26
 71
     2
 72
     2
 73
     1
 90
        2
 40
-0.6
 41
30.0
 62
     5
 63
     7
 74
     1
 91
       10
 64
     7
 65
   257
 75
     2
175
     1
 42
1.0
 92
        8
 66
   257
 43
1.0
 76
     1
 77
     6
 78
     2
 67
     7
 79
     3
170
     0
171
     0
290
     0
174
     0
 93
        5
 44
0.0
173
     0
291
     0
 45
0.0
1001
ACAD
1000
AcDbSavedByObjectVersion
1070
     0
  0
VISUALSTYLE
  5
3164
102
{ACAD_XDICTIONARY
360
31CC
102
}
102
{ACAD_REACTORS
330
3153
102
}
330
3153
100
AcDbVisualStyle
  2
Shades of Gray
 70
    23
 71
     2
 72
     2
 73
     3
 90
        0
 40
-0.6
 41
-30.0
 62
     5
 63
     7
 74
     2
 91
        2
 64
     7
 65
     7
 75
     1
175
     1
 42
40.0
 92
        8
 66
     7
 43
1.0
 76
     1
 77
     6
 78
     2
 67
     7
 79
     3
170
     0
171
     0
290
     0
174
     0
 93
        1
 44
0.0
173
     0
291
     0
 45
0.0
1001
ACAD
1000
AcDbSavedByObjectVersion
1070
     0
  0
VISUALSTYLE
  5
3165
102
{ACAD_XDICTIONARY
360
31CE
102
}
102
{ACAD_REACTORS
330
3153
102
}
330
3153
100
AcDbVisualStyle
  2
Sketchy
 70
    24
 71
     1
 72
     2
 73
     2
 90
        0
 40
-0.6
 41
-30.0
 62
     5
 63
     7
 74
     2
 91
        2
 64
     7
 65
     7
 75
     1
175
     1
 42
40.0
 92
       11
 66
     7
 43
1.0
 76
     1
 77
     6
 78
     2
 67
     7
 79
     6
170
     0
171
     0
290
     0
174
     0
 93
        1
 44
0.0
173
     0
291
     0
 45
0.0
1001
ACAD
1000
AcDbSavedByObjectVersion
1070
     0
  0
VISUALSTYLE
  5
3160
102
{ACAD_XDICTIONARY
360
31C4
102
}
102
{ACAD_REACTORS
330
3153
102
}
330
3153
100
AcDbVisualStyle
  2
Thicken
 70
    13
 71
     2
 72
     2
 73
     0
 90
        0
 40
-0.6
 41
-30.0
 62
     5
 63
     7
 74
     1
 91
        4
 64
     7
 65
   257
 75
     1
175
     1
 42
1.0
 92
       12
 66
     7
 43
1.0
 76
     1
 77
     6
 78
     2
 67
     7
 79
     5
170
     0
171
     0
290
     0
174
     0
 93
        1
 44
0.0
173
     0
291
     1
 45
0.0
1001
ACAD
1000
AcDbSavedByObjectVersion
1070
     0
  0
VISUALSTYLE
  5
315A
102
{ACAD_XDICTIONARY
360
31B8
102
}
102
{ACAD_REACTORS
330
3153
102
}
330
3153
100
AcDbVisualStyle
  2
Wireframe
 70
     5
 71
     0
 72
     2
 73
     0
 90
        0
 40
-0.6
 41
-30.0
 62
     5
 63
     7
 74
     1
 91
        4
 64
     7
 65
   257
 75
     1
175
     1
 42
1.0
 92
        0
 66
   257
 43
1.0
 76
     1
 77
     6
 78
     2
 67
     7
 79
     3
170
     0
171
     0
290
     0
174
     0
 93
        1
 44
0.0
173
     0
291
     0
 45
0.0
1001
ACAD
1000
AcDbSavedByObjectVersion
1070
     0
  0
VISUALSTYLE
  5
3166
102
{ACAD_XDICTIONARY
360
31D0
102
}
102
{ACAD_REACTORS
330
3153
102
}
330
3153
100
AcDbVisualStyle
  2
X-Ray
 70
    25
 71
     2
 72
     2
 73
     1
 90
        1
 40
0.5
 41
-30.0
 62
     5
 63
     7
 74
     1
 91
        0
 64
     7
 65
   257
 75
     1
175
     1
 42
1.0
 92
        8
 66
     7
 43
1.0
 76
     1
 77
     6
 78
     2
 67
     7
 79
     3
170
     0
171
     0
290
     0
174
     0
 93
       13
 44
0.0
173
     0
291
     0
 45
0.0
1001
ACAD
1000
AcDbSavedByObjectVersion
1070
     0
  0
DICTIONARYVAR
  5
319F
102
{ACAD_REACTORS
330
319A
102
}
330
319A
100
DictionaryVariables
280
     0
  1
1:1
  0
DICTIONARYVAR
  5
319C
102
{ACAD_REACTORS
330
319A
102
}
330
319A
100
DictionaryVariables
280
     0
  1
STANDARD
  0
DICTIONARYVAR
  5
319B
102
{ACAD_REACTORS
330
319A
102
}
330
319A
100
DictionaryVariables
280
     0
  1
STANDARD
  0
DICTIONARYVAR
  5
319D
102
{ACAD_REACTORS
330
319A
102
}
330
319A
100
DictionaryVariables
280
     0
  1
Imperial24
  0
DICTIONARYVAR
  5
319E
102
{ACAD_REACTORS
330
319A
102
}
330
319A
100
DictionaryVariables
280
     0
  1
Imperial24
  0
DICTIONARYVAR
  5
31A2
102
{ACAD_REACTORS
330
319A
102
}
330
319A
100
DictionaryVariables
280
     0
  1
1
  0
DICTIONARYVAR
  5
31A1
102
{ACAD_REACTORS
330
319A
102
}
330
319A
100
DictionaryVariables
280
     0
  1
0
  0
DICTIONARYVAR
  5
31A0
102
{ACAD_REACTORS
330
319A
102
}
330
319A
100
DictionaryVariables
280
     0
  1
127
  0
DICTIONARYVAR
  5
31A3
102
{ACAD_REACTORS
330
319A
102
}
330
319A
100
DictionaryVariables
280
     0
  1
2
  0
DICTIONARY
  5
31E0
330
3186
100
AcDbDictionary
280
     1
281
     1
  3
ACAD_XREC_ROUNDTRIP
360
31E1
  0
DICTIONARY
  5
31E2
330
3187
100
AcDbDictionary
280
     1
281
     1
  3
ACAD_XREC_ROUNDTRIP
360
31E3
  0
DICTIONARY
  5
31E4
330
3188
100
AcDbDictionary
280
     1
281
     1
  3
ACAD_XREC_ROUNDTRIP
360
31E5
  0
DICTIONARY
  5
3144
330
3143
100
AcDbDictionary
280
     1
281
     1
  3
ACAD_XREC_ROUNDTRIP
360
31AA
  3
BUMPTILE
360
3146
  3
DIFFUSETILE
360
3145
  3
OPACITYTILE
360
3149
  3
REFLECTIONTILE
360
3148
  3
REFRACTIONTILE
360
314A
  3
SPECULARTILE
360
3147
  0
DICTIONARY
  5
313C
330
313B
100
AcDbDictionary
280
     1
281
     1
  3
ACAD_XREC_ROUNDTRIP
360
31A9
  3
BUMPTILE
360
313E
  3
DIFFUSETILE
360
313D
  3
OPACITYTILE
360
3141
  3
REFLECTIONTILE
360
3140
  3
REFRACTIONTILE
360
3142
  3
SPECULARTILE
360
313F
  0
DICTIONARY
  5
314C
330
314B
100
AcDbDictionary
280
     1
281
     1
  3
ACAD_XREC_ROUNDTRIP
360
31AB
  3
BUMPTILE
360
314E
  3
DIFFUSETILE
360
314D
  3
OPACITYTILE
360
3151
  3
REFLECTIONTILE
360
3150
  3
REFRACTIONTILE
360
3152
  3
SPECULARTILE
360
314F
  0
DICTIONARY
  5
31DE
330
3184
100
AcDbDictionary
280
     1
281
     1
  3
ACAD_XREC_ROUNDTRIP
360
31DF
  0
DICTIONARY
  5
31A5
330
316E
100
AcDbDictionary
280
     1
281
     1
  3
ACAD_ROUNDTRIP_2008_TABLESTYLE_CELLSTYLEMAP
360
31A6
  3
ACAD_XREC_ROUNDTRIP
360
31DC
  0
DICTIONARY
  5
31B6
330
3159
100
AcDbDictionary
280
     1
281
     1
  3
ACAD_XREC_ROUNDTRIP
360
31B7
  0
DICTIONARY
  5
31B4
330
3158
100
AcDbDictionary
280
     1
281
     1
  3
ACAD_XREC_ROUNDTRIP
360
31B5
  0
DICTIONARY
  5
31C2
330
315F
100
AcDbDictionary
280
     1
281
     1
  3
ACAD_XREC_ROUNDTRIP
360
31C3
  0
DICTIONARY
  5
31CA
330
3163
100
AcDbDictionary
280
     1
281
     1
  3
ACAD_XREC_ROUNDTRIP
360
31CB
  0
DICTIONARY
  5
31BC
330
315C
100
AcDbDictionary
280
     1
281
     1
  3
ACAD_XREC_ROUNDTRIP
360
31BD
  0
DICTIONARY
  5
31C0
330
315E
100
AcDbDictionary
280
     1
281
     1
  3
ACAD_XREC_ROUNDTRIP
360
31C1
  0
DICTIONARY
  5
31DA
330
316B
100
AcDbDictionary
280
     1
281
     1
  3
ACAD_XREC_ROUNDTRIP
360
31DB
  0
DICTIONARY
  5
31C8
330
3162
100
AcDbDictionary
280
     1
281
     1
  3
ACAD_XREC_ROUNDTRIP
360
31C9
  0
DICTIONARY
  5
31AC
330
3154
100
AcDbDictionary
280
     1
281
     1
  3
ACAD_XREC_ROUNDTRIP
360
31AD
  0
DICTIONARY
  5
31AE
330
3155
100
AcDbDictionary
280
     1
281
     1
  3
ACAD_XREC_ROUNDTRIP
360
31AF
  0
DICTIONARY
  5
31B0
330
3156
100
AcDbDictionary
280
     1
281
     1
  3
ACAD_XREC_ROUNDTRIP
360
31B1
  0
DICTIONARY
  5
31B2
330
3157
100
AcDbDictionary
280
     1
281
     1
  3
ACAD_XREC_ROUNDTRIP
360
31B3
  0
DICTIONARY
  5
31BA
330
315B
100
AcDbDictionary
280
     1
281
     1
  3
ACAD_XREC_ROUNDTRIP
360
31BB
  0
DICTIONARY
  5
31D6
330
3169
100
AcDbDictionary
280
     1
281
     1
  3
ACAD_XREC_ROUNDTRIP
360
31D7
  0
DICTIONARY
  5
31C6
330
3161
100
AcDbDictionary
280
     1
281
     1
  3
ACAD_XREC_ROUNDTRIP
360
31C7
  0
DICTIONARY
  5
31D8
330
316A
100
AcDbDictionary
280
     1
281
     1
  3
ACAD_XREC_ROUNDTRIP
360
31D9
  0
DICTIONARY
  5
31BE
330
315D
100
AcDbDictionary
280
     1
281
     1
  3
ACAD_XREC_ROUNDTRIP
360
31BF
  0
DICTIONARY
  5
31D4
330
3168
100
AcDbDictionary
280
     1
281
     1
  3
ACAD_XREC_ROUNDTRIP
360
31D5
  0
DICTIONARY
  5
31D2
330
3167
100
AcDbDictionary
280
     1
281
     1
  3
ACAD_XREC_ROUNDTRIP
360
31D3
  0
DICTIONARY
  5
31CC
330
3164
100
AcDbDictionary
280
     1
281
     1
  3
ACAD_XREC_ROUNDTRIP
360
31CD
  0
DICTIONARY
  5
31CE
330
3165
100
AcDbDictionary
280
     1
281
     1
  3
ACAD_XREC_ROUNDTRIP
360
31CF
  0
DICTIONARY
  5
31C4
330
3160
100
AcDbDictionary
280
     1
281
     1
  3
ACAD_XREC_ROUNDTRIP
360
31C5
  0
DICTIONARY
  5
31B8
330
315A
100
AcDbDictionary
280
     1
281
     1
  3
ACAD_XREC_ROUNDTRIP
360
31B9
  0
DICTIONARY
  5
31D0
330
3166
100
AcDbDictionary
280
     1
281
     1
  3
ACAD_XREC_ROUNDTRIP
360
31D1
  0
XRECORD
  5
31E1
102
{ACAD_REACTORS
330
31E0
102
}
330
31E0
100
AcDbXrecord
280
     1
102
DISPLAYNAME
  1
Imperial24
102
FLAGS
 90
        0
  0
XRECORD
  5
31E3
102
{ACAD_REACTORS
330
31E2
102
}
330
31E2
100
AcDbXrecord
280
     1
102
SHADEPLOT
 70
     0
102
SHADEPLOTRESLEVEL
 70
     2
102
SHADEPLOTCUSTOMDPI
 70
   300
  0
XRECORD
  5
31E5
102
{ACAD_REACTORS
330
31E4
102
}
330
31E4
100
AcDbXrecord
280
     1
102
SHADEPLOT
 70
     0
102
SHADEPLOTRESLEVEL
 70
     2
102
SHADEPLOTCUSTOMDPI
 70
   300
  0
XRECORD
  5
31AA
102
{ACAD_REACTORS
330
3144
102
}
330
3144
100
AcDbXrecord
280
     1
102
MATERIAL
148
0.0
149
0.0
149
0.0
 93
        0
 94
      127
282
     0
 72
     0
 77
     0
171
     0
175
     0
179
     0
273
     0
  0
XRECORD
  5
3146
102
{ACAD_REACTORS
330
3144
102
}
330
3144
100
AcDbXrecord
280
     1
270
     1
271
     1
  0
XRECORD
  5
3145
102
{ACAD_REACTORS
330
3144
102
}
330
3144
100
AcDbXrecord
280
     1
270
     1
271
     1
  0
XRECORD
  5
3149
102
{ACAD_REACTORS
330
3144
102
}
330
3144
100
AcDbXrecord
280
     1
270
     1
271
     1
  0
XRECORD
  5
3148
102
{ACAD_REACTORS
330
3144
102
}
330
3144
100
AcDbXrecord
280
     1
270
     1
271
     1
  0
XRECORD
  5
314A
102
{ACAD_REACTORS
330
3144
102
}
330
3144
100
AcDbXrecord
280
     1
270
     1
271
     1
  0
XRECORD
  5
3147
102
{ACAD_REACTORS
330
3144
102
}
330
3144
100
AcDbXrecord
280
     1
270
     1
271
     1
  0
XRECORD
  5
31A9
102
{ACAD_REACTORS
330
313C
102
}
330
313C
100
AcDbXrecord
280
     1
102
MATERIAL
148
0.0
149
0.0
149
0.0
 93
        0
 94
      127
282
     0
 72
     0
 77
     0
171
     0
175
     0
179
     0
273
     0
  0
XRECORD
  5
313E
102
{ACAD_REACTORS
330
313C
102
}
330
313C
100
AcDbXrecord
280
     1
270
     1
271
     1
  0
XRECORD
  5
313D
102
{ACAD_REACTORS
330
313C
102
}
330
313C
100
AcDbXrecord
280
     1
270
     1
271
     1
  0
XRECORD
  5
3141
102
{ACAD_REACTORS
330
313C
102
}
330
313C
100
AcDbXrecord
280
     1
270
     1
271
     1
  0
XRECORD
  5
3140
102
{ACAD_REACTORS
330
313C
102
}
330
313C
100
AcDbXrecord
280
     1
270
     1
271
     1
  0
XRECORD
  5
3142
102
{ACAD_REACTORS
330
313C
102
}
330
313C
100
AcDbXrecord
280
     1
270
     1
271
     1
  0
XRECORD
  5
313F
102
{ACAD_REACTORS
330
313C
102
}
330
313C
100
AcDbXrecord
280
     1
270
     1
271
     1
  0
XRECORD
  5
31AB
102
{ACAD_REACTORS
330
314C
102
}
330
314C
100
AcDbXrecord
280
     1
102
MATERIAL
148
0.0
149
0.0
149
0.0
 93
        0
 94
      127
282
     0
 72
     0
 77
     0
171
     0
175
     0
179
     0
273
     0
  0
XRECORD
  5
314E
102
{ACAD_REACTORS
330
314C
102
}
330
314C
100
AcDbXrecord
280
     1
270
     1
271
     1
  0
XRECORD
  5
314D
102
{ACAD_REACTORS
330
314C
102
}
330
314C
100
AcDbXrecord
280
     1
270
     1
271
     1
  0
XRECORD
  5
3151
102
{ACAD_REACTORS
330
314C
102
}
330
314C
100
AcDbXrecord
280
     1
270
     1
271
     1
  0
XRECORD
  5
3150
102
{ACAD_REACTORS
330
314C
102
}
330
314C
100
AcDbXrecord
280
     1
270
     1
271
     1
  0
XRECORD
  5
3152
102
{ACAD_REACTORS
330
314C
102
}
330
314C
100
AcDbXrecord
280
     1
270
     1
271
     1
  0
XRECORD
  5
314F
102
{ACAD_REACTORS
330
314C
102
}
330
314C
100
AcDbXrecord
280
     1
270
     1
271
     1
  0
XRECORD
  5
31DF
102
{ACAD_REACTORS
330
31DE
102
}
330
31DE
100
AcDbXrecord
280
     1
102
DISPLAYNAME
  1
Imperial24
102
FLAGS
 90
        0
  0
CELLSTYLEMAP
  5
31A6
102
{ACAD_REACTORS
330
31A5
102
}
330
31A5
100
AcDbCellStyleMap
 90
        3
300
CELLSTYLE
  1
TABLEFORMAT_BEGIN
 90
        5
170
     1
 91
        0
 92
    32768
 62
   257
 93
        1
300
CONTENTFORMAT
  1
CONTENTFORMAT_BEGIN
 90
        0
 91
        0
 92
      512
 93
        0
300

 40
0.0
140
1.0
 94
        5
 62
     0
340
F
144
0.25
309
CONTENTFORMAT_END
171
     0
 94
        0
309
TABLEFORMAT_END
  1
CELLSTYLE_BEGIN
 90
        1
 91
        1
300
_TITLE
309
CELLSTYLE_END
300
CELLSTYLE
  1
TABLEFORMAT_BEGIN
 90
        5
170
     1
 91
        0
 92
        0
 62
   257
 93
        1
300
CONTENTFORMAT
  1
CONTENTFORMAT_BEGIN
 90
        0
 91
        0
 92
      512
 93
        0
300

 40
0.0
140
1.0
 94
        5
 62
     0
340
F
144
0.18
309
CONTENTFORMAT_END
171
     0
 94
        0
309
TABLEFORMAT_END
  1
CELLSTYLE_BEGIN
 90
        2
 91
        1
300
_HEADER
309
CELLSTYLE_END
300
CELLSTYLE
  1
TABLEFORMAT_BEGIN
 90
        5
170
     1
 91
        0
 92
        0
 62
   257
 93
        1
300
CONTENTFORMAT
  1
CONTENTFORMAT_BEGIN
 90
        0
 91
        0
 92
      512
 93
        0
300

 40
0.0
140
1.0
 94
        2
 62
     0
340
F
144
0.18
309
CONTENTFORMAT_END
171
     0
 94
        0
309
TABLEFORMAT_END
  1
CELLSTYLE_BEGIN
 90
        3
 91
        2
300
_DATA
309
CELLSTYLE_END
  0
XRECORD
  5
31DC
102
{ACAD_REACTORS
330
31A5
102
}
330
31A5
100
AcDbXrecord
280
     1
102
ACAD_ROUNDTRIP_PRE2007_TABLESTYLE
 90
      512
 91
        0
  1

 92
      512
 93
        0
  2

 94
      512
 95
        0
  3

  0
XRECORD
  5
31B7
102
{ACAD_REACTORS
330
31B6
102
}
330
31B6
100
AcDbXrecord
280
     1
102
RTVSPost2010Prop28
280
     1
102
RTVSPost2010PropOp28
 70
     1
102
RTVSPost2010Prop29
280
     1
102
RTVSPost2010PropOp29
 70
     1
102
RTVSPost2010Prop30
280
     0
102
RTVSPost2010PropOp30
 70
     1
102
RTVSPost2010Prop31
280
     0
102
RTVSPost2010PropOp31
 70
     1
102
RTVSPost2010Prop32
280
     0
102
RTVSPost2010PropOp32
 70
     1
102
RTVSPost2010Prop33
280
     0
102
RTVSPost2010PropOp33
 70
     1
102
RTVSPost2010Prop34
280
     0
102
RTVSPost2010PropOp34
 70
     1
102
RTVSPost2010Prop35
280
     0
102
RTVSPost2010PropOp35
 70
     1
102
RTVSPost2010Prop36
280
     0
102
RTVSPost2010PropOp36
 70
     1
102
RTVSPost2010Prop37
 90
       50
102
RTVSPost2010PropOp37
 70
     1
102
RTVSPost2010Prop38
140
0.0
102
RTVSPost2010PropOp38
 70
     1
102
RTVSPost2010Prop39
140
1.0
102
RTVSPost2010PropOp39
 70
     1
102
RTVSPost2010Prop40
 90
        0
102
RTVSPost2010PropOp40
 70
     1
102
RTVSPost2010Prop41ColorIndex
 90
       18
102
RTVSPost2010Prop41ColorRGB
 90
        0
102
RTVSPost2010PropOp41
 70
     1
102
RTVSPost2010Prop42
 90
       50
102
RTVSPost2010PropOp42
 70
     1
102
RTVSPost2010Prop43
 90
        3
102
RTVSPost2010PropOp43
 70
     1
102
RTVSPost2010Prop44ColorIndex
 90
        5
102
RTVSPost2010Prop44ColorRGB
 90
      255
102
RTVSPost2010PropOp44
 70
     1
102
RTVSPost2010Prop45
280
     0
102
RTVSPost2010PropOp45
 70
     1
102
RTVSPost2010Prop46
 90
       50
102
RTVSPost2010PropOp46
 70
     1
102
RTVSPost2010Prop47
 90
       50
102
RTVSPost2010PropOp47
 70
     1
102
RTVSPost2010Prop48
 90
       50
102
RTVSPost2010PropOp48
 70
     1
102
RTVSPost2010Prop49
280
     0
102
RTVSPost2010PropOp49
 70
     1
102
RTVSPost2010Prop50
 90
       50
102
RTVSPost2010PropOp50
 70
     1
102
RTVSPost2010Prop51ColorIndex
 90
      256
102
RTVSPost2010Prop51ColorRGB
 90
-16777216
102
RTVSPost2010PropOp51
 70
     0
102
RTVSPost2010Prop52
140
1.0
102
RTVSPost2010PropOp52
 70
     0
102
RTVSPost2010Prop53
 90
        2
102
RTVSPost2010PropOp53
 70
     1
102
RTVSPost2010Prop54
  1
strokes_ogs.tif
102
RTVSPost2010PropOp54
 70
     1
102
RTVSPost2010Prop55
280
     0
102
RTVSPost2010PropOp55
 70
     1
102
RTVSPost2010Prop56
140
1.0
102
RTVSPost2010PropOp56
 70
     1
102
RTVSPost2010Prop57
140
1.0
102
RTVSPost2010PropOp57
 70
     1
102
RTVSPropertyOp0
 70
     1
102
RTVSPropertyOp1
 70
     1
102
RTVSPropertyOp2
 70
     1
102
RTVSPropertyOp3
 70
     1
102
RTVSPropertyOp4
 70
     1
102
RTVSPropertyOp5
 70
     1
102
RTVSPropertyOp6
 70
     1
102
RTVSPropertyOp7
 70
     1
102
RTVSPropertyOp8
 70
     1
102
RTVSPropertyOp9
 70
     1
102
RTVSPropertyOp10
 70
     1
102
RTVSPropertyOp11
 70
     1
102
RTVSPropertyOp12
 70
     1
102
RTVSPropertyOp13
 70
     1
102
RTVSPropertyOp14
 70
     1
102
RTVSPropertyOp15
 70
     1
102
RTVSPropertyOp16
 70
     1
102
RTVSPropertyOp17
 70
     1
102
RTVSPropertyOp18
 70
     1
102
RTVSPropertyOp19
 70
     1
102
RTVSPropertyOp20
 70
     1
102
RTVSPropertyOp21
 70
     1
102
RTVSPropertyOp22
 70
     1
102
RTVSPropertyOp23
 70
     1
102
RTVSPropertyOp24
 70
     1
102
RTVSPropertyOp25
 70
     1
102
RTVSPropertyOp26
 70
     1
102
RTVSPropertyOp27
 70
     1
102
RTVSPropertyOp28
 70
     1
102
RTVSPropertyOp29
 70
     1
102
RTVSPropertyOp30
 70
     1
102
RTVSPropertyOp31
 70
     1
102
RTVSPropertyOp32
 70
     1
102
RTVSPropertyOp33
 70
     1
102
RTVSPropertyOp34
 70
     1
102
RTVSPropertyOp35
 70
     1
102
RTVSPropertyOp36
 70
     1
102
RTVSPropertyOp37
 70
     1
102
RTVSPropertyOp38
 70
     1
102
RTVSPropertyOp39
 70
     1
102
RTVSPropertyOp40
 70
     1
102
RTVSPropertyOp41
 70
     1
102
RTVSPropertyOp42
 70
     1
102
RTVSPropertyOp43
 70
     1
102
RTVSPropertyOp44
 70
     1
102
RTVSPropertyOp45
 70
     1
102
RTVSPropertyOp46
 70
     1
102
RTVSPropertyOp47
 70
     1
102
RTVSPropertyOp48
 70
     1
102
RTVSPropertyOp49
 70
     1
102
RTVSPropertyOp50
 70
     1
102
RTVSPropertyOp51
 70
     0
102
RTVSPropertyOp52
 70
     0
102
RTVSPropertyOp53
 70
     1
102
RTVSPropertyOp54
 70
     1
102
RTVSPropertyOp55
 70
     1
102
RTVSPropertyOp56
 70
     1
102
RTVSPropertyOp57
 70
     1
102
RTVSPropertyOp58
 70
     1
102
RTVSPropertyOp59
 70
     1
102
RTVSPropertyOp60
 70
     1
102
RTVSPropertyOp61
 70
     1
102
RTVSPropertyOp62
 70
     1
  0
XRECORD
  5
31B5
102
{ACAD_REACTORS
330
31B4
102
}
330
31B4
100
AcDbXrecord
280
     1
102
RTVSPost2010Prop28
280
     0
102
RTVSPost2010PropOp28
 70
     1
102
RTVSPost2010Prop29
280
     1
102
RTVSPost2010PropOp29
 70
     1
102
RTVSPost2010Prop30
280
     1
102
RTVSPost2010PropOp30
 70
     1
102
RTVSPost2010Prop31
280
     0
102
RTVSPost2010PropOp31
 70
     1
102
RTVSPost2010Prop32
280
     0
102
RTVSPost2010PropOp32
 70
     1
102
RTVSPost2010Prop33
280
     0
102
RTVSPost2010PropOp33
 70
     1
102
RTVSPost2010Prop34
280
     0
102
RTVSPost2010PropOp34
 70
     1
102
RTVSPost2010Prop35
280
     0
102
RTVSPost2010PropOp35
 70
     1
102
RTVSPost2010Prop36
280
     0
102
RTVSPost2010PropOp36
 70
     1
102
RTVSPost2010Prop37
 90
       50
102
RTVSPost2010PropOp37
 70
     1
102
RTVSPost2010Prop38
140
0.0
102
RTVSPost2010PropOp38
 70
     1
102
RTVSPost2010Prop39
140
1.0
102
RTVSPost2010PropOp39
 70
     1
102
RTVSPost2010Prop40
 90
        0
102
RTVSPost2010PropOp40
 70
     1
102
RTVSPost2010Prop41ColorIndex
 90
       18
102
RTVSPost2010Prop41ColorRGB
 90
        0
102
RTVSPost2010PropOp41
 70
     1
102
RTVSPost2010Prop42
 90
       50
102
RTVSPost2010PropOp42
 70
     1
102
RTVSPost2010Prop43
 90
        3
102
RTVSPost2010PropOp43
 70
     1
102
RTVSPost2010Prop44ColorIndex
 90
        5
102
RTVSPost2010Prop44ColorRGB
 90
      255
102
RTVSPost2010PropOp44
 70
     1
102
RTVSPost2010Prop45
280
     0
102
RTVSPost2010PropOp45
 70
     1
102
RTVSPost2010Prop46
 90
       50
102
RTVSPost2010PropOp46
 70
     1
102
RTVSPost2010Prop47
 90
       50
102
RTVSPost2010PropOp47
 70
     1
102
RTVSPost2010Prop48
 90
       50
102
RTVSPost2010PropOp48
 70
     1
102
RTVSPost2010Prop49
280
     0
102
RTVSPost2010PropOp49
 70
     1
102
RTVSPost2010Prop50
 90
       50
102
RTVSPost2010PropOp50
 70
     1
102
RTVSPost2010Prop51ColorIndex
 90
      256
102
RTVSPost2010Prop51ColorRGB
 90
-16777216
102
RTVSPost2010PropOp51
 70
     0
102
RTVSPost2010Prop52
140
1.0
102
RTVSPost2010PropOp52
 70
     0
102
RTVSPost2010Prop53
 90
        2
102
RTVSPost2010PropOp53
 70
     1
102
RTVSPost2010Prop54
  1
strokes_ogs.tif
102
RTVSPost2010PropOp54
 70
     1
102
RTVSPost2010Prop55
280
     0
102
RTVSPost2010PropOp55
 70
     1
102
RTVSPost2010Prop56
140
1.0
102
RTVSPost2010PropOp56
 70
     1
102
RTVSPost2010Prop57
140
1.0
102
RTVSPost2010PropOp57
 70
     1
102
RTVSPropertyOp0
 70
     1
102
RTVSPropertyOp1
 70
     1
102
RTVSPropertyOp2
 70
     1
102
RTVSPropertyOp3
 70
     1
102
RTVSPropertyOp4
 70
     1
102
RTVSPropertyOp5
 70
     1
102
RTVSPropertyOp6
 70
     1
102
RTVSPropertyOp7
 70
     1
102
RTVSPropertyOp8
 70
     1
102
RTVSPropertyOp9
 70
     1
102
RTVSPropertyOp10
 70
     1
102
RTVSPropertyOp11
 70
     1
102
RTVSPropertyOp12
 70
     1
102
RTVSPropertyOp13
 70
     1
102
RTVSPropertyOp14
 70
     1
102
RTVSPropertyOp15
 70
     1
102
RTVSPropertyOp16
 70
     1
102
RTVSPropertyOp17
 70
     1
102
RTVSPropertyOp18
 70
     1
102
RTVSPropertyOp19
 70
     1
102
RTVSPropertyOp20
 70
     1
102
RTVSPropertyOp21
 70
     1
102
RTVSPropertyOp22
 70
     1
102
RTVSPropertyOp23
 70
     1
102
RTVSPropertyOp24
 70
     1
102
RTVSPropertyOp25
 70
     1
102
RTVSPropertyOp26
 70
     1
102
RTVSPropertyOp27
 70
     1
102
RTVSPropertyOp28
 70
     1
102
RTVSPropertyOp29
 70
     1
102
RTVSPropertyOp30
 70
     1
102
RTVSPropertyOp31
 70
     1
102
RTVSPropertyOp32
 70
     1
102
RTVSPropertyOp33
 70
     1
102
RTVSPropertyOp34
 70
     1
102
RTVSPropertyOp35
 70
     1
102
RTVSPropertyOp36
 70
     1
102
RTVSPropertyOp37
 70
     1
102
RTVSPropertyOp38
 70
     1
102
RTVSPropertyOp39
 70
     1
102
RTVSPropertyOp40
 70
     1
102
RTVSPropertyOp41
 70
     1
102
RTVSPropertyOp42
 70
     1
102
RTVSPropertyOp43
 70
     1
102
RTVSPropertyOp44
 70
     1
102
RTVSPropertyOp45
 70
     1
102
RTVSPropertyOp46
 70
     1
102
RTVSPropertyOp47
 70
     1
102
RTVSPropertyOp48
 70
     1
102
RTVSPropertyOp49
 70
     1
102
RTVSPropertyOp50
 70
     1
102
RTVSPropertyOp51
 70
     0
102
RTVSPropertyOp52
 70
     0
102
RTVSPropertyOp53
 70
     1
102
RTVSPropertyOp54
 70
     1
102
RTVSPropertyOp55
 70
     1
102
RTVSPropertyOp56
 70
     1
102
RTVSPropertyOp57
 70
     1
102
RTVSPropertyOp58
 70
     1
102
RTVSPropertyOp59
 70
     1
102
RTVSPropertyOp60
 70
     1
102
RTVSPropertyOp61
 70
     1
102
RTVSPropertyOp62
 70
     1
  0
XRECORD
  5
31C3
102
{ACAD_REACTORS
330
31C2
102
}
330
31C2
100
AcDbXrecord
280
     1
102
RTVSPost2010Prop28
280
     0
102
RTVSPost2010PropOp28
 70
     1
102
RTVSPost2010Prop29
280
     1
102
RTVSPost2010PropOp29
 70
     1
102
RTVSPost2010Prop30
280
     1
102
RTVSPost2010PropOp30
 70
     1
102
RTVSPost2010Prop31
280
     0
102
RTVSPost2010PropOp31
 70
     1
102
RTVSPost2010Prop32
280
     0
102
RTVSPost2010PropOp32
 70
     1
102
RTVSPost2010Prop33
280
     0
102
RTVSPost2010PropOp33
 70
     1
102
RTVSPost2010Prop34
280
     0
102
RTVSPost2010PropOp34
 70
     1
102
RTVSPost2010Prop35
280
     0
102
RTVSPost2010PropOp35
 70
     1
102
RTVSPost2010Prop36
280
     0
102
RTVSPost2010PropOp36
 70
     1
102
RTVSPost2010Prop37
 90
       50
102
RTVSPost2010PropOp37
 70
     1
102
RTVSPost2010Prop38
140
0.0
102
RTVSPost2010PropOp38
 70
     1
102
RTVSPost2010Prop39
140
1.0
102
RTVSPost2010PropOp39
 70
     1
102
RTVSPost2010Prop40
 90
        0
102
RTVSPost2010PropOp40
 70
     1
102
RTVSPost2010Prop41ColorIndex
 90
       18
102
RTVSPost2010Prop41ColorRGB
 90
        0
102
RTVSPost2010PropOp41
 70
     1
102
RTVSPost2010Prop42
 90
       50
102
RTVSPost2010PropOp42
 70
     1
102
RTVSPost2010Prop43
 90
        3
102
RTVSPost2010PropOp43
 70
     1
102
RTVSPost2010Prop44ColorIndex
 90
        5
102
RTVSPost2010Prop44ColorRGB
 90
      255
102
RTVSPost2010PropOp44
 70
     1
102
RTVSPost2010Prop45
280
     0
102
RTVSPost2010PropOp45
 70
     1
102
RTVSPost2010Prop46
 90
       50
102
RTVSPost2010PropOp46
 70
     1
102
RTVSPost2010Prop47
 90
       50
102
RTVSPost2010PropOp47
 70
     1
102
RTVSPost2010Prop48
 90
       50
102
RTVSPost2010PropOp48
 70
     1
102
RTVSPost2010Prop49
280
     0
102
RTVSPost2010PropOp49
 70
     1
102
RTVSPost2010Prop50
 90
       50
102
RTVSPost2010PropOp50
 70
     1
102
RTVSPost2010Prop51ColorIndex
 90
      256
102
RTVSPost2010Prop51ColorRGB
 90
-16777216
102
RTVSPost2010PropOp51
 70
     0
102
RTVSPost2010Prop52
140
1.0
102
RTVSPost2010PropOp52
 70
     0
102
RTVSPost2010Prop53
 90
        2
102
RTVSPost2010PropOp53
 70
     1
102
RTVSPost2010Prop54
  1
strokes_ogs.tif
102
RTVSPost2010PropOp54
 70
     1
102
RTVSPost2010Prop55
280
     0
102
RTVSPost2010PropOp55
 70
     1
102
RTVSPost2010Prop56
140
1.0
102
RTVSPost2010PropOp56
 70
     1
102
RTVSPost2010Prop57
140
1.0
102
RTVSPost2010PropOp57
 70
     1
102
RTVSPropertyOp0
 70
     1
102
RTVSPropertyOp1
 70
     1
102
RTVSPropertyOp2
 70
     1
102
RTVSPropertyOp3
 70
     1
102
RTVSPropertyOp4
 70
     1
102
RTVSPropertyOp5
 70
     1
102
RTVSPropertyOp6
 70
     1
102
RTVSPropertyOp7
 70
     1
102
RTVSPropertyOp8
 70
     1
102
RTVSPropertyOp9
 70
     1
102
RTVSPropertyOp10
 70
     1
102
RTVSPropertyOp11
 70
     1
102
RTVSPropertyOp12
 70
     1
102
RTVSPropertyOp13
 70
     1
102
RTVSPropertyOp14
 70
     1
102
RTVSPropertyOp15
 70
     1
102
RTVSPropertyOp16
 70
     1
102
RTVSPropertyOp17
 70
     1
102
RTVSPropertyOp18
 70
     1
102
RTVSPropertyOp19
 70
     1
102
RTVSPropertyOp20
 70
     1
102
RTVSPropertyOp21
 70
     1
102
RTVSPropertyOp22
 70
     1
102
RTVSPropertyOp23
 70
     1
102
RTVSPropertyOp24
 70
     1
102
RTVSPropertyOp25
 70
     1
102
RTVSPropertyOp26
 70
     1
102
RTVSPropertyOp27
 70
     1
102
RTVSPropertyOp28
 70
     1
102
RTVSPropertyOp29
 70
     1
102
RTVSPropertyOp30
 70
     1
102
RTVSPropertyOp31
 70
     1
102
RTVSPropertyOp32
 70
     1
102
RTVSPropertyOp33
 70
     1
102
RTVSPropertyOp34
 70
     1
102
RTVSPropertyOp35
 70
     1
102
RTVSPropertyOp36
 70
     1
102
RTVSPropertyOp37
 70
     1
102
RTVSPropertyOp38
 70
     1
102
RTVSPropertyOp39
 70
     1
102
RTVSPropertyOp40
 70
     1
102
RTVSPropertyOp41
 70
     1
102
RTVSPropertyOp42
 70
     1
102
RTVSPropertyOp43
 70
     1
102
RTVSPropertyOp44
 70
     1
102
RTVSPropertyOp45
 70
     1
102
RTVSPropertyOp46
 70
     1
102
RTVSPropertyOp47
 70
     1
102
RTVSPropertyOp48
 70
     1
102
RTVSPropertyOp49
 70
     1
102
RTVSPropertyOp50
 70
     1
102
RTVSPropertyOp51
 70
     0
102
RTVSPropertyOp52
 70
     0
102
RTVSPropertyOp53
 70
     1
102
RTVSPropertyOp54
 70
     1
102
RTVSPropertyOp55
 70
     1
102
RTVSPropertyOp56
 70
     1
102
RTVSPropertyOp57
 70
     1
102
RTVSPropertyOp58
 70
     1
102
RTVSPropertyOp59
 70
     1
102
RTVSPropertyOp60
 70
     1
102
RTVSPropertyOp61
 70
     1
102
RTVSPropertyOp62
 70
     1
  0
XRECORD
  5
31CB
102
{ACAD_REACTORS
330
31CA
102
}
330
31CA
100
AcDbXrecord
280
     1
102
RTVSPost2010Prop28
280
     0
102
RTVSPost2010PropOp28
 70
     1
102
RTVSPost2010Prop29
280
     1
102
RTVSPost2010PropOp29
 70
     1
102
RTVSPost2010Prop30
280
     1
102
RTVSPost2010PropOp30
 70
     1
102
RTVSPost2010Prop31
280
     0
102
RTVSPost2010PropOp31
 70
     1
102
RTVSPost2010Prop32
280
     0
102
RTVSPost2010PropOp32
 70
     1
102
RTVSPost2010Prop33
280
     0
102
RTVSPost2010PropOp33
 70
     1
102
RTVSPost2010Prop34
280
     0
102
RTVSPost2010PropOp34
 70
     1
102
RTVSPost2010Prop35
280
     0
102
RTVSPost2010PropOp35
 70
     1
102
RTVSPost2010Prop36
280
     0
102
RTVSPost2010PropOp36
 70
     1
102
RTVSPost2010Prop37
 90
       50
102
RTVSPost2010PropOp37
 70
     1
102
RTVSPost2010Prop38
140
0.0
102
RTVSPost2010PropOp38
 70
     1
102
RTVSPost2010Prop39
140
1.0
102
RTVSPost2010PropOp39
 70
     1
102
RTVSPost2010Prop40
 90
        0
102
RTVSPost2010PropOp40
 70
     1
102
RTVSPost2010Prop41ColorIndex
 90
       18
102
RTVSPost2010Prop41ColorRGB
 90
        0
102
RTVSPost2010PropOp41
 70
     1
102
RTVSPost2010Prop42
 90
       50
102
RTVSPost2010PropOp42
 70
     1
102
RTVSPost2010Prop43
 90
        3
102
RTVSPost2010PropOp43
 70
     1
102
RTVSPost2010Prop44ColorIndex
 90
        5
102
RTVSPost2010Prop44ColorRGB
 90
      255
102
RTVSPost2010PropOp44
 70
     1
102
RTVSPost2010Prop45
280
     0
102
RTVSPost2010PropOp45
 70
     1
102
RTVSPost2010Prop46
 90
       50
102
RTVSPost2010PropOp46
 70
     1
102
RTVSPost2010Prop47
 90
       50
102
RTVSPost2010PropOp47
 70
     1
102
RTVSPost2010Prop48
 90
       50
102
RTVSPost2010PropOp48
 70
     1
102
RTVSPost2010Prop49
280
     0
102
RTVSPost2010PropOp49
 70
     1
102
RTVSPost2010Prop50
 90
       50
102
RTVSPost2010PropOp50
 70
     1
102
RTVSPost2010Prop51ColorIndex
 90
      256
102
RTVSPost2010Prop51ColorRGB
 90
-16777216
102
RTVSPost2010PropOp51
 70
     0
102
RTVSPost2010Prop52
140
1.0
102
RTVSPost2010PropOp52
 70
     0
102
RTVSPost2010Prop53
 90
        2
102
RTVSPost2010PropOp53
 70
     1
102
RTVSPost2010Prop54
  1
strokes_ogs.tif
102
RTVSPost2010PropOp54
 70
     1
102
RTVSPost2010Prop55
280
     0
102
RTVSPost2010PropOp55
 70
     1
102
RTVSPost2010Prop56
140
1.0
102
RTVSPost2010PropOp56
 70
     1
102
RTVSPost2010Prop57
140
1.0
102
RTVSPost2010PropOp57
 70
     1
102
RTVSPropertyOp0
 70
     1
102
RTVSPropertyOp1
 70
     1
102
RTVSPropertyOp2
 70
     1
102
RTVSPropertyOp3
 70
     1
102
RTVSPropertyOp4
 70
     1
102
RTVSPropertyOp5
 70
     1
102
RTVSPropertyOp6
 70
     1
102
RTVSPropertyOp7
 70
     1
102
RTVSPropertyOp8
 70
     1
102
RTVSPropertyOp9
 70
     1
102
RTVSPropertyOp10
 70
     1
102
RTVSPropertyOp11
 70
     1
102
RTVSPropertyOp12
 70
     1
102
RTVSPropertyOp13
 70
     1
102
RTVSPropertyOp14
 70
     1
102
RTVSPropertyOp15
 70
     1
102
RTVSPropertyOp16
 70
     1
102
RTVSPropertyOp17
 70
     1
102
RTVSPropertyOp18
 70
     1
102
RTVSPropertyOp19
 70
     1
102
RTVSPropertyOp20
 70
     1
102
RTVSPropertyOp21
 70
     1
102
RTVSPropertyOp22
 70
     1
102
RTVSPropertyOp23
 70
     1
102
RTVSPropertyOp24
 70
     1
102
RTVSPropertyOp25
 70
     1
102
RTVSPropertyOp26
 70
     1
102
RTVSPropertyOp27
 70
     1
102
RTVSPropertyOp28
 70
     1
102
RTVSPropertyOp29
 70
     1
102
RTVSPropertyOp30
 70
     1
102
RTVSPropertyOp31
 70
     1
102
RTVSPropertyOp32
 70
     1
102
RTVSPropertyOp33
 70
     1
102
RTVSPropertyOp34
 70
     1
102
RTVSPropertyOp35
 70
     1
102
RTVSPropertyOp36
 70
     1
102
RTVSPropertyOp37
 70
     1
102
RTVSPropertyOp38
 70
     1
102
RTVSPropertyOp39
 70
     1
102
RTVSPropertyOp40
 70
     1
102
RTVSPropertyOp41
 70
     1
102
RTVSPropertyOp42
 70
     1
102
RTVSPropertyOp43
 70
     1
102
RTVSPropertyOp44
 70
     1
102
RTVSPropertyOp45
 70
     1
102
RTVSPropertyOp46
 70
     1
102
RTVSPropertyOp47
 70
     1
102
RTVSPropertyOp48
 70
     1
102
RTVSPropertyOp49
 70
     1
102
RTVSPropertyOp50
 70
     1
102
RTVSPropertyOp51
 70
     0
102
RTVSPropertyOp52
 70
     0
102
RTVSPropertyOp53
 70
     1
102
RTVSPropertyOp54
 70
     1
102
RTVSPropertyOp55
 70
     1
102
RTVSPropertyOp56
 70
     1
102
RTVSPropertyOp57
 70
     1
102
RTVSPropertyOp58
 70
     1
102
RTVSPropertyOp59
 70
     1
102
RTVSPropertyOp60
 70
     1
102
RTVSPropertyOp61
 70
     1
102
RTVSPropertyOp62
 70
     1
  0
XRECORD
  5
31BD
102
{ACAD_REACTORS
330
31BC
102
}
330
31BC
100
AcDbXrecord
280
     1
102
RTVSPost2010Prop28
280
     0
102
RTVSPost2010PropOp28
 70
     1
102
RTVSPost2010Prop29
280
     1
102
RTVSPost2010PropOp29
 70
     1
102
RTVSPost2010Prop30
280
     1
102
RTVSPost2010PropOp30
 70
     1
102
RTVSPost2010Prop31
280
     0
102
RTVSPost2010PropOp31
 70
     1
102
RTVSPost2010Prop32
280
     0
102
RTVSPost2010PropOp32
 70
     1
102
RTVSPost2010Prop33
280
     0
102
RTVSPost2010PropOp33
 70
     1
102
RTVSPost2010Prop34
280
     0
102
RTVSPost2010PropOp34
 70
     1
102
RTVSPost2010Prop35
280
     0
102
RTVSPost2010PropOp35
 70
     1
102
RTVSPost2010Prop36
280
     0
102
RTVSPost2010PropOp36
 70
     1
102
RTVSPost2010Prop37
 90
       50
102
RTVSPost2010PropOp37
 70
     1
102
RTVSPost2010Prop38
140
0.0
102
RTVSPost2010PropOp38
 70
     1
102
RTVSPost2010Prop39
140
1.0
102
RTVSPost2010PropOp39
 70
     1
102
RTVSPost2010Prop40
 90
        0
102
RTVSPost2010PropOp40
 70
     1
102
RTVSPost2010Prop41ColorIndex
 90
       18
102
RTVSPost2010Prop41ColorRGB
 90
        0
102
RTVSPost2010PropOp41
 70
     1
102
RTVSPost2010Prop42
 90
       50
102
RTVSPost2010PropOp42
 70
     1
102
RTVSPost2010Prop43
 90
        3
102
RTVSPost2010PropOp43
 70
     1
102
RTVSPost2010Prop44ColorIndex
 90
        5
102
RTVSPost2010Prop44ColorRGB
 90
      255
102
RTVSPost2010PropOp44
 70
     1
102
RTVSPost2010Prop45
280
     0
102
RTVSPost2010PropOp45
 70
     1
102
RTVSPost2010Prop46
 90
       50
102
RTVSPost2010PropOp46
 70
     1
102
RTVSPost2010Prop47
 90
       50
102
RTVSPost2010PropOp47
 70
     1
102
RTVSPost2010Prop48
 90
       50
102
RTVSPost2010PropOp48
 70
     1
102
RTVSPost2010Prop49
280
     0
102
RTVSPost2010PropOp49
 70
     1
102
RTVSPost2010Prop50
 90
       50
102
RTVSPost2010PropOp50
 70
     1
102
RTVSPost2010Prop51ColorIndex
 90
      256
102
RTVSPost2010Prop51ColorRGB
 90
-16777216
102
RTVSPost2010PropOp51
 70
     0
102
RTVSPost2010Prop52
140
1.0
102
RTVSPost2010PropOp52
 70
     0
102
RTVSPost2010Prop53
 90
        2
102
RTVSPost2010PropOp53
 70
     1
102
RTVSPost2010Prop54
  1
strokes_ogs.tif
102
RTVSPost2010PropOp54
 70
     1
102
RTVSPost2010Prop55
280
     0
102
RTVSPost2010PropOp55
 70
     1
102
RTVSPost2010Prop56
140
1.0
102
RTVSPost2010PropOp56
 70
     1
102
RTVSPost2010Prop57
140
1.0
102
RTVSPost2010PropOp57
 70
     1
102
RTVSPropertyOp0
 70
     1
102
RTVSPropertyOp1
 70
     1
102
RTVSPropertyOp2
 70
     1
102
RTVSPropertyOp3
 70
     1
102
RTVSPropertyOp4
 70
     1
102
RTVSPropertyOp5
 70
     1
102
RTVSPropertyOp6
 70
     1
102
RTVSPropertyOp7
 70
     1
102
RTVSPropertyOp8
 70
     1
102
RTVSPropertyOp9
 70
     1
102
RTVSPropertyOp10
 70
     1
102
RTVSPropertyOp11
 70
     1
102
RTVSPropertyOp12
 70
     1
102
RTVSPropertyOp13
 70
     1
102
RTVSPropertyOp14
 70
     1
102
RTVSPropertyOp15
 70
     1
102
RTVSPropertyOp16
 70
     1
102
RTVSPropertyOp17
 70
     1
102
RTVSPropertyOp18
 70
     1
102
RTVSPropertyOp19
 70
     1
102
RTVSPropertyOp20
 70
     1
102
RTVSPropertyOp21
 70
     1
102
RTVSPropertyOp22
 70
     1
102
RTVSPropertyOp23
 70
     1
102
RTVSPropertyOp24
 70
     1
102
RTVSPropertyOp25
 70
     1
102
RTVSPropertyOp26
 70
     1
102
RTVSPropertyOp27
 70
     1
102
RTVSPropertyOp28
 70
     1
102
RTVSPropertyOp29
 70
     1
102
RTVSPropertyOp30
 70
     1
102
RTVSPropertyOp31
 70
     1
102
RTVSPropertyOp32
 70
     1
102
RTVSPropertyOp33
 70
     1
102
RTVSPropertyOp34
 70
     1
102
RTVSPropertyOp35
 70
     1
102
RTVSPropertyOp36
 70
     1
102
RTVSPropertyOp37
 70
     1
102
RTVSPropertyOp38
 70
     1
102
RTVSPropertyOp39
 70
     1
102
RTVSPropertyOp40
 70
     1
102
RTVSPropertyOp41
 70
     1
102
RTVSPropertyOp42
 70
     1
102
RTVSPropertyOp43
 70
     1
102
RTVSPropertyOp44
 70
     1
102
RTVSPropertyOp45
 70
     1
102
RTVSPropertyOp46
 70
     1
102
RTVSPropertyOp47
 70
     1
102
RTVSPropertyOp48
 70
     1
102
RTVSPropertyOp49
 70
     1
102
RTVSPropertyOp50
 70
     1
102
RTVSPropertyOp51
 70
     0
102
RTVSPropertyOp52
 70
     0
102
RTVSPropertyOp53
 70
     1
102
RTVSPropertyOp54
 70
     1
102
RTVSPropertyOp55
 70
     1
102
RTVSPropertyOp56
 70
     1
102
RTVSPropertyOp57
 70
     1
102
RTVSPropertyOp58
 70
     1
102
RTVSPropertyOp59
 70
     1
102
RTVSPropertyOp60
 70
     1
102
RTVSPropertyOp61
 70
     1
102
RTVSPropertyOp62
 70
     1
  0
XRECORD
  5
31C1
102
{ACAD_REACTORS
330
31C0
102
}
330
31C0
100
AcDbXrecord
280
     1
102
RTVSPost2010Prop28
280
     0
102
RTVSPost2010PropOp28
 70
     1
102
RTVSPost2010Prop29
280
     1
102
RTVSPost2010PropOp29
 70
     1
102
RTVSPost2010Prop30
280
     1
102
RTVSPost2010PropOp30
 70
     1
102
RTVSPost2010Prop31
280
     0
102
RTVSPost2010PropOp31
 70
     1
102
RTVSPost2010Prop32
280
     0
102
RTVSPost2010PropOp32
 70
     1
102
RTVSPost2010Prop33
280
     0
102
RTVSPost2010PropOp33
 70
     1
102
RTVSPost2010Prop34
280
     0
102
RTVSPost2010PropOp34
 70
     1
102
RTVSPost2010Prop35
280
     0
102
RTVSPost2010PropOp35
 70
     1
102
RTVSPost2010Prop36
280
     0
102
RTVSPost2010PropOp36
 70
     1
102
RTVSPost2010Prop37
 90
       50
102
RTVSPost2010PropOp37
 70
     1
102
RTVSPost2010Prop38
140
0.0
102
RTVSPost2010PropOp38
 70
     1
102
RTVSPost2010Prop39
140
1.0
102
RTVSPost2010PropOp39
 70
     1
102
RTVSPost2010Prop40
 90
        0
102
RTVSPost2010PropOp40
 70
     1
102
RTVSPost2010Prop41ColorIndex
 90
       18
102
RTVSPost2010Prop41ColorRGB
 90
        0
102
RTVSPost2010PropOp41
 70
     1
102
RTVSPost2010Prop42
 90
       50
102
RTVSPost2010PropOp42
 70
     1
102
RTVSPost2010Prop43
 90
        3
102
RTVSPost2010PropOp43
 70
     1
102
RTVSPost2010Prop44ColorIndex
 90
        5
102
RTVSPost2010Prop44ColorRGB
 90
      255
102
RTVSPost2010PropOp44
 70
     1
102
RTVSPost2010Prop45
280
     0
102
RTVSPost2010PropOp45
 70
     1
102
RTVSPost2010Prop46
 90
       50
102
RTVSPost2010PropOp46
 70
     1
102
RTVSPost2010Prop47
 90
       50
102
RTVSPost2010PropOp47
 70
     1
102
RTVSPost2010Prop48
 90
       50
102
RTVSPost2010PropOp48
 70
     1
102
RTVSPost2010Prop49
280
     0
102
RTVSPost2010PropOp49
 70
     1
102
RTVSPost2010Prop50
 90
       50
102
RTVSPost2010PropOp50
 70
     1
102
RTVSPost2010Prop51ColorIndex
 90
      256
102
RTVSPost2010Prop51ColorRGB
 90
-16777216
102
RTVSPost2010PropOp51
 70
     0
102
RTVSPost2010Prop52
140
1.0
102
RTVSPost2010PropOp52
 70
     0
102
RTVSPost2010Prop53
 90
        2
102
RTVSPost2010PropOp53
 70
     1
102
RTVSPost2010Prop54
  1
strokes_ogs.tif
102
RTVSPost2010PropOp54
 70
     1
102
RTVSPost2010Prop55
280
     0
102
RTVSPost2010PropOp55
 70
     1
102
RTVSPost2010Prop56
140
1.0
102
RTVSPost2010PropOp56
 70
     1
102
RTVSPost2010Prop57
140
1.0
102
RTVSPost2010PropOp57
 70
     1
102
RTVSPropertyOp0
 70
     1
102
RTVSPropertyOp1
 70
     1
102
RTVSPropertyOp2
 70
     1
102
RTVSPropertyOp3
 70
     1
102
RTVSPropertyOp4
 70
     1
102
RTVSPropertyOp5
 70
     1
102
RTVSPropertyOp6
 70
     1
102
RTVSPropertyOp7
 70
     1
102
RTVSPropertyOp8
 70
     1
102
RTVSPropertyOp9
 70
     1
102
RTVSPropertyOp10
 70
     1
102
RTVSPropertyOp11
 70
     1
102
RTVSPropertyOp12
 70
     1
102
RTVSPropertyOp13
 70
     1
102
RTVSPropertyOp14
 70
     1
102
RTVSPropertyOp15
 70
     1
102
RTVSPropertyOp16
 70
     1
102
RTVSPropertyOp17
 70
     1
102
RTVSPropertyOp18
 70
     1
102
RTVSPropertyOp19
 70
     1
102
RTVSPropertyOp20
 70
     1
102
RTVSPropertyOp21
 70
     1
102
RTVSPropertyOp22
 70
     1
102
RTVSPropertyOp23
 70
     1
102
RTVSPropertyOp24
 70
     1
102
RTVSPropertyOp25
 70
     1
102
RTVSPropertyOp26
 70
     1
102
RTVSPropertyOp27
 70
     1
102
RTVSPropertyOp28
 70
     1
102
RTVSPropertyOp29
 70
     1
102
RTVSPropertyOp30
 70
     1
102
RTVSPropertyOp31
 70
     1
102
RTVSPropertyOp32
 70
     1
102
RTVSPropertyOp33
 70
     1
102
RTVSPropertyOp34
 70
     1
102
RTVSPropertyOp35
 70
     1
102
RTVSPropertyOp36
 70
     1
102
RTVSPropertyOp37
 70
     1
102
RTVSPropertyOp38
 70
     1
102
RTVSPropertyOp39
 70
     1
102
RTVSPropertyOp40
 70
     1
102
RTVSPropertyOp41
 70
     1
102
RTVSPropertyOp42
 70
     1
102
RTVSPropertyOp43
 70
     1
102
RTVSPropertyOp44
 70
     1
102
RTVSPropertyOp45
 70
     1
102
RTVSPropertyOp46
 70
     1
102
RTVSPropertyOp47
 70
     1
102
RTVSPropertyOp48
 70
     1
102
RTVSPropertyOp49
 70
     1
102
RTVSPropertyOp50
 70
     1
102
RTVSPropertyOp51
 70
     0
102
RTVSPropertyOp52
 70
     0
102
RTVSPropertyOp53
 70
     1
102
RTVSPropertyOp54
 70
     1
102
RTVSPropertyOp55
 70
     1
102
RTVSPropertyOp56
 70
     1
102
RTVSPropertyOp57
 70
     1
102
RTVSPropertyOp58
 70
     1
102
RTVSPropertyOp59
 70
     1
102
RTVSPropertyOp60
 70
     1
102
RTVSPropertyOp61
 70
     1
102
RTVSPropertyOp62
 70
     1
  0
XRECORD
  5
31DB
102
{ACAD_REACTORS
330
31DA
102
}
330
31DA
100
AcDbXrecord
280
     1
102
RTVSPost2010Prop28
280
     0
102
RTVSPost2010PropOp28
 70
     1
102
RTVSPost2010Prop29
280
     1
102
RTVSPost2010PropOp29
 70
     1
102
RTVSPost2010Prop30
280
     1
102
RTVSPost2010PropOp30
 70
     1
102
RTVSPost2010Prop31
280
     0
102
RTVSPost2010PropOp31
 70
     1
102
RTVSPost2010Prop32
280
     0
102
RTVSPost2010PropOp32
 70
     1
102
RTVSPost2010Prop33
280
     0
102
RTVSPost2010PropOp33
 70
     1
102
RTVSPost2010Prop34
280
     0
102
RTVSPost2010PropOp34
 70
     1
102
RTVSPost2010Prop35
280
     0
102
RTVSPost2010PropOp35
 70
     1
102
RTVSPost2010Prop36
280
     0
102
RTVSPost2010PropOp36
 70
     1
102
RTVSPost2010Prop37
 90
       50
102
RTVSPost2010PropOp37
 70
     0
102
RTVSPost2010Prop38
140
0.0
102
RTVSPost2010PropOp38
 70
     0
102
RTVSPost2010Prop39
140
1.0
102
RTVSPost2010PropOp39
 70
     0
102
RTVSPost2010Prop40
 90
        0
102
RTVSPost2010PropOp40
 70
     0
102
RTVSPost2010Prop41ColorIndex
 90
       18
102
RTVSPost2010Prop41ColorRGB
 90
        0
102
RTVSPost2010PropOp41
 70
     0
102
RTVSPost2010Prop42
 90
       50
102
RTVSPost2010PropOp42
 70
     0
102
RTVSPost2010Prop43
 90
        3
102
RTVSPost2010PropOp43
 70
     0
102
RTVSPost2010Prop44ColorIndex
 90
        5
102
RTVSPost2010Prop44ColorRGB
 90
      255
102
RTVSPost2010PropOp44
 70
     0
102
RTVSPost2010Prop45
280
     0
102
RTVSPost2010PropOp45
 70
     1
102
RTVSPost2010Prop46
 90
       50
102
RTVSPost2010PropOp46
 70
     0
102
RTVSPost2010Prop47
 90
       50
102
RTVSPost2010PropOp47
 70
     0
102
RTVSPost2010Prop48
 90
       50
102
RTVSPost2010PropOp48
 70
     0
102
RTVSPost2010Prop49
280
     0
102
RTVSPost2010PropOp49
 70
     1
102
RTVSPost2010Prop50
 90
       50
102
RTVSPost2010PropOp50
 70
     0
102
RTVSPost2010Prop51ColorIndex
 90
      256
102
RTVSPost2010Prop51ColorRGB
 90
-16777216
102
RTVSPost2010PropOp51
 70
     0
102
RTVSPost2010Prop52
140
1.0
102
RTVSPost2010PropOp52
 70
     0
102
RTVSPost2010Prop53
 90
        2
102
RTVSPost2010PropOp53
 70
     0
102
RTVSPost2010Prop54
  1
strokes_ogs.tif
102
RTVSPost2010PropOp54
 70
     0
102
RTVSPost2010Prop55
280
     0
102
RTVSPost2010PropOp55
 70
     1
102
RTVSPost2010Prop56
140
1.0
102
RTVSPost2010PropOp56
 70
     0
102
RTVSPost2010Prop57
140
1.0
102
RTVSPost2010PropOp57
 70
     0
102
RTVSPropertyOp0
 70
     0
102
RTVSPropertyOp1
 70
     0
102
RTVSPropertyOp2
 70
     0
102
RTVSPropertyOp3
 70
     0
102
RTVSPropertyOp4
 70
     0
102
RTVSPropertyOp5
 70
     0
102
RTVSPropertyOp6
 70
     0
102
RTVSPropertyOp7
 70
     0
102
RTVSPropertyOp8
 70
     0
102
RTVSPropertyOp9
 70
     0
102
RTVSPropertyOp10
 70
     0
102
RTVSPropertyOp11
 70
     0
102
RTVSPropertyOp12
 70
     0
102
RTVSPropertyOp13
 70
     0
102
RTVSPropertyOp14
 70
     2
102
RTVSPropertyOp15
 70
     0
102
RTVSPropertyOp16
 70
     0
102
RTVSPropertyOp17
 70
     0
102
RTVSPropertyOp18
 70
     0
102
RTVSPropertyOp19
 70
     0
102
RTVSPropertyOp20
 70
     0
102
RTVSPropertyOp21
 70
     0
102
RTVSPropertyOp22
 70
     0
102
RTVSPropertyOp23
 70
     0
102
RTVSPropertyOp24
 70
     0
102
RTVSPropertyOp25
 70
     0
102
RTVSPropertyOp26
 70
     0
102
RTVSPropertyOp27
 70
     0
102
RTVSPropertyOp28
 70
     1
102
RTVSPropertyOp29
 70
     1
102
RTVSPropertyOp30
 70
     1
102
RTVSPropertyOp31
 70
     1
102
RTVSPropertyOp32
 70
     1
102
RTVSPropertyOp33
 70
     1
102
RTVSPropertyOp34
 70
     1
102
RTVSPropertyOp35
 70
     1
102
RTVSPropertyOp36
 70
     1
102
RTVSPropertyOp37
 70
     0
102
RTVSPropertyOp38
 70
     0
102
RTVSPropertyOp39
 70
     0
102
RTVSPropertyOp40
 70
     0
102
RTVSPropertyOp41
 70
     0
102
RTVSPropertyOp42
 70
     0
102
RTVSPropertyOp43
 70
     0
102
RTVSPropertyOp44
 70
     0
102
RTVSPropertyOp45
 70
     1
102
RTVSPropertyOp46
 70
     0
102
RTVSPropertyOp47
 70
     0
102
RTVSPropertyOp48
 70
     0
102
RTVSPropertyOp49
 70
     1
102
RTVSPropertyOp50
 70
     0
102
RTVSPropertyOp51
 70
     0
102
RTVSPropertyOp52
 70
     0
102
RTVSPropertyOp53
 70
     0
102
RTVSPropertyOp54
 70
     0
102
RTVSPropertyOp55
 70
     1
102
RTVSPropertyOp56
 70
     0
102
RTVSPropertyOp57
 70
     0
102
RTVSPropertyOp58
 70
     0
102
RTVSPropertyOp59
 70
     0
102
RTVSPropertyOp60
 70
     0
102
RTVSPropertyOp61
 70
     0
102
RTVSPropertyOp62
 70
     0
  0
XRECORD
  5
31C9
102
{ACAD_REACTORS
330
31C8
102
}
330
31C8
100
AcDbXrecord
280
     1
102
RTVSPost2010Prop28
280
     0
102
RTVSPost2010PropOp28
 70
     1
102
RTVSPost2010Prop29
280
     1
102
RTVSPost2010PropOp29
 70
     1
102
RTVSPost2010Prop30
280
     1
102
RTVSPost2010PropOp30
 70
     1
102
RTVSPost2010Prop31
280
     0
102
RTVSPost2010PropOp31
 70
     1
102
RTVSPost2010Prop32
280
     0
102
RTVSPost2010PropOp32
 70
     1
102
RTVSPost2010Prop33
280
     0
102
RTVSPost2010PropOp33
 70
     1
102
RTVSPost2010Prop34
280
     0
102
RTVSPost2010PropOp34
 70
     1
102
RTVSPost2010Prop35
280
     0
102
RTVSPost2010PropOp35
 70
     1
102
RTVSPost2010Prop36
280
     0
102
RTVSPost2010PropOp36
 70
     1
102
RTVSPost2010Prop37
 90
       50
102
RTVSPost2010PropOp37
 70
     1
102
RTVSPost2010Prop38
140
0.0
102
RTVSPost2010PropOp38
 70
     1
102
RTVSPost2010Prop39
140
1.0
102
RTVSPost2010PropOp39
 70
     1
102
RTVSPost2010Prop40
 90
        0
102
RTVSPost2010PropOp40
 70
     1
102
RTVSPost2010Prop41ColorIndex
 90
       18
102
RTVSPost2010Prop41ColorRGB
 90
        0
102
RTVSPost2010PropOp41
 70
     1
102
RTVSPost2010Prop42
 90
       50
102
RTVSPost2010PropOp42
 70
     1
102
RTVSPost2010Prop43
 90
        3
102
RTVSPost2010PropOp43
 70
     1
102
RTVSPost2010Prop44ColorIndex
 90
        5
102
RTVSPost2010Prop44ColorRGB
 90
      255
102
RTVSPost2010PropOp44
 70
     1
102
RTVSPost2010Prop45
280
     0
102
RTVSPost2010PropOp45
 70
     1
102
RTVSPost2010Prop46
 90
       50
102
RTVSPost2010PropOp46
 70
     1
102
RTVSPost2010Prop47
 90
       50
102
RTVSPost2010PropOp47
 70
     1
102
RTVSPost2010Prop48
 90
       50
102
RTVSPost2010PropOp48
 70
     1
102
RTVSPost2010Prop49
280
     0
102
RTVSPost2010PropOp49
 70
     1
102
RTVSPost2010Prop50
 90
       50
102
RTVSPost2010PropOp50
 70
     1
102
RTVSPost2010Prop51ColorIndex
 90
      256
102
RTVSPost2010Prop51ColorRGB
 90
-16777216
102
RTVSPost2010PropOp51
 70
     0
102
RTVSPost2010Prop52
140
1.0
102
RTVSPost2010PropOp52
 70
     0
102
RTVSPost2010Prop53
 90
        2
102
RTVSPost2010PropOp53
 70
     1
102
RTVSPost2010Prop54
  1
strokes_ogs.tif
102
RTVSPost2010PropOp54
 70
     1
102
RTVSPost2010Prop55
280
     0
102
RTVSPost2010PropOp55
 70
     1
102
RTVSPost2010Prop56
140
1.0
102
RTVSPost2010PropOp56
 70
     1
102
RTVSPost2010Prop57
140
1.0
102
RTVSPost2010PropOp57
 70
     1
102
RTVSPropertyOp0
 70
     1
102
RTVSPropertyOp1
 70
     1
102
RTVSPropertyOp2
 70
     1
102
RTVSPropertyOp3
 70
     1
102
RTVSPropertyOp4
 70
     1
102
RTVSPropertyOp5
 70
     1
102
RTVSPropertyOp6
 70
     1
102
RTVSPropertyOp7
 70
     1
102
RTVSPropertyOp8
 70
     1
102
RTVSPropertyOp9
 70
     1
102
RTVSPropertyOp10
 70
     1
102
RTVSPropertyOp11
 70
     1
102
RTVSPropertyOp12
 70
     1
102
RTVSPropertyOp13
 70
     1
102
RTVSPropertyOp14
 70
     1
102
RTVSPropertyOp15
 70
     1
102
RTVSPropertyOp16
 70
     1
102
RTVSPropertyOp17
 70
     1
102
RTVSPropertyOp18
 70
     1
102
RTVSPropertyOp19
 70
     1
102
RTVSPropertyOp20
 70
     1
102
RTVSPropertyOp21
 70
     1
102
RTVSPropertyOp22
 70
     1
102
RTVSPropertyOp23
 70
     1
102
RTVSPropertyOp24
 70
     1
102
RTVSPropertyOp25
 70
     1
102
RTVSPropertyOp26
 70
     1
102
RTVSPropertyOp27
 70
     1
102
RTVSPropertyOp28
 70
     1
102
RTVSPropertyOp29
 70
     1
102
RTVSPropertyOp30
 70
     1
102
RTVSPropertyOp31
 70
     1
102
RTVSPropertyOp32
 70
     1
102
RTVSPropertyOp33
 70
     1
102
RTVSPropertyOp34
 70
     1
102
RTVSPropertyOp35
 70
     1
102
RTVSPropertyOp36
 70
     1
102
RTVSPropertyOp37
 70
     1
102
RTVSPropertyOp38
 70
     1
102
RTVSPropertyOp39
 70
     1
102
RTVSPropertyOp40
 70
     1
102
RTVSPropertyOp41
 70
     1
102
RTVSPropertyOp42
 70
     1
102
RTVSPropertyOp43
 70
     1
102
RTVSPropertyOp44
 70
     1
102
RTVSPropertyOp45
 70
     1
102
RTVSPropertyOp46
 70
     1
102
RTVSPropertyOp47
 70
     1
102
RTVSPropertyOp48
 70
     1
102
RTVSPropertyOp49
 70
     1
102
RTVSPropertyOp50
 70
     1
102
RTVSPropertyOp51
 70
     0
102
RTVSPropertyOp52
 70
     0
102
RTVSPropertyOp53
 70
     1
102
RTVSPropertyOp54
 70
     1
102
RTVSPropertyOp55
 70
     1
102
RTVSPropertyOp56
 70
     1
102
RTVSPropertyOp57
 70
     1
102
RTVSPropertyOp58
 70
     1
102
RTVSPropertyOp59
 70
     1
102
RTVSPropertyOp60
 70
     1
102
RTVSPropertyOp61
 70
     1
102
RTVSPropertyOp62
 70
     1
  0
XRECORD
  5
31AD
102
{ACAD_REACTORS
330
31AC
102
}
330
31AC
100
AcDbXrecord
280
     1
102
RTVSPost2010Prop28
280
     0
102
RTVSPost2010PropOp28
 70
     1
102
RTVSPost2010Prop29
280
     1
102
RTVSPost2010PropOp29
 70
     1
102
RTVSPost2010Prop30
280
     1
102
RTVSPost2010PropOp30
 70
     1
102
RTVSPost2010Prop31
280
     0
102
RTVSPost2010PropOp31
 70
     1
102
RTVSPost2010Prop32
280
     0
102
RTVSPost2010PropOp32
 70
     1
102
RTVSPost2010Prop33
280
     0
102
RTVSPost2010PropOp33
 70
     1
102
RTVSPost2010Prop34
280
     0
102
RTVSPost2010PropOp34
 70
     1
102
RTVSPost2010Prop35
280
     0
102
RTVSPost2010PropOp35
 70
     1
102
RTVSPost2010Prop36
280
     0
102
RTVSPost2010PropOp36
 70
     1
102
RTVSPost2010Prop37
 90
       50
102
RTVSPost2010PropOp37
 70
     1
102
RTVSPost2010Prop38
140
0.0
102
RTVSPost2010PropOp38
 70
     1
102
RTVSPost2010Prop39
140
1.0
102
RTVSPost2010PropOp39
 70
     1
102
RTVSPost2010Prop40
 90
        0
102
RTVSPost2010PropOp40
 70
     1
102
RTVSPost2010Prop41ColorIndex
 90
       18
102
RTVSPost2010Prop41ColorRGB
 90
        0
102
RTVSPost2010PropOp41
 70
     1
102
RTVSPost2010Prop42
 90
       50
102
RTVSPost2010PropOp42
 70
     1
102
RTVSPost2010Prop43
 90
        3
102
RTVSPost2010PropOp43
 70
     1
102
RTVSPost2010Prop44ColorIndex
 90
        5
102
RTVSPost2010Prop44ColorRGB
 90
      255
102
RTVSPost2010PropOp44
 70
     1
102
RTVSPost2010Prop45
280
     0
102
RTVSPost2010PropOp45
 70
     1
102
RTVSPost2010Prop46
 90
       50
102
RTVSPost2010PropOp46
 70
     1
102
RTVSPost2010Prop47
 90
       50
102
RTVSPost2010PropOp47
 70
     1
102
RTVSPost2010Prop48
 90
       50
102
RTVSPost2010PropOp48
 70
     1
102
RTVSPost2010Prop49
280
     0
102
RTVSPost2010PropOp49
 70
     1
102
RTVSPost2010Prop50
 90
       50
102
RTVSPost2010PropOp50
 70
     1
102
RTVSPost2010Prop51ColorIndex
 90
      256
102
RTVSPost2010Prop51ColorRGB
 90
-16777216
102
RTVSPost2010PropOp51
 70
     0
102
RTVSPost2010Prop52
140
1.0
102
RTVSPost2010PropOp52
 70
     0
102
RTVSPost2010Prop53
 90
        2
102
RTVSPost2010PropOp53
 70
     1
102
RTVSPost2010Prop54
  1
strokes_ogs.tif
102
RTVSPost2010PropOp54
 70
     1
102
RTVSPost2010Prop55
280
     0
102
RTVSPost2010PropOp55
 70
     1
102
RTVSPost2010Prop56
140
1.0
102
RTVSPost2010PropOp56
 70
     1
102
RTVSPost2010Prop57
140
1.0
102
RTVSPost2010PropOp57
 70
     1
102
RTVSPropertyOp0
 70
     1
102
RTVSPropertyOp1
 70
     1
102
RTVSPropertyOp2
 70
     1
102
RTVSPropertyOp3
 70
     1
102
RTVSPropertyOp4
 70
     1
102
RTVSPropertyOp5
 70
     1
102
RTVSPropertyOp6
 70
     1
102
RTVSPropertyOp7
 70
     1
102
RTVSPropertyOp8
 70
     1
102
RTVSPropertyOp9
 70
     1
102
RTVSPropertyOp10
 70
     1
102
RTVSPropertyOp11
 70
     1
102
RTVSPropertyOp12
 70
     1
102
RTVSPropertyOp13
 70
     1
102
RTVSPropertyOp14
 70
     1
102
RTVSPropertyOp15
 70
     1
102
RTVSPropertyOp16
 70
     1
102
RTVSPropertyOp17
 70
     1
102
RTVSPropertyOp18
 70
     1
102
RTVSPropertyOp19
 70
     1
102
RTVSPropertyOp20
 70
     1
102
RTVSPropertyOp21
 70
     1
102
RTVSPropertyOp22
 70
     1
102
RTVSPropertyOp23
 70
     1
102
RTVSPropertyOp24
 70
     1
102
RTVSPropertyOp25
 70
     1
102
RTVSPropertyOp26
 70
     1
102
RTVSPropertyOp27
 70
     1
102
RTVSPropertyOp28
 70
     1
102
RTVSPropertyOp29
 70
     1
102
RTVSPropertyOp30
 70
     1
102
RTVSPropertyOp31
 70
     1
102
RTVSPropertyOp32
 70
     1
102
RTVSPropertyOp33
 70
     1
102
RTVSPropertyOp34
 70
     1
102
RTVSPropertyOp35
 70
     1
102
RTVSPropertyOp36
 70
     1
102
RTVSPropertyOp37
 70
     1
102
RTVSPropertyOp38
 70
     1
102
RTVSPropertyOp39
 70
     1
102
RTVSPropertyOp40
 70
     1
102
RTVSPropertyOp41
 70
     1
102
RTVSPropertyOp42
 70
     1
102
RTVSPropertyOp43
 70
     1
102
RTVSPropertyOp44
 70
     1
102
RTVSPropertyOp45
 70
     1
102
RTVSPropertyOp46
 70
     1
102
RTVSPropertyOp47
 70
     1
102
RTVSPropertyOp48
 70
     1
102
RTVSPropertyOp49
 70
     1
102
RTVSPropertyOp50
 70
     1
102
RTVSPropertyOp51
 70
     0
102
RTVSPropertyOp52
 70
     0
102
RTVSPropertyOp53
 70
     1
102
RTVSPropertyOp54
 70
     1
102
RTVSPropertyOp55
 70
     1
102
RTVSPropertyOp56
 70
     1
102
RTVSPropertyOp57
 70
     1
102
RTVSPropertyOp58
 70
     1
102
RTVSPropertyOp59
 70
     1
102
RTVSPropertyOp60
 70
     1
102
RTVSPropertyOp61
 70
     1
102
RTVSPropertyOp62
 70
     1
  0
XRECORD
  5
31AF
102
{ACAD_REACTORS
330
31AE
102
}
330
31AE
100
AcDbXrecord
280
     1
102
RTVSPost2010Prop28
280
     0
102
RTVSPost2010PropOp28
 70
     1
102
RTVSPost2010Prop29
280
     1
102
RTVSPost2010PropOp29
 70
     1
102
RTVSPost2010Prop30
280
     1
102
RTVSPost2010PropOp30
 70
     1
102
RTVSPost2010Prop31
280
     0
102
RTVSPost2010PropOp31
 70
     1
102
RTVSPost2010Prop32
280
     0
102
RTVSPost2010PropOp32
 70
     1
102
RTVSPost2010Prop33
280
     0
102
RTVSPost2010PropOp33
 70
     1
102
RTVSPost2010Prop34
280
     0
102
RTVSPost2010PropOp34
 70
     1
102
RTVSPost2010Prop35
280
     0
102
RTVSPost2010PropOp35
 70
     1
102
RTVSPost2010Prop36
280
     0
102
RTVSPost2010PropOp36
 70
     1
102
RTVSPost2010Prop37
 90
       50
102
RTVSPost2010PropOp37
 70
     1
102
RTVSPost2010Prop38
140
0.0
102
RTVSPost2010PropOp38
 70
     1
102
RTVSPost2010Prop39
140
1.0
102
RTVSPost2010PropOp39
 70
     1
102
RTVSPost2010Prop40
 90
        0
102
RTVSPost2010PropOp40
 70
     1
102
RTVSPost2010Prop41ColorIndex
 90
       18
102
RTVSPost2010Prop41ColorRGB
 90
        0
102
RTVSPost2010PropOp41
 70
     1
102
RTVSPost2010Prop42
 90
       50
102
RTVSPost2010PropOp42
 70
     1
102
RTVSPost2010Prop43
 90
        3
102
RTVSPost2010PropOp43
 70
     1
102
RTVSPost2010Prop44ColorIndex
 90
        5
102
RTVSPost2010Prop44ColorRGB
 90
      255
102
RTVSPost2010PropOp44
 70
     1
102
RTVSPost2010Prop45
280
     0
102
RTVSPost2010PropOp45
 70
     1
102
RTVSPost2010Prop46
 90
       50
102
RTVSPost2010PropOp46
 70
     1
102
RTVSPost2010Prop47
 90
       50
102
RTVSPost2010PropOp47
 70
     1
102
RTVSPost2010Prop48
 90
       50
102
RTVSPost2010PropOp48
 70
     1
102
RTVSPost2010Prop49
280
     0
102
RTVSPost2010PropOp49
 70
     1
102
RTVSPost2010Prop50
 90
       50
102
RTVSPost2010PropOp50
 70
     1
102
RTVSPost2010Prop51ColorIndex
 90
      256
102
RTVSPost2010Prop51ColorRGB
 90
-16777216
102
RTVSPost2010PropOp51
 70
     0
102
RTVSPost2010Prop52
140
1.0
102
RTVSPost2010PropOp52
 70
     0
102
RTVSPost2010Prop53
 90
        2
102
RTVSPost2010PropOp53
 70
     1
102
RTVSPost2010Prop54
  1
strokes_ogs.tif
102
RTVSPost2010PropOp54
 70
     1
102
RTVSPost2010Prop55
280
     0
102
RTVSPost2010PropOp55
 70
     1
102
RTVSPost2010Prop56
140
1.0
102
RTVSPost2010PropOp56
 70
     1
102
RTVSPost2010Prop57
140
1.0
102
RTVSPost2010PropOp57
 70
     1
102
RTVSPropertyOp0
 70
     1
102
RTVSPropertyOp1
 70
     1
102
RTVSPropertyOp2
 70
     1
102
RTVSPropertyOp3
 70
     1
102
RTVSPropertyOp4
 70
     1
102
RTVSPropertyOp5
 70
     1
102
RTVSPropertyOp6
 70
     1
102
RTVSPropertyOp7
 70
     1
102
RTVSPropertyOp8
 70
     1
102
RTVSPropertyOp9
 70
     1
102
RTVSPropertyOp10
 70
     1
102
RTVSPropertyOp11
 70
     1
102
RTVSPropertyOp12
 70
     1
102
RTVSPropertyOp13
 70
     1
102
RTVSPropertyOp14
 70
     1
102
RTVSPropertyOp15
 70
     1
102
RTVSPropertyOp16
 70
     1
102
RTVSPropertyOp17
 70
     1
102
RTVSPropertyOp18
 70
     1
102
RTVSPropertyOp19
 70
     1
102
RTVSPropertyOp20
 70
     1
102
RTVSPropertyOp21
 70
     1
102
RTVSPropertyOp22
 70
     1
102
RTVSPropertyOp23
 70
     1
102
RTVSPropertyOp24
 70
     1
102
RTVSPropertyOp25
 70
     1
102
RTVSPropertyOp26
 70
     1
102
RTVSPropertyOp27
 70
     1
102
RTVSPropertyOp28
 70
     1
102
RTVSPropertyOp29
 70
     1
102
RTVSPropertyOp30
 70
     1
102
RTVSPropertyOp31
 70
     1
102
RTVSPropertyOp32
 70
     1
102
RTVSPropertyOp33
 70
     1
102
RTVSPropertyOp34
 70
     1
102
RTVSPropertyOp35
 70
     1
102
RTVSPropertyOp36
 70
     1
102
RTVSPropertyOp37
 70
     1
102
RTVSPropertyOp38
 70
     1
102
RTVSPropertyOp39
 70
     1
102
RTVSPropertyOp40
 70
     1
102
RTVSPropertyOp41
 70
     1
102
RTVSPropertyOp42
 70
     1
102
RTVSPropertyOp43
 70
     1
102
RTVSPropertyOp44
 70
     1
102
RTVSPropertyOp45
 70
     1
102
RTVSPropertyOp46
 70
     1
102
RTVSPropertyOp47
 70
     1
102
RTVSPropertyOp48
 70
     1
102
RTVSPropertyOp49
 70
     1
102
RTVSPropertyOp50
 70
     1
102
RTVSPropertyOp51
 70
     0
102
RTVSPropertyOp52
 70
     0
102
RTVSPropertyOp53
 70
     1
102
RTVSPropertyOp54
 70
     1
102
RTVSPropertyOp55
 70
     1
102
RTVSPropertyOp56
 70
     1
102
RTVSPropertyOp57
 70
     1
102
RTVSPropertyOp58
 70
     1
102
RTVSPropertyOp59
 70
     1
102
RTVSPropertyOp60
 70
     1
102
RTVSPropertyOp61
 70
     1
102
RTVSPropertyOp62
 70
     1
  0
XRECORD
  5
31B1
102
{ACAD_REACTORS
330
31B0
102
}
330
31B0
100
AcDbXrecord
280
     1
102
RTVSPost2010Prop28
280
     0
102
RTVSPost2010PropOp28
 70
     1
102
RTVSPost2010Prop29
280
     1
102
RTVSPost2010PropOp29
 70
     1
102
RTVSPost2010Prop30
280
     1
102
RTVSPost2010PropOp30
 70
     1
102
RTVSPost2010Prop31
280
     0
102
RTVSPost2010PropOp31
 70
     1
102
RTVSPost2010Prop32
280
     0
102
RTVSPost2010PropOp32
 70
     1
102
RTVSPost2010Prop33
280
     0
102
RTVSPost2010PropOp33
 70
     1
102
RTVSPost2010Prop34
280
     0
102
RTVSPost2010PropOp34
 70
     1
102
RTVSPost2010Prop35
280
     0
102
RTVSPost2010PropOp35
 70
     1
102
RTVSPost2010Prop36
280
     0
102
RTVSPost2010PropOp36
 70
     1
102
RTVSPost2010Prop37
 90
       50
102
RTVSPost2010PropOp37
 70
     1
102
RTVSPost2010Prop38
140
0.0
102
RTVSPost2010PropOp38
 70
     1
102
RTVSPost2010Prop39
140
1.0
102
RTVSPost2010PropOp39
 70
     1
102
RTVSPost2010Prop40
 90
        0
102
RTVSPost2010PropOp40
 70
     1
102
RTVSPost2010Prop41ColorIndex
 90
       18
102
RTVSPost2010Prop41ColorRGB
 90
        0
102
RTVSPost2010PropOp41
 70
     1
102
RTVSPost2010Prop42
 90
       50
102
RTVSPost2010PropOp42
 70
     1
102
RTVSPost2010Prop43
 90
        3
102
RTVSPost2010PropOp43
 70
     1
102
RTVSPost2010Prop44ColorIndex
 90
        5
102
RTVSPost2010Prop44ColorRGB
 90
      255
102
RTVSPost2010PropOp44
 70
     1
102
RTVSPost2010Prop45
280
     0
102
RTVSPost2010PropOp45
 70
     1
102
RTVSPost2010Prop46
 90
       50
102
RTVSPost2010PropOp46
 70
     1
102
RTVSPost2010Prop47
 90
       50
102
RTVSPost2010PropOp47
 70
     1
102
RTVSPost2010Prop48
 90
       50
102
RTVSPost2010PropOp48
 70
     1
102
RTVSPost2010Prop49
280
     0
102
RTVSPost2010PropOp49
 70
     1
102
RTVSPost2010Prop50
 90
       50
102
RTVSPost2010PropOp50
 70
     1
102
RTVSPost2010Prop51ColorIndex
 90
      256
102
RTVSPost2010Prop51ColorRGB
 90
-16777216
102
RTVSPost2010PropOp51
 70
     0
102
RTVSPost2010Prop52
140
1.0
102
RTVSPost2010PropOp52
 70
     0
102
RTVSPost2010Prop53
 90
        2
102
RTVSPost2010PropOp53
 70
     1
102
RTVSPost2010Prop54
  1
strokes_ogs.tif
102
RTVSPost2010PropOp54
 70
     1
102
RTVSPost2010Prop55
280
     0
102
RTVSPost2010PropOp55
 70
     1
102
RTVSPost2010Prop56
140
1.0
102
RTVSPost2010PropOp56
 70
     1
102
RTVSPost2010Prop57
140
1.0
102
RTVSPost2010PropOp57
 70
     1
102
RTVSPropertyOp0
 70
     1
102
RTVSPropertyOp1
 70
     1
102
RTVSPropertyOp2
 70
     1
102
RTVSPropertyOp3
 70
     1
102
RTVSPropertyOp4
 70
     1
102
RTVSPropertyOp5
 70
     1
102
RTVSPropertyOp6
 70
     1
102
RTVSPropertyOp7
 70
     1
102
RTVSPropertyOp8
 70
     1
102
RTVSPropertyOp9
 70
     1
102
RTVSPropertyOp10
 70
     1
102
RTVSPropertyOp11
 70
     1
102
RTVSPropertyOp12
 70
     1
102
RTVSPropertyOp13
 70
     1
102
RTVSPropertyOp14
 70
     1
102
RTVSPropertyOp15
 70
     1
102
RTVSPropertyOp16
 70
     1
102
RTVSPropertyOp17
 70
     1
102
RTVSPropertyOp18
 70
     1
102
RTVSPropertyOp19
 70
     1
102
RTVSPropertyOp20
 70
     1
102
RTVSPropertyOp21
 70
     1
102
RTVSPropertyOp22
 70
     1
102
RTVSPropertyOp23
 70
     1
102
RTVSPropertyOp24
 70
     1
102
RTVSPropertyOp25
 70
     1
102
RTVSPropertyOp26
 70
     1
102
RTVSPropertyOp27
 70
     1
102
RTVSPropertyOp28
 70
     1
102
RTVSPropertyOp29
 70
     1
102
RTVSPropertyOp30
 70
     1
102
RTVSPropertyOp31
 70
     1
102
RTVSPropertyOp32
 70
     1
102
RTVSPropertyOp33
 70
     1
102
RTVSPropertyOp34
 70
     1
102
RTVSPropertyOp35
 70
     1
102
RTVSPropertyOp36
 70
     1
102
RTVSPropertyOp37
 70
     1
102
RTVSPropertyOp38
 70
     1
102
RTVSPropertyOp39
 70
     1
102
RTVSPropertyOp40
 70
     1
102
RTVSPropertyOp41
 70
     1
102
RTVSPropertyOp42
 70
     1
102
RTVSPropertyOp43
 70
     1
102
RTVSPropertyOp44
 70
     1
102
RTVSPropertyOp45
 70
     1
102
RTVSPropertyOp46
 70
     1
102
RTVSPropertyOp47
 70
     1
102
RTVSPropertyOp48
 70
     1
102
RTVSPropertyOp49
 70
     1
102
RTVSPropertyOp50
 70
     1
102
RTVSPropertyOp51
 70
     0
102
RTVSPropertyOp52
 70
     0
102
RTVSPropertyOp53
 70
     1
102
RTVSPropertyOp54
 70
     1
102
RTVSPropertyOp55
 70
     1
102
RTVSPropertyOp56
 70
     1
102
RTVSPropertyOp57
 70
     1
102
RTVSPropertyOp58
 70
     1
102
RTVSPropertyOp59
 70
     1
102
RTVSPropertyOp60
 70
     1
102
RTVSPropertyOp61
 70
     1
102
RTVSPropertyOp62
 70
     1
  0
XRECORD
  5
31B3
102
{ACAD_REACTORS
330
31B2
102
}
330
31B2
100
AcDbXrecord
280
     1
102
RTVSPost2010Prop28
280
     0
102
RTVSPost2010PropOp28
 70
     1
102
RTVSPost2010Prop29
280
     1
102
RTVSPost2010PropOp29
 70
     1
102
RTVSPost2010Prop30
280
     1
102
RTVSPost2010PropOp30
 70
     1
102
RTVSPost2010Prop31
280
     0
102
RTVSPost2010PropOp31
 70
     1
102
RTVSPost2010Prop32
280
     0
102
RTVSPost2010PropOp32
 70
     1
102
RTVSPost2010Prop33
280
     0
102
RTVSPost2010PropOp33
 70
     1
102
RTVSPost2010Prop34
280
     0
102
RTVSPost2010PropOp34
 70
     1
102
RTVSPost2010Prop35
280
     0
102
RTVSPost2010PropOp35
 70
     1
102
RTVSPost2010Prop36
280
     0
102
RTVSPost2010PropOp36
 70
     1
102
RTVSPost2010Prop37
 90
       50
102
RTVSPost2010PropOp37
 70
     1
102
RTVSPost2010Prop38
140
0.0
102
RTVSPost2010PropOp38
 70
     1
102
RTVSPost2010Prop39
140
1.0
102
RTVSPost2010PropOp39
 70
     1
102
RTVSPost2010Prop40
 90
        0
102
RTVSPost2010PropOp40
 70
     1
102
RTVSPost2010Prop41ColorIndex
 90
       18
102
RTVSPost2010Prop41ColorRGB
 90
        0
102
RTVSPost2010PropOp41
 70
     1
102
RTVSPost2010Prop42
 90
       50
102
RTVSPost2010PropOp42
 70
     1
102
RTVSPost2010Prop43
 90
        3
102
RTVSPost2010PropOp43
 70
     1
102
RTVSPost2010Prop44ColorIndex
 90
        5
102
RTVSPost2010Prop44ColorRGB
 90
      255
102
RTVSPost2010PropOp44
 70
     1
102
RTVSPost2010Prop45
280
     0
102
RTVSPost2010PropOp45
 70
     1
102
RTVSPost2010Prop46
 90
       50
102
RTVSPost2010PropOp46
 70
     1
102
RTVSPost2010Prop47
 90
       50
102
RTVSPost2010PropOp47
 70
     1
102
RTVSPost2010Prop48
 90
       50
102
RTVSPost2010PropOp48
 70
     1
102
RTVSPost2010Prop49
280
     0
102
RTVSPost2010PropOp49
 70
     1
102
RTVSPost2010Prop50
 90
       50
102
RTVSPost2010PropOp50
 70
     1
102
RTVSPost2010Prop51ColorIndex
 90
      256
102
RTVSPost2010Prop51ColorRGB
 90
-16777216
102
RTVSPost2010PropOp51
 70
     0
102
RTVSPost2010Prop52
140
1.0
102
RTVSPost2010PropOp52
 70
     0
102
RTVSPost2010Prop53
 90
        2
102
RTVSPost2010PropOp53
 70
     1
102
RTVSPost2010Prop54
  1
strokes_ogs.tif
102
RTVSPost2010PropOp54
 70
     1
102
RTVSPost2010Prop55
280
     0
102
RTVSPost2010PropOp55
 70
     1
102
RTVSPost2010Prop56
140
1.0
102
RTVSPost2010PropOp56
 70
     1
102
RTVSPost2010Prop57
140
1.0
102
RTVSPost2010PropOp57
 70
     1
102
RTVSPropertyOp0
 70
     1
102
RTVSPropertyOp1
 70
     1
102
RTVSPropertyOp2
 70
     1
102
RTVSPropertyOp3
 70
     1
102
RTVSPropertyOp4
 70
     1
102
RTVSPropertyOp5
 70
     1
102
RTVSPropertyOp6
 70
     1
102
RTVSPropertyOp7
 70
     1
102
RTVSPropertyOp8
 70
     1
102
RTVSPropertyOp9
 70
     1
102
RTVSPropertyOp10
 70
     1
102
RTVSPropertyOp11
 70
     1
102
RTVSPropertyOp12
 70
     1
102
RTVSPropertyOp13
 70
     1
102
RTVSPropertyOp14
 70
     1
102
RTVSPropertyOp15
 70
     1
102
RTVSPropertyOp16
 70
     1
102
RTVSPropertyOp17
 70
     1
102
RTVSPropertyOp18
 70
     1
102
RTVSPropertyOp19
 70
     1
102
RTVSPropertyOp20
 70
     1
102
RTVSPropertyOp21
 70
     1
102
RTVSPropertyOp22
 70
     1
102
RTVSPropertyOp23
 70
     1
102
RTVSPropertyOp24
 70
     1
102
RTVSPropertyOp25
 70
     1
102
RTVSPropertyOp26
 70
     1
102
RTVSPropertyOp27
 70
     1
102
RTVSPropertyOp28
 70
     1
102
RTVSPropertyOp29
 70
     1
102
RTVSPropertyOp30
 70
     1
102
RTVSPropertyOp31
 70
     1
102
RTVSPropertyOp32
 70
     1
102
RTVSPropertyOp33
 70
     1
102
RTVSPropertyOp34
 70
     1
102
RTVSPropertyOp35
 70
     1
102
RTVSPropertyOp36
 70
     1
102
RTVSPropertyOp37
 70
     1
102
RTVSPropertyOp38
 70
     1
102
RTVSPropertyOp39
 70
     1
102
RTVSPropertyOp40
 70
     1
102
RTVSPropertyOp41
 70
     1
102
RTVSPropertyOp42
 70
     1
102
RTVSPropertyOp43
 70
     1
102
RTVSPropertyOp44
 70
     1
102
RTVSPropertyOp45
 70
     1
102
RTVSPropertyOp46
 70
     1
102
RTVSPropertyOp47
 70
     1
102
RTVSPropertyOp48
 70
     1
102
RTVSPropertyOp49
 70
     1
102
RTVSPropertyOp50
 70
     1
102
RTVSPropertyOp51
 70
     0
102
RTVSPropertyOp52
 70
     0
102
RTVSPropertyOp53
 70
     1
102
RTVSPropertyOp54
 70
     1
102
RTVSPropertyOp55
 70
     1
102
RTVSPropertyOp56
 70
     1
102
RTVSPropertyOp57
 70
     1
102
RTVSPropertyOp58
 70
     1
102
RTVSPropertyOp59
 70
     1
102
RTVSPropertyOp60
 70
     1
102
RTVSPropertyOp61
 70
     1
102
RTVSPropertyOp62
 70
     1
  0
XRECORD
  5
31BB
102
{ACAD_REACTORS
330
31BA
102
}
330
31BA
100
AcDbXrecord
280
     1
102
RTVSPost2010Prop28
280
     0
102
RTVSPost2010PropOp28
 70
     1
102
RTVSPost2010Prop29
280
     1
102
RTVSPost2010PropOp29
 70
     1
102
RTVSPost2010Prop30
280
     1
102
RTVSPost2010PropOp30
 70
     1
102
RTVSPost2010Prop31
280
     0
102
RTVSPost2010PropOp31
 70
     1
102
RTVSPost2010Prop32
280
     0
102
RTVSPost2010PropOp32
 70
     1
102
RTVSPost2010Prop33
280
     0
102
RTVSPost2010PropOp33
 70
     1
102
RTVSPost2010Prop34
280
     0
102
RTVSPost2010PropOp34
 70
     1
102
RTVSPost2010Prop35
280
     0
102
RTVSPost2010PropOp35
 70
     1
102
RTVSPost2010Prop36
280
     0
102
RTVSPost2010PropOp36
 70
     1
102
RTVSPost2010Prop37
 90
       50
102
RTVSPost2010PropOp37
 70
     1
102
RTVSPost2010Prop38
140
0.0
102
RTVSPost2010PropOp38
 70
     1
102
RTVSPost2010Prop39
140
1.0
102
RTVSPost2010PropOp39
 70
     1
102
RTVSPost2010Prop40
 90
        0
102
RTVSPost2010PropOp40
 70
     1
102
RTVSPost2010Prop41ColorIndex
 90
       18
102
RTVSPost2010Prop41ColorRGB
 90
        0
102
RTVSPost2010PropOp41
 70
     1
102
RTVSPost2010Prop42
 90
       50
102
RTVSPost2010PropOp42
 70
     1
102
RTVSPost2010Prop43
 90
        3
102
RTVSPost2010PropOp43
 70
     1
102
RTVSPost2010Prop44ColorIndex
 90
        5
102
RTVSPost2010Prop44ColorRGB
 90
      255
102
RTVSPost2010PropOp44
 70
     1
102
RTVSPost2010Prop45
280
     0
102
RTVSPost2010PropOp45
 70
     1
102
RTVSPost2010Prop46
 90
       50
102
RTVSPost2010PropOp46
 70
     1
102
RTVSPost2010Prop47
 90
       50
102
RTVSPost2010PropOp47
 70
     1
102
RTVSPost2010Prop48
 90
       50
102
RTVSPost2010PropOp48
 70
     1
102
RTVSPost2010Prop49
280
     0
102
RTVSPost2010PropOp49
 70
     1
102
RTVSPost2010Prop50
 90
       50
102
RTVSPost2010PropOp50
 70
     1
102
RTVSPost2010Prop51ColorIndex
 90
      256
102
RTVSPost2010Prop51ColorRGB
 90
-16777216
102
RTVSPost2010PropOp51
 70
     0
102
RTVSPost2010Prop52
140
1.0
102
RTVSPost2010PropOp52
 70
     0
102
RTVSPost2010Prop53
 90
        2
102
RTVSPost2010PropOp53
 70
     1
102
RTVSPost2010Prop54
  1
strokes_ogs.tif
102
RTVSPost2010PropOp54
 70
     1
102
RTVSPost2010Prop55
280
     0
102
RTVSPost2010PropOp55
 70
     1
102
RTVSPost2010Prop56
140
1.0
102
RTVSPost2010PropOp56
 70
     1
102
RTVSPost2010Prop57
140
1.0
102
RTVSPost2010PropOp57
 70
     1
102
RTVSPropertyOp0
 70
     1
102
RTVSPropertyOp1
 70
     1
102
RTVSPropertyOp2
 70
     1
102
RTVSPropertyOp3
 70
     1
102
RTVSPropertyOp4
 70
     1
102
RTVSPropertyOp5
 70
     1
102
RTVSPropertyOp6
 70
     1
102
RTVSPropertyOp7
 70
     1
102
RTVSPropertyOp8
 70
     1
102
RTVSPropertyOp9
 70
     1
102
RTVSPropertyOp10
 70
     1
102
RTVSPropertyOp11
 70
     1
102
RTVSPropertyOp12
 70
     1
102
RTVSPropertyOp13
 70
     1
102
RTVSPropertyOp14
 70
     1
102
RTVSPropertyOp15
 70
     1
102
RTVSPropertyOp16
 70
     1
102
RTVSPropertyOp17
 70
     1
102
RTVSPropertyOp18
 70
     1
102
RTVSPropertyOp19
 70
     1
102
RTVSPropertyOp20
 70
     1
102
RTVSPropertyOp21
 70
     1
102
RTVSPropertyOp22
 70
     1
102
RTVSPropertyOp23
 70
     1
102
RTVSPropertyOp24
 70
     1
102
RTVSPropertyOp25
 70
     1
102
RTVSPropertyOp26
 70
     1
102
RTVSPropertyOp27
 70
     1
102
RTVSPropertyOp28
 70
     1
102
RTVSPropertyOp29
 70
     1
102
RTVSPropertyOp30
 70
     1
102
RTVSPropertyOp31
 70
     1
102
RTVSPropertyOp32
 70
     1
102
RTVSPropertyOp33
 70
     1
102
RTVSPropertyOp34
 70
     1
102
RTVSPropertyOp35
 70
     1
102
RTVSPropertyOp36
 70
     1
102
RTVSPropertyOp37
 70
     1
102
RTVSPropertyOp38
 70
     1
102
RTVSPropertyOp39
 70
     1
102
RTVSPropertyOp40
 70
     1
102
RTVSPropertyOp41
 70
     1
102
RTVSPropertyOp42
 70
     1
102
RTVSPropertyOp43
 70
     1
102
RTVSPropertyOp44
 70
     1
102
RTVSPropertyOp45
 70
     1
102
RTVSPropertyOp46
 70
     1
102
RTVSPropertyOp47
 70
     1
102
RTVSPropertyOp48
 70
     1
102
RTVSPropertyOp49
 70
     1
102
RTVSPropertyOp50
 70
     1
102
RTVSPropertyOp51
 70
     0
102
RTVSPropertyOp52
 70
     0
102
RTVSPropertyOp53
 70
     1
102
RTVSPropertyOp54
 70
     1
102
RTVSPropertyOp55
 70
     1
102
RTVSPropertyOp56
 70
     1
102
RTVSPropertyOp57
 70
     1
102
RTVSPropertyOp58
 70
     1
102
RTVSPropertyOp59
 70
     1
102
RTVSPropertyOp60
 70
     1
102
RTVSPropertyOp61
 70
     1
102
RTVSPropertyOp62
 70
     1
  0
XRECORD
  5
31D7
102
{ACAD_REACTORS
330
31D6
102
}
330
31D6
100
AcDbXrecord
280
     1
102
RTVSPost2010Prop28
280
     0
102
RTVSPost2010PropOp28
 70
     1
102
RTVSPost2010Prop29
280
     1
102
RTVSPost2010PropOp29
 70
     1
102
RTVSPost2010Prop30
280
     1
102
RTVSPost2010PropOp30
 70
     1
102
RTVSPost2010Prop31
280
     0
102
RTVSPost2010PropOp31
 70
     1
102
RTVSPost2010Prop32
280
     0
102
RTVSPost2010PropOp32
 70
     1
102
RTVSPost2010Prop33
280
     0
102
RTVSPost2010PropOp33
 70
     1
102
RTVSPost2010Prop34
280
     0
102
RTVSPost2010PropOp34
 70
     1
102
RTVSPost2010Prop35
280
     0
102
RTVSPost2010PropOp35
 70
     1
102
RTVSPost2010Prop36
280
     0
102
RTVSPost2010PropOp36
 70
     1
102
RTVSPost2010Prop37
 90
       50
102
RTVSPost2010PropOp37
 70
     0
102
RTVSPost2010Prop38
140
0.0
102
RTVSPost2010PropOp38
 70
     0
102
RTVSPost2010Prop39
140
1.0
102
RTVSPost2010PropOp39
 70
     0
102
RTVSPost2010Prop40
 90
        0
102
RTVSPost2010PropOp40
 70
     0
102
RTVSPost2010Prop41ColorIndex
 90
       18
102
RTVSPost2010Prop41ColorRGB
 90
        0
102
RTVSPost2010PropOp41
 70
     0
102
RTVSPost2010Prop42
 90
       50
102
RTVSPost2010PropOp42
 70
     0
102
RTVSPost2010Prop43
 90
        3
102
RTVSPost2010PropOp43
 70
     0
102
RTVSPost2010Prop44ColorIndex
 90
        5
102
RTVSPost2010Prop44ColorRGB
 90
      255
102
RTVSPost2010PropOp44
 70
     0
102
RTVSPost2010Prop45
280
     0
102
RTVSPost2010PropOp45
 70
     1
102
RTVSPost2010Prop46
 90
       50
102
RTVSPost2010PropOp46
 70
     0
102
RTVSPost2010Prop47
 90
       50
102
RTVSPost2010PropOp47
 70
     0
102
RTVSPost2010Prop48
 90
       50
102
RTVSPost2010PropOp48
 70
     0
102
RTVSPost2010Prop49
280
     0
102
RTVSPost2010PropOp49
 70
     1
102
RTVSPost2010Prop50
 90
       50
102
RTVSPost2010PropOp50
 70
     0
102
RTVSPost2010Prop51ColorIndex
 90
      256
102
RTVSPost2010Prop51ColorRGB
 90
-16777216
102
RTVSPost2010PropOp51
 70
     0
102
RTVSPost2010Prop52
140
1.0
102
RTVSPost2010PropOp52
 70
     0
102
RTVSPost2010Prop53
 90
        2
102
RTVSPost2010PropOp53
 70
     0
102
RTVSPost2010Prop54
  1
strokes_ogs.tif
102
RTVSPost2010PropOp54
 70
     0
102
RTVSPost2010Prop55
280
     0
102
RTVSPost2010PropOp55
 70
     1
102
RTVSPost2010Prop56
140
1.0
102
RTVSPost2010PropOp56
 70
     0
102
RTVSPost2010Prop57
140
1.0
102
RTVSPost2010PropOp57
 70
     0
102
RTVSPropertyOp0
 70
     0
102
RTVSPropertyOp1
 70
     0
102
RTVSPropertyOp2
 70
     0
102
RTVSPropertyOp3
 70
     0
102
RTVSPropertyOp4
 70
     0
102
RTVSPropertyOp5
 70
     0
102
RTVSPropertyOp6
 70
     0
102
RTVSPropertyOp7
 70
     0
102
RTVSPropertyOp8
 70
     0
102
RTVSPropertyOp9
 70
     0
102
RTVSPropertyOp10
 70
     0
102
RTVSPropertyOp11
 70
     0
102
RTVSPropertyOp12
 70
     0
102
RTVSPropertyOp13
 70
     0
102
RTVSPropertyOp14
 70
     2
102
RTVSPropertyOp15
 70
     0
102
RTVSPropertyOp16
 70
     0
102
RTVSPropertyOp17
 70
     0
102
RTVSPropertyOp18
 70
     0
102
RTVSPropertyOp19
 70
     0
102
RTVSPropertyOp20
 70
     0
102
RTVSPropertyOp21
 70
     0
102
RTVSPropertyOp22
 70
     0
102
RTVSPropertyOp23
 70
     0
102
RTVSPropertyOp24
 70
     0
102
RTVSPropertyOp25
 70
     0
102
RTVSPropertyOp26
 70
     0
102
RTVSPropertyOp27
 70
     0
102
RTVSPropertyOp28
 70
     1
102
RTVSPropertyOp29
 70
     1
102
RTVSPropertyOp30
 70
     1
102
RTVSPropertyOp31
 70
     1
102
RTVSPropertyOp32
 70
     1
102
RTVSPropertyOp33
 70
     1
102
RTVSPropertyOp34
 70
     1
102
RTVSPropertyOp35
 70
     1
102
RTVSPropertyOp36
 70
     1
102
RTVSPropertyOp37
 70
     0
102
RTVSPropertyOp38
 70
     0
102
RTVSPropertyOp39
 70
     0
102
RTVSPropertyOp40
 70
     0
102
RTVSPropertyOp41
 70
     0
102
RTVSPropertyOp42
 70
     0
102
RTVSPropertyOp43
 70
     0
102
RTVSPropertyOp44
 70
     0
102
RTVSPropertyOp45
 70
     1
102
RTVSPropertyOp46
 70
     0
102
RTVSPropertyOp47
 70
     0
102
RTVSPropertyOp48
 70
     0
102
RTVSPropertyOp49
 70
     1
102
RTVSPropertyOp50
 70
     0
102
RTVSPropertyOp51
 70
     0
102
RTVSPropertyOp52
 70
     0
102
RTVSPropertyOp53
 70
     0
102
RTVSPropertyOp54
 70
     0
102
RTVSPropertyOp55
 70
     1
102
RTVSPropertyOp56
 70
     0
102
RTVSPropertyOp57
 70
     0
102
RTVSPropertyOp58
 70
     0
102
RTVSPropertyOp59
 70
     0
102
RTVSPropertyOp60
 70
     0
102
RTVSPropertyOp61
 70
     0
102
RTVSPropertyOp62
 70
     0
  0
XRECORD
  5
31C7
102
{ACAD_REACTORS
330
31C6
102
}
330
31C6
100
AcDbXrecord
280
     1
102
RTVSPost2010Prop28
280
     0
102
RTVSPost2010PropOp28
 70
     1
102
RTVSPost2010Prop29
280
     1
102
RTVSPost2010PropOp29
 70
     1
102
RTVSPost2010Prop30
280
     1
102
RTVSPost2010PropOp30
 70
     1
102
RTVSPost2010Prop31
280
     0
102
RTVSPost2010PropOp31
 70
     1
102
RTVSPost2010Prop32
280
     0
102
RTVSPost2010PropOp32
 70
     1
102
RTVSPost2010Prop33
280
     0
102
RTVSPost2010PropOp33
 70
     1
102
RTVSPost2010Prop34
280
     0
102
RTVSPost2010PropOp34
 70
     1
102
RTVSPost2010Prop35
280
     0
102
RTVSPost2010PropOp35
 70
     1
102
RTVSPost2010Prop36
280
     0
102
RTVSPost2010PropOp36
 70
     1
102
RTVSPost2010Prop37
 90
       50
102
RTVSPost2010PropOp37
 70
     1
102
RTVSPost2010Prop38
140
0.0
102
RTVSPost2010PropOp38
 70
     1
102
RTVSPost2010Prop39
140
1.0
102
RTVSPost2010PropOp39
 70
     1
102
RTVSPost2010Prop40
 90
        0
102
RTVSPost2010PropOp40
 70
     1
102
RTVSPost2010Prop41ColorIndex
 90
       18
102
RTVSPost2010Prop41ColorRGB
 90
        0
102
RTVSPost2010PropOp41
 70
     1
102
RTVSPost2010Prop42
 90
       50
102
RTVSPost2010PropOp42
 70
     1
102
RTVSPost2010Prop43
 90
        3
102
RTVSPost2010PropOp43
 70
     1
102
RTVSPost2010Prop44ColorIndex
 90
        5
102
RTVSPost2010Prop44ColorRGB
 90
      255
102
RTVSPost2010PropOp44
 70
     1
102
RTVSPost2010Prop45
280
     0
102
RTVSPost2010PropOp45
 70
     1
102
RTVSPost2010Prop46
 90
       50
102
RTVSPost2010PropOp46
 70
     1
102
RTVSPost2010Prop47
 90
       50
102
RTVSPost2010PropOp47
 70
     1
102
RTVSPost2010Prop48
 90
       50
102
RTVSPost2010PropOp48
 70
     1
102
RTVSPost2010Prop49
280
     0
102
RTVSPost2010PropOp49
 70
     1
102
RTVSPost2010Prop50
 90
       50
102
RTVSPost2010PropOp50
 70
     1
102
RTVSPost2010Prop51ColorIndex
 90
      256
102
RTVSPost2010Prop51ColorRGB
 90
-16777216
102
RTVSPost2010PropOp51
 70
     0
102
RTVSPost2010Prop52
140
1.0
102
RTVSPost2010PropOp52
 70
     0
102
RTVSPost2010Prop53
 90
        2
102
RTVSPost2010PropOp53
 70
     1
102
RTVSPost2010Prop54
  1
strokes_ogs.tif
102
RTVSPost2010PropOp54
 70
     1
102
RTVSPost2010Prop55
280
     0
102
RTVSPost2010PropOp55
 70
     1
102
RTVSPost2010Prop56
140
1.0
102
RTVSPost2010PropOp56
 70
     1
102
RTVSPost2010Prop57
140
1.0
102
RTVSPost2010PropOp57
 70
     1
102
RTVSPropertyOp0
 70
     1
102
RTVSPropertyOp1
 70
     1
102
RTVSPropertyOp2
 70
     1
102
RTVSPropertyOp3
 70
     1
102
RTVSPropertyOp4
 70
     1
102
RTVSPropertyOp5
 70
     1
102
RTVSPropertyOp6
 70
     1
102
RTVSPropertyOp7
 70
     1
102
RTVSPropertyOp8
 70
     1
102
RTVSPropertyOp9
 70
     1
102
RTVSPropertyOp10
 70
     1
102
RTVSPropertyOp11
 70
     1
102
RTVSPropertyOp12
 70
     1
102
RTVSPropertyOp13
 70
     1
102
RTVSPropertyOp14
 70
     1
102
RTVSPropertyOp15
 70
     1
102
RTVSPropertyOp16
 70
     1
102
RTVSPropertyOp17
 70
     1
102
RTVSPropertyOp18
 70
     1
102
RTVSPropertyOp19
 70
     1
102
RTVSPropertyOp20
 70
     1
102
RTVSPropertyOp21
 70
     1
102
RTVSPropertyOp22
 70
     1
102
RTVSPropertyOp23
 70
     1
102
RTVSPropertyOp24
 70
     1
102
RTVSPropertyOp25
 70
     1
102
RTVSPropertyOp26
 70
     1
102
RTVSPropertyOp27
 70
     1
102
RTVSPropertyOp28
 70
     1
102
RTVSPropertyOp29
 70
     1
102
RTVSPropertyOp30
 70
     1
102
RTVSPropertyOp31
 70
     1
102
RTVSPropertyOp32
 70
     1
102
RTVSPropertyOp33
 70
     1
102
RTVSPropertyOp34
 70
     1
102
RTVSPropertyOp35
 70
     1
102
RTVSPropertyOp36
 70
     1
102
RTVSPropertyOp37
 70
     1
102
RTVSPropertyOp38
 70
     1
102
RTVSPropertyOp39
 70
     1
102
RTVSPropertyOp40
 70
     1
102
RTVSPropertyOp41
 70
     1
102
RTVSPropertyOp42
 70
     1
102
RTVSPropertyOp43
 70
     1
102
RTVSPropertyOp44
 70
     1
102
RTVSPropertyOp45
 70
     1
102
RTVSPropertyOp46
 70
     1
102
RTVSPropertyOp47
 70
     1
102
RTVSPropertyOp48
 70
     1
102
RTVSPropertyOp49
 70
     1
102
RTVSPropertyOp50
 70
     1
102
RTVSPropertyOp51
 70
     0
102
RTVSPropertyOp52
 70
     0
102
RTVSPropertyOp53
 70
     1
102
RTVSPropertyOp54
 70
     1
102
RTVSPropertyOp55
 70
     1
102
RTVSPropertyOp56
 70
     1
102
RTVSPropertyOp57
 70
     1
102
RTVSPropertyOp58
 70
     1
102
RTVSPropertyOp59
 70
     1
102
RTVSPropertyOp60
 70
     1
102
RTVSPropertyOp61
 70
     1
102
RTVSPropertyOp62
 70
     1
  0
XRECORD
  5
31D9
102
{ACAD_REACTORS
330
31D8
102
}
330
31D8
100
AcDbXrecord
280
     1
102
RTVSPost2010Prop28
280
     0
102
RTVSPost2010PropOp28
 70
     1
102
RTVSPost2010Prop29
280
     1
102
RTVSPost2010PropOp29
 70
     1
102
RTVSPost2010Prop30
280
     1
102
RTVSPost2010PropOp30
 70
     1
102
RTVSPost2010Prop31
280
     0
102
RTVSPost2010PropOp31
 70
     1
102
RTVSPost2010Prop32
280
     0
102
RTVSPost2010PropOp32
 70
     1
102
RTVSPost2010Prop33
280
     0
102
RTVSPost2010PropOp33
 70
     1
102
RTVSPost2010Prop34
280
     0
102
RTVSPost2010PropOp34
 70
     1
102
RTVSPost2010Prop35
280
     0
102
RTVSPost2010PropOp35
 70
     1
102
RTVSPost2010Prop36
280
     0
102
RTVSPost2010PropOp36
 70
     1
102
RTVSPost2010Prop37
 90
       50
102
RTVSPost2010PropOp37
 70
     0
102
RTVSPost2010Prop38
140
0.0
102
RTVSPost2010PropOp38
 70
     0
102
RTVSPost2010Prop39
140
1.0
102
RTVSPost2010PropOp39
 70
     0
102
RTVSPost2010Prop40
 90
        0
102
RTVSPost2010PropOp40
 70
     0
102
RTVSPost2010Prop41ColorIndex
 90
       18
102
RTVSPost2010Prop41ColorRGB
 90
        0
102
RTVSPost2010PropOp41
 70
     0
102
RTVSPost2010Prop42
 90
       50
102
RTVSPost2010PropOp42
 70
     0
102
RTVSPost2010Prop43
 90
        3
102
RTVSPost2010PropOp43
 70
     0
102
RTVSPost2010Prop44ColorIndex
 90
        5
102
RTVSPost2010Prop44ColorRGB
 90
      255
102
RTVSPost2010PropOp44
 70
     0
102
RTVSPost2010Prop45
280
     0
102
RTVSPost2010PropOp45
 70
     1
102
RTVSPost2010Prop46
 90
       50
102
RTVSPost2010PropOp46
 70
     0
102
RTVSPost2010Prop47
 90
       50
102
RTVSPost2010PropOp47
 70
     0
102
RTVSPost2010Prop48
 90
       50
102
RTVSPost2010PropOp48
 70
     0
102
RTVSPost2010Prop49
280
     0
102
RTVSPost2010PropOp49
 70
     1
102
RTVSPost2010Prop50
 90
       50
102
RTVSPost2010PropOp50
 70
     0
102
RTVSPost2010Prop51ColorIndex
 90
      256
102
RTVSPost2010Prop51ColorRGB
 90
-16777216
102
RTVSPost2010PropOp51
 70
     0
102
RTVSPost2010Prop52
140
1.0
102
RTVSPost2010PropOp52
 70
     0
102
RTVSPost2010Prop53
 90
        2
102
RTVSPost2010PropOp53
 70
     0
102
RTVSPost2010Prop54
  1
strokes_ogs.tif
102
RTVSPost2010PropOp54
 70
     0
102
RTVSPost2010Prop55
280
     0
102
RTVSPost2010PropOp55
 70
     1
102
RTVSPost2010Prop56
140
1.0
102
RTVSPost2010PropOp56
 70
     0
102
RTVSPost2010Prop57
140
1.0
102
RTVSPost2010PropOp57
 70
     0
102
RTVSPropertyOp0
 70
     0
102
RTVSPropertyOp1
 70
     0
102
RTVSPropertyOp2
 70
     0
102
RTVSPropertyOp3
 70
     0
102
RTVSPropertyOp4
 70
     0
102
RTVSPropertyOp5
 70
     0
102
RTVSPropertyOp6
 70
     0
102
RTVSPropertyOp7
 70
     0
102
RTVSPropertyOp8
 70
     0
102
RTVSPropertyOp9
 70
     0
102
RTVSPropertyOp10
 70
     0
102
RTVSPropertyOp11
 70
     0
102
RTVSPropertyOp12
 70
     0
102
RTVSPropertyOp13
 70
     0
102
RTVSPropertyOp14
 70
     2
102
RTVSPropertyOp15
 70
     0
102
RTVSPropertyOp16
 70
     0
102
RTVSPropertyOp17
 70
     0
102
RTVSPropertyOp18
 70
     0
102
RTVSPropertyOp19
 70
     0
102
RTVSPropertyOp20
 70
     0
102
RTVSPropertyOp21
 70
     0
102
RTVSPropertyOp22
 70
     0
102
RTVSPropertyOp23
 70
     0
102
RTVSPropertyOp24
 70
     0
102
RTVSPropertyOp25
 70
     0
102
RTVSPropertyOp26
 70
     0
102
RTVSPropertyOp27
 70
     0
102
RTVSPropertyOp28
 70
     1
102
RTVSPropertyOp29
 70
     1
102
RTVSPropertyOp30
 70
     1
102
RTVSPropertyOp31
 70
     1
102
RTVSPropertyOp32
 70
     1
102
RTVSPropertyOp33
 70
     1
102
RTVSPropertyOp34
 70
     1
102
RTVSPropertyOp35
 70
     1
102
RTVSPropertyOp36
 70
     1
102
RTVSPropertyOp37
 70
     0
102
RTVSPropertyOp38
 70
     0
102
RTVSPropertyOp39
 70
     0
102
RTVSPropertyOp40
 70
     0
102
RTVSPropertyOp41
 70
     0
102
RTVSPropertyOp42
 70
     0
102
RTVSPropertyOp43
 70
     0
102
RTVSPropertyOp44
 70
     0
102
RTVSPropertyOp45
 70
     1
102
RTVSPropertyOp46
 70
     0
102
RTVSPropertyOp47
 70
     0
102
RTVSPropertyOp48
 70
     0
102
RTVSPropertyOp49
 70
     1
102
RTVSPropertyOp50
 70
     0
102
RTVSPropertyOp51
 70
     0
102
RTVSPropertyOp52
 70
     0
102
RTVSPropertyOp53
 70
     0
102
RTVSPropertyOp54
 70
     0
102
RTVSPropertyOp55
 70
     1
102
RTVSPropertyOp56
 70
     0
102
RTVSPropertyOp57
 70
     0
102
RTVSPropertyOp58
 70
     0
102
RTVSPropertyOp59
 70
     0
102
RTVSPropertyOp60
 70
     0
102
RTVSPropertyOp61
 70
     0
102
RTVSPropertyOp62
 70
     0
  0
XRECORD
  5
31BF
102
{ACAD_REACTORS
330
31BE
102
}
330
31BE
100
AcDbXrecord
280
     1
102
RTVSPost2010Prop28
280
     0
102
RTVSPost2010PropOp28
 70
     1
102
RTVSPost2010Prop29
280
     1
102
RTVSPost2010PropOp29
 70
     1
102
RTVSPost2010Prop30
280
     1
102
RTVSPost2010PropOp30
 70
     1
102
RTVSPost2010Prop31
280
     0
102
RTVSPost2010PropOp31
 70
     1
102
RTVSPost2010Prop32
280
     0
102
RTVSPost2010PropOp32
 70
     1
102
RTVSPost2010Prop33
280
     0
102
RTVSPost2010PropOp33
 70
     1
102
RTVSPost2010Prop34
280
     0
102
RTVSPost2010PropOp34
 70
     1
102
RTVSPost2010Prop35
280
     0
102
RTVSPost2010PropOp35
 70
     1
102
RTVSPost2010Prop36
280
     0
102
RTVSPost2010PropOp36
 70
     1
102
RTVSPost2010Prop37
 90
       50
102
RTVSPost2010PropOp37
 70
     1
102
RTVSPost2010Prop38
140
0.0
102
RTVSPost2010PropOp38
 70
     1
102
RTVSPost2010Prop39
140
1.0
102
RTVSPost2010PropOp39
 70
     1
102
RTVSPost2010Prop40
 90
        0
102
RTVSPost2010PropOp40
 70
     1
102
RTVSPost2010Prop41ColorIndex
 90
       18
102
RTVSPost2010Prop41ColorRGB
 90
        0
102
RTVSPost2010PropOp41
 70
     1
102
RTVSPost2010Prop42
 90
       50
102
RTVSPost2010PropOp42
 70
     1
102
RTVSPost2010Prop43
 90
        3
102
RTVSPost2010PropOp43
 70
     1
102
RTVSPost2010Prop44ColorIndex
 90
        5
102
RTVSPost2010Prop44ColorRGB
 90
      255
102
RTVSPost2010PropOp44
 70
     1
102
RTVSPost2010Prop45
280
     0
102
RTVSPost2010PropOp45
 70
     1
102
RTVSPost2010Prop46
 90
       50
102
RTVSPost2010PropOp46
 70
     1
102
RTVSPost2010Prop47
 90
       50
102
RTVSPost2010PropOp47
 70
     1
102
RTVSPost2010Prop48
 90
       50
102
RTVSPost2010PropOp48
 70
     1
102
RTVSPost2010Prop49
280
     0
102
RTVSPost2010PropOp49
 70
     1
102
RTVSPost2010Prop50
 90
       50
102
RTVSPost2010PropOp50
 70
     1
102
RTVSPost2010Prop51ColorIndex
 90
      256
102
RTVSPost2010Prop51ColorRGB
 90
-16777216
102
RTVSPost2010PropOp51
 70
     0
102
RTVSPost2010Prop52
140
1.0
102
RTVSPost2010PropOp52
 70
     0
102
RTVSPost2010Prop53
 90
        2
102
RTVSPost2010PropOp53
 70
     1
102
RTVSPost2010Prop54
  1
strokes_ogs.tif
102
RTVSPost2010PropOp54
 70
     1
102
RTVSPost2010Prop55
280
     0
102
RTVSPost2010PropOp55
 70
     1
102
RTVSPost2010Prop56
140
1.0
102
RTVSPost2010PropOp56
 70
     1
102
RTVSPost2010Prop57
140
1.0
102
RTVSPost2010PropOp57
 70
     1
102
RTVSPropertyOp0
 70
     1
102
RTVSPropertyOp1
 70
     1
102
RTVSPropertyOp2
 70
     1
102
RTVSPropertyOp3
 70
     1
102
RTVSPropertyOp4
 70
     1
102
RTVSPropertyOp5
 70
     1
102
RTVSPropertyOp6
 70
     1
102
RTVSPropertyOp7
 70
     1
102
RTVSPropertyOp8
 70
     1
102
RTVSPropertyOp9
 70
     1
102
RTVSPropertyOp10
 70
     1
102
RTVSPropertyOp11
 70
     1
102
RTVSPropertyOp12
 70
     1
102
RTVSPropertyOp13
 70
     1
102
RTVSPropertyOp14
 70
     1
102
RTVSPropertyOp15
 70
     1
102
RTVSPropertyOp16
 70
     1
102
RTVSPropertyOp17
 70
     1
102
RTVSPropertyOp18
 70
     1
102
RTVSPropertyOp19
 70
     1
102
RTVSPropertyOp20
 70
     1
102
RTVSPropertyOp21
 70
     1
102
RTVSPropertyOp22
 70
     1
102
RTVSPropertyOp23
 70
     1
102
RTVSPropertyOp24
 70
     1
102
RTVSPropertyOp25
 70
     1
102
RTVSPropertyOp26
 70
     1
102
RTVSPropertyOp27
 70
     1
102
RTVSPropertyOp28
 70
     1
102
RTVSPropertyOp29
 70
     1
102
RTVSPropertyOp30
 70
     1
102
RTVSPropertyOp31
 70
     1
102
RTVSPropertyOp32
 70
     1
102
RTVSPropertyOp33
 70
     1
102
RTVSPropertyOp34
 70
     1
102
RTVSPropertyOp35
 70
     1
102
RTVSPropertyOp36
 70
     1
102
RTVSPropertyOp37
 70
     1
102
RTVSPropertyOp38
 70
     1
102
RTVSPropertyOp39
 70
     1
102
RTVSPropertyOp40
 70
     1
102
RTVSPropertyOp41
 70
     1
102
RTVSPropertyOp42
 70
     1
102
RTVSPropertyOp43
 70
     1
102
RTVSPropertyOp44
 70
     1
102
RTVSPropertyOp45
 70
     1
102
RTVSPropertyOp46
 70
     1
102
RTVSPropertyOp47
 70
     1
102
RTVSPropertyOp48
 70
     1
102
RTVSPropertyOp49
 70
     1
102
RTVSPropertyOp50
 70
     1
102
RTVSPropertyOp51
 70
     0
102
RTVSPropertyOp52
 70
     0
102
RTVSPropertyOp53
 70
     1
102
RTVSPropertyOp54
 70
     1
102
RTVSPropertyOp55
 70
     1
102
RTVSPropertyOp56
 70
     1
102
RTVSPropertyOp57
 70
     1
102
RTVSPropertyOp58
 70
     1
102
RTVSPropertyOp59
 70
     1
102
RTVSPropertyOp60
 70
     1
102
RTVSPropertyOp61
 70
     1
102
RTVSPropertyOp62
 70
     1
  0
XRECORD
  5
31D5
102
{ACAD_REACTORS
330
31D4
102
}
330
31D4
100
AcDbXrecord
280
     1
102
RTVSPost2010Prop28
280
     0
102
RTVSPost2010PropOp28
 70
     1
102
RTVSPost2010Prop29
280
     1
102
RTVSPost2010PropOp29
 70
     1
102
RTVSPost2010Prop30
280
     1
102
RTVSPost2010PropOp30
 70
     1
102
RTVSPost2010Prop31
280
     0
102
RTVSPost2010PropOp31
 70
     1
102
RTVSPost2010Prop32
280
     0
102
RTVSPost2010PropOp32
 70
     1
102
RTVSPost2010Prop33
280
     0
102
RTVSPost2010PropOp33
 70
     1
102
RTVSPost2010Prop34
280
     0
102
RTVSPost2010PropOp34
 70
     1
102
RTVSPost2010Prop35
280
     0
102
RTVSPost2010PropOp35
 70
     1
102
RTVSPost2010Prop36
280
     0
102
RTVSPost2010PropOp36
 70
     1
102
RTVSPost2010Prop37
 90
       50
102
RTVSPost2010PropOp37
 70
     1
102
RTVSPost2010Prop38
140
0.0
102
RTVSPost2010PropOp38
 70
     1
102
RTVSPost2010Prop39
140
1.0
102
RTVSPost2010PropOp39
 70
     1
102
RTVSPost2010Prop40
 90
        0
102
RTVSPost2010PropOp40
 70
     1
102
RTVSPost2010Prop41ColorIndex
 90
       18
102
RTVSPost2010Prop41ColorRGB
 90
        0
102
RTVSPost2010PropOp41
 70
     1
102
RTVSPost2010Prop42
 90
       50
102
RTVSPost2010PropOp42
 70
     1
102
RTVSPost2010Prop43
 90
        3
102
RTVSPost2010PropOp43
 70
     1
102
RTVSPost2010Prop44ColorIndex
 90
        5
102
RTVSPost2010Prop44ColorRGB
 90
      255
102
RTVSPost2010PropOp44
 70
     1
102
RTVSPost2010Prop45
280
     0
102
RTVSPost2010PropOp45
 70
     1
102
RTVSPost2010Prop46
 90
       50
102
RTVSPost2010PropOp46
 70
     1
102
RTVSPost2010Prop47
 90
       50
102
RTVSPost2010PropOp47
 70
     1
102
RTVSPost2010Prop48
 90
       50
102
RTVSPost2010PropOp48
 70
     1
102
RTVSPost2010Prop49
280
     0
102
RTVSPost2010PropOp49
 70
     1
102
RTVSPost2010Prop50
 90
       50
102
RTVSPost2010PropOp50
 70
     1
102
RTVSPost2010Prop51ColorIndex
 90
      256
102
RTVSPost2010Prop51ColorRGB
 90
-16777216
102
RTVSPost2010PropOp51
 70
     0
102
RTVSPost2010Prop52
140
1.0
102
RTVSPost2010PropOp52
 70
     0
102
RTVSPost2010Prop53
 90
        2
102
RTVSPost2010PropOp53
 70
     1
102
RTVSPost2010Prop54
  1
strokes_ogs.tif
102
RTVSPost2010PropOp54
 70
     1
102
RTVSPost2010Prop55
280
     0
102
RTVSPost2010PropOp55
 70
     1
102
RTVSPost2010Prop56
140
1.0
102
RTVSPost2010PropOp56
 70
     1
102
RTVSPost2010Prop57
140
1.0
102
RTVSPost2010PropOp57
 70
     1
102
RTVSPropertyOp0
 70
     1
102
RTVSPropertyOp1
 70
     1
102
RTVSPropertyOp2
 70
     1
102
RTVSPropertyOp3
 70
     1
102
RTVSPropertyOp4
 70
     1
102
RTVSPropertyOp5
 70
     1
102
RTVSPropertyOp6
 70
     1
102
RTVSPropertyOp7
 70
     1
102
RTVSPropertyOp8
 70
     1
102
RTVSPropertyOp9
 70
     1
102
RTVSPropertyOp10
 70
     1
102
RTVSPropertyOp11
 70
     1
102
RTVSPropertyOp12
 70
     1
102
RTVSPropertyOp13
 70
     1
102
RTVSPropertyOp14
 70
     1
102
RTVSPropertyOp15
 70
     1
102
RTVSPropertyOp16
 70
     1
102
RTVSPropertyOp17
 70
     1
102
RTVSPropertyOp18
 70
     1
102
RTVSPropertyOp19
 70
     1
102
RTVSPropertyOp20
 70
     1
102
RTVSPropertyOp21
 70
     1
102
RTVSPropertyOp22
 70
     1
102
RTVSPropertyOp23
 70
     1
102
RTVSPropertyOp24
 70
     1
102
RTVSPropertyOp25
 70
     1
102
RTVSPropertyOp26
 70
     1
102
RTVSPropertyOp27
 70
     1
102
RTVSPropertyOp28
 70
     1
102
RTVSPropertyOp29
 70
     1
102
RTVSPropertyOp30
 70
     1
102
RTVSPropertyOp31
 70
     1
102
RTVSPropertyOp32
 70
     1
102
RTVSPropertyOp33
 70
     1
102
RTVSPropertyOp34
 70
     1
102
RTVSPropertyOp35
 70
     1
102
RTVSPropertyOp36
 70
     1
102
RTVSPropertyOp37
 70
     1
102
RTVSPropertyOp38
 70
     1
102
RTVSPropertyOp39
 70
     1
102
RTVSPropertyOp40
 70
     1
102
RTVSPropertyOp41
 70
     1
102
RTVSPropertyOp42
 70
     1
102
RTVSPropertyOp43
 70
     1
102
RTVSPropertyOp44
 70
     1
102
RTVSPropertyOp45
 70
     1
102
RTVSPropertyOp46
 70
     1
102
RTVSPropertyOp47
 70
     1
102
RTVSPropertyOp48
 70
     1
102
RTVSPropertyOp49
 70
     1
102
RTVSPropertyOp50
 70
     1
102
RTVSPropertyOp51
 70
     0
102
RTVSPropertyOp52
 70
     0
102
RTVSPropertyOp53
 70
     1
102
RTVSPropertyOp54
 70
     1
102
RTVSPropertyOp55
 70
     1
102
RTVSPropertyOp56
 70
     1
102
RTVSPropertyOp57
 70
     1
102
RTVSPropertyOp58
 70
     1
102
RTVSPropertyOp59
 70
     1
102
RTVSPropertyOp60
 70
     1
102
RTVSPropertyOp61
 70
     1
102
RTVSPropertyOp62
 70
     1
  0
XRECORD
  5
31D3
102
{ACAD_REACTORS
330
31D2
102
}
330
31D2
100
AcDbXrecord
280
     1
102
RTVSPost2010Prop28
280
     0
102
RTVSPost2010PropOp28
 70
     1
102
RTVSPost2010Prop29
280
     1
102
RTVSPost2010PropOp29
 70
     1
102
RTVSPost2010Prop30
280
     1
102
RTVSPost2010PropOp30
 70
     1
102
RTVSPost2010Prop31
280
     0
102
RTVSPost2010PropOp31
 70
     1
102
RTVSPost2010Prop32
280
     0
102
RTVSPost2010PropOp32
 70
     1
102
RTVSPost2010Prop33
280
     0
102
RTVSPost2010PropOp33
 70
     1
102
RTVSPost2010Prop34
280
     0
102
RTVSPost2010PropOp34
 70
     1
102
RTVSPost2010Prop35
280
     0
102
RTVSPost2010PropOp35
 70
     1
102
RTVSPost2010Prop36
280
     0
102
RTVSPost2010PropOp36
 70
     1
102
RTVSPost2010Prop37
 90
       50
102
RTVSPost2010PropOp37
 70
     1
102
RTVSPost2010Prop38
140
0.0
102
RTVSPost2010PropOp38
 70
     1
102
RTVSPost2010Prop39
140
1.0
102
RTVSPost2010PropOp39
 70
     1
102
RTVSPost2010Prop40
 90
        0
102
RTVSPost2010PropOp40
 70
     1
102
RTVSPost2010Prop41ColorIndex
 90
       18
102
RTVSPost2010Prop41ColorRGB
 90
        0
102
RTVSPost2010PropOp41
 70
     1
102
RTVSPost2010Prop42
 90
       50
102
RTVSPost2010PropOp42
 70
     1
102
RTVSPost2010Prop43
 90
        3
102
RTVSPost2010PropOp43
 70
     1
102
RTVSPost2010Prop44ColorIndex
 90
        5
102
RTVSPost2010Prop44ColorRGB
 90
      255
102
RTVSPost2010PropOp44
 70
     1
102
RTVSPost2010Prop45
280
     0
102
RTVSPost2010PropOp45
 70
     1
102
RTVSPost2010Prop46
 90
       50
102
RTVSPost2010PropOp46
 70
     1
102
RTVSPost2010Prop47
 90
       50
102
RTVSPost2010PropOp47
 70
     1
102
RTVSPost2010Prop48
 90
       50
102
RTVSPost2010PropOp48
 70
     1
102
RTVSPost2010Prop49
280
     0
102
RTVSPost2010PropOp49
 70
     1
102
RTVSPost2010Prop50
 90
       50
102
RTVSPost2010PropOp50
 70
     1
102
RTVSPost2010Prop51ColorIndex
 90
      256
102
RTVSPost2010Prop51ColorRGB
 90
-16777216
102
RTVSPost2010PropOp51
 70
     0
102
RTVSPost2010Prop52
140
1.0
102
RTVSPost2010PropOp52
 70
     0
102
RTVSPost2010Prop53
 90
        2
102
RTVSPost2010PropOp53
 70
     1
102
RTVSPost2010Prop54
  1
strokes_ogs.tif
102
RTVSPost2010PropOp54
 70
     1
102
RTVSPost2010Prop55
280
     0
102
RTVSPost2010PropOp55
 70
     1
102
RTVSPost2010Prop56
140
1.0
102
RTVSPost2010PropOp56
 70
     1
102
RTVSPost2010Prop57
140
1.0
102
RTVSPost2010PropOp57
 70
     1
102
RTVSPropertyOp0
 70
     1
102
RTVSPropertyOp1
 70
     1
102
RTVSPropertyOp2
 70
     1
102
RTVSPropertyOp3
 70
     1
102
RTVSPropertyOp4
 70
     1
102
RTVSPropertyOp5
 70
     1
102
RTVSPropertyOp6
 70
     1
102
RTVSPropertyOp7
 70
     1
102
RTVSPropertyOp8
 70
     1
102
RTVSPropertyOp9
 70
     1
102
RTVSPropertyOp10
 70
     1
102
RTVSPropertyOp11
 70
     1
102
RTVSPropertyOp12
 70
     1
102
RTVSPropertyOp13
 70
     1
102
RTVSPropertyOp14
 70
     1
102
RTVSPropertyOp15
 70
     1
102
RTVSPropertyOp16
 70
     1
102
RTVSPropertyOp17
 70
     1
102
RTVSPropertyOp18
 70
     1
102
RTVSPropertyOp19
 70
     1
102
RTVSPropertyOp20
 70
     1
102
RTVSPropertyOp21
 70
     1
102
RTVSPropertyOp22
 70
     1
102
RTVSPropertyOp23
 70
     1
102
RTVSPropertyOp24
 70
     1
102
RTVSPropertyOp25
 70
     1
102
RTVSPropertyOp26
 70
     1
102
RTVSPropertyOp27
 70
     1
102
RTVSPropertyOp28
 70
     1
102
RTVSPropertyOp29
 70
     1
102
RTVSPropertyOp30
 70
     1
102
RTVSPropertyOp31
 70
     1
102
RTVSPropertyOp32
 70
     1
102
RTVSPropertyOp33
 70
     1
102
RTVSPropertyOp34
 70
     1
102
RTVSPropertyOp35
 70
     1
102
RTVSPropertyOp36
 70
     1
102
RTVSPropertyOp37
 70
     1
102
RTVSPropertyOp38
 70
     1
102
RTVSPropertyOp39
 70
     1
102
RTVSPropertyOp40
 70
     1
102
RTVSPropertyOp41
 70
     1
102
RTVSPropertyOp42
 70
     1
102
RTVSPropertyOp43
 70
     1
102
RTVSPropertyOp44
 70
     1
102
RTVSPropertyOp45
 70
     1
102
RTVSPropertyOp46
 70
     1
102
RTVSPropertyOp47
 70
     1
102
RTVSPropertyOp48
 70
     1
102
RTVSPropertyOp49
 70
     1
102
RTVSPropertyOp50
 70
     1
102
RTVSPropertyOp51
 70
     0
102
RTVSPropertyOp52
 70
     0
102
RTVSPropertyOp53
 70
     1
102
RTVSPropertyOp54
 70
     1
102
RTVSPropertyOp55
 70
     1
102
RTVSPropertyOp56
 70
     1
102
RTVSPropertyOp57
 70
     1
102
RTVSPropertyOp58
 70
     1
102
RTVSPropertyOp59
 70
     1
102
RTVSPropertyOp60
 70
     1
102
RTVSPropertyOp61
 70
     1
102
RTVSPropertyOp62
 70
     1
  0
XRECORD
  5
31CD
102
{ACAD_REACTORS
330
31CC
102
}
330
31CC
100
AcDbXrecord
280
     1
102
RTVSPost2010Prop28
280
     0
102
RTVSPost2010PropOp28
 70
     1
102
RTVSPost2010Prop29
280
     1
102
RTVSPost2010PropOp29
 70
     1
102
RTVSPost2010Prop30
280
     1
102
RTVSPost2010PropOp30
 70
     1
102
RTVSPost2010Prop31
280
     0
102
RTVSPost2010PropOp31
 70
     1
102
RTVSPost2010Prop32
280
     0
102
RTVSPost2010PropOp32
 70
     1
102
RTVSPost2010Prop33
280
     0
102
RTVSPost2010PropOp33
 70
     1
102
RTVSPost2010Prop34
280
     0
102
RTVSPost2010PropOp34
 70
     1
102
RTVSPost2010Prop35
280
     0
102
RTVSPost2010PropOp35
 70
     1
102
RTVSPost2010Prop36
280
     0
102
RTVSPost2010PropOp36
 70
     1
102
RTVSPost2010Prop37
 90
       50
102
RTVSPost2010PropOp37
 70
     1
102
RTVSPost2010Prop38
140
0.0
102
RTVSPost2010PropOp38
 70
     1
102
RTVSPost2010Prop39
140
1.0
102
RTVSPost2010PropOp39
 70
     1
102
RTVSPost2010Prop40
 90
        0
102
RTVSPost2010PropOp40
 70
     1
102
RTVSPost2010Prop41ColorIndex
 90
       18
102
RTVSPost2010Prop41ColorRGB
 90
        0
102
RTVSPost2010PropOp41
 70
     1
102
RTVSPost2010Prop42
 90
       50
102
RTVSPost2010PropOp42
 70
     1
102
RTVSPost2010Prop43
 90
        3
102
RTVSPost2010PropOp43
 70
     1
102
RTVSPost2010Prop44ColorIndex
 90
        5
102
RTVSPost2010Prop44ColorRGB
 90
      255
102
RTVSPost2010PropOp44
 70
     1
102
RTVSPost2010Prop45
280
     0
102
RTVSPost2010PropOp45
 70
     1
102
RTVSPost2010Prop46
 90
       50
102
RTVSPost2010PropOp46
 70
     1
102
RTVSPost2010Prop47
 90
       50
102
RTVSPost2010PropOp47
 70
     1
102
RTVSPost2010Prop48
 90
       50
102
RTVSPost2010PropOp48
 70
     1
102
RTVSPost2010Prop49
280
     0
102
RTVSPost2010PropOp49
 70
     1
102
RTVSPost2010Prop50
 90
       50
102
RTVSPost2010PropOp50
 70
     1
102
RTVSPost2010Prop51ColorIndex
 90
      256
102
RTVSPost2010Prop51ColorRGB
 90
-16777216
102
RTVSPost2010PropOp51
 70
     0
102
RTVSPost2010Prop52
140
1.0
102
RTVSPost2010PropOp52
 70
     0
102
RTVSPost2010Prop53
 90
        2
102
RTVSPost2010PropOp53
 70
     1
102
RTVSPost2010Prop54
  1
strokes_ogs.tif
102
RTVSPost2010PropOp54
 70
     1
102
RTVSPost2010Prop55
280
     0
102
RTVSPost2010PropOp55
 70
     1
102
RTVSPost2010Prop56
140
1.0
102
RTVSPost2010PropOp56
 70
     1
102
RTVSPost2010Prop57
140
1.0
102
RTVSPost2010PropOp57
 70
     1
102
RTVSPropertyOp0
 70
     1
102
RTVSPropertyOp1
 70
     1
102
RTVSPropertyOp2
 70
     1
102
RTVSPropertyOp3
 70
     1
102
RTVSPropertyOp4
 70
     1
102
RTVSPropertyOp5
 70
     1
102
RTVSPropertyOp6
 70
     1
102
RTVSPropertyOp7
 70
     1
102
RTVSPropertyOp8
 70
     1
102
RTVSPropertyOp9
 70
     1
102
RTVSPropertyOp10
 70
     1
102
RTVSPropertyOp11
 70
     1
102
RTVSPropertyOp12
 70
     1
102
RTVSPropertyOp13
 70
     1
102
RTVSPropertyOp14
 70
     1
102
RTVSPropertyOp15
 70
     1
102
RTVSPropertyOp16
 70
     1
102
RTVSPropertyOp17
 70
     1
102
RTVSPropertyOp18
 70
     1
102
RTVSPropertyOp19
 70
     1
102
RTVSPropertyOp20
 70
     1
102
RTVSPropertyOp21
 70
     1
102
RTVSPropertyOp22
 70
     1
102
RTVSPropertyOp23
 70
     1
102
RTVSPropertyOp24
 70
     1
102
RTVSPropertyOp25
 70
     1
102
RTVSPropertyOp26
 70
     1
102
RTVSPropertyOp27
 70
     1
102
RTVSPropertyOp28
 70
     1
102
RTVSPropertyOp29
 70
     1
102
RTVSPropertyOp30
 70
     1
102
RTVSPropertyOp31
 70
     1
102
RTVSPropertyOp32
 70
     1
102
RTVSPropertyOp33
 70
     1
102
RTVSPropertyOp34
 70
     1
102
RTVSPropertyOp35
 70
     1
102
RTVSPropertyOp36
 70
     1
102
RTVSPropertyOp37
 70
     1
102
RTVSPropertyOp38
 70
     1
102
RTVSPropertyOp39
 70
     1
102
RTVSPropertyOp40
 70
     1
102
RTVSPropertyOp41
 70
     1
102
RTVSPropertyOp42
 70
     1
102
RTVSPropertyOp43
 70
     1
102
RTVSPropertyOp44
 70
     1
102
RTVSPropertyOp45
 70
     1
102
RTVSPropertyOp46
 70
     1
102
RTVSPropertyOp47
 70
     1
102
RTVSPropertyOp48
 70
     1
102
RTVSPropertyOp49
 70
     1
102
RTVSPropertyOp50
 70
     1
102
RTVSPropertyOp51
 70
     0
102
RTVSPropertyOp52
 70
     0
102
RTVSPropertyOp53
 70
     1
102
RTVSPropertyOp54
 70
     1
102
RTVSPropertyOp55
 70
     1
102
RTVSPropertyOp56
 70
     1
102
RTVSPropertyOp57
 70
     1
102
RTVSPropertyOp58
 70
     1
102
RTVSPropertyOp59
 70
     1
102
RTVSPropertyOp60
 70
     1
102
RTVSPropertyOp61
 70
     1
102
RTVSPropertyOp62
 70
     1
  0
XRECORD
  5
31CF
102
{ACAD_REACTORS
330
31CE
102
}
330
31CE
100
AcDbXrecord
280
     1
102
RTVSPost2010Prop28
280
     0
102
RTVSPost2010PropOp28
 70
     1
102
RTVSPost2010Prop29
280
     1
102
RTVSPost2010PropOp29
 70
     1
102
RTVSPost2010Prop30
280
     1
102
RTVSPost2010PropOp30
 70
     1
102
RTVSPost2010Prop31
280
     0
102
RTVSPost2010PropOp31
 70
     1
102
RTVSPost2010Prop32
280
     0
102
RTVSPost2010PropOp32
 70
     1
102
RTVSPost2010Prop33
280
     0
102
RTVSPost2010PropOp33
 70
     1
102
RTVSPost2010Prop34
280
     0
102
RTVSPost2010PropOp34
 70
     1
102
RTVSPost2010Prop35
280
     0
102
RTVSPost2010PropOp35
 70
     1
102
RTVSPost2010Prop36
280
     0
102
RTVSPost2010PropOp36
 70
     1
102
RTVSPost2010Prop37
 90
       50
102
RTVSPost2010PropOp37
 70
     1
102
RTVSPost2010Prop38
140
0.0
102
RTVSPost2010PropOp38
 70
     1
102
RTVSPost2010Prop39
140
1.0
102
RTVSPost2010PropOp39
 70
     1
102
RTVSPost2010Prop40
 90
        0
102
RTVSPost2010PropOp40
 70
     1
102
RTVSPost2010Prop41ColorIndex
 90
       18
102
RTVSPost2010Prop41ColorRGB
 90
        0
102
RTVSPost2010PropOp41
 70
     1
102
RTVSPost2010Prop42
 90
       50
102
RTVSPost2010PropOp42
 70
     1
102
RTVSPost2010Prop43
 90
        3
102
RTVSPost2010PropOp43
 70
     1
102
RTVSPost2010Prop44ColorIndex
 90
        5
102
RTVSPost2010Prop44ColorRGB
 90
      255
102
RTVSPost2010PropOp44
 70
     1
102
RTVSPost2010Prop45
280
     0
102
RTVSPost2010PropOp45
 70
     1
102
RTVSPost2010Prop46
 90
       50
102
RTVSPost2010PropOp46
 70
     1
102
RTVSPost2010Prop47
 90
       50
102
RTVSPost2010PropOp47
 70
     1
102
RTVSPost2010Prop48
 90
       50
102
RTVSPost2010PropOp48
 70
     1
102
RTVSPost2010Prop49
280
     0
102
RTVSPost2010PropOp49
 70
     1
102
RTVSPost2010Prop50
 90
       50
102
RTVSPost2010PropOp50
 70
     1
102
RTVSPost2010Prop51ColorIndex
 90
      256
102
RTVSPost2010Prop51ColorRGB
 90
-16777216
102
RTVSPost2010PropOp51
 70
     0
102
RTVSPost2010Prop52
140
1.0
102
RTVSPost2010PropOp52
 70
     0
102
RTVSPost2010Prop53
 90
        2
102
RTVSPost2010PropOp53
 70
     1
102
RTVSPost2010Prop54
  1
strokes_ogs.tif
102
RTVSPost2010PropOp54
 70
     1
102
RTVSPost2010Prop55
280
     0
102
RTVSPost2010PropOp55
 70
     1
102
RTVSPost2010Prop56
140
1.0
102
RTVSPost2010PropOp56
 70
     1
102
RTVSPost2010Prop57
140
1.0
102
RTVSPost2010PropOp57
 70
     1
102
RTVSPropertyOp0
 70
     1
102
RTVSPropertyOp1
 70
     1
102
RTVSPropertyOp2
 70
     1
102
RTVSPropertyOp3
 70
     1
102
RTVSPropertyOp4
 70
     1
102
RTVSPropertyOp5
 70
     1
102
RTVSPropertyOp6
 70
     1
102
RTVSPropertyOp7
 70
     1
102
RTVSPropertyOp8
 70
     1
102
RTVSPropertyOp9
 70
     1
102
RTVSPropertyOp10
 70
     1
102
RTVSPropertyOp11
 70
     1
102
RTVSPropertyOp12
 70
     1
102
RTVSPropertyOp13
 70
     1
102
RTVSPropertyOp14
 70
     1
102
RTVSPropertyOp15
 70
     1
102
RTVSPropertyOp16
 70
     1
102
RTVSPropertyOp17
 70
     1
102
RTVSPropertyOp18
 70
     1
102
RTVSPropertyOp19
 70
     1
102
RTVSPropertyOp20
 70
     1
102
RTVSPropertyOp21
 70
     1
102
RTVSPropertyOp22
 70
     1
102
RTVSPropertyOp23
 70
     1
102
RTVSPropertyOp24
 70
     1
102
RTVSPropertyOp25
 70
     1
102
RTVSPropertyOp26
 70
     1
102
RTVSPropertyOp27
 70
     1
102
RTVSPropertyOp28
 70
     1
102
RTVSPropertyOp29
 70
     1
102
RTVSPropertyOp30
 70
     1
102
RTVSPropertyOp31
 70
     1
102
RTVSPropertyOp32
 70
     1
102
RTVSPropertyOp33
 70
     1
102
RTVSPropertyOp34
 70
     1
102
RTVSPropertyOp35
 70
     1
102
RTVSPropertyOp36
 70
     1
102
RTVSPropertyOp37
 70
     1
102
RTVSPropertyOp38
 70
     1
102
RTVSPropertyOp39
 70
     1
102
RTVSPropertyOp40
 70
     1
102
RTVSPropertyOp41
 70
     1
102
RTVSPropertyOp42
 70
     1
102
RTVSPropertyOp43
 70
     1
102
RTVSPropertyOp44
 70
     1
102
RTVSPropertyOp45
 70
     1
102
RTVSPropertyOp46
 70
     1
102
RTVSPropertyOp47
 70
     1
102
RTVSPropertyOp48
 70
     1
102
RTVSPropertyOp49
 70
     1
102
RTVSPropertyOp50
 70
     1
102
RTVSPropertyOp51
 70
     0
102
RTVSPropertyOp52
 70
     0
102
RTVSPropertyOp53
 70
     1
102
RTVSPropertyOp54
 70
     1
102
RTVSPropertyOp55
 70
     1
102
RTVSPropertyOp56
 70
     1
102
RTVSPropertyOp57
 70
     1
102
RTVSPropertyOp58
 70
     1
102
RTVSPropertyOp59
 70
     1
102
RTVSPropertyOp60
 70
     1
102
RTVSPropertyOp61
 70
     1
102
RTVSPropertyOp62
 70
     1
  0
XRECORD
  5
31C5
102
{ACAD_REACTORS
330
31C4
102
}
330
31C4
100
AcDbXrecord
280
     1
102
RTVSPost2010Prop28
280
     0
102
RTVSPost2010PropOp28
 70
     1
102
RTVSPost2010Prop29
280
     1
102
RTVSPost2010PropOp29
 70
     1
102
RTVSPost2010Prop30
280
     1
102
RTVSPost2010PropOp30
 70
     1
102
RTVSPost2010Prop31
280
     0
102
RTVSPost2010PropOp31
 70
     1
102
RTVSPost2010Prop32
280
     0
102
RTVSPost2010PropOp32
 70
     1
102
RTVSPost2010Prop33
280
     0
102
RTVSPost2010PropOp33
 70
     1
102
RTVSPost2010Prop34
280
     0
102
RTVSPost2010PropOp34
 70
     1
102
RTVSPost2010Prop35
280
     0
102
RTVSPost2010PropOp35
 70
     1
102
RTVSPost2010Prop36
280
     0
102
RTVSPost2010PropOp36
 70
     1
102
RTVSPost2010Prop37
 90
       50
102
RTVSPost2010PropOp37
 70
     1
102
RTVSPost2010Prop38
140
0.0
102
RTVSPost2010PropOp38
 70
     1
102
RTVSPost2010Prop39
140
1.0
102
RTVSPost2010PropOp39
 70
     1
102
RTVSPost2010Prop40
 90
        0
102
RTVSPost2010PropOp40
 70
     1
102
RTVSPost2010Prop41ColorIndex
 90
       18
102
RTVSPost2010Prop41ColorRGB
 90
        0
102
RTVSPost2010PropOp41
 70
     1
102
RTVSPost2010Prop42
 90
       50
102
RTVSPost2010PropOp42
 70
     1
102
RTVSPost2010Prop43
 90
        3
102
RTVSPost2010PropOp43
 70
     1
102
RTVSPost2010Prop44ColorIndex
 90
        5
102
RTVSPost2010Prop44ColorRGB
 90
      255
102
RTVSPost2010PropOp44
 70
     1
102
RTVSPost2010Prop45
280
     0
102
RTVSPost2010PropOp45
 70
     1
102
RTVSPost2010Prop46
 90
       50
102
RTVSPost2010PropOp46
 70
     1
102
RTVSPost2010Prop47
 90
       50
102
RTVSPost2010PropOp47
 70
     1
102
RTVSPost2010Prop48
 90
       50
102
RTVSPost2010PropOp48
 70
     1
102
RTVSPost2010Prop49
280
     0
102
RTVSPost2010PropOp49
 70
     1
102
RTVSPost2010Prop50
 90
       50
102
RTVSPost2010PropOp50
 70
     1
102
RTVSPost2010Prop51ColorIndex
 90
      256
102
RTVSPost2010Prop51ColorRGB
 90
-16777216
102
RTVSPost2010PropOp51
 70
     0
102
RTVSPost2010Prop52
140
1.0
102
RTVSPost2010PropOp52
 70
     0
102
RTVSPost2010Prop53
 90
        2
102
RTVSPost2010PropOp53
 70
     1
102
RTVSPost2010Prop54
  1
strokes_ogs.tif
102
RTVSPost2010PropOp54
 70
     1
102
RTVSPost2010Prop55
280
     0
102
RTVSPost2010PropOp55
 70
     1
102
RTVSPost2010Prop56
140
1.0
102
RTVSPost2010PropOp56
 70
     1
102
RTVSPost2010Prop57
140
1.0
102
RTVSPost2010PropOp57
 70
     1
102
RTVSPropertyOp0
 70
     1
102
RTVSPropertyOp1
 70
     1
102
RTVSPropertyOp2
 70
     1
102
RTVSPropertyOp3
 70
     1
102
RTVSPropertyOp4
 70
     1
102
RTVSPropertyOp5
 70
     1
102
RTVSPropertyOp6
 70
     1
102
RTVSPropertyOp7
 70
     1
102
RTVSPropertyOp8
 70
     1
102
RTVSPropertyOp9
 70
     1
102
RTVSPropertyOp10
 70
     1
102
RTVSPropertyOp11
 70
     1
102
RTVSPropertyOp12
 70
     1
102
RTVSPropertyOp13
 70
     1
102
RTVSPropertyOp14
 70
     1
102
RTVSPropertyOp15
 70
     1
102
RTVSPropertyOp16
 70
     1
102
RTVSPropertyOp17
 70
     1
102
RTVSPropertyOp18
 70
     1
102
RTVSPropertyOp19
 70
     1
102
RTVSPropertyOp20
 70
     1
102
RTVSPropertyOp21
 70
     1
102
RTVSPropertyOp22
 70
     1
102
RTVSPropertyOp23
 70
     1
102
RTVSPropertyOp24
 70
     1
102
RTVSPropertyOp25
 70
     1
102
RTVSPropertyOp26
 70
     1
102
RTVSPropertyOp27
 70
     1
102
RTVSPropertyOp28
 70
     1
102
RTVSPropertyOp29
 70
     1
102
RTVSPropertyOp30
 70
     1
102
RTVSPropertyOp31
 70
     1
102
RTVSPropertyOp32
 70
     1
102
RTVSPropertyOp33
 70
     1
102
RTVSPropertyOp34
 70
     1
102
RTVSPropertyOp35
 70
     1
102
RTVSPropertyOp36
 70
     1
102
RTVSPropertyOp37
 70
     1
102
RTVSPropertyOp38
 70
     1
102
RTVSPropertyOp39
 70
     1
102
RTVSPropertyOp40
 70
     1
102
RTVSPropertyOp41
 70
     1
102
RTVSPropertyOp42
 70
     1
102
RTVSPropertyOp43
 70
     1
102
RTVSPropertyOp44
 70
     1
102
RTVSPropertyOp45
 70
     1
102
RTVSPropertyOp46
 70
     1
102
RTVSPropertyOp47
 70
     1
102
RTVSPropertyOp48
 70
     1
102
RTVSPropertyOp49
 70
     1
102
RTVSPropertyOp50
 70
     1
102
RTVSPropertyOp51
 70
     0
102
RTVSPropertyOp52
 70
     0
102
RTVSPropertyOp53
 70
     1
102
RTVSPropertyOp54
 70
     1
102
RTVSPropertyOp55
 70
     1
102
RTVSPropertyOp56
 70
     1
102
RTVSPropertyOp57
 70
     1
102
RTVSPropertyOp58
 70
     1
102
RTVSPropertyOp59
 70
     1
102
RTVSPropertyOp60
 70
     1
102
RTVSPropertyOp61
 70
     1
102
RTVSPropertyOp62
 70
     1
  0
XRECORD
  5
31B9
102
{ACAD_REACTORS
330
31B8
102
}
330
31B8
100
AcDbXrecord
280
     1
102
RTVSPost2010Prop28
280
     0
102
RTVSPost2010PropOp28
 70
     1
102
RTVSPost2010Prop29
280
     1
102
RTVSPost2010PropOp29
 70
     1
102
RTVSPost2010Prop30
280
     1
102
RTVSPost2010PropOp30
 70
     1
102
RTVSPost2010Prop31
280
     0
102
RTVSPost2010PropOp31
 70
     1
102
RTVSPost2010Prop32
280
     0
102
RTVSPost2010PropOp32
 70
     1
102
RTVSPost2010Prop33
280
     0
102
RTVSPost2010PropOp33
 70
     1
102
RTVSPost2010Prop34
280
     0
102
RTVSPost2010PropOp34
 70
     1
102
RTVSPost2010Prop35
280
     0
102
RTVSPost2010PropOp35
 70
     1
102
RTVSPost2010Prop36
280
     0
102
RTVSPost2010PropOp36
 70
     1
102
RTVSPost2010Prop37
 90
       50
102
RTVSPost2010PropOp37
 70
     1
102
RTVSPost2010Prop38
140
0.0
102
RTVSPost2010PropOp38
 70
     1
102
RTVSPost2010Prop39
140
1.0
102
RTVSPost2010PropOp39
 70
     1
102
RTVSPost2010Prop40
 90
        0
102
RTVSPost2010PropOp40
 70
     1
102
RTVSPost2010Prop41ColorIndex
 90
       18
102
RTVSPost2010Prop41ColorRGB
 90
        0
102
RTVSPost2010PropOp41
 70
     1
102
RTVSPost2010Prop42
 90
       50
102
RTVSPost2010PropOp42
 70
     1
102
RTVSPost2010Prop43
 90
        3
102
RTVSPost2010PropOp43
 70
     1
102
RTVSPost2010Prop44ColorIndex
 90
        5
102
RTVSPost2010Prop44ColorRGB
 90
      255
102
RTVSPost2010PropOp44
 70
     1
102
RTVSPost2010Prop45
280
     0
102
RTVSPost2010PropOp45
 70
     1
102
RTVSPost2010Prop46
 90
       50
102
RTVSPost2010PropOp46
 70
     1
102
RTVSPost2010Prop47
 90
       50
102
RTVSPost2010PropOp47
 70
     1
102
RTVSPost2010Prop48
 90
       50
102
RTVSPost2010PropOp48
 70
     1
102
RTVSPost2010Prop49
280
     0
102
RTVSPost2010PropOp49
 70
     1
102
RTVSPost2010Prop50
 90
       50
102
RTVSPost2010PropOp50
 70
     1
102
RTVSPost2010Prop51ColorIndex
 90
      256
102
RTVSPost2010Prop51ColorRGB
 90
-16777216
102
RTVSPost2010PropOp51
 70
     0
102
RTVSPost2010Prop52
140
1.0
102
RTVSPost2010PropOp52
 70
     0
102
RTVSPost2010Prop53
 90
        2
102
RTVSPost2010PropOp53
 70
     1
102
RTVSPost2010Prop54
  1
strokes_ogs.tif
102
RTVSPost2010PropOp54
 70
     1
102
RTVSPost2010Prop55
280
     0
102
RTVSPost2010PropOp55
 70
     1
102
RTVSPost2010Prop56
140
1.0
102
RTVSPost2010PropOp56
 70
     1
102
RTVSPost2010Prop57
140
1.0
102
RTVSPost2010PropOp57
 70
     1
102
RTVSPropertyOp0
 70
     1
102
RTVSPropertyOp1
 70
     1
102
RTVSPropertyOp2
 70
     1
102
RTVSPropertyOp3
 70
     1
102
RTVSPropertyOp4
 70
     1
102
RTVSPropertyOp5
 70
     1
102
RTVSPropertyOp6
 70
     1
102
RTVSPropertyOp7
 70
     1
102
RTVSPropertyOp8
 70
     1
102
RTVSPropertyOp9
 70
     1
102
RTVSPropertyOp10
 70
     1
102
RTVSPropertyOp11
 70
     1
102
RTVSPropertyOp12
 70
     1
102
RTVSPropertyOp13
 70
     1
102
RTVSPropertyOp14
 70
     1
102
RTVSPropertyOp15
 70
     1
102
RTVSPropertyOp16
 70
     1
102
RTVSPropertyOp17
 70
     1
102
RTVSPropertyOp18
 70
     1
102
RTVSPropertyOp19
 70
     1
102
RTVSPropertyOp20
 70
     1
102
RTVSPropertyOp21
 70
     1
102
RTVSPropertyOp22
 70
     1
102
RTVSPropertyOp23
 70
     1
102
RTVSPropertyOp24
 70
     1
102
RTVSPropertyOp25
 70
     1
102
RTVSPropertyOp26
 70
     1
102
RTVSPropertyOp27
 70
     1
102
RTVSPropertyOp28
 70
     1
102
RTVSPropertyOp29
 70
     1
102
RTVSPropertyOp30
 70
     1
102
RTVSPropertyOp31
 70
     1
102
RTVSPropertyOp32
 70
     1
102
RTVSPropertyOp33
 70
     1
102
RTVSPropertyOp34
 70
     1
102
RTVSPropertyOp35
 70
     1
102
RTVSPropertyOp36
 70
     1
102
RTVSPropertyOp37
 70
     1
102
RTVSPropertyOp38
 70
     1
102
RTVSPropertyOp39
 70
     1
102
RTVSPropertyOp40
 70
     1
102
RTVSPropertyOp41
 70
     1
102
RTVSPropertyOp42
 70
     1
102
RTVSPropertyOp43
 70
     1
102
RTVSPropertyOp44
 70
     1
102
RTVSPropertyOp45
 70
     1
102
RTVSPropertyOp46
 70
     1
102
RTVSPropertyOp47
 70
     1
102
RTVSPropertyOp48
 70
     1
102
RTVSPropertyOp49
 70
     1
102
RTVSPropertyOp50
 70
     1
102
RTVSPropertyOp51
 70
     0
102
RTVSPropertyOp52
 70
     0
102
RTVSPropertyOp53
 70
     1
102
RTVSPropertyOp54
 70
     1
102
RTVSPropertyOp55
 70
     1
102
RTVSPropertyOp56
 70
     1
102
RTVSPropertyOp57
 70
     1
102
RTVSPropertyOp58
 70
     1
102
RTVSPropertyOp59
 70
     1
102
RTVSPropertyOp60
 70
     1
102
RTVSPropertyOp61
 70
     1
102
RTVSPropertyOp62
 70
     1
  0
XRECORD
  5
31D1
102
{ACAD_REACTORS
330
31D0
102
}
330
31D0
100
AcDbXrecord
280
     1
102
RTVSPost2010Prop28
280
     0
102
RTVSPost2010PropOp28
 70
     1
102
RTVSPost2010Prop29
280
     1
102
RTVSPost2010PropOp29
 70
     1
102
RTVSPost2010Prop30
280
     1
102
RTVSPost2010PropOp30
 70
     1
102
RTVSPost2010Prop31
280
     0
102
RTVSPost2010PropOp31
 70
     1
102
RTVSPost2010Prop32
280
     0
102
RTVSPost2010PropOp32
 70
     1
102
RTVSPost2010Prop33
280
     0
102
RTVSPost2010PropOp33
 70
     1
102
RTVSPost2010Prop34
280
     0
102
RTVSPost2010PropOp34
 70
     1
102
RTVSPost2010Prop35
280
     0
102
RTVSPost2010PropOp35
 70
     1
102
RTVSPost2010Prop36
280
     0
102
RTVSPost2010PropOp36
 70
     1
102
RTVSPost2010Prop37
 90
       50
102
RTVSPost2010PropOp37
 70
     1
102
RTVSPost2010Prop38
140
0.0
102
RTVSPost2010PropOp38
 70
     1
102
RTVSPost2010Prop39
140
1.0
102
RTVSPost2010PropOp39
 70
     1
102
RTVSPost2010Prop40
 90
        0
102
RTVSPost2010PropOp40
 70
     1
102
RTVSPost2010Prop41ColorIndex
 90
       18
102
RTVSPost2010Prop41ColorRGB
 90
        0
102
RTVSPost2010PropOp41
 70
     1
102
RTVSPost2010Prop42
 90
       50
102
RTVSPost2010PropOp42
 70
     1
102
RTVSPost2010Prop43
 90
        3
102
RTVSPost2010PropOp43
 70
     1
102
RTVSPost2010Prop44ColorIndex
 90
        5
102
RTVSPost2010Prop44ColorRGB
 90
      255
102
RTVSPost2010PropOp44
 70
     1
102
RTVSPost2010Prop45
280
     0
102
RTVSPost2010PropOp45
 70
     1
102
RTVSPost2010Prop46
 90
       50
102
RTVSPost2010PropOp46
 70
     1
102
RTVSPost2010Prop47
 90
       50
102
RTVSPost2010PropOp47
 70
     1
102
RTVSPost2010Prop48
 90
       50
102
RTVSPost2010PropOp48
 70
     1
102
RTVSPost2010Prop49
280
     0
102
RTVSPost2010PropOp49
 70
     1
102
RTVSPost2010Prop50
 90
       50
102
RTVSPost2010PropOp50
 70
     1
102
RTVSPost2010Prop51ColorIndex
 90
      256
102
RTVSPost2010Prop51ColorRGB
 90
-16777216
102
RTVSPost2010PropOp51
 70
     0
102
RTVSPost2010Prop52
140
1.0
102
RTVSPost2010PropOp52
 70
     0
102
RTVSPost2010Prop53
 90
        2
102
RTVSPost2010PropOp53
 70
     1
102
RTVSPost2010Prop54
  1
strokes_ogs.tif
102
RTVSPost2010PropOp54
 70
     1
102
RTVSPost2010Prop55
280
     0
102
RTVSPost2010PropOp55
 70
     1
102
RTVSPost2010Prop56
140
1.0
102
RTVSPost2010PropOp56
 70
     1
102
RTVSPost2010Prop57
140
1.0
102
RTVSPost2010PropOp57
 70
     1
102
RTVSPropertyOp0
 70
     1
102
RTVSPropertyOp1
 70
     1
102
RTVSPropertyOp2
 70
     1
102
RTVSPropertyOp3
 70
     1
102
RTVSPropertyOp4
 70
     1
102
RTVSPropertyOp5
 70
     1
102
RTVSPropertyOp6
 70
     1
102
RTVSPropertyOp7
 70
     1
102
RTVSPropertyOp8
 70
     1
102
RTVSPropertyOp9
 70
     1
102
RTVSPropertyOp10
 70
     1
102
RTVSPropertyOp11
 70
     1
102
RTVSPropertyOp12
 70
     1
102
RTVSPropertyOp13
 70
     1
102
RTVSPropertyOp14
 70
     1
102
RTVSPropertyOp15
 70
     1
102
RTVSPropertyOp16
 70
     1
102
RTVSPropertyOp17
 70
     1
102
RTVSPropertyOp18
 70
     1
102
RTVSPropertyOp19
 70
     1
102
RTVSPropertyOp20
 70
     1
102
RTVSPropertyOp21
 70
     1
102
RTVSPropertyOp22
 70
     1
102
RTVSPropertyOp23
 70
     1
102
RTVSPropertyOp24
 70
     1
102
RTVSPropertyOp25
 70
     1
102
RTVSPropertyOp26
 70
     1
102
RTVSPropertyOp27
 70
     1
102
RTVSPropertyOp28
 70
     1
102
RTVSPropertyOp29
 70
     1
102
RTVSPropertyOp30
 70
     1
102
RTVSPropertyOp31
 70
     1
102
RTVSPropertyOp32
 70
     1
102
RTVSPropertyOp33
 70
     1
102
RTVSPropertyOp34
 70
     1
102
RTVSPropertyOp35
 70
     1
102
RTVSPropertyOp36
 70
     1
102
RTVSPropertyOp37
 70
     1
102
RTVSPropertyOp38
 70
     1
102
RTVSPropertyOp39
 70
     1
102
RTVSPropertyOp40
 70
     1
102
RTVSPropertyOp41
 70
     1
102
RTVSPropertyOp42
 70
     1
102
RTVSPropertyOp43
 70
     1
102
RTVSPropertyOp44
 70
     1
102
RTVSPropertyOp45
 70
     1
102
RTVSPropertyOp46
 70
     1
102
RTVSPropertyOp47
 70
     1
102
RTVSPropertyOp48
 70
     1
102
RTVSPropertyOp49
 70
     1
102
RTVSPropertyOp50
 70
     1
102
RTVSPropertyOp51
 70
     0
102
RTVSPropertyOp52
 70
     0
102
RTVSPropertyOp53
 70
     1
102
RTVSPropertyOp54
 70
     1
102
RTVSPropertyOp55
 70
     1
102
RTVSPropertyOp56
 70
     1
102
RTVSPropertyOp57
 70
     1
102
RTVSPropertyOp58
 70
     1
102
RTVSPropertyOp59
 70
     1
102
RTVSPropertyOp60
 70
     1
102
RTVSPropertyOp61
 70
     1
102
RTVSPropertyOp62
 70
     1
  0
ENDSEC
  0
EOF
