  0
SECTION
  2
HEADER
  9
$ACADVER
  1
AC1015
  9
$ACADMAINTVER
 70
    20
  9
$DWGCODEPAGE
  3
ANSI_932
  9
$INSBASE
 10
0.0
 20
0.0
 30
0.0
  9
$EXTMIN
 10
9.9999975266385
 20
10.0
 30
0.0
  9
$EXTMAX
 10
246.1729612477124
 20
187.009497063426
 30
0.0
  9
$LIMMIN
 10
0.0000015376081137
 20
-0.0000001931533977
  9
$LIMMAX
 10
286.0000015376081
 20
197.1666664735131
  9
$ORTHOMODE
 70
     1
  9
$REGENMODE
 70
     1
  9
$FILLMODE
 70
     1
  9
$QTEXTMODE
 70
     0
  9
$MIRRTEXT
 70
     1
  9
$LTSCALE
 40
1.0
  9
$ATTMODE
 70
     1
  9
$TEXTSIZE
 40
2.5
  9
$TRACEWID
 40
1.0
  9
$TEXTSTYLE
  7
STANDARD
  9
$CLAYER
  8
0
  9
$CELTYPE
  6
BYLAYER
  9
$CECOLOR
 62
   256
  9
$CELTSCALE
 40
1.0
  9
$DISPSILH
 70
     0
  9
$DIMSCALE
 40
1.0
  9
$DIMASZ
 40
3.0
  9
$DIMEXO
 40
1.0
  9
$DIMDLI
 40
10.0
  9
$DIMRND
 40
0.0
  9
$DIMDLE
 40
0.0
  9
$DIMEXE
 40
1.0
  9
$DIMTP
 40
0.0
  9
$DIMTM
 40
0.0
  9
$DIMTXT
 40
3.2
  9
$DIMCEN
 40
0.0
  9
$DIMTSZ
 40
0.0
  9
$DIMTOL
 70
     0
  9
$DIMLIM
 70
     0
  9
$DIMTIH
 70
     0
  9
$DIMTOH
 70
     0
  9
$DIMSE1
 70
     0
  9
$DIMSE2
 70
     0
  9
$DIMTAD
 70
     3
  9
$DIMZIN
 70
     8
  9
$DIMBLK
  1

  9
$DIMASO
 70
     1
  9
$DIMSHO
 70
     1
  9
$DIMPOST
  1

  9
$DIMAPOST
  1

  9
$DIMALT
 70
     0
  9
$DIMALTD
 70
     2
  9
$DIMALTF
 40
25.4
  9
$DIMLFAC
 40
1.0
  9
$DIMTOFL
 70
     1
  9
$DIMTVP
 40
0.0
  9
$DIMTIX
 70
     0
  9
$DIMSOXD
 70
     0
  9
$DIMSAH
 70
     1
  9
$DIMBLK1
  1
OPEN
  9
$DIMBLK2
  1
OPEN
  9
$DIMSTYLE
  2
STANDARD
  9
$DIMCLRD
 70
     0
  9
$DIMCLRE
 70
     0
  9
$DIMCLRT
 70
     0
  9
$DIMTFAC
 40
1.0
  9
$DIMGAP
 40
1.0
  9
$DIMJUST
 70
     0
  9
$DIMSD1
 70
     0
  9
$DIMSD2
 70
     0
  9
$DIMTOLJ
 70
     1
  9
$DIMTZIN
 70
     0
  9
$DIMALTZ
 70
     0
  9
$DIMALTTZ
 70
     0
  9
$DIMUPT
 70
     0
  9
$DIMDEC
 70
     4
  9
$DIMTDEC
 70
     4
  9
$DIMALTU
 70
     2
  9
$DIMALTTD
 70
     2
  9
$DIMTXSTY
  7
STANDARD
  9
$DIMAUNIT
 70
     0
  9
$DIMADEC
 70
     0
  9
$DIMALTRND
 40
0.0
  9
$DIMAZIN
 70
     0
  9
$DIMDSEP
 70
    46
  9
$DIMATFIT
 70
     3
  9
$DIMFRAC
 70
     0
  9
$DIMLDRBLK
  1
OPEN
  9
$DIMLUNIT
 70
     2
  9
$DIMLWD
 70
    -2
  9
$DIMLWE
 70
    -2
  9
$DIMTMOVE
 70
     0
  9
$LUNITS
 70
     2
  9
$LUPREC
 70
     4
  9
$SKETCHINC
 40
1.0
  9
$FILLETRAD
 40
0.0
  9
$AUNITS
 70
     0
  9
$AUPREC
 70
     0
  9
$MENU
  1
.
  9
$ELEVATION
 40
0.0
  9
$PELEVATION
 40
0.0
  9
$THICKNESS
 40
0.0
  9
$LIMCHECK
 70
     0
  9
$CHAMFERA
 40
10.0
  9
$CHAMFERB
 40
10.0
  9
$CHAMFERC
 40
20.0
  9
$CHAMFERD
 40
0.0
  9
$SKPOLY
 70
     0
  9
$TDCREATE
 40
2453760.408483970
  9
$TDUCREATE
 40
2453760.033483970
  9
$TDUPDATE
 40
2457192.701300880
  9
$TDUUPDATE
 40
2457192.326300880
  9
$TDINDWG
 40
0.0519098264
  9
$TDUSRTIMER
 40
0.0519098264
  9
$USRTIMER
 70
     1
  9
$ANGBASE
 50
0.0
  9
$ANGDIR
 70
     0
  9
$PDMODE
 70
     0
  9
$PDSIZE
 40
0.0
  9
$PLINEWID
 40
0.0
  9
$SPLFRAME
 70
     0
  9
$SPLINETYPE
 70
     6
  9
$SPLINESEGS
 70
     8
  9
$HANDSEED
  5
26C9
  9
$SURFTAB1
 70
     6
  9
$SURFTAB2
 70
     6
  9
$SURFTYPE
 70
     6
  9
$SURFU
 70
     6
  9
$SURFV
 70
     6
  9
$UCSBASE
  2

  9
$UCSNAME
  2

  9
$UCSORG
 10
0.0
 20
0.0
 30
0.0
  9
$UCSXDIR
 10
1.0
 20
0.0
 30
0.0
  9
$UCSYDIR
 10
0.0
 20
1.0
 30
0.0
  9
$UCSORTHOREF
  2

  9
$UCSORTHOVIEW
 70
     0
  9
$UCSORGTOP
 10
0.0
 20
0.0
 30
0.0
  9
$UCSORGBOTTOM
 10
0.0
 20
0.0
 30
0.0
  9
$UCSORGLEFT
 10
0.0
 20
0.0
 30
0.0
  9
$UCSORGRIGHT
 10
0.0
 20
0.0
 30
0.0
  9
$UCSORGFRONT
 10
0.0
 20
0.0
 30
0.0
  9
$UCSORGBACK
 10
0.0
 20
0.0
 30
0.0
  9
$PUCSBASE
  2

  9
$PUCSNAME
  2

  9
$PUCSORG
 10
0.0
 20
0.0
 30
0.0
  9
$PUCSXDIR
 10
1.0
 20
0.0
 30
0.0
  9
$PUCSYDIR
 10
0.0
 20
1.0
 30
0.0
  9
$PUCSORTHOREF
  2

  9
$PUCSORTHOVIEW
 70
     0
  9
$PUCSORGTOP
 10
0.0
 20
0.0
 30
0.0
  9
$PUCSORGBOTTOM
 10
0.0
 20
0.0
 30
0.0
  9
$PUCSORGLEFT
 10
0.0
 20
0.0
 30
0.0
  9
$PUCSORGRIGHT
 10
0.0
 20
0.0
 30
0.0
  9
$PUCSORGFRONT
 10
0.0
 20
0.0
 30
0.0
  9
$PUCSORGBACK
 10
0.0
 20
0.0
 30
0.0
  9
$USERI1
 70
     0
  9
$USERI2
 70
     0
  9
$USERI3
 70
     0
  9
$USERI4
 70
     0
  9
$USERI5
 70
     0
  9
$USERR1
 40
0.0
  9
$USERR2
 40
0.0
  9
$USERR3
 40
0.0
  9
$USERR4
 40
0.0
  9
$USERR5
 40
0.0
  9
$WORLDVIEW
 70
     1
  9
$SHADEDGE
 70
     3
  9
$SHADEDIF
 70
    70
  9
$TILEMODE
 70
     1
  9
$MAXACTVP
 70
    48
  9
$PINSBASE
 10
0.0
 20
0.0
 30
0.0
  9
$PLIMCHECK
 70
     0
  9
$PEXTMIN
 10
27.8447512626648
 20
20.24591643810271
 30
0.0
  9
$PEXTMAX
 10
250.602761363983
 20
182.2132479429244
 30
0.0
  9
$PLIMMIN
 10
-3.757080078125
 20
-3.757083177566528
  9
$PLIMMAX
 10
293.2112426757811
 20
206.2162444591522
  9
$UNITMODE
 70
     0
  9
$VISRETAIN
 70
     1
  9
$PLINEGEN
 70
     0
  9
$PSLTSCALE
 70
     1
  9
$TREEDEPTH
 70
  3020
  9
$CMLSTYLE
  2
STANDARD
  9
$CMLJUST
 70
     0
  9
$CMLSCALE
 40
20.0
  9
$PROXYGRAPHICS
 70
     1
  9
$MEASUREMENT
 70
     0
  9
$CELWEIGHT
370
    -1
  9
$ENDCAPS
280
     0
  9
$JOINSTYLE
280
     0
  9
$LWDISPLAY
290
     0
  9
$INSUNITS
 70
     0
  9
$HYPERLINKBASE
  1

  9
$STYLESHEET
  1

  9
$XEDIT
290
     1
  9
$CEPSNTYPE
380
     0
  9
$PSTYLEMODE
290
     1
  9
$FINGERPRINTGUID
  2
{14E57DFE-02D7-48D1-B308-137F04044040}
  9
$VERSIONGUID
  2
{33F854E2-6969-4D4B-957A-288E92ED3AA6}
  9
$EXTNAMES
290
     1
  9
$PSVPSCALE
 40
0.0
  9
$OLESTARTUP
290
     0
  0
ENDSEC
  0
SECTION
  2
CLASSES
  0
CLASS
  1
ACDBDICTIONARYWDFLT
  2
AcDbDictionaryWithDefault
  3
ObjectDBX Classes
 90
        0
280
     0
281
     0
  0
CLASS
  1
ACDBPLACEHOLDER
  2
AcDbPlaceHolder
  3
ObjectDBX Classes
 90
        0
280
     0
281
     0
  0
CLASS
  1
LAYOUT
  2
AcDbLayout
  3
ObjectDBX Classes
 90
        0
280
     0
281
     0
  0
CLASS
  1
DICTIONARYVAR
  2
AcDbDictionaryVar
  3
ObjectDBX Classes
 90
        0
280
     0
281
     0
  0
CLASS
  1
MATERIAL
  2
AcDbMaterial
  3
ObjectDBX Classes
 90
     1153
280
     0
281
     0
  0
CLASS
  1
VISUALSTYLE
  2
AcDbVisualStyle
  3
ObjectDBX Classes
 90
     4095
280
     0
281
     0
  0
CLASS
  1
TABLESTYLE
  2
AcDbTableStyle
  3
ObjectDBX Classes
 90
     4095
280
     0
281
     0
  0
CLASS
  1
SCALE
  2
AcDbScale
  3
ObjectDBX Classes
 90
     1153
280
     0
281
     0
  0
CLASS
  1
MLEADERSTYLE
  2
AcDbMLeaderStyle
  3
ACDB_MLEADERSTYLE_CLASS
 90
     4095
280
     0
281
     0
  0
CLASS
  1
ACDBSECTIONVIEWSTYLE
  2
AcDbSectionViewStyle
  3
ObjectDBX Classes
 90
     1025
280
     0
281
     0
  0
CLASS
  1
ACDBDETAILVIEWSTYLE
  2
AcDbDetailViewStyle
  3
ObjectDBX Classes
 90
     1025
280
     0
281
     0
  0
CLASS
  1
CELLSTYLEMAP
  2
AcDbCellStyleMap
  3
ObjectDBX Classes
 90
     1152
280
     0
281
     0
  0
ENDSEC
  0
SECTION
  2
TABLES
  0
TABLE
  2
VPORT
  5
8
330
0
100
AcDbSymbolTable
 70
     1
  0
VPORT
  5
2615
330
8
100
AcDbSymbolTableRecord
100
AcDbViewportTableRecord
  2
*ACTIVE
 70
     0
 10
0.0
 20
0.0
 11
1.0
 21
1.0
 12
196.2214204309091
 22
98.5081204847361
 13
0.0
 23
0.0
 14
10.0
 24
10.0
 15
10.0
 25
10.0
 16
0.0
 26
0.0
 36
1.0
 17
0.0
 27
0.0
 37
0.0
 40
178.4191249142568
 41
2.35006605019815
 42
50.0
 43
0.0
 44
0.0
 50
0.0
 51
0.0
 71
     0
 72
   100
 73
     1
 74
     0
 75
     0
 76
     0
 77
     0
 78
     0
281
     0
 65
     1
110
0.0
120
0.0
130
0.0
111
1.0
121
0.0
131
0.0
112
0.0
122
1.0
132
0.0
 79
     0
146
0.0
1001
ACAD_NAV_VCDISPLAY
1070
     3
  0
ENDTAB
  0
TABLE
  2
LTYPE
  5
5
330
0
100
AcDbSymbolTable
 70
     4
  0
LTYPE
  5
12
330
5
100
AcDbSymbolTableRecord
100
AcDbLinetypeTableRecord
  2
BYBLOCK
 70
     0
  3

 72
    65
 73
     0
 40
0.0
  0
LTYPE
  5
13
330
5
100
AcDbSymbolTableRecord
100
AcDbLinetypeTableRecord
  2
BYLAYER
 70
     0
  3

 72
    65
 73
     0
 40
0.0
  0
LTYPE
  5
14
330
5
100
AcDbSymbolTableRecord
100
AcDbLinetypeTableRecord
  2
CONTINUOUS
 70
     0
  3
Solid line
 72
    65
 73
     0
 40
0.0
  0
LTYPE
  5
4B
330
5
100
AcDbSymbolTableRecord
100
AcDbLinetypeTableRecord
  2
DASHED
 70
     0
  3
Dashed __ __ __ __ __ __ __ __ __ __ __ __ __ _
 72
    65
 73
     2
 40
19.04999999999998
 49
12.7
 74
     0
 49
-6.349999999999997
 74
     0
  0
LTYPE
  5
4C
330
5
100
AcDbSymbolTableRecord
100
AcDbLinetypeTableRecord
  2
CENTER
 70
     0
  3
Center ____ _ ____ _ ____ _ ____ _ ____ _ ____
 72
    65
 73
     4
 40
50.8
 49
31.75
 74
     0
 49
-6.349999999999997
 74
     0
 49
6.349999999999997
 74
     0
 49
-6.349999999999997
 74
     0
  0
LTYPE
  5
4D
330
5
100
AcDbSymbolTableRecord
100
AcDbLinetypeTableRecord
  2
PHANTOM
 70
     0
  3
Phantom ______  __  __  ______  __  __  ______
 72
    65
 73
     6
 40
63.5
 49
31.75
 74
     0
 49
-6.349999999999997
 74
     0
 49
6.349999999999997
 74
     0
 49
-6.349999999999997
 74
     0
 49
6.349999999999997
 74
     0
 49
-6.349999999999997
 74
     0
  0
ENDTAB
  0
TABLE
  2
LAYER
  5
2
330
0
100
AcDbSymbolTable
 70
     8
  0
LAYER
  5
E
102
{ACAD_XDICTIONARY
360
266D
102
}
330
2
100
AcDbSymbolTableRecord
100
AcDbLayerTableRecord
  2
0
 70
     0
 62
     7
  6
CONTINUOUS
370
    -3
390
261C
  0
LAYER
  5
4E
102
{ACAD_XDICTIONARY
360
266F
102
}
330
2
100
AcDbSymbolTableRecord
100
AcDbLayerTableRecord
  2
4
 70
     0
 62
     1
  6
CENTER
370
    -3
390
261C
  0
LAYER
  5
4F
102
{ACAD_XDICTIONARY
360
2671
102
}
330
2
100
AcDbSymbolTableRecord
100
AcDbLayerTableRecord
  2
5
 70
     0
 62
     6
  6
PHANTOM
370
    -3
390
261C
  0
LAYER
  5
50
102
{ACAD_XDICTIONARY
360
2673
102
}
330
2
100
AcDbSymbolTableRecord
100
AcDbLayerTableRecord
  2
1
 70
     0
 62
     7
  6
CONTINUOUS
370
    -3
390
261C
  0
LAYER
  5
51
102
{ACAD_XDICTIONARY
360
2675
102
}
330
2
100
AcDbSymbolTableRecord
100
AcDbLayerTableRecord
  2
2
 70
     0
 62
     4
  6
CONTINUOUS
370
    -3
390
261C
  0
LAYER
  5
52
102
{ACAD_XDICTIONARY
360
2677
102
}
330
2
100
AcDbSymbolTableRecord
100
AcDbLayerTableRecord
  2
3
 70
     0
 62
     2
  6
DASHED
370
    -3
390
261C
  0
LAYER
  5
53
102
{ACAD_XDICTIONARY
360
2679
102
}
330
2
100
AcDbSymbolTableRecord
100
AcDbLayerTableRecord
  2
6
 70
     0
 62
     5
  6
CONTINUOUS
370
    -3
390
261C
  0
LAYER
  5
54
102
{ACAD_XDICTIONARY
360
267B
102
}
330
2
100
AcDbSymbolTableRecord
100
AcDbLayerTableRecord
  2
7
 70
     0
 62
     3
  6
CONTINUOUS
370
    -3
390
261C
  0
ENDTAB
  0
TABLE
  2
STYLE
  5
3
330
0
100
AcDbSymbolTable
 70
     1
  0
STYLE
  5
F
330
3
100
AcDbSymbolTableRecord
100
AcDbTextStyleTableRecord
  2
STANDARD
 70
     0
 40
0.0
 41
1.0
 50
0.0
 71
     0
 42
2.5
  3
simplex.shx
  4

  0
ENDTAB
  0
TABLE
  2
VIEW
  5
6
330
0
100
AcDbSymbolTable
 70
     0
  0
ENDTAB
  0
TABLE
  2
UCS
  5
7
330
0
100
AcDbSymbolTable
 70
     0
  0
ENDTAB
  0
TABLE
  2
APPID
  5
9
330
0
100
AcDbSymbolTable
 70
     5
  0
APPID
  5
10
330
9
100
AcDbSymbolTableRecord
100
AcDbRegAppTableRecord
  2
ACAD
 70
     0
  0
APPID
  5
3E
330
9
100
AcDbSymbolTableRecord
100
AcDbRegAppTableRecord
  2
CONTENTTABDATA
 70
     0
  0
APPID
  5
3F
330
9
100
AcDbSymbolTableRecord
100
AcDbRegAppTableRecord
  2
CONTENTCURRENTTAB
 70
     0
  0
APPID
  5
2687
330
9
100
AcDbSymbolTableRecord
100
AcDbRegAppTableRecord
  2
ACAD_NAV_VCDISPLAY
 70
     0
  0
APPID
  5
26C0
330
9
100
AcDbSymbolTableRecord
100
AcDbRegAppTableRecord
  2
ACAD_MLEADERVER
 70
     0
  0
ENDTAB
  0
TABLE
  2
DIMSTYLE
  5
A
330
0
100
AcDbSymbolTable
 70
     1
100
AcDbDimStyleTable
 71
     0
  0
DIMSTYLE
105
1D
330
A
100
AcDbSymbolTableRecord
100
AcDbDimStyleTableRecord
  2
STANDARD
 70
     0
 41
3.0
 42
1.0
 43
10.0
 44
1.0
 73
     0
 74
     0
 77
     3
 78
     8
140
3.2
141
0.0
147
1.0
172
     1
173
     1
340
F
341
2E
343
2E
344
2E
  0
ENDTAB
  0
TABLE
  2
BLOCK_RECORD
  5
1
330
0
100
AcDbSymbolTable
 70
     1
  0
BLOCK_RECORD
  5
18
102
{ACAD_XDICTIONARY
360
2601
102
}
330
1
100
AcDbSymbolTableRecord
100
AcDbBlockTableRecord
  2
*MODEL_SPACE
340
266A
  0
BLOCK_RECORD
  5
15
102
{ACAD_XDICTIONARY
360
25FF
102
}
330
1
100
AcDbSymbolTableRecord
100
AcDbBlockTableRecord
  2
*PAPER_SPACE
340
266B
  0
BLOCK_RECORD
  5
2E
330
1
100
AcDbSymbolTableRecord
100
AcDbBlockTableRecord
  2
_OPEN
340
0
  0
ENDTAB
  0
ENDSEC
  0
SECTION
  2
BLOCKS
  0
BLOCK
  5
19
330
18
100
AcDbEntity
  8
0
100
AcDbBlockBegin
  2
*MODEL_SPACE
 70
     0
 10
0.0
 20
0.0
 30
0.0
  3
*MODEL_SPACE
  1

  0
ENDBLK
  5
1A
330
18
100
AcDbEntity
  8
0
100
AcDbBlockEnd
  0
BLOCK
  5
16
330
15
100
AcDbEntity
 67
     1
  8
0
100
AcDbBlockBegin
  2
*PAPER_SPACE
 70
     0
 10
0.0
 20
0.0
 30
0.0
  3
*PAPER_SPACE
  1

  0
ENDBLK
  5
17
330
15
100
AcDbEntity
 67
     1
  8
0
100
AcDbBlockEnd
  0
BLOCK
  5
2F
330
2E
100
AcDbEntity
  8
0
100
AcDbBlockBegin
  2
_OPEN
 70
     0
 10
0.0
 20
0.0
 30
0.0
  3
_OPEN
  1

  0
LINE
  5
30
330
2E
100
AcDbEntity
  8
0
  6
ByBlock
 62
     0
100
AcDbLine
 10
-1.0
 20
0.1666666666666666
 30
0.0
 11
0.0
 21
0.0
 31
0.0
  0
LINE
  5
31
330
2E
100
AcDbEntity
  8
0
  6
ByBlock
 62
     0
100
AcDbLine
 10
0.0
 20
0.0
 30
0.0
 11
-1.0
 21
-0.1666666666666666
 31
0.0
  0
LINE
  5
32
330
2E
100
AcDbEntity
  8
0
  6
ByBlock
 62
     0
100
AcDbLine
 10
0.0
 20
0.0
 30
0.0
 11
-1.0
 21
0.0
 31
0.0
  0
ENDBLK
  5
33
330
2E
100
AcDbEntity
  8
0
100
AcDbBlockEnd
  0
ENDSEC
  0
SECTION
  2
ENTITIES
  0
TEXT
  5
63
330
18
100
AcDbEntity
  8
4
  6
CENTER
 48
0.25
100
AcDbText
 10
23.97950852663849
 20
10.0
 30
0.0
 40
1.399999999999999
  1
4
100
AcDbText
  0
TEXT
  5
64
330
18
100
AcDbEntity
  8
7
  6
Continuous
 48
0.25
100
AcDbText
 10
9.999997526638502
 20
26.0000007607689
 30
0.0
 40
3.0
  1
CODE No.1973
100
AcDbText
  0
TEXT
  5
65
330
18
100
AcDbEntity
  8
7
  6
Continuous
 48
0.25
100
AcDbText
 10
9.999997526638502
 20
18.00000076076889
 30
0.0
 40
3.0
  1
TYPE No.TEL-1048-U6
100
AcDbText
  0
TEXT
  5
66
330
18
100
AcDbEntity
  8
1
  6
Continuous
 48
0.25
100
AcDbText
 10
9.999997526638502
 20
10.00000076076889
 30
0.0
 40
1.399999999999999
  1
LAYER
100
AcDbText
  0
TEXT
  5
67
330
18
100
AcDbEntity
  8
2
  6
Continuous
 48
0.25
100
AcDbText
 10
19.9795085266385
 20
10.0
 30
0.0
 40
1.399999999999999
  1
2
100
AcDbText
  0
TEXT
  5
68
330
18
100
AcDbEntity
  8
3
  6
DASHED
 48
0.25
100
AcDbText
 10
21.97950852663849
 20
10.0
 30
0.0
 40
1.399999999999999
  1
3
100
AcDbText
  0
TEXT
  5
69
330
18
100
AcDbEntity
  8
1
  6
Continuous
 48
0.25
100
AcDbText
 10
17.9795085266385
 20
10.0
 30
0.0
 40
1.399999999999999
  1
1
100
AcDbText
  0
TEXT
  5
6A
330
18
100
AcDbEntity
  8
5
  6
PHANTOM
 48
0.25
100
AcDbText
 10
25.97950852663849
 20
10.0
 30
0.0
 40
1.399999999999999
  1
5
100
AcDbText
  0
TEXT
  5
6B
330
18
100
AcDbEntity
  8
6
  6
Continuous
 48
0.25
100
AcDbText
 10
27.97950852663849
 20
10.0
 30
0.0
 40
1.399999999999999
  1
6
100
AcDbText
  0
TEXT
  5
6C
330
18
100
AcDbEntity
  8
7
  6
Continuous
 48
0.25
100
AcDbText
 10
29.9795085266385
 20
10.0
 30
0.0
 40
1.399999999999999
  1
7
100
AcDbText
  0
LINE
  5
158A
330
18
100
AcDbEntity
  8
1
  6
Continuous
100
AcDbLine
 10
64.34642276595622
 20
165.3516967645094
 30
0.0
 11
44.84642183975535
 21
165.3516967645096
 31
0.0
  0
ARC
  5
1592
330
18
100
AcDbEntity
  8
1
  6
Continuous
100
AcDbCircle
 10
29.84642112729359
 20
168.6516969212511
 30
0.0
 40
12.25000058184376
100
AcDbArc
 50
110.1530742571104
 51
159.8469257428918
  0
ARC
  5
1593
330
18
100
AcDbEntity
  8
1
  6
Continuous
100
AcDbCircle
 10
29.84642112729357
 20
168.6516969212511
 30
0.0
 40
12.25000058184376
100
AcDbArc
 50
200.1530742571083
 51
249.8469257428916
  0
LINE
  5
15A0
330
18
100
AcDbEntity
  8
1
  6
Continuous
100
AcDbLine
 10
18.34642058107291
 20
164.4312109667553
 30
0.0
 11
18.34642058107291
 21
172.8721828757469
 31
0.0
  0
LINE
  5
1749
330
18
100
AcDbEntity
  8
1
  6
Continuous
100
AcDbLine
 10
41.34642167351429
 20
172.8721828757469
 30
0.0
 11
41.34642167351429
 21
164.4312109667553
 31
0.0
  0
ARC
  5
174A
330
18
100
AcDbEntity
  8
1
  6
Continuous
100
AcDbCircle
 10
23.74642083755917
 20
170.801692254839
 30
0.0
 40
2.500004887277583
100
AcDbArc
 50
0.0001092864853014
 51
179.9998907135162
  0
ARC
  5
175D
330
18
100
AcDbEntity
  8
1
  6
Continuous
100
AcDbCircle
 10
29.84642112729357
 20
168.6516969212511
 30
0.0
 40
12.25000058184378
100
AcDbArc
 50
20.15307425710771
 51
69.84692574289188
  0
LINE
  5
1767
330
18
100
AcDbEntity
  8
1
  6
Continuous
100
AcDbLine
 10
25.62593517279728
 20
180.1516974674719
 30
0.0
 11
34.06690708178938
 21
180.1516974674719
 31
0.0
  0
LINE
  5
1988
330
18
100
AcDbEntity
  8
1
  6
Continuous
100
AcDbLine
 10
41.3075495449888
 20
172.9766304060891
 30
0.0
 11
44.26622377750939
 21
173.4574149688736
 31
0.0
  0
LINE
  5
19B5
330
18
100
AcDbEntity
  8
1
  6
Continuous
100
AcDbLine
 10
44.84642183975535
 20
172.9638885781203
 30
0.0
 11
44.84642183975535
 21
171.851697073243
 31
0.0
  0
ARC
  5
19B6
330
18
100
AcDbEntity
  8
1
  6
Continuous
100
AcDbCircle
 10
44.3464218160066
 20
172.9638885781203
 30
0.0
 40
0.5000000237487244
100
AcDbArc
 50
0.0
 51
99.2298862437066
  0
ARC
  5
19BA
330
18
100
AcDbEntity
  8
1
  6
Continuous
100
AcDbCircle
 10
29.84642112729359
 20
168.6516969212511
 30
0.0
 40
12.25000058184376
100
AcDbArc
 50
290.1530742571086
 51
339.8469257428918
  0
LINE
  5
19CA
330
18
100
AcDbEntity
  8
1
  6
Continuous
100
AcDbLine
 10
34.06690708178952
 20
157.1516963750305
 30
0.0
 11
25.62593517279776
 21
157.1516963750305
 31
0.0
  0
ARC
  5
19DB
330
18
100
AcDbEntity
  8
1
  6
Continuous
100
AcDbCircle
 10
23.74642083755917
 20
166.5017015876633
 30
0.0
 40
2.500004887277639
100
AcDbArc
 50
180.0001092864828
 51
359.9998907135172
  0
LINE
  5
19E0
330
18
100
AcDbEntity
  8
1
  6
Continuous
100
AcDbLine
 10
21.24641595028609
 20
166.5016968191316
 30
0.0
 11
21.24641595028612
 21
170.8016970233706
 31
0.0
  0
LINE
  5
1A4E
330
18
100
AcDbEntity
  8
1
  6
Continuous
100
AcDbLine
 10
26.24642572483222
 20
170.8016970233708
 30
0.0
 11
26.24642572483222
 21
166.5016968191316
 31
0.0
  0
LINE
  5
1D25
330
18
100
AcDbEntity
  8
1
  6
Continuous
100
AcDbLine
 10
44.26622377750918
 20
163.8459788736287
 30
0.0
 11
41.30754954498883
 21
164.3267634364133
 31
0.0
  0
LINE
  5
1DB3
330
18
100
AcDbEntity
  8
1
  6
Continuous
100
AcDbLine
 10
44.84642183975535
 20
165.3516967645096
 30
0.0
 11
44.84642183975535
 21
164.3395052643819
 31
0.0
  0
ARC
  5
1DB4
330
18
100
AcDbEntity
  8
1
  6
Continuous
100
AcDbCircle
 10
44.3464218160066
 20
164.339505264382
 30
0.0
 40
0.500000023748725
100
AcDbArc
 50
260.7701137562719
 51
359.9999999999788
  0
LINE
  5
1DBE
330
18
100
AcDbEntity
  8
1
  6
Continuous
100
AcDbLine
 10
62.4558070744244
 20
171.851697073243
 30
0.0
 11
65.95610798520167
 21
168.6516969212514
 31
0.0
  0
LINE
  5
1DBF
330
18
100
AcDbEntity
  8
1
  6
Continuous
100
AcDbLine
 10
62.4558070744244
 20
171.851697073243
 30
0.0
 11
44.84642183975535
 21
171.851697073243
 31
0.0
  0
ARC
  5
1DC0
330
18
100
AcDbEntity
  8
1
  6
Continuous
100
AcDbCircle
 10
65.14642280395358
 20
167.7660276578914
 30
0.0
 40
1.200000056996932
100
AcDbArc
 50
313.5155865609803
 51
47.5662218732446
  0
LINE
  5
1DC1
330
18
100
AcDbEntity
  8
1
  6
Continuous
100
AcDbLine
 10
65.97268509769847
 20
166.8958031128866
 30
0.0
 11
64.34642276595622
 21
165.3516967645094
 31
0.0
  0
LINE
  5
1DC2
330
18
100
AcDbEntity
  8
1
  6
Continuous
100
AcDbLine
 10
94.89004585168656
 20
155.5594948538168
 30
0.0
 11
94.89004585168656
 21
153.9594947778209
 31
0.0
  0
LINE
  5
1DC3
330
18
100
AcDbEntity
  8
1
  6
Continuous
100
AcDbLine
 10
122.890047181615
 20
153.9594947778208
 30
0.0
 11
122.890047181615
 21
155.5594948538168
 31
0.0
  0
LINE
  5
1F2A
330
18
100
AcDbEntity
  8
1
  6
Continuous
100
AcDbLine
 10
113.5400467375138
 20
112.7429260401934
 30
0.0
 11
101.7400461770439
 21
112.7429260401934
 31
0.0
  0
LINE
  5
1F2B
330
18
100
AcDbEntity
  8
1
  6
Continuous
100
AcDbLine
 10
101.7400461770439
 20
110.2429259214497
 30
0.0
 11
113.5400467375138
 21
110.2429259214497
 31
0.0
  0
ARC
  5
1F2C
330
18
100
AcDbEntity
  8
1
  6
Continuous
100
AcDbCircle
 10
108.8900465166507
 20
111.4929259808215
 30
0.0
 40
4.400000208988879
100
AcDbArc
 50
196.5045155213631
 51
343.4954844786363
  0
LINE
  5
1F3A
330
18
100
AcDbEntity
  8
1
  6
Continuous
100
AcDbLine
 10
99.05275272008802
 20
101.531617363019
 30
0.0
 11
101.0958175123847
 21
97.99292533960596
 31
0.0
  0
LINE
  5
1F3B
330
18
100
AcDbEntity
  8
1
  6
Continuous
100
AcDbLine
 10
101.0958175123849
 20
97.99292533960601
 30
0.0
 11
105.1819470969783
 21
97.99292533960601
 31
0.0
  0
LINE
  5
1F40
330
18
100
AcDbEntity
  8
1
  6
Continuous
100
AcDbLine
 10
95.34465330041559
 20
115.0316180042346
 30
0.0
 11
93.30158850811882
 21
111.4929259808215
 31
0.0
  0
LINE
  5
1F41
330
18
100
AcDbEntity
  8
1
  6
Continuous
100
AcDbLine
 10
101.7400461770439
 20
112.7429260401934
 30
0.0
 11
101.7400461770439
 21
110.2429259214497
 31
0.0
  0
LINE
  5
1F42
330
18
100
AcDbEntity
  8
1
  6
Continuous
100
AcDbLine
 10
93.30158865245641
 20
111.4929257308215
 30
0.0
 11
95.34465330041568
 21
107.9542339574082
 31
0.0
  0
LINE
  5
1F4D
330
18
100
AcDbEntity
  8
1
  6
Continuous
100
AcDbLine
 10
112.5981459363234
 20
97.99292533960601
 30
0.0
 11
116.6842755209168
 21
97.99292533960601
 31
0.0
  0
LINE
  5
1F4E
330
18
100
AcDbEntity
  8
1
  6
Continuous
100
AcDbLine
 10
116.6842755209168
 20
97.99292533960596
 30
0.0
 11
118.7273403132136
 21
101.531617363019
 31
0.0
  0
LINE
  5
1F4F
330
18
100
AcDbEntity
  8
1
  6
Continuous
100
AcDbLine
 10
124.4785043808452
 20
111.4929262308214
 30
0.0
 11
122.4253511909514
 21
115.0490918714398
 31
0.0
  0
LINE
  5
1F50
330
18
100
AcDbEntity
  8
1
  6
Continuous
100
AcDbLine
 10
122.4309705055434
 20
107.9464930285803
 30
0.0
 11
124.4785045251828
 21
111.4929259808215
 31
0.0
  0
LINE
  5
1F51
330
18
100
AcDbEntity
  8
1
  6
Continuous
100
AcDbLine
 10
113.5400467375138
 20
110.2429259214497
 30
0.0
 11
113.5400467375138
 21
112.7429260401934
 31
0.0
  0
LINE
  5
1F5E
330
18
100
AcDbEntity
  8
1
  6
Continuous
100
AcDbLine
 10
100.840051327055
 20
149.2094944449644
 30
0.0
 11
116.9400468990053
 21
149.2094944449644
 31
0.0
  0
LINE
  5
1F5F
330
18
100
AcDbEntity
  8
1
  6
Continuous
100
AcDbLine
 10
94.89004585168656
 20
153.9594947778208
 30
0.0
 11
122.890047181615
 21
153.9594947778208
 31
0.0
  0
LINE
  5
1F60
330
18
100
AcDbEntity
  8
1
  6
Continuous
100
AcDbLine
 10
119.8900470391229
 20
150.1594945973304
 30
0.0
 11
97.89004599417872
 21
150.1594945973304
 31
0.0
  0
LINE
  5
1F64
330
18
100
AcDbEntity
  8
1
  6
Continuous
100
AcDbLine
 10
101.0958175123847
 20
124.9929266220372
 30
0.0
 11
99.05275272008822
 21
121.4542345986243
 31
0.0
  0
LINE
  5
1F65
330
18
100
AcDbEntity
  8
1
  6
Continuous
100
AcDbLine
 10
105.1819470969778
 20
124.9929266220372
 30
0.0
 11
101.0958175123847
 21
124.9929266220372
 31
0.0
  0
LINE
  5
1F66
330
18
100
AcDbEntity
  8
1
  6
Continuous
100
AcDbLine
 10
94.89004585168665
 20
153.9594947778208
 30
0.0
 11
97.89012494154718
 21
150.1593945973303
 31
0.0
  0
LINE
  5
1F68
330
18
100
AcDbEntity
  8
1
  6
Continuous
100
AcDbLine
 10
100.540046120047
 20
150.1594945973304
 30
0.0
 11
100.540046120047
 21
149.5094944591686
 31
0.0
  0
ARC
  5
1F69
330
18
100
AcDbEntity
  8
1
  6
Continuous
100
AcDbCircle
 10
100.8400461342963
 20
149.5094944591686
 30
0.0
 40
0.3000000142492325
100
AcDbArc
 50
180.0000000000057
 51
270.0004958719055
  0
LINE
  5
1F6A
330
18
100
AcDbEntity
  8
1
  6
Continuous
100
AcDbLine
 10
116.6842755209167
 20
124.9929266220372
 30
0.0
 11
112.5981459363238
 21
124.9929266220372
 31
0.0
  0
LINE
  5
1F6B
330
18
100
AcDbEntity
  8
1
  6
Continuous
100
AcDbLine
 10
118.7273403132134
 20
121.4542345986243
 30
0.0
 11
116.6842755209168
 21
124.9929266220372
 31
0.0
  0
LINE
  5
1F6E
330
18
100
AcDbEntity
  8
1
  6
Continuous
100
AcDbLine
 10
119.8900470391229
 20
150.1594945973304
 30
0.0
 11
122.890047181615
 21
153.9594947778209
 31
0.0
  0
LINE
  5
1F6F
330
18
100
AcDbEntity
  8
1
  6
Continuous
100
AcDbLine
 10
117.2400469132545
 20
149.5094944591686
 30
0.0
 11
117.2400469132545
 21
150.1594945973304
 31
0.0
  0
ARC
  5
1F70
330
18
100
AcDbEntity
  8
1
  6
Continuous
100
AcDbCircle
 10
116.9400468990053
 20
149.5094944591686
 30
0.0
 40
0.3000000142492325
100
AcDbArc
 50
270.0
 51
359.9999999999942
  0
LINE
  5
1F7A
330
18
100
AcDbEntity
  8
1
  6
Continuous
100
AcDbLine
 10
235.3787252436834
 20
97.992959555365
 30
0.0
 11
219.7902672351516
 21
97.99295955536488
 31
0.0
  0
LINE
  5
1F7B
330
18
100
AcDbEntity
  8
1
  6
Continuous
100
AcDbLine
 10
219.7902672351518
 20
124.9929608377959
 30
0.0
 11
235.3787252436837
 21
124.992960837796
 31
0.0
  0
ARC
  5
1F7C
330
18
100
AcDbEntity
  8
1
  6
Continuous
100
AcDbCircle
 10
227.5845032391783
 20
111.4929601965804
 30
0.0
 40
8.499994556870277
100
AcDbArc
 50
33.35354977895967
 51
326.6464502210403
  0
ARC
  5
1F82
330
18
100
AcDbEntity
  8
1
  6
Continuous
100
AcDbCircle
 10
227.5844962394176
 20
111.4929601965804
 30
0.0
 40
8.900000422727329
100
AcDbArc
 50
224.9999999999996
 51
341.6629252192183
  0
ARC
  5
1F83
330
18
100
AcDbEntity
  8
1
  6
Continuous
100
AcDbCircle
 10
227.5844962394176
 20
111.4929601965804
 30
0.0
 40
9.800064890667082
100
AcDbArc
 50
343.3984504009794
 51
106.6015495990197
  0
ARC
  5
1F87
330
18
100
AcDbEntity
  8
1
  6
Continuous
100
AcDbCircle
 10
227.5844962394176
 20
111.4929601965804
 30
0.0
 40
14.00000066496431
100
AcDbArc
 50
74.6411144191768
 51
105.3588855808232
  0
ARC
  5
1F88
330
18
100
AcDbEntity
  8
1
  6
Continuous
100
AcDbCircle
 10
227.5844962394176
 20
111.4929601965804
 30
0.0
 40
14.00000066496431
100
AcDbArc
 50
270.0
 51
285.3588855808215
  0
LINE
  5
1F8A
330
18
100
AcDbEntity
  8
1
  6
Continuous
100
AcDbLine
 10
211.9960382308855
 20
111.4929601965803
 30
0.0
 11
219.7902672351518
 21
124.9929608377959
 31
0.0
  0
ARC
  5
1F8D
330
18
100
AcDbEntity
  8
1
  6
Continuous
100
AcDbCircle
 10
227.5844962394176
 20
111.4929601965804
 30
0.0
 40
8.90000042272732
100
AcDbArc
 50
108.3370747807814
 51
224.9999999999996
  0
ARC
  5
1F90
330
18
100
AcDbEntity
  8
1
  6
Continuous
100
AcDbCircle
 10
227.5844962394176
 20
111.4929601965804
 30
0.0
 40
14.00000066496431
100
AcDbArc
 50
134.6411144191754
 51
165.3588855808224
  0
LINE
  5
1F91
330
18
100
AcDbEntity
  8
1
  6
Continuous
100
AcDbLine
 10
162.9237142468953
 20
97.99292533960601
 30
0.0
 11
162.9237142468953
 21
124.992926622037
 31
0.0
  0
LINE
  5
1F92
330
18
100
AcDbEntity
  8
1
  6
Continuous
100
AcDbLine
 10
158.9237140569056
 20
97.99292533960601
 30
0.0
 11
158.9237140569056
 21
124.9929266220369
 31
0.0
  0
LINE
  5
1F93
330
18
100
AcDbEntity
  8
1
  6
Continuous
100
AcDbLine
 10
155.3237137905475
 20
125.4929266457859
 30
0.0
 11
155.3237137905475
 21
97.4929253158573
 31
0.0
  0
LINE
  5
1F94
330
18
100
AcDbEntity
  8
1
  6
Continuous
100
AcDbLine
 10
156.9237138665434
 20
97.4929253158573
 30
0.0
 11
156.9237138665434
 21
125.4929266457857
 31
0.0
  0
LINE
  5
1F95
330
18
100
AcDbEntity
  8
1
  6
Continuous
100
AcDbLine
 10
151.523713610057
 20
100.4929254583494
 30
0.0
 11
151.523713610057
 21
122.4929265032937
 31
0.0
  0
LINE
  5
1F96
330
18
100
AcDbEntity
  8
1
  6
Continuous
100
AcDbLine
 10
168.9237144365126
 20
116.075501893438
 30
0.0
 11
168.9237144365126
 21
121.4929264557959
 31
0.0
  0
LINE
  5
1F99
330
18
100
AcDbEntity
  8
1
  6
Continuous
100
AcDbLine
 10
174.9237147214974
 20
119.9410030862809
 30
0.0
 11
173.9237146739999
 21
120.9887149720372
 31
0.0
  0
LINE
  5
1F9A
330
18
100
AcDbEntity
  8
1
  6
Continuous
100
AcDbLine
 10
185.3737160761526
 20
111.4929259451072
 30
0.0
 11
181.3737158861629
 21
111.4929262308214
 31
0.0
  0
LINE
  5
1F9C
330
18
100
AcDbEntity
  8
1
  6
Continuous
100
AcDbLine
 10
184.8737160524039
 20
106.7081353976472
 30
0.0
 11
181.3737158861629
 21
106.7081353976472
 31
0.0
  0
LINE
  5
1FA1
330
18
100
AcDbEntity
  8
1
  6
Continuous
100
AcDbLine
 10
169.92371448401
 20
101.492925505847
 30
0.0
 11
169.92371448401
 21
121.4929264557959
 31
0.0
  0
LINE
  5
1FA2
330
18
100
AcDbEntity
  8
1
  6
Continuous
100
AcDbLine
 10
168.9237144365128
 20
101.492925505847
 30
0.0
 11
168.9237144365126
 21
106.9103500682049
 31
0.0
  0
LINE
  5
1FA3
330
18
100
AcDbEntity
  8
1
  6
Continuous
100
AcDbLine
 10
173.923714674
 20
101.592925510617
 30
0.0
 11
173.923714674
 21
120.9887149720372
 31
0.0
  0
LINE
  5
1FA4
330
18
100
AcDbEntity
  8
1
  6
Continuous
100
AcDbLine
 10
174.9237147214974
 20
102.5929255584115
 30
0.0
 11
174.9237147214974
 21
119.9410030862809
 31
0.0
  0
LINE
  5
1FA5
330
18
100
AcDbEntity
  8
1
  6
Continuous
100
AcDbLine
 10
162.9237142468953
 20
97.99292533960601
 30
0.0
 11
158.9237140569056
 21
97.99292533960601
 31
0.0
  0
LINE
  5
1FA6
330
18
100
AcDbEntity
  8
1
  6
Continuous
100
AcDbLine
 10
151.523713610057
 20
100.4929254583494
 30
0.0
 11
155.3237137905476
 21
97.4929253158573
 31
0.0
  0
LINE
  5
1FA8
330
18
100
AcDbEntity
  8
1
  6
Continuous
100
AcDbLine
 10
155.3237137905476
 20
97.4929253158573
 30
0.0
 11
156.9237138665434
 21
97.49292531585732
 31
0.0
  0
LINE
  5
1FAA
330
18
100
AcDbEntity
  8
1
  6
Continuous
100
AcDbLine
 10
156.9237138665433
 20
101.492925505847
 30
0.0
 11
158.9237140569055
 21
101.492925505847
 31
0.0
  0
LINE
  5
1FAC
330
18
100
AcDbEntity
  8
1
  6
Continuous
100
AcDbLine
 10
169.92371448401
 20
101.5929255105967
 30
0.0
 11
173.923714674
 21
101.5929255105967
 31
0.0
  0
LINE
  5
1FAE
330
18
100
AcDbEntity
  8
1
  6
Continuous
100
AcDbLine
 10
162.9237142468953
 20
101.492925505847
 30
0.0
 11
169.92371448401
 21
101.492925505847
 31
0.0
  0
LINE
  5
1FB1
330
18
100
AcDbEntity
  8
1
  6
Continuous
100
AcDbLine
 10
173.923714674
 20
101.5929255105967
 30
0.0
 11
174.9238147214976
 21
102.5930255580944
 31
0.0
  0
LINE
  5
1FB3
330
18
100
AcDbEntity
  8
1
  6
Continuous
100
AcDbLine
 10
162.9237142468953
 20
111.4929259808213
 30
0.0
 11
158.9237140569055
 21
111.4929259808213
 31
0.0
  0
LINE
  5
1FB4
330
18
100
AcDbEntity
  8
1
  6
Continuous
100
AcDbLine
 10
150.5737134595944
 20
119.5429605531451
 30
0.0
 11
150.5737134595944
 21
103.4429598400212
 31
0.0
  0
LINE
  5
1FB6
330
18
100
AcDbEntity
  8
1
  6
Continuous
100
AcDbLine
 10
150.8737134718953
 20
103.1429255842178
 30
0.0
 11
151.523713610057
 21
103.1429255842178
 31
0.0
  0
ARC
  5
1FB7
330
18
100
AcDbEntity
  8
1
  6
Continuous
100
AcDbCircle
 10
150.8737134718953
 20
103.4429255984671
 30
0.0
 40
0.3000000142492325
100
AcDbArc
 50
179.9934603451473
 51
269.999999999995
  0
LINE
  5
1FB8
330
18
100
AcDbEntity
  8
1
  6
Continuous
100
AcDbLine
 10
156.9237138665433
 20
106.9103500682049
 30
0.0
 11
158.9237140569055
 21
106.9103500682049
 31
0.0
  0
LINE
  5
1FB9
330
18
100
AcDbEntity
  8
1
  6
Continuous
100
AcDbLine
 10
151.5237136443962
 20
119.8429263774252
 30
0.0
 11
150.8737134718953
 21
119.8429263774252
 31
0.0
  0
ARC
  5
1FBA
330
18
100
AcDbEntity
  8
1
  6
Continuous
100
AcDbCircle
 10
150.8737134718953
 20
119.542926363176
 30
0.0
 40
0.3000000142492325
100
AcDbArc
 50
90.00000000000651
 51
180.0004958719036
  0
LINE
  5
1FBB
330
18
100
AcDbEntity
  8
1
  6
Continuous
100
AcDbLine
 10
156.9237138665433
 20
116.0755018934382
 30
0.0
 11
158.9237140569055
 21
116.0755018934382
 31
0.0
  0
LINE
  5
1FBD
330
18
100
AcDbEntity
  8
1
  6
Continuous
100
AcDbLine
 10
180.8737158624144
 20
104.7429256602137
 30
0.0
 11
180.8737158624144
 21
118.2429263014292
 31
0.0
  0
LINE
  5
1FBF
330
18
100
AcDbEntity
  8
1
  6
Continuous
100
AcDbLine
 10
179.7237158077921
 20
110.930771420557
 30
0.0
 11
179.7237158077921
 21
112.0550805410859
 31
0.0
  0
ARC
  5
1FC0
330
18
100
AcDbEntity
  8
1
  6
Continuous
100
AcDbCircle
 10
54.65704243779601
 20
111.4929259808215
 30
0.0
 40
120.5666723933179
100
AcDbArc
 50
355.9572677870919
 51
4.042729880710626
  0
ARC
  5
1FC1
330
18
100
AcDbEntity
  8
1
  6
Continuous
100
AcDbCircle
 10
54.65704243778799
 20
111.4929259808215
 30
0.0
 40
120.8666724075753
100
AcDbArc
 50
355.9673214464039
 51
4.032681371254091
  0
LINE
  5
1FC2
330
18
100
AcDbEntity
  8
1
  6
Continuous
100
AcDbLine
 10
175.7237146641175
 20
117.4929262658062
 30
0.0
 11
175.7237146641176
 21
105.4929256958367
 31
0.0
  0
LINE
  5
1FC7
330
18
100
AcDbEntity
  8
1
  6
Continuous
100
AcDbLine
 10
162.9237142468953
 20
106.9103500682049
 30
0.0
 11
168.9237144365128
 21
106.9103500682049
 31
0.0
  0
LINE
  5
1FC8
330
18
100
AcDbEntity
  8
1
  6
Continuous
100
AcDbLine
 10
181.3737158861629
 20
105.3554256893059
 30
0.0
 11
181.3737158861629
 21
117.6304262723371
 31
0.0
  0
LINE
  5
1FCB
330
18
100
AcDbEntity
  8
1
  6
Continuous
100
AcDbLine
 10
174.9237147214973
 20
102.9929255770932
 30
0.0
 11
175.2248996480928
 21
102.9929255770932
 31
0.0
  0
LINE
  5
1FCD
330
18
100
AcDbEntity
  8
1
  6
Continuous
100
AcDbLine
 10
174.9237147214975
 20
105.4929256958367
 30
0.0
 11
175.0741715109099
 21
105.4929256958367
 31
0.0
  0
LINE
  5
1FCE
330
18
100
AcDbEntity
  8
1
  6
Continuous
100
AcDbLine
 10
175.3745414011683
 20
105.4929256958367
 30
0.0
 11
175.7237146641176
 21
105.4929256958367
 31
0.0
  0
LINE
  5
1FCF
330
18
100
AcDbEntity
  8
1
  6
Continuous
100
AcDbLine
 10
180.8737158624144
 20
104.7429256602139
 30
0.0
 11
181.3738158861628
 21
105.3555481893059
 31
0.0
  0
LINE
  5
1FD0
330
18
100
AcDbEntity
  8
1
  6
Continuous
100
AcDbLine
 10
180.1737158291659
 20
104.7429256602137
 30
0.0
 11
180.8737158624141
 21
104.7429256602137
 31
0.0
  0
LINE
  5
1FD6
330
18
100
AcDbEntity
  8
1
  6
Continuous
100
AcDbLine
 10
179.8737158149425
 20
106.9320870836212
 30
0.0
 11
179.7237158077921
 21
106.9320870836212
 31
0.0
  0
LINE
  5
1FD7
330
18
100
AcDbEntity
  8
1
  6
Continuous
100
AcDbLine
 10
179.8737158149425
 20
106.2093951114875
 30
0.0
 11
179.7237158077921
 21
106.2093951114875
 31
0.0
  0
LINE
  5
1FD9
330
18
100
AcDbEntity
  8
1
  6
Continuous
100
AcDbLine
 10
179.8737158149425
 20
105.6472405326124
 30
0.0
 11
179.7237158077921
 21
105.6472405326124
 31
0.0
  0
LINE
  5
1FDB
330
18
100
AcDbEntity
  8
1
  6
Continuous
100
AcDbLine
 10
179.8737158149425
 20
105.2627041846776
 30
0.0
 11
179.7237158077921
 21
105.2627041846776
 31
0.0
  0
LINE
  5
1FDC
330
18
100
AcDbEntity
  8
1
  6
Continuous
100
AcDbLine
 10
179.8737158149169
 20
105.0674699343068
 30
0.0
 11
179.7237158077921
 21
105.0674699343068
 31
0.0
  0
ARC
  5
1FDF
330
18
100
AcDbEntity
  8
1
  6
Continuous
100
AcDbCircle
 10
180.1737158291659
 20
105.042925674463
 30
0.0
 40
0.3000000142492368
100
AcDbArc
 50
180.0
 51
270.0
  0
LINE
  5
1FE0
330
18
100
AcDbEntity
  8
1
  6
Continuous
100
AcDbLine
 10
175.723714664128
 20
108.4929258383292
 30
0.0
 11
179.4237148398683
 21
108.4929258383292
 31
0.0
  0
LINE
  5
1FE1
330
18
100
AcDbEntity
  8
1
  6
Continuous
100
AcDbLine
 10
175.723714664128
 20
107.4929257908317
 30
0.0
 11
179.4237148398683
 21
107.4929257908317
 31
0.0
  0
LINE
  5
1FE3
330
18
100
AcDbEntity
  8
1
  6
Continuous
100
AcDbLine
 10
179.8737158149168
 20
105.042925674463
 30
0.0
 11
179.8737158149166
 21
117.9417342964347
 31
0.0
  0
LINE
  5
1FE5
330
18
100
AcDbEntity
  8
1
  6
Continuous
100
AcDbLine
 10
179.8737158149416
 20
110.9307714205572
 30
0.0
 11
179.7237158077921
 21
110.9307714205572
 31
0.0
  0
LINE
  5
1FE6
330
18
100
AcDbEntity
  8
1
  6
Continuous
100
AcDbLine
 10
179.8737158149416
 20
109.8235430818778
 30
0.0
 11
179.7237158077921
 21
109.8235430818778
 31
0.0
  0
LINE
  5
1FE7
330
18
100
AcDbEntity
  8
1
  6
Continuous
100
AcDbLine
 10
179.7237158077921
 20
110.4576497512385
 30
0.0
 11
179.7237158077921
 21
105.0674699343068
 31
0.0
  0
LINE
  5
1FE8
330
18
100
AcDbEntity
  8
1
  6
Continuous
100
AcDbLine
 10
179.8737158149166
 20
110.4576497512385
 30
0.0
 11
179.7237158077921
 21
110.4576497512385
 31
0.0
  0
LINE
  5
1FE9
330
18
100
AcDbEntity
  8
1
  6
Continuous
100
AcDbLine
 10
179.8737158149416
 20
108.7670380978348
 30
0.0
 11
179.7237158077921
 21
108.7670380978348
 31
0.0
  0
LINE
  5
1FEB
330
18
100
AcDbEntity
  8
1
  6
Continuous
100
AcDbLine
 10
179.8737158149416
 20
107.7933578377503
 30
0.0
 11
179.7237158077921
 21
107.7933578377503
 31
0.0
  0
LINE
  5
1FED
330
18
100
AcDbEntity
  8
1
  6
Continuous
100
AcDbLine
 10
179.4237148398685
 20
108.7429258502035
 30
0.0
 11
179.7237158077921
 21
108.7429258502035
 31
0.0
  0
LINE
  5
1FEE
330
18
100
AcDbEntity
  8
1
  6
Continuous
100
AcDbLine
 10
179.4237148398678
 20
115.4929261708112
 30
0.0
 11
179.4237148398682
 21
107.4929257908317
 31
0.0
  0
LINE
  5
1FEF
330
18
100
AcDbEntity
  8
1
  6
Continuous
100
AcDbLine
 10
162.9237142468953
 20
116.0755018934382
 30
0.0
 11
168.9237144365126
 21
116.0755018934382
 31
0.0
  0
LINE
  5
1FF2
330
18
100
AcDbEntity
  8
1
  6
Continuous
100
AcDbLine
 10
175.723714664128
 20
114.4929261233139
 30
0.0
 11
179.4237148398683
 21
114.4929261233139
 31
0.0
  0
LINE
  5
1FF3
330
18
100
AcDbEntity
  8
1
  6
Continuous
100
AcDbLine
 10
175.723714664128
 20
115.4929261708113
 30
0.0
 11
179.4237148398678
 21
115.4929261708112
 31
0.0
  0
LINE
  5
1FF7
330
18
100
AcDbEntity
  8
1
  6
Continuous
100
AcDbLine
 10
179.873715814942
 20
112.0550805410859
 30
0.0
 11
179.7237158077921
 21
112.0550805410859
 31
0.0
  0
LINE
  5
1FF8
330
18
100
AcDbEntity
  8
1
  6
Continuous
100
AcDbLine
 10
179.873715814942
 20
113.1623088797649
 30
0.0
 11
179.7237158077921
 21
113.1623088797649
 31
0.0
  0
LINE
  5
1FFA
330
18
100
AcDbEntity
  8
1
  6
Continuous
100
AcDbLine
 10
179.8737158149416
 20
114.2188138638084
 30
0.0
 11
179.7237158077921
 21
114.2188138638084
 31
0.0
  0
LINE
  5
1FFB
330
18
100
AcDbEntity
  8
1
  6
Continuous
100
AcDbLine
 10
179.8737158149166
 20
112.5282022104045
 30
0.0
 11
179.7237158077921
 21
112.5282022104045
 31
0.0
  0
LINE
  5
1FFC
330
18
100
AcDbEntity
  8
1
  6
Continuous
100
AcDbLine
 10
179.7237158077921
 20
117.9183820068797
 30
0.0
 11
179.7237158077921
 21
112.5282022104045
 31
0.0
  0
LINE
  5
1FFD
330
18
100
AcDbEntity
  8
1
  6
Continuous
100
AcDbLine
 10
179.8737158149416
 20
115.1924941238925
 30
0.0
 11
179.7237158077921
 21
115.1924941238925
 31
0.0
  0
LINE
  5
1FFF
330
18
100
AcDbEntity
  8
1
  6
Continuous
100
AcDbLine
 10
179.7237158077921
 20
114.2429261114395
 30
0.0
 11
179.4237148398685
 21
114.2429261114395
 31
0.0
  0
LINE
  5
2002
330
18
100
AcDbEntity
  8
1
  6
Continuous
100
AcDbLine
 10
175.224891007843
 20
119.9929263845499
 30
0.0
 11
174.9237148168648
 21
119.9929263845499
 31
0.0
  0
LINE
  5
2005
330
18
100
AcDbEntity
  8
1
  6
Continuous
100
AcDbLine
 10
175.7237146641175
 20
117.4929262658062
 30
0.0
 11
175.374543163072
 21
117.4929262658062
 31
0.0
  0
LINE
  5
2006
330
18
100
AcDbEntity
  8
1
  6
Continuous
100
AcDbLine
 10
175.0741697428014
 20
117.4929262658062
 30
0.0
 11
174.9237147214975
 21
117.4929262658062
 31
0.0
  0
LINE
  5
2007
330
18
100
AcDbEntity
  8
1
  6
Continuous
100
AcDbLine
 10
181.3737158861629
 20
117.6304262723371
 30
0.0
 11
180.8737158624141
 21
118.2429263014294
 31
0.0
  0
LINE
  5
2009
330
18
100
AcDbEntity
  8
1
  6
Continuous
100
AcDbLine
 10
180.8737158624144
 20
118.2429263014294
 30
0.0
 11
180.1737158291659
 21
118.2429263014294
 31
0.0
  0
LINE
  5
200E
330
18
100
AcDbEntity
  8
1
  6
Continuous
100
AcDbLine
 10
179.8737158149419
 20
116.053764878022
 30
0.0
 11
179.7237158077921
 21
116.053764878022
 31
0.0
  0
LINE
  5
2010
330
18
100
AcDbEntity
  8
1
  6
Continuous
100
AcDbLine
 10
179.8737158149419
 20
116.7764568501558
 30
0.0
 11
179.7237158077921
 21
116.7764568501558
 31
0.0
  0
LINE
  5
2012
330
18
100
AcDbEntity
  8
1
  6
Continuous
100
AcDbLine
 10
179.8737158149423
 20
117.3386114104199
 30
0.0
 11
179.7237158077921
 21
117.3386114104199
 31
0.0
  0
LINE
  5
2014
330
18
100
AcDbEntity
  8
1
  6
Continuous
100
AcDbLine
 10
179.8737158149423
 20
117.7231477769651
 30
0.0
 11
179.7237158077921
 21
117.7231477769651
 31
0.0
  0
LINE
  5
2016
330
18
100
AcDbEntity
  8
1
  6
Continuous
100
AcDbLine
 10
179.8737158149169
 20
117.9183820068797
 30
0.0
 11
179.7237158077921
 21
117.9183820068797
 31
0.0
  0
LINE
  5
2018
330
18
100
AcDbEntity
  8
1
  6
Continuous
100
AcDbLine
 10
219.7902672351516
 20
97.99295955536488
 30
0.0
 11
211.9960382308855
 21
111.4929601965803
 31
0.0
  0
ARC
  5
201B
330
18
100
AcDbEntity
  8
1
  6
Continuous
100
AcDbCircle
 10
227.5844962394176
 20
111.4929601965804
 30
0.0
 40
14.00000066496431
100
AcDbArc
 50
254.6411144191782
 51
270.0
  0
LINE
  5
201D
330
18
100
AcDbEntity
  8
1
  6
Continuous
100
AcDbLine
 10
185.3737160761526
 20
115.7777164688182
 30
0.0
 11
185.3737160761526
 21
107.2081354213959
 31
0.0
  0
ARC
  5
201E
330
18
100
AcDbEntity
  8
1
  6
Continuous
100
AcDbCircle
 10
184.8737160524039
 20
107.2081354213959
 30
0.0
 40
0.5000000237487292
100
AcDbArc
 50
270.0
 51
359.9999999999996
  0
ARC
  5
2037
330
18
100
AcDbEntity
  8
1
  6
Continuous
100
AcDbCircle
 10
227.5844962394176
 20
111.4929601965804
 30
0.0
 40
14.00000066496431
100
AcDbArc
 50
194.6411144191815
 51
225.3588855808201
  0
LINE
  5
207B
330
18
100
AcDbEntity
  8
1
  6
Continuous
100
AcDbLine
 10
162.9237142468953
 20
124.9929266220369
 30
0.0
 11
158.9237140569056
 21
124.9929266220369
 31
0.0
  0
LINE
  5
207C
330
18
100
AcDbEntity
  8
1
  6
Continuous
100
AcDbLine
 10
155.3237137905476
 20
125.4929266457859
 30
0.0
 11
151.523713610057
 21
122.4929265032937
 31
0.0
  0
LINE
  5
207D
330
18
100
AcDbEntity
  8
1
  6
Continuous
100
AcDbLine
 10
156.9237138665433
 20
121.4929264557961
 30
0.0
 11
158.9237140569055
 21
121.4929264557961
 31
0.0
  0
LINE
  5
207F
330
18
100
AcDbEntity
  8
1
  6
Continuous
100
AcDbLine
 10
156.9237138665434
 20
125.4929266457857
 30
0.0
 11
155.3237137905476
 21
125.4929266457859
 31
0.0
  0
LINE
  5
2080
330
18
100
AcDbEntity
  8
1
  6
Continuous
100
AcDbLine
 10
172.32021071476
 20
121.3929264510462
 30
0.0
 11
169.92371448401
 21
121.3929264510462
 31
0.0
  0
LINE
  5
2082
330
18
100
AcDbEntity
  8
1
  6
Continuous
100
AcDbLine
 10
162.9237142468953
 20
121.4929264557961
 30
0.0
 11
169.92371448401
 21
121.4929264557959
 31
0.0
  0
LINE
  5
2084
330
18
100
AcDbEntity
  8
1
  6
Continuous
100
AcDbLine
 10
172.32021071476
 20
120.9886560743234
 30
0.0
 11
172.32021071476
 21
121.3929264510462
 31
0.0
  0
LINE
  5
2085
330
18
100
AcDbEntity
  8
1
  6
Continuous
100
AcDbLine
 10
173.923714674
 20
120.9887149720372
 30
0.0
 11
172.3237145980041
 21
120.988714972037
 31
0.0
  0
LINE
  5
2086
330
18
100
AcDbEntity
  8
1
  6
Continuous
100
AcDbLine
 10
172.4237145820008
 20
121.2929908714887
 30
0.0
 11
172.4237145820008
 21
120.988714972037
 31
0.0
  0
ARC
  5
2087
330
18
100
AcDbEntity
  8
1
  6
Continuous
100
AcDbCircle
 10
172.3237145980039
 20
121.2929264462965
 30
0.0
 40
0.1000000047497318
100
AcDbArc
 50
0.0369128798889084
 51
92.00798813994644
  0
LINE
  5
208D
330
18
100
AcDbEntity
  8
1
  6
Continuous
100
AcDbLine
 10
224.7844961064247
 20
120.9886779555775
 30
0.0
 11
224.7844961064248
 21
119.5185360340736
 31
0.0
  0
LINE
  5
208F
330
18
100
AcDbEntity
  8
1
  6
Continuous
100
AcDbLine
 10
235.3787252436837
 20
124.992960837796
 30
0.0
 11
243.1729542479498
 21
111.4929601965806
 31
0.0
  0
ARC
  5
2093
330
18
100
AcDbEntity
  8
1
  6
Continuous
100
AcDbCircle
 10
227.5844962394176
 20
111.4929601965804
 30
0.0
 40
14.00000066496431
100
AcDbArc
 50
14.6411144191811
 51
45.35888558082141
  0
LINE
  5
2094
330
18
100
AcDbEntity
  8
1
  6
Continuous
100
AcDbLine
 10
243.1729542479498
 20
111.4929601965806
 30
0.0
 11
235.3787252436834
 21
97.992959555365
 31
0.0
  0
ARC
  5
209E
330
18
100
AcDbEntity
  8
1
  6
Continuous
100
AcDbCircle
 10
227.5844962394176
 20
111.4929601965804
 30
0.0
 40
14.00000066496431
100
AcDbArc
 50
314.6411144191753
 51
345.3588855808223
  0
LINE
  5
20B1
330
18
100
AcDbEntity
  8
1
  6
Continuous
100
AcDbLine
 10
233.6235105937456
 20
108.4929600540881
 30
0.0
 11
234.6844965766496
 21
108.4929600540881
 31
0.0
  0
LINE
  5
20B2
330
18
100
AcDbEntity
  8
1
  6
Continuous
100
AcDbLine
 10
234.6844965766496
 20
108.4929600540881
 30
0.0
 11
234.6844965766496
 21
106.8196313963903
 31
0.0
  0
LINE
  5
20B4
330
18
100
AcDbEntity
  8
1
  6
Continuous
100
AcDbLine
 10
237.0802230621956
 20
108.6929600635875
 30
0.0
 11
233.7263680686494
 21
108.6929600635875
 31
0.0
  0
LINE
  5
20DA
330
18
100
AcDbEntity
  8
1
  6
Continuous
100
AcDbLine
 10
234.6844965766496
 20
116.1662889967706
 30
0.0
 11
234.6844965766496
 21
114.4929603390727
 31
0.0
  0
LINE
  5
20DB
330
18
100
AcDbEntity
  8
1
  6
Continuous
100
AcDbLine
 10
233.623510573969
 20
114.4929603390727
 30
0.0
 11
234.6844965766496
 21
114.4929603390727
 31
0.0
  0
ARC
  5
2109
330
18
100
AcDbEntity
  8
1
  6
Continuous
100
AcDbCircle
 10
108.8903945037584
 20
294.8822812934007
 30
0.0
 40
120.8767830766882
100
AcDbArc
 50
267.4814555348512
 51
272.8924729139759
  0
ARC
  5
210A
330
18
100
AcDbEntity
  8
1
  6
Continuous
100
AcDbCircle
 10
108.8911795469482
 20
294.7402174173797
 30
0.0
 40
120.8798625223518
100
AcDbArc
 50
266.6321987476819
 51
274.0316997313243
  0
ARC
  5
210B
330
18
100
AcDbEntity
  8
1
  6
Continuous
100
AcDbCircle
 10
108.8911630097815
 20
294.14332487154
 30
0.0
 40
120.583707681501
100
AcDbArc
 50
266.6239256898543
 51
274.0416259384307
  0
LINE
  5
210C
330
18
100
AcDbEntity
  8
1
  6
Continuous
100
AcDbLine
 10
102.890046231666
 20
174.3594956513911
 30
0.0
 11
114.8900468016355
 21
174.3594956513909
 31
0.0
  0
LINE
  5
210E
330
18
100
AcDbEntity
  8
1
  6
Continuous
100
AcDbLine
 10
122.890047181615
 20
155.5594948538168
 30
0.0
 11
94.89004585168652
 21
155.5594948538168
 31
0.0
  0
LINE
  5
2110
330
18
100
AcDbEntity
  8
1
  6
Continuous
100
AcDbLine
 10
99.08998162598374
 20
171.0594955692741
 30
0.0
 11
111.6900650568414
 21
171.0594955692742
 31
0.0
  0
LINE
  5
2113
330
18
100
AcDbEntity
  8
1
  6
Continuous
100
AcDbLine
 10
102.890046231666
 20
173.7093056498371
 30
0.0
 11
102.890046231666
 21
171.0594955900271
 31
0.0
  0
LINE
  5
2114
330
18
100
AcDbEntity
  8
1
  6
Continuous
100
AcDbLine
 10
99.39425752543526
 20
171.0594955692741
 30
0.0
 11
99.39425752543526
 21
172.5594956612733
 31
0.0
  0
LINE
  5
2116
330
18
100
AcDbEntity
  8
1
  6
Continuous
100
AcDbLine
 10
104.3074706040342
 20
161.5594952341688
 30
0.0
 11
104.3074706040342
 21
167.559495423786
 31
0.0
  0
LINE
  5
2117
330
18
100
AcDbEntity
  8
1
  6
Continuous
100
AcDbLine
 10
98.89004604167631
 20
161.5594952341688
 30
0.0
 11
98.89004604167631
 21
168.5594954712835
 31
0.0
  0
LINE
  5
2118
330
18
100
AcDbEntity
  8
1
  6
Continuous
100
AcDbLine
 10
124.4785045251829
 20
161.5594952341688
 30
0.0
 11
93.30158850811868
 21
161.5594952341688
 31
0.0
  0
LINE
  5
2119
330
18
100
AcDbEntity
  8
1
  6
Continuous
100
AcDbLine
 10
124.4785045251829
 20
157.5594950441789
 30
0.0
 11
93.30158850811882
 21
157.5594950441789
 31
0.0
  0
LINE
  5
211A
330
18
100
AcDbEntity
  8
1
  6
Continuous
100
AcDbLine
 10
93.30158850811866
 20
161.5594952341688
 30
0.0
 11
93.30158850811866
 21
157.5594950441789
 31
0.0
  0
LINE
  5
211B
330
18
100
AcDbEntity
  8
1
  6
Continuous
100
AcDbLine
 10
101.0958175123847
 20
161.5594952341688
 30
0.0
 11
101.0958175123847
 21
157.5594950441789
 31
0.0
  0
LINE
  5
211D
330
18
100
AcDbEntity
  8
1
  6
Continuous
100
AcDbLine
 10
98.89004604167631
 20
155.5594948538165
 30
0.0
 11
98.89004604167631
 21
157.5594950441789
 31
0.0
  0
LINE
  5
211E
330
18
100
AcDbEntity
  8
1
  6
Continuous
100
AcDbLine
 10
104.3074706040342
 20
155.5594948538165
 30
0.0
 11
104.3074706040342
 21
157.5594950441789
 31
0.0
  0
LINE
  5
211F
330
18
100
AcDbEntity
  8
1
  6
Continuous
100
AcDbLine
 10
104.3074706040342
 20
167.5594954237864
 30
0.0
 11
98.89004604167638
 21
167.5594954237864
 31
0.0
  0
LINE
  5
2120
330
18
100
AcDbEntity
  8
1
  6
Continuous
100
AcDbLine
 10
111.6900466496437
 20
170.955991996845
 30
0.0
 11
98.99010744103625
 21
170.9559919968452
 31
0.0
  0
LINE
  5
2122
330
18
100
AcDbEntity
  8
1
  6
Continuous
100
AcDbLine
 10
98.99004604642609
 20
170.9559919968452
 30
0.0
 11
98.99004604642609
 21
168.5594954712833
 31
0.0
  0
ARC
  5
2123
330
18
100
AcDbEntity
  8
1
  6
Continuous
100
AcDbCircle
 10
99.0900460511758
 20
170.9594955852774
 30
0.0
 40
0.1000000047497318
100
AcDbArc
 50
90.03691291536622
 51
182.8732653388435
  0
LINE
  5
2126
330
18
100
AcDbEntity
  8
1
  6
Continuous
100
AcDbLine
 10
104.8900463266609
 20
174.3594956514014
 30
0.0
 11
104.8900463266609
 21
178.0594958271406
 31
0.0
  0
LINE
  5
2127
330
18
100
AcDbEntity
  8
1
  6
Continuous
100
AcDbLine
 10
100.4419694111915
 20
173.5594957087708
 30
0.0
 11
99.39425752543513
 21
172.5594956612733
 31
0.0
  0
LINE
  5
2128
330
18
100
AcDbEntity
  8
1
  6
Continuous
100
AcDbLine
 10
101.7900461794189
 20
173.7688894710812
 30
0.0
 11
101.7900461794189
 21
174.1222589862075
 31
0.0
  0
LINE
  5
2129
330
18
100
AcDbEntity
  8
1
  6
Continuous
100
AcDbLine
 10
103.5787375744211
 20
174.1222589862075
 30
0.0
 11
101.7900461794189
 21
174.1222589862075
 31
0.0
  0
LINE
  5
212B
330
18
100
AcDbEntity
  8
1
  6
Continuous
100
AcDbLine
 10
102.890046231666
 20
174.3594956513911
 30
0.0
 11
102.890046231666
 21
174.1222589862075
 31
0.0
  0
LINE
  5
212C
330
18
100
AcDbEntity
  8
1
  6
Continuous
100
AcDbLine
 10
100.4419694111915
 20
173.5594957087708
 30
0.0
 11
102.890046231666
 21
173.5594957087708
 31
0.0
  0
LINE
  5
212D
330
18
100
AcDbEntity
  8
1
  6
Continuous
100
AcDbLine
 10
102.7525462251352
 20
180.0094968734363
 30
0.0
 11
102.1400461960429
 21
179.5094968496875
 31
0.0
  0
LINE
  5
2130
330
18
100
AcDbEntity
  8
1
  6
Continuous
100
AcDbLine
 10
102.1400461960429
 20
179.5094968496876
 30
0.0
 11
102.1400461960429
 21
178.8094968164393
 31
0.0
  0
LINE
  5
2137
330
18
100
AcDbEntity
  8
1
  6
Continuous
100
AcDbLine
 10
105.1904783735795
 20
178.5094968022159
 30
0.0
 11
105.1904783735795
 21
178.3594967950655
 31
0.0
  0
LINE
  5
2139
330
18
100
AcDbEntity
  8
1
  6
Continuous
100
AcDbLine
 10
104.3292076194505
 20
178.5094968022158
 30
0.0
 11
104.3292076194505
 21
178.3594967950655
 31
0.0
  0
LINE
  5
213B
330
18
100
AcDbEntity
  8
1
  6
Continuous
100
AcDbLine
 10
103.6065156473167
 20
178.509496802215
 30
0.0
 11
103.6065156473167
 21
178.3594967950655
 31
0.0
  0
LINE
  5
213D
330
18
100
AcDbEntity
  8
1
  6
Continuous
100
AcDbLine
 10
103.0443610870527
 20
178.509496802215
 30
0.0
 11
103.0443610870527
 21
178.3594967950655
 31
0.0
  0
LINE
  5
213E
330
18
100
AcDbEntity
  8
1
  6
Continuous
100
AcDbLine
 10
102.6598247205068
 20
178.509496802215
 30
0.0
 11
102.6598247205068
 21
178.3594967950655
 31
0.0
  0
LINE
  5
2141
330
18
100
AcDbEntity
  8
1
  6
Continuous
100
AcDbLine
 10
102.4400462924312
 20
178.5094968021899
 30
0.0
 11
102.4400462924312
 21
178.3594967950655
 31
0.0
  0
ARC
  5
2145
330
18
100
AcDbEntity
  8
1
  6
Continuous
100
AcDbCircle
 10
102.4400462102922
 20
178.8094968164393
 30
0.0
 40
0.3000000142492368
100
AcDbArc
 50
180.0000000000006
 51
270.0
  0
LINE
  5
2148
330
18
100
AcDbEntity
  8
1
  6
Continuous
100
AcDbLine
 10
118.7900469868756
 20
168.5594954712833
 30
0.0
 11
118.7900469868756
 21
172.5594956612734
 31
0.0
  0
LINE
  5
214D
330
18
100
AcDbEntity
  8
1
  6
Continuous
100
AcDbLine
 10
113.4726224292675
 20
161.5594952341688
 30
0.0
 11
113.4726224292675
 21
167.5594954237859
 31
0.0
  0
LINE
  5
214E
330
18
100
AcDbEntity
  8
1
  6
Continuous
100
AcDbLine
 10
118.8900469916252
 20
161.5594952341688
 30
0.0
 11
118.8900469916252
 21
168.5594954712835
 31
0.0
  0
LINE
  5
214F
330
18
100
AcDbEntity
  8
1
  6
Continuous
100
AcDbLine
 10
113.4726224292675
 20
155.5594948538165
 30
0.0
 11
113.4726224292675
 21
157.5594950441789
 31
0.0
  0
LINE
  5
2150
330
18
100
AcDbEntity
  8
1
  6
Continuous
100
AcDbLine
 10
116.6842755209165
 20
161.5594952341688
 30
0.0
 11
116.6842755209165
 21
157.5594950441789
 31
0.0
  0
LINE
  5
2152
330
18
100
AcDbEntity
  8
1
  6
Continuous
100
AcDbLine
 10
118.8900469916252
 20
155.5594948538165
 30
0.0
 11
118.8900469916252
 21
157.5594950441789
 31
0.0
  0
LINE
  5
2153
330
18
100
AcDbEntity
  8
1
  6
Continuous
100
AcDbLine
 10
118.8900469916252
 20
167.559495423786
 30
0.0
 11
113.4726224292674
 21
167.5594954237859
 31
0.0
  0
LINE
  5
2154
330
18
100
AcDbEntity
  8
1
  6
Continuous
100
AcDbLine
 10
118.8900469916252
 20
168.5594954712835
 30
0.0
 11
98.89004604167631
 21
168.5594954712835
 31
0.0
  0
LINE
  5
2157
330
18
100
AcDbEntity
  8
1
  6
Continuous
100
AcDbLine
 10
124.4785045251829
 20
161.5594952341688
 30
0.0
 11
124.4785045251829
 21
157.5594950441789
 31
0.0
  0
LINE
  5
2158
330
18
100
AcDbEntity
  8
1
  6
Continuous
100
AcDbLine
 10
111.6525466478625
 20
183.5094970396774
 30
0.0
 11
111.6525466478625
 21
180.0094968734363
 31
0.0
  0
LINE
  5
215A
330
18
100
AcDbEntity
  8
1
  6
Continuous
100
AcDbLine
 10
114.4150467790742
 20
183.5094970396774
 30
0.0
 11
114.4150466347367
 21
180.0094968734363
 31
0.0
  0
LINE
  5
215B
330
18
100
AcDbEntity
  8
1
  6
Continuous
100
AcDbLine
 10
115.6400468372585
 20
179.5094968496876
 30
0.0
 11
102.1400461960429
 21
179.5094968496876
 31
0.0
  0
LINE
  5
215C
330
18
100
AcDbEntity
  8
1
  6
Continuous
100
AcDbLine
 10
115.0275468081664
 20
180.0094968734363
 30
0.0
 11
102.7525462251352
 21
180.0094968734363
 31
0.0
  0
LINE
  5
215F
330
18
100
AcDbEntity
  8
1
  6
Continuous
100
AcDbLine
 10
118.7900469867944
 20
172.5594956612734
 30
0.0
 11
111.6900466496435
 21
172.5594956612734
 31
0.0
  0
LINE
  5
2160
330
18
100
AcDbEntity
  8
1
  6
Continuous
100
AcDbLine
 10
117.7900469390606
 20
173.5594957087708
 30
0.0
 11
111.6900466496437
 21
173.5594957087708
 31
0.0
  0
LINE
  5
2161
330
18
100
AcDbEntity
  8
1
  6
Continuous
100
AcDbLine
 10
105.8900463741583
 20
174.3594956514013
 30
0.0
 11
105.8900463741583
 21
178.0594958271418
 31
0.0
  0
LINE
  5
2162
330
18
100
AcDbEntity
  8
1
  6
Continuous
100
AcDbLine
 10
111.890046659143
 20
174.3594956514014
 30
0.0
 11
111.890046659143
 21
178.0594958271418
 31
0.0
  0
LINE
  5
2163
330
18
100
AcDbEntity
  8
1
  6
Continuous
100
AcDbLine
 10
112.8900467066406
 20
174.3594956514013
 30
0.0
 11
112.8900467066406
 21
178.0594958271418
 31
0.0
  0
LINE
  5
2164
330
18
100
AcDbEntity
  8
1
  6
Continuous
100
AcDbLine
 10
111.6900466496437
 20
173.5594957087708
 30
0.0
 11
111.6900466496437
 21
170.955991996845
 31
0.0
  0
LINE
  5
216B
330
18
100
AcDbEntity
  8
1
  6
Continuous
100
AcDbLine
 10
109.4522010769152
 20
178.5094968021903
 30
0.0
 11
109.4522010769152
 21
178.3594967950655
 31
0.0
  0
LINE
  5
216D
330
18
100
AcDbEntity
  8
1
  6
Continuous
100
AcDbLine
 10
109.2386695042
 20
178.5094968021899
 30
0.0
 11
109.2386695042
 21
178.3594967950655
 31
0.0
  0
LINE
  5
216E
330
18
100
AcDbEntity
  8
1
  6
Continuous
100
AcDbLine
 10
108.3278919563864
 20
178.5094968021903
 30
0.0
 11
108.3278919563864
 21
178.3594967950655
 31
0.0
  0
LINE
  5
216F
330
18
100
AcDbEntity
  8
1
  6
Continuous
100
AcDbLine
 10
108.3278919563863
 20
178.3594967950655
 30
0.0
 11
102.4400462924312
 21
178.3594967950655
 31
0.0
  0
LINE
  5
2171
330
18
100
AcDbEntity
  8
1
  6
Continuous
100
AcDbLine
 10
108.5414235291015
 20
178.5094968021899
 30
0.0
 11
108.5414235291015
 21
178.3594967950655
 31
0.0
  0
LINE
  5
2173
330
18
100
AcDbEntity
  8
1
  6
Continuous
100
AcDbLine
 10
107.1995733893948
 20
178.5094968021899
 30
0.0
 11
107.1995733893948
 21
178.3594967950655
 31
0.0
  0
LINE
  5
2175
330
18
100
AcDbEntity
  8
1
  6
Continuous
100
AcDbLine
 10
106.164158633664
 20
178.509496802215
 30
0.0
 11
106.164158633664
 21
178.3594967950655
 31
0.0
  0
LINE
  5
2176
330
18
100
AcDbEntity
  8
1
  6
Continuous
100
AcDbLine
 10
106.1400463860328
 20
178.3594967950655
 30
0.0
 11
106.1400463860328
 21
178.0594958271419
 31
0.0
  0
LINE
  5
217B
330
18
100
AcDbEntity
  8
1
  6
Continuous
100
AcDbLine
 10
115.3400468230094
 20
178.5094968022414
 30
0.0
 11
102.4400462102922
 21
178.5094968022414
 31
0.0
  0
LINE
  5
217C
330
18
100
AcDbEntity
  8
1
  6
Continuous
100
AcDbLine
 10
110.5594294155942
 20
178.5094968022157
 30
0.0
 11
110.5594294155942
 21
178.3594967950655
 31
0.0
  0
LINE
  5
217D
330
18
100
AcDbEntity
  8
1
  6
Continuous
100
AcDbLine
 10
111.6159343996377
 20
178.5094968022157
 30
0.0
 11
111.6159343996377
 21
178.3594967950655
 31
0.0
  0
LINE
  5
2180
330
18
100
AcDbEntity
  8
1
  6
Continuous
100
AcDbLine
 10
112.5896146597217
 20
178.5094968022153
 30
0.0
 11
112.5896146597217
 21
178.3594967950655
 31
0.0
  0
LINE
  5
2182
330
18
100
AcDbEntity
  8
1
  6
Continuous
100
AcDbLine
 10
113.4508854138512
 20
178.5094968022153
 30
0.0
 11
113.4508854138512
 21
178.3594967950655
 31
0.0
  0
LINE
  5
2183
330
18
100
AcDbEntity
  8
1
  6
Continuous
100
AcDbLine
 10
108.5414235291015
 20
178.3594967950655
 30
0.0
 11
115.3400467408703
 21
178.3594967950655
 31
0.0
  0
LINE
  5
2184
330
18
100
AcDbEntity
  8
1
  6
Continuous
100
AcDbLine
 10
114.1735773859849
 20
178.509496802215
 30
0.0
 11
114.1735773859849
 21
178.3594967950655
 31
0.0
  0
LINE
  5
2186
330
18
100
AcDbEntity
  8
1
  6
Continuous
100
AcDbLine
 10
111.6400466472687
 20
178.0594958271419
 30
0.0
 11
111.6400466472687
 21
178.3594967950655
 31
0.0
  0
LINE
  5
2187
330
18
100
AcDbEntity
  8
1
  6
Continuous
100
AcDbLine
 10
114.735731946249
 20
178.509496802215
 30
0.0
 11
114.735731946249
 21
178.3594967950655
 31
0.0
  0
LINE
  5
2189
330
18
100
AcDbEntity
  8
1
  6
Continuous
100
AcDbLine
 10
104.8900463266609
 20
178.0594958271406
 30
0.0
 11
112.8900467066406
 21
178.0594958271415
 31
0.0
  0
LINE
  5
218B
330
18
100
AcDbEntity
  8
1
  6
Continuous
100
AcDbLine
 10
117.390046920379
 20
174.1594958326365
 30
0.0
 11
114.989829671452
 21
174.1594958326365
 31
0.0
  0
LINE
  5
218C
330
18
100
AcDbEntity
  8
1
  6
Continuous
100
AcDbLine
 10
117.390046920379
 20
173.8594775067022
 30
0.0
 11
117.390046920379
 21
174.1594958326365
 31
0.0
  0
LINE
  5
218E
330
18
100
AcDbEntity
  8
1
  6
Continuous
100
AcDbLine
 10
114.8900468016355
 20
173.5594957087708
 30
0.0
 11
114.8900468016355
 21
173.7091935114317
 31
0.0
  0
LINE
  5
218F
330
18
100
AcDbEntity
  8
1
  6
Continuous
100
AcDbLine
 10
114.8900468016355
 20
174.1544962922639
 30
0.0
 11
114.8900468016355
 21
174.3594956513909
 31
0.0
  0
LINE
  5
2192
330
18
100
AcDbEntity
  8
1
  6
Continuous
100
AcDbLine
 10
118.7900469868756
 20
172.5594956612734
 30
0.0
 11
117.789946939378
 21
173.5595957087709
 31
0.0
  0
LINE
  5
2193
330
18
100
AcDbEntity
  8
1
  6
Continuous
100
AcDbLine
 10
115.6400468372583
 20
179.5094968496876
 30
0.0
 11
115.0274243081664
 21
180.0095968734363
 31
0.0
  0
LINE
  5
2194
330
18
100
AcDbEntity
  8
1
  6
Continuous
100
AcDbLine
 10
115.6400468372585
 20
178.8094968164393
 30
0.0
 11
115.6400468372585
 21
179.5094968496876
 31
0.0
  0
LINE
  5
2197
330
18
100
AcDbEntity
  8
1
  6
Continuous
100
AcDbLine
 10
115.1202683127944
 20
178.5094968022154
 30
0.0
 11
115.1202683127944
 21
178.3594967950655
 31
0.0
  0
LINE
  5
2198
330
18
100
AcDbEntity
  8
1
  6
Continuous
100
AcDbLine
 10
115.3400467408703
 20
178.3594967950655
 30
0.0
 11
115.3400467408703
 21
178.5094968021899
 31
0.0
  0
ARC
  5
219D
330
18
100
AcDbEntity
  8
1
  6
Continuous
100
AcDbCircle
 10
115.3400468230094
 20
178.8094968164393
 30
0.0
 40
0.3000000142492368
100
AcDbArc
 50
270.0
 51
359.9999999999992
  0
LINE
  5
219F
330
18
100
AcDbEntity
  8
1
  6
Continuous
100
AcDbLine
 10
109.6400465522739
 20
183.7094970491768
 30
0.0
 11
109.6400465522739
 21
181.5094969446825
 31
0.0
  0
LINE
  5
21A2
330
18
100
AcDbEntity
  8
1
  6
Continuous
100
AcDbLine
 10
109.6400465522739
 20
181.5094969446825
 30
0.0
 11
108.1400464810277
 21
181.5094969446825
 31
0.0
  0
ARC
  5
21AA
330
18
100
AcDbEntity
  8
1
  6
Continuous
100
AcDbCircle
 10
109.940046566523
 20
183.7094970491768
 30
0.0
 40
0.3000000142492212
100
AcDbArc
 50
90.0
 51
180.0
  0
LINE
  5
21B0
330
18
100
AcDbEntity
  8
1
  6
Continuous
100
AcDbLine
 10
109.940046566523
 20
184.0094970634261
 30
0.0
 11
113.837696482414
 21
184.0094970634261
 31
0.0
  0
LINE
  5
21BB
330
18
100
AcDbEntity
  8
1
  6
Continuous
100
AcDbLine
 10
40.34642167351429
 20
172.6905707272581
 30
0.0
 11
40.34642167351429
 21
164.612823115244
 31
0.0
  0
ARC
  5
21BC
330
18
100
AcDbEntity
  8
1
  6
Continuous
100
AcDbCircle
 10
29.84642112729359
 20
168.6516969212511
 30
0.0
 40
11.25000058184376
100
AcDbArc
 50
291.0394697363971
 51
338.9605302636029
  0
LINE
  5
21BD
330
18
100
AcDbEntity
  8
1
  6
Continuous
100
AcDbLine
 10
33.88529493330077
 20
158.1516963750305
 30
0.0
 11
25.80754732128648
 21
158.1516963750305
 31
0.0
  0
ARC
  5
21BE
330
18
100
AcDbEntity
  8
1
  6
Continuous
100
AcDbCircle
 10
29.84642112729357
 20
168.6516969212511
 30
0.0
 40
11.25000058184376
100
AcDbArc
 50
201.039469736397
 51
248.960530263603
  0
LINE
  5
21BF
330
18
100
AcDbEntity
  8
1
  6
Continuous
100
AcDbLine
 10
19.3464205810729
 20
164.612823115244
 30
0.0
 11
19.3464205810729
 21
172.6905707272582
 31
0.0
  0
ARC
  5
21C0
330
18
100
AcDbEntity
  8
1
  6
Continuous
100
AcDbCircle
 10
29.84642112729359
 20
168.6516969212511
 30
0.0
 40
11.25000058184376
100
AcDbArc
 50
111.0394697363969
 51
158.960530263603
  0
LINE
  5
21C1
330
18
100
AcDbEntity
  8
1
  6
Continuous
100
AcDbLine
 10
25.8075473212865
 20
179.1516974674719
 30
0.0
 11
33.88529493330068
 21
179.1516974674719
 31
0.0
  0
ARC
  5
21C2
330
18
100
AcDbEntity
  8
1
  6
Continuous
100
AcDbCircle
 10
29.84642112729357
 20
168.6516969212511
 30
0.0
 40
11.25000058184378
100
AcDbArc
 50
21.03946973639612
 51
68.96053026360315
  0
LINE
  5
21C3
330
18
100
AcDbEntity
  8
4
  6
CENTER
 48
0.2
100
AcDbLine
 10
68.95610798520181
 20
168.6516969212511
 30
0.0
 11
15.34642058107292
 21
168.6516969212511
 31
0.0
  0
CIRCLE
  5
21C5
330
18
100
AcDbEntity
  8
1
  6
Continuous
100
AcDbCircle
 10
108.8900465166507
 20
111.4929259808215
 30
0.0
 40
8.350000396603675
  0
CIRCLE
  5
21C6
330
18
100
AcDbEntity
  8
1
  6
Continuous
100
AcDbCircle
 10
108.8900465166507
 20
111.4929259808215
 30
0.0
 40
8.600000408478035
  0
CIRCLE
  5
21C8
330
18
100
AcDbEntity
  8
1
  6
Continuous
100
AcDbCircle
 10
108.8900465166507
 20
111.4929259808215
 30
0.0
 40
11.0000005224721
  0
CIRCLE
  5
21C9
330
18
100
AcDbEntity
  8
1
  6
Continuous
100
AcDbCircle
 10
108.8900465166507
 20
111.4929259808215
 30
0.0
 40
14.00000066496422
  0
LINE
  5
21CA
330
18
100
AcDbEntity
  8
4
  6
CENTER
 48
0.2
100
AcDbLine
 10
90.30158865245642
 20
111.4929259808215
 30
0.0
 11
127.4785045251828
 21
111.4929259808215
 31
0.0
  0
LINE
  5
21CB
330
18
100
AcDbEntity
  8
4
  6
CENTER
 48
0.2
100
AcDbLine
 10
108.8900465166507
 20
94.4929253158574
 30
0.0
 11
108.8900465166507
 21
128.4929266457857
 31
0.0
  0
ARC
  5
21CC
330
18
100
AcDbEntity
  8
1
  6
Continuous
100
AcDbCircle
 10
158.9237139615376
 20
111.4929259808215
 30
0.0
 40
11.00000052247241
100
AcDbArc
 50
335.3800226713433
 51
24.61997732865669
  0
LINE
  5
21CD
330
18
100
AcDbEntity
  8
1
  6
Continuous
100
AcDbLine
 10
184.873714301515
 20
116.277716309603
 30
0.0
 11
181.3737141352742
 21
116.2777150288549
 31
0.0
  0
ARC
  5
21CE
330
18
100
AcDbEntity
  8
1
  6
Continuous
100
AcDbCircle
 10
184.8737144844791
 20
115.7777162858542
 30
0.0
 40
0.5000000237487292
100
AcDbArc
 50
0.0000209661312064
 51
90.00002096613078
  0
ARC
  5
21CF
330
18
100
AcDbEntity
  8
1
  6
Continuous
100
AcDbCircle
 10
180.1737134689306
 20
117.9429243129253
 30
0.0
 40
0.3000000142492368
100
AcDbArc
 50
90.00002096613078
 51
180.2272769934386
  0
LINE
  5
21D0
330
18
100
AcDbEntity
  8
4
  6
CENTER
 48
0.2
100
AcDbLine
 10
147.5737134595944
 20
111.4929601965832
 30
0.0
 11
188.3737160761526
 21
111.4929601965832
 31
0.0
  0
ARC
  5
21D1
330
18
100
AcDbEntity
  8
1
  6
Continuous
100
AcDbCircle
 10
113.8707147674334
 20
183.4642899338188
 30
0.0
 40
0.546206024606977
100
AcDbArc
 50
4.747554203243298
 51
93.46565650350701
  0
ARC
  5
21D5
330
18
100
AcDbEntity
  8
1
  6
Continuous
100
AcDbCircle
 10
111.3434113528392
 20
183.7743535894288
 30
0.0
 40
0.2360319278555406
100
AcDbArc
 50
33.40183494340971
 51
85.02714249802542
  0
ARC
  5
21D6
330
18
100
AcDbEntity
  8
1
  6
Continuous
100
AcDbCircle
 10
110.9744602809598
 20
183.5302856690309
 30
0.0
 40
0.6784049587741104
100
AcDbArc
 50
358.2439880517342
 51
33.45630569412608
  0
LINE
  5
21D7
330
18
100
AcDbEntity
  8
4
  6
CENTER
 48
0.2
100
AcDbLine
 10
108.8900465166507
 20
146.2094944468677
 30
0.0
 11
108.8900465166507
 21
187.009497063426
 31
0.0
  0
ARC
  5
21D8
330
18
100
AcDbEntity
  8
1
  6
Continuous
100
AcDbCircle
 10
106.8056327523417
 20
183.5302856690309
 30
0.0
 40
0.6784049587741104
100
AcDbArc
 50
146.5436943058739
 51
181.7560119482658
  0
ARC
  5
21D9
330
18
100
AcDbEntity
  8
1
  6
Continuous
100
AcDbCircle
 10
106.4366816804622
 20
183.7743535894288
 30
0.0
 40
0.2360319278555406
100
AcDbArc
 50
94.97285750197461
 51
146.5981650565901
  0
LINE
  5
21DA
330
18
100
AcDbEntity
  8
1
  6
Continuous
100
AcDbLine
 10
107.8400464667785
 20
184.0094970634261
 30
0.0
 11
103.9423965508875
 21
184.0094970634261
 31
0.0
  0
ARC
  5
21DB
330
18
100
AcDbEntity
  8
1
  6
Continuous
100
AcDbCircle
 10
107.8400464667785
 20
183.7094970491768
 30
0.0
 40
0.3000000142492212
100
AcDbArc
 50
0.000000000000007
 51
90.0
  0
LINE
  5
21DC
330
18
100
AcDbEntity
  8
1
  6
Continuous
100
AcDbLine
 10
108.1400464810277
 20
183.7094970491768
 30
0.0
 11
108.1400464810277
 21
181.5094969446825
 31
0.0
  0
ARC
  5
21DD
330
18
100
AcDbEntity
  8
1
  6
Continuous
100
AcDbCircle
 10
103.909378265868
 20
183.4642899338188
 30
0.0
 40
0.546206024606977
100
AcDbArc
 50
86.534343496493
 51
175.2524457967566
  0
LINE
  5
21E1
330
18
100
AcDbEntity
  8
1
  6
Continuous
100
AcDbLine
 10
103.3650462542272
 20
183.5094970396774
 30
0.0
 11
103.3650463985649
 21
180.0094968734363
 31
0.0
  0
LINE
  5
21E2
330
18
100
AcDbEntity
  8
1
  6
Continuous
100
AcDbLine
 10
106.127546385439
 20
183.5094970396774
 30
0.0
 11
106.127546385439
 21
180.0094968734363
 31
0.0
  0
ARC
  5
21E3
330
18
100
AcDbEntity
  8
1
  6
Continuous
100
AcDbCircle
 10
108.8900465166507
 20
157.5594949488113
 30
0.0
 40
11.0000005224722
100
AcDbArc
 50
65.3800226713425
 51
114.6199773286575
  0
LINE
  5
21E4
330
18
100
AcDbEntity
  8
1
  6
Continuous
100
AcDbLine
 10
62.45637924275417
 20
125.4929266457859
 30
0.0
 11
62.45637924275417
 21
97.4929253158573
 31
0.0
  0
LINE
  5
21E5
330
18
100
AcDbEntity
  8
1
  6
Continuous
100
AcDbLine
 10
54.8563787864062
 20
97.99292533960601
 30
0.0
 11
54.8563787864062
 21
124.992926622037
 31
0.0
  0
LINE
  5
21E6
330
18
100
AcDbEntity
  8
1
  6
Continuous
100
AcDbLine
 10
58.85637897639597
 20
97.99292533960601
 30
0.0
 11
58.85637897639597
 21
124.9929266220369
 31
0.0
  0
LINE
  5
21E7
330
18
100
AcDbEntity
  8
1
  6
Continuous
100
AcDbLine
 10
66.25637942324459
 20
100.4929254583494
 30
0.0
 11
66.25637942324456
 21
122.4929265032937
 31
0.0
  0
LINE
  5
21E8
330
18
100
AcDbEntity
  8
1
  6
Continuous
100
AcDbLine
 10
60.85637916675825
 20
97.4929253158573
 30
0.0
 11
60.85637916675825
 21
125.4929266457857
 31
0.0
  0
LINE
  5
21E9
330
18
100
AcDbEntity
  8
1
  6
Continuous
100
AcDbLine
 10
47.8563785492915
 20
101.492925505847
 30
0.0
 11
47.8563785492915
 21
121.4929264557959
 31
0.0
  0
LINE
  5
21EC
330
18
100
AcDbEntity
  8
1
  6
Continuous
100
AcDbLine
 10
48.85637859678883
 20
101.492925505847
 30
0.0
 11
48.85637859678888
 21
106.9103500682049
 31
0.0
  0
LINE
  5
21ED
330
18
100
AcDbEntity
  8
1
  6
Continuous
100
AcDbLine
 10
66.25637942324459
 20
100.4929254583494
 30
0.0
 11
62.45637924275404
 21
97.4929253158573
 31
0.0
  0
LINE
  5
21EE
330
18
100
AcDbEntity
  8
1
  6
Continuous
100
AcDbLine
 10
54.8563787864062
 20
101.492925505847
 30
0.0
 11
47.8563785492915
 21
101.492925505847
 31
0.0
  0
LINE
  5
21EF
330
18
100
AcDbEntity
  8
1
  6
Continuous
100
AcDbLine
 10
54.8563787864062
 20
97.99292533960601
 30
0.0
 11
58.85637897639597
 21
97.99292533960601
 31
0.0
  0
LINE
  5
21F0
330
18
100
AcDbEntity
  8
1
  6
Continuous
100
AcDbLine
 10
62.45637924275404
 20
97.4929253158573
 30
0.0
 11
60.85637916675825
 21
97.49292531585732
 31
0.0
  0
LINE
  5
21F1
330
18
100
AcDbEntity
  8
1
  6
Continuous
100
AcDbLine
 10
60.85637916675835
 20
101.492925505847
 30
0.0
 11
58.85637897639599
 21
101.492925505847
 31
0.0
  0
LINE
  5
21F7
330
18
100
AcDbEntity
  8
4
  6
CENTER
 48
0.2
100
AcDbLine
 10
70.20637957370722
 20
111.4929601965832
 30
0.0
 11
29.40637695714894
 21
111.4929601965832
 31
0.0
  0
LINE
  5
21F8
330
18
100
AcDbEntity
  8
1
  6
Continuous
100
AcDbLine
 10
62.45637924275404
 20
125.4929266457859
 30
0.0
 11
66.25637942324456
 21
122.4929265032937
 31
0.0
  0
LINE
  5
21F9
330
18
100
AcDbEntity
  8
1
  6
Continuous
100
AcDbLine
 10
67.20637957370725
 20
119.5429605531451
 30
0.0
 11
67.20637957370725
 21
103.4429598400212
 31
0.0
  0
ARC
  5
21FA
330
18
100
AcDbEntity
  8
1
  6
Continuous
100
AcDbCircle
 10
66.90637956140631
 20
103.4429255984671
 30
0.0
 40
0.3000000142492325
100
AcDbArc
 50
270.0000000000049
 51
0.0065396548526581
  0
LINE
  5
21FB
330
18
100
AcDbEntity
  8
1
  6
Continuous
100
AcDbLine
 10
66.90637956140631
 20
103.1429255842178
 30
0.0
 11
66.25637942324459
 21
103.1429255842178
 31
0.0
  0
ARC
  5
21FC
330
18
100
AcDbEntity
  8
1
  6
Continuous
100
AcDbCircle
 10
66.90637956140631
 20
119.542926363176
 30
0.0
 40
0.3000000142492325
100
AcDbArc
 50
359.9995041280962
 51
89.99999999999351
  0
LINE
  5
21FD
330
18
100
AcDbEntity
  8
1
  6
Continuous
100
AcDbLine
 10
66.25637938890547
 20
119.8429263774252
 30
0.0
 11
66.90637956140631
 21
119.8429263774252
 31
0.0
  0
ARC
  5
21FF
330
18
100
AcDbEntity
  8
1
  6
Continuous
100
AcDbCircle
 10
58.8563790717639
 20
111.4929259808215
 30
0.0
 40
11.00000052247241
100
AcDbArc
 50
155.3800226713433
 51
204.6199773286565
  0
LINE
  5
2200
330
18
100
AcDbEntity
  8
1
  6
Continuous
100
AcDbLine
 10
54.8563787864062
 20
106.9103500682049
 30
0.0
 11
48.85637859678883
 21
106.9103500682049
 31
0.0
  0
LINE
  5
2201
330
18
100
AcDbEntity
  8
1
  6
Continuous
100
AcDbLine
 10
60.85637916675835
 20
106.9103500682049
 30
0.0
 11
58.85637897639599
 21
106.9103500682049
 31
0.0
  0
LINE
  5
2202
330
18
100
AcDbEntity
  8
1
  6
Continuous
100
AcDbLine
 10
54.8563787864062
 20
111.4929259808213
 30
0.0
 11
58.85637897639599
 21
111.4929259808213
 31
0.0
  0
LINE
  5
2203
330
18
100
AcDbEntity
  8
1
  6
Continuous
100
AcDbLine
 10
54.8563787864062
 20
121.4929264557961
 30
0.0
 11
47.8563785492915
 21
121.4929264557959
 31
0.0
  0
LINE
  5
2204
330
18
100
AcDbEntity
  8
1
  6
Continuous
100
AcDbLine
 10
54.8563787864062
 20
116.0755018934382
 30
0.0
 11
48.85637859678894
 21
116.0755018934382
 31
0.0
  0
LINE
  5
2205
330
18
100
AcDbEntity
  8
1
  6
Continuous
100
AcDbLine
 10
60.85637916675835
 20
116.0755018934382
 30
0.0
 11
58.85637897639599
 21
116.0755018934382
 31
0.0
  0
LINE
  5
2206
330
18
100
AcDbEntity
  8
1
  6
Continuous
100
AcDbLine
 10
60.85637916675835
 20
121.4929264557961
 30
0.0
 11
58.85637897639599
 21
121.4929264557961
 31
0.0
  0
LINE
  5
220B
330
18
100
AcDbEntity
  8
1
  6
Continuous
100
AcDbLine
 10
48.85637859678894
 20
116.075501893438
 30
0.0
 11
48.85637859678894
 21
121.4929264557959
 31
0.0
  0
LINE
  5
220F
330
18
100
AcDbEntity
  8
1
  6
Continuous
100
AcDbLine
 10
38.35637819343384
 20
115.4929261708112
 30
0.0
 11
38.35637819343339
 21
107.4929257908317
 31
0.0
  0
LINE
  5
2210
330
18
100
AcDbEntity
  8
1
  6
Continuous
100
AcDbLine
 10
36.40637714713875
 20
105.3554256893059
 30
0.0
 11
36.40637714713879
 21
117.6304262723371
 31
0.0
  0
LINE
  5
2211
330
18
100
AcDbEntity
  8
1
  6
Continuous
100
AcDbLine
 10
38.05637722550958
 20
117.9183820068797
 30
0.0
 11
38.05637722550955
 21
112.5282022104045
 31
0.0
  0
LINE
  5
2212
330
18
100
AcDbEntity
  8
1
  6
Continuous
100
AcDbLine
 10
37.90637721838487
 20
105.042925674463
 30
0.0
 11
37.90637721838489
 21
117.9417342964347
 31
0.0
  0
LINE
  5
2213
330
18
100
AcDbEntity
  8
1
  6
Continuous
100
AcDbLine
 10
32.40637695714895
 20
115.7777164688182
 30
0.0
 11
32.40637695714895
 21
107.2081354213959
 31
0.0
  0
LINE
  5
2216
330
18
100
AcDbEntity
  8
1
  6
Continuous
100
AcDbLine
 10
36.90637717088725
 20
104.7429256602137
 30
0.0
 11
36.90637717088725
 21
118.2429263014292
 31
0.0
  0
ARC
  5
2218
330
18
100
AcDbEntity
  8
1
  6
Continuous
100
AcDbCircle
 10
32.90637698089767
 20
107.2081354213959
 30
0.0
 40
0.5000000237487292
100
AcDbArc
 50
180.0000000000004
 51
270.0
  0
ARC
  5
2219
330
18
100
AcDbEntity
  8
1
  6
Continuous
100
AcDbCircle
 10
37.60637720413564
 20
105.042925674463
 30
0.0
 40
0.3000000142492368
100
AcDbArc
 50
270.0
 51
0.000000000000007
  0
LINE
  5
221A
330
18
100
AcDbEntity
  8
1
  6
Continuous
100
AcDbLine
 10
38.05637722550955
 20
110.4576497512385
 30
0.0
 11
38.05637722550955
 21
105.0674699343068
 31
0.0
  0
LINE
  5
221B
330
18
100
AcDbEntity
  8
1
  6
Continuous
100
AcDbLine
 10
37.90637721838471
 20
105.0674699343068
 30
0.0
 11
38.05637722550955
 21
105.0674699343068
 31
0.0
  0
LINE
  5
221C
330
18
100
AcDbEntity
  8
1
  6
Continuous
100
AcDbLine
 10
37.90637721838493
 20
112.5282022104045
 30
0.0
 11
38.05637722550955
 21
112.5282022104045
 31
0.0
  0
LINE
  5
221D
330
18
100
AcDbEntity
  8
1
  6
Continuous
100
AcDbLine
 10
37.90637721835963
 20
112.0550805410859
 30
0.0
 11
38.05637722550955
 21
112.0550805410859
 31
0.0
  0
LINE
  5
221E
330
18
100
AcDbEntity
  8
1
  6
Continuous
100
AcDbLine
 10
38.3563781934331
 20
108.7429258502035
 30
0.0
 11
38.0563772255095
 21
108.7429258502035
 31
0.0
  0
LINE
  5
221F
330
18
100
AcDbEntity
  8
1
  6
Continuous
100
AcDbLine
 10
37.90637721835992
 20
107.7933578377503
 30
0.0
 11
38.05637722550955
 21
107.7933578377503
 31
0.0
  0
LINE
  5
2220
330
18
100
AcDbEntity
  8
1
  6
Continuous
100
AcDbLine
 10
37.90637721835997
 20
108.7670380978348
 30
0.0
 11
38.05637722550955
 21
108.7670380978348
 31
0.0
  0
LINE
  5
2221
330
18
100
AcDbEntity
  8
1
  6
Continuous
100
AcDbLine
 10
37.90637721838493
 20
110.4576497512385
 30
0.0
 11
38.05637722550955
 21
110.4576497512385
 31
0.0
  0
LINE
  5
2222
330
18
100
AcDbEntity
  8
1
  6
Continuous
100
AcDbLine
 10
37.90637721835992
 20
109.8235430818778
 30
0.0
 11
38.05637722550955
 21
109.8235430818778
 31
0.0
  0
LINE
  5
2223
330
18
100
AcDbEntity
  8
1
  6
Continuous
100
AcDbLine
 10
37.90637721835997
 20
110.9307714205572
 30
0.0
 11
38.05637722550955
 21
110.9307714205572
 31
0.0
  0
LINE
  5
2226
330
18
100
AcDbEntity
  8
1
  6
Continuous
100
AcDbLine
 10
37.90637721835918
 20
105.2627041846776
 30
0.0
 11
38.05637722550955
 21
105.2627041846776
 31
0.0
  0
LINE
  5
2227
330
18
100
AcDbEntity
  8
1
  6
Continuous
100
AcDbLine
 10
37.90637721835918
 20
105.6472405326124
 30
0.0
 11
38.05637722550955
 21
105.6472405326124
 31
0.0
  0
LINE
  5
2228
330
18
100
AcDbEntity
  8
1
  6
Continuous
100
AcDbLine
 10
37.90637721835918
 20
106.2093951114875
 30
0.0
 11
38.05637722550955
 21
106.2093951114875
 31
0.0
  0
LINE
  5
2229
330
18
100
AcDbEntity
  8
1
  6
Continuous
100
AcDbLine
 10
37.90637721835918
 20
106.9320870836212
 30
0.0
 11
38.05637722550955
 21
106.9320870836212
 31
0.0
  0
LINE
  5
222B
330
18
100
AcDbEntity
  8
1
  6
Continuous
100
AcDbLine
 10
37.60637720413569
 20
104.7429256602137
 30
0.0
 11
36.90637717088747
 21
104.7429256602137
 31
0.0
  0
LINE
  5
222C
330
18
100
AcDbEntity
  8
1
  6
Continuous
100
AcDbLine
 10
36.90637717088725
 20
104.7429256602139
 30
0.0
 11
36.40627714713871
 21
105.3555481893059
 31
0.0
  0
LINE
  5
222F
330
18
100
AcDbEntity
  8
1
  6
Continuous
100
AcDbLine
 10
38.05637722550955
 20
110.930771420557
 30
0.0
 11
38.05637722550955
 21
112.0550805410859
 31
0.0
  0
LINE
  5
2230
330
18
100
AcDbEntity
  8
1
  6
Continuous
100
AcDbLine
 10
32.40637695714895
 20
111.4929259451072
 30
0.0
 11
36.40637714713875
 21
111.4929262308214
 31
0.0
  0
LINE
  5
2231
330
18
100
AcDbEntity
  8
1
  6
Continuous
100
AcDbLine
 10
32.90637698089762
 20
106.7081353976472
 30
0.0
 11
36.40637714713875
 21
106.7081353976472
 31
0.0
  0
ARC
  5
2233
330
18
100
AcDbEntity
  8
1
  6
Continuous
100
AcDbCircle
 10
32.90637854882254
 20
115.7777162858542
 30
0.0
 40
0.5000000237487292
100
AcDbArc
 50
89.99997903386923
 51
179.9999790338688
  0
LINE
  5
2235
330
18
100
AcDbEntity
  8
1
  6
Continuous
100
AcDbLine
 10
36.40637714713879
 20
117.6304262723371
 30
0.0
 11
36.90637717088747
 21
118.2429263014294
 31
0.0
  0
LINE
  5
2236
330
18
100
AcDbEntity
  8
1
  6
Continuous
100
AcDbLine
 10
37.90637721838471
 20
117.9183820068797
 30
0.0
 11
38.05637722550958
 21
117.9183820068797
 31
0.0
  0
ARC
  5
2237
330
18
100
AcDbEntity
  8
1
  6
Continuous
100
AcDbCircle
 10
37.60637956437108
 20
117.9429243129253
 30
0.0
 40
0.3000000142492368
100
AcDbArc
 50
359.7727230065611
 51
89.99997903386923
  0
LINE
  5
2238
330
18
100
AcDbEntity
  8
1
  6
Continuous
100
AcDbLine
 10
37.90637721835975
 20
116.053764878022
 30
0.0
 11
38.05637722550955
 21
116.053764878022
 31
0.0
  0
LINE
  5
2239
330
18
100
AcDbEntity
  8
1
  6
Continuous
100
AcDbLine
 10
36.90637717088725
 20
118.2429263014294
 30
0.0
 11
37.60637720413569
 21
118.2429263014294
 31
0.0
  0
LINE
  5
223D
330
18
100
AcDbEntity
  8
1
  6
Continuous
100
AcDbLine
 10
38.0563772255095
 20
114.2429261114395
 30
0.0
 11
38.3563781934331
 21
114.2429261114395
 31
0.0
  0
LINE
  5
223E
330
18
100
AcDbEntity
  8
1
  6
Continuous
100
AcDbLine
 10
37.90637721835992
 20
115.1924941238925
 30
0.0
 11
38.05637722550955
 21
115.1924941238925
 31
0.0
  0
LINE
  5
223F
330
18
100
AcDbEntity
  8
1
  6
Continuous
100
AcDbLine
 10
37.90637721835992
 20
114.2188138638084
 30
0.0
 11
38.05637722550955
 21
114.2188138638084
 31
0.0
  0
LINE
  5
2240
330
18
100
AcDbEntity
  8
1
  6
Continuous
100
AcDbLine
 10
37.90637721835963
 20
113.1623088797649
 30
0.0
 11
38.05637722550955
 21
113.1623088797649
 31
0.0
  0
LINE
  5
2242
330
18
100
AcDbEntity
  8
1
  6
Continuous
100
AcDbLine
 10
37.90637721835929
 20
117.7231477769651
 30
0.0
 11
38.05637722550955
 21
117.7231477769651
 31
0.0
  0
LINE
  5
2243
330
18
100
AcDbEntity
  8
1
  6
Continuous
100
AcDbLine
 10
37.90637721835929
 20
117.3386114104199
 30
0.0
 11
38.05637722550955
 21
117.3386114104199
 31
0.0
  0
LINE
  5
2244
330
18
100
AcDbEntity
  8
1
  6
Continuous
100
AcDbLine
 10
37.90637721835975
 20
116.7764568501558
 30
0.0
 11
38.05637722550955
 21
116.7764568501558
 31
0.0
  0
LINE
  5
2245
330
18
100
AcDbEntity
  8
1
  6
Continuous
100
AcDbLine
 10
32.90637873178649
 20
116.277716309603
 30
0.0
 11
36.40637889802738
 21
116.2777150288549
 31
0.0
  0
LINE
  5
2246
330
18
100
AcDbEntity
  8
1
  6
Continuous
100
AcDbLine
 10
60.85637916675825
 20
125.4929266457857
 30
0.0
 11
62.45637924275404
 21
125.4929266457859
 31
0.0
  0
LINE
  5
2247
330
18
100
AcDbEntity
  8
1
  6
Continuous
100
AcDbLine
 10
54.8563787864062
 20
124.9929266220369
 30
0.0
 11
58.85637897639597
 21
124.9929266220369
 31
0.0
  0
LINE
  5
2248
330
18
100
AcDbEntity
  8
1
  6
Continuous
100
AcDbLine
 10
42.05637836918389
 20
105.4929256958367
 30
0.0
 11
42.05637836918401
 21
117.4929262658062
 31
0.0
  0
LINE
  5
2249
330
18
100
AcDbEntity
  8
1
  6
Continuous
100
AcDbLine
 10
45.45988231854152
 20
121.3928650461796
 30
0.0
 11
45.45988231854152
 21
108.6929258478286
 31
0.0
  0
LINE
  5
224A
330
18
100
AcDbEntity
  8
1
  6
Continuous
100
AcDbLine
 10
45.35637845130081
 20
108.6929074406308
 30
0.0
 11
45.35637845130081
 21
121.2929908714885
 31
0.0
  0
LINE
  5
224B
330
18
100
AcDbEntity
  8
1
  6
Continuous
100
AcDbLine
 10
42.05637836918389
 20
105.4929256958367
 30
0.0
 11
42.40563515199061
 21
105.4929256958367
 31
0.0
  0
LINE
  5
224C
330
18
100
AcDbEntity
  8
1
  6
Continuous
100
AcDbLine
 10
42.85637831180411
 20
108.6929258478286
 30
0.0
 11
45.45988231854152
 21
108.6929258478286
 31
0.0
  0
ARC
  5
224D
330
18
100
AcDbEntity
  8
1
  6
Continuous
100
AcDbCircle
 10
163.1230505955231
 20
111.4929259808238
 30
0.0
 40
120.8666724075849
100
AcDbArc
 50
182.2159026407576
 51
184.0326785535969
  0
ARC
  5
224E
330
18
100
AcDbEntity
  8
1
  6
Continuous
100
AcDbCircle
 10
163.12305059555
 20
111.4929259808249
 30
0.0
 40
120.5666723933626
100
AcDbArc
 50
182.2214191213107
 51
184.0427322129079
  0
LINE
  5
224F
330
18
100
AcDbEntity
  8
1
  6
Continuous
100
AcDbLine
 10
42.85637831180422
 20
108.6929258478285
 30
0.0
 11
42.85637831180422
 21
102.5929255584115
 31
0.0
  0
LINE
  5
2250
330
18
100
AcDbEntity
  8
1
  6
Continuous
100
AcDbLine
 10
42.55519338520882
 20
102.992925577093
 30
0.0
 11
42.85657969823467
 21
102.992925577093
 31
0.0
  0
LINE
  5
2251
330
18
100
AcDbEntity
  8
1
  6
Continuous
100
AcDbLine
 10
42.70600812036319
 20
105.4929256958367
 30
0.0
 11
42.85637831180418
 21
105.4929256958367
 31
0.0
  0
LINE
  5
2252
330
18
100
AcDbEntity
  8
1
  6
Continuous
100
AcDbLine
 10
42.34675947508953
 20
106.8195971806312
 30
0.0
 11
42.64698454949388
 21
106.8195971806312
 31
0.0
  0
LINE
  5
2253
330
18
100
AcDbEntity
  8
1
  6
Continuous
100
AcDbLine
 10
42.29361503436741
 20
108.492925838329
 30
0.0
 11
42.34675947508947
 21
106.8195971806312
 31
0.0
  0
LINE
  5
2254
330
18
100
AcDbEntity
  8
1
  6
Continuous
100
AcDbLine
 10
42.29361503436751
 20
108.492925838329
 30
0.0
 11
42.59370773185799
 21
108.492925838329
 31
0.0
  0
ARC
  5
2255
330
18
100
AcDbEntity
  8
1
  6
Continuous
100
AcDbCircle
 10
163.1230505954968
 20
111.4929259808215
 30
0.0
 40
120.5666723933092
100
AcDbArc
 50
181.4258093489246
 51
182.2214191213099
  0
LINE
  5
2259
330
18
100
AcDbEntity
  8
1
  6
Continuous
100
AcDbLine
 10
43.85637835930164
 20
108.6929258478286
 30
0.0
 11
43.85637835930167
 21
101.5929255106777
 31
0.0
  0
LINE
  5
225A
330
18
100
AcDbEntity
  8
1
  6
Continuous
100
AcDbLine
 10
42.85627831180408
 20
102.5930255580943
 30
0.0
 11
43.85637835930167
 21
101.5929255105967
 31
0.0
  0
LINE
  5
225B
330
18
100
AcDbEntity
  8
1
  6
Continuous
100
AcDbLine
 10
42.4054949033736
 20
117.4929262658062
 30
0.0
 11
42.05637836918401
 21
117.4929262658062
 31
0.0
  0
ARC
  5
225C
330
18
100
AcDbEntity
  8
1
  6
Continuous
100
AcDbCircle
 10
163.1230505954345
 20
111.4929259808244
 30
0.0
 40
120.5666723932469
100
AcDbArc
 50
175.9572703032923
 51
177.7785808786901
  0
ARC
  5
225D
330
18
100
AcDbEntity
  8
1
  6
Continuous
100
AcDbCircle
 10
163.1230505954875
 20
111.492925980821
 30
0.0
 40
120.8666724075493
100
AcDbArc
 50
175.967318628745
 51
177.7840973592426
  0
LINE
  5
225E
330
18
100
AcDbEntity
  8
1
  6
Continuous
100
AcDbLine
 10
42.85637831180422
 20
119.9410030862807
 30
0.0
 11
42.85637831180422
 21
117.4929262658062
 31
0.0
  0
LINE
  5
225F
330
18
100
AcDbEntity
  8
1
  6
Continuous
100
AcDbLine
 10
42.34675947508947
 20
116.1662547810117
 30
0.0
 11
42.29361503436741
 21
114.4929261233137
 31
0.0
  0
ARC
  5
2260
330
18
100
AcDbEntity
  8
1
  6
Continuous
100
AcDbCircle
 10
163.1230505954968
 20
111.4929259808215
 30
0.0
 40
120.5666723933092
100
AcDbArc
 50
177.7785808786901
 51
178.5741906510748
  0
LINE
  5
2261
330
18
100
AcDbEntity
  8
1
  6
Continuous
100
AcDbLine
 10
42.29361503436746
 20
114.4929261233137
 30
0.0
 11
42.59370773185799
 21
114.4929261233137
 31
0.0
  0
LINE
  5
2262
330
18
100
AcDbEntity
  8
1
  6
Continuous
100
AcDbLine
 10
42.34675947508953
 20
116.1662547810117
 30
0.0
 11
42.64698454949388
 21
116.1662547810117
 31
0.0
  0
LINE
  5
2263
330
18
100
AcDbEntity
  8
1
  6
Continuous
100
AcDbLine
 10
45.35637843054785
 20
117.4929262658062
 30
0.0
 11
42.7060070168889
 21
117.4929262658062
 31
0.0
  0
LINE
  5
2265
330
18
100
AcDbEntity
  8
1
  6
Continuous
100
AcDbLine
 10
42.85657969823467
 20
119.9929263845497
 30
0.0
 11
42.55520202545864
 21
119.9929263845497
 31
0.0
  0
LINE
  5
2266
330
18
100
AcDbEntity
  8
1
  6
Continuous
100
AcDbLine
 10
43.85637835930167
 20
120.988714972037
 30
0.0
 11
45.35637845130081
 21
120.9887149720369
 31
0.0
  0
LINE
  5
2267
330
18
100
AcDbEntity
  8
1
  6
Continuous
100
AcDbLine
 10
42.85637831180404
 20
119.9410030862807
 30
0.0
 11
43.85637835930173
 21
120.988714972037
 31
0.0
  0
ARC
  5
2268
330
18
100
AcDbEntity
  8
1
  6
Continuous
100
AcDbCircle
 10
45.45637843529759
 20
121.2929264462965
 30
0.0
 40
0.1000000047497318
100
AcDbArc
 50
87.38830225791222
 51
179.9630871201109
  0
LINE
  5
2269
330
18
100
AcDbEntity
  8
1
  6
Continuous
100
AcDbLine
 10
43.85637835930167
 20
101.5929255105967
 30
0.0
 11
47.85637854929172
 21
101.5929255105967
 31
0.0
  0
LINE
  5
226A
330
18
100
AcDbEntity
  8
1
  6
Continuous
100
AcDbLine
 10
47.85637854929166
 20
121.3929264510462
 30
0.0
 11
45.45988231854152
 21
121.3929264510462
 31
0.0
  0
LINE
  5
226B
330
18
100
AcDbEntity
  8
1
  6
Continuous
100
AcDbLine
 10
42.05637836918389
 20
107.4929257908315
 30
0.0
 11
38.35637819343322
 21
107.4929257908315
 31
0.0
  0
LINE
  5
226C
330
18
100
AcDbEntity
  8
1
  6
Continuous
100
AcDbLine
 10
42.05637836917367
 20
108.492925838329
 30
0.0
 11
38.35637819343322
 21
108.492925838329
 31
0.0
  0
LINE
  5
226D
330
18
100
AcDbEntity
  8
1
  6
Continuous
100
AcDbLine
 10
42.0563783691736
 20
114.4929261233137
 30
0.0
 11
38.35637819343322
 21
114.4929261233137
 31
0.0
  0
LINE
  5
226E
330
18
100
AcDbEntity
  8
1
  6
Continuous
100
AcDbLine
 10
42.05637836917367
 20
115.4929261708112
 30
0.0
 11
38.35637819343322
 21
115.4929261708112
 31
0.0
  0
LINE
  5
226F
330
18
100
AcDbEntity
  8
1
  6
Continuous
100
AcDbLine
 10
100.840051327055
 20
73.77635751667881
 30
0.0
 11
116.9400468990053
 21
73.77635751667881
 31
0.0
  0
LINE
  5
2270
330
18
100
AcDbEntity
  8
1
  6
Continuous
100
AcDbLine
 10
119.8900470391229
 20
72.8263573643128
 30
0.0
 11
97.89004599417872
 21
72.8263573643128
 31
0.0
  0
LINE
  5
2271
330
18
100
AcDbEntity
  8
1
  6
Continuous
100
AcDbLine
 10
124.4785045251829
 20
65.4263569174642
 30
0.0
 11
93.30158850811882
 21
65.42635691746423
 31
0.0
  0
LINE
  5
2272
330
18
100
AcDbEntity
  8
1
  6
Continuous
100
AcDbLine
 10
124.4785045251829
 20
61.42635672747442
 30
0.0
 11
93.30158850811868
 21
61.42635672747442
 31
0.0
  0
ARC
  5
2273
330
18
100
AcDbEntity
  8
1
  6
Continuous
100
AcDbCircle
 10
108.8900465166507
 20
65.42635701283187
 30
0.0
 40
11.0000005224722
100
AcDbArc
 50
245.3800226713423
 51
294.6199773286573
  0
LINE
  5
2274
330
18
100
AcDbEntity
  8
1
  6
Continuous
100
AcDbLine
 10
118.8900469916252
 20
54.42635649035969
 30
0.0
 11
98.89004604167631
 21
54.42635649035969
 31
0.0
  0
LINE
  5
2277
330
18
100
AcDbEntity
  8
1
  6
Continuous
100
AcDbLine
 10
104.8900463266609
 20
44.92635613450246
 30
0.0
 11
112.8900467066406
 21
44.92635613450159
 31
0.0
  0
LINE
  5
2278
330
18
100
AcDbEntity
  8
1
  6
Continuous
100
AcDbLine
 10
115.0275468081664
 20
42.97635508820696
 30
0.0
 11
102.7525462251352
 21
42.97635508820692
 31
0.0
  0
LINE
  5
2279
330
18
100
AcDbEntity
  8
1
  6
Continuous
100
AcDbLine
 10
115.6400468372585
 20
43.47635511195547
 30
0.0
 11
102.1400461960429
 21
43.47635511195551
 31
0.0
  0
LINE
  5
227A
330
18
100
AcDbEntity
  8
1
  6
Continuous
100
AcDbLine
 10
108.5414235291015
 20
44.62635516657775
 30
0.0
 11
115.3400467408703
 21
44.62635516657775
 31
0.0
  0
LINE
  5
227B
330
18
100
AcDbEntity
  8
1
  6
Continuous
100
AcDbLine
 10
115.3400468230094
 20
44.47635515940185
 30
0.0
 11
102.4400462102922
 21
44.47635515940185
 31
0.0
  0
LINE
  5
227C
330
18
100
AcDbEntity
  8
1
  6
Continuous
100
AcDbLine
 10
109.6400465522739
 20
41.47635501696078
 30
0.0
 11
108.1400464810277
 21
41.47635501696078
 31
0.0
  0
LINE
  5
2281
330
18
100
AcDbEntity
  8
1
  6
Continuous
100
AcDbLine
 10
94.89004585168656
 20
69.02635718382242
 30
0.0
 11
122.890047181615
 21
69.02635718382239
 31
0.0
  0
LINE
  5
2282
330
18
100
AcDbEntity
  8
1
  6
Continuous
100
AcDbLine
 10
122.890047181615
 20
67.42635710782645
 30
0.0
 11
94.89004585168652
 21
67.42635710782647
 31
0.0
  0
LINE
  5
2283
330
18
100
AcDbEntity
  8
1
  6
Continuous
100
AcDbLine
 10
98.89004604167631
 20
61.42635672747442
 30
0.0
 11
98.89004604167631
 21
54.42635649035969
 31
0.0
  0
LINE
  5
2284
330
18
100
AcDbEntity
  8
4
  6
CENTER
 48
0.2
100
AcDbLine
 10
108.8900465166507
 20
76.77635751477549
 30
0.0
 11
108.8900465166507
 21
35.97635489821714
 31
0.0
  0
LINE
  5
2285
330
18
100
AcDbEntity
  8
1
  6
Continuous
100
AcDbLine
 10
104.3074706040342
 20
61.42635672747442
 30
0.0
 11
104.3074706040342
 21
55.42635653785707
 31
0.0
  0
LINE
  5
2286
330
18
100
AcDbEntity
  8
1
  6
Continuous
100
AcDbLine
 10
104.3074706040342
 20
67.42635710782659
 30
0.0
 11
104.3074706040342
 21
65.42635691746423
 31
0.0
  0
LINE
  5
2287
330
18
100
AcDbEntity
  8
1
  6
Continuous
100
AcDbLine
 10
98.89004604167631
 20
67.42635710782659
 30
0.0
 11
98.89004604167631
 21
65.42635691746423
 31
0.0
  0
LINE
  5
2289
330
18
100
AcDbEntity
  8
1
  6
Continuous
100
AcDbLine
 10
94.89004585168665
 20
69.02635718382242
 30
0.0
 11
97.89012494154718
 21
72.82645736431283
 31
0.0
  0
LINE
  5
228A
330
18
100
AcDbEntity
  8
1
  6
Continuous
100
AcDbLine
 10
94.89004585168656
 20
67.42635710782647
 30
0.0
 11
94.89004585168656
 21
69.02635718382231
 31
0.0
  0
ARC
  5
228B
330
18
100
AcDbEntity
  8
1
  6
Continuous
100
AcDbCircle
 10
100.8400461342963
 20
73.47635750247452
 30
0.0
 40
0.3000000142492325
100
AcDbArc
 50
89.99950412809431
 51
179.9999999999942
  0
LINE
  5
228C
330
18
100
AcDbEntity
  8
1
  6
Continuous
100
AcDbLine
 10
100.540046120047
 20
72.8263573643128
 30
0.0
 11
100.540046120047
 21
73.47635750247454
 31
0.0
  0
LINE
  5
228D
330
18
100
AcDbEntity
  8
1
  6
Continuous
100
AcDbLine
 10
93.30158850811866
 20
61.42635672747442
 30
0.0
 11
93.30158850811866
 21
65.42635691746423
 31
0.0
  0
LINE
  5
228E
330
18
100
AcDbEntity
  8
1
  6
Continuous
100
AcDbLine
 10
101.0958175123847
 20
61.42635672747442
 30
0.0
 11
101.0958175123847
 21
65.42635691746423
 31
0.0
  0
LINE
  5
228F
330
18
100
AcDbEntity
  8
1
  6
Continuous
100
AcDbLine
 10
104.8900463266609
 20
48.62635631024183
 30
0.0
 11
104.8900463266609
 21
44.92635613450246
 31
0.0
  0
LINE
  5
2290
330
18
100
AcDbEntity
  8
1
  6
Continuous
100
AcDbLine
 10
105.8900463741583
 20
48.6263563102419
 30
0.0
 11
105.8900463741583
 21
44.92635613450145
 31
0.0
  0
LINE
  5
229B
330
18
100
AcDbEntity
  8
1
  6
Continuous
100
AcDbLine
 10
104.3074706040342
 20
55.4263565378568
 30
0.0
 11
98.89004604167638
 21
55.42635653785685
 31
0.0
  0
LINE
  5
229C
330
18
100
AcDbEntity
  8
1
  6
Continuous
100
AcDbLine
 10
106.127546385439
 20
39.47635492196587
 30
0.0
 11
106.127546385439
 21
42.97635508820696
 31
0.0
  0
LINE
  5
229D
330
18
100
AcDbEntity
  8
1
  6
Continuous
100
AcDbLine
 10
103.3650462542272
 20
39.47635492196587
 30
0.0
 11
103.3650463985649
 21
42.97635508820696
 31
0.0
  0
ARC
  5
229F
330
18
100
AcDbEntity
  8
1
  6
Continuous
100
AcDbCircle
 10
103.909378265868
 20
39.52156202782429
 30
0.0
 40
0.546206024606977
100
AcDbArc
 50
184.7475542032432
 51
273.465656503507
  0
LINE
  5
22A0
330
18
100
AcDbEntity
  8
1
  6
Continuous
100
AcDbLine
 10
108.1400464810277
 20
39.27635491246638
 30
0.0
 11
108.1400464810277
 21
41.47635501696078
 31
0.0
  0
ARC
  5
22A1
330
18
100
AcDbEntity
  8
1
  6
Continuous
100
AcDbCircle
 10
107.8400464667785
 20
39.27635491246638
 30
0.0
 40
0.3000000142492212
100
AcDbArc
 50
270.0
 51
0.0
  0
LINE
  5
22A2
330
18
100
AcDbEntity
  8
1
  6
Continuous
100
AcDbLine
 10
107.8400464667785
 20
38.97635489821718
 30
0.0
 11
103.9423965508875
 21
38.97635489821714
 31
0.0
  0
ARC
  5
22A3
330
18
100
AcDbEntity
  8
1
  6
Continuous
100
AcDbCircle
 10
106.4366816804622
 20
39.21149837221445
 30
0.0
 40
0.2360319278555406
100
AcDbArc
 50
213.4018349434096
 51
265.0271424980254
  0
ARC
  5
22A4
330
18
100
AcDbEntity
  8
1
  6
Continuous
100
AcDbCircle
 10
106.8056327523417
 20
39.45556629261233
 30
0.0
 40
0.6784049587741104
100
AcDbArc
 50
178.243988051734
 51
213.4563056941261
  0
LINE
  5
22A5
330
18
100
AcDbEntity
  8
1
  6
Continuous
100
AcDbLine
 10
102.7525462251352
 20
42.97635508820692
 30
0.0
 11
102.1400461960429
 21
43.47635511195571
 31
0.0
  0
LINE
  5
22A6
330
18
100
AcDbEntity
  8
1
  6
Continuous
100
AcDbLine
 10
102.1400461960429
 20
43.47635511195551
 30
0.0
 11
102.1400461960429
 21
44.17635514520388
 31
0.0
  0
LINE
  5
22A7
330
18
100
AcDbEntity
  8
1
  6
Continuous
100
AcDbLine
 10
108.3278919563863
 20
44.62635516657775
 30
0.0
 11
102.4400462924312
 21
44.62635516657772
 31
0.0
  0
LINE
  5
22A8
330
18
100
AcDbEntity
  8
1
  6
Continuous
100
AcDbLine
 10
102.4400462924312
 20
44.47635515945314
 30
0.0
 11
102.4400462924312
 21
44.62635516657772
 31
0.0
  0
LINE
  5
22A9
330
18
100
AcDbEntity
  8
1
  6
Continuous
100
AcDbLine
 10
108.5414235291015
 20
44.47635515945314
 30
0.0
 11
108.5414235291015
 21
44.62635516657775
 31
0.0
  0
ARC
  5
22AA
330
18
100
AcDbEntity
  8
1
  6
Continuous
100
AcDbCircle
 10
102.4400462102922
 20
44.17635514520388
 30
0.0
 40
0.3000000142492368
100
AcDbArc
 50
90.00000000000005
 51
179.999999999999
  0
LINE
  5
22AB
330
18
100
AcDbEntity
  8
1
  6
Continuous
100
AcDbLine
 10
106.1400463860328
 20
44.62635516657775
 30
0.0
 11
106.1400463860328
 21
44.92635613450132
 31
0.0
  0
LINE
  5
22AC
330
18
100
AcDbEntity
  8
1
  6
Continuous
100
AcDbLine
 10
106.164158633664
 20
44.47635515942816
 30
0.0
 11
106.164158633664
 21
44.62635516657775
 31
0.0
  0
LINE
  5
22AD
330
18
100
AcDbEntity
  8
1
  6
Continuous
100
AcDbLine
 10
107.1995733893948
 20
44.47635515945314
 30
0.0
 11
107.1995733893948
 21
44.62635516657775
 31
0.0
  0
LINE
  5
22AE
330
18
100
AcDbEntity
  8
1
  6
Continuous
100
AcDbLine
 10
108.3278919563864
 20
44.47635515945296
 30
0.0
 11
108.3278919563864
 21
44.62635516657775
 31
0.0
  0
LINE
  5
22AF
330
18
100
AcDbEntity
  8
1
  6
Continuous
100
AcDbLine
 10
103.0443610870527
 20
44.47635515942816
 30
0.0
 11
103.0443610870527
 21
44.62635516657775
 31
0.0
  0
LINE
  5
22B0
330
18
100
AcDbEntity
  8
1
  6
Continuous
100
AcDbLine
 10
103.6065156473167
 20
44.47635515942816
 30
0.0
 11
103.6065156473167
 21
44.62635516657775
 31
0.0
  0
LINE
  5
22B1
330
18
100
AcDbEntity
  8
1
  6
Continuous
100
AcDbLine
 10
104.3292076194505
 20
44.47635515942739
 30
0.0
 11
104.3292076194505
 21
44.62635516657775
 31
0.0
  0
LINE
  5
22B2
330
18
100
AcDbEntity
  8
1
  6
Continuous
100
AcDbLine
 10
105.1904783735795
 20
44.47635515942738
 30
0.0
 11
105.1904783735795
 21
44.62635516657775
 31
0.0
  0
LINE
  5
22B3
330
18
100
AcDbEntity
  8
1
  6
Continuous
100
AcDbLine
 10
102.6598247205068
 20
44.47635515942816
 30
0.0
 11
102.6598247205068
 21
44.62635516657775
 31
0.0
  0
LINE
  5
22B6
330
18
100
AcDbEntity
  8
1
  6
Continuous
100
AcDbLine
 10
118.8900469916252
 20
61.42635672747442
 30
0.0
 11
118.8900469916252
 21
54.42635649035969
 31
0.0
  0
LINE
  5
22B7
330
18
100
AcDbEntity
  8
1
  6
Continuous
100
AcDbLine
 10
113.4726224292675
 20
61.42635672747442
 30
0.0
 11
113.4726224292675
 21
55.42635653785715
 31
0.0
  0
LINE
  5
22B8
330
18
100
AcDbEntity
  8
1
  6
Continuous
100
AcDbLine
 10
118.8900469916252
 20
67.42635710782659
 30
0.0
 11
118.8900469916252
 21
65.42635691746423
 31
0.0
  0
LINE
  5
22B9
330
18
100
AcDbEntity
  8
1
  6
Continuous
100
AcDbLine
 10
113.4726224292675
 20
67.42635710782659
 30
0.0
 11
113.4726224292675
 21
65.42635691746423
 31
0.0
  0
LINE
  5
22BA
330
18
100
AcDbEntity
  8
1
  6
Continuous
100
AcDbLine
 10
119.8900470391229
 20
72.8263573643128
 30
0.0
 11
122.890047181615
 21
69.02635718382225
 31
0.0
  0
ARC
  5
22BB
330
18
100
AcDbEntity
  8
1
  6
Continuous
100
AcDbCircle
 10
116.9400468990053
 20
73.47635750247452
 30
0.0
 40
0.3000000142492325
100
AcDbArc
 50
0.0000000000057136
 51
90.00000000000005
  0
LINE
  5
22BC
330
18
100
AcDbEntity
  8
1
  6
Continuous
100
AcDbLine
 10
117.2400469132545
 20
73.47635750247454
 30
0.0
 11
117.2400469132545
 21
72.8263573643128
 31
0.0
  0
LINE
  5
22BE
330
18
100
AcDbEntity
  8
1
  6
Continuous
100
AcDbLine
 10
122.890047181615
 20
69.02635718382239
 30
0.0
 11
122.890047181615
 21
67.42635710782645
 31
0.0
  0
LINE
  5
22BF
330
18
100
AcDbEntity
  8
1
  6
Continuous
100
AcDbLine
 10
116.6842755209165
 20
61.42635672747442
 30
0.0
 11
116.6842755209165
 21
65.42635691746423
 31
0.0
  0
LINE
  5
22C0
330
18
100
AcDbEntity
  8
1
  6
Continuous
100
AcDbLine
 10
124.4785045251829
 20
61.42635672747442
 30
0.0
 11
124.4785045251829
 21
65.4263569174642
 31
0.0
  0
LINE
  5
22C1
330
18
100
AcDbEntity
  8
1
  6
Continuous
100
AcDbLine
 10
112.8900467066406
 20
48.6263563102419
 30
0.0
 11
112.8900467066406
 21
44.92635613450145
 31
0.0
  0
LINE
  5
22C2
330
18
100
AcDbEntity
  8
1
  6
Continuous
100
AcDbLine
 10
111.890046659143
 20
48.62635631024183
 30
0.0
 11
111.890046659143
 21
44.92635613450143
 31
0.0
  0
LINE
  5
22CB
330
18
100
AcDbEntity
  8
1
  6
Continuous
100
AcDbLine
 10
118.8900469916252
 20
55.42635653785715
 30
0.0
 11
113.4726224292674
 21
55.42635653785715
 31
0.0
  0
LINE
  5
22CF
330
18
100
AcDbEntity
  8
1
  6
Continuous
100
AcDbLine
 10
115.3400467408703
 20
44.62635516657775
 30
0.0
 11
115.3400467408703
 21
44.47635515945314
 31
0.0
  0
ARC
  5
22D0
330
18
100
AcDbEntity
  8
1
  6
Continuous
100
AcDbCircle
 10
115.3400468230094
 20
44.17635514520388
 30
0.0
 40
0.3000000142492368
100
AcDbArc
 50
0.0000000000008283
 51
90.00000000000005
  0
ARC
  5
22D1
330
18
100
AcDbEntity
  8
1
  6
Continuous
100
AcDbCircle
 10
110.9744602809598
 20
39.45556629261233
 30
0.0
 40
0.6784049587741104
100
AcDbArc
 50
326.5436943058738
 51
1.756011948265873
  0
ARC
  5
22D2
330
18
100
AcDbEntity
  8
1
  6
Continuous
100
AcDbCircle
 10
111.3434113528392
 20
39.21149837221445
 30
0.0
 40
0.2360319278555406
100
AcDbArc
 50
274.9728575019746
 51
326.5981650565901
  0
LINE
  5
22D3
330
18
100
AcDbEntity
  8
1
  6
Continuous
100
AcDbLine
 10
109.940046566523
 20
38.97635489821718
 30
0.0
 11
113.837696482414
 21
38.97635489821714
 31
0.0
  0
ARC
  5
22D4
330
18
100
AcDbEntity
  8
1
  6
Continuous
100
AcDbCircle
 10
109.940046566523
 20
39.27635491246638
 30
0.0
 40
0.3000000142492212
100
AcDbArc
 50
180.0
 51
270.0
  0
LINE
  5
22D5
330
18
100
AcDbEntity
  8
1
  6
Continuous
100
AcDbLine
 10
109.6400465522739
 20
39.27635491246638
 30
0.0
 11
109.6400465522739
 21
41.47635501696078
 31
0.0
  0
ARC
  5
22D6
330
18
100
AcDbEntity
  8
1
  6
Continuous
100
AcDbCircle
 10
113.8707147674334
 20
39.52156202782429
 30
0.0
 40
0.546206024606977
100
AcDbArc
 50
266.5343434964928
 51
355.2524457967566
  0
LINE
  5
22D7
330
18
100
AcDbEntity
  8
1
  6
Continuous
100
AcDbLine
 10
115.1202683127944
 20
44.47635515942788
 30
0.0
 11
115.1202683127944
 21
44.62635516657775
 31
0.0
  0
LINE
  5
22D8
330
18
100
AcDbEntity
  8
1
  6
Continuous
100
AcDbLine
 10
115.6400468372585
 20
44.17635514520388
 30
0.0
 11
115.6400468372585
 21
43.47635511195547
 31
0.0
  0
LINE
  5
22D9
330
18
100
AcDbEntity
  8
1
  6
Continuous
100
AcDbLine
 10
115.6400468372583
 20
43.47635511195547
 30
0.0
 11
115.0274243081664
 21
42.97625508820694
 31
0.0
  0
LINE
  5
22DA
330
18
100
AcDbEntity
  8
1
  6
Continuous
100
AcDbLine
 10
114.735731946249
 20
44.47635515942813
 30
0.0
 11
114.735731946249
 21
44.62635516657775
 31
0.0
  0
LINE
  5
22DB
330
18
100
AcDbEntity
  8
1
  6
Continuous
100
AcDbLine
 10
114.1735773859849
 20
44.47635515942813
 30
0.0
 11
114.1735773859849
 21
44.62635516657775
 31
0.0
  0
LINE
  5
22DC
330
18
100
AcDbEntity
  8
1
  6
Continuous
100
AcDbLine
 10
113.4508854138512
 20
44.47635515942796
 30
0.0
 11
113.4508854138512
 21
44.62635516657775
 31
0.0
  0
LINE
  5
22DD
330
18
100
AcDbEntity
  8
1
  6
Continuous
100
AcDbLine
 10
114.4150467790742
 20
39.47635492196587
 30
0.0
 11
114.4150466347367
 21
42.97635508820696
 31
0.0
  0
LINE
  5
22DF
330
18
100
AcDbEntity
  8
1
  6
Continuous
100
AcDbLine
 10
111.6400466472687
 20
44.92635613450132
 30
0.0
 11
111.6400466472687
 21
44.62635516657775
 31
0.0
  0
LINE
  5
22E0
330
18
100
AcDbEntity
  8
1
  6
Continuous
100
AcDbLine
 10
112.5896146597217
 20
44.47635515942796
 30
0.0
 11
112.5896146597217
 21
44.62635516657775
 31
0.0
  0
LINE
  5
22E1
330
18
100
AcDbEntity
  8
1
  6
Continuous
100
AcDbLine
 10
111.6159343996377
 20
44.47635515942748
 30
0.0
 11
111.6159343996377
 21
44.62635516657775
 31
0.0
  0
LINE
  5
22E2
330
18
100
AcDbEntity
  8
1
  6
Continuous
100
AcDbLine
 10
110.5594294155942
 20
44.47635515942748
 30
0.0
 11
110.5594294155942
 21
44.62635516657775
 31
0.0
  0
LINE
  5
22E3
330
18
100
AcDbEntity
  8
1
  6
Continuous
100
AcDbLine
 10
109.2386695042
 20
44.47635515945314
 30
0.0
 11
109.2386695042
 21
44.62635516657775
 31
0.0
  0
LINE
  5
22E4
330
18
100
AcDbEntity
  8
1
  6
Continuous
100
AcDbLine
 10
109.4522010769152
 20
44.47635515945296
 30
0.0
 11
109.4522010769152
 21
44.62635516657775
 31
0.0
  0
LINE
  5
22E5
330
18
100
AcDbEntity
  8
1
  6
Continuous
100
AcDbLine
 10
111.6525466478625
 20
39.47635492196587
 30
0.0
 11
111.6525466478625
 21
42.97635508820696
 31
0.0
  0
LINE
  5
22E6
330
18
100
AcDbEntity
  8
1
  6
Continuous
100
AcDbLine
 10
99.39425752543526
 20
52.02635637636581
 30
0.0
 11
99.39425752543522
 21
50.42635630036993
 31
0.0
  0
LINE
  5
22E7
330
18
100
AcDbEntity
  8
1
  6
Continuous
100
AcDbLine
 10
100.4419694111913
 20
49.42635625287252
 30
0.0
 11
117.7900469390606
 21
49.42635625287244
 31
0.0
  0
LINE
  5
22E8
330
18
100
AcDbEntity
  8
1
  6
Continuous
100
AcDbLine
 10
99.39425752543522
 20
50.42635630036993
 30
0.0
 11
118.7900469867944
 21
50.42635630036983
 31
0.0
  0
LINE
  5
22E9
330
18
100
AcDbEntity
  8
1
  6
Continuous
100
AcDbLine
 10
100.4419694111913
 20
49.42635625287252
 30
0.0
 11
99.3942575254352
 21
50.42635630037
 31
0.0
  0
ARC
  5
22EA
330
18
100
AcDbEntity
  8
1
  6
Continuous
100
AcDbCircle
 10
108.8950444690484
 20
-71.21878189116035
 30
0.0
 40
120.6451388389735
100
AcDbArc
 50
85.96228333538601
 51
93.37619981335917
  0
ARC
  5
22EB
330
18
100
AcDbEntity
  8
1
  6
Continuous
100
AcDbCircle
 10
108.8911574656112
 20
-71.75817674962861
 30
0.0
 40
120.883665937209
100
AcDbArc
 50
85.96841683754965
 51
93.36768468344299
  0
ARC
  5
22EC
330
18
100
AcDbEntity
  8
1
  6
Continuous
100
AcDbCircle
 10
108.8903944036541
 20
-71.89646000891958
 30
0.0
 40
120.8768137198189
100
AcDbArc
 50
87.10752777240008
 51
92.51854377877235
  0
LINE
  5
22ED
330
18
100
AcDbEntity
  8
1
  6
Continuous
100
AcDbLine
 10
114.8900468016355
 20
48.62635631025225
 30
0.0
 11
102.890046231666
 21
48.62635631025217
 31
0.0
  0
LINE
  5
22EE
330
18
100
AcDbEntity
  8
1
  6
Continuous
100
AcDbLine
 10
101.7900461794189
 20
48.86359297543571
 30
0.0
 11
101.7900461794189
 21
49.21696249056207
 31
0.0
  0
LINE
  5
22EF
330
18
100
AcDbEntity
  8
1
  6
Continuous
100
AcDbLine
 10
103.5787375744214
 20
48.86359297543571
 30
0.0
 11
101.7900461794189
 21
48.86359297543571
 31
0.0
  0
LINE
  5
22F1
330
18
100
AcDbEntity
  8
1
  6
Continuous
100
AcDbLine
 10
102.890046231666
 20
49.42635625287244
 30
0.0
 11
102.890046231666
 21
49.27654374823084
 31
0.0
  0
LINE
  5
22F2
330
18
100
AcDbEntity
  8
1
  6
Continuous
100
AcDbLine
 10
102.890046231666
 20
48.86359297543571
 30
0.0
 11
102.890046231666
 21
48.62635631025217
 31
0.0
  0
LINE
  5
22F3
330
18
100
AcDbEntity
  8
1
  6
Continuous
100
AcDbLine
 10
117.390046920379
 20
48.82635612900656
 30
0.0
 11
117.390046920379
 21
49.12690543841165
 31
0.0
  0
LINE
  5
22F4
330
18
100
AcDbEntity
  8
1
  6
Continuous
100
AcDbLine
 10
117.789946939378
 20
49.42625625287228
 30
0.0
 11
118.7900469868756
 21
50.42635630036986
 31
0.0
  0
LINE
  5
22F9
330
18
100
AcDbEntity
  8
1
  6
Continuous
100
AcDbLine
 10
114.8900468016355
 20
48.62635631025225
 30
0.0
 11
114.8900468016355
 21
48.83135022575928
 31
0.0
  0
LINE
  5
22FA
330
18
100
AcDbEntity
  8
1
  6
Continuous
100
AcDbLine
 10
114.8900468016355
 20
49.27666136158314
 30
0.0
 11
114.8900468016355
 21
49.42635625287241
 31
0.0
  0
LINE
  5
22FB
330
18
100
AcDbEntity
  8
1
  6
Continuous
100
AcDbLine
 10
114.989829671452
 20
48.82635612900656
 30
0.0
 11
117.390046920379
 21
48.82635612900656
 31
0.0
  0
LINE
  5
22FC
330
18
100
AcDbEntity
  8
1
  6
Continuous
100
AcDbLine
 10
98.99010744110029
 20
52.02985996479799
 30
0.0
 11
99.39431641323515
 21
52.02985996479796
 31
0.0
  0
LINE
  5
22FD
330
18
100
AcDbEntity
  8
1
  6
Continuous
100
AcDbLine
 10
99.39425752543526
 20
51.92635639236911
 30
0.0
 11
99.08998162598374
 21
51.92635639236911
 31
0.0
  0
ARC
  5
22FE
330
18
100
AcDbEntity
  8
1
  6
Continuous
100
AcDbCircle
 10
99.0900460511758
 20
52.02635637636581
 30
0.0
 40
0.1000000047497318
100
AcDbArc
 50
177.388470902196
 51
269.9630870846339
  0
LINE
  5
22FF
330
18
100
AcDbEntity
  8
1
  6
Continuous
100
AcDbLine
 10
118.7900469868756
 20
50.42635630036986
 30
0.0
 11
118.7900469868756
 21
54.42635649035988
 31
0.0
  0
LINE
  5
2304
330
18
100
AcDbEntity
  8
1
  6
Continuous
100
AcDbLine
 10
98.99004604642609
 20
54.42635649035995
 30
0.0
 11
98.99004604642609
 21
52.02985996479799
 31
0.0
  0
CIRCLE
  5
2305
330
18
100
AcDbEntity
  8
1
  6
Continuous
100
AcDbCircle
 10
227.5845032391783
 20
111.4929601965804
 30
0.0
 40
6.137507291276383
  0
CIRCLE
  5
2306
330
18
100
AcDbEntity
  8
1
  6
Continuous
100
AcDbCircle
 10
227.5845032391783
 20
111.4929601965804
 30
0.0
 40
6.750000320611411
  0
CIRCLE
  5
2307
330
18
100
AcDbEntity
  8
1
  6
Continuous
100
AcDbCircle
 10
227.5845032391783
 20
111.4929601965804
 30
0.0
 40
9.999993475213782
  0
CIRCLE
  5
2308
330
18
100
AcDbEntity
  8
1
  6
Continuous
100
AcDbCircle
 10
227.5845032391783
 20
111.4929601965804
 30
0.0
 40
9.899934126144724
  0
ARC
  5
244B
330
18
100
AcDbEntity
  8
2
  6
Continuous
100
AcDbCircle
 10
227.5845032391802
 20
111.4929601965833
 30
0.0
 40
11.00000052247196
100
AcDbArc
 50
65.380022671341
 51
114.619977328656
  0
ARC
  5
244C
330
18
100
AcDbEntity
  8
1
  6
Continuous
100
AcDbCircle
 10
227.5845032391802
 20
111.4929601965833
 30
0.0
 40
11.0000005224719
100
AcDbArc
 50
114.6199772712052
 51
155.3800227287924
  0
ARC
  5
244D
330
18
100
AcDbEntity
  8
2
  6
Continuous
100
AcDbCircle
 10
227.5845032391783
 20
111.4929601965834
 30
0.0
 40
10.18800048390211
100
AcDbArc
 50
101.0240759578187
 51
168.9759240421429
  0
ARC
  5
244E
330
18
100
AcDbEntity
  8
1
  6
Continuous
100
AcDbCircle
 10
227.5845032391802
 20
111.4929601965831
 30
0.0
 40
10.1880004839041
100
AcDbArc
 50
78.97326996035353
 51
101.0011625625581
  0
LINE
  5
244F
330
18
100
AcDbEntity
  8
1
  6
Continuous
100
AcDbLine
 10
232.1670791517969
 20
121.4929606715577
 30
0.0
 11
223.0019273265638
 21
121.4929606715577
 31
0.0
  0
ARC
  5
2450
330
18
100
AcDbEntity
  8
1
  6
Continuous
100
AcDbCircle
 10
227.5845032391802
 20
111.4929601965833
 30
0.0
 40
11.0000005224719
100
AcDbArc
 50
24.6199772712075
 51
65.38002272879466
  0
ARC
  5
2451
330
18
100
AcDbEntity
  8
2
  6
Continuous
100
AcDbCircle
 10
227.5845032391823
 20
111.4929601965834
 30
0.0
 40
10.18800048390211
100
AcDbArc
 50
11.02407642068774
 51
78.97592404217967
  0
LINE
  5
2452
330
18
100
AcDbEntity
  8
1
  6
Continuous
100
AcDbLine
 10
237.5845037233447
 20
106.9103843040209
 30
0.0
 11
237.5845036883625
 21
116.0755360991726
 31
0.0
  0
ARC
  5
2453
330
18
100
AcDbEntity
  8
2
  6
Continuous
100
AcDbCircle
 10
227.5845032391802
 20
111.4929601965833
 30
0.0
 40
11.00000052247196
100
AcDbArc
 50
335.3800227862446
 51
24.6199772712075
  0
ARC
  5
2454
330
18
100
AcDbEntity
  8
1
  6
Continuous
100
AcDbCircle
 10
227.5845032391802
 20
111.4929601965833
 30
0.0
 40
10.18800048390404
100
AcDbArc
 50
348.9759240421258
 51
11.02407595787098
  0
ARC
  5
2455
330
18
100
AcDbEntity
  8
2
  6
Continuous
100
AcDbCircle
 10
227.5845032391823
 20
111.4929601965831
 30
0.0
 40
10.18800048390211
100
AcDbArc
 50
281.024075957813
 51
348.9759240166951
  0
ARC
  5
2456
330
18
100
AcDbEntity
  8
1
  6
Continuous
100
AcDbCircle
 10
227.5845032391802
 20
111.4929601965833
 30
0.0
 40
11.00000052247195
100
AcDbArc
 50
294.6199772137553
 51
335.3800227862446
  0
ARC
  5
2457
330
18
100
AcDbEntity
  8
2
  6
Continuous
100
AcDbCircle
 10
227.5845032391802
 20
111.4929601965833
 30
0.0
 40
11.00000052247196
100
AcDbArc
 50
155.3800227287924
 51
204.6199773286554
  0
LINE
  5
2458
330
18
100
AcDbEntity
  8
1
  6
Continuous
100
AcDbLine
 10
217.5845027642058
 20
116.0755360991728
 30
0.0
 11
217.5845027642058
 21
106.9103842839668
 31
0.0
  0
ARC
  5
2459
330
18
100
AcDbEntity
  8
1
  6
Continuous
100
AcDbCircle
 10
227.5845032391805
 20
111.4929601965833
 30
0.0
 40
10.18800048390404
100
AcDbArc
 50
168.975924042129
 51
191.0240759578742
  0
ARC
  5
245A
330
18
100
AcDbEntity
  8
1
  6
Continuous
100
AcDbCircle
 10
227.5845032391802
 20
111.4929601965833
 30
0.0
 40
4.000000189989808
100
AcDbArc
 50
104.1337367207046
 51
255.8662632792953
  0
LINE
  5
245B
330
18
100
AcDbEntity
  8
1
  6
Continuous
100
AcDbLine
 10
224.8220031079681
 20
116.2777507797578
 30
0.0
 11
222.0595029767563
 21
111.4929601965835
 31
0.0
  0
LINE
  5
245C
330
18
100
AcDbEntity
  8
1
  6
Continuous
100
AcDbLine
 10
226.8345032035572
 20
115.9777507655084
 30
0.0
 11
226.8345032035572
 21
112.4929602440806
 31
0.0
  0
ARC
  5
245D
330
18
100
AcDbEntity
  8
1
  6
Continuous
100
AcDbCircle
 10
226.534503189308
 20
115.9777507655084
 30
0.0
 40
0.3000000142492345
100
AcDbArc
 50
0.0
 51
90.0
  0
LINE
  5
245E
330
18
100
AcDbEntity
  8
1
  6
Continuous
100
AcDbLine
 10
230.3470033703919
 20
116.2777507797577
 30
0.0
 11
224.8220031079685
 21
116.2777507797575
 31
0.0
  0
ARC
  5
245F
330
18
100
AcDbEntity
  8
1
  6
Continuous
100
AcDbCircle
 10
226.534503189308
 20
115.6627925255536
 30
0.0
 40
0.3000000142492326
100
AcDbArc
 50
284.1337367207113
 51
356.3242411529894
  0
ARC
  5
2460
330
18
100
AcDbEntity
  8
1
  6
Continuous
100
AcDbCircle
 10
226.534503189308
 20
115.6627925255536
 30
0.0
 40
0.3000000142492335
100
AcDbArc
 50
356.3015267926532
 51
0.0
  0
CIRCLE
  5
2461
330
18
100
AcDbEntity
  8
1
  6
Continuous
100
AcDbCircle
 10
227.5845032391802
 20
111.4929601965833
 30
0.0
 40
6.137500291515642
  0
LINE
  5
2463
330
18
100
AcDbEntity
  8
1
  6
Continuous
100
AcDbLine
 10
233.1095035016037
 20
111.4929601965831
 30
0.0
 11
230.3470033703919
 21
116.2777507797577
 31
0.0
  0
LINE
  5
2464
330
18
100
AcDbEntity
  8
1
  6
Continuous
100
AcDbLine
 10
228.3345032748033
 20
115.9777507655084
 30
0.0
 11
228.3345032748033
 21
112.4929602440806
 31
0.0
  0
ARC
  5
2465
330
18
100
AcDbEntity
  8
1
  6
Continuous
100
AcDbCircle
 10
228.6345032890526
 20
115.9777507655084
 30
0.0
 40
0.3000000142492345
100
AcDbArc
 50
90.0
 51
180.0
  0
ARC
  5
2466
330
18
100
AcDbEntity
  8
1
  6
Continuous
100
AcDbCircle
 10
228.6345032890526
 20
115.6627925255536
 30
0.0
 40
0.3000000142492335
100
AcDbArc
 50
180.0
 51
183.6984732073465
  0
ARC
  5
2467
330
18
100
AcDbEntity
  8
1
  6
Continuous
100
AcDbCircle
 10
228.6345032890526
 20
115.6627925255536
 30
0.0
 40
0.3000000142492326
100
AcDbArc
 50
183.6757588470104
 51
255.8662632792886
  0
LINE
  5
2469
330
18
100
AcDbEntity
  8
1
  6
Continuous
100
AcDbLine
 10
230.3470033703927
 20
106.7081696134088
 30
0.0
 11
233.1095035016043
 21
111.4929601965829
 31
0.0
  0
ARC
  5
246A
330
18
100
AcDbEntity
  8
1
  6
Continuous
100
AcDbCircle
 10
227.5845032391802
 20
111.4929601965833
 30
0.0
 40
4.000000189989808
100
AcDbArc
 50
284.1337367207046
 51
75.86626327929542
  0
LINE
  5
246B
330
18
100
AcDbEntity
  8
1
  6
Continuous
100
AcDbLine
 10
228.3345032748033
 20
110.4929601490857
 30
0.0
 11
228.3345032748033
 21
107.0081696276581
 31
0.0
  0
LINE
  5
246C
330
18
100
AcDbEntity
  8
1
  6
Continuous
100
AcDbLine
 10
226.8345032035572
 20
110.4929601490857
 30
0.0
 11
226.8345032035572
 21
107.0081696276581
 31
0.0
  0
LINE
  5
246D
330
18
100
AcDbEntity
  8
1
  6
Continuous
100
AcDbLine
 10
228.084503262929
 20
112.2929602345813
 30
0.0
 11
228.084503262929
 21
113.4429602892033
 31
0.0
  0
LINE
  5
246E
330
18
100
AcDbEntity
  8
1
  6
Continuous
100
AcDbLine
 10
229.8345033460496
 20
111.6929602061274
 30
0.0
 11
229.8345033460496
 21
111.2929601870731
 31
0.0
  0
LINE
  5
246F
330
18
100
AcDbEntity
  8
1
  6
Continuous
100
AcDbLine
 10
229.5345033318448
 20
110.9929601728345
 30
0.0
 11
228.3845032771782
 21
110.9929601728345
 31
0.0
  0
LINE
  5
2470
330
18
100
AcDbEntity
  8
1
  6
Continuous
100
AcDbLine
 10
228.3845032771782
 20
111.9929602203319
 30
0.0
 11
229.5345033318109
 21
111.9929602203319
 31
0.0
  0
LINE
  5
2471
330
18
100
AcDbEntity
  8
1
  6
Continuous
100
AcDbLine
 10
228.084503262929
 20
109.5429601039632
 30
0.0
 11
228.084503262929
 21
110.6929601585853
 31
0.0
  0
ARC
  5
2472
330
18
100
AcDbEntity
  8
1
  6
Continuous
100
AcDbCircle
 10
229.5345033318004
 20
111.2929601870837
 30
0.0
 40
0.3000000142492365
100
AcDbArc
 50
270.0000000084971
 51
359.9999999979872
  0
ARC
  5
2473
330
18
100
AcDbEntity
  8
1
  6
Continuous
100
AcDbCircle
 10
229.5345033318004
 20
111.6929602060828
 30
0.0
 40
0.300000014249234
100
AcDbArc
 50
0.0000000085249043
 51
89.99999999797747
  0
ARC
  5
2474
330
18
100
AcDbEntity
  8
1
  6
Continuous
100
AcDbCircle
 10
227.7845032486798
 20
109.5429601039632
 30
0.0
 40
0.3000000142492363
100
AcDbArc
 50
270.0
 51
359.9999999999983
  0
ARC
  5
2475
330
18
100
AcDbEntity
  8
1
  6
Continuous
100
AcDbCircle
 10
228.3845032771782
 20
110.6929601585853
 30
0.0
 40
0.3000000142492361
100
AcDbArc
 50
90.0
 51
180.0
  0
ARC
  5
2476
330
18
100
AcDbEntity
  8
1
  6
Continuous
100
AcDbCircle
 10
228.3845032771782
 20
112.2929602345813
 30
0.0
 40
0.3000000142492361
100
AcDbArc
 50
180.0
 51
270.0
  0
LINE
  5
2477
330
18
100
AcDbEntity
  8
1
  6
Continuous
100
AcDbLine
 10
227.7845032486798
 20
113.7429603034525
 30
0.0
 11
227.3845032296808
 21
113.7429603034525
 31
0.0
  0
ARC
  5
2478
330
18
100
AcDbEntity
  8
1
  6
Continuous
100
AcDbCircle
 10
227.7845032486798
 20
113.4429602892033
 30
0.0
 40
0.3000000142492394
100
AcDbArc
 50
0.0
 51
90.0
  0
ARC
  5
2479
330
18
100
AcDbEntity
  8
1
  6
Continuous
100
AcDbCircle
 10
228.8345032985521
 20
110.4929601490857
 30
0.0
 40
0.5000000237487252
100
AcDbArc
 50
90.0
 51
180.0
  0
ARC
  5
247A
330
18
100
AcDbEntity
  8
1
  6
Continuous
100
AcDbCircle
 10
228.8345032985521
 20
112.4929602440806
 30
0.0
 40
0.5000000237487257
100
AcDbArc
 50
180.0
 51
270.0000000759733
  0
LINE
  5
247B
330
18
100
AcDbEntity
  8
1
  6
Continuous
100
AcDbLine
 10
227.0845032154316
 20
113.4429602892033
 30
0.0
 11
227.0845032154316
 21
112.2929602345813
 31
0.0
  0
LINE
  5
247C
330
18
100
AcDbEntity
  8
1
  6
Continuous
100
AcDbLine
 10
225.6345031465603
 20
111.9929602203319
 30
0.0
 11
226.7845032011824
 21
111.9929602203319
 31
0.0
  0
LINE
  5
247D
330
18
100
AcDbEntity
  8
1
  6
Continuous
100
AcDbLine
 10
226.7845032011824
 20
110.9929601728345
 30
0.0
 11
225.6345031465311
 21
110.9929601728345
 31
0.0
  0
LINE
  5
247E
330
18
100
AcDbEntity
  8
1
  6
Continuous
100
AcDbLine
 10
225.334503132311
 20
111.2929601870837
 30
0.0
 11
225.334503132311
 21
111.6929602061218
 31
0.0
  0
LINE
  5
247F
330
18
100
AcDbEntity
  8
1
  6
Continuous
100
AcDbLine
 10
227.0845032154316
 20
110.6929601585853
 30
0.0
 11
227.0845032154316
 21
109.5429601039632
 31
0.0
  0
ARC
  5
2480
330
18
100
AcDbEntity
  8
1
  6
Continuous
100
AcDbCircle
 10
225.6345031465603
 20
111.6929602060828
 30
0.0
 40
0.3000000142492365
100
AcDbArc
 50
90.0
 51
179.999999992522
  0
ARC
  5
2481
330
18
100
AcDbEntity
  8
1
  6
Continuous
100
AcDbCircle
 10
225.6345031465603
 20
111.2929601870837
 30
0.0
 40
0.3000000142492376
100
AcDbArc
 50
180.0
 51
269.9999999944437
  0
ARC
  5
2482
330
18
100
AcDbEntity
  8
1
  6
Continuous
100
AcDbCircle
 10
226.3345031798085
 20
112.4929602440806
 30
0.0
 40
0.5000000237487257
100
AcDbArc
 50
269.9999999240265
 51
0.0
  0
ARC
  5
2483
330
18
100
AcDbEntity
  8
1
  6
Continuous
100
AcDbCircle
 10
226.3345031798085
 20
110.4929601490857
 30
0.0
 40
0.5000000237487252
100
AcDbArc
 50
0.0
 51
90.0
  0
ARC
  5
2484
330
18
100
AcDbEntity
  8
1
  6
Continuous
100
AcDbCircle
 10
226.7845032011824
 20
110.6929601585853
 30
0.0
 40
0.3000000142492361
100
AcDbArc
 50
0.0
 51
90.0
  0
ARC
  5
2485
330
18
100
AcDbEntity
  8
1
  6
Continuous
100
AcDbCircle
 10
227.3845032296808
 20
109.5429601039632
 30
0.0
 40
0.3000000142492394
100
AcDbArc
 50
180.0
 51
270.0
  0
ARC
  5
2486
330
18
100
AcDbEntity
  8
1
  6
Continuous
100
AcDbCircle
 10
226.7845032011824
 20
112.2929602345813
 30
0.0
 40
0.3000000142492361
100
AcDbArc
 50
270.0
 51
0.0
  0
ARC
  5
2487
330
18
100
AcDbEntity
  8
1
  6
Continuous
100
AcDbCircle
 10
227.3845032296808
 20
113.4429602892033
 30
0.0
 40
0.3000000142492363
100
AcDbArc
 50
90.0
 51
179.9999999999983
  0
LINE
  5
2488
330
18
100
AcDbEntity
  8
1
  6
Continuous
100
AcDbLine
 10
227.3845032296808
 20
109.2429600897139
 30
0.0
 11
227.7845032486798
 21
109.2429600897139
 31
0.0
  0
LINE
  5
2489
330
18
100
AcDbEntity
  8
1
  6
Continuous
100
AcDbLine
 10
222.0595029767569
 20
111.4929601965833
 30
0.0
 11
224.8220031079686
 21
106.7081696134089
 31
0.0
  0
LINE
  5
248A
330
18
100
AcDbEntity
  8
1
  6
Continuous
100
AcDbLine
 10
224.8220031079685
 20
106.7081696134088
 30
0.0
 11
230.3470033703927
 21
106.7081696134088
 31
0.0
  0
LINE
  5
24B1
330
18
100
AcDbEntity
  8
4
  6
CENTER
 48
0.2
100
AcDbLine
 10
227.5845032391802
 20
94.49295953161914
 30
0.0
 11
227.5845032391802
 21
128.4929608615475
 31
0.0
  0
LINE
  5
24B2
330
18
100
AcDbEntity
  8
4
  6
CENTER
 48
0.2
100
AcDbLine
 10
208.9960453749859
 20
111.4929601965833
 30
0.0
 11
246.1729612477124
 21
111.4929601965833
 31
0.0
  0
ARC
  5
24B3
330
18
100
AcDbEntity
  8
1
  6
Continuous
100
AcDbCircle
 10
227.5845032391802
 20
111.4929601965834
 30
0.0
 40
10.1880004839041
100
AcDbArc
 50
258.9988374374418
 51
281.0267300396464
  0
LINE
  5
24B4
330
18
100
AcDbEntity
  8
1
  6
Continuous
100
AcDbLine
 10
232.1670791517969
 20
101.4929597216089
 30
0.0
 11
223.0019273265638
 21
101.4929597216088
 31
0.0
  0
ARC
  5
24B5
330
18
100
AcDbEntity
  8
1
  6
Continuous
100
AcDbCircle
 10
227.5845032391802
 20
111.4929601965833
 30
0.0
 40
11.00000052247195
100
AcDbArc
 50
204.6199772137553
 51
245.3800227862446
  0
ARC
  5
24B6
330
18
100
AcDbEntity
  8
2
  6
Continuous
100
AcDbCircle
 10
227.5845032391802
 20
111.4929601965833
 30
0.0
 40
11.00000052247196
100
AcDbArc
 50
245.3800226713438
 51
294.6199773286588
  0
ARC
  5
24B7
330
18
100
AcDbEntity
  8
2
  6
Continuous
100
AcDbCircle
 10
227.5845032391783
 20
111.4929601965831
 30
0.0
 40
10.18800048390211
100
AcDbArc
 50
191.0240759833046
 51
258.9759240421869
  0
ARC
  5
2565
330
18
100
AcDbEntity
  8
1
  6
Continuous
100
AcDbCircle
 10
228.6345032890526
 20
107.0081696276582
 30
0.0
 40
0.3000000142492345
100
AcDbArc
 50
180.0
 51
270.0
  0
ARC
  5
2566
330
18
100
AcDbEntity
  8
1
  6
Continuous
100
AcDbCircle
 10
226.534503189308
 20
107.0081696276582
 30
0.0
 40
0.3000000142492345
100
AcDbArc
 50
270.0
 51
0.0
  0
ARC
  5
2567
330
18
100
AcDbEntity
  8
1
  6
Continuous
100
AcDbCircle
 10
228.6345032890522
 20
107.3231278676133
 30
0.0
 40
0.3000000142492326
100
AcDbArc
 50
104.133736720704
 51
176.3242411529823
  0
ARC
  5
2568
330
18
100
AcDbEntity
  8
1
  6
Continuous
100
AcDbCircle
 10
228.6345032890522
 20
107.3231278676133
 30
0.0
 40
0.3000000142492335
100
AcDbArc
 50
176.3015267926461
 51
179.9999999999928
  0
ARC
  5
2569
330
18
100
AcDbEntity
  8
1
  6
Continuous
100
AcDbCircle
 10
226.5345031893075
 20
107.3231278676135
 30
0.0
 40
0.3000000142492335
100
AcDbArc
 50
359.9999999999929
 51
3.698473207339468
  0
ARC
  5
256A
330
18
100
AcDbEntity
  8
1
  6
Continuous
100
AcDbCircle
 10
226.5345031893075
 20
107.3231278676135
 30
0.0
 40
0.3000000142492326
100
AcDbArc
 50
3.675758847003292
 51
75.86626327928148
  0
LINE
  5
259F
330
18
100
AcDbEntity
  8
2
  6
Continuous
100
AcDbLine
 10
106.4105463860328
 20
178.3594954599214
 30
0.0
 11
106.4105463860328
 21
178.0594958271419
 31
0.0
  0
LINE
  5
25A0
330
18
100
AcDbEntity
  8
2
  6
Continuous
100
AcDbLine
 10
111.3695466472689
 20
178.3594954599214
 30
0.0
 11
111.3695466472689
 21
178.0594958271419
 31
0.0
  0
LINE
  5
25A1
330
18
100
AcDbEntity
  8
2
  6
Continuous
100
AcDbLine
 10
106.4105463860328
 20
44.92635613450132
 30
0.0
 11
106.4105463860328
 21
44.62635650172185
 31
0.0
  0
LINE
  5
25A2
330
18
100
AcDbEntity
  8
2
  6
Continuous
100
AcDbLine
 10
111.3695466472689
 20
44.92635613450132
 30
0.0
 11
111.3695466472689
 21
44.62635650172185
 31
0.0
  0
LINE
  5
25A3
330
18
100
AcDbEntity
  8
2
  6
Continuous
100
AcDbLine
 10
179.4237148398678
 20
109.0134258502034
 30
0.0
 11
179.7237144726473
 21
109.0134258502034
 31
0.0
  0
LINE
  5
25A4
330
18
100
AcDbEntity
  8
2
  6
Continuous
100
AcDbLine
 10
179.7237144726473
 20
113.9724261114394
 30
0.0
 11
179.4237148398678
 21
113.9724261114394
 31
0.0
  0
LINE
  5
25A5
330
18
100
AcDbEntity
  8
2
  6
Continuous
100
AcDbLine
 10
38.0563772255095
 20
109.0134258502034
 30
0.0
 11
38.35637685828896
 21
109.0134258502034
 31
0.0
  0
LINE
  5
25A6
330
18
100
AcDbEntity
  8
2
  6
Continuous
100
AcDbLine
 10
38.35637685828896
 20
113.9724261114394
 30
0.0
 11
38.0563772255095
 21
113.9724261114394
 31
0.0
  0
ENDSEC
  0
SECTION
  2
OBJECTS
  0
DICTIONARY
  5
C
330
0
100
AcDbDictionary
281
     1
  3
ACAD_CIP_PREVIOUS_PRODUCT_INFO
350
266C
  3
ACAD_COLOR
350
264F
  3
ACAD_DETAILVIEWSTYLE
350
2668
  3
ACAD_GROUP
350
D
  3
ACAD_LAYOUT
350
94
  3
ACAD_MATERIAL
350
261D
  3
ACAD_MLEADERSTYLE
350
2664
  3
ACAD_MLINESTYLE
350
1B
  3
ACAD_PLOTSETTINGS
350
95
  3
ACAD_PLOTSTYLENAME
350
261B
  3
ACAD_SCALELIST
350
2652
  3
ACAD_SECTIONVIEWSTYLE
350
2666
  3
ACAD_TABLESTYLE
350
2650
  3
ACAD_VISUALSTYLE
350
2636
  3
ACDB_RECOMPOSE_DATA
350
268A
  3
AcDbVariableDictionary
350
267D
  3
CONTENTDICTIONARY
350
3D
  3
DWGPROPS
350
268B
  0
DICTIONARY
  5
266D
330
E
100
AcDbDictionary
280
     1
281
     1
  3
ADSK_XREC_LAYER_RECONCILED
360
266E
  0
DICTIONARY
  5
266F
330
4E
100
AcDbDictionary
280
     1
281
     1
  3
ADSK_XREC_LAYER_RECONCILED
360
2670
  0
DICTIONARY
  5
2671
330
4F
100
AcDbDictionary
280
     1
281
     1
  3
ADSK_XREC_LAYER_RECONCILED
360
2672
  0
DICTIONARY
  5
2673
330
50
100
AcDbDictionary
280
     1
281
     1
  3
ADSK_XREC_LAYER_RECONCILED
360
2674
  0
DICTIONARY
  5
2675
330
51
100
AcDbDictionary
280
     1
281
     1
  3
ADSK_XREC_LAYER_RECONCILED
360
2676
  0
DICTIONARY
  5
2677
330
52
100
AcDbDictionary
280
     1
281
     1
  3
ADSK_XREC_LAYER_RECONCILED
360
2678
  0
DICTIONARY
  5
2679
330
53
100
AcDbDictionary
280
     1
281
     1
  3
ADSK_XREC_LAYER_RECONCILED
360
267A
  0
DICTIONARY
  5
267B
330
54
100
AcDbDictionary
280
     1
281
     1
  3
ADSK_XREC_LAYER_RECONCILED
360
267C
  0
DICTIONARY
  5
2601
330
18
100
AcDbDictionary
281
     1
  3
ACAD_LAYOUTSELFREF
350
2617
  0
DICTIONARY
  5
25FF
330
15
100
AcDbDictionary
281
     1
  3
ACAD_LAYOUTSELFREF
350
2616
  0
XRECORD
  5
266C
102
{ACAD_REACTORS
330
C
102
}
330
C
100
AcDbXrecord
280
     1
300
ACDLT
300
2014
300
ACDLT_F_S
  0
DICTIONARY
  5
264F
102
{ACAD_REACTORS
330
C
102
}
330
C
100
AcDbDictionary
281
     1
  0
DICTIONARY
  5
2668
102
{ACAD_REACTORS
330
C
102
}
330
C
100
AcDbDictionary
281
     1
  3
Imperial24
350
2669
  0
DICTIONARY
  5
D
102
{ACAD_REACTORS
330
C
102
}
330
C
100
AcDbDictionary
281
     1
  0
DICTIONARY
  5
94
102
{ACAD_REACTORS
330
C
102
}
330
C
100
AcDbDictionary
281
     1
  3
Model
350
266A
  3
レイアウト1
350
266B
  0
DICTIONARY
  5
261D
102
{ACAD_REACTORS
330
C
102
}
330
C
100
AcDbDictionary
281
     1
  3
ByBlock
350
2626
  3
ByLayer
350
261E
  3
Global
350
262E
  0
DICTIONARY
  5
2664
102
{ACAD_REACTORS
330
C
102
}
330
C
100
AcDbDictionary
281
     1
  3
Standard
350
2665
  0
DICTIONARY
  5
1B
102
{ACAD_REACTORS
330
C
102
}
330
C
100
AcDbDictionary
281
     1
  3
STANDARD
350
1C
  0
DICTIONARY
  5
95
102
{ACAD_REACTORS
330
C
102
}
330
C
100
AcDbDictionary
281
     1
  0
ACDBDICTIONARYWDFLT
  5
261B
102
{ACAD_REACTORS
330
C
102
}
330
C
100
AcDbDictionary
281
     1
  3
Normal
350
261C
100
AcDbDictionaryWithDefault
340
261C
  0
DICTIONARY
  5
2652
102
{ACAD_REACTORS
330
C
102
}
330
C
100
AcDbDictionary
281
     1
  3
A0
350
2653
  3
A1
350
2654
  3
A2
350
2655
  3
A3
350
2656
  3
A4
350
2657
  3
A5
350
2658
  3
A6
350
2659
  3
A7
350
265A
  3
A8
350
265B
  3
A9
350
265C
  3
B0
350
265D
  3
B1
350
265E
  3
B2
350
265F
  3
B3
350
2660
  3
B4
350
2661
  3
B5
350
2662
  3
B6
350
2663
  0
DICTIONARY
  5
2666
102
{ACAD_REACTORS
330
C
102
}
330
C
100
AcDbDictionary
281
     1
  3
Imperial24
350
2667
  0
DICTIONARY
  5
2650
102
{ACAD_REACTORS
330
C
102
}
330
C
100
AcDbDictionary
281
     1
  3
Standard
350
2651
  0
DICTIONARY
  5
2636
102
{ACAD_REACTORS
330
C
102
}
330
C
100
AcDbDictionary
281
     1
  3
2dWireframe
350
263C
  3
Basic
350
263B
  3
Brighten
350
2642
  3
ColorChange
350
2646
  3
Conceptual
350
263F
  3
Dim
350
2641
  3
EdgeColorOff
350
264E
  3
Facepattern
350
2645
  3
Flat
350
2637
  3
FlatWithEdges
350
2638
  3
Gouraud
350
2639
  3
GouraudWithEdges
350
263A
  3
Hidden
350
263E
  3
JitterOff
350
264C
  3
Linepattern
350
2644
  3
OverhangOff
350
264D
  3
Realistic
350
2640
  3
Shaded
350
264B
  3
Shaded with edges
350
264A
  3
Shades of Gray
350
2647
  3
Sketchy
350
2648
  3
Thicken
350
2643
  3
Wireframe
350
263D
  3
X-Ray
350
2649
  0
XRECORD
  5
268A
102
{ACAD_REACTORS
330
C
102
}
330
C
100
AcDbXrecord
280
     1
 90
        1
330
2651
  0
DICTIONARY
  5
267D
102
{ACAD_REACTORS
330
C
102
}
330
C
100
AcDbDictionary
281
     1
  3
CANNOSCALE
350
2682
  3
CMLEADERSTYLE
350
267F
  3
CTABLESTYLE
350
267E
  3
CVIEWDETAILSTYLE
350
2680
  3
CVIEWSECTIONSTYLE
350
2681
  3
DIMASSOC
350
2685
  3
INDEXCTL
350
2684
  3
SORTENTS
350
2683
  3
XCLIPFRAME
350
2686
  0
DICTIONARY
  5
3D
102
{ACAD_REACTORS
330
C
102
}
330
C
100
AcDbDictionary
281
     1
  0
XRECORD
  5
268B
102
{ACAD_REACTORS
330
C
102
}
330
C
100
AcDbXrecord
280
     1
  1
DWGPROPS COOKIE
  2

  3

  4

  6

  7

  8
Yoshitsune
  9

300
=
301
=
302
=
303
=
304
=
305
=
306
=
307
=
308
=
309
=
 40
0.0519091550925926
 41
2453760.40848397
 42
2457192.70130088
  1

 90
        0
  0
XRECORD
  5
266E
102
{ACAD_REACTORS
330
266D
102
}
330
266D
100
AcDbXrecord
280
     1
290
     1
  0
XRECORD
  5
2670
102
{ACAD_REACTORS
330
266F
102
}
330
266F
100
AcDbXrecord
280
     1
290
     1
  0
XRECORD
  5
2672
102
{ACAD_REACTORS
330
2671
102
}
330
2671
100
AcDbXrecord
280
     1
290
     1
  0
XRECORD
  5
2674
102
{ACAD_REACTORS
330
2673
102
}
330
2673
100
AcDbXrecord
280
     1
290
     1
  0
XRECORD
  5
2676
102
{ACAD_REACTORS
330
2675
102
}
330
2675
100
AcDbXrecord
280
     1
290
     1
  0
XRECORD
  5
2678
102
{ACAD_REACTORS
330
2677
102
}
330
2677
100
AcDbXrecord
280
     1
290
     1
  0
XRECORD
  5
267A
102
{ACAD_REACTORS
330
2679
102
}
330
2679
100
AcDbXrecord
280
     1
290
     1
  0
XRECORD
  5
267C
102
{ACAD_REACTORS
330
267B
102
}
330
267B
100
AcDbXrecord
280
     1
290
     1
  0
XRECORD
  5
2617
102
{ACAD_REACTORS
330
2601
102
}
330
2601
100
AcDbXrecord
280
     1
340
18
  0
XRECORD
  5
2616
102
{ACAD_REACTORS
330
25FF
102
}
330
25FF
100
AcDbXrecord
280
     1
340
15
  0
ACDBDETAILVIEWSTYLE
  5
2669
102
{ACAD_XDICTIONARY
360
26C3
102
}
102
{ACAD_REACTORS
330
2668
102
}
330
2668
100
AcDbModelDocViewStyle
 70
     0
  3
Imperial24
290
     0
100
AcDbDetailViewStyle
 70
     0
 71
     0
 90
        3
 71
     1
340
F
 40
0.24
340
0
 40
0.24
300

 40
0.36
280
     3
 71
     2
340
14
 90
       25
 71
     3
340
F
 40
0.24
 90
        1
 40
0.75
 90
        1
300
%<\AcVar ViewType \f "%tc1">% %<\AcVar ViewDetailId>%\PSCALE %<\AcVar ViewScale \f "%sn">%
 71
     4
340
14
 90
       25
340
14
 90
       25
280
     0
  0
LAYOUT
  5
266A
102
{ACAD_XDICTIONARY
360
26C5
102
}
102
{ACAD_REACTORS
330
94
102
}
330
94
100
AcDbPlotSettings
  1

  2
Canon LBP9100C
  4

  6

 40
0.0
 41
0.0
 42
0.0
 43
0.0
 44
0.0
 45
0.0
 46
0.0
 47
0.0
 48
0.0
 49
0.0
140
0.0
141
0.0
142
1.0
143
1.0
 70
  1712
 72
     0
 73
     0
 74
     0
  7

 75
     0
147
1.0
148
0.0
149
0.0
100
AcDbLayout
  1
Model
 70
     1
 71
     0
 10
0.0
 20
0.0
 11
12.0
 21
9.0
 12
0.0
 22
0.0
 32
0.0
 14
0.0
 24
0.0
 34
0.0
 15
0.0
 25
0.0
 35
0.0
146
0.0
 13
0.0
 23
0.0
 33
0.0
 16
1.0
 26
0.0
 36
0.0
 17
0.0
 27
1.0
 37
0.0
 76
     0
330
18
331
2615
  0
LAYOUT
  5
266B
102
{ACAD_XDICTIONARY
360
26C7
102
}
102
{ACAD_REACTORS
330
94
102
}
330
94
100
AcDbPlotSettings
  1

  2
Canon LBP9100C
  4

  6

 40
0.0
 41
0.0
 42
0.0
 43
0.0
 44
0.0
 45
0.0
 46
0.0
 47
0.0
 48
0.0
 49
0.0
140
0.0
141
0.0
142
1.0
143
1.0
 70
   688
 72
     0
 73
     0
 74
     5
  7

 75
    16
147
1.0
148
0.0
149
0.0
100
AcDbLayout
  1
レイアウト1
 70
     1
 71
     1
 10
-3.757080078125
 20
-3.757083177566528
 11
293.2112426757811
 21
206.2162444591522
 12
0.0
 22
0.0
 32
0.0
 14
27.8447512626648
 24
20.24591643810271
 34
0.0
 15
250.602761363983
 25
182.2132479429244
 35
0.0
146
0.0
 13
0.0
 23
0.0
 33
0.0
 16
1.0
 26
0.0
 36
0.0
 17
0.0
 27
1.0
 37
0.0
 76
     0
330
15
  0
MATERIAL
  5
2626
102
{ACAD_XDICTIONARY
360
2627
102
}
102
{ACAD_REACTORS
330
261D
102
}
330
261D
100
AcDbMaterial
  1
ByBlock
 72
     0
 43
0.0208333333333333
 43
0.0
 43
0.0
 43
0.0
 43
0.0
 43
0.0208333333333333
 43
0.0
 43
0.0
 43
0.0
 43
0.0
 43
1.0
 43
0.0
 43
0.0
 43
0.0
 43
0.0
 43
1.0
 77
     0
 47
0.0208333333333333
 47
0.0
 47
0.0
 47
0.0
 47
0.0
 47
0.0208333333333333
 47
0.0
 47
0.0
 47
0.0
 47
0.0
 47
1.0
 47
0.0
 47
0.0
 47
0.0
 47
0.0
 47
1.0
171
     0
 49
0.0208333333333333
 49
0.0
 49
0.0
 49
0.0
 49
0.0
 49
0.0208333333333333
 49
0.0
 49
0.0
 49
0.0
 49
0.0
 49
1.0
 49
0.0
 49
0.0
 49
0.0
 49
0.0
 49
1.0
175
     0
142
0.0208333333333333
142
0.0
142
0.0
142
0.0
142
0.0
142
0.0208333333333333
142
0.0
142
0.0
142
0.0
142
0.0
142
1.0
142
0.0
142
0.0
142
0.0
142
0.0
142
1.0
179
     0
144
0.0208333333333333
144
0.0
144
0.0
144
0.0
144
0.0
144
0.0208333333333333
144
0.0
144
0.0
144
0.0
144
0.0
144
1.0
144
0.0
144
0.0
144
0.0
144
0.0
144
1.0
147
0.0208333333333333
147
0.0
147
0.0
147
0.0
147
0.0
147
0.0208333333333333
147
0.0
147
0.0
147
0.0
147
0.0
147
1.0
147
0.0
147
0.0
147
0.0
147
0.0
147
1.0
  0
MATERIAL
  5
261E
102
{ACAD_XDICTIONARY
360
261F
102
}
102
{ACAD_REACTORS
330
261D
102
}
330
261D
100
AcDbMaterial
  1
ByLayer
 72
     0
 43
0.0208333333333333
 43
0.0
 43
0.0
 43
0.0
 43
0.0
 43
0.0208333333333333
 43
0.0
 43
0.0
 43
0.0
 43
0.0
 43
1.0
 43
0.0
 43
0.0
 43
0.0
 43
0.0
 43
1.0
 77
     0
 47
0.0208333333333333
 47
0.0
 47
0.0
 47
0.0
 47
0.0
 47
0.0208333333333333
 47
0.0
 47
0.0
 47
0.0
 47
0.0
 47
1.0
 47
0.0
 47
0.0
 47
0.0
 47
0.0
 47
1.0
171
     0
 49
0.0208333333333333
 49
0.0
 49
0.0
 49
0.0
 49
0.0
 49
0.0208333333333333
 49
0.0
 49
0.0
 49
0.0
 49
0.0
 49
1.0
 49
0.0
 49
0.0
 49
0.0
 49
0.0
 49
1.0
175
     0
142
0.0208333333333333
142
0.0
142
0.0
142
0.0
142
0.0
142
0.0208333333333333
142
0.0
142
0.0
142
0.0
142
0.0
142
1.0
142
0.0
142
0.0
142
0.0
142
0.0
142
1.0
179
     0
144
0.0208333333333333
144
0.0
144
0.0
144
0.0
144
0.0
144
0.0208333333333333
144
0.0
144
0.0
144
0.0
144
0.0
144
1.0
144
0.0
144
0.0
144
0.0
144
0.0
144
1.0
147
0.0208333333333333
147
0.0
147
0.0
147
0.0
147
0.0
147
0.0208333333333333
147
0.0
147
0.0
147
0.0
147
0.0
147
1.0
147
0.0
147
0.0
147
0.0
147
0.0
147
1.0
  0
MATERIAL
  5
262E
102
{ACAD_XDICTIONARY
360
262F
102
}
102
{ACAD_REACTORS
330
261D
102
}
330
261D
100
AcDbMaterial
  1
Global
 72
     0
 43
0.0208333333333333
 43
0.0
 43
0.0
 43
0.0
 43
0.0
 43
0.0208333333333333
 43
0.0
 43
0.0
 43
0.0
 43
0.0
 43
1.0
 43
0.0
 43
0.0
 43
0.0
 43
0.0
 43
1.0
 77
     0
 47
0.0208333333333333
 47
0.0
 47
0.0
 47
0.0
 47
0.0
 47
0.0208333333333333
 47
0.0
 47
0.0
 47
0.0
 47
0.0
 47
1.0
 47
0.0
 47
0.0
 47
0.0
 47
0.0
 47
1.0
171
     0
 49
0.0208333333333333
 49
0.0
 49
0.0
 49
0.0
 49
0.0
 49
0.0208333333333333
 49
0.0
 49
0.0
 49
0.0
 49
0.0
 49
1.0
 49
0.0
 49
0.0
 49
0.0
 49
0.0
 49
1.0
175
     0
142
0.0208333333333333
142
0.0
142
0.0
142
0.0
142
0.0
142
0.0208333333333333
142
0.0
142
0.0
142
0.0
142
0.0
142
1.0
142
0.0
142
0.0
142
0.0
142
0.0
142
1.0
179
     0
144
0.0208333333333333
144
0.0
144
0.0
144
0.0
144
0.0
144
0.0208333333333333
144
0.0
144
0.0
144
0.0
144
0.0
144
1.0
144
0.0
144
0.0
144
0.0
144
0.0
144
1.0
147
0.0208333333333333
147
0.0
147
0.0
147
0.0
147
0.0
147
0.0208333333333333
147
0.0
147
0.0
147
0.0
147
0.0
147
1.0
147
0.0
147
0.0
147
0.0
147
0.0
147
1.0
  0
MLEADERSTYLE
  5
2665
102
{ACAD_REACTORS
330
2664
102
}
330
2664
100
AcDbMLeaderStyle
170
     2
171
     1
172
     0
 90
        2
 40
0.0
 41
0.0
173
     1
 91
-1056964608
340
12
 92
       -2
290
     1
 42
0.09
291
     1
 43
0.36
  3
Standard
 44
0.18
300

342
F
174
     1
178
     6
175
     1
176
     0
 93
-1056964608
 45
0.18
292
     0
297
     0
 46
0.18
 94
-1056964608
 47
1.0
 49
1.0
140
1.0
293
     1
141
0.0
294
     1
177
     0
142
1.0
295
     0
296
     0
143
0.125
1001
ACAD_MLEADERVER
1070
     2
  0
MLINESTYLE
  5
1C
102
{ACAD_REACTORS
330
1B
102
}
330
1B
100
AcDbMlineStyle
  2
STANDARD
 70
     0
  3

 62
   256
 51
90.0
 52
90.0
 71
     2
 49
0.5
 62
   256
  6
BYLAYER
 49
-0.5
 62
   256
  6
BYLAYER
  0
ACDBPLACEHOLDER
  5
261C
102
{ACAD_REACTORS
330
261B
102
}
330
261B
  0
SCALE
  5
2653
102
{ACAD_REACTORS
330
2652
102
}
330
2652
100
AcDbScale
 70
     0
300
1:1
140
1.0
141
1.0
290
     1
  0
SCALE
  5
2654
102
{ACAD_REACTORS
330
2652
102
}
330
2652
100
AcDbScale
 70
     0
300
1/128" = 1'-0"
140
0.0078125
141
12.0
290
     0
  0
SCALE
  5
2655
102
{ACAD_REACTORS
330
2652
102
}
330
2652
100
AcDbScale
 70
     0
300
1/64" = 1'-0"
140
0.015625
141
12.0
290
     0
  0
SCALE
  5
2656
102
{ACAD_REACTORS
330
2652
102
}
330
2652
100
AcDbScale
 70
     0
300
1/32" = 1'-0"
140
0.03125
141
12.0
290
     0
  0
SCALE
  5
2657
102
{ACAD_REACTORS
330
2652
102
}
330
2652
100
AcDbScale
 70
     0
300
1/16" = 1'-0"
140
0.0625
141
12.0
290
     0
  0
SCALE
  5
2658
102
{ACAD_REACTORS
330
2652
102
}
330
2652
100
AcDbScale
 70
     0
300
3/32" = 1'-0"
140
0.09375
141
12.0
290
     0
  0
SCALE
  5
2659
102
{ACAD_REACTORS
330
2652
102
}
330
2652
100
AcDbScale
 70
     0
300
1/8" = 1'-0"
140
0.125
141
12.0
290
     0
  0
SCALE
  5
265A
102
{ACAD_REACTORS
330
2652
102
}
330
2652
100
AcDbScale
 70
     0
300
3/16" = 1'-0"
140
0.1875
141
12.0
290
     0
  0
SCALE
  5
265B
102
{ACAD_REACTORS
330
2652
102
}
330
2652
100
AcDbScale
 70
     0
300
1/4" = 1'-0"
140
0.25
141
12.0
290
     0
  0
SCALE
  5
265C
102
{ACAD_REACTORS
330
2652
102
}
330
2652
100
AcDbScale
 70
     0
300
3/8" = 1'-0"
140
0.375
141
12.0
290
     0
  0
SCALE
  5
265D
102
{ACAD_REACTORS
330
2652
102
}
330
2652
100
AcDbScale
 70
     0
300
1/2" = 1'-0"
140
0.5
141
12.0
290
     0
  0
SCALE
  5
265E
102
{ACAD_REACTORS
330
2652
102
}
330
2652
100
AcDbScale
 70
     0
300
3/4" = 1'-0"
140
0.75
141
12.0
290
     0
  0
SCALE
  5
265F
102
{ACAD_REACTORS
330
2652
102
}
330
2652
100
AcDbScale
 70
     0
300
1" = 1'-0"
140
1.0
141
12.0
290
     0
  0
SCALE
  5
2660
102
{ACAD_REACTORS
330
2652
102
}
330
2652
100
AcDbScale
 70
     0
300
1-1/2" = 1'-0"
140
1.5
141
12.0
290
     0
  0
SCALE
  5
2661
102
{ACAD_REACTORS
330
2652
102
}
330
2652
100
AcDbScale
 70
     0
300
3" = 1'-0"
140
3.0
141
12.0
290
     0
  0
SCALE
  5
2662
102
{ACAD_REACTORS
330
2652
102
}
330
2652
100
AcDbScale
 70
     0
300
6" = 1'-0"
140
6.0
141
12.0
290
     0
  0
SCALE
  5
2663
102
{ACAD_REACTORS
330
2652
102
}
330
2652
100
AcDbScale
 70
     0
300
1'-0" = 1'-0"
140
12.0
141
12.0
290
     0
  0
ACDBSECTIONVIEWSTYLE
  5
2667
102
{ACAD_XDICTIONARY
360
26C1
102
}
102
{ACAD_REACTORS
330
2666
102
}
330
2666
100
AcDbModelDocViewStyle
 70
     0
  3
Imperial24
290
     0
100
AcDbSectionViewStyle
 70
     0
 71
     0
 90
       78
 71
     1
340
F
 40
0.24
340
0
340
0
 40
0.24
300
I, O, Q, S, X, Z
 40
0.48
 90
        3
 40
0.18
 90
        1
 71
     2
340
14
 90
       25
340
14
 90
       50
 40
0.24
 40
0.0
 40
0.24
 71
     3
340
F
 40
0.24
 90
        1
 40
0.75
 90
        1
300
%<\AcVar ViewType \f "%tc1">% %<\AcVar ViewSectionStartId>%-%<\AcVar ViewSectionEndId>%\PSCALE %<\AcVar ViewScale \f "%sn">%
 71
     4
300
ANSI31
 40
1.0
 90
        0
290
     0
290
     0
 90
        6
 40
0.0
 40
1.570796326794896
 40
0.2617993877991494
 40
1.308996938995747
 40
-0.2617993877991494
 40
1.832595714594046
  0
TABLESTYLE
  5
2651
102
{ACAD_XDICTIONARY
360
2688
102
}
102
{ACAD_REACTORS
330
2650
102
}
330
2650
100
AcDbTableStyle
  3
Standard
 70
     0
 71
     0
 40
0.06
 41
0.06
280
     0
281
     0
  7
STANDARD
140
0.18
170
     2
 62
     0
 63
     7
283
     0
274
    -2
284
     1
 64
     0
275
    -2
285
     1
 65
     0
276
    -2
286
     1
 66
     0
277
    -2
287
     1
 67
     0
278
    -2
288
     1
 68
     0
279
    -2
289
     1
 69
     0
  7
STANDARD
140
0.25
170
     5
 62
     0
 63
     7
283
     0
274
    -2
284
     1
 64
     0
275
    -2
285
     1
 65
     0
276
    -2
286
     1
 66
     0
277
    -2
287
     1
 67
     0
278
    -2
288
     1
 68
     0
279
    -2
289
     1
 69
     0
  7
STANDARD
140
0.18
170
     5
 62
     0
 63
     7
283
     0
274
    -2
284
     1
 64
     0
275
    -2
285
     1
 65
     0
276
    -2
286
     1
 66
     0
277
    -2
287
     1
 67
     0
278
    -2
288
     1
 68
     0
279
    -2
289
     1
 69
     0
  0
VISUALSTYLE
  5
263C
102
{ACAD_XDICTIONARY
360
2699
102
}
102
{ACAD_REACTORS
330
2636
102
}
330
2636
100
AcDbVisualStyle
  2
2dWireframe
 70
     4
 71
     0
 72
     2
 73
     0
 90
        0
 40
-0.6
 41
-30.0
 62
     5
 63
     7
 74
     1
 91
        4
 64
     7
 65
   257
 75
     1
175
     1
 42
1.0
 92
        0
 66
   257
 43
1.0
 76
     1
 77
     6
 78
     2
 67
     7
 79
     5
170
     0
171
     0
290
     0
174
     0
 93
        1
 44
0.0
173
     0
291
     0
 45
0.0
1001
ACAD
1000
AcDbSavedByObjectVersion
1070
     0
  0
VISUALSTYLE
  5
263B
102
{ACAD_XDICTIONARY
360
2697
102
}
102
{ACAD_REACTORS
330
2636
102
}
330
2636
100
AcDbVisualStyle
  2
Basic
 70
     7
 71
     1
 72
     0
 73
     1
 90
        0
 40
-0.6
 41
-30.0
 62
     5
 63
     7
 74
     0
 91
        4
 64
     7
 65
   257
 75
     1
175
     1
 42
1.0
 92
        8
 66
     7
 43
1.0
 76
     1
 77
     6
 78
     2
 67
     7
 79
     5
170
     0
171
     0
290
     0
174
     0
 93
        1
 44
0.0
173
     0
291
     1
 45
0.0
1001
ACAD
1000
AcDbSavedByObjectVersion
1070
     0
  0
VISUALSTYLE
  5
2642
102
{ACAD_XDICTIONARY
360
26A5
102
}
102
{ACAD_REACTORS
330
2636
102
}
330
2636
100
AcDbVisualStyle
  2
Brighten
 70
    12
 71
     2
 72
     2
 73
     0
 90
        0
 40
-0.6
 41
-30.0
 62
     5
 63
     7
 74
     1
 91
        4
 64
     7
 65
   257
 75
     1
175
     1
 42
1.0
 92
        8
 66
     7
 43
1.0
 76
     1
 77
     6
 78
     2
 67
     7
 79
     5
170
     0
171
     0
290
     0
174
     0
 93
        1
 44
50.0
173
     0
291
     1
 45
0.0
1001
ACAD
1000
AcDbSavedByObjectVersion
1070
     0
  0
VISUALSTYLE
  5
2646
102
{ACAD_XDICTIONARY
360
26AD
102
}
102
{ACAD_REACTORS
330
2636
102
}
330
2636
100
AcDbVisualStyle
  2
ColorChange
 70
    16
 71
     2
 72
     2
 73
     3
 90
        0
 40
-0.6
 41
-30.0
 62
     5
 63
     8
 74
     1
 91
        4
 64
     7
 65
   257
 75
     1
175
     1
 42
1.0
 92
        8
 66
     8
 43
1.0
 76
     1
 77
     6
 78
     2
 67
     7
 79
     5
170
     0
171
     0
290
     0
174
     0
 93
        1
 44
0.0
173
     0
291
     1
 45
0.0
1001
ACAD
1000
AcDbSavedByObjectVersion
1070
     0
  0
VISUALSTYLE
  5
263F
102
{ACAD_XDICTIONARY
360
269F
102
}
102
{ACAD_REACTORS
330
2636
102
}
330
2636
100
AcDbVisualStyle
  2
Conceptual
 70
     9
 71
     3
 72
     2
 73
     0
 90
        0
 40
-0.6
 41
-30.0
 62
     5
 63
     7
 74
     2
 91
        2
 64
     7
 65
   257
 75
     1
175
     1
 42
179.0
 92
        8
 66
     7
 43
1.0
 76
     1
 77
     6
 78
     2
 67
     7
 79
     3
170
     0
171
     0
290
     0
174
     0
 93
        1
 44
0.0
173
     0
291
     0
 45
0.0
1001
ACAD
1000
AcDbSavedByObjectVersion
1070
     0
  0
VISUALSTYLE
  5
2641
102
{ACAD_XDICTIONARY
360
26A3
102
}
102
{ACAD_REACTORS
330
2636
102
}
330
2636
100
AcDbVisualStyle
  2
Dim
 70
    11
 71
     2
 72
     2
 73
     0
 90
        0
 40
-0.6
 41
-30.0
 62
     5
 63
     7
 74
     1
 91
        4
 64
     7
 65
   257
 75
     1
175
     1
 42
1.0
 92
        8
 66
     7
 43
1.0
 76
     1
 77
     6
 78
     2
 67
     7
 79
     5
170
     0
171
     0
290
     0
174
     0
 93
        1
 44
-50.0
173
     0
291
     1
 45
0.0
1001
ACAD
1000
AcDbSavedByObjectVersion
1070
     0
  0
VISUALSTYLE
  5
264E
102
{ACAD_XDICTIONARY
360
26BD
102
}
102
{ACAD_REACTORS
330
2636
102
}
330
2636
100
AcDbVisualStyle
  2
EdgeColorOff
 70
    22
 71
     2
 72
     2
 73
     0
 90
        0
 40
-0.6
 41
-30.0
 62
     5
 63
     7
 74
     1
 91
        4
 64
     7
 65
   257
 75
     1
175
     1
 42
1.0
 92
        8
 66
     7
 43
1.0
 76
     1
 77
     6
 78
     2
 67
     7
 79
     5
170
     0
171
     0
290
     0
174
     0
 93
        1
 44
0.0
173
     0
291
     1
 45
0.0
1001
ACAD
1000
AcDbSavedByObjectVersion
1070
     0
  0
VISUALSTYLE
  5
2645
102
{ACAD_XDICTIONARY
360
26AB
102
}
102
{ACAD_REACTORS
330
2636
102
}
330
2636
100
AcDbVisualStyle
  2
Facepattern
 70
    15
 71
     2
 72
     2
 73
     0
 90
        0
 40
-0.6
 41
-30.0
 62
     5
 63
     7
 74
     1
 91
        4
 64
     7
 65
   257
 75
     1
175
     1
 42
1.0
 92
        8
 66
     7
 43
1.0
 76
     1
 77
     6
 78
     2
 67
     7
 79
     5
170
     0
171
     0
290
     0
174
     0
 93
        1
 44
0.0
173
     0
291
     1
 45
0.0
1001
ACAD
1000
AcDbSavedByObjectVersion
1070
     0
  0
VISUALSTYLE
  5
2637
102
{ACAD_XDICTIONARY
360
268F
102
}
102
{ACAD_REACTORS
330
2636
102
}
330
2636
100
AcDbVisualStyle
  2
Flat
 70
     0
 71
     2
 72
     1
 73
     1
 90
        2
 40
-0.6
 41
30.0
 62
     5
 63
     7
 74
     0
 91
        0
 64
     7
 65
   257
 75
     1
175
     1
 42
1.0
 92
        8
 66
     7
 43
1.0
 76
     1
 77
     6
 78
     2
 67
     7
 79
     5
170
     0
171
     0
290
     0
174
     0
 93
       13
 44
0.0
173
     0
291
     1
 45
0.0
1001
ACAD
1000
AcDbSavedByObjectVersion
1070
     0
  0
VISUALSTYLE
  5
2638
102
{ACAD_XDICTIONARY
360
2691
102
}
102
{ACAD_REACTORS
330
2636
102
}
330
2636
100
AcDbVisualStyle
  2
FlatWithEdges
 70
     1
 71
     2
 72
     1
 73
     1
 90
        2
 40
-0.6
 41
30.0
 62
     5
 63
     7
 74
     1
 91
        0
 64
     7
 65
   257
 75
     1
175
     1
 42
1.0
 92
        0
 66
   257
 43
1.0
 76
     1
 77
     6
 78
     2
 67
     7
 79
     5
170
     0
171
     0
290
     0
174
     0
 93
       13
 44
0.0
173
     0
291
     1
 45
0.0
1001
ACAD
1000
AcDbSavedByObjectVersion
1070
     0
  0
VISUALSTYLE
  5
2639
102
{ACAD_XDICTIONARY
360
2693
102
}
102
{ACAD_REACTORS
330
2636
102
}
330
2636
100
AcDbVisualStyle
  2
Gouraud
 70
     2
 71
     2
 72
     2
 73
     1
 90
        2
 40
-0.6
 41
30.0
 62
     5
 63
     7
 74
     0
 91
        0
 64
     7
 65
   257
 75
     1
175
     1
 42
1.0
 92
        0
 66
     7
 43
1.0
 76
     1
 77
     6
 78
     2
 67
     7
 79
     5
170
     0
171
     0
290
     0
174
     0
 93
       13
 44
0.0
173
     0
291
     1
 45
0.0
1001
ACAD
1000
AcDbSavedByObjectVersion
1070
     0
  0
VISUALSTYLE
  5
263A
102
{ACAD_XDICTIONARY
360
2695
102
}
102
{ACAD_REACTORS
330
2636
102
}
330
2636
100
AcDbVisualStyle
  2
GouraudWithEdges
 70
     3
 71
     2
 72
     2
 73
     1
 90
        2
 40
-0.6
 41
30.0
 62
     5
 63
     7
 74
     1
 91
        0
 64
     7
 65
   257
 75
     1
175
     1
 42
1.0
 92
        0
 66
   257
 43
1.0
 76
     1
 77
     6
 78
     2
 67
     7
 79
     5
170
     0
171
     0
290
     0
174
     0
 93
       13
 44
0.0
173
     0
291
     1
 45
0.0
1001
ACAD
1000
AcDbSavedByObjectVersion
1070
     0
  0
VISUALSTYLE
  5
263E
102
{ACAD_XDICTIONARY
360
269D
102
}
102
{ACAD_REACTORS
330
2636
102
}
330
2636
100
AcDbVisualStyle
  2
Hidden
 70
     6
 71
     1
 72
     2
 73
     2
 90
        0
 40
-0.6
 41
-30.0
 62
     5
 63
     7
 74
     2
 91
        2
 64
     7
 65
   257
 75
     2
175
     1
 42
40.0
 92
        0
 66
   257
 43
1.0
 76
     1
 77
     6
 78
     2
 67
     7
 79
     3
170
     0
171
     0
290
     0
174
     0
 93
        1
 44
0.0
173
     0
291
     0
 45
0.0
1001
ACAD
1000
AcDbSavedByObjectVersion
1070
     0
  0
VISUALSTYLE
  5
264C
102
{ACAD_XDICTIONARY
360
26B9
102
}
102
{ACAD_REACTORS
330
2636
102
}
330
2636
100
AcDbVisualStyle
  2
JitterOff
 70
    20
 71
     2
 72
     2
 73
     0
 90
        0
 40
-0.6
 41
-30.0
 62
     5
 63
     7
 74
     1
 91
        4
 64
     7
 65
   257
 75
     1
175
     1
 42
1.0
 92
       10
 66
     7
 43
1.0
 76
     1
 77
     6
 78
     2
 67
     7
 79
     5
170
     0
171
     0
290
     0
174
     0
 93
        1
 44
0.0
173
     0
291
     1
 45
0.0
1001
ACAD
1000
AcDbSavedByObjectVersion
1070
     0
  0
VISUALSTYLE
  5
2644
102
{ACAD_XDICTIONARY
360
26A9
102
}
102
{ACAD_REACTORS
330
2636
102
}
330
2636
100
AcDbVisualStyle
  2
Linepattern
 70
    14
 71
     2
 72
     2
 73
     0
 90
        0
 40
-0.6
 41
-30.0
 62
     5
 63
     7
 74
     1
 91
        4
 64
     7
 65
   257
 75
     7
175
     7
 42
1.0
 92
        8
 66
     7
 43
1.0
 76
     1
 77
     6
 78
     2
 67
     7
 79
     5
170
     0
171
     0
290
     0
174
     0
 93
        1
 44
0.0
173
     0
291
     1
 45
0.0
1001
ACAD
1000
AcDbSavedByObjectVersion
1070
     0
  0
VISUALSTYLE
  5
264D
102
{ACAD_XDICTIONARY
360
26BB
102
}
102
{ACAD_REACTORS
330
2636
102
}
330
2636
100
AcDbVisualStyle
  2
OverhangOff
 70
    21
 71
     2
 72
     2
 73
     0
 90
        0
 40
-0.6
 41
-30.0
 62
     5
 63
     7
 74
     1
 91
        4
 64
     7
 65
   257
 75
     1
175
     1
 42
1.0
 92
        9
 66
     7
 43
1.0
 76
     1
 77
     6
 78
     2
 67
     7
 79
     5
170
     0
171
     0
290
     0
174
     0
 93
        1
 44
0.0
173
     0
291
     1
 45
0.0
1001
ACAD
1000
AcDbSavedByObjectVersion
1070
     0
  0
VISUALSTYLE
  5
2640
102
{ACAD_XDICTIONARY
360
26A1
102
}
102
{ACAD_REACTORS
330
2636
102
}
330
2636
100
AcDbVisualStyle
  2
Realistic
 70
     8
 71
     2
 72
     3
 73
     0
 90
        2
 40
-0.6
 41
30.0
 62
     5
 63
     7
 74
     0
 91
        0
 64
     7
 65
   257
 75
     1
175
     1
 42
1.0
 92
        8
 66
   257
 43
1.0
 76
     1
 77
     6
 78
     2
 67
     7
 79
     3
170
     0
171
     0
290
     0
174
     0
 93
       13
 44
0.0
173
     0
291
     0
 45
0.0
1001
ACAD
1000
AcDbSavedByObjectVersion
1070
     0
  0
VISUALSTYLE
  5
264B
102
{ACAD_XDICTIONARY
360
26B7
102
}
102
{ACAD_REACTORS
330
2636
102
}
330
2636
100
AcDbVisualStyle
  2
Shaded
 70
    27
 71
     2
 72
     2
 73
     1
 90
        2
 40
-0.6
 41
30.0
 62
     5
 63
     7
 74
     0
 91
        4
 64
     7
 65
   257
 75
     1
175
     1
 42
1.0
 92
        8
 66
   257
 43
1.0
 76
     1
 77
     6
 78
     2
 67
     8
 79
     3
170
     0
171
     0
290
     0
174
     0
 93
        5
 44
0.0
173
     0
291
     0
 45
0.0
1001
ACAD
1000
AcDbSavedByObjectVersion
1070
     0
  0
VISUALSTYLE
  5
264A
102
{ACAD_XDICTIONARY
360
26B5
102
}
102
{ACAD_REACTORS
330
2636
102
}
330
2636
100
AcDbVisualStyle
  2
Shaded with edges
 70
    26
 71
     2
 72
     2
 73
     1
 90
        2
 40
-0.6
 41
30.0
 62
     5
 63
     7
 74
     1
 91
       10
 64
     7
 65
   257
 75
     2
175
     1
 42
1.0
 92
        8
 66
   257
 43
1.0
 76
     1
 77
     6
 78
     2
 67
     7
 79
     3
170
     0
171
     0
290
     0
174
     0
 93
        5
 44
0.0
173
     0
291
     0
 45
0.0
1001
ACAD
1000
AcDbSavedByObjectVersion
1070
     0
  0
VISUALSTYLE
  5
2647
102
{ACAD_XDICTIONARY
360
26AF
102
}
102
{ACAD_REACTORS
330
2636
102
}
330
2636
100
AcDbVisualStyle
  2
Shades of Gray
 70
    23
 71
     2
 72
     2
 73
     3
 90
        0
 40
-0.6
 41
-30.0
 62
     5
 63
     7
 74
     2
 91
        2
 64
     7
 65
     7
 75
     1
175
     1
 42
40.0
 92
        8
 66
     7
 43
1.0
 76
     1
 77
     6
 78
     2
 67
     7
 79
     3
170
     0
171
     0
290
     0
174
     0
 93
        1
 44
0.0
173
     0
291
     0
 45
0.0
1001
ACAD
1000
AcDbSavedByObjectVersion
1070
     0
  0
VISUALSTYLE
  5
2648
102
{ACAD_XDICTIONARY
360
26B1
102
}
102
{ACAD_REACTORS
330
2636
102
}
330
2636
100
AcDbVisualStyle
  2
Sketchy
 70
    24
 71
     1
 72
     2
 73
     2
 90
        0
 40
-0.6
 41
-30.0
 62
     5
 63
     7
 74
     2
 91
        2
 64
     7
 65
     7
 75
     1
175
     1
 42
40.0
 92
       11
 66
     7
 43
1.0
 76
     1
 77
     6
 78
     2
 67
     7
 79
     6
170
     0
171
     0
290
     0
174
     0
 93
        1
 44
0.0
173
     0
291
     0
 45
0.0
1001
ACAD
1000
AcDbSavedByObjectVersion
1070
     0
  0
VISUALSTYLE
  5
2643
102
{ACAD_XDICTIONARY
360
26A7
102
}
102
{ACAD_REACTORS
330
2636
102
}
330
2636
100
AcDbVisualStyle
  2
Thicken
 70
    13
 71
     2
 72
     2
 73
     0
 90
        0
 40
-0.6
 41
-30.0
 62
     5
 63
     7
 74
     1
 91
        4
 64
     7
 65
   257
 75
     1
175
     1
 42
1.0
 92
       12
 66
     7
 43
1.0
 76
     1
 77
     6
 78
     2
 67
     7
 79
     5
170
     0
171
     0
290
     0
174
     0
 93
        1
 44
0.0
173
     0
291
     1
 45
0.0
1001
ACAD
1000
AcDbSavedByObjectVersion
1070
     0
  0
VISUALSTYLE
  5
263D
102
{ACAD_XDICTIONARY
360
269B
102
}
102
{ACAD_REACTORS
330
2636
102
}
330
2636
100
AcDbVisualStyle
  2
Wireframe
 70
     5
 71
     0
 72
     2
 73
     0
 90
        0
 40
-0.6
 41
-30.0
 62
     5
 63
     7
 74
     1
 91
        4
 64
     7
 65
   257
 75
     1
175
     1
 42
1.0
 92
        0
 66
   257
 43
1.0
 76
     1
 77
     6
 78
     2
 67
     7
 79
     3
170
     0
171
     0
290
     0
174
     0
 93
        1
 44
0.0
173
     0
291
     0
 45
0.0
1001
ACAD
1000
AcDbSavedByObjectVersion
1070
     0
  0
VISUALSTYLE
  5
2649
102
{ACAD_XDICTIONARY
360
26B3
102
}
102
{ACAD_REACTORS
330
2636
102
}
330
2636
100
AcDbVisualStyle
  2
X-Ray
 70
    25
 71
     2
 72
     2
 73
     1
 90
        1
 40
0.5
 41
-30.0
 62
     5
 63
     7
 74
     1
 91
        0
 64
     7
 65
   257
 75
     1
175
     1
 42
1.0
 92
        8
 66
     7
 43
1.0
 76
     1
 77
     6
 78
     2
 67
     7
 79
     3
170
     0
171
     0
290
     0
174
     0
 93
       13
 44
0.0
173
     0
291
     0
 45
0.0
1001
ACAD
1000
AcDbSavedByObjectVersion
1070
     0
  0
DICTIONARYVAR
  5
2682
102
{ACAD_REACTORS
330
267D
102
}
330
267D
100
DictionaryVariables
280
     0
  1
1:1
  0
DICTIONARYVAR
  5
267F
102
{ACAD_REACTORS
330
267D
102
}
330
267D
100
DictionaryVariables
280
     0
  1
STANDARD
  0
DICTIONARYVAR
  5
267E
102
{ACAD_REACTORS
330
267D
102
}
330
267D
100
DictionaryVariables
280
     0
  1
STANDARD
  0
DICTIONARYVAR
  5
2680
102
{ACAD_REACTORS
330
267D
102
}
330
267D
100
DictionaryVariables
280
     0
  1
Imperial24
  0
DICTIONARYVAR
  5
2681
102
{ACAD_REACTORS
330
267D
102
}
330
267D
100
DictionaryVariables
280
     0
  1
Imperial24
  0
DICTIONARYVAR
  5
2685
102
{ACAD_REACTORS
330
267D
102
}
330
267D
100
DictionaryVariables
280
     0
  1
1
  0
DICTIONARYVAR
  5
2684
102
{ACAD_REACTORS
330
267D
102
}
330
267D
100
DictionaryVariables
280
     0
  1
0
  0
DICTIONARYVAR
  5
2683
102
{ACAD_REACTORS
330
267D
102
}
330
267D
100
DictionaryVariables
280
     0
  1
127
  0
DICTIONARYVAR
  5
2686
102
{ACAD_REACTORS
330
267D
102
}
330
267D
100
DictionaryVariables
280
     0
  1
2
  0
DICTIONARY
  5
26C3
330
2669
100
AcDbDictionary
280
     1
281
     1
  3
ACAD_XREC_ROUNDTRIP
360
26C4
  0
DICTIONARY
  5
26C5
330
266A
100
AcDbDictionary
280
     1
281
     1
  3
ACAD_XREC_ROUNDTRIP
360
26C6
  0
DICTIONARY
  5
26C7
330
266B
100
AcDbDictionary
280
     1
281
     1
  3
ACAD_XREC_ROUNDTRIP
360
26C8
  0
DICTIONARY
  5
2627
330
2626
100
AcDbDictionary
280
     1
281
     1
  3
ACAD_XREC_ROUNDTRIP
360
268D
  3
BUMPTILE
360
2629
  3
DIFFUSETILE
360
2628
  3
OPACITYTILE
360
262C
  3
REFLECTIONTILE
360
262B
  3
REFRACTIONTILE
360
262D
  3
SPECULARTILE
360
262A
  0
DICTIONARY
  5
261F
330
261E
100
AcDbDictionary
280
     1
281
     1
  3
ACAD_XREC_ROUNDTRIP
360
268C
  3
BUMPTILE
360
2621
  3
DIFFUSETILE
360
2620
  3
OPACITYTILE
360
2624
  3
REFLECTIONTILE
360
2623
  3
REFRACTIONTILE
360
2625
  3
SPECULARTILE
360
2622
  0
DICTIONARY
  5
262F
330
262E
100
AcDbDictionary
280
     1
281
     1
  3
ACAD_XREC_ROUNDTRIP
360
268E
  3
BUMPTILE
360
2631
  3
DIFFUSETILE
360
2630
  3
OPACITYTILE
360
2634
  3
REFLECTIONTILE
360
2633
  3
REFRACTIONTILE
360
2635
  3
SPECULARTILE
360
2632
  0
DICTIONARY
  5
26C1
330
2667
100
AcDbDictionary
280
     1
281
     1
  3
ACAD_XREC_ROUNDTRIP
360
26C2
  0
DICTIONARY
  5
2688
330
2651
100
AcDbDictionary
280
     1
281
     1
  3
ACAD_ROUNDTRIP_2008_TABLESTYLE_CELLSTYLEMAP
360
2689
  3
ACAD_XREC_ROUNDTRIP
360
26BF
  0
DICTIONARY
  5
2699
330
263C
100
AcDbDictionary
280
     1
281
     1
  3
ACAD_XREC_ROUNDTRIP
360
269A
  0
DICTIONARY
  5
2697
330
263B
100
AcDbDictionary
280
     1
281
     1
  3
ACAD_XREC_ROUNDTRIP
360
2698
  0
DICTIONARY
  5
26A5
330
2642
100
AcDbDictionary
280
     1
281
     1
  3
ACAD_XREC_ROUNDTRIP
360
26A6
  0
DICTIONARY
  5
26AD
330
2646
100
AcDbDictionary
280
     1
281
     1
  3
ACAD_XREC_ROUNDTRIP
360
26AE
  0
DICTIONARY
  5
269F
330
263F
100
AcDbDictionary
280
     1
281
     1
  3
ACAD_XREC_ROUNDTRIP
360
26A0
  0
DICTIONARY
  5
26A3
330
2641
100
AcDbDictionary
280
     1
281
     1
  3
ACAD_XREC_ROUNDTRIP
360
26A4
  0
DICTIONARY
  5
26BD
330
264E
100
AcDbDictionary
280
     1
281
     1
  3
ACAD_XREC_ROUNDTRIP
360
26BE
  0
DICTIONARY
  5
26AB
330
2645
100
AcDbDictionary
280
     1
281
     1
  3
ACAD_XREC_ROUNDTRIP
360
26AC
  0
DICTIONARY
  5
268F
330
2637
100
AcDbDictionary
280
     1
281
     1
  3
ACAD_XREC_ROUNDTRIP
360
2690
  0
DICTIONARY
  5
2691
330
2638
100
AcDbDictionary
280
     1
281
     1
  3
ACAD_XREC_ROUNDTRIP
360
2692
  0
DICTIONARY
  5
2693
330
2639
100
AcDbDictionary
280
     1
281
     1
  3
ACAD_XREC_ROUNDTRIP
360
2694
  0
DICTIONARY
  5
2695
330
263A
100
AcDbDictionary
280
     1
281
     1
  3
ACAD_XREC_ROUNDTRIP
360
2696
  0
DICTIONARY
  5
269D
330
263E
100
AcDbDictionary
280
     1
281
     1
  3
ACAD_XREC_ROUNDTRIP
360
269E
  0
DICTIONARY
  5
26B9
330
264C
100
AcDbDictionary
280
     1
281
     1
  3
ACAD_XREC_ROUNDTRIP
360
26BA
  0
DICTIONARY
  5
26A9
330
2644
100
AcDbDictionary
280
     1
281
     1
  3
ACAD_XREC_ROUNDTRIP
360
26AA
  0
DICTIONARY
  5
26BB
330
264D
100
AcDbDictionary
280
     1
281
     1
  3
ACAD_XREC_ROUNDTRIP
360
26BC
  0
DICTIONARY
  5
26A1
330
2640
100
AcDbDictionary
280
     1
281
     1
  3
ACAD_XREC_ROUNDTRIP
360
26A2
  0
DICTIONARY
  5
26B7
330
264B
100
AcDbDictionary
280
     1
281
     1
  3
ACAD_XREC_ROUNDTRIP
360
26B8
  0
DICTIONARY
  5
26B5
330
264A
100
AcDbDictionary
280
     1
281
     1
  3
ACAD_XREC_ROUNDTRIP
360
26B6
  0
DICTIONARY
  5
26AF
330
2647
100
AcDbDictionary
280
     1
281
     1
  3
ACAD_XREC_ROUNDTRIP
360
26B0
  0
DICTIONARY
  5
26B1
330
2648
100
AcDbDictionary
280
     1
281
     1
  3
ACAD_XREC_ROUNDTRIP
360
26B2
  0
DICTIONARY
  5
26A7
330
2643
100
AcDbDictionary
280
     1
281
     1
  3
ACAD_XREC_ROUNDTRIP
360
26A8
  0
DICTIONARY
  5
269B
330
263D
100
AcDbDictionary
280
     1
281
     1
  3
ACAD_XREC_ROUNDTRIP
360
269C
  0
DICTIONARY
  5
26B3
330
2649
100
AcDbDictionary
280
     1
281
     1
  3
ACAD_XREC_ROUNDTRIP
360
26B4
  0
XRECORD
  5
26C4
102
{ACAD_REACTORS
330
26C3
102
}
330
26C3
100
AcDbXrecord
280
     1
102
DISPLAYNAME
  1
Imperial24
102
FLAGS
 90
        0
  0
XRECORD
  5
26C6
102
{ACAD_REACTORS
330
26C5
102
}
330
26C5
100
AcDbXrecord
280
     1
102
SHADEPLOT
 70
     0
102
SHADEPLOTRESLEVEL
 70
     2
102
SHADEPLOTCUSTOMDPI
 70
   300
  0
XRECORD
  5
26C8
102
{ACAD_REACTORS
330
26C7
102
}
330
26C7
100
AcDbXrecord
280
     1
102
SHADEPLOT
 70
     0
102
SHADEPLOTRESLEVEL
 70
     2
102
SHADEPLOTCUSTOMDPI
 70
   300
  0
XRECORD
  5
268D
102
{ACAD_REACTORS
330
2627
102
}
330
2627
100
AcDbXrecord
280
     1
102
MATERIAL
148
0.0
149
0.0
149
0.0
 93
        0
 94
      127
282
     0
 72
     0
 77
     0
171
     0
175
     0
179
     0
273
     0
  0
XRECORD
  5
2629
102
{ACAD_REACTORS
330
2627
102
}
330
2627
100
AcDbXrecord
280
     1
270
     1
271
     1
  0
XRECORD
  5
2628
102
{ACAD_REACTORS
330
2627
102
}
330
2627
100
AcDbXrecord
280
     1
270
     1
271
     1
  0
XRECORD
  5
262C
102
{ACAD_REACTORS
330
2627
102
}
330
2627
100
AcDbXrecord
280
     1
270
     1
271
     1
  0
XRECORD
  5
262B
102
{ACAD_REACTORS
330
2627
102
}
330
2627
100
AcDbXrecord
280
     1
270
     1
271
     1
  0
XRECORD
  5
262D
102
{ACAD_REACTORS
330
2627
102
}
330
2627
100
AcDbXrecord
280
     1
270
     1
271
     1
  0
XRECORD
  5
262A
102
{ACAD_REACTORS
330
2627
102
}
330
2627
100
AcDbXrecord
280
     1
270
     1
271
     1
  0
XRECORD
  5
268C
102
{ACAD_REACTORS
330
261F
102
}
330
261F
100
AcDbXrecord
280
     1
102
MATERIAL
148
0.0
149
0.0
149
0.0
 93
        0
 94
      127
282
     0
 72
     0
 77
     0
171
     0
175
     0
179
     0
273
     0
  0
XRECORD
  5
2621
102
{ACAD_REACTORS
330
261F
102
}
330
261F
100
AcDbXrecord
280
     1
270
     1
271
     1
  0
XRECORD
  5
2620
102
{ACAD_REACTORS
330
261F
102
}
330
261F
100
AcDbXrecord
280
     1
270
     1
271
     1
  0
XRECORD
  5
2624
102
{ACAD_REACTORS
330
261F
102
}
330
261F
100
AcDbXrecord
280
     1
270
     1
271
     1
  0
XRECORD
  5
2623
102
{ACAD_REACTORS
330
261F
102
}
330
261F
100
AcDbXrecord
280
     1
270
     1
271
     1
  0
XRECORD
  5
2625
102
{ACAD_REACTORS
330
261F
102
}
330
261F
100
AcDbXrecord
280
     1
270
     1
271
     1
  0
XRECORD
  5
2622
102
{ACAD_REACTORS
330
261F
102
}
330
261F
100
AcDbXrecord
280
     1
270
     1
271
     1
  0
XRECORD
  5
268E
102
{ACAD_REACTORS
330
262F
102
}
330
262F
100
AcDbXrecord
280
     1
102
MATERIAL
148
0.0
149
0.0
149
0.0
 93
        0
 94
      127
282
     0
 72
     0
 77
     0
171
     0
175
     0
179
     0
273
     0
  0
XRECORD
  5
2631
102
{ACAD_REACTORS
330
262F
102
}
330
262F
100
AcDbXrecord
280
     1
270
     1
271
     1
  0
XRECORD
  5
2630
102
{ACAD_REACTORS
330
262F
102
}
330
262F
100
AcDbXrecord
280
     1
270
     1
271
     1
  0
XRECORD
  5
2634
102
{ACAD_REACTORS
330
262F
102
}
330
262F
100
AcDbXrecord
280
     1
270
     1
271
     1
  0
XRECORD
  5
2633
102
{ACAD_REACTORS
330
262F
102
}
330
262F
100
AcDbXrecord
280
     1
270
     1
271
     1
  0
XRECORD
  5
2635
102
{ACAD_REACTORS
330
262F
102
}
330
262F
100
AcDbXrecord
280
     1
270
     1
271
     1
  0
XRECORD
  5
2632
102
{ACAD_REACTORS
330
262F
102
}
330
262F
100
AcDbXrecord
280
     1
270
     1
271
     1
  0
XRECORD
  5
26C2
102
{ACAD_REACTORS
330
26C1
102
}
330
26C1
100
AcDbXrecord
280
     1
102
DISPLAYNAME
  1
Imperial24
102
FLAGS
 90
        0
  0
CELLSTYLEMAP
  5
2689
102
{ACAD_REACTORS
330
2688
102
}
330
2688
100
AcDbCellStyleMap
 90
        3
300
CELLSTYLE
  1
TABLEFORMAT_BEGIN
 90
        5
170
     1
 91
        0
 92
    32768
 62
   257
 93
        1
300
CONTENTFORMAT
  1
CONTENTFORMAT_BEGIN
 90
        0
 91
        0
 92
      512
 93
        0
300

 40
0.0
140
1.0
 94
        5
 62
     0
340
F
144
0.25
309
CONTENTFORMAT_END
171
     0
 94
        0
309
TABLEFORMAT_END
  1
CELLSTYLE_BEGIN
 90
        1
 91
        1
300
_TITLE
309
CELLSTYLE_END
300
CELLSTYLE
  1
TABLEFORMAT_BEGIN
 90
        5
170
     1
 91
        0
 92
        0
 62
   257
 93
        1
300
CONTENTFORMAT
  1
CONTENTFORMAT_BEGIN
 90
        0
 91
        0
 92
      512
 93
        0
300

 40
0.0
140
1.0
 94
        5
 62
     0
340
F
144
0.18
309
CONTENTFORMAT_END
171
     0
 94
        0
309
TABLEFORMAT_END
  1
CELLSTYLE_BEGIN
 90
        2
 91
        1
300
_HEADER
309
CELLSTYLE_END
300
CELLSTYLE
  1
TABLEFORMAT_BEGIN
 90
        5
170
     1
 91
        0
 92
        0
 62
   257
 93
        1
300
CONTENTFORMAT
  1
CONTENTFORMAT_BEGIN
 90
        0
 91
        0
 92
      512
 93
        0
300

 40
0.0
140
1.0
 94
        2
 62
     0
340
F
144
0.18
309
CONTENTFORMAT_END
171
     0
 94
        0
309
TABLEFORMAT_END
  1
CELLSTYLE_BEGIN
 90
        3
 91
        2
300
_DATA
309
CELLSTYLE_END
  0
XRECORD
  5
26BF
102
{ACAD_REACTORS
330
2688
102
}
330
2688
100
AcDbXrecord
280
     1
102
ACAD_ROUNDTRIP_PRE2007_TABLESTYLE
 90
      512
 91
        0
  1

 92
      512
 93
        0
  2

 94
      512
 95
        0
  3

  0
XRECORD
  5
269A
102
{ACAD_REACTORS
330
2699
102
}
330
2699
100
AcDbXrecord
280
     1
102
RTVSPost2010Prop28
280
     1
102
RTVSPost2010PropOp28
 70
     1
102
RTVSPost2010Prop29
280
     1
102
RTVSPost2010PropOp29
 70
     1
102
RTVSPost2010Prop30
280
     0
102
RTVSPost2010PropOp30
 70
     1
102
RTVSPost2010Prop31
280
     0
102
RTVSPost2010PropOp31
 70
     1
102
RTVSPost2010Prop32
280
     0
102
RTVSPost2010PropOp32
 70
     1
102
RTVSPost2010Prop33
280
     0
102
RTVSPost2010PropOp33
 70
     1
102
RTVSPost2010Prop34
280
     0
102
RTVSPost2010PropOp34
 70
     1
102
RTVSPost2010Prop35
280
     0
102
RTVSPost2010PropOp35
 70
     1
102
RTVSPost2010Prop36
280
     0
102
RTVSPost2010PropOp36
 70
     1
102
RTVSPost2010Prop37
 90
       50
102
RTVSPost2010PropOp37
 70
     1
102
RTVSPost2010Prop38
140
0.0
102
RTVSPost2010PropOp38
 70
     1
102
RTVSPost2010Prop39
140
1.0
102
RTVSPost2010PropOp39
 70
     1
102
RTVSPost2010Prop40
 90
        0
102
RTVSPost2010PropOp40
 70
     1
102
RTVSPost2010Prop41ColorIndex
 90
       18
102
RTVSPost2010Prop41ColorRGB
 90
        0
102
RTVSPost2010PropOp41
 70
     1
102
RTVSPost2010Prop42
 90
       50
102
RTVSPost2010PropOp42
 70
     1
102
RTVSPost2010Prop43
 90
        3
102
RTVSPost2010PropOp43
 70
     1
102
RTVSPost2010Prop44ColorIndex
 90
        5
102
RTVSPost2010Prop44ColorRGB
 90
      255
102
RTVSPost2010PropOp44
 70
     1
102
RTVSPost2010Prop45
280
     0
102
RTVSPost2010PropOp45
 70
     1
102
RTVSPost2010Prop46
 90
       50
102
RTVSPost2010PropOp46
 70
     1
102
RTVSPost2010Prop47
 90
       50
102
RTVSPost2010PropOp47
 70
     1
102
RTVSPost2010Prop48
 90
       50
102
RTVSPost2010PropOp48
 70
     1
102
RTVSPost2010Prop49
280
     0
102
RTVSPost2010PropOp49
 70
     1
102
RTVSPost2010Prop50
 90
       50
102
RTVSPost2010PropOp50
 70
     1
102
RTVSPost2010Prop51ColorIndex
 90
      256
102
RTVSPost2010Prop51ColorRGB
 90
-16777216
102
RTVSPost2010PropOp51
 70
     0
102
RTVSPost2010Prop52
140
1.0
102
RTVSPost2010PropOp52
 70
     0
102
RTVSPost2010Prop53
 90
        2
102
RTVSPost2010PropOp53
 70
     1
102
RTVSPost2010Prop54
  1
strokes_ogs.tif
102
RTVSPost2010PropOp54
 70
     1
102
RTVSPost2010Prop55
280
     0
102
RTVSPost2010PropOp55
 70
     1
102
RTVSPost2010Prop56
140
1.0
102
RTVSPost2010PropOp56
 70
     1
102
RTVSPost2010Prop57
140
1.0
102
RTVSPost2010PropOp57
 70
     1
102
RTVSPropertyOp0
 70
     1
102
RTVSPropertyOp1
 70
     1
102
RTVSPropertyOp2
 70
     1
102
RTVSPropertyOp3
 70
     1
102
RTVSPropertyOp4
 70
     1
102
RTVSPropertyOp5
 70
     1
102
RTVSPropertyOp6
 70
     1
102
RTVSPropertyOp7
 70
     1
102
RTVSPropertyOp8
 70
     1
102
RTVSPropertyOp9
 70
     1
102
RTVSPropertyOp10
 70
     1
102
RTVSPropertyOp11
 70
     1
102
RTVSPropertyOp12
 70
     1
102
RTVSPropertyOp13
 70
     1
102
RTVSPropertyOp14
 70
     1
102
RTVSPropertyOp15
 70
     1
102
RTVSPropertyOp16
 70
     1
102
RTVSPropertyOp17
 70
     1
102
RTVSPropertyOp18
 70
     1
102
RTVSPropertyOp19
 70
     1
102
RTVSPropertyOp20
 70
     1
102
RTVSPropertyOp21
 70
     1
102
RTVSPropertyOp22
 70
     1
102
RTVSPropertyOp23
 70
     1
102
RTVSPropertyOp24
 70
     1
102
RTVSPropertyOp25
 70
     1
102
RTVSPropertyOp26
 70
     1
102
RTVSPropertyOp27
 70
     1
102
RTVSPropertyOp28
 70
     1
102
RTVSPropertyOp29
 70
     1
102
RTVSPropertyOp30
 70
     1
102
RTVSPropertyOp31
 70
     1
102
RTVSPropertyOp32
 70
     1
102
RTVSPropertyOp33
 70
     1
102
RTVSPropertyOp34
 70
     1
102
RTVSPropertyOp35
 70
     1
102
RTVSPropertyOp36
 70
     1
102
RTVSPropertyOp37
 70
     1
102
RTVSPropertyOp38
 70
     1
102
RTVSPropertyOp39
 70
     1
102
RTVSPropertyOp40
 70
     1
102
RTVSPropertyOp41
 70
     1
102
RTVSPropertyOp42
 70
     1
102
RTVSPropertyOp43
 70
     1
102
RTVSPropertyOp44
 70
     1
102
RTVSPropertyOp45
 70
     1
102
RTVSPropertyOp46
 70
     1
102
RTVSPropertyOp47
 70
     1
102
RTVSPropertyOp48
 70
     1
102
RTVSPropertyOp49
 70
     1
102
RTVSPropertyOp50
 70
     1
102
RTVSPropertyOp51
 70
     0
102
RTVSPropertyOp52
 70
     0
102
RTVSPropertyOp53
 70
     1
102
RTVSPropertyOp54
 70
     1
102
RTVSPropertyOp55
 70
     1
102
RTVSPropertyOp56
 70
     1
102
RTVSPropertyOp57
 70
     1
102
RTVSPropertyOp58
 70
     1
102
RTVSPropertyOp59
 70
     1
102
RTVSPropertyOp60
 70
     1
102
RTVSPropertyOp61
 70
     1
102
RTVSPropertyOp62
 70
     1
  0
XRECORD
  5
2698
102
{ACAD_REACTORS
330
2697
102
}
330
2697
100
AcDbXrecord
280
     1
102
RTVSPost2010Prop28
280
     0
102
RTVSPost2010PropOp28
 70
     1
102
RTVSPost2010Prop29
280
     1
102
RTVSPost2010PropOp29
 70
     1
102
RTVSPost2010Prop30
280
     1
102
RTVSPost2010PropOp30
 70
     1
102
RTVSPost2010Prop31
280
     0
102
RTVSPost2010PropOp31
 70
     1
102
RTVSPost2010Prop32
280
     0
102
RTVSPost2010PropOp32
 70
     1
102
RTVSPost2010Prop33
280
     0
102
RTVSPost2010PropOp33
 70
     1
102
RTVSPost2010Prop34
280
     0
102
RTVSPost2010PropOp34
 70
     1
102
RTVSPost2010Prop35
280
     0
102
RTVSPost2010PropOp35
 70
     1
102
RTVSPost2010Prop36
280
     0
102
RTVSPost2010PropOp36
 70
     1
102
RTVSPost2010Prop37
 90
       50
102
RTVSPost2010PropOp37
 70
     1
102
RTVSPost2010Prop38
140
0.0
102
RTVSPost2010PropOp38
 70
     1
102
RTVSPost2010Prop39
140
1.0
102
RTVSPost2010PropOp39
 70
     1
102
RTVSPost2010Prop40
 90
        0
102
RTVSPost2010PropOp40
 70
     1
102
RTVSPost2010Prop41ColorIndex
 90
       18
102
RTVSPost2010Prop41ColorRGB
 90
        0
102
RTVSPost2010PropOp41
 70
     1
102
RTVSPost2010Prop42
 90
       50
102
RTVSPost2010PropOp42
 70
     1
102
RTVSPost2010Prop43
 90
        3
102
RTVSPost2010PropOp43
 70
     1
102
RTVSPost2010Prop44ColorIndex
 90
        5
102
RTVSPost2010Prop44ColorRGB
 90
      255
102
RTVSPost2010PropOp44
 70
     1
102
RTVSPost2010Prop45
280
     0
102
RTVSPost2010PropOp45
 70
     1
102
RTVSPost2010Prop46
 90
       50
102
RTVSPost2010PropOp46
 70
     1
102
RTVSPost2010Prop47
 90
       50
102
RTVSPost2010PropOp47
 70
     1
102
RTVSPost2010Prop48
 90
       50
102
RTVSPost2010PropOp48
 70
     1
102
RTVSPost2010Prop49
280
     0
102
RTVSPost2010PropOp49
 70
     1
102
RTVSPost2010Prop50
 90
       50
102
RTVSPost2010PropOp50
 70
     1
102
RTVSPost2010Prop51ColorIndex
 90
      256
102
RTVSPost2010Prop51ColorRGB
 90
-16777216
102
RTVSPost2010PropOp51
 70
     0
102
RTVSPost2010Prop52
140
1.0
102
RTVSPost2010PropOp52
 70
     0
102
RTVSPost2010Prop53
 90
        2
102
RTVSPost2010PropOp53
 70
     1
102
RTVSPost2010Prop54
  1
strokes_ogs.tif
102
RTVSPost2010PropOp54
 70
     1
102
RTVSPost2010Prop55
280
     0
102
RTVSPost2010PropOp55
 70
     1
102
RTVSPost2010Prop56
140
1.0
102
RTVSPost2010PropOp56
 70
     1
102
RTVSPost2010Prop57
140
1.0
102
RTVSPost2010PropOp57
 70
     1
102
RTVSPropertyOp0
 70
     1
102
RTVSPropertyOp1
 70
     1
102
RTVSPropertyOp2
 70
     1
102
RTVSPropertyOp3
 70
     1
102
RTVSPropertyOp4
 70
     1
102
RTVSPropertyOp5
 70
     1
102
RTVSPropertyOp6
 70
     1
102
RTVSPropertyOp7
 70
     1
102
RTVSPropertyOp8
 70
     1
102
RTVSPropertyOp9
 70
     1
102
RTVSPropertyOp10
 70
     1
102
RTVSPropertyOp11
 70
     1
102
RTVSPropertyOp12
 70
     1
102
RTVSPropertyOp13
 70
     1
102
RTVSPropertyOp14
 70
     1
102
RTVSPropertyOp15
 70
     1
102
RTVSPropertyOp16
 70
     1
102
RTVSPropertyOp17
 70
     1
102
RTVSPropertyOp18
 70
     1
102
RTVSPropertyOp19
 70
     1
102
RTVSPropertyOp20
 70
     1
102
RTVSPropertyOp21
 70
     1
102
RTVSPropertyOp22
 70
     1
102
RTVSPropertyOp23
 70
     1
102
RTVSPropertyOp24
 70
     1
102
RTVSPropertyOp25
 70
     1
102
RTVSPropertyOp26
 70
     1
102
RTVSPropertyOp27
 70
     1
102
RTVSPropertyOp28
 70
     1
102
RTVSPropertyOp29
 70
     1
102
RTVSPropertyOp30
 70
     1
102
RTVSPropertyOp31
 70
     1
102
RTVSPropertyOp32
 70
     1
102
RTVSPropertyOp33
 70
     1
102
RTVSPropertyOp34
 70
     1
102
RTVSPropertyOp35
 70
     1
102
RTVSPropertyOp36
 70
     1
102
RTVSPropertyOp37
 70
     1
102
RTVSPropertyOp38
 70
     1
102
RTVSPropertyOp39
 70
     1
102
RTVSPropertyOp40
 70
     1
102
RTVSPropertyOp41
 70
     1
102
RTVSPropertyOp42
 70
     1
102
RTVSPropertyOp43
 70
     1
102
RTVSPropertyOp44
 70
     1
102
RTVSPropertyOp45
 70
     1
102
RTVSPropertyOp46
 70
     1
102
RTVSPropertyOp47
 70
     1
102
RTVSPropertyOp48
 70
     1
102
RTVSPropertyOp49
 70
     1
102
RTVSPropertyOp50
 70
     1
102
RTVSPropertyOp51
 70
     0
102
RTVSPropertyOp52
 70
     0
102
RTVSPropertyOp53
 70
     1
102
RTVSPropertyOp54
 70
     1
102
RTVSPropertyOp55
 70
     1
102
RTVSPropertyOp56
 70
     1
102
RTVSPropertyOp57
 70
     1
102
RTVSPropertyOp58
 70
     1
102
RTVSPropertyOp59
 70
     1
102
RTVSPropertyOp60
 70
     1
102
RTVSPropertyOp61
 70
     1
102
RTVSPropertyOp62
 70
     1
  0
XRECORD
  5
26A6
102
{ACAD_REACTORS
330
26A5
102
}
330
26A5
100
AcDbXrecord
280
     1
102
RTVSPost2010Prop28
280
     0
102
RTVSPost2010PropOp28
 70
     1
102
RTVSPost2010Prop29
280
     1
102
RTVSPost2010PropOp29
 70
     1
102
RTVSPost2010Prop30
280
     1
102
RTVSPost2010PropOp30
 70
     1
102
RTVSPost2010Prop31
280
     0
102
RTVSPost2010PropOp31
 70
     1
102
RTVSPost2010Prop32
280
     0
102
RTVSPost2010PropOp32
 70
     1
102
RTVSPost2010Prop33
280
     0
102
RTVSPost2010PropOp33
 70
     1
102
RTVSPost2010Prop34
280
     0
102
RTVSPost2010PropOp34
 70
     1
102
RTVSPost2010Prop35
280
     0
102
RTVSPost2010PropOp35
 70
     1
102
RTVSPost2010Prop36
280
     0
102
RTVSPost2010PropOp36
 70
     1
102
RTVSPost2010Prop37
 90
       50
102
RTVSPost2010PropOp37
 70
     1
102
RTVSPost2010Prop38
140
0.0
102
RTVSPost2010PropOp38
 70
     1
102
RTVSPost2010Prop39
140
1.0
102
RTVSPost2010PropOp39
 70
     1
102
RTVSPost2010Prop40
 90
        0
102
RTVSPost2010PropOp40
 70
     1
102
RTVSPost2010Prop41ColorIndex
 90
       18
102
RTVSPost2010Prop41ColorRGB
 90
        0
102
RTVSPost2010PropOp41
 70
     1
102
RTVSPost2010Prop42
 90
       50
102
RTVSPost2010PropOp42
 70
     1
102
RTVSPost2010Prop43
 90
        3
102
RTVSPost2010PropOp43
 70
     1
102
RTVSPost2010Prop44ColorIndex
 90
        5
102
RTVSPost2010Prop44ColorRGB
 90
      255
102
RTVSPost2010PropOp44
 70
     1
102
RTVSPost2010Prop45
280
     0
102
RTVSPost2010PropOp45
 70
     1
102
RTVSPost2010Prop46
 90
       50
102
RTVSPost2010PropOp46
 70
     1
102
RTVSPost2010Prop47
 90
       50
102
RTVSPost2010PropOp47
 70
     1
102
RTVSPost2010Prop48
 90
       50
102
RTVSPost2010PropOp48
 70
     1
102
RTVSPost2010Prop49
280
     0
102
RTVSPost2010PropOp49
 70
     1
102
RTVSPost2010Prop50
 90
       50
102
RTVSPost2010PropOp50
 70
     1
102
RTVSPost2010Prop51ColorIndex
 90
      256
102
RTVSPost2010Prop51ColorRGB
 90
-16777216
102
RTVSPost2010PropOp51
 70
     0
102
RTVSPost2010Prop52
140
1.0
102
RTVSPost2010PropOp52
 70
     0
102
RTVSPost2010Prop53
 90
        2
102
RTVSPost2010PropOp53
 70
     1
102
RTVSPost2010Prop54
  1
strokes_ogs.tif
102
RTVSPost2010PropOp54
 70
     1
102
RTVSPost2010Prop55
280
     0
102
RTVSPost2010PropOp55
 70
     1
102
RTVSPost2010Prop56
140
1.0
102
RTVSPost2010PropOp56
 70
     1
102
RTVSPost2010Prop57
140
1.0
102
RTVSPost2010PropOp57
 70
     1
102
RTVSPropertyOp0
 70
     1
102
RTVSPropertyOp1
 70
     1
102
RTVSPropertyOp2
 70
     1
102
RTVSPropertyOp3
 70
     1
102
RTVSPropertyOp4
 70
     1
102
RTVSPropertyOp5
 70
     1
102
RTVSPropertyOp6
 70
     1
102
RTVSPropertyOp7
 70
     1
102
RTVSPropertyOp8
 70
     1
102
RTVSPropertyOp9
 70
     1
102
RTVSPropertyOp10
 70
     1
102
RTVSPropertyOp11
 70
     1
102
RTVSPropertyOp12
 70
     1
102
RTVSPropertyOp13
 70
     1
102
RTVSPropertyOp14
 70
     1
102
RTVSPropertyOp15
 70
     1
102
RTVSPropertyOp16
 70
     1
102
RTVSPropertyOp17
 70
     1
102
RTVSPropertyOp18
 70
     1
102
RTVSPropertyOp19
 70
     1
102
RTVSPropertyOp20
 70
     1
102
RTVSPropertyOp21
 70
     1
102
RTVSPropertyOp22
 70
     1
102
RTVSPropertyOp23
 70
     1
102
RTVSPropertyOp24
 70
     1
102
RTVSPropertyOp25
 70
     1
102
RTVSPropertyOp26
 70
     1
102
RTVSPropertyOp27
 70
     1
102
RTVSPropertyOp28
 70
     1
102
RTVSPropertyOp29
 70
     1
102
RTVSPropertyOp30
 70
     1
102
RTVSPropertyOp31
 70
     1
102
RTVSPropertyOp32
 70
     1
102
RTVSPropertyOp33
 70
     1
102
RTVSPropertyOp34
 70
     1
102
RTVSPropertyOp35
 70
     1
102
RTVSPropertyOp36
 70
     1
102
RTVSPropertyOp37
 70
     1
102
RTVSPropertyOp38
 70
     1
102
RTVSPropertyOp39
 70
     1
102
RTVSPropertyOp40
 70
     1
102
RTVSPropertyOp41
 70
     1
102
RTVSPropertyOp42
 70
     1
102
RTVSPropertyOp43
 70
     1
102
RTVSPropertyOp44
 70
     1
102
RTVSPropertyOp45
 70
     1
102
RTVSPropertyOp46
 70
     1
102
RTVSPropertyOp47
 70
     1
102
RTVSPropertyOp48
 70
     1
102
RTVSPropertyOp49
 70
     1
102
RTVSPropertyOp50
 70
     1
102
RTVSPropertyOp51
 70
     0
102
RTVSPropertyOp52
 70
     0
102
RTVSPropertyOp53
 70
     1
102
RTVSPropertyOp54
 70
     1
102
RTVSPropertyOp55
 70
     1
102
RTVSPropertyOp56
 70
     1
102
RTVSPropertyOp57
 70
     1
102
RTVSPropertyOp58
 70
     1
102
RTVSPropertyOp59
 70
     1
102
RTVSPropertyOp60
 70
     1
102
RTVSPropertyOp61
 70
     1
102
RTVSPropertyOp62
 70
     1
  0
XRECORD
  5
26AE
102
{ACAD_REACTORS
330
26AD
102
}
330
26AD
100
AcDbXrecord
280
     1
102
RTVSPost2010Prop28
280
     0
102
RTVSPost2010PropOp28
 70
     1
102
RTVSPost2010Prop29
280
     1
102
RTVSPost2010PropOp29
 70
     1
102
RTVSPost2010Prop30
280
     1
102
RTVSPost2010PropOp30
 70
     1
102
RTVSPost2010Prop31
280
     0
102
RTVSPost2010PropOp31
 70
     1
102
RTVSPost2010Prop32
280
     0
102
RTVSPost2010PropOp32
 70
     1
102
RTVSPost2010Prop33
280
     0
102
RTVSPost2010PropOp33
 70
     1
102
RTVSPost2010Prop34
280
     0
102
RTVSPost2010PropOp34
 70
     1
102
RTVSPost2010Prop35
280
     0
102
RTVSPost2010PropOp35
 70
     1
102
RTVSPost2010Prop36
280
     0
102
RTVSPost2010PropOp36
 70
     1
102
RTVSPost2010Prop37
 90
       50
102
RTVSPost2010PropOp37
 70
     1
102
RTVSPost2010Prop38
140
0.0
102
RTVSPost2010PropOp38
 70
     1
102
RTVSPost2010Prop39
140
1.0
102
RTVSPost2010PropOp39
 70
     1
102
RTVSPost2010Prop40
 90
        0
102
RTVSPost2010PropOp40
 70
     1
102
RTVSPost2010Prop41ColorIndex
 90
       18
102
RTVSPost2010Prop41ColorRGB
 90
        0
102
RTVSPost2010PropOp41
 70
     1
102
RTVSPost2010Prop42
 90
       50
102
RTVSPost2010PropOp42
 70
     1
102
RTVSPost2010Prop43
 90
        3
102
RTVSPost2010PropOp43
 70
     1
102
RTVSPost2010Prop44ColorIndex
 90
        5
102
RTVSPost2010Prop44ColorRGB
 90
      255
102
RTVSPost2010PropOp44
 70
     1
102
RTVSPost2010Prop45
280
     0
102
RTVSPost2010PropOp45
 70
     1
102
RTVSPost2010Prop46
 90
       50
102
RTVSPost2010PropOp46
 70
     1
102
RTVSPost2010Prop47
 90
       50
102
RTVSPost2010PropOp47
 70
     1
102
RTVSPost2010Prop48
 90
       50
102
RTVSPost2010PropOp48
 70
     1
102
RTVSPost2010Prop49
280
     0
102
RTVSPost2010PropOp49
 70
     1
102
RTVSPost2010Prop50
 90
       50
102
RTVSPost2010PropOp50
 70
     1
102
RTVSPost2010Prop51ColorIndex
 90
      256
102
RTVSPost2010Prop51ColorRGB
 90
-16777216
102
RTVSPost2010PropOp51
 70
     0
102
RTVSPost2010Prop52
140
1.0
102
RTVSPost2010PropOp52
 70
     0
102
RTVSPost2010Prop53
 90
        2
102
RTVSPost2010PropOp53
 70
     1
102
RTVSPost2010Prop54
  1
strokes_ogs.tif
102
RTVSPost2010PropOp54
 70
     1
102
RTVSPost2010Prop55
280
     0
102
RTVSPost2010PropOp55
 70
     1
102
RTVSPost2010Prop56
140
1.0
102
RTVSPost2010PropOp56
 70
     1
102
RTVSPost2010Prop57
140
1.0
102
RTVSPost2010PropOp57
 70
     1
102
RTVSPropertyOp0
 70
     1
102
RTVSPropertyOp1
 70
     1
102
RTVSPropertyOp2
 70
     1
102
RTVSPropertyOp3
 70
     1
102
RTVSPropertyOp4
 70
     1
102
RTVSPropertyOp5
 70
     1
102
RTVSPropertyOp6
 70
     1
102
RTVSPropertyOp7
 70
     1
102
RTVSPropertyOp8
 70
     1
102
RTVSPropertyOp9
 70
     1
102
RTVSPropertyOp10
 70
     1
102
RTVSPropertyOp11
 70
     1
102
RTVSPropertyOp12
 70
     1
102
RTVSPropertyOp13
 70
     1
102
RTVSPropertyOp14
 70
     1
102
RTVSPropertyOp15
 70
     1
102
RTVSPropertyOp16
 70
     1
102
RTVSPropertyOp17
 70
     1
102
RTVSPropertyOp18
 70
     1
102
RTVSPropertyOp19
 70
     1
102
RTVSPropertyOp20
 70
     1
102
RTVSPropertyOp21
 70
     1
102
RTVSPropertyOp22
 70
     1
102
RTVSPropertyOp23
 70
     1
102
RTVSPropertyOp24
 70
     1
102
RTVSPropertyOp25
 70
     1
102
RTVSPropertyOp26
 70
     1
102
RTVSPropertyOp27
 70
     1
102
RTVSPropertyOp28
 70
     1
102
RTVSPropertyOp29
 70
     1
102
RTVSPropertyOp30
 70
     1
102
RTVSPropertyOp31
 70
     1
102
RTVSPropertyOp32
 70
     1
102
RTVSPropertyOp33
 70
     1
102
RTVSPropertyOp34
 70
     1
102
RTVSPropertyOp35
 70
     1
102
RTVSPropertyOp36
 70
     1
102
RTVSPropertyOp37
 70
     1
102
RTVSPropertyOp38
 70
     1
102
RTVSPropertyOp39
 70
     1
102
RTVSPropertyOp40
 70
     1
102
RTVSPropertyOp41
 70
     1
102
RTVSPropertyOp42
 70
     1
102
RTVSPropertyOp43
 70
     1
102
RTVSPropertyOp44
 70
     1
102
RTVSPropertyOp45
 70
     1
102
RTVSPropertyOp46
 70
     1
102
RTVSPropertyOp47
 70
     1
102
RTVSPropertyOp48
 70
     1
102
RTVSPropertyOp49
 70
     1
102
RTVSPropertyOp50
 70
     1
102
RTVSPropertyOp51
 70
     0
102
RTVSPropertyOp52
 70
     0
102
RTVSPropertyOp53
 70
     1
102
RTVSPropertyOp54
 70
     1
102
RTVSPropertyOp55
 70
     1
102
RTVSPropertyOp56
 70
     1
102
RTVSPropertyOp57
 70
     1
102
RTVSPropertyOp58
 70
     1
102
RTVSPropertyOp59
 70
     1
102
RTVSPropertyOp60
 70
     1
102
RTVSPropertyOp61
 70
     1
102
RTVSPropertyOp62
 70
     1
  0
XRECORD
  5
26A0
102
{ACAD_REACTORS
330
269F
102
}
330
269F
100
AcDbXrecord
280
     1
102
RTVSPost2010Prop28
280
     0
102
RTVSPost2010PropOp28
 70
     1
102
RTVSPost2010Prop29
280
     1
102
RTVSPost2010PropOp29
 70
     1
102
RTVSPost2010Prop30
280
     1
102
RTVSPost2010PropOp30
 70
     1
102
RTVSPost2010Prop31
280
     0
102
RTVSPost2010PropOp31
 70
     1
102
RTVSPost2010Prop32
280
     0
102
RTVSPost2010PropOp32
 70
     1
102
RTVSPost2010Prop33
280
     0
102
RTVSPost2010PropOp33
 70
     1
102
RTVSPost2010Prop34
280
     0
102
RTVSPost2010PropOp34
 70
     1
102
RTVSPost2010Prop35
280
     0
102
RTVSPost2010PropOp35
 70
     1
102
RTVSPost2010Prop36
280
     0
102
RTVSPost2010PropOp36
 70
     1
102
RTVSPost2010Prop37
 90
       50
102
RTVSPost2010PropOp37
 70
     1
102
RTVSPost2010Prop38
140
0.0
102
RTVSPost2010PropOp38
 70
     1
102
RTVSPost2010Prop39
140
1.0
102
RTVSPost2010PropOp39
 70
     1
102
RTVSPost2010Prop40
 90
        0
102
RTVSPost2010PropOp40
 70
     1
102
RTVSPost2010Prop41ColorIndex
 90
       18
102
RTVSPost2010Prop41ColorRGB
 90
        0
102
RTVSPost2010PropOp41
 70
     1
102
RTVSPost2010Prop42
 90
       50
102
RTVSPost2010PropOp42
 70
     1
102
RTVSPost2010Prop43
 90
        3
102
RTVSPost2010PropOp43
 70
     1
102
RTVSPost2010Prop44ColorIndex
 90
        5
102
RTVSPost2010Prop44ColorRGB
 90
      255
102
RTVSPost2010PropOp44
 70
     1
102
RTVSPost2010Prop45
280
     0
102
RTVSPost2010PropOp45
 70
     1
102
RTVSPost2010Prop46
 90
       50
102
RTVSPost2010PropOp46
 70
     1
102
RTVSPost2010Prop47
 90
       50
102
RTVSPost2010PropOp47
 70
     1
102
RTVSPost2010Prop48
 90
       50
102
RTVSPost2010PropOp48
 70
     1
102
RTVSPost2010Prop49
280
     0
102
RTVSPost2010PropOp49
 70
     1
102
RTVSPost2010Prop50
 90
       50
102
RTVSPost2010PropOp50
 70
     1
102
RTVSPost2010Prop51ColorIndex
 90
      256
102
RTVSPost2010Prop51ColorRGB
 90
-16777216
102
RTVSPost2010PropOp51
 70
     0
102
RTVSPost2010Prop52
140
1.0
102
RTVSPost2010PropOp52
 70
     0
102
RTVSPost2010Prop53
 90
        2
102
RTVSPost2010PropOp53
 70
     1
102
RTVSPost2010Prop54
  1
strokes_ogs.tif
102
RTVSPost2010PropOp54
 70
     1
102
RTVSPost2010Prop55
280
     0
102
RTVSPost2010PropOp55
 70
     1
102
RTVSPost2010Prop56
140
1.0
102
RTVSPost2010PropOp56
 70
     1
102
RTVSPost2010Prop57
140
1.0
102
RTVSPost2010PropOp57
 70
     1
102
RTVSPropertyOp0
 70
     1
102
RTVSPropertyOp1
 70
     1
102
RTVSPropertyOp2
 70
     1
102
RTVSPropertyOp3
 70
     1
102
RTVSPropertyOp4
 70
     1
102
RTVSPropertyOp5
 70
     1
102
RTVSPropertyOp6
 70
     1
102
RTVSPropertyOp7
 70
     1
102
RTVSPropertyOp8
 70
     1
102
RTVSPropertyOp9
 70
     1
102
RTVSPropertyOp10
 70
     1
102
RTVSPropertyOp11
 70
     1
102
RTVSPropertyOp12
 70
     1
102
RTVSPropertyOp13
 70
     1
102
RTVSPropertyOp14
 70
     1
102
RTVSPropertyOp15
 70
     1
102
RTVSPropertyOp16
 70
     1
102
RTVSPropertyOp17
 70
     1
102
RTVSPropertyOp18
 70
     1
102
RTVSPropertyOp19
 70
     1
102
RTVSPropertyOp20
 70
     1
102
RTVSPropertyOp21
 70
     1
102
RTVSPropertyOp22
 70
     1
102
RTVSPropertyOp23
 70
     1
102
RTVSPropertyOp24
 70
     1
102
RTVSPropertyOp25
 70
     1
102
RTVSPropertyOp26
 70
     1
102
RTVSPropertyOp27
 70
     1
102
RTVSPropertyOp28
 70
     1
102
RTVSPropertyOp29
 70
     1
102
RTVSPropertyOp30
 70
     1
102
RTVSPropertyOp31
 70
     1
102
RTVSPropertyOp32
 70
     1
102
RTVSPropertyOp33
 70
     1
102
RTVSPropertyOp34
 70
     1
102
RTVSPropertyOp35
 70
     1
102
RTVSPropertyOp36
 70
     1
102
RTVSPropertyOp37
 70
     1
102
RTVSPropertyOp38
 70
     1
102
RTVSPropertyOp39
 70
     1
102
RTVSPropertyOp40
 70
     1
102
RTVSPropertyOp41
 70
     1
102
RTVSPropertyOp42
 70
     1
102
RTVSPropertyOp43
 70
     1
102
RTVSPropertyOp44
 70
     1
102
RTVSPropertyOp45
 70
     1
102
RTVSPropertyOp46
 70
     1
102
RTVSPropertyOp47
 70
     1
102
RTVSPropertyOp48
 70
     1
102
RTVSPropertyOp49
 70
     1
102
RTVSPropertyOp50
 70
     1
102
RTVSPropertyOp51
 70
     0
102
RTVSPropertyOp52
 70
     0
102
RTVSPropertyOp53
 70
     1
102
RTVSPropertyOp54
 70
     1
102
RTVSPropertyOp55
 70
     1
102
RTVSPropertyOp56
 70
     1
102
RTVSPropertyOp57
 70
     1
102
RTVSPropertyOp58
 70
     1
102
RTVSPropertyOp59
 70
     1
102
RTVSPropertyOp60
 70
     1
102
RTVSPropertyOp61
 70
     1
102
RTVSPropertyOp62
 70
     1
  0
XRECORD
  5
26A4
102
{ACAD_REACTORS
330
26A3
102
}
330
26A3
100
AcDbXrecord
280
     1
102
RTVSPost2010Prop28
280
     0
102
RTVSPost2010PropOp28
 70
     1
102
RTVSPost2010Prop29
280
     1
102
RTVSPost2010PropOp29
 70
     1
102
RTVSPost2010Prop30
280
     1
102
RTVSPost2010PropOp30
 70
     1
102
RTVSPost2010Prop31
280
     0
102
RTVSPost2010PropOp31
 70
     1
102
RTVSPost2010Prop32
280
     0
102
RTVSPost2010PropOp32
 70
     1
102
RTVSPost2010Prop33
280
     0
102
RTVSPost2010PropOp33
 70
     1
102
RTVSPost2010Prop34
280
     0
102
RTVSPost2010PropOp34
 70
     1
102
RTVSPost2010Prop35
280
     0
102
RTVSPost2010PropOp35
 70
     1
102
RTVSPost2010Prop36
280
     0
102
RTVSPost2010PropOp36
 70
     1
102
RTVSPost2010Prop37
 90
       50
102
RTVSPost2010PropOp37
 70
     1
102
RTVSPost2010Prop38
140
0.0
102
RTVSPost2010PropOp38
 70
     1
102
RTVSPost2010Prop39
140
1.0
102
RTVSPost2010PropOp39
 70
     1
102
RTVSPost2010Prop40
 90
        0
102
RTVSPost2010PropOp40
 70
     1
102
RTVSPost2010Prop41ColorIndex
 90
       18
102
RTVSPost2010Prop41ColorRGB
 90
        0
102
RTVSPost2010PropOp41
 70
     1
102
RTVSPost2010Prop42
 90
       50
102
RTVSPost2010PropOp42
 70
     1
102
RTVSPost2010Prop43
 90
        3
102
RTVSPost2010PropOp43
 70
     1
102
RTVSPost2010Prop44ColorIndex
 90
        5
102
RTVSPost2010Prop44ColorRGB
 90
      255
102
RTVSPost2010PropOp44
 70
     1
102
RTVSPost2010Prop45
280
     0
102
RTVSPost2010PropOp45
 70
     1
102
RTVSPost2010Prop46
 90
       50
102
RTVSPost2010PropOp46
 70
     1
102
RTVSPost2010Prop47
 90
       50
102
RTVSPost2010PropOp47
 70
     1
102
RTVSPost2010Prop48
 90
       50
102
RTVSPost2010PropOp48
 70
     1
102
RTVSPost2010Prop49
280
     0
102
RTVSPost2010PropOp49
 70
     1
102
RTVSPost2010Prop50
 90
       50
102
RTVSPost2010PropOp50
 70
     1
102
RTVSPost2010Prop51ColorIndex
 90
      256
102
RTVSPost2010Prop51ColorRGB
 90
-16777216
102
RTVSPost2010PropOp51
 70
     0
102
RTVSPost2010Prop52
140
1.0
102
RTVSPost2010PropOp52
 70
     0
102
RTVSPost2010Prop53
 90
        2
102
RTVSPost2010PropOp53
 70
     1
102
RTVSPost2010Prop54
  1
strokes_ogs.tif
102
RTVSPost2010PropOp54
 70
     1
102
RTVSPost2010Prop55
280
     0
102
RTVSPost2010PropOp55
 70
     1
102
RTVSPost2010Prop56
140
1.0
102
RTVSPost2010PropOp56
 70
     1
102
RTVSPost2010Prop57
140
1.0
102
RTVSPost2010PropOp57
 70
     1
102
RTVSPropertyOp0
 70
     1
102
RTVSPropertyOp1
 70
     1
102
RTVSPropertyOp2
 70
     1
102
RTVSPropertyOp3
 70
     1
102
RTVSPropertyOp4
 70
     1
102
RTVSPropertyOp5
 70
     1
102
RTVSPropertyOp6
 70
     1
102
RTVSPropertyOp7
 70
     1
102
RTVSPropertyOp8
 70
     1
102
RTVSPropertyOp9
 70
     1
102
RTVSPropertyOp10
 70
     1
102
RTVSPropertyOp11
 70
     1
102
RTVSPropertyOp12
 70
     1
102
RTVSPropertyOp13
 70
     1
102
RTVSPropertyOp14
 70
     1
102
RTVSPropertyOp15
 70
     1
102
RTVSPropertyOp16
 70
     1
102
RTVSPropertyOp17
 70
     1
102
RTVSPropertyOp18
 70
     1
102
RTVSPropertyOp19
 70
     1
102
RTVSPropertyOp20
 70
     1
102
RTVSPropertyOp21
 70
     1
102
RTVSPropertyOp22
 70
     1
102
RTVSPropertyOp23
 70
     1
102
RTVSPropertyOp24
 70
     1
102
RTVSPropertyOp25
 70
     1
102
RTVSPropertyOp26
 70
     1
102
RTVSPropertyOp27
 70
     1
102
RTVSPropertyOp28
 70
     1
102
RTVSPropertyOp29
 70
     1
102
RTVSPropertyOp30
 70
     1
102
RTVSPropertyOp31
 70
     1
102
RTVSPropertyOp32
 70
     1
102
RTVSPropertyOp33
 70
     1
102
RTVSPropertyOp34
 70
     1
102
RTVSPropertyOp35
 70
     1
102
RTVSPropertyOp36
 70
     1
102
RTVSPropertyOp37
 70
     1
102
RTVSPropertyOp38
 70
     1
102
RTVSPropertyOp39
 70
     1
102
RTVSPropertyOp40
 70
     1
102
RTVSPropertyOp41
 70
     1
102
RTVSPropertyOp42
 70
     1
102
RTVSPropertyOp43
 70
     1
102
RTVSPropertyOp44
 70
     1
102
RTVSPropertyOp45
 70
     1
102
RTVSPropertyOp46
 70
     1
102
RTVSPropertyOp47
 70
     1
102
RTVSPropertyOp48
 70
     1
102
RTVSPropertyOp49
 70
     1
102
RTVSPropertyOp50
 70
     1
102
RTVSPropertyOp51
 70
     0
102
RTVSPropertyOp52
 70
     0
102
RTVSPropertyOp53
 70
     1
102
RTVSPropertyOp54
 70
     1
102
RTVSPropertyOp55
 70
     1
102
RTVSPropertyOp56
 70
     1
102
RTVSPropertyOp57
 70
     1
102
RTVSPropertyOp58
 70
     1
102
RTVSPropertyOp59
 70
     1
102
RTVSPropertyOp60
 70
     1
102
RTVSPropertyOp61
 70
     1
102
RTVSPropertyOp62
 70
     1
  0
XRECORD
  5
26BE
102
{ACAD_REACTORS
330
26BD
102
}
330
26BD
100
AcDbXrecord
280
     1
102
RTVSPost2010Prop28
280
     0
102
RTVSPost2010PropOp28
 70
     1
102
RTVSPost2010Prop29
280
     1
102
RTVSPost2010PropOp29
 70
     1
102
RTVSPost2010Prop30
280
     1
102
RTVSPost2010PropOp30
 70
     1
102
RTVSPost2010Prop31
280
     0
102
RTVSPost2010PropOp31
 70
     1
102
RTVSPost2010Prop32
280
     0
102
RTVSPost2010PropOp32
 70
     1
102
RTVSPost2010Prop33
280
     0
102
RTVSPost2010PropOp33
 70
     1
102
RTVSPost2010Prop34
280
     0
102
RTVSPost2010PropOp34
 70
     1
102
RTVSPost2010Prop35
280
     0
102
RTVSPost2010PropOp35
 70
     1
102
RTVSPost2010Prop36
280
     0
102
RTVSPost2010PropOp36
 70
     1
102
RTVSPost2010Prop37
 90
       50
102
RTVSPost2010PropOp37
 70
     0
102
RTVSPost2010Prop38
140
0.0
102
RTVSPost2010PropOp38
 70
     0
102
RTVSPost2010Prop39
140
1.0
102
RTVSPost2010PropOp39
 70
     0
102
RTVSPost2010Prop40
 90
        0
102
RTVSPost2010PropOp40
 70
     0
102
RTVSPost2010Prop41ColorIndex
 90
       18
102
RTVSPost2010Prop41ColorRGB
 90
        0
102
RTVSPost2010PropOp41
 70
     0
102
RTVSPost2010Prop42
 90
       50
102
RTVSPost2010PropOp42
 70
     0
102
RTVSPost2010Prop43
 90
        3
102
RTVSPost2010PropOp43
 70
     0
102
RTVSPost2010Prop44ColorIndex
 90
        5
102
RTVSPost2010Prop44ColorRGB
 90
      255
102
RTVSPost2010PropOp44
 70
     0
102
RTVSPost2010Prop45
280
     0
102
RTVSPost2010PropOp45
 70
     1
102
RTVSPost2010Prop46
 90
       50
102
RTVSPost2010PropOp46
 70
     0
102
RTVSPost2010Prop47
 90
       50
102
RTVSPost2010PropOp47
 70
     0
102
RTVSPost2010Prop48
 90
       50
102
RTVSPost2010PropOp48
 70
     0
102
RTVSPost2010Prop49
280
     0
102
RTVSPost2010PropOp49
 70
     1
102
RTVSPost2010Prop50
 90
       50
102
RTVSPost2010PropOp50
 70
     0
102
RTVSPost2010Prop51ColorIndex
 90
      256
102
RTVSPost2010Prop51ColorRGB
 90
-16777216
102
RTVSPost2010PropOp51
 70
     0
102
RTVSPost2010Prop52
140
1.0
102
RTVSPost2010PropOp52
 70
     0
102
RTVSPost2010Prop53
 90
        2
102
RTVSPost2010PropOp53
 70
     0
102
RTVSPost2010Prop54
  1
strokes_ogs.tif
102
RTVSPost2010PropOp54
 70
     0
102
RTVSPost2010Prop55
280
     0
102
RTVSPost2010PropOp55
 70
     1
102
RTVSPost2010Prop56
140
1.0
102
RTVSPost2010PropOp56
 70
     0
102
RTVSPost2010Prop57
140
1.0
102
RTVSPost2010PropOp57
 70
     0
102
RTVSPropertyOp0
 70
     0
102
RTVSPropertyOp1
 70
     0
102
RTVSPropertyOp2
 70
     0
102
RTVSPropertyOp3
 70
     0
102
RTVSPropertyOp4
 70
     0
102
RTVSPropertyOp5
 70
     0
102
RTVSPropertyOp6
 70
     0
102
RTVSPropertyOp7
 70
     0
102
RTVSPropertyOp8
 70
     0
102
RTVSPropertyOp9
 70
     0
102
RTVSPropertyOp10
 70
     0
102
RTVSPropertyOp11
 70
     0
102
RTVSPropertyOp12
 70
     0
102
RTVSPropertyOp13
 70
     0
102
RTVSPropertyOp14
 70
     2
102
RTVSPropertyOp15
 70
     0
102
RTVSPropertyOp16
 70
     0
102
RTVSPropertyOp17
 70
     0
102
RTVSPropertyOp18
 70
     0
102
RTVSPropertyOp19
 70
     0
102
RTVSPropertyOp20
 70
     0
102
RTVSPropertyOp21
 70
     0
102
RTVSPropertyOp22
 70
     0
102
RTVSPropertyOp23
 70
     0
102
RTVSPropertyOp24
 70
     0
102
RTVSPropertyOp25
 70
     0
102
RTVSPropertyOp26
 70
     0
102
RTVSPropertyOp27
 70
     0
102
RTVSPropertyOp28
 70
     1
102
RTVSPropertyOp29
 70
     1
102
RTVSPropertyOp30
 70
     1
102
RTVSPropertyOp31
 70
     1
102
RTVSPropertyOp32
 70
     1
102
RTVSPropertyOp33
 70
     1
102
RTVSPropertyOp34
 70
     1
102
RTVSPropertyOp35
 70
     1
102
RTVSPropertyOp36
 70
     1
102
RTVSPropertyOp37
 70
     0
102
RTVSPropertyOp38
 70
     0
102
RTVSPropertyOp39
 70
     0
102
RTVSPropertyOp40
 70
     0
102
RTVSPropertyOp41
 70
     0
102
RTVSPropertyOp42
 70
     0
102
RTVSPropertyOp43
 70
     0
102
RTVSPropertyOp44
 70
     0
102
RTVSPropertyOp45
 70
     1
102
RTVSPropertyOp46
 70
     0
102
RTVSPropertyOp47
 70
     0
102
RTVSPropertyOp48
 70
     0
102
RTVSPropertyOp49
 70
     1
102
RTVSPropertyOp50
 70
     0
102
RTVSPropertyOp51
 70
     0
102
RTVSPropertyOp52
 70
     0
102
RTVSPropertyOp53
 70
     0
102
RTVSPropertyOp54
 70
     0
102
RTVSPropertyOp55
 70
     1
102
RTVSPropertyOp56
 70
     0
102
RTVSPropertyOp57
 70
     0
102
RTVSPropertyOp58
 70
     0
102
RTVSPropertyOp59
 70
     0
102
RTVSPropertyOp60
 70
     0
102
RTVSPropertyOp61
 70
     0
102
RTVSPropertyOp62
 70
     0
  0
XRECORD
  5
26AC
102
{ACAD_REACTORS
330
26AB
102
}
330
26AB
100
AcDbXrecord
280
     1
102
RTVSPost2010Prop28
280
     0
102
RTVSPost2010PropOp28
 70
     1
102
RTVSPost2010Prop29
280
     1
102
RTVSPost2010PropOp29
 70
     1
102
RTVSPost2010Prop30
280
     1
102
RTVSPost2010PropOp30
 70
     1
102
RTVSPost2010Prop31
280
     0
102
RTVSPost2010PropOp31
 70
     1
102
RTVSPost2010Prop32
280
     0
102
RTVSPost2010PropOp32
 70
     1
102
RTVSPost2010Prop33
280
     0
102
RTVSPost2010PropOp33
 70
     1
102
RTVSPost2010Prop34
280
     0
102
RTVSPost2010PropOp34
 70
     1
102
RTVSPost2010Prop35
280
     0
102
RTVSPost2010PropOp35
 70
     1
102
RTVSPost2010Prop36
280
     0
102
RTVSPost2010PropOp36
 70
     1
102
RTVSPost2010Prop37
 90
       50
102
RTVSPost2010PropOp37
 70
     1
102
RTVSPost2010Prop38
140
0.0
102
RTVSPost2010PropOp38
 70
     1
102
RTVSPost2010Prop39
140
1.0
102
RTVSPost2010PropOp39
 70
     1
102
RTVSPost2010Prop40
 90
        0
102
RTVSPost2010PropOp40
 70
     1
102
RTVSPost2010Prop41ColorIndex
 90
       18
102
RTVSPost2010Prop41ColorRGB
 90
        0
102
RTVSPost2010PropOp41
 70
     1
102
RTVSPost2010Prop42
 90
       50
102
RTVSPost2010PropOp42
 70
     1
102
RTVSPost2010Prop43
 90
        3
102
RTVSPost2010PropOp43
 70
     1
102
RTVSPost2010Prop44ColorIndex
 90
        5
102
RTVSPost2010Prop44ColorRGB
 90
      255
102
RTVSPost2010PropOp44
 70
     1
102
RTVSPost2010Prop45
280
     0
102
RTVSPost2010PropOp45
 70
     1
102
RTVSPost2010Prop46
 90
       50
102
RTVSPost2010PropOp46
 70
     1
102
RTVSPost2010Prop47
 90
       50
102
RTVSPost2010PropOp47
 70
     1
102
RTVSPost2010Prop48
 90
       50
102
RTVSPost2010PropOp48
 70
     1
102
RTVSPost2010Prop49
280
     0
102
RTVSPost2010PropOp49
 70
     1
102
RTVSPost2010Prop50
 90
       50
102
RTVSPost2010PropOp50
 70
     1
102
RTVSPost2010Prop51ColorIndex
 90
      256
102
RTVSPost2010Prop51ColorRGB
 90
-16777216
102
RTVSPost2010PropOp51
 70
     0
102
RTVSPost2010Prop52
140
1.0
102
RTVSPost2010PropOp52
 70
     0
102
RTVSPost2010Prop53
 90
        2
102
RTVSPost2010PropOp53
 70
     1
102
RTVSPost2010Prop54
  1
strokes_ogs.tif
102
RTVSPost2010PropOp54
 70
     1
102
RTVSPost2010Prop55
280
     0
102
RTVSPost2010PropOp55
 70
     1
102
RTVSPost2010Prop56
140
1.0
102
RTVSPost2010PropOp56
 70
     1
102
RTVSPost2010Prop57
140
1.0
102
RTVSPost2010PropOp57
 70
     1
102
RTVSPropertyOp0
 70
     1
102
RTVSPropertyOp1
 70
     1
102
RTVSPropertyOp2
 70
     1
102
RTVSPropertyOp3
 70
     1
102
RTVSPropertyOp4
 70
     1
102
RTVSPropertyOp5
 70
     1
102
RTVSPropertyOp6
 70
     1
102
RTVSPropertyOp7
 70
     1
102
RTVSPropertyOp8
 70
     1
102
RTVSPropertyOp9
 70
     1
102
RTVSPropertyOp10
 70
     1
102
RTVSPropertyOp11
 70
     1
102
RTVSPropertyOp12
 70
     1
102
RTVSPropertyOp13
 70
     1
102
RTVSPropertyOp14
 70
     1
102
RTVSPropertyOp15
 70
     1
102
RTVSPropertyOp16
 70
     1
102
RTVSPropertyOp17
 70
     1
102
RTVSPropertyOp18
 70
     1
102
RTVSPropertyOp19
 70
     1
102
RTVSPropertyOp20
 70
     1
102
RTVSPropertyOp21
 70
     1
102
RTVSPropertyOp22
 70
     1
102
RTVSPropertyOp23
 70
     1
102
RTVSPropertyOp24
 70
     1
102
RTVSPropertyOp25
 70
     1
102
RTVSPropertyOp26
 70
     1
102
RTVSPropertyOp27
 70
     1
102
RTVSPropertyOp28
 70
     1
102
RTVSPropertyOp29
 70
     1
102
RTVSPropertyOp30
 70
     1
102
RTVSPropertyOp31
 70
     1
102
RTVSPropertyOp32
 70
     1
102
RTVSPropertyOp33
 70
     1
102
RTVSPropertyOp34
 70
     1
102
RTVSPropertyOp35
 70
     1
102
RTVSPropertyOp36
 70
     1
102
RTVSPropertyOp37
 70
     1
102
RTVSPropertyOp38
 70
     1
102
RTVSPropertyOp39
 70
     1
102
RTVSPropertyOp40
 70
     1
102
RTVSPropertyOp41
 70
     1
102
RTVSPropertyOp42
 70
     1
102
RTVSPropertyOp43
 70
     1
102
RTVSPropertyOp44
 70
     1
102
RTVSPropertyOp45
 70
     1
102
RTVSPropertyOp46
 70
     1
102
RTVSPropertyOp47
 70
     1
102
RTVSPropertyOp48
 70
     1
102
RTVSPropertyOp49
 70
     1
102
RTVSPropertyOp50
 70
     1
102
RTVSPropertyOp51
 70
     0
102
RTVSPropertyOp52
 70
     0
102
RTVSPropertyOp53
 70
     1
102
RTVSPropertyOp54
 70
     1
102
RTVSPropertyOp55
 70
     1
102
RTVSPropertyOp56
 70
     1
102
RTVSPropertyOp57
 70
     1
102
RTVSPropertyOp58
 70
     1
102
RTVSPropertyOp59
 70
     1
102
RTVSPropertyOp60
 70
     1
102
RTVSPropertyOp61
 70
     1
102
RTVSPropertyOp62
 70
     1
  0
XRECORD
  5
2690
102
{ACAD_REACTORS
330
268F
102
}
330
268F
100
AcDbXrecord
280
     1
102
RTVSPost2010Prop28
280
     0
102
RTVSPost2010PropOp28
 70
     1
102
RTVSPost2010Prop29
280
     1
102
RTVSPost2010PropOp29
 70
     1
102
RTVSPost2010Prop30
280
     1
102
RTVSPost2010PropOp30
 70
     1
102
RTVSPost2010Prop31
280
     0
102
RTVSPost2010PropOp31
 70
     1
102
RTVSPost2010Prop32
280
     0
102
RTVSPost2010PropOp32
 70
     1
102
RTVSPost2010Prop33
280
     0
102
RTVSPost2010PropOp33
 70
     1
102
RTVSPost2010Prop34
280
     0
102
RTVSPost2010PropOp34
 70
     1
102
RTVSPost2010Prop35
280
     0
102
RTVSPost2010PropOp35
 70
     1
102
RTVSPost2010Prop36
280
     0
102
RTVSPost2010PropOp36
 70
     1
102
RTVSPost2010Prop37
 90
       50
102
RTVSPost2010PropOp37
 70
     1
102
RTVSPost2010Prop38
140
0.0
102
RTVSPost2010PropOp38
 70
     1
102
RTVSPost2010Prop39
140
1.0
102
RTVSPost2010PropOp39
 70
     1
102
RTVSPost2010Prop40
 90
        0
102
RTVSPost2010PropOp40
 70
     1
102
RTVSPost2010Prop41ColorIndex
 90
       18
102
RTVSPost2010Prop41ColorRGB
 90
        0
102
RTVSPost2010PropOp41
 70
     1
102
RTVSPost2010Prop42
 90
       50
102
RTVSPost2010PropOp42
 70
     1
102
RTVSPost2010Prop43
 90
        3
102
RTVSPost2010PropOp43
 70
     1
102
RTVSPost2010Prop44ColorIndex
 90
        5
102
RTVSPost2010Prop44ColorRGB
 90
      255
102
RTVSPost2010PropOp44
 70
     1
102
RTVSPost2010Prop45
280
     0
102
RTVSPost2010PropOp45
 70
     1
102
RTVSPost2010Prop46
 90
       50
102
RTVSPost2010PropOp46
 70
     1
102
RTVSPost2010Prop47
 90
       50
102
RTVSPost2010PropOp47
 70
     1
102
RTVSPost2010Prop48
 90
       50
102
RTVSPost2010PropOp48
 70
     1
102
RTVSPost2010Prop49
280
     0
102
RTVSPost2010PropOp49
 70
     1
102
RTVSPost2010Prop50
 90
       50
102
RTVSPost2010PropOp50
 70
     1
102
RTVSPost2010Prop51ColorIndex
 90
      256
102
RTVSPost2010Prop51ColorRGB
 90
-16777216
102
RTVSPost2010PropOp51
 70
     0
102
RTVSPost2010Prop52
140
1.0
102
RTVSPost2010PropOp52
 70
     0
102
RTVSPost2010Prop53
 90
        2
102
RTVSPost2010PropOp53
 70
     1
102
RTVSPost2010Prop54
  1
strokes_ogs.tif
102
RTVSPost2010PropOp54
 70
     1
102
RTVSPost2010Prop55
280
     0
102
RTVSPost2010PropOp55
 70
     1
102
RTVSPost2010Prop56
140
1.0
102
RTVSPost2010PropOp56
 70
     1
102
RTVSPost2010Prop57
140
1.0
102
RTVSPost2010PropOp57
 70
     1
102
RTVSPropertyOp0
 70
     1
102
RTVSPropertyOp1
 70
     1
102
RTVSPropertyOp2
 70
     1
102
RTVSPropertyOp3
 70
     1
102
RTVSPropertyOp4
 70
     1
102
RTVSPropertyOp5
 70
     1
102
RTVSPropertyOp6
 70
     1
102
RTVSPropertyOp7
 70
     1
102
RTVSPropertyOp8
 70
     1
102
RTVSPropertyOp9
 70
     1
102
RTVSPropertyOp10
 70
     1
102
RTVSPropertyOp11
 70
     1
102
RTVSPropertyOp12
 70
     1
102
RTVSPropertyOp13
 70
     1
102
RTVSPropertyOp14
 70
     1
102
RTVSPropertyOp15
 70
     1
102
RTVSPropertyOp16
 70
     1
102
RTVSPropertyOp17
 70
     1
102
RTVSPropertyOp18
 70
     1
102
RTVSPropertyOp19
 70
     1
102
RTVSPropertyOp20
 70
     1
102
RTVSPropertyOp21
 70
     1
102
RTVSPropertyOp22
 70
     1
102
RTVSPropertyOp23
 70
     1
102
RTVSPropertyOp24
 70
     1
102
RTVSPropertyOp25
 70
     1
102
RTVSPropertyOp26
 70
     1
102
RTVSPropertyOp27
 70
     1
102
RTVSPropertyOp28
 70
     1
102
RTVSPropertyOp29
 70
     1
102
RTVSPropertyOp30
 70
     1
102
RTVSPropertyOp31
 70
     1
102
RTVSPropertyOp32
 70
     1
102
RTVSPropertyOp33
 70
     1
102
RTVSPropertyOp34
 70
     1
102
RTVSPropertyOp35
 70
     1
102
RTVSPropertyOp36
 70
     1
102
RTVSPropertyOp37
 70
     1
102
RTVSPropertyOp38
 70
     1
102
RTVSPropertyOp39
 70
     1
102
RTVSPropertyOp40
 70
     1
102
RTVSPropertyOp41
 70
     1
102
RTVSPropertyOp42
 70
     1
102
RTVSPropertyOp43
 70
     1
102
RTVSPropertyOp44
 70
     1
102
RTVSPropertyOp45
 70
     1
102
RTVSPropertyOp46
 70
     1
102
RTVSPropertyOp47
 70
     1
102
RTVSPropertyOp48
 70
     1
102
RTVSPropertyOp49
 70
     1
102
RTVSPropertyOp50
 70
     1
102
RTVSPropertyOp51
 70
     0
102
RTVSPropertyOp52
 70
     0
102
RTVSPropertyOp53
 70
     1
102
RTVSPropertyOp54
 70
     1
102
RTVSPropertyOp55
 70
     1
102
RTVSPropertyOp56
 70
     1
102
RTVSPropertyOp57
 70
     1
102
RTVSPropertyOp58
 70
     1
102
RTVSPropertyOp59
 70
     1
102
RTVSPropertyOp60
 70
     1
102
RTVSPropertyOp61
 70
     1
102
RTVSPropertyOp62
 70
     1
  0
XRECORD
  5
2692
102
{ACAD_REACTORS
330
2691
102
}
330
2691
100
AcDbXrecord
280
     1
102
RTVSPost2010Prop28
280
     0
102
RTVSPost2010PropOp28
 70
     1
102
RTVSPost2010Prop29
280
     1
102
RTVSPost2010PropOp29
 70
     1
102
RTVSPost2010Prop30
280
     1
102
RTVSPost2010PropOp30
 70
     1
102
RTVSPost2010Prop31
280
     0
102
RTVSPost2010PropOp31
 70
     1
102
RTVSPost2010Prop32
280
     0
102
RTVSPost2010PropOp32
 70
     1
102
RTVSPost2010Prop33
280
     0
102
RTVSPost2010PropOp33
 70
     1
102
RTVSPost2010Prop34
280
     0
102
RTVSPost2010PropOp34
 70
     1
102
RTVSPost2010Prop35
280
     0
102
RTVSPost2010PropOp35
 70
     1
102
RTVSPost2010Prop36
280
     0
102
RTVSPost2010PropOp36
 70
     1
102
RTVSPost2010Prop37
 90
       50
102
RTVSPost2010PropOp37
 70
     1
102
RTVSPost2010Prop38
140
0.0
102
RTVSPost2010PropOp38
 70
     1
102
RTVSPost2010Prop39
140
1.0
102
RTVSPost2010PropOp39
 70
     1
102
RTVSPost2010Prop40
 90
        0
102
RTVSPost2010PropOp40
 70
     1
102
RTVSPost2010Prop41ColorIndex
 90
       18
102
RTVSPost2010Prop41ColorRGB
 90
        0
102
RTVSPost2010PropOp41
 70
     1
102
RTVSPost2010Prop42
 90
       50
102
RTVSPost2010PropOp42
 70
     1
102
RTVSPost2010Prop43
 90
        3
102
RTVSPost2010PropOp43
 70
     1
102
RTVSPost2010Prop44ColorIndex
 90
        5
102
RTVSPost2010Prop44ColorRGB
 90
      255
102
RTVSPost2010PropOp44
 70
     1
102
RTVSPost2010Prop45
280
     0
102
RTVSPost2010PropOp45
 70
     1
102
RTVSPost2010Prop46
 90
       50
102
RTVSPost2010PropOp46
 70
     1
102
RTVSPost2010Prop47
 90
       50
102
RTVSPost2010PropOp47
 70
     1
102
RTVSPost2010Prop48
 90
       50
102
RTVSPost2010PropOp48
 70
     1
102
RTVSPost2010Prop49
280
     0
102
RTVSPost2010PropOp49
 70
     1
102
RTVSPost2010Prop50
 90
       50
102
RTVSPost2010PropOp50
 70
     1
102
RTVSPost2010Prop51ColorIndex
 90
      256
102
RTVSPost2010Prop51ColorRGB
 90
-16777216
102
RTVSPost2010PropOp51
 70
     0
102
RTVSPost2010Prop52
140
1.0
102
RTVSPost2010PropOp52
 70
     0
102
RTVSPost2010Prop53
 90
        2
102
RTVSPost2010PropOp53
 70
     1
102
RTVSPost2010Prop54
  1
strokes_ogs.tif
102
RTVSPost2010PropOp54
 70
     1
102
RTVSPost2010Prop55
280
     0
102
RTVSPost2010PropOp55
 70
     1
102
RTVSPost2010Prop56
140
1.0
102
RTVSPost2010PropOp56
 70
     1
102
RTVSPost2010Prop57
140
1.0
102
RTVSPost2010PropOp57
 70
     1
102
RTVSPropertyOp0
 70
     1
102
RTVSPropertyOp1
 70
     1
102
RTVSPropertyOp2
 70
     1
102
RTVSPropertyOp3
 70
     1
102
RTVSPropertyOp4
 70
     1
102
RTVSPropertyOp5
 70
     1
102
RTVSPropertyOp6
 70
     1
102
RTVSPropertyOp7
 70
     1
102
RTVSPropertyOp8
 70
     1
102
RTVSPropertyOp9
 70
     1
102
RTVSPropertyOp10
 70
     1
102
RTVSPropertyOp11
 70
     1
102
RTVSPropertyOp12
 70
     1
102
RTVSPropertyOp13
 70
     1
102
RTVSPropertyOp14
 70
     1
102
RTVSPropertyOp15
 70
     1
102
RTVSPropertyOp16
 70
     1
102
RTVSPropertyOp17
 70
     1
102
RTVSPropertyOp18
 70
     1
102
RTVSPropertyOp19
 70
     1
102
RTVSPropertyOp20
 70
     1
102
RTVSPropertyOp21
 70
     1
102
RTVSPropertyOp22
 70
     1
102
RTVSPropertyOp23
 70
     1
102
RTVSPropertyOp24
 70
     1
102
RTVSPropertyOp25
 70
     1
102
RTVSPropertyOp26
 70
     1
102
RTVSPropertyOp27
 70
     1
102
RTVSPropertyOp28
 70
     1
102
RTVSPropertyOp29
 70
     1
102
RTVSPropertyOp30
 70
     1
102
RTVSPropertyOp31
 70
     1
102
RTVSPropertyOp32
 70
     1
102
RTVSPropertyOp33
 70
     1
102
RTVSPropertyOp34
 70
     1
102
RTVSPropertyOp35
 70
     1
102
RTVSPropertyOp36
 70
     1
102
RTVSPropertyOp37
 70
     1
102
RTVSPropertyOp38
 70
     1
102
RTVSPropertyOp39
 70
     1
102
RTVSPropertyOp40
 70
     1
102
RTVSPropertyOp41
 70
     1
102
RTVSPropertyOp42
 70
     1
102
RTVSPropertyOp43
 70
     1
102
RTVSPropertyOp44
 70
     1
102
RTVSPropertyOp45
 70
     1
102
RTVSPropertyOp46
 70
     1
102
RTVSPropertyOp47
 70
     1
102
RTVSPropertyOp48
 70
     1
102
RTVSPropertyOp49
 70
     1
102
RTVSPropertyOp50
 70
     1
102
RTVSPropertyOp51
 70
     0
102
RTVSPropertyOp52
 70
     0
102
RTVSPropertyOp53
 70
     1
102
RTVSPropertyOp54
 70
     1
102
RTVSPropertyOp55
 70
     1
102
RTVSPropertyOp56
 70
     1
102
RTVSPropertyOp57
 70
     1
102
RTVSPropertyOp58
 70
     1
102
RTVSPropertyOp59
 70
     1
102
RTVSPropertyOp60
 70
     1
102
RTVSPropertyOp61
 70
     1
102
RTVSPropertyOp62
 70
     1
  0
XRECORD
  5
2694
102
{ACAD_REACTORS
330
2693
102
}
330
2693
100
AcDbXrecord
280
     1
102
RTVSPost2010Prop28
280
     0
102
RTVSPost2010PropOp28
 70
     1
102
RTVSPost2010Prop29
280
     1
102
RTVSPost2010PropOp29
 70
     1
102
RTVSPost2010Prop30
280
     1
102
RTVSPost2010PropOp30
 70
     1
102
RTVSPost2010Prop31
280
     0
102
RTVSPost2010PropOp31
 70
     1
102
RTVSPost2010Prop32
280
     0
102
RTVSPost2010PropOp32
 70
     1
102
RTVSPost2010Prop33
280
     0
102
RTVSPost2010PropOp33
 70
     1
102
RTVSPost2010Prop34
280
     0
102
RTVSPost2010PropOp34
 70
     1
102
RTVSPost2010Prop35
280
     0
102
RTVSPost2010PropOp35
 70
     1
102
RTVSPost2010Prop36
280
     0
102
RTVSPost2010PropOp36
 70
     1
102
RTVSPost2010Prop37
 90
       50
102
RTVSPost2010PropOp37
 70
     1
102
RTVSPost2010Prop38
140
0.0
102
RTVSPost2010PropOp38
 70
     1
102
RTVSPost2010Prop39
140
1.0
102
RTVSPost2010PropOp39
 70
     1
102
RTVSPost2010Prop40
 90
        0
102
RTVSPost2010PropOp40
 70
     1
102
RTVSPost2010Prop41ColorIndex
 90
       18
102
RTVSPost2010Prop41ColorRGB
 90
        0
102
RTVSPost2010PropOp41
 70
     1
102
RTVSPost2010Prop42
 90
       50
102
RTVSPost2010PropOp42
 70
     1
102
RTVSPost2010Prop43
 90
        3
102
RTVSPost2010PropOp43
 70
     1
102
RTVSPost2010Prop44ColorIndex
 90
        5
102
RTVSPost2010Prop44ColorRGB
 90
      255
102
RTVSPost2010PropOp44
 70
     1
102
RTVSPost2010Prop45
280
     0
102
RTVSPost2010PropOp45
 70
     1
102
RTVSPost2010Prop46
 90
       50
102
RTVSPost2010PropOp46
 70
     1
102
RTVSPost2010Prop47
 90
       50
102
RTVSPost2010PropOp47
 70
     1
102
RTVSPost2010Prop48
 90
       50
102
RTVSPost2010PropOp48
 70
     1
102
RTVSPost2010Prop49
280
     0
102
RTVSPost2010PropOp49
 70
     1
102
RTVSPost2010Prop50
 90
       50
102
RTVSPost2010PropOp50
 70
     1
102
RTVSPost2010Prop51ColorIndex
 90
      256
102
RTVSPost2010Prop51ColorRGB
 90
-16777216
102
RTVSPost2010PropOp51
 70
     0
102
RTVSPost2010Prop52
140
1.0
102
RTVSPost2010PropOp52
 70
     0
102
RTVSPost2010Prop53
 90
        2
102
RTVSPost2010PropOp53
 70
     1
102
RTVSPost2010Prop54
  1
strokes_ogs.tif
102
RTVSPost2010PropOp54
 70
     1
102
RTVSPost2010Prop55
280
     0
102
RTVSPost2010PropOp55
 70
     1
102
RTVSPost2010Prop56
140
1.0
102
RTVSPost2010PropOp56
 70
     1
102
RTVSPost2010Prop57
140
1.0
102
RTVSPost2010PropOp57
 70
     1
102
RTVSPropertyOp0
 70
     1
102
RTVSPropertyOp1
 70
     1
102
RTVSPropertyOp2
 70
     1
102
RTVSPropertyOp3
 70
     1
102
RTVSPropertyOp4
 70
     1
102
RTVSPropertyOp5
 70
     1
102
RTVSPropertyOp6
 70
     1
102
RTVSPropertyOp7
 70
     1
102
RTVSPropertyOp8
 70
     1
102
RTVSPropertyOp9
 70
     1
102
RTVSPropertyOp10
 70
     1
102
RTVSPropertyOp11
 70
     1
102
RTVSPropertyOp12
 70
     1
102
RTVSPropertyOp13
 70
     1
102
RTVSPropertyOp14
 70
     1
102
RTVSPropertyOp15
 70
     1
102
RTVSPropertyOp16
 70
     1
102
RTVSPropertyOp17
 70
     1
102
RTVSPropertyOp18
 70
     1
102
RTVSPropertyOp19
 70
     1
102
RTVSPropertyOp20
 70
     1
102
RTVSPropertyOp21
 70
     1
102
RTVSPropertyOp22
 70
     1
102
RTVSPropertyOp23
 70
     1
102
RTVSPropertyOp24
 70
     1
102
RTVSPropertyOp25
 70
     1
102
RTVSPropertyOp26
 70
     1
102
RTVSPropertyOp27
 70
     1
102
RTVSPropertyOp28
 70
     1
102
RTVSPropertyOp29
 70
     1
102
RTVSPropertyOp30
 70
     1
102
RTVSPropertyOp31
 70
     1
102
RTVSPropertyOp32
 70
     1
102
RTVSPropertyOp33
 70
     1
102
RTVSPropertyOp34
 70
     1
102
RTVSPropertyOp35
 70
     1
102
RTVSPropertyOp36
 70
     1
102
RTVSPropertyOp37
 70
     1
102
RTVSPropertyOp38
 70
     1
102
RTVSPropertyOp39
 70
     1
102
RTVSPropertyOp40
 70
     1
102
RTVSPropertyOp41
 70
     1
102
RTVSPropertyOp42
 70
     1
102
RTVSPropertyOp43
 70
     1
102
RTVSPropertyOp44
 70
     1
102
RTVSPropertyOp45
 70
     1
102
RTVSPropertyOp46
 70
     1
102
RTVSPropertyOp47
 70
     1
102
RTVSPropertyOp48
 70
     1
102
RTVSPropertyOp49
 70
     1
102
RTVSPropertyOp50
 70
     1
102
RTVSPropertyOp51
 70
     0
102
RTVSPropertyOp52
 70
     0
102
RTVSPropertyOp53
 70
     1
102
RTVSPropertyOp54
 70
     1
102
RTVSPropertyOp55
 70
     1
102
RTVSPropertyOp56
 70
     1
102
RTVSPropertyOp57
 70
     1
102
RTVSPropertyOp58
 70
     1
102
RTVSPropertyOp59
 70
     1
102
RTVSPropertyOp60
 70
     1
102
RTVSPropertyOp61
 70
     1
102
RTVSPropertyOp62
 70
     1
  0
XRECORD
  5
2696
102
{ACAD_REACTORS
330
2695
102
}
330
2695
100
AcDbXrecord
280
     1
102
RTVSPost2010Prop28
280
     0
102
RTVSPost2010PropOp28
 70
     1
102
RTVSPost2010Prop29
280
     1
102
RTVSPost2010PropOp29
 70
     1
102
RTVSPost2010Prop30
280
     1
102
RTVSPost2010PropOp30
 70
     1
102
RTVSPost2010Prop31
280
     0
102
RTVSPost2010PropOp31
 70
     1
102
RTVSPost2010Prop32
280
     0
102
RTVSPost2010PropOp32
 70
     1
102
RTVSPost2010Prop33
280
     0
102
RTVSPost2010PropOp33
 70
     1
102
RTVSPost2010Prop34
280
     0
102
RTVSPost2010PropOp34
 70
     1
102
RTVSPost2010Prop35
280
     0
102
RTVSPost2010PropOp35
 70
     1
102
RTVSPost2010Prop36
280
     0
102
RTVSPost2010PropOp36
 70
     1
102
RTVSPost2010Prop37
 90
       50
102
RTVSPost2010PropOp37
 70
     1
102
RTVSPost2010Prop38
140
0.0
102
RTVSPost2010PropOp38
 70
     1
102
RTVSPost2010Prop39
140
1.0
102
RTVSPost2010PropOp39
 70
     1
102
RTVSPost2010Prop40
 90
        0
102
RTVSPost2010PropOp40
 70
     1
102
RTVSPost2010Prop41ColorIndex
 90
       18
102
RTVSPost2010Prop41ColorRGB
 90
        0
102
RTVSPost2010PropOp41
 70
     1
102
RTVSPost2010Prop42
 90
       50
102
RTVSPost2010PropOp42
 70
     1
102
RTVSPost2010Prop43
 90
        3
102
RTVSPost2010PropOp43
 70
     1
102
RTVSPost2010Prop44ColorIndex
 90
        5
102
RTVSPost2010Prop44ColorRGB
 90
      255
102
RTVSPost2010PropOp44
 70
     1
102
RTVSPost2010Prop45
280
     0
102
RTVSPost2010PropOp45
 70
     1
102
RTVSPost2010Prop46
 90
       50
102
RTVSPost2010PropOp46
 70
     1
102
RTVSPost2010Prop47
 90
       50
102
RTVSPost2010PropOp47
 70
     1
102
RTVSPost2010Prop48
 90
       50
102
RTVSPost2010PropOp48
 70
     1
102
RTVSPost2010Prop49
280
     0
102
RTVSPost2010PropOp49
 70
     1
102
RTVSPost2010Prop50
 90
       50
102
RTVSPost2010PropOp50
 70
     1
102
RTVSPost2010Prop51ColorIndex
 90
      256
102
RTVSPost2010Prop51ColorRGB
 90
-16777216
102
RTVSPost2010PropOp51
 70
     0
102
RTVSPost2010Prop52
140
1.0
102
RTVSPost2010PropOp52
 70
     0
102
RTVSPost2010Prop53
 90
        2
102
RTVSPost2010PropOp53
 70
     1
102
RTVSPost2010Prop54
  1
strokes_ogs.tif
102
RTVSPost2010PropOp54
 70
     1
102
RTVSPost2010Prop55
280
     0
102
RTVSPost2010PropOp55
 70
     1
102
RTVSPost2010Prop56
140
1.0
102
RTVSPost2010PropOp56
 70
     1
102
RTVSPost2010Prop57
140
1.0
102
RTVSPost2010PropOp57
 70
     1
102
RTVSPropertyOp0
 70
     1
102
RTVSPropertyOp1
 70
     1
102
RTVSPropertyOp2
 70
     1
102
RTVSPropertyOp3
 70
     1
102
RTVSPropertyOp4
 70
     1
102
RTVSPropertyOp5
 70
     1
102
RTVSPropertyOp6
 70
     1
102
RTVSPropertyOp7
 70
     1
102
RTVSPropertyOp8
 70
     1
102
RTVSPropertyOp9
 70
     1
102
RTVSPropertyOp10
 70
     1
102
RTVSPropertyOp11
 70
     1
102
RTVSPropertyOp12
 70
     1
102
RTVSPropertyOp13
 70
     1
102
RTVSPropertyOp14
 70
     1
102
RTVSPropertyOp15
 70
     1
102
RTVSPropertyOp16
 70
     1
102
RTVSPropertyOp17
 70
     1
102
RTVSPropertyOp18
 70
     1
102
RTVSPropertyOp19
 70
     1
102
RTVSPropertyOp20
 70
     1
102
RTVSPropertyOp21
 70
     1
102
RTVSPropertyOp22
 70
     1
102
RTVSPropertyOp23
 70
     1
102
RTVSPropertyOp24
 70
     1
102
RTVSPropertyOp25
 70
     1
102
RTVSPropertyOp26
 70
     1
102
RTVSPropertyOp27
 70
     1
102
RTVSPropertyOp28
 70
     1
102
RTVSPropertyOp29
 70
     1
102
RTVSPropertyOp30
 70
     1
102
RTVSPropertyOp31
 70
     1
102
RTVSPropertyOp32
 70
     1
102
RTVSPropertyOp33
 70
     1
102
RTVSPropertyOp34
 70
     1
102
RTVSPropertyOp35
 70
     1
102
RTVSPropertyOp36
 70
     1
102
RTVSPropertyOp37
 70
     1
102
RTVSPropertyOp38
 70
     1
102
RTVSPropertyOp39
 70
     1
102
RTVSPropertyOp40
 70
     1
102
RTVSPropertyOp41
 70
     1
102
RTVSPropertyOp42
 70
     1
102
RTVSPropertyOp43
 70
     1
102
RTVSPropertyOp44
 70
     1
102
RTVSPropertyOp45
 70
     1
102
RTVSPropertyOp46
 70
     1
102
RTVSPropertyOp47
 70
     1
102
RTVSPropertyOp48
 70
     1
102
RTVSPropertyOp49
 70
     1
102
RTVSPropertyOp50
 70
     1
102
RTVSPropertyOp51
 70
     0
102
RTVSPropertyOp52
 70
     0
102
RTVSPropertyOp53
 70
     1
102
RTVSPropertyOp54
 70
     1
102
RTVSPropertyOp55
 70
     1
102
RTVSPropertyOp56
 70
     1
102
RTVSPropertyOp57
 70
     1
102
RTVSPropertyOp58
 70
     1
102
RTVSPropertyOp59
 70
     1
102
RTVSPropertyOp60
 70
     1
102
RTVSPropertyOp61
 70
     1
102
RTVSPropertyOp62
 70
     1
  0
XRECORD
  5
269E
102
{ACAD_REACTORS
330
269D
102
}
330
269D
100
AcDbXrecord
280
     1
102
RTVSPost2010Prop28
280
     0
102
RTVSPost2010PropOp28
 70
     1
102
RTVSPost2010Prop29
280
     1
102
RTVSPost2010PropOp29
 70
     1
102
RTVSPost2010Prop30
280
     1
102
RTVSPost2010PropOp30
 70
     1
102
RTVSPost2010Prop31
280
     0
102
RTVSPost2010PropOp31
 70
     1
102
RTVSPost2010Prop32
280
     0
102
RTVSPost2010PropOp32
 70
     1
102
RTVSPost2010Prop33
280
     0
102
RTVSPost2010PropOp33
 70
     1
102
RTVSPost2010Prop34
280
     0
102
RTVSPost2010PropOp34
 70
     1
102
RTVSPost2010Prop35
280
     0
102
RTVSPost2010PropOp35
 70
     1
102
RTVSPost2010Prop36
280
     0
102
RTVSPost2010PropOp36
 70
     1
102
RTVSPost2010Prop37
 90
       50
102
RTVSPost2010PropOp37
 70
     1
102
RTVSPost2010Prop38
140
0.0
102
RTVSPost2010PropOp38
 70
     1
102
RTVSPost2010Prop39
140
1.0
102
RTVSPost2010PropOp39
 70
     1
102
RTVSPost2010Prop40
 90
        0
102
RTVSPost2010PropOp40
 70
     1
102
RTVSPost2010Prop41ColorIndex
 90
       18
102
RTVSPost2010Prop41ColorRGB
 90
        0
102
RTVSPost2010PropOp41
 70
     1
102
RTVSPost2010Prop42
 90
       50
102
RTVSPost2010PropOp42
 70
     1
102
RTVSPost2010Prop43
 90
        3
102
RTVSPost2010PropOp43
 70
     1
102
RTVSPost2010Prop44ColorIndex
 90
        5
102
RTVSPost2010Prop44ColorRGB
 90
      255
102
RTVSPost2010PropOp44
 70
     1
102
RTVSPost2010Prop45
280
     0
102
RTVSPost2010PropOp45
 70
     1
102
RTVSPost2010Prop46
 90
       50
102
RTVSPost2010PropOp46
 70
     1
102
RTVSPost2010Prop47
 90
       50
102
RTVSPost2010PropOp47
 70
     1
102
RTVSPost2010Prop48
 90
       50
102
RTVSPost2010PropOp48
 70
     1
102
RTVSPost2010Prop49
280
     0
102
RTVSPost2010PropOp49
 70
     1
102
RTVSPost2010Prop50
 90
       50
102
RTVSPost2010PropOp50
 70
     1
102
RTVSPost2010Prop51ColorIndex
 90
      256
102
RTVSPost2010Prop51ColorRGB
 90
-16777216
102
RTVSPost2010PropOp51
 70
     0
102
RTVSPost2010Prop52
140
1.0
102
RTVSPost2010PropOp52
 70
     0
102
RTVSPost2010Prop53
 90
        2
102
RTVSPost2010PropOp53
 70
     1
102
RTVSPost2010Prop54
  1
strokes_ogs.tif
102
RTVSPost2010PropOp54
 70
     1
102
RTVSPost2010Prop55
280
     0
102
RTVSPost2010PropOp55
 70
     1
102
RTVSPost2010Prop56
140
1.0
102
RTVSPost2010PropOp56
 70
     1
102
RTVSPost2010Prop57
140
1.0
102
RTVSPost2010PropOp57
 70
     1
102
RTVSPropertyOp0
 70
     1
102
RTVSPropertyOp1
 70
     1
102
RTVSPropertyOp2
 70
     1
102
RTVSPropertyOp3
 70
     1
102
RTVSPropertyOp4
 70
     1
102
RTVSPropertyOp5
 70
     1
102
RTVSPropertyOp6
 70
     1
102
RTVSPropertyOp7
 70
     1
102
RTVSPropertyOp8
 70
     1
102
RTVSPropertyOp9
 70
     1
102
RTVSPropertyOp10
 70
     1
102
RTVSPropertyOp11
 70
     1
102
RTVSPropertyOp12
 70
     1
102
RTVSPropertyOp13
 70
     1
102
RTVSPropertyOp14
 70
     1
102
RTVSPropertyOp15
 70
     1
102
RTVSPropertyOp16
 70
     1
102
RTVSPropertyOp17
 70
     1
102
RTVSPropertyOp18
 70
     1
102
RTVSPropertyOp19
 70
     1
102
RTVSPropertyOp20
 70
     1
102
RTVSPropertyOp21
 70
     1
102
RTVSPropertyOp22
 70
     1
102
RTVSPropertyOp23
 70
     1
102
RTVSPropertyOp24
 70
     1
102
RTVSPropertyOp25
 70
     1
102
RTVSPropertyOp26
 70
     1
102
RTVSPropertyOp27
 70
     1
102
RTVSPropertyOp28
 70
     1
102
RTVSPropertyOp29
 70
     1
102
RTVSPropertyOp30
 70
     1
102
RTVSPropertyOp31
 70
     1
102
RTVSPropertyOp32
 70
     1
102
RTVSPropertyOp33
 70
     1
102
RTVSPropertyOp34
 70
     1
102
RTVSPropertyOp35
 70
     1
102
RTVSPropertyOp36
 70
     1
102
RTVSPropertyOp37
 70
     1
102
RTVSPropertyOp38
 70
     1
102
RTVSPropertyOp39
 70
     1
102
RTVSPropertyOp40
 70
     1
102
RTVSPropertyOp41
 70
     1
102
RTVSPropertyOp42
 70
     1
102
RTVSPropertyOp43
 70
     1
102
RTVSPropertyOp44
 70
     1
102
RTVSPropertyOp45
 70
     1
102
RTVSPropertyOp46
 70
     1
102
RTVSPropertyOp47
 70
     1
102
RTVSPropertyOp48
 70
     1
102
RTVSPropertyOp49
 70
     1
102
RTVSPropertyOp50
 70
     1
102
RTVSPropertyOp51
 70
     0
102
RTVSPropertyOp52
 70
     0
102
RTVSPropertyOp53
 70
     1
102
RTVSPropertyOp54
 70
     1
102
RTVSPropertyOp55
 70
     1
102
RTVSPropertyOp56
 70
     1
102
RTVSPropertyOp57
 70
     1
102
RTVSPropertyOp58
 70
     1
102
RTVSPropertyOp59
 70
     1
102
RTVSPropertyOp60
 70
     1
102
RTVSPropertyOp61
 70
     1
102
RTVSPropertyOp62
 70
     1
  0
XRECORD
  5
26BA
102
{ACAD_REACTORS
330
26B9
102
}
330
26B9
100
AcDbXrecord
280
     1
102
RTVSPost2010Prop28
280
     0
102
RTVSPost2010PropOp28
 70
     1
102
RTVSPost2010Prop29
280
     1
102
RTVSPost2010PropOp29
 70
     1
102
RTVSPost2010Prop30
280
     1
102
RTVSPost2010PropOp30
 70
     1
102
RTVSPost2010Prop31
280
     0
102
RTVSPost2010PropOp31
 70
     1
102
RTVSPost2010Prop32
280
     0
102
RTVSPost2010PropOp32
 70
     1
102
RTVSPost2010Prop33
280
     0
102
RTVSPost2010PropOp33
 70
     1
102
RTVSPost2010Prop34
280
     0
102
RTVSPost2010PropOp34
 70
     1
102
RTVSPost2010Prop35
280
     0
102
RTVSPost2010PropOp35
 70
     1
102
RTVSPost2010Prop36
280
     0
102
RTVSPost2010PropOp36
 70
     1
102
RTVSPost2010Prop37
 90
       50
102
RTVSPost2010PropOp37
 70
     0
102
RTVSPost2010Prop38
140
0.0
102
RTVSPost2010PropOp38
 70
     0
102
RTVSPost2010Prop39
140
1.0
102
RTVSPost2010PropOp39
 70
     0
102
RTVSPost2010Prop40
 90
        0
102
RTVSPost2010PropOp40
 70
     0
102
RTVSPost2010Prop41ColorIndex
 90
       18
102
RTVSPost2010Prop41ColorRGB
 90
        0
102
RTVSPost2010PropOp41
 70
     0
102
RTVSPost2010Prop42
 90
       50
102
RTVSPost2010PropOp42
 70
     0
102
RTVSPost2010Prop43
 90
        3
102
RTVSPost2010PropOp43
 70
     0
102
RTVSPost2010Prop44ColorIndex
 90
        5
102
RTVSPost2010Prop44ColorRGB
 90
      255
102
RTVSPost2010PropOp44
 70
     0
102
RTVSPost2010Prop45
280
     0
102
RTVSPost2010PropOp45
 70
     1
102
RTVSPost2010Prop46
 90
       50
102
RTVSPost2010PropOp46
 70
     0
102
RTVSPost2010Prop47
 90
       50
102
RTVSPost2010PropOp47
 70
     0
102
RTVSPost2010Prop48
 90
       50
102
RTVSPost2010PropOp48
 70
     0
102
RTVSPost2010Prop49
280
     0
102
RTVSPost2010PropOp49
 70
     1
102
RTVSPost2010Prop50
 90
       50
102
RTVSPost2010PropOp50
 70
     0
102
RTVSPost2010Prop51ColorIndex
 90
      256
102
RTVSPost2010Prop51ColorRGB
 90
-16777216
102
RTVSPost2010PropOp51
 70
     0
102
RTVSPost2010Prop52
140
1.0
102
RTVSPost2010PropOp52
 70
     0
102
RTVSPost2010Prop53
 90
        2
102
RTVSPost2010PropOp53
 70
     0
102
RTVSPost2010Prop54
  1
strokes_ogs.tif
102
RTVSPost2010PropOp54
 70
     0
102
RTVSPost2010Prop55
280
     0
102
RTVSPost2010PropOp55
 70
     1
102
RTVSPost2010Prop56
140
1.0
102
RTVSPost2010PropOp56
 70
     0
102
RTVSPost2010Prop57
140
1.0
102
RTVSPost2010PropOp57
 70
     0
102
RTVSPropertyOp0
 70
     0
102
RTVSPropertyOp1
 70
     0
102
RTVSPropertyOp2
 70
     0
102
RTVSPropertyOp3
 70
     0
102
RTVSPropertyOp4
 70
     0
102
RTVSPropertyOp5
 70
     0
102
RTVSPropertyOp6
 70
     0
102
RTVSPropertyOp7
 70
     0
102
RTVSPropertyOp8
 70
     0
102
RTVSPropertyOp9
 70
     0
102
RTVSPropertyOp10
 70
     0
102
RTVSPropertyOp11
 70
     0
102
RTVSPropertyOp12
 70
     0
102
RTVSPropertyOp13
 70
     0
102
RTVSPropertyOp14
 70
     2
102
RTVSPropertyOp15
 70
     0
102
RTVSPropertyOp16
 70
     0
102
RTVSPropertyOp17
 70
     0
102
RTVSPropertyOp18
 70
     0
102
RTVSPropertyOp19
 70
     0
102
RTVSPropertyOp20
 70
     0
102
RTVSPropertyOp21
 70
     0
102
RTVSPropertyOp22
 70
     0
102
RTVSPropertyOp23
 70
     0
102
RTVSPropertyOp24
 70
     0
102
RTVSPropertyOp25
 70
     0
102
RTVSPropertyOp26
 70
     0
102
RTVSPropertyOp27
 70
     0
102
RTVSPropertyOp28
 70
     1
102
RTVSPropertyOp29
 70
     1
102
RTVSPropertyOp30
 70
     1
102
RTVSPropertyOp31
 70
     1
102
RTVSPropertyOp32
 70
     1
102
RTVSPropertyOp33
 70
     1
102
RTVSPropertyOp34
 70
     1
102
RTVSPropertyOp35
 70
     1
102
RTVSPropertyOp36
 70
     1
102
RTVSPropertyOp37
 70
     0
102
RTVSPropertyOp38
 70
     0
102
RTVSPropertyOp39
 70
     0
102
RTVSPropertyOp40
 70
     0
102
RTVSPropertyOp41
 70
     0
102
RTVSPropertyOp42
 70
     0
102
RTVSPropertyOp43
 70
     0
102
RTVSPropertyOp44
 70
     0
102
RTVSPropertyOp45
 70
     1
102
RTVSPropertyOp46
 70
     0
102
RTVSPropertyOp47
 70
     0
102
RTVSPropertyOp48
 70
     0
102
RTVSPropertyOp49
 70
     1
102
RTVSPropertyOp50
 70
     0
102
RTVSPropertyOp51
 70
     0
102
RTVSPropertyOp52
 70
     0
102
RTVSPropertyOp53
 70
     0
102
RTVSPropertyOp54
 70
     0
102
RTVSPropertyOp55
 70
     1
102
RTVSPropertyOp56
 70
     0
102
RTVSPropertyOp57
 70
     0
102
RTVSPropertyOp58
 70
     0
102
RTVSPropertyOp59
 70
     0
102
RTVSPropertyOp60
 70
     0
102
RTVSPropertyOp61
 70
     0
102
RTVSPropertyOp62
 70
     0
  0
XRECORD
  5
26AA
102
{ACAD_REACTORS
330
26A9
102
}
330
26A9
100
AcDbXrecord
280
     1
102
RTVSPost2010Prop28
280
     0
102
RTVSPost2010PropOp28
 70
     1
102
RTVSPost2010Prop29
280
     1
102
RTVSPost2010PropOp29
 70
     1
102
RTVSPost2010Prop30
280
     1
102
RTVSPost2010PropOp30
 70
     1
102
RTVSPost2010Prop31
280
     0
102
RTVSPost2010PropOp31
 70
     1
102
RTVSPost2010Prop32
280
     0
102
RTVSPost2010PropOp32
 70
     1
102
RTVSPost2010Prop33
280
     0
102
RTVSPost2010PropOp33
 70
     1
102
RTVSPost2010Prop34
280
     0
102
RTVSPost2010PropOp34
 70
     1
102
RTVSPost2010Prop35
280
     0
102
RTVSPost2010PropOp35
 70
     1
102
RTVSPost2010Prop36
280
     0
102
RTVSPost2010PropOp36
 70
     1
102
RTVSPost2010Prop37
 90
       50
102
RTVSPost2010PropOp37
 70
     1
102
RTVSPost2010Prop38
140
0.0
102
RTVSPost2010PropOp38
 70
     1
102
RTVSPost2010Prop39
140
1.0
102
RTVSPost2010PropOp39
 70
     1
102
RTVSPost2010Prop40
 90
        0
102
RTVSPost2010PropOp40
 70
     1
102
RTVSPost2010Prop41ColorIndex
 90
       18
102
RTVSPost2010Prop41ColorRGB
 90
        0
102
RTVSPost2010PropOp41
 70
     1
102
RTVSPost2010Prop42
 90
       50
102
RTVSPost2010PropOp42
 70
     1
102
RTVSPost2010Prop43
 90
        3
102
RTVSPost2010PropOp43
 70
     1
102
RTVSPost2010Prop44ColorIndex
 90
        5
102
RTVSPost2010Prop44ColorRGB
 90
      255
102
RTVSPost2010PropOp44
 70
     1
102
RTVSPost2010Prop45
280
     0
102
RTVSPost2010PropOp45
 70
     1
102
RTVSPost2010Prop46
 90
       50
102
RTVSPost2010PropOp46
 70
     1
102
RTVSPost2010Prop47
 90
       50
102
RTVSPost2010PropOp47
 70
     1
102
RTVSPost2010Prop48
 90
       50
102
RTVSPost2010PropOp48
 70
     1
102
RTVSPost2010Prop49
280
     0
102
RTVSPost2010PropOp49
 70
     1
102
RTVSPost2010Prop50
 90
       50
102
RTVSPost2010PropOp50
 70
     1
102
RTVSPost2010Prop51ColorIndex
 90
      256
102
RTVSPost2010Prop51ColorRGB
 90
-16777216
102
RTVSPost2010PropOp51
 70
     0
102
RTVSPost2010Prop52
140
1.0
102
RTVSPost2010PropOp52
 70
     0
102
RTVSPost2010Prop53
 90
        2
102
RTVSPost2010PropOp53
 70
     1
102
RTVSPost2010Prop54
  1
strokes_ogs.tif
102
RTVSPost2010PropOp54
 70
     1
102
RTVSPost2010Prop55
280
     0
102
RTVSPost2010PropOp55
 70
     1
102
RTVSPost2010Prop56
140
1.0
102
RTVSPost2010PropOp56
 70
     1
102
RTVSPost2010Prop57
140
1.0
102
RTVSPost2010PropOp57
 70
     1
102
RTVSPropertyOp0
 70
     1
102
RTVSPropertyOp1
 70
     1
102
RTVSPropertyOp2
 70
     1
102
RTVSPropertyOp3
 70
     1
102
RTVSPropertyOp4
 70
     1
102
RTVSPropertyOp5
 70
     1
102
RTVSPropertyOp6
 70
     1
102
RTVSPropertyOp7
 70
     1
102
RTVSPropertyOp8
 70
     1
102
RTVSPropertyOp9
 70
     1
102
RTVSPropertyOp10
 70
     1
102
RTVSPropertyOp11
 70
     1
102
RTVSPropertyOp12
 70
     1
102
RTVSPropertyOp13
 70
     1
102
RTVSPropertyOp14
 70
     1
102
RTVSPropertyOp15
 70
     1
102
RTVSPropertyOp16
 70
     1
102
RTVSPropertyOp17
 70
     1
102
RTVSPropertyOp18
 70
     1
102
RTVSPropertyOp19
 70
     1
102
RTVSPropertyOp20
 70
     1
102
RTVSPropertyOp21
 70
     1
102
RTVSPropertyOp22
 70
     1
102
RTVSPropertyOp23
 70
     1
102
RTVSPropertyOp24
 70
     1
102
RTVSPropertyOp25
 70
     1
102
RTVSPropertyOp26
 70
     1
102
RTVSPropertyOp27
 70
     1
102
RTVSPropertyOp28
 70
     1
102
RTVSPropertyOp29
 70
     1
102
RTVSPropertyOp30
 70
     1
102
RTVSPropertyOp31
 70
     1
102
RTVSPropertyOp32
 70
     1
102
RTVSPropertyOp33
 70
     1
102
RTVSPropertyOp34
 70
     1
102
RTVSPropertyOp35
 70
     1
102
RTVSPropertyOp36
 70
     1
102
RTVSPropertyOp37
 70
     1
102
RTVSPropertyOp38
 70
     1
102
RTVSPropertyOp39
 70
     1
102
RTVSPropertyOp40
 70
     1
102
RTVSPropertyOp41
 70
     1
102
RTVSPropertyOp42
 70
     1
102
RTVSPropertyOp43
 70
     1
102
RTVSPropertyOp44
 70
     1
102
RTVSPropertyOp45
 70
     1
102
RTVSPropertyOp46
 70
     1
102
RTVSPropertyOp47
 70
     1
102
RTVSPropertyOp48
 70
     1
102
RTVSPropertyOp49
 70
     1
102
RTVSPropertyOp50
 70
     1
102
RTVSPropertyOp51
 70
     0
102
RTVSPropertyOp52
 70
     0
102
RTVSPropertyOp53
 70
     1
102
RTVSPropertyOp54
 70
     1
102
RTVSPropertyOp55
 70
     1
102
RTVSPropertyOp56
 70
     1
102
RTVSPropertyOp57
 70
     1
102
RTVSPropertyOp58
 70
     1
102
RTVSPropertyOp59
 70
     1
102
RTVSPropertyOp60
 70
     1
102
RTVSPropertyOp61
 70
     1
102
RTVSPropertyOp62
 70
     1
  0
XRECORD
  5
26BC
102
{ACAD_REACTORS
330
26BB
102
}
330
26BB
100
AcDbXrecord
280
     1
102
RTVSPost2010Prop28
280
     0
102
RTVSPost2010PropOp28
 70
     1
102
RTVSPost2010Prop29
280
     1
102
RTVSPost2010PropOp29
 70
     1
102
RTVSPost2010Prop30
280
     1
102
RTVSPost2010PropOp30
 70
     1
102
RTVSPost2010Prop31
280
     0
102
RTVSPost2010PropOp31
 70
     1
102
RTVSPost2010Prop32
280
     0
102
RTVSPost2010PropOp32
 70
     1
102
RTVSPost2010Prop33
280
     0
102
RTVSPost2010PropOp33
 70
     1
102
RTVSPost2010Prop34
280
     0
102
RTVSPost2010PropOp34
 70
     1
102
RTVSPost2010Prop35
280
     0
102
RTVSPost2010PropOp35
 70
     1
102
RTVSPost2010Prop36
280
     0
102
RTVSPost2010PropOp36
 70
     1
102
RTVSPost2010Prop37
 90
       50
102
RTVSPost2010PropOp37
 70
     0
102
RTVSPost2010Prop38
140
0.0
102
RTVSPost2010PropOp38
 70
     0
102
RTVSPost2010Prop39
140
1.0
102
RTVSPost2010PropOp39
 70
     0
102
RTVSPost2010Prop40
 90
        0
102
RTVSPost2010PropOp40
 70
     0
102
RTVSPost2010Prop41ColorIndex
 90
       18
102
RTVSPost2010Prop41ColorRGB
 90
        0
102
RTVSPost2010PropOp41
 70
     0
102
RTVSPost2010Prop42
 90
       50
102
RTVSPost2010PropOp42
 70
     0
102
RTVSPost2010Prop43
 90
        3
102
RTVSPost2010PropOp43
 70
     0
102
RTVSPost2010Prop44ColorIndex
 90
        5
102
RTVSPost2010Prop44ColorRGB
 90
      255
102
RTVSPost2010PropOp44
 70
     0
102
RTVSPost2010Prop45
280
     0
102
RTVSPost2010PropOp45
 70
     1
102
RTVSPost2010Prop46
 90
       50
102
RTVSPost2010PropOp46
 70
     0
102
RTVSPost2010Prop47
 90
       50
102
RTVSPost2010PropOp47
 70
     0
102
RTVSPost2010Prop48
 90
       50
102
RTVSPost2010PropOp48
 70
     0
102
RTVSPost2010Prop49
280
     0
102
RTVSPost2010PropOp49
 70
     1
102
RTVSPost2010Prop50
 90
       50
102
RTVSPost2010PropOp50
 70
     0
102
RTVSPost2010Prop51ColorIndex
 90
      256
102
RTVSPost2010Prop51ColorRGB
 90
-16777216
102
RTVSPost2010PropOp51
 70
     0
102
RTVSPost2010Prop52
140
1.0
102
RTVSPost2010PropOp52
 70
     0
102
RTVSPost2010Prop53
 90
        2
102
RTVSPost2010PropOp53
 70
     0
102
RTVSPost2010Prop54
  1
strokes_ogs.tif
102
RTVSPost2010PropOp54
 70
     0
102
RTVSPost2010Prop55
280
     0
102
RTVSPost2010PropOp55
 70
     1
102
RTVSPost2010Prop56
140
1.0
102
RTVSPost2010PropOp56
 70
     0
102
RTVSPost2010Prop57
140
1.0
102
RTVSPost2010PropOp57
 70
     0
102
RTVSPropertyOp0
 70
     0
102
RTVSPropertyOp1
 70
     0
102
RTVSPropertyOp2
 70
     0
102
RTVSPropertyOp3
 70
     0
102
RTVSPropertyOp4
 70
     0
102
RTVSPropertyOp5
 70
     0
102
RTVSPropertyOp6
 70
     0
102
RTVSPropertyOp7
 70
     0
102
RTVSPropertyOp8
 70
     0
102
RTVSPropertyOp9
 70
     0
102
RTVSPropertyOp10
 70
     0
102
RTVSPropertyOp11
 70
     0
102
RTVSPropertyOp12
 70
     0
102
RTVSPropertyOp13
 70
     0
102
RTVSPropertyOp14
 70
     2
102
RTVSPropertyOp15
 70
     0
102
RTVSPropertyOp16
 70
     0
102
RTVSPropertyOp17
 70
     0
102
RTVSPropertyOp18
 70
     0
102
RTVSPropertyOp19
 70
     0
102
RTVSPropertyOp20
 70
     0
102
RTVSPropertyOp21
 70
     0
102
RTVSPropertyOp22
 70
     0
102
RTVSPropertyOp23
 70
     0
102
RTVSPropertyOp24
 70
     0
102
RTVSPropertyOp25
 70
     0
102
RTVSPropertyOp26
 70
     0
102
RTVSPropertyOp27
 70
     0
102
RTVSPropertyOp28
 70
     1
102
RTVSPropertyOp29
 70
     1
102
RTVSPropertyOp30
 70
     1
102
RTVSPropertyOp31
 70
     1
102
RTVSPropertyOp32
 70
     1
102
RTVSPropertyOp33
 70
     1
102
RTVSPropertyOp34
 70
     1
102
RTVSPropertyOp35
 70
     1
102
RTVSPropertyOp36
 70
     1
102
RTVSPropertyOp37
 70
     0
102
RTVSPropertyOp38
 70
     0
102
RTVSPropertyOp39
 70
     0
102
RTVSPropertyOp40
 70
     0
102
RTVSPropertyOp41
 70
     0
102
RTVSPropertyOp42
 70
     0
102
RTVSPropertyOp43
 70
     0
102
RTVSPropertyOp44
 70
     0
102
RTVSPropertyOp45
 70
     1
102
RTVSPropertyOp46
 70
     0
102
RTVSPropertyOp47
 70
     0
102
RTVSPropertyOp48
 70
     0
102
RTVSPropertyOp49
 70
     1
102
RTVSPropertyOp50
 70
     0
102
RTVSPropertyOp51
 70
     0
102
RTVSPropertyOp52
 70
     0
102
RTVSPropertyOp53
 70
     0
102
RTVSPropertyOp54
 70
     0
102
RTVSPropertyOp55
 70
     1
102
RTVSPropertyOp56
 70
     0
102
RTVSPropertyOp57
 70
     0
102
RTVSPropertyOp58
 70
     0
102
RTVSPropertyOp59
 70
     0
102
RTVSPropertyOp60
 70
     0
102
RTVSPropertyOp61
 70
     0
102
RTVSPropertyOp62
 70
     0
  0
XRECORD
  5
26A2
102
{ACAD_REACTORS
330
26A1
102
}
330
26A1
100
AcDbXrecord
280
     1
102
RTVSPost2010Prop28
280
     0
102
RTVSPost2010PropOp28
 70
     1
102
RTVSPost2010Prop29
280
     1
102
RTVSPost2010PropOp29
 70
     1
102
RTVSPost2010Prop30
280
     1
102
RTVSPost2010PropOp30
 70
     1
102
RTVSPost2010Prop31
280
     0
102
RTVSPost2010PropOp31
 70
     1
102
RTVSPost2010Prop32
280
     0
102
RTVSPost2010PropOp32
 70
     1
102
RTVSPost2010Prop33
280
     0
102
RTVSPost2010PropOp33
 70
     1
102
RTVSPost2010Prop34
280
     0
102
RTVSPost2010PropOp34
 70
     1
102
RTVSPost2010Prop35
280
     0
102
RTVSPost2010PropOp35
 70
     1
102
RTVSPost2010Prop36
280
     0
102
RTVSPost2010PropOp36
 70
     1
102
RTVSPost2010Prop37
 90
       50
102
RTVSPost2010PropOp37
 70
     1
102
RTVSPost2010Prop38
140
0.0
102
RTVSPost2010PropOp38
 70
     1
102
RTVSPost2010Prop39
140
1.0
102
RTVSPost2010PropOp39
 70
     1
102
RTVSPost2010Prop40
 90
        0
102
RTVSPost2010PropOp40
 70
     1
102
RTVSPost2010Prop41ColorIndex
 90
       18
102
RTVSPost2010Prop41ColorRGB
 90
        0
102
RTVSPost2010PropOp41
 70
     1
102
RTVSPost2010Prop42
 90
       50
102
RTVSPost2010PropOp42
 70
     1
102
RTVSPost2010Prop43
 90
        3
102
RTVSPost2010PropOp43
 70
     1
102
RTVSPost2010Prop44ColorIndex
 90
        5
102
RTVSPost2010Prop44ColorRGB
 90
      255
102
RTVSPost2010PropOp44
 70
     1
102
RTVSPost2010Prop45
280
     0
102
RTVSPost2010PropOp45
 70
     1
102
RTVSPost2010Prop46
 90
       50
102
RTVSPost2010PropOp46
 70
     1
102
RTVSPost2010Prop47
 90
       50
102
RTVSPost2010PropOp47
 70
     1
102
RTVSPost2010Prop48
 90
       50
102
RTVSPost2010PropOp48
 70
     1
102
RTVSPost2010Prop49
280
     0
102
RTVSPost2010PropOp49
 70
     1
102
RTVSPost2010Prop50
 90
       50
102
RTVSPost2010PropOp50
 70
     1
102
RTVSPost2010Prop51ColorIndex
 90
      256
102
RTVSPost2010Prop51ColorRGB
 90
-16777216
102
RTVSPost2010PropOp51
 70
     0
102
RTVSPost2010Prop52
140
1.0
102
RTVSPost2010PropOp52
 70
     0
102
RTVSPost2010Prop53
 90
        2
102
RTVSPost2010PropOp53
 70
     1
102
RTVSPost2010Prop54
  1
strokes_ogs.tif
102
RTVSPost2010PropOp54
 70
     1
102
RTVSPost2010Prop55
280
     0
102
RTVSPost2010PropOp55
 70
     1
102
RTVSPost2010Prop56
140
1.0
102
RTVSPost2010PropOp56
 70
     1
102
RTVSPost2010Prop57
140
1.0
102
RTVSPost2010PropOp57
 70
     1
102
RTVSPropertyOp0
 70
     1
102
RTVSPropertyOp1
 70
     1
102
RTVSPropertyOp2
 70
     1
102
RTVSPropertyOp3
 70
     1
102
RTVSPropertyOp4
 70
     1
102
RTVSPropertyOp5
 70
     1
102
RTVSPropertyOp6
 70
     1
102
RTVSPropertyOp7
 70
     1
102
RTVSPropertyOp8
 70
     1
102
RTVSPropertyOp9
 70
     1
102
RTVSPropertyOp10
 70
     1
102
RTVSPropertyOp11
 70
     1
102
RTVSPropertyOp12
 70
     1
102
RTVSPropertyOp13
 70
     1
102
RTVSPropertyOp14
 70
     1
102
RTVSPropertyOp15
 70
     1
102
RTVSPropertyOp16
 70
     1
102
RTVSPropertyOp17
 70
     1
102
RTVSPropertyOp18
 70
     1
102
RTVSPropertyOp19
 70
     1
102
RTVSPropertyOp20
 70
     1
102
RTVSPropertyOp21
 70
     1
102
RTVSPropertyOp22
 70
     1
102
RTVSPropertyOp23
 70
     1
102
RTVSPropertyOp24
 70
     1
102
RTVSPropertyOp25
 70
     1
102
RTVSPropertyOp26
 70
     1
102
RTVSPropertyOp27
 70
     1
102
RTVSPropertyOp28
 70
     1
102
RTVSPropertyOp29
 70
     1
102
RTVSPropertyOp30
 70
     1
102
RTVSPropertyOp31
 70
     1
102
RTVSPropertyOp32
 70
     1
102
RTVSPropertyOp33
 70
     1
102
RTVSPropertyOp34
 70
     1
102
RTVSPropertyOp35
 70
     1
102
RTVSPropertyOp36
 70
     1
102
RTVSPropertyOp37
 70
     1
102
RTVSPropertyOp38
 70
     1
102
RTVSPropertyOp39
 70
     1
102
RTVSPropertyOp40
 70
     1
102
RTVSPropertyOp41
 70
     1
102
RTVSPropertyOp42
 70
     1
102
RTVSPropertyOp43
 70
     1
102
RTVSPropertyOp44
 70
     1
102
RTVSPropertyOp45
 70
     1
102
RTVSPropertyOp46
 70
     1
102
RTVSPropertyOp47
 70
     1
102
RTVSPropertyOp48
 70
     1
102
RTVSPropertyOp49
 70
     1
102
RTVSPropertyOp50
 70
     1
102
RTVSPropertyOp51
 70
     0
102
RTVSPropertyOp52
 70
     0
102
RTVSPropertyOp53
 70
     1
102
RTVSPropertyOp54
 70
     1
102
RTVSPropertyOp55
 70
     1
102
RTVSPropertyOp56
 70
     1
102
RTVSPropertyOp57
 70
     1
102
RTVSPropertyOp58
 70
     1
102
RTVSPropertyOp59
 70
     1
102
RTVSPropertyOp60
 70
     1
102
RTVSPropertyOp61
 70
     1
102
RTVSPropertyOp62
 70
     1
  0
XRECORD
  5
26B8
102
{ACAD_REACTORS
330
26B7
102
}
330
26B7
100
AcDbXrecord
280
     1
102
RTVSPost2010Prop28
280
     0
102
RTVSPost2010PropOp28
 70
     1
102
RTVSPost2010Prop29
280
     1
102
RTVSPost2010PropOp29
 70
     1
102
RTVSPost2010Prop30
280
     1
102
RTVSPost2010PropOp30
 70
     1
102
RTVSPost2010Prop31
280
     0
102
RTVSPost2010PropOp31
 70
     1
102
RTVSPost2010Prop32
280
     0
102
RTVSPost2010PropOp32
 70
     1
102
RTVSPost2010Prop33
280
     0
102
RTVSPost2010PropOp33
 70
     1
102
RTVSPost2010Prop34
280
     0
102
RTVSPost2010PropOp34
 70
     1
102
RTVSPost2010Prop35
280
     0
102
RTVSPost2010PropOp35
 70
     1
102
RTVSPost2010Prop36
280
     0
102
RTVSPost2010PropOp36
 70
     1
102
RTVSPost2010Prop37
 90
       50
102
RTVSPost2010PropOp37
 70
     1
102
RTVSPost2010Prop38
140
0.0
102
RTVSPost2010PropOp38
 70
     1
102
RTVSPost2010Prop39
140
1.0
102
RTVSPost2010PropOp39
 70
     1
102
RTVSPost2010Prop40
 90
        0
102
RTVSPost2010PropOp40
 70
     1
102
RTVSPost2010Prop41ColorIndex
 90
       18
102
RTVSPost2010Prop41ColorRGB
 90
        0
102
RTVSPost2010PropOp41
 70
     1
102
RTVSPost2010Prop42
 90
       50
102
RTVSPost2010PropOp42
 70
     1
102
RTVSPost2010Prop43
 90
        3
102
RTVSPost2010PropOp43
 70
     1
102
RTVSPost2010Prop44ColorIndex
 90
        5
102
RTVSPost2010Prop44ColorRGB
 90
      255
102
RTVSPost2010PropOp44
 70
     1
102
RTVSPost2010Prop45
280
     0
102
RTVSPost2010PropOp45
 70
     1
102
RTVSPost2010Prop46
 90
       50
102
RTVSPost2010PropOp46
 70
     1
102
RTVSPost2010Prop47
 90
       50
102
RTVSPost2010PropOp47
 70
     1
102
RTVSPost2010Prop48
 90
       50
102
RTVSPost2010PropOp48
 70
     1
102
RTVSPost2010Prop49
280
     0
102
RTVSPost2010PropOp49
 70
     1
102
RTVSPost2010Prop50
 90
       50
102
RTVSPost2010PropOp50
 70
     1
102
RTVSPost2010Prop51ColorIndex
 90
      256
102
RTVSPost2010Prop51ColorRGB
 90
-16777216
102
RTVSPost2010PropOp51
 70
     0
102
RTVSPost2010Prop52
140
1.0
102
RTVSPost2010PropOp52
 70
     0
102
RTVSPost2010Prop53
 90
        2
102
RTVSPost2010PropOp53
 70
     1
102
RTVSPost2010Prop54
  1
strokes_ogs.tif
102
RTVSPost2010PropOp54
 70
     1
102
RTVSPost2010Prop55
280
     0
102
RTVSPost2010PropOp55
 70
     1
102
RTVSPost2010Prop56
140
1.0
102
RTVSPost2010PropOp56
 70
     1
102
RTVSPost2010Prop57
140
1.0
102
RTVSPost2010PropOp57
 70
     1
102
RTVSPropertyOp0
 70
     1
102
RTVSPropertyOp1
 70
     1
102
RTVSPropertyOp2
 70
     1
102
RTVSPropertyOp3
 70
     1
102
RTVSPropertyOp4
 70
     1
102
RTVSPropertyOp5
 70
     1
102
RTVSPropertyOp6
 70
     1
102
RTVSPropertyOp7
 70
     1
102
RTVSPropertyOp8
 70
     1
102
RTVSPropertyOp9
 70
     1
102
RTVSPropertyOp10
 70
     1
102
RTVSPropertyOp11
 70
     1
102
RTVSPropertyOp12
 70
     1
102
RTVSPropertyOp13
 70
     1
102
RTVSPropertyOp14
 70
     1
102
RTVSPropertyOp15
 70
     1
102
RTVSPropertyOp16
 70
     1
102
RTVSPropertyOp17
 70
     1
102
RTVSPropertyOp18
 70
     1
102
RTVSPropertyOp19
 70
     1
102
RTVSPropertyOp20
 70
     1
102
RTVSPropertyOp21
 70
     1
102
RTVSPropertyOp22
 70
     1
102
RTVSPropertyOp23
 70
     1
102
RTVSPropertyOp24
 70
     1
102
RTVSPropertyOp25
 70
     1
102
RTVSPropertyOp26
 70
     1
102
RTVSPropertyOp27
 70
     1
102
RTVSPropertyOp28
 70
     1
102
RTVSPropertyOp29
 70
     1
102
RTVSPropertyOp30
 70
     1
102
RTVSPropertyOp31
 70
     1
102
RTVSPropertyOp32
 70
     1
102
RTVSPropertyOp33
 70
     1
102
RTVSPropertyOp34
 70
     1
102
RTVSPropertyOp35
 70
     1
102
RTVSPropertyOp36
 70
     1
102
RTVSPropertyOp37
 70
     1
102
RTVSPropertyOp38
 70
     1
102
RTVSPropertyOp39
 70
     1
102
RTVSPropertyOp40
 70
     1
102
RTVSPropertyOp41
 70
     1
102
RTVSPropertyOp42
 70
     1
102
RTVSPropertyOp43
 70
     1
102
RTVSPropertyOp44
 70
     1
102
RTVSPropertyOp45
 70
     1
102
RTVSPropertyOp46
 70
     1
102
RTVSPropertyOp47
 70
     1
102
RTVSPropertyOp48
 70
     1
102
RTVSPropertyOp49
 70
     1
102
RTVSPropertyOp50
 70
     1
102
RTVSPropertyOp51
 70
     0
102
RTVSPropertyOp52
 70
     0
102
RTVSPropertyOp53
 70
     1
102
RTVSPropertyOp54
 70
     1
102
RTVSPropertyOp55
 70
     1
102
RTVSPropertyOp56
 70
     1
102
RTVSPropertyOp57
 70
     1
102
RTVSPropertyOp58
 70
     1
102
RTVSPropertyOp59
 70
     1
102
RTVSPropertyOp60
 70
     1
102
RTVSPropertyOp61
 70
     1
102
RTVSPropertyOp62
 70
     1
  0
XRECORD
  5
26B6
102
{ACAD_REACTORS
330
26B5
102
}
330
26B5
100
AcDbXrecord
280
     1
102
RTVSPost2010Prop28
280
     0
102
RTVSPost2010PropOp28
 70
     1
102
RTVSPost2010Prop29
280
     1
102
RTVSPost2010PropOp29
 70
     1
102
RTVSPost2010Prop30
280
     1
102
RTVSPost2010PropOp30
 70
     1
102
RTVSPost2010Prop31
280
     0
102
RTVSPost2010PropOp31
 70
     1
102
RTVSPost2010Prop32
280
     0
102
RTVSPost2010PropOp32
 70
     1
102
RTVSPost2010Prop33
280
     0
102
RTVSPost2010PropOp33
 70
     1
102
RTVSPost2010Prop34
280
     0
102
RTVSPost2010PropOp34
 70
     1
102
RTVSPost2010Prop35
280
     0
102
RTVSPost2010PropOp35
 70
     1
102
RTVSPost2010Prop36
280
     0
102
RTVSPost2010PropOp36
 70
     1
102
RTVSPost2010Prop37
 90
       50
102
RTVSPost2010PropOp37
 70
     1
102
RTVSPost2010Prop38
140
0.0
102
RTVSPost2010PropOp38
 70
     1
102
RTVSPost2010Prop39
140
1.0
102
RTVSPost2010PropOp39
 70
     1
102
RTVSPost2010Prop40
 90
        0
102
RTVSPost2010PropOp40
 70
     1
102
RTVSPost2010Prop41ColorIndex
 90
       18
102
RTVSPost2010Prop41ColorRGB
 90
        0
102
RTVSPost2010PropOp41
 70
     1
102
RTVSPost2010Prop42
 90
       50
102
RTVSPost2010PropOp42
 70
     1
102
RTVSPost2010Prop43
 90
        3
102
RTVSPost2010PropOp43
 70
     1
102
RTVSPost2010Prop44ColorIndex
 90
        5
102
RTVSPost2010Prop44ColorRGB
 90
      255
102
RTVSPost2010PropOp44
 70
     1
102
RTVSPost2010Prop45
280
     0
102
RTVSPost2010PropOp45
 70
     1
102
RTVSPost2010Prop46
 90
       50
102
RTVSPost2010PropOp46
 70
     1
102
RTVSPost2010Prop47
 90
       50
102
RTVSPost2010PropOp47
 70
     1
102
RTVSPost2010Prop48
 90
       50
102
RTVSPost2010PropOp48
 70
     1
102
RTVSPost2010Prop49
280
     0
102
RTVSPost2010PropOp49
 70
     1
102
RTVSPost2010Prop50
 90
       50
102
RTVSPost2010PropOp50
 70
     1
102
RTVSPost2010Prop51ColorIndex
 90
      256
102
RTVSPost2010Prop51ColorRGB
 90
-16777216
102
RTVSPost2010PropOp51
 70
     0
102
RTVSPost2010Prop52
140
1.0
102
RTVSPost2010PropOp52
 70
     0
102
RTVSPost2010Prop53
 90
        2
102
RTVSPost2010PropOp53
 70
     1
102
RTVSPost2010Prop54
  1
strokes_ogs.tif
102
RTVSPost2010PropOp54
 70
     1
102
RTVSPost2010Prop55
280
     0
102
RTVSPost2010PropOp55
 70
     1
102
RTVSPost2010Prop56
140
1.0
102
RTVSPost2010PropOp56
 70
     1
102
RTVSPost2010Prop57
140
1.0
102
RTVSPost2010PropOp57
 70
     1
102
RTVSPropertyOp0
 70
     1
102
RTVSPropertyOp1
 70
     1
102
RTVSPropertyOp2
 70
     1
102
RTVSPropertyOp3
 70
     1
102
RTVSPropertyOp4
 70
     1
102
RTVSPropertyOp5
 70
     1
102
RTVSPropertyOp6
 70
     1
102
RTVSPropertyOp7
 70
     1
102
RTVSPropertyOp8
 70
     1
102
RTVSPropertyOp9
 70
     1
102
RTVSPropertyOp10
 70
     1
102
RTVSPropertyOp11
 70
     1
102
RTVSPropertyOp12
 70
     1
102
RTVSPropertyOp13
 70
     1
102
RTVSPropertyOp14
 70
     1
102
RTVSPropertyOp15
 70
     1
102
RTVSPropertyOp16
 70
     1
102
RTVSPropertyOp17
 70
     1
102
RTVSPropertyOp18
 70
     1
102
RTVSPropertyOp19
 70
     1
102
RTVSPropertyOp20
 70
     1
102
RTVSPropertyOp21
 70
     1
102
RTVSPropertyOp22
 70
     1
102
RTVSPropertyOp23
 70
     1
102
RTVSPropertyOp24
 70
     1
102
RTVSPropertyOp25
 70
     1
102
RTVSPropertyOp26
 70
     1
102
RTVSPropertyOp27
 70
     1
102
RTVSPropertyOp28
 70
     1
102
RTVSPropertyOp29
 70
     1
102
RTVSPropertyOp30
 70
     1
102
RTVSPropertyOp31
 70
     1
102
RTVSPropertyOp32
 70
     1
102
RTVSPropertyOp33
 70
     1
102
RTVSPropertyOp34
 70
     1
102
RTVSPropertyOp35
 70
     1
102
RTVSPropertyOp36
 70
     1
102
RTVSPropertyOp37
 70
     1
102
RTVSPropertyOp38
 70
     1
102
RTVSPropertyOp39
 70
     1
102
RTVSPropertyOp40
 70
     1
102
RTVSPropertyOp41
 70
     1
102
RTVSPropertyOp42
 70
     1
102
RTVSPropertyOp43
 70
     1
102
RTVSPropertyOp44
 70
     1
102
RTVSPropertyOp45
 70
     1
102
RTVSPropertyOp46
 70
     1
102
RTVSPropertyOp47
 70
     1
102
RTVSPropertyOp48
 70
     1
102
RTVSPropertyOp49
 70
     1
102
RTVSPropertyOp50
 70
     1
102
RTVSPropertyOp51
 70
     0
102
RTVSPropertyOp52
 70
     0
102
RTVSPropertyOp53
 70
     1
102
RTVSPropertyOp54
 70
     1
102
RTVSPropertyOp55
 70
     1
102
RTVSPropertyOp56
 70
     1
102
RTVSPropertyOp57
 70
     1
102
RTVSPropertyOp58
 70
     1
102
RTVSPropertyOp59
 70
     1
102
RTVSPropertyOp60
 70
     1
102
RTVSPropertyOp61
 70
     1
102
RTVSPropertyOp62
 70
     1
  0
XRECORD
  5
26B0
102
{ACAD_REACTORS
330
26AF
102
}
330
26AF
100
AcDbXrecord
280
     1
102
RTVSPost2010Prop28
280
     0
102
RTVSPost2010PropOp28
 70
     1
102
RTVSPost2010Prop29
280
     1
102
RTVSPost2010PropOp29
 70
     1
102
RTVSPost2010Prop30
280
     1
102
RTVSPost2010PropOp30
 70
     1
102
RTVSPost2010Prop31
280
     0
102
RTVSPost2010PropOp31
 70
     1
102
RTVSPost2010Prop32
280
     0
102
RTVSPost2010PropOp32
 70
     1
102
RTVSPost2010Prop33
280
     0
102
RTVSPost2010PropOp33
 70
     1
102
RTVSPost2010Prop34
280
     0
102
RTVSPost2010PropOp34
 70
     1
102
RTVSPost2010Prop35
280
     0
102
RTVSPost2010PropOp35
 70
     1
102
RTVSPost2010Prop36
280
     0
102
RTVSPost2010PropOp36
 70
     1
102
RTVSPost2010Prop37
 90
       50
102
RTVSPost2010PropOp37
 70
     1
102
RTVSPost2010Prop38
140
0.0
102
RTVSPost2010PropOp38
 70
     1
102
RTVSPost2010Prop39
140
1.0
102
RTVSPost2010PropOp39
 70
     1
102
RTVSPost2010Prop40
 90
        0
102
RTVSPost2010PropOp40
 70
     1
102
RTVSPost2010Prop41ColorIndex
 90
       18
102
RTVSPost2010Prop41ColorRGB
 90
        0
102
RTVSPost2010PropOp41
 70
     1
102
RTVSPost2010Prop42
 90
       50
102
RTVSPost2010PropOp42
 70
     1
102
RTVSPost2010Prop43
 90
        3
102
RTVSPost2010PropOp43
 70
     1
102
RTVSPost2010Prop44ColorIndex
 90
        5
102
RTVSPost2010Prop44ColorRGB
 90
      255
102
RTVSPost2010PropOp44
 70
     1
102
RTVSPost2010Prop45
280
     0
102
RTVSPost2010PropOp45
 70
     1
102
RTVSPost2010Prop46
 90
       50
102
RTVSPost2010PropOp46
 70
     1
102
RTVSPost2010Prop47
 90
       50
102
RTVSPost2010PropOp47
 70
     1
102
RTVSPost2010Prop48
 90
       50
102
RTVSPost2010PropOp48
 70
     1
102
RTVSPost2010Prop49
280
     0
102
RTVSPost2010PropOp49
 70
     1
102
RTVSPost2010Prop50
 90
       50
102
RTVSPost2010PropOp50
 70
     1
102
RTVSPost2010Prop51ColorIndex
 90
      256
102
RTVSPost2010Prop51ColorRGB
 90
-16777216
102
RTVSPost2010PropOp51
 70
     0
102
RTVSPost2010Prop52
140
1.0
102
RTVSPost2010PropOp52
 70
     0
102
RTVSPost2010Prop53
 90
        2
102
RTVSPost2010PropOp53
 70
     1
102
RTVSPost2010Prop54
  1
strokes_ogs.tif
102
RTVSPost2010PropOp54
 70
     1
102
RTVSPost2010Prop55
280
     0
102
RTVSPost2010PropOp55
 70
     1
102
RTVSPost2010Prop56
140
1.0
102
RTVSPost2010PropOp56
 70
     1
102
RTVSPost2010Prop57
140
1.0
102
RTVSPost2010PropOp57
 70
     1
102
RTVSPropertyOp0
 70
     1
102
RTVSPropertyOp1
 70
     1
102
RTVSPropertyOp2
 70
     1
102
RTVSPropertyOp3
 70
     1
102
RTVSPropertyOp4
 70
     1
102
RTVSPropertyOp5
 70
     1
102
RTVSPropertyOp6
 70
     1
102
RTVSPropertyOp7
 70
     1
102
RTVSPropertyOp8
 70
     1
102
RTVSPropertyOp9
 70
     1
102
RTVSPropertyOp10
 70
     1
102
RTVSPropertyOp11
 70
     1
102
RTVSPropertyOp12
 70
     1
102
RTVSPropertyOp13
 70
     1
102
RTVSPropertyOp14
 70
     1
102
RTVSPropertyOp15
 70
     1
102
RTVSPropertyOp16
 70
     1
102
RTVSPropertyOp17
 70
     1
102
RTVSPropertyOp18
 70
     1
102
RTVSPropertyOp19
 70
     1
102
RTVSPropertyOp20
 70
     1
102
RTVSPropertyOp21
 70
     1
102
RTVSPropertyOp22
 70
     1
102
RTVSPropertyOp23
 70
     1
102
RTVSPropertyOp24
 70
     1
102
RTVSPropertyOp25
 70
     1
102
RTVSPropertyOp26
 70
     1
102
RTVSPropertyOp27
 70
     1
102
RTVSPropertyOp28
 70
     1
102
RTVSPropertyOp29
 70
     1
102
RTVSPropertyOp30
 70
     1
102
RTVSPropertyOp31
 70
     1
102
RTVSPropertyOp32
 70
     1
102
RTVSPropertyOp33
 70
     1
102
RTVSPropertyOp34
 70
     1
102
RTVSPropertyOp35
 70
     1
102
RTVSPropertyOp36
 70
     1
102
RTVSPropertyOp37
 70
     1
102
RTVSPropertyOp38
 70
     1
102
RTVSPropertyOp39
 70
     1
102
RTVSPropertyOp40
 70
     1
102
RTVSPropertyOp41
 70
     1
102
RTVSPropertyOp42
 70
     1
102
RTVSPropertyOp43
 70
     1
102
RTVSPropertyOp44
 70
     1
102
RTVSPropertyOp45
 70
     1
102
RTVSPropertyOp46
 70
     1
102
RTVSPropertyOp47
 70
     1
102
RTVSPropertyOp48
 70
     1
102
RTVSPropertyOp49
 70
     1
102
RTVSPropertyOp50
 70
     1
102
RTVSPropertyOp51
 70
     0
102
RTVSPropertyOp52
 70
     0
102
RTVSPropertyOp53
 70
     1
102
RTVSPropertyOp54
 70
     1
102
RTVSPropertyOp55
 70
     1
102
RTVSPropertyOp56
 70
     1
102
RTVSPropertyOp57
 70
     1
102
RTVSPropertyOp58
 70
     1
102
RTVSPropertyOp59
 70
     1
102
RTVSPropertyOp60
 70
     1
102
RTVSPropertyOp61
 70
     1
102
RTVSPropertyOp62
 70
     1
  0
XRECORD
  5
26B2
102
{ACAD_REACTORS
330
26B1
102
}
330
26B1
100
AcDbXrecord
280
     1
102
RTVSPost2010Prop28
280
     0
102
RTVSPost2010PropOp28
 70
     1
102
RTVSPost2010Prop29
280
     1
102
RTVSPost2010PropOp29
 70
     1
102
RTVSPost2010Prop30
280
     1
102
RTVSPost2010PropOp30
 70
     1
102
RTVSPost2010Prop31
280
     0
102
RTVSPost2010PropOp31
 70
     1
102
RTVSPost2010Prop32
280
     0
102
RTVSPost2010PropOp32
 70
     1
102
RTVSPost2010Prop33
280
     0
102
RTVSPost2010PropOp33
 70
     1
102
RTVSPost2010Prop34
280
     0
102
RTVSPost2010PropOp34
 70
     1
102
RTVSPost2010Prop35
280
     0
102
RTVSPost2010PropOp35
 70
     1
102
RTVSPost2010Prop36
280
     0
102
RTVSPost2010PropOp36
 70
     1
102
RTVSPost2010Prop37
 90
       50
102
RTVSPost2010PropOp37
 70
     1
102
RTVSPost2010Prop38
140
0.0
102
RTVSPost2010PropOp38
 70
     1
102
RTVSPost2010Prop39
140
1.0
102
RTVSPost2010PropOp39
 70
     1
102
RTVSPost2010Prop40
 90
        0
102
RTVSPost2010PropOp40
 70
     1
102
RTVSPost2010Prop41ColorIndex
 90
       18
102
RTVSPost2010Prop41ColorRGB
 90
        0
102
RTVSPost2010PropOp41
 70
     1
102
RTVSPost2010Prop42
 90
       50
102
RTVSPost2010PropOp42
 70
     1
102
RTVSPost2010Prop43
 90
        3
102
RTVSPost2010PropOp43
 70
     1
102
RTVSPost2010Prop44ColorIndex
 90
        5
102
RTVSPost2010Prop44ColorRGB
 90
      255
102
RTVSPost2010PropOp44
 70
     1
102
RTVSPost2010Prop45
280
     0
102
RTVSPost2010PropOp45
 70
     1
102
RTVSPost2010Prop46
 90
       50
102
RTVSPost2010PropOp46
 70
     1
102
RTVSPost2010Prop47
 90
       50
102
RTVSPost2010PropOp47
 70
     1
102
RTVSPost2010Prop48
 90
       50
102
RTVSPost2010PropOp48
 70
     1
102
RTVSPost2010Prop49
280
     0
102
RTVSPost2010PropOp49
 70
     1
102
RTVSPost2010Prop50
 90
       50
102
RTVSPost2010PropOp50
 70
     1
102
RTVSPost2010Prop51ColorIndex
 90
      256
102
RTVSPost2010Prop51ColorRGB
 90
-16777216
102
RTVSPost2010PropOp51
 70
     0
102
RTVSPost2010Prop52
140
1.0
102
RTVSPost2010PropOp52
 70
     0
102
RTVSPost2010Prop53
 90
        2
102
RTVSPost2010PropOp53
 70
     1
102
RTVSPost2010Prop54
  1
strokes_ogs.tif
102
RTVSPost2010PropOp54
 70
     1
102
RTVSPost2010Prop55
280
     0
102
RTVSPost2010PropOp55
 70
     1
102
RTVSPost2010Prop56
140
1.0
102
RTVSPost2010PropOp56
 70
     1
102
RTVSPost2010Prop57
140
1.0
102
RTVSPost2010PropOp57
 70
     1
102
RTVSPropertyOp0
 70
     1
102
RTVSPropertyOp1
 70
     1
102
RTVSPropertyOp2
 70
     1
102
RTVSPropertyOp3
 70
     1
102
RTVSPropertyOp4
 70
     1
102
RTVSPropertyOp5
 70
     1
102
RTVSPropertyOp6
 70
     1
102
RTVSPropertyOp7
 70
     1
102
RTVSPropertyOp8
 70
     1
102
RTVSPropertyOp9
 70
     1
102
RTVSPropertyOp10
 70
     1
102
RTVSPropertyOp11
 70
     1
102
RTVSPropertyOp12
 70
     1
102
RTVSPropertyOp13
 70
     1
102
RTVSPropertyOp14
 70
     1
102
RTVSPropertyOp15
 70
     1
102
RTVSPropertyOp16
 70
     1
102
RTVSPropertyOp17
 70
     1
102
RTVSPropertyOp18
 70
     1
102
RTVSPropertyOp19
 70
     1
102
RTVSPropertyOp20
 70
     1
102
RTVSPropertyOp21
 70
     1
102
RTVSPropertyOp22
 70
     1
102
RTVSPropertyOp23
 70
     1
102
RTVSPropertyOp24
 70
     1
102
RTVSPropertyOp25
 70
     1
102
RTVSPropertyOp26
 70
     1
102
RTVSPropertyOp27
 70
     1
102
RTVSPropertyOp28
 70
     1
102
RTVSPropertyOp29
 70
     1
102
RTVSPropertyOp30
 70
     1
102
RTVSPropertyOp31
 70
     1
102
RTVSPropertyOp32
 70
     1
102
RTVSPropertyOp33
 70
     1
102
RTVSPropertyOp34
 70
     1
102
RTVSPropertyOp35
 70
     1
102
RTVSPropertyOp36
 70
     1
102
RTVSPropertyOp37
 70
     1
102
RTVSPropertyOp38
 70
     1
102
RTVSPropertyOp39
 70
     1
102
RTVSPropertyOp40
 70
     1
102
RTVSPropertyOp41
 70
     1
102
RTVSPropertyOp42
 70
     1
102
RTVSPropertyOp43
 70
     1
102
RTVSPropertyOp44
 70
     1
102
RTVSPropertyOp45
 70
     1
102
RTVSPropertyOp46
 70
     1
102
RTVSPropertyOp47
 70
     1
102
RTVSPropertyOp48
 70
     1
102
RTVSPropertyOp49
 70
     1
102
RTVSPropertyOp50
 70
     1
102
RTVSPropertyOp51
 70
     0
102
RTVSPropertyOp52
 70
     0
102
RTVSPropertyOp53
 70
     1
102
RTVSPropertyOp54
 70
     1
102
RTVSPropertyOp55
 70
     1
102
RTVSPropertyOp56
 70
     1
102
RTVSPropertyOp57
 70
     1
102
RTVSPropertyOp58
 70
     1
102
RTVSPropertyOp59
 70
     1
102
RTVSPropertyOp60
 70
     1
102
RTVSPropertyOp61
 70
     1
102
RTVSPropertyOp62
 70
     1
  0
XRECORD
  5
26A8
102
{ACAD_REACTORS
330
26A7
102
}
330
26A7
100
AcDbXrecord
280
     1
102
RTVSPost2010Prop28
280
     0
102
RTVSPost2010PropOp28
 70
     1
102
RTVSPost2010Prop29
280
     1
102
RTVSPost2010PropOp29
 70
     1
102
RTVSPost2010Prop30
280
     1
102
RTVSPost2010PropOp30
 70
     1
102
RTVSPost2010Prop31
280
     0
102
RTVSPost2010PropOp31
 70
     1
102
RTVSPost2010Prop32
280
     0
102
RTVSPost2010PropOp32
 70
     1
102
RTVSPost2010Prop33
280
     0
102
RTVSPost2010PropOp33
 70
     1
102
RTVSPost2010Prop34
280
     0
102
RTVSPost2010PropOp34
 70
     1
102
RTVSPost2010Prop35
280
     0
102
RTVSPost2010PropOp35
 70
     1
102
RTVSPost2010Prop36
280
     0
102
RTVSPost2010PropOp36
 70
     1
102
RTVSPost2010Prop37
 90
       50
102
RTVSPost2010PropOp37
 70
     1
102
RTVSPost2010Prop38
140
0.0
102
RTVSPost2010PropOp38
 70
     1
102
RTVSPost2010Prop39
140
1.0
102
RTVSPost2010PropOp39
 70
     1
102
RTVSPost2010Prop40
 90
        0
102
RTVSPost2010PropOp40
 70
     1
102
RTVSPost2010Prop41ColorIndex
 90
       18
102
RTVSPost2010Prop41ColorRGB
 90
        0
102
RTVSPost2010PropOp41
 70
     1
102
RTVSPost2010Prop42
 90
       50
102
RTVSPost2010PropOp42
 70
     1
102
RTVSPost2010Prop43
 90
        3
102
RTVSPost2010PropOp43
 70
     1
102
RTVSPost2010Prop44ColorIndex
 90
        5
102
RTVSPost2010Prop44ColorRGB
 90
      255
102
RTVSPost2010PropOp44
 70
     1
102
RTVSPost2010Prop45
280
     0
102
RTVSPost2010PropOp45
 70
     1
102
RTVSPost2010Prop46
 90
       50
102
RTVSPost2010PropOp46
 70
     1
102
RTVSPost2010Prop47
 90
       50
102
RTVSPost2010PropOp47
 70
     1
102
RTVSPost2010Prop48
 90
       50
102
RTVSPost2010PropOp48
 70
     1
102
RTVSPost2010Prop49
280
     0
102
RTVSPost2010PropOp49
 70
     1
102
RTVSPost2010Prop50
 90
       50
102
RTVSPost2010PropOp50
 70
     1
102
RTVSPost2010Prop51ColorIndex
 90
      256
102
RTVSPost2010Prop51ColorRGB
 90
-16777216
102
RTVSPost2010PropOp51
 70
     0
102
RTVSPost2010Prop52
140
1.0
102
RTVSPost2010PropOp52
 70
     0
102
RTVSPost2010Prop53
 90
        2
102
RTVSPost2010PropOp53
 70
     1
102
RTVSPost2010Prop54
  1
strokes_ogs.tif
102
RTVSPost2010PropOp54
 70
     1
102
RTVSPost2010Prop55
280
     0
102
RTVSPost2010PropOp55
 70
     1
102
RTVSPost2010Prop56
140
1.0
102
RTVSPost2010PropOp56
 70
     1
102
RTVSPost2010Prop57
140
1.0
102
RTVSPost2010PropOp57
 70
     1
102
RTVSPropertyOp0
 70
     1
102
RTVSPropertyOp1
 70
     1
102
RTVSPropertyOp2
 70
     1
102
RTVSPropertyOp3
 70
     1
102
RTVSPropertyOp4
 70
     1
102
RTVSPropertyOp5
 70
     1
102
RTVSPropertyOp6
 70
     1
102
RTVSPropertyOp7
 70
     1
102
RTVSPropertyOp8
 70
     1
102
RTVSPropertyOp9
 70
     1
102
RTVSPropertyOp10
 70
     1
102
RTVSPropertyOp11
 70
     1
102
RTVSPropertyOp12
 70
     1
102
RTVSPropertyOp13
 70
     1
102
RTVSPropertyOp14
 70
     1
102
RTVSPropertyOp15
 70
     1
102
RTVSPropertyOp16
 70
     1
102
RTVSPropertyOp17
 70
     1
102
RTVSPropertyOp18
 70
     1
102
RTVSPropertyOp19
 70
     1
102
RTVSPropertyOp20
 70
     1
102
RTVSPropertyOp21
 70
     1
102
RTVSPropertyOp22
 70
     1
102
RTVSPropertyOp23
 70
     1
102
RTVSPropertyOp24
 70
     1
102
RTVSPropertyOp25
 70
     1
102
RTVSPropertyOp26
 70
     1
102
RTVSPropertyOp27
 70
     1
102
RTVSPropertyOp28
 70
     1
102
RTVSPropertyOp29
 70
     1
102
RTVSPropertyOp30
 70
     1
102
RTVSPropertyOp31
 70
     1
102
RTVSPropertyOp32
 70
     1
102
RTVSPropertyOp33
 70
     1
102
RTVSPropertyOp34
 70
     1
102
RTVSPropertyOp35
 70
     1
102
RTVSPropertyOp36
 70
     1
102
RTVSPropertyOp37
 70
     1
102
RTVSPropertyOp38
 70
     1
102
RTVSPropertyOp39
 70
     1
102
RTVSPropertyOp40
 70
     1
102
RTVSPropertyOp41
 70
     1
102
RTVSPropertyOp42
 70
     1
102
RTVSPropertyOp43
 70
     1
102
RTVSPropertyOp44
 70
     1
102
RTVSPropertyOp45
 70
     1
102
RTVSPropertyOp46
 70
     1
102
RTVSPropertyOp47
 70
     1
102
RTVSPropertyOp48
 70
     1
102
RTVSPropertyOp49
 70
     1
102
RTVSPropertyOp50
 70
     1
102
RTVSPropertyOp51
 70
     0
102
RTVSPropertyOp52
 70
     0
102
RTVSPropertyOp53
 70
     1
102
RTVSPropertyOp54
 70
     1
102
RTVSPropertyOp55
 70
     1
102
RTVSPropertyOp56
 70
     1
102
RTVSPropertyOp57
 70
     1
102
RTVSPropertyOp58
 70
     1
102
RTVSPropertyOp59
 70
     1
102
RTVSPropertyOp60
 70
     1
102
RTVSPropertyOp61
 70
     1
102
RTVSPropertyOp62
 70
     1
  0
XRECORD
  5
269C
102
{ACAD_REACTORS
330
269B
102
}
330
269B
100
AcDbXrecord
280
     1
102
RTVSPost2010Prop28
280
     0
102
RTVSPost2010PropOp28
 70
     1
102
RTVSPost2010Prop29
280
     1
102
RTVSPost2010PropOp29
 70
     1
102
RTVSPost2010Prop30
280
     1
102
RTVSPost2010PropOp30
 70
     1
102
RTVSPost2010Prop31
280
     0
102
RTVSPost2010PropOp31
 70
     1
102
RTVSPost2010Prop32
280
     0
102
RTVSPost2010PropOp32
 70
     1
102
RTVSPost2010Prop33
280
     0
102
RTVSPost2010PropOp33
 70
     1
102
RTVSPost2010Prop34
280
     0
102
RTVSPost2010PropOp34
 70
     1
102
RTVSPost2010Prop35
280
     0
102
RTVSPost2010PropOp35
 70
     1
102
RTVSPost2010Prop36
280
     0
102
RTVSPost2010PropOp36
 70
     1
102
RTVSPost2010Prop37
 90
       50
102
RTVSPost2010PropOp37
 70
     1
102
RTVSPost2010Prop38
140
0.0
102
RTVSPost2010PropOp38
 70
     1
102
RTVSPost2010Prop39
140
1.0
102
RTVSPost2010PropOp39
 70
     1
102
RTVSPost2010Prop40
 90
        0
102
RTVSPost2010PropOp40
 70
     1
102
RTVSPost2010Prop41ColorIndex
 90
       18
102
RTVSPost2010Prop41ColorRGB
 90
        0
102
RTVSPost2010PropOp41
 70
     1
102
RTVSPost2010Prop42
 90
       50
102
RTVSPost2010PropOp42
 70
     1
102
RTVSPost2010Prop43
 90
        3
102
RTVSPost2010PropOp43
 70
     1
102
RTVSPost2010Prop44ColorIndex
 90
        5
102
RTVSPost2010Prop44ColorRGB
 90
      255
102
RTVSPost2010PropOp44
 70
     1
102
RTVSPost2010Prop45
280
     0
102
RTVSPost2010PropOp45
 70
     1
102
RTVSPost2010Prop46
 90
       50
102
RTVSPost2010PropOp46
 70
     1
102
RTVSPost2010Prop47
 90
       50
102
RTVSPost2010PropOp47
 70
     1
102
RTVSPost2010Prop48
 90
       50
102
RTVSPost2010PropOp48
 70
     1
102
RTVSPost2010Prop49
280
     0
102
RTVSPost2010PropOp49
 70
     1
102
RTVSPost2010Prop50
 90
       50
102
RTVSPost2010PropOp50
 70
     1
102
RTVSPost2010Prop51ColorIndex
 90
      256
102
RTVSPost2010Prop51ColorRGB
 90
-16777216
102
RTVSPost2010PropOp51
 70
     0
102
RTVSPost2010Prop52
140
1.0
102
RTVSPost2010PropOp52
 70
     0
102
RTVSPost2010Prop53
 90
        2
102
RTVSPost2010PropOp53
 70
     1
102
RTVSPost2010Prop54
  1
strokes_ogs.tif
102
RTVSPost2010PropOp54
 70
     1
102
RTVSPost2010Prop55
280
     0
102
RTVSPost2010PropOp55
 70
     1
102
RTVSPost2010Prop56
140
1.0
102
RTVSPost2010PropOp56
 70
     1
102
RTVSPost2010Prop57
140
1.0
102
RTVSPost2010PropOp57
 70
     1
102
RTVSPropertyOp0
 70
     1
102
RTVSPropertyOp1
 70
     1
102
RTVSPropertyOp2
 70
     1
102
RTVSPropertyOp3
 70
     1
102
RTVSPropertyOp4
 70
     1
102
RTVSPropertyOp5
 70
     1
102
RTVSPropertyOp6
 70
     1
102
RTVSPropertyOp7
 70
     1
102
RTVSPropertyOp8
 70
     1
102
RTVSPropertyOp9
 70
     1
102
RTVSPropertyOp10
 70
     1
102
RTVSPropertyOp11
 70
     1
102
RTVSPropertyOp12
 70
     1
102
RTVSPropertyOp13
 70
     1
102
RTVSPropertyOp14
 70
     1
102
RTVSPropertyOp15
 70
     1
102
RTVSPropertyOp16
 70
     1
102
RTVSPropertyOp17
 70
     1
102
RTVSPropertyOp18
 70
     1
102
RTVSPropertyOp19
 70
     1
102
RTVSPropertyOp20
 70
     1
102
RTVSPropertyOp21
 70
     1
102
RTVSPropertyOp22
 70
     1
102
RTVSPropertyOp23
 70
     1
102
RTVSPropertyOp24
 70
     1
102
RTVSPropertyOp25
 70
     1
102
RTVSPropertyOp26
 70
     1
102
RTVSPropertyOp27
 70
     1
102
RTVSPropertyOp28
 70
     1
102
RTVSPropertyOp29
 70
     1
102
RTVSPropertyOp30
 70
     1
102
RTVSPropertyOp31
 70
     1
102
RTVSPropertyOp32
 70
     1
102
RTVSPropertyOp33
 70
     1
102
RTVSPropertyOp34
 70
     1
102
RTVSPropertyOp35
 70
     1
102
RTVSPropertyOp36
 70
     1
102
RTVSPropertyOp37
 70
     1
102
RTVSPropertyOp38
 70
     1
102
RTVSPropertyOp39
 70
     1
102
RTVSPropertyOp40
 70
     1
102
RTVSPropertyOp41
 70
     1
102
RTVSPropertyOp42
 70
     1
102
RTVSPropertyOp43
 70
     1
102
RTVSPropertyOp44
 70
     1
102
RTVSPropertyOp45
 70
     1
102
RTVSPropertyOp46
 70
     1
102
RTVSPropertyOp47
 70
     1
102
RTVSPropertyOp48
 70
     1
102
RTVSPropertyOp49
 70
     1
102
RTVSPropertyOp50
 70
     1
102
RTVSPropertyOp51
 70
     0
102
RTVSPropertyOp52
 70
     0
102
RTVSPropertyOp53
 70
     1
102
RTVSPropertyOp54
 70
     1
102
RTVSPropertyOp55
 70
     1
102
RTVSPropertyOp56
 70
     1
102
RTVSPropertyOp57
 70
     1
102
RTVSPropertyOp58
 70
     1
102
RTVSPropertyOp59
 70
     1
102
RTVSPropertyOp60
 70
     1
102
RTVSPropertyOp61
 70
     1
102
RTVSPropertyOp62
 70
     1
  0
XRECORD
  5
26B4
102
{ACAD_REACTORS
330
26B3
102
}
330
26B3
100
AcDbXrecord
280
     1
102
RTVSPost2010Prop28
280
     0
102
RTVSPost2010PropOp28
 70
     1
102
RTVSPost2010Prop29
280
     1
102
RTVSPost2010PropOp29
 70
     1
102
RTVSPost2010Prop30
280
     1
102
RTVSPost2010PropOp30
 70
     1
102
RTVSPost2010Prop31
280
     0
102
RTVSPost2010PropOp31
 70
     1
102
RTVSPost2010Prop32
280
     0
102
RTVSPost2010PropOp32
 70
     1
102
RTVSPost2010Prop33
280
     0
102
RTVSPost2010PropOp33
 70
     1
102
RTVSPost2010Prop34
280
     0
102
RTVSPost2010PropOp34
 70
     1
102
RTVSPost2010Prop35
280
     0
102
RTVSPost2010PropOp35
 70
     1
102
RTVSPost2010Prop36
280
     0
102
RTVSPost2010PropOp36
 70
     1
102
RTVSPost2010Prop37
 90
       50
102
RTVSPost2010PropOp37
 70
     1
102
RTVSPost2010Prop38
140
0.0
102
RTVSPost2010PropOp38
 70
     1
102
RTVSPost2010Prop39
140
1.0
102
RTVSPost2010PropOp39
 70
     1
102
RTVSPost2010Prop40
 90
        0
102
RTVSPost2010PropOp40
 70
     1
102
RTVSPost2010Prop41ColorIndex
 90
       18
102
RTVSPost2010Prop41ColorRGB
 90
        0
102
RTVSPost2010PropOp41
 70
     1
102
RTVSPost2010Prop42
 90
       50
102
RTVSPost2010PropOp42
 70
     1
102
RTVSPost2010Prop43
 90
        3
102
RTVSPost2010PropOp43
 70
     1
102
RTVSPost2010Prop44ColorIndex
 90
        5
102
RTVSPost2010Prop44ColorRGB
 90
      255
102
RTVSPost2010PropOp44
 70
     1
102
RTVSPost2010Prop45
280
     0
102
RTVSPost2010PropOp45
 70
     1
102
RTVSPost2010Prop46
 90
       50
102
RTVSPost2010PropOp46
 70
     1
102
RTVSPost2010Prop47
 90
       50
102
RTVSPost2010PropOp47
 70
     1
102
RTVSPost2010Prop48
 90
       50
102
RTVSPost2010PropOp48
 70
     1
102
RTVSPost2010Prop49
280
     0
102
RTVSPost2010PropOp49
 70
     1
102
RTVSPost2010Prop50
 90
       50
102
RTVSPost2010PropOp50
 70
     1
102
RTVSPost2010Prop51ColorIndex
 90
      256
102
RTVSPost2010Prop51ColorRGB
 90
-16777216
102
RTVSPost2010PropOp51
 70
     0
102
RTVSPost2010Prop52
140
1.0
102
RTVSPost2010PropOp52
 70
     0
102
RTVSPost2010Prop53
 90
        2
102
RTVSPost2010PropOp53
 70
     1
102
RTVSPost2010Prop54
  1
strokes_ogs.tif
102
RTVSPost2010PropOp54
 70
     1
102
RTVSPost2010Prop55
280
     0
102
RTVSPost2010PropOp55
 70
     1
102
RTVSPost2010Prop56
140
1.0
102
RTVSPost2010PropOp56
 70
     1
102
RTVSPost2010Prop57
140
1.0
102
RTVSPost2010PropOp57
 70
     1
102
RTVSPropertyOp0
 70
     1
102
RTVSPropertyOp1
 70
     1
102
RTVSPropertyOp2
 70
     1
102
RTVSPropertyOp3
 70
     1
102
RTVSPropertyOp4
 70
     1
102
RTVSPropertyOp5
 70
     1
102
RTVSPropertyOp6
 70
     1
102
RTVSPropertyOp7
 70
     1
102
RTVSPropertyOp8
 70
     1
102
RTVSPropertyOp9
 70
     1
102
RTVSPropertyOp10
 70
     1
102
RTVSPropertyOp11
 70
     1
102
RTVSPropertyOp12
 70
     1
102
RTVSPropertyOp13
 70
     1
102
RTVSPropertyOp14
 70
     1
102
RTVSPropertyOp15
 70
     1
102
RTVSPropertyOp16
 70
     1
102
RTVSPropertyOp17
 70
     1
102
RTVSPropertyOp18
 70
     1
102
RTVSPropertyOp19
 70
     1
102
RTVSPropertyOp20
 70
     1
102
RTVSPropertyOp21
 70
     1
102
RTVSPropertyOp22
 70
     1
102
RTVSPropertyOp23
 70
     1
102
RTVSPropertyOp24
 70
     1
102
RTVSPropertyOp25
 70
     1
102
RTVSPropertyOp26
 70
     1
102
RTVSPropertyOp27
 70
     1
102
RTVSPropertyOp28
 70
     1
102
RTVSPropertyOp29
 70
     1
102
RTVSPropertyOp30
 70
     1
102
RTVSPropertyOp31
 70
     1
102
RTVSPropertyOp32
 70
     1
102
RTVSPropertyOp33
 70
     1
102
RTVSPropertyOp34
 70
     1
102
RTVSPropertyOp35
 70
     1
102
RTVSPropertyOp36
 70
     1
102
RTVSPropertyOp37
 70
     1
102
RTVSPropertyOp38
 70
     1
102
RTVSPropertyOp39
 70
     1
102
RTVSPropertyOp40
 70
     1
102
RTVSPropertyOp41
 70
     1
102
RTVSPropertyOp42
 70
     1
102
RTVSPropertyOp43
 70
     1
102
RTVSPropertyOp44
 70
     1
102
RTVSPropertyOp45
 70
     1
102
RTVSPropertyOp46
 70
     1
102
RTVSPropertyOp47
 70
     1
102
RTVSPropertyOp48
 70
     1
102
RTVSPropertyOp49
 70
     1
102
RTVSPropertyOp50
 70
     1
102
RTVSPropertyOp51
 70
     0
102
RTVSPropertyOp52
 70
     0
102
RTVSPropertyOp53
 70
     1
102
RTVSPropertyOp54
 70
     1
102
RTVSPropertyOp55
 70
     1
102
RTVSPropertyOp56
 70
     1
102
RTVSPropertyOp57
 70
     1
102
RTVSPropertyOp58
 70
     1
102
RTVSPropertyOp59
 70
     1
102
RTVSPropertyOp60
 70
     1
102
RTVSPropertyOp61
 70
     1
102
RTVSPropertyOp62
 70
     1
  0
ENDSEC
  0
EOF
