ISO-10303-21;
HEADER;
/****************************************************************
 * Generated by software with PDE/Lib inside                    *
 * PDElib Version 4.4.1-0003, patched  Thursday August 19 11:58 *
 * International Technegroup Inc. (www.iti-oh.com)              *
 ****************************************************************/
FILE_DESCRIPTION((''),'2;1');
FILE_NAME('','2006-10-27T18:35:15',(''),(''),'','CADfix','');
FILE_SCHEMA(('AUTOMOTIVE_DESIGN'));
ENDSEC;
DATA;
#5=APPLICATION_CONTEXT('automotive design');
#6=APPLICATION_PROTOCOL_DEFINITION('Draft International Standard','automotive_design',1998,#5);
#7=PRODUCT_CONTEXT('None',#5,'mechanical');
#8=PRODUCT('gasket','gasket','None',(#7));
#9=PRODUCT_RELATED_PRODUCT_CATEGORY('part','description',(#8));
#10=PRODUCT_DEFINITION_FORMATION('','None',#8);
#11=PRODUCT_DEFINITION_CONTEXT('part definition',#5,'design');
#12=PRODUCT_DEFINITION('None','None',#10,#11);
#18=(NAMED_UNIT(*)PLANE_ANGLE_UNIT()SI_UNIT($,.RADIAN.));
#19=DIMENSIONAL_EXPONENTS(0.0,0.0,0.0,0.0,0.0,0.0,0.0);
#20=PLANE_ANGLE_MEASURE_WITH_UNIT(PLANE_ANGLE_MEASURE(0.017453292500000),#18);
#24=(CONVERSION_BASED_UNIT('DEGREE',#20)NAMED_UNIT(#19)PLANE_ANGLE_UNIT());
#28=(NAMED_UNIT(*)SI_UNIT($,.STERADIAN.)SOLID_ANGLE_UNIT());
#32=(LENGTH_UNIT()NAMED_UNIT(*)SI_UNIT(.MILLI.,.METRE.));
#34=UNCERTAINTY_MEASURE_WITH_UNIT(LENGTH_MEASURE(0.001000000000000),#32,'DISTANCE_ACCURACY_VALUE','');
#36=(GEOMETRIC_REPRESENTATION_CONTEXT(3)GLOBAL_UNCERTAINTY_ASSIGNED_CONTEXT((#34))GLOBAL_UNIT_ASSIGNED_CONTEXT((#24,#28,#32))REPRESENTATION_CONTEXT('None','None'));
#37=AXIS2_PLACEMENT_3D('',#38,#39,#40);
#38=CARTESIAN_POINT('',(0.0,0.0,0.0));
#39=DIRECTION('',(0.0,0.0,1.0));
#40=DIRECTION('',(1.0,0.0,0.0));
#41=ADVANCED_BREP_SHAPE_REPRESENTATION('',(#37,#489),#36);
#42=PRODUCT_DEFINITION_SHAPE('','',#12);
#43=SHAPE_DEFINITION_REPRESENTATION(#42,#41);
#44=CARTESIAN_POINT('',(-3.319444040580325,0.0,3.849650234992176));
#45=CARTESIAN_POINT('',(2.180056384529635,0.0,3.849650234992176));
#46=CARTESIAN_POINT('',(-3.319444040580325,0.0,-3.849650360161967));
#47=CARTESIAN_POINT('',(2.180056384529635,0.0,-3.849650360161967));
#48=B_SPLINE_SURFACE_WITH_KNOTS('',1,1,((#44,#46),(#45,#47)),.UNSPECIFIED.,.F.,.F.,.U.,(2,2),(2,2),(0.0,5.499500425109960),(0.0,7.699300595154145),.UNSPECIFIED.);
#49=CARTESIAN_POINT('',(0.500000023748818,0.0,-2.500000118743595));
#50=VERTEX_POINT('',#49);
#51=CARTESIAN_POINT('',(0.500000023748829,0.0,2.500000118743600));
#52=VERTEX_POINT('',#51);
#53=CARTESIAN_POINT('',(0.500000023748818,0.0,-2.500000118743595));
#54=CARTESIAN_POINT('',(1.930306246014729,0.0,-1.659155217828491));
#55=CARTESIAN_POINT('',(1.930306246014728,0.0,0.0));
#56=CARTESIAN_POINT('',(1.930306246014729,0.0,1.659155217828485));
#57=CARTESIAN_POINT('',(0.500000023748829,0.0,2.500000118743600));
#65=(BOUNDED_CURVE()B_SPLINE_CURVE(2,(#53,#54,#55,#56,#57),.UNSPECIFIED.,.F.,.U.)B_SPLINE_CURVE_WITH_KNOTS((3,2,3),(0.0,0.500000000000000,1.0),.UNSPECIFIED.)CURVE()GEOMETRIC_REPRESENTATION_ITEM()RATIONAL_B_SPLINE_CURVE((1.0,0.867983577398072,1.0,0.867983577398072,1.0))REPRESENTATION_ITEM(''));
#66=EDGE_CURVE('',#50,#52,#65,.T.);
#67=ORIENTED_EDGE('',*,*,#66,.T.);
#68=CARTESIAN_POINT('',(0.500000023748779,0.0,3.000000142492345));
#69=VERTEX_POINT('',#68);
#70=CARTESIAN_POINT('',(0.500000023748829,0.0,2.500000118743600));
#71=CARTESIAN_POINT('',(0.500000023748779,0.0,3.000000142492345));
#72=QUASI_UNIFORM_CURVE('',1,(#70,#71),.UNSPECIFIED.,.F.,.U.);
#73=EDGE_CURVE('',#52,#69,#72,.T.);
#74=ORIENTED_EDGE('',*,*,#73,.T.);
#75=CARTESIAN_POINT('',(-0.500000023748725,0.0,3.000000142492345));
#76=VERTEX_POINT('',#75);
#77=CARTESIAN_POINT('',(0.500000023748779,0.0,3.000000142492345));
#78=CARTESIAN_POINT('',(0.500000023748725,0.0,3.500000166241070));
#79=CARTESIAN_POINT('',(0.0,0.0,3.500000166241070));
#80=CARTESIAN_POINT('',(-0.500000023748725,0.0,3.500000166241070));
#81=CARTESIAN_POINT('',(-0.500000023748725,0.0,3.000000142492345));
#89=(BOUNDED_CURVE()B_SPLINE_CURVE(2,(#77,#78,#79,#80,#81),.UNSPECIFIED.,.F.,.U.)B_SPLINE_CURVE_WITH_KNOTS((3,2,3),(0.0,0.500000000000000,1.0),.UNSPECIFIED.)CURVE()GEOMETRIC_REPRESENTATION_ITEM()RATIONAL_B_SPLINE_CURVE((1.0,0.707106781186547,1.0,0.707106781186547,1.0))REPRESENTATION_ITEM(''));
#90=EDGE_CURVE('',#69,#76,#89,.T.);
#91=ORIENTED_EDGE('',*,*,#90,.T.);
#92=CARTESIAN_POINT('',(-0.500000023748683,0.0,2.500000118743485));
#93=VERTEX_POINT('',#92);
#94=CARTESIAN_POINT('',(-0.500000023748725,0.0,3.000000142492345));
#95=CARTESIAN_POINT('',(-0.500000023748683,0.0,2.500000118743485));
#96=QUASI_UNIFORM_CURVE('',1,(#94,#95),.UNSPECIFIED.,.F.,.U.);
#97=EDGE_CURVE('',#76,#93,#96,.T.);
#98=ORIENTED_EDGE('',*,*,#97,.T.);
#99=CARTESIAN_POINT('',(-2.500000118743535,0.0,0.569693872728898));
#100=VERTEX_POINT('',#99);
#101=CARTESIAN_POINT('',(-0.500000023748683,0.0,2.500000118743485));
#102=CARTESIAN_POINT('',(-2.500000118743535,0.0,0.569693872728898));
#103=QUASI_UNIFORM_CURVE('',1,(#101,#102),.UNSPECIFIED.,.F.,.U.);
#104=EDGE_CURVE('',#93,#100,#103,.T.);
#105=ORIENTED_EDGE('',*,*,#104,.T.);
#106=CARTESIAN_POINT('',(-2.500000118743670,0.0,-0.569693872728905));
#107=VERTEX_POINT('',#106);
#108=CARTESIAN_POINT('',(-2.500000118743535,0.0,0.569693872728905));
#109=CARTESIAN_POINT('',(-3.069693991472373,0.0,0.569693872728905));
#110=CARTESIAN_POINT('',(-3.069693991472440,0.0,6.745802E-014));
#111=CARTESIAN_POINT('',(-3.069693991472509,0.0,-0.569693872728770));
#112=CARTESIAN_POINT('',(-2.500000118743670,0.0,-0.569693872728905));
#120=(BOUNDED_CURVE()B_SPLINE_CURVE(2,(#108,#109,#110,#111,#112),.UNSPECIFIED.,.F.,.U.)B_SPLINE_CURVE_WITH_KNOTS((3,2,3),(0.0,0.500000000000000,1.0),.UNSPECIFIED.)CURVE()GEOMETRIC_REPRESENTATION_ITEM()RATIONAL_B_SPLINE_CURVE((1.0,0.707106781186589,1.0,0.707106781186589,1.0))REPRESENTATION_ITEM(''));
#121=EDGE_CURVE('',#100,#107,#120,.T.);
#122=ORIENTED_EDGE('',*,*,#121,.T.);
#123=CARTESIAN_POINT('',(-0.500000023748722,0.0,-2.500000118743635));
#124=VERTEX_POINT('',#123);
#125=CARTESIAN_POINT('',(-2.500000118743670,0.0,-0.569693872728905));
#126=CARTESIAN_POINT('',(-0.500000023748722,0.0,-2.500000118743635));
#127=QUASI_UNIFORM_CURVE('',1,(#125,#126),.UNSPECIFIED.,.F.,.U.);
#128=EDGE_CURVE('',#107,#124,#127,.T.);
#129=ORIENTED_EDGE('',*,*,#128,.T.);
#130=CARTESIAN_POINT('',(-0.500000023748722,0.0,-3.000000142492375));
#131=VERTEX_POINT('',#130);
#132=CARTESIAN_POINT('',(-0.500000023748722,0.0,-2.500000118743635));
#133=CARTESIAN_POINT('',(-0.500000023748722,0.0,-3.000000142492375));
#134=QUASI_UNIFORM_CURVE('',1,(#132,#133),.UNSPECIFIED.,.F.,.U.);
#135=EDGE_CURVE('',#124,#131,#134,.T.);
#136=ORIENTED_EDGE('',*,*,#135,.T.);
#137=CARTESIAN_POINT('',(0.500000023748725,0.0,-3.000000142492375));
#138=VERTEX_POINT('',#137);
#139=CARTESIAN_POINT('',(-0.500000023748725,0.0,-3.000000142492375));
#140=CARTESIAN_POINT('',(-0.500000023748725,0.0,-3.500000166241100));
#141=CARTESIAN_POINT('',(0.0,0.0,-3.500000166241100));
#142=CARTESIAN_POINT('',(0.500000023748725,0.0,-3.500000166241100));
#143=CARTESIAN_POINT('',(0.500000023748725,0.0,-3.000000142492375));
#151=(BOUNDED_CURVE()B_SPLINE_CURVE(2,(#139,#140,#141,#142,#143),.UNSPECIFIED.,.F.,.U.)B_SPLINE_CURVE_WITH_KNOTS((3,2,3),(0.0,0.500000000000000,1.0),.UNSPECIFIED.)CURVE()GEOMETRIC_REPRESENTATION_ITEM()RATIONAL_B_SPLINE_CURVE((1.0,0.707106781186547,1.0,0.707106781186547,1.0))REPRESENTATION_ITEM(''));
#152=EDGE_CURVE('',#131,#138,#151,.T.);
#153=ORIENTED_EDGE('',*,*,#152,.T.);
#154=CARTESIAN_POINT('',(0.500000023748725,0.0,-3.000000142492375));
#155=CARTESIAN_POINT('',(0.500000023748818,0.0,-2.500000118743595));
#156=QUASI_UNIFORM_CURVE('',1,(#154,#155),.UNSPECIFIED.,.F.,.U.);
#157=EDGE_CURVE('',#138,#50,#156,.T.);
#158=ORIENTED_EDGE('',*,*,#157,.T.);
#159=EDGE_LOOP('',(#67,#74,#91,#98,#105,#122,#129,#136,#153,#158));
#160=FACE_OUTER_BOUND('',#159,.T.);
#161=ADVANCED_FACE('',(#160),#48,.F.);
#162=CARTESIAN_POINT('',(-3.319444040580325,200.0,3.849650234992176));
#163=CARTESIAN_POINT('',(2.180056384529635,200.0,3.849650234992176));
#164=CARTESIAN_POINT('',(-3.319444040580325,200.0,-3.849650360161967));
#165=CARTESIAN_POINT('',(2.180056384529635,200.0,-3.849650360161967));
#166=B_SPLINE_SURFACE_WITH_KNOTS('',1,1,((#162,#164),(#163,#165)),.UNSPECIFIED.,.F.,.F.,.U.,(2,2),(2,2),(0.0,5.499500425109960),(0.0,7.699300595154145),.UNSPECIFIED.);
#167=CARTESIAN_POINT('',(0.500000023748818,200.0,-2.500000118743595));
#168=VERTEX_POINT('',#167);
#169=CARTESIAN_POINT('',(0.500000023748829,200.0,2.500000118743600));
#170=VERTEX_POINT('',#169);
#171=CARTESIAN_POINT('',(0.500000023748812,200.0,-2.500000118743585));
#172=CARTESIAN_POINT('',(1.930306246014729,200.0,-1.659155217828491));
#173=CARTESIAN_POINT('',(1.930306246014728,200.0,0.0));
#174=CARTESIAN_POINT('',(1.930306246014729,200.0,1.659155217828485));
#175=CARTESIAN_POINT('',(0.500000023748820,200.0,2.500000118743581));
#183=(BOUNDED_CURVE()B_SPLINE_CURVE(2,(#171,#172,#173,#174,#175),.UNSPECIFIED.,.F.,.U.)B_SPLINE_CURVE_WITH_KNOTS((3,2,3),(0.0,0.500000000000000,1.0),.UNSPECIFIED.)CURVE()GEOMETRIC_REPRESENTATION_ITEM()RATIONAL_B_SPLINE_CURVE((1.0,0.867983577398072,1.0,0.867983577398072,1.0))REPRESENTATION_ITEM(''));
#184=EDGE_CURVE('',#168,#170,#183,.T.);
#185=ORIENTED_EDGE('',*,*,#184,.F.);
#186=CARTESIAN_POINT('',(0.500000023748725,200.0,-3.000000142492375));
#187=VERTEX_POINT('',#186);
#188=CARTESIAN_POINT('',(0.500000023748725,200.0,-3.000000142492375));
#189=CARTESIAN_POINT('',(0.500000023748818,200.0,-2.500000118743595));
#190=QUASI_UNIFORM_CURVE('',1,(#188,#189),.UNSPECIFIED.,.F.,.U.);
#191=EDGE_CURVE('',#187,#168,#190,.T.);
#192=ORIENTED_EDGE('',*,*,#191,.F.);
#193=CARTESIAN_POINT('',(-0.500000023748722,200.0,-3.000000142492375));
#194=VERTEX_POINT('',#193);
#195=CARTESIAN_POINT('',(-0.500000023748725,200.0,-3.000000142492375));
#196=CARTESIAN_POINT('',(-0.500000023748725,200.000000000000030,-3.500000166241100));
#197=CARTESIAN_POINT('',(0.0,200.0,-3.500000166241100));
#198=CARTESIAN_POINT('',(0.500000023748725,200.000000000000030,-3.500000166241100));
#199=CARTESIAN_POINT('',(0.500000023748725,200.0,-3.000000142492375));
#207=(BOUNDED_CURVE()B_SPLINE_CURVE(2,(#195,#196,#197,#198,#199),.UNSPECIFIED.,.F.,.U.)B_SPLINE_CURVE_WITH_KNOTS((3,2,3),(0.0,0.500000000000000,1.0),.UNSPECIFIED.)CURVE()GEOMETRIC_REPRESENTATION_ITEM()RATIONAL_B_SPLINE_CURVE((1.0,0.707106781186547,1.0,0.707106781186547,1.0))REPRESENTATION_ITEM(''));
#208=EDGE_CURVE('',#194,#187,#207,.T.);
#209=ORIENTED_EDGE('',*,*,#208,.F.);
#210=CARTESIAN_POINT('',(-0.500000023748722,200.0,-2.500000118743635));
#211=VERTEX_POINT('',#210);
#212=CARTESIAN_POINT('',(-0.500000023748722,200.0,-2.500000118743635));
#213=CARTESIAN_POINT('',(-0.500000023748722,200.0,-3.000000142492375));
#214=QUASI_UNIFORM_CURVE('',1,(#212,#213),.UNSPECIFIED.,.F.,.U.);
#215=EDGE_CURVE('',#211,#194,#214,.T.);
#216=ORIENTED_EDGE('',*,*,#215,.F.);
#217=CARTESIAN_POINT('',(-2.500000118743670,200.0,-0.569693872728905));
#218=VERTEX_POINT('',#217);
#219=CARTESIAN_POINT('',(-2.500000118743670,200.0,-0.569693872728905));
#220=CARTESIAN_POINT('',(-0.500000023748722,200.0,-2.500000118743635));
#221=QUASI_UNIFORM_CURVE('',1,(#219,#220),.UNSPECIFIED.,.F.,.U.);
#222=EDGE_CURVE('',#218,#211,#221,.T.);
#223=ORIENTED_EDGE('',*,*,#222,.F.);
#224=CARTESIAN_POINT('',(-2.500000118743535,200.0,0.569693872728898));
#225=VERTEX_POINT('',#224);
#226=CARTESIAN_POINT('',(-2.500000118743535,200.0,0.569693872728905));
#227=CARTESIAN_POINT('',(-3.069693991472373,199.999999999999910,0.569693872728905));
#228=CARTESIAN_POINT('',(-3.069693991472440,200.0,6.745802E-014));
#229=CARTESIAN_POINT('',(-3.069693991472509,199.999999999999910,-0.569693872728770));
#230=CARTESIAN_POINT('',(-2.500000118743670,200.0,-0.569693872728905));
#238=(BOUNDED_CURVE()B_SPLINE_CURVE(2,(#226,#227,#228,#229,#230),.UNSPECIFIED.,.F.,.U.)B_SPLINE_CURVE_WITH_KNOTS((3,2,3),(0.0,0.500000000000000,1.0),.UNSPECIFIED.)CURVE()GEOMETRIC_REPRESENTATION_ITEM()RATIONAL_B_SPLINE_CURVE((1.0,0.707106781186589,1.0,0.707106781186589,1.0))REPRESENTATION_ITEM(''));
#239=EDGE_CURVE('',#225,#218,#238,.T.);
#240=ORIENTED_EDGE('',*,*,#239,.F.);
#241=CARTESIAN_POINT('',(-0.500000023748683,200.0,2.500000118743485));
#242=VERTEX_POINT('',#241);
#243=CARTESIAN_POINT('',(-0.500000023748683,200.0,2.500000118743485));
#244=CARTESIAN_POINT('',(-2.500000118743535,200.0,0.569693872728898));
#245=QUASI_UNIFORM_CURVE('',1,(#243,#244),.UNSPECIFIED.,.F.,.U.);
#246=EDGE_CURVE('',#242,#225,#245,.T.);
#247=ORIENTED_EDGE('',*,*,#246,.F.);
#248=CARTESIAN_POINT('',(-0.500000023748725,200.0,3.000000142492345));
#249=VERTEX_POINT('',#248);
#250=CARTESIAN_POINT('',(-0.500000023748725,200.0,3.000000142492345));
#251=CARTESIAN_POINT('',(-0.500000023748683,200.0,2.500000118743485));
#252=QUASI_UNIFORM_CURVE('',1,(#250,#251),.UNSPECIFIED.,.F.,.U.);
#253=EDGE_CURVE('',#249,#242,#252,.T.);
#254=ORIENTED_EDGE('',*,*,#253,.F.);
#255=CARTESIAN_POINT('',(0.500000023748779,200.0,3.000000142492345));
#256=VERTEX_POINT('',#255);
#257=CARTESIAN_POINT('',(0.500000023748725,200.0,3.000000142492345));
#258=CARTESIAN_POINT('',(0.500000023748725,200.000000000000030,3.500000166241070));
#259=CARTESIAN_POINT('',(0.0,200.0,3.500000166241070));
#260=CARTESIAN_POINT('',(-0.500000023748725,200.000000000000030,3.500000166241070));
#261=CARTESIAN_POINT('',(-0.500000023748725,200.0,3.000000142492345));
#269=(BOUNDED_CURVE()B_SPLINE_CURVE(2,(#257,#258,#259,#260,#261),.UNSPECIFIED.,.F.,.U.)B_SPLINE_CURVE_WITH_KNOTS((3,2,3),(0.0,0.500000000000000,1.0),.UNSPECIFIED.)CURVE()GEOMETRIC_REPRESENTATION_ITEM()RATIONAL_B_SPLINE_CURVE((1.0,0.707106781186547,1.0,0.707106781186547,1.0))REPRESENTATION_ITEM(''));
#270=EDGE_CURVE('',#256,#249,#269,.T.);
#271=ORIENTED_EDGE('',*,*,#270,.F.);
#272=CARTESIAN_POINT('',(0.500000023748829,200.0,2.500000118743600));
#273=CARTESIAN_POINT('',(0.500000023748779,200.0,3.000000142492345));
#274=QUASI_UNIFORM_CURVE('',1,(#272,#273),.UNSPECIFIED.,.F.,.U.);
#275=EDGE_CURVE('',#170,#256,#274,.T.);
#276=ORIENTED_EDGE('',*,*,#275,.F.);
#277=EDGE_LOOP('',(#185,#192,#209,#216,#223,#240,#247,#254,#271,#276));
#278=FACE_OUTER_BOUND('',#277,.T.);
#279=ADVANCED_FACE('',(#278),#166,.T.);
#280=CARTESIAN_POINT('',(0.500000023748829,-9.989999612361194,-2.475024988225391));
#281=CARTESIAN_POINT('',(0.500000023748829,-9.989999612361194,-3.024975237247791));
#282=CARTESIAN_POINT('',(0.500000023748829,209.990004976779200,-2.475024988225391));
#283=CARTESIAN_POINT('',(0.500000023748829,209.990004976779200,-3.024975237247791));
#284=B_SPLINE_SURFACE_WITH_KNOTS('',1,1,((#280,#282),(#281,#283)),.UNSPECIFIED.,.F.,.F.,.U.,(2,2),(2,2),(0.041708117780089,0.958291822615266),(0.0,219.980004589140410),.UNSPECIFIED.);
#285=ORIENTED_EDGE('',*,*,#157,.F.);
#286=CARTESIAN_POINT('',(0.500000023748725,200.0,-3.000000142492375));
#287=CARTESIAN_POINT('',(0.500000023748725,0.0,-3.000000142492375));
#288=QUASI_UNIFORM_CURVE('',1,(#286,#287),.UNSPECIFIED.,.F.,.U.);
#289=EDGE_CURVE('',#187,#138,#288,.T.);
#290=ORIENTED_EDGE('',*,*,#289,.F.);
#291=ORIENTED_EDGE('',*,*,#191,.T.);
#292=CARTESIAN_POINT('',(0.500000023748818,200.0,-2.500000118743595));
#293=CARTESIAN_POINT('',(0.500000023748818,0.0,-2.500000118743595));
#294=QUASI_UNIFORM_CURVE('',1,(#292,#293),.UNSPECIFIED.,.F.,.U.);
#295=EDGE_CURVE('',#168,#50,#294,.T.);
#296=ORIENTED_EDGE('',*,*,#295,.T.);
#297=EDGE_LOOP('',(#285,#290,#291,#296));
#298=FACE_OUTER_BOUND('',#297,.T.);
#299=ADVANCED_FACE('',(#298),#284,.T.);
#300=CARTESIAN_POINT('',(0.499828686228365,205.0,-2.986911667716768));
#301=CARTESIAN_POINT('',(0.499828686228365,-5.125000000000000,-2.986911667716768));
#302=CARTESIAN_POINT('',(0.513621060817141,205.000000000000030,-3.513621203309514));
#303=CARTESIAN_POINT('',(0.513621060817141,-5.124999999999999,-3.513621203309514));
#304=CARTESIAN_POINT('',(-0.013088474775605,205.0,-3.499828828720740));
#305=CARTESIAN_POINT('',(-0.013088474775605,-5.125000000000000,-3.499828828720740));
#306=CARTESIAN_POINT('',(-0.539798010368350,205.000000000000030,-3.486036454131967));
#307=CARTESIAN_POINT('',(-0.539798010368350,-5.124999999999999,-3.486036454131967));
#308=CARTESIAN_POINT('',(-0.498458690542079,205.0,-2.960770592765150));
#309=CARTESIAN_POINT('',(-0.498458690542079,-5.125000000000000,-2.960770592765150));
#317=(BOUNDED_SURFACE()B_SPLINE_SURFACE(1,2,((#300,#302,#304,#306,#308),(#301,#303,#305,#307,#309)),.UNSPECIFIED.,.F.,.F.,.U.)B_SPLINE_SURFACE_WITH_KNOTS((2,2),(3,2,3),(0.0,210.125000000000110),(0.0,1.0,2.0),.UNSPECIFIED.)GEOMETRIC_REPRESENTATION_ITEM()RATIONAL_B_SPLINE_SURFACE(((1.0,0.688354575693754,1.0,0.688354575693754,1.0),(1.0,0.688354575693754,1.0,0.688354575693754,1.0)))REPRESENTATION_ITEM('')SURFACE());
#318=ORIENTED_EDGE('',*,*,#152,.F.);
#319=CARTESIAN_POINT('',(-0.500000023748722,200.0,-3.000000142492375));
#320=CARTESIAN_POINT('',(-0.500000023748722,0.0,-3.000000142492375));
#321=QUASI_UNIFORM_CURVE('',1,(#319,#320),.UNSPECIFIED.,.F.,.U.);
#322=EDGE_CURVE('',#194,#131,#321,.T.);
#323=ORIENTED_EDGE('',*,*,#322,.F.);
#324=ORIENTED_EDGE('',*,*,#208,.T.);
#325=ORIENTED_EDGE('',*,*,#289,.T.);
#326=EDGE_LOOP('',(#318,#323,#324,#325));
#327=FACE_OUTER_BOUND('',#326,.T.);
#328=ADVANCED_FACE('',(#327),#317,.T.);
#329=CARTESIAN_POINT('',(-0.500000023748722,-9.989999612361194,-3.024975251328716));
#330=CARTESIAN_POINT('',(-0.500000023748722,-9.989999612361194,-2.475024987555551));
#331=CARTESIAN_POINT('',(-0.500000023748722,209.990004976779200,-3.024975251328716));
#332=CARTESIAN_POINT('',(-0.500000023748722,209.990004976779200,-2.475024987555551));
#333=B_SPLINE_SURFACE_WITH_KNOTS('',1,1,((#329,#331),(#330,#332)),.UNSPECIFIED.,.F.,.F.,.U.,(2,2),(2,2),(0.041708153916523,0.958291883336380),(0.0,219.980004589140410),.UNSPECIFIED.);
#334=ORIENTED_EDGE('',*,*,#135,.F.);
#335=CARTESIAN_POINT('',(-0.500000023748722,200.0,-2.500000118743635));
#336=CARTESIAN_POINT('',(-0.500000023748722,0.0,-2.500000118743635));
#337=QUASI_UNIFORM_CURVE('',1,(#335,#336),.UNSPECIFIED.,.F.,.U.);
#338=EDGE_CURVE('',#211,#124,#337,.T.);
#339=ORIENTED_EDGE('',*,*,#338,.F.);
#340=ORIENTED_EDGE('',*,*,#215,.T.);
#341=ORIENTED_EDGE('',*,*,#322,.T.);
#342=EDGE_LOOP('',(#334,#339,#340,#341));
#343=FACE_OUTER_BOUND('',#342,.T.);
#344=ADVANCED_FACE('',(#343),#333,.T.);
#345=CARTESIAN_POINT('',(-0.400100067574655,-9.989999612361183,-2.596418868853683));
#346=CARTESIAN_POINT('',(-2.599900021273576,-9.989999612361183,-0.473275174393729));
#347=CARTESIAN_POINT('',(-0.400100067574655,209.990004976779200,-2.596418868853683));
#348=CARTESIAN_POINT('',(-2.599900021273576,209.990004976779200,-0.473275174393729));
#349=B_SPLINE_SURFACE_WITH_KNOTS('',1,1,((#345,#347),(#346,#348)),.UNSPECIFIED.,.F.,.F.,.U.,(2,2),(2,2),(0.0,3.057263316042444),(0.0,219.980004589140410),.UNSPECIFIED.);
#350=ORIENTED_EDGE('',*,*,#128,.F.);
#351=CARTESIAN_POINT('',(-2.500000118743670,200.0,-0.569693872728905));
#352=CARTESIAN_POINT('',(-2.500000118743670,0.0,-0.569693872728905));
#353=QUASI_UNIFORM_CURVE('',1,(#351,#352),.UNSPECIFIED.,.F.,.U.);
#354=EDGE_CURVE('',#218,#107,#353,.T.);
#355=ORIENTED_EDGE('',*,*,#354,.F.);
#356=ORIENTED_EDGE('',*,*,#222,.T.);
#357=ORIENTED_EDGE('',*,*,#338,.T.);
#358=EDGE_LOOP('',(#350,#355,#356,#357));
#359=FACE_OUTER_BOUND('',#358,.T.);
#360=ADVANCED_FACE('',(#359),#349,.T.);
#361=CARTESIAN_POINT('',(-2.485087271685798,205.0,-0.569498652867143));
#362=CARTESIAN_POINT('',(-2.485087271685798,-5.125000000000000,-0.569498652867143));
#363=CARTESIAN_POINT('',(-3.085213633451473,205.000000000000030,-0.585213514707941));
#364=CARTESIAN_POINT('',(-3.085213633451473,-5.124999999999999,-0.585213514707941));
#365=CARTESIAN_POINT('',(-3.069498771610677,205.0,0.014912847057736));
#366=CARTESIAN_POINT('',(-3.069498771610677,-5.125000000000000,0.014912847057736));
#367=CARTESIAN_POINT('',(-3.053783909769882,205.000000000000030,0.615039208823413));
#368=CARTESIAN_POINT('',(-3.053783909769882,-5.124999999999999,0.615039208823413));
#369=CARTESIAN_POINT('',(-2.455302452647532,205.0,0.567937696645000));
#370=CARTESIAN_POINT('',(-2.455302452647532,-5.125000000000000,0.567937696645000));
#378=(BOUNDED_SURFACE()B_SPLINE_SURFACE(1,2,((#361,#363,#365,#367,#369),(#362,#364,#366,#368,#370)),.UNSPECIFIED.,.F.,.F.,.U.)B_SPLINE_SURFACE_WITH_KNOTS((2,2),(3,2,3),(0.0,210.125000000000110),(0.0,1.0,2.0),.UNSPECIFIED.)GEOMETRIC_REPRESENTATION_ITEM()RATIONAL_B_SPLINE_SURFACE(((1.0,0.688354575693754,1.0,0.688354575693754,1.0),(1.0,0.688354575693754,1.0,0.688354575693754,1.0)))REPRESENTATION_ITEM('')SURFACE());
#379=ORIENTED_EDGE('',*,*,#121,.F.);
#380=CARTESIAN_POINT('',(-2.500000118743535,200.0,0.569693872728898));
#381=CARTESIAN_POINT('',(-2.500000118743535,0.0,0.569693872728898));
#382=QUASI_UNIFORM_CURVE('',1,(#380,#381),.UNSPECIFIED.,.F.,.U.);
#383=EDGE_CURVE('',#225,#100,#382,.T.);
#384=ORIENTED_EDGE('',*,*,#383,.F.);
#385=ORIENTED_EDGE('',*,*,#239,.T.);
#386=ORIENTED_EDGE('',*,*,#354,.T.);
#387=EDGE_LOOP('',(#379,#384,#385,#386));
#388=FACE_OUTER_BOUND('',#387,.T.);
#389=ADVANCED_FACE('',(#388),#378,.T.);
#390=CARTESIAN_POINT('',(-2.599900056143024,-9.989999612361183,0.473275140739188));
#391=CARTESIAN_POINT('',(-0.400100122111981,-9.989999612361183,2.596418816216629));
#392=CARTESIAN_POINT('',(-2.599900056143024,209.990004976779200,0.473275140739188));
#393=CARTESIAN_POINT('',(-0.400100122111981,209.990004976779200,2.596418816216629));
#394=B_SPLINE_SURFACE_WITH_KNOTS('',1,1,((#390,#392),(#391,#393)),.UNSPECIFIED.,.F.,.F.,.U.,(2,2),(2,2),(0.0,3.057263288708193),(0.0,219.980004589140410),.UNSPECIFIED.);
#395=ORIENTED_EDGE('',*,*,#104,.F.);
#396=CARTESIAN_POINT('',(-0.500000023748683,200.0,2.500000118743485));
#397=CARTESIAN_POINT('',(-0.500000023748683,0.0,2.500000118743485));
#398=QUASI_UNIFORM_CURVE('',1,(#396,#397),.UNSPECIFIED.,.F.,.U.);
#399=EDGE_CURVE('',#242,#93,#398,.T.);
#400=ORIENTED_EDGE('',*,*,#399,.F.);
#401=ORIENTED_EDGE('',*,*,#246,.T.);
#402=ORIENTED_EDGE('',*,*,#383,.T.);
#403=EDGE_LOOP('',(#395,#400,#401,#402));
#404=FACE_OUTER_BOUND('',#403,.T.);
#405=ADVANCED_FACE('',(#404),#394,.T.);
#406=CARTESIAN_POINT('',(-0.500000023748722,-9.989999612361194,2.475024988225278));
#407=CARTESIAN_POINT('',(-0.500000023748722,-9.989999612361194,3.024975237247765));
#408=CARTESIAN_POINT('',(-0.500000023748722,209.990004976779200,2.475024988225278));
#409=CARTESIAN_POINT('',(-0.500000023748722,209.990004976779200,3.024975237247765));
#410=B_SPLINE_SURFACE_WITH_KNOTS('',1,1,((#406,#408),(#407,#409)),.UNSPECIFIED.,.F.,.F.,.U.,(2,2),(2,2),(0.041708117780089,0.958291822615266),(0.0,219.980004589140410),.UNSPECIFIED.);
#411=ORIENTED_EDGE('',*,*,#97,.F.);
#412=CARTESIAN_POINT('',(-0.500000023748725,200.0,3.000000142492345));
#413=CARTESIAN_POINT('',(-0.500000023748725,0.0,3.000000142492345));
#414=QUASI_UNIFORM_CURVE('',1,(#412,#413),.UNSPECIFIED.,.F.,.U.);
#415=EDGE_CURVE('',#249,#76,#414,.T.);
#416=ORIENTED_EDGE('',*,*,#415,.F.);
#417=ORIENTED_EDGE('',*,*,#253,.T.);
#418=ORIENTED_EDGE('',*,*,#399,.T.);
#419=EDGE_LOOP('',(#411,#416,#417,#418));
#420=FACE_OUTER_BOUND('',#419,.T.);
#421=ADVANCED_FACE('',(#420),#410,.T.);
#422=CARTESIAN_POINT('',(-0.499828686228365,205.0,2.986911667716738));
#423=CARTESIAN_POINT('',(-0.499828686228365,-5.125000000000000,2.986911667716738));
#424=CARTESIAN_POINT('',(-0.513621060817140,205.000000000000030,3.513621203309484));
#425=CARTESIAN_POINT('',(-0.513621060817140,-5.124999999999999,3.513621203309484));
#426=CARTESIAN_POINT('',(0.013088474775605,205.0,3.499828828720710));
#427=CARTESIAN_POINT('',(0.013088474775605,-5.125000000000000,3.499828828720710));
#428=CARTESIAN_POINT('',(0.539798010368351,205.000000000000030,3.486036454131935));
#429=CARTESIAN_POINT('',(0.539798010368351,-5.124999999999999,3.486036454131935));
#430=CARTESIAN_POINT('',(0.498458690542080,205.0,2.960770592765119));
#431=CARTESIAN_POINT('',(0.498458690542080,-5.125000000000000,2.960770592765119));
#439=(BOUNDED_SURFACE()B_SPLINE_SURFACE(1,2,((#422,#424,#426,#428,#430),(#423,#425,#427,#429,#431)),.UNSPECIFIED.,.F.,.F.,.U.)B_SPLINE_SURFACE_WITH_KNOTS((2,2),(3,2,3),(0.0,210.125000000000110),(0.0,1.0,2.0),.UNSPECIFIED.)GEOMETRIC_REPRESENTATION_ITEM()RATIONAL_B_SPLINE_SURFACE(((1.0,0.688354575693754,1.0,0.688354575693754,1.0),(1.0,0.688354575693754,1.0,0.688354575693754,1.0)))REPRESENTATION_ITEM('')SURFACE());
#440=ORIENTED_EDGE('',*,*,#90,.F.);
#441=CARTESIAN_POINT('',(0.500000023748779,200.0,3.000000142492345));
#442=CARTESIAN_POINT('',(0.500000023748779,0.0,3.000000142492345));
#443=QUASI_UNIFORM_CURVE('',1,(#441,#442),.UNSPECIFIED.,.F.,.U.);
#444=EDGE_CURVE('',#256,#69,#443,.T.);
#445=ORIENTED_EDGE('',*,*,#444,.F.);
#446=ORIENTED_EDGE('',*,*,#270,.T.);
#447=ORIENTED_EDGE('',*,*,#415,.T.);
#448=EDGE_LOOP('',(#440,#445,#446,#447));
#449=FACE_OUTER_BOUND('',#448,.T.);
#450=ADVANCED_FACE('',(#449),#439,.T.);
#451=CARTESIAN_POINT('',(0.500000023748829,-9.989999612361194,3.024975251328686));
#452=CARTESIAN_POINT('',(0.500000023748829,-9.989999612361194,2.475024987555516));
#453=CARTESIAN_POINT('',(0.500000023748829,209.990004976779200,3.024975251328686));
#454=CARTESIAN_POINT('',(0.500000023748829,209.990004976779200,2.475024987555516));
#455=B_SPLINE_SURFACE_WITH_KNOTS('',1,1,((#451,#453),(#452,#454)),.UNSPECIFIED.,.F.,.F.,.U.,(2,2),(2,2),(0.041708153916523,0.958291883336380),(0.0,219.980004589140410),.UNSPECIFIED.);
#456=ORIENTED_EDGE('',*,*,#73,.F.);
#457=CARTESIAN_POINT('',(0.500000023748829,200.0,2.500000118743600));
#458=CARTESIAN_POINT('',(0.500000023748829,0.0,2.500000118743600));
#459=QUASI_UNIFORM_CURVE('',1,(#457,#458),.UNSPECIFIED.,.F.,.U.);
#460=EDGE_CURVE('',#170,#52,#459,.T.);
#461=ORIENTED_EDGE('',*,*,#460,.F.);
#462=ORIENTED_EDGE('',*,*,#275,.T.);
#463=ORIENTED_EDGE('',*,*,#444,.T.);
#464=EDGE_LOOP('',(#456,#461,#462,#463));
#465=FACE_OUTER_BOUND('',#464,.T.);
#466=ADVANCED_FACE('',(#465),#455,.T.);
#467=CARTESIAN_POINT('',(0.393993658994561,205.0,2.559366535475483));
#468=CARTESIAN_POINT('',(0.393993658994561,-5.125000000000000,2.559366535475483));
#469=CARTESIAN_POINT('',(5.417033308957064,205.000000000000030,-0.117020977798971));
#470=CARTESIAN_POINT('',(5.417033308957064,-5.125000000000001,-0.117020977798971));
#471=CARTESIAN_POINT('',(0.299321699256820,205.0,-2.607604308315374));
#472=CARTESIAN_POINT('',(0.299321699256820,-5.125000000000000,-2.607604308315374));
#480=(BOUNDED_SURFACE()B_SPLINE_SURFACE(1,2,((#467,#469,#471),(#468,#470,#472)),.UNSPECIFIED.,.F.,.F.,.U.)B_SPLINE_SURFACE_WITH_KNOTS((2,2),(3,3),(0.0,210.125000000000000),(0.0,7.108489480058329),.UNSPECIFIED.)GEOMETRIC_REPRESENTATION_ITEM()RATIONAL_B_SPLINE_SURFACE(((1.0,0.453990499739547,1.0),(1.0,0.453990499739547,1.0)))REPRESENTATION_ITEM('')SURFACE());
#481=ORIENTED_EDGE('',*,*,#66,.F.);
#482=ORIENTED_EDGE('',*,*,#295,.F.);
#483=ORIENTED_EDGE('',*,*,#184,.T.);
#484=ORIENTED_EDGE('',*,*,#460,.T.);
#485=EDGE_LOOP('',(#481,#482,#483,#484));
#486=FACE_OUTER_BOUND('',#485,.T.);
#487=ADVANCED_FACE('',(#486),#480,.T.);
#488=CLOSED_SHELL('',(#161,#279,#299,#328,#344,#360,#389,#405,#421,#450,#466,#487));
#489=MANIFOLD_SOLID_BREP('gasket',#488);
#495=(NAMED_UNIT(*)PLANE_ANGLE_UNIT()SI_UNIT($,.RADIAN.));
#496=DIMENSIONAL_EXPONENTS(0.0,0.0,0.0,0.0,0.0,0.0,0.0);
#497=PLANE_ANGLE_MEASURE_WITH_UNIT(PLANE_ANGLE_MEASURE(0.017453292500000),#495);
#501=(CONVERSION_BASED_UNIT('DEGREE',#497)NAMED_UNIT(#496)PLANE_ANGLE_UNIT());
#505=(NAMED_UNIT(*)SI_UNIT($,.STERADIAN.)SOLID_ANGLE_UNIT());
#509=(LENGTH_UNIT()NAMED_UNIT(*)SI_UNIT(.MILLI.,.METRE.));
#511=UNCERTAINTY_MEASURE_WITH_UNIT(LENGTH_MEASURE(0.001000000000000),#509,'DISTANCE_ACCURACY_VALUE','');
#513=(GEOMETRIC_REPRESENTATION_CONTEXT(3)GLOBAL_UNCERTAINTY_ASSIGNED_CONTEXT((#511))GLOBAL_UNIT_ASSIGNED_CONTEXT((#501,#505,#509))REPRESENTATION_CONTEXT('','3D'));
ENDSEC;
END-ISO-10303-21;
