  0
SECTION
  2
HEADER
  9
$ACADVER
  1
AC1015
  9
$ACADMAINTVER
 70
    20
  9
$DWGCODEPAGE
  3
ANSI_932
  9
$INSBASE
 10
0.0
 20
0.0
 30
0.0
  9
$EXTMIN
 10
9.9999975266385
 20
10.0
 30
0.0
  9
$EXTMAX
 10
176.048123639391
 20
143.3667074639517
 30
0.0
  9
$LIMMIN
 10
0.0000015376081137
 20
-0.0000001931532552
  9
$LIMMAX
 10
226.0000015376081
 20
155.8030301098769
  9
$ORTHOMODE
 70
     1
  9
$REGENMODE
 70
     1
  9
$FILLMODE
 70
     1
  9
$QTEXTMODE
 70
     0
  9
$MIRRTEXT
 70
     1
  9
$LTSCALE
 40
1.0
  9
$ATTMODE
 70
     1
  9
$TEXTSIZE
 40
2.5
  9
$TRACEWID
 40
1.0
  9
$TEXTSTYLE
  7
STANDARD
  9
$CLAYER
  8
0
  9
$CELTYPE
  6
BYLAYER
  9
$CECOLOR
 62
   256
  9
$CELTSCALE
 40
1.0
  9
$DISPSILH
 70
     0
  9
$DIMSCALE
 40
1.0
  9
$DIMASZ
 40
3.0
  9
$DIMEXO
 40
1.0
  9
$DIMDLI
 40
10.0
  9
$DIMRND
 40
0.0
  9
$DIMDLE
 40
0.0
  9
$DIMEXE
 40
1.0
  9
$DIMTP
 40
0.0
  9
$DIMTM
 40
0.0
  9
$DIMTXT
 40
3.2
  9
$DIMCEN
 40
0.0
  9
$DIMTSZ
 40
0.0
  9
$DIMTOL
 70
     0
  9
$DIMLIM
 70
     0
  9
$DIMTIH
 70
     0
  9
$DIMTOH
 70
     0
  9
$DIMSE1
 70
     0
  9
$DIMSE2
 70
     0
  9
$DIMTAD
 70
     3
  9
$DIMZIN
 70
     8
  9
$DIMBLK
  1

  9
$DIMASO
 70
     1
  9
$DIMSHO
 70
     1
  9
$DIMPOST
  1

  9
$DIMAPOST
  1

  9
$DIMALT
 70
     0
  9
$DIMALTD
 70
     2
  9
$DIMALTF
 40
25.4
  9
$DIMLFAC
 40
1.0
  9
$DIMTOFL
 70
     1
  9
$DIMTVP
 40
0.0
  9
$DIMTIX
 70
     0
  9
$DIMSOXD
 70
     0
  9
$DIMSAH
 70
     1
  9
$DIMBLK1
  1
OPEN
  9
$DIMBLK2
  1
OPEN
  9
$DIMSTYLE
  2
STANDARD
  9
$DIMCLRD
 70
     0
  9
$DIMCLRE
 70
     0
  9
$DIMCLRT
 70
     0
  9
$DIMTFAC
 40
1.0
  9
$DIMGAP
 40
1.0
  9
$DIMJUST
 70
     0
  9
$DIMSD1
 70
     0
  9
$DIMSD2
 70
     0
  9
$DIMTOLJ
 70
     1
  9
$DIMTZIN
 70
     0
  9
$DIMALTZ
 70
     0
  9
$DIMALTTZ
 70
     0
  9
$DIMUPT
 70
     0
  9
$DIMDEC
 70
     4
  9
$DIMTDEC
 70
     4
  9
$DIMALTU
 70
     2
  9
$DIMALTTD
 70
     2
  9
$DIMTXSTY
  7
STANDARD
  9
$DIMAUNIT
 70
     0
  9
$DIMADEC
 70
     0
  9
$DIMALTRND
 40
0.0
  9
$DIMAZIN
 70
     0
  9
$DIMDSEP
 70
    46
  9
$DIMATFIT
 70
     3
  9
$DIMFRAC
 70
     0
  9
$DIMLDRBLK
  1
OPEN
  9
$DIMLUNIT
 70
     2
  9
$DIMLWD
 70
    -2
  9
$DIMLWE
 70
    -2
  9
$DIMTMOVE
 70
     0
  9
$LUNITS
 70
     2
  9
$LUPREC
 70
     4
  9
$SKETCHINC
 40
1.0
  9
$FILLETRAD
 40
0.0
  9
$AUNITS
 70
     0
  9
$AUPREC
 70
     0
  9
$MENU
  1
.
  9
$ELEVATION
 40
0.0
  9
$PELEVATION
 40
0.0
  9
$THICKNESS
 40
0.0
  9
$LIMCHECK
 70
     0
  9
$CHAMFERA
 40
10.0
  9
$CHAMFERB
 40
10.0
  9
$CHAMFERC
 40
20.0
  9
$CHAMFERD
 40
0.0
  9
$SKPOLY
 70
     0
  9
$TDCREATE
 40
2453777.824795463
  9
$TDUCREATE
 40
2453777.449795463
  9
$TDUPDATE
 40
2457192.702023820
  9
$TDUUPDATE
 40
2457192.327023820
  9
$TDINDWG
 40
0.0455739931
  9
$TDUSRTIMER
 40
0.0455739815
  9
$USRTIMER
 70
     1
  9
$ANGBASE
 50
0.0
  9
$ANGDIR
 70
     0
  9
$PDMODE
 70
     0
  9
$PDSIZE
 40
0.0
  9
$PLINEWID
 40
0.0
  9
$SPLFRAME
 70
     0
  9
$SPLINETYPE
 70
     6
  9
$SPLINESEGS
 70
     8
  9
$HANDSEED
  5
E04
  9
$SURFTAB1
 70
     6
  9
$SURFTAB2
 70
     6
  9
$SURFTYPE
 70
     6
  9
$SURFU
 70
     6
  9
$SURFV
 70
     6
  9
$UCSBASE
  2

  9
$UCSNAME
  2

  9
$UCSORG
 10
0.0
 20
0.0
 30
0.0
  9
$UCSXDIR
 10
1.0
 20
0.0
 30
0.0
  9
$UCSYDIR
 10
0.0
 20
1.0
 30
0.0
  9
$UCSORTHOREF
  2

  9
$UCSORTHOVIEW
 70
     0
  9
$UCSORGTOP
 10
0.0
 20
0.0
 30
0.0
  9
$UCSORGBOTTOM
 10
0.0
 20
0.0
 30
0.0
  9
$UCSORGLEFT
 10
0.0
 20
0.0
 30
0.0
  9
$UCSORGRIGHT
 10
0.0
 20
0.0
 30
0.0
  9
$UCSORGFRONT
 10
0.0
 20
0.0
 30
0.0
  9
$UCSORGBACK
 10
0.0
 20
0.0
 30
0.0
  9
$PUCSBASE
  2

  9
$PUCSNAME
  2

  9
$PUCSORG
 10
0.0
 20
0.0
 30
0.0
  9
$PUCSXDIR
 10
1.0
 20
0.0
 30
0.0
  9
$PUCSYDIR
 10
0.0
 20
1.0
 30
0.0
  9
$PUCSORTHOREF
  2

  9
$PUCSORTHOVIEW
 70
     0
  9
$PUCSORGTOP
 10
0.0
 20
0.0
 30
0.0
  9
$PUCSORGBOTTOM
 10
0.0
 20
0.0
 30
0.0
  9
$PUCSORGLEFT
 10
0.0
 20
0.0
 30
0.0
  9
$PUCSORGRIGHT
 10
0.0
 20
0.0
 30
0.0
  9
$PUCSORGFRONT
 10
0.0
 20
0.0
 30
0.0
  9
$PUCSORGBACK
 10
0.0
 20
0.0
 30
0.0
  9
$USERI1
 70
     0
  9
$USERI2
 70
     0
  9
$USERI3
 70
     0
  9
$USERI4
 70
     0
  9
$USERI5
 70
     0
  9
$USERR1
 40
0.0
  9
$USERR2
 40
0.0
  9
$USERR3
 40
0.0
  9
$USERR4
 40
0.0
  9
$USERR5
 40
0.0
  9
$WORLDVIEW
 70
     1
  9
$SHADEDGE
 70
     3
  9
$SHADEDIF
 70
    70
  9
$TILEMODE
 70
     1
  9
$MAXACTVP
 70
    48
  9
$PINSBASE
 10
0.0
 20
0.0
 30
0.0
  9
$PLIMCHECK
 70
     0
  9
$PEXTMIN
 10
27.8447512626648
 20
20.24591643810271
 30
0.0
  9
$PEXTMAX
 10
250.6027613639831
 20
182.2132479429244
 30
0.0
  9
$PLIMMIN
 10
-3.757080078125
 20
-3.757083177566528
  9
$PLIMMAX
 10
293.2112426757812
 20
206.2162444591522
  9
$UNITMODE
 70
     0
  9
$VISRETAIN
 70
     1
  9
$PLINEGEN
 70
     0
  9
$PSLTSCALE
 70
     1
  9
$TREEDEPTH
 70
  3020
  9
$CMLSTYLE
  2
STANDARD
  9
$CMLJUST
 70
     0
  9
$CMLSCALE
 40
20.0
  9
$PROXYGRAPHICS
 70
     1
  9
$MEASUREMENT
 70
     0
  9
$CELWEIGHT
370
    -1
  9
$ENDCAPS
280
     0
  9
$JOINSTYLE
280
     0
  9
$LWDISPLAY
290
     0
  9
$INSUNITS
 70
     0
  9
$HYPERLINKBASE
  1

  9
$STYLESHEET
  1

  9
$XEDIT
290
     1
  9
$CEPSNTYPE
380
     0
  9
$PSTYLEMODE
290
     1
  9
$FINGERPRINTGUID
  2
{BF0C4A96-0264-4ED3-9D05-388A85FE862A}
  9
$VERSIONGUID
  2
{C1F90C77-6057-477F-94DF-3AC810C87C35}
  9
$EXTNAMES
290
     1
  9
$PSVPSCALE
 40
0.0
  9
$OLESTARTUP
290
     0
  0
ENDSEC
  0
SECTION
  2
CLASSES
  0
CLASS
  1
ACDBDICTIONARYWDFLT
  2
AcDbDictionaryWithDefault
  3
ObjectDBX Classes
 90
        0
280
     0
281
     0
  0
CLASS
  1
ACDBPLACEHOLDER
  2
AcDbPlaceHolder
  3
ObjectDBX Classes
 90
        0
280
     0
281
     0
  0
CLASS
  1
LAYOUT
  2
AcDbLayout
  3
ObjectDBX Classes
 90
        0
280
     0
281
     0
  0
CLASS
  1
DICTIONARYVAR
  2
AcDbDictionaryVar
  3
ObjectDBX Classes
 90
        0
280
     0
281
     0
  0
CLASS
  1
MATERIAL
  2
AcDbMaterial
  3
ObjectDBX Classes
 90
     1153
280
     0
281
     0
  0
CLASS
  1
VISUALSTYLE
  2
AcDbVisualStyle
  3
ObjectDBX Classes
 90
     4095
280
     0
281
     0
  0
CLASS
  1
TABLESTYLE
  2
AcDbTableStyle
  3
ObjectDBX Classes
 90
     4095
280
     0
281
     0
  0
CLASS
  1
SCALE
  2
AcDbScale
  3
ObjectDBX Classes
 90
     1153
280
     0
281
     0
  0
CLASS
  1
MLEADERSTYLE
  2
AcDbMLeaderStyle
  3
ACDB_MLEADERSTYLE_CLASS
 90
     4095
280
     0
281
     0
  0
CLASS
  1
ACDBSECTIONVIEWSTYLE
  2
AcDbSectionViewStyle
  3
ObjectDBX Classes
 90
     1025
280
     0
281
     0
  0
CLASS
  1
ACDBDETAILVIEWSTYLE
  2
AcDbDetailViewStyle
  3
ObjectDBX Classes
 90
     1025
280
     0
281
     0
  0
CLASS
  1
CELLSTYLEMAP
  2
AcDbCellStyleMap
  3
ObjectDBX Classes
 90
     1152
280
     0
281
     0
  0
ENDSEC
  0
SECTION
  2
TABLES
  0
TABLE
  2
VPORT
  5
8
330
0
100
AcDbSymbolTable
 70
     1
  0
VPORT
  5
D4E
330
8
100
AcDbSymbolTableRecord
100
AcDbViewportTableRecord
  2
*ACTIVE
 70
     0
 10
0.0
 20
0.0
 11
1.0
 21
1.0
 12
135.8912236698093
 22
76.68311546267084
 13
0.0
 23
0.0
 14
10.0
 24
10.0
 15
10.0
 25
10.0
 16
0.0
 26
0.0
 36
1.0
 17
0.0
 27
0.0
 37
0.0
 40
134.6544207777011
 41
2.35006605019815
 42
50.0
 43
0.0
 44
0.0
 50
0.0
 51
0.0
 71
     0
 72
   100
 73
     1
 74
     0
 75
     0
 76
     0
 77
     0
 78
     0
281
     0
 65
     1
110
0.0
120
0.0
130
0.0
111
1.0
121
0.0
131
0.0
112
0.0
122
1.0
132
0.0
 79
     0
146
0.0
1001
ACAD_NAV_VCDISPLAY
1070
     3
  0
ENDTAB
  0
TABLE
  2
LTYPE
  5
5
330
0
100
AcDbSymbolTable
 70
     4
  0
LTYPE
  5
12
330
5
100
AcDbSymbolTableRecord
100
AcDbLinetypeTableRecord
  2
BYBLOCK
 70
     0
  3

 72
    65
 73
     0
 40
0.0
  0
LTYPE
  5
13
330
5
100
AcDbSymbolTableRecord
100
AcDbLinetypeTableRecord
  2
BYLAYER
 70
     0
  3

 72
    65
 73
     0
 40
0.0
  0
LTYPE
  5
14
330
5
100
AcDbSymbolTableRecord
100
AcDbLinetypeTableRecord
  2
CONTINUOUS
 70
     0
  3
Solid line
 72
    65
 73
     0
 40
0.0
  0
LTYPE
  5
4B
330
5
100
AcDbSymbolTableRecord
100
AcDbLinetypeTableRecord
  2
DASHED
 70
     0
  3
Dashed __ __ __ __ __ __ __ __ __ __ __ __ __ _
 72
    65
 73
     2
 40
19.04999999999999
 49
12.7
 74
     0
 49
-6.349999999999998
 74
     0
  0
LTYPE
  5
4C
330
5
100
AcDbSymbolTableRecord
100
AcDbLinetypeTableRecord
  2
CENTER
 70
     0
  3
Center ____ _ ____ _ ____ _ ____ _ ____ _ ____
 72
    65
 73
     4
 40
50.8
 49
31.75
 74
     0
 49
-6.349999999999998
 74
     0
 49
6.349999999999998
 74
     0
 49
-6.349999999999998
 74
     0
  0
LTYPE
  5
4D
330
5
100
AcDbSymbolTableRecord
100
AcDbLinetypeTableRecord
  2
PHANTOM
 70
     0
  3
Phantom ______  __  __  ______  __  __  ______
 72
    65
 73
     6
 40
63.5
 49
31.75
 74
     0
 49
-6.349999999999998
 74
     0
 49
6.349999999999998
 74
     0
 49
-6.349999999999998
 74
     0
 49
6.349999999999998
 74
     0
 49
-6.349999999999998
 74
     0
  0
ENDTAB
  0
TABLE
  2
LAYER
  5
2
330
0
100
AcDbSymbolTable
 70
     8
  0
LAYER
  5
E
102
{ACAD_XDICTIONARY
360
DA8
102
}
330
2
100
AcDbSymbolTableRecord
100
AcDbLayerTableRecord
  2
0
 70
     0
 62
     7
  6
CONTINUOUS
370
    -3
390
D57
  0
LAYER
  5
4E
102
{ACAD_XDICTIONARY
360
DAA
102
}
330
2
100
AcDbSymbolTableRecord
100
AcDbLayerTableRecord
  2
4
 70
     0
 62
     1
  6
CENTER
370
    -3
390
D57
  0
LAYER
  5
4F
102
{ACAD_XDICTIONARY
360
DAC
102
}
330
2
100
AcDbSymbolTableRecord
100
AcDbLayerTableRecord
  2
5
 70
     0
 62
     6
  6
PHANTOM
370
    -3
390
D57
  0
LAYER
  5
50
102
{ACAD_XDICTIONARY
360
DAE
102
}
330
2
100
AcDbSymbolTableRecord
100
AcDbLayerTableRecord
  2
1
 70
     0
 62
     7
  6
CONTINUOUS
370
    -3
390
D57
  0
LAYER
  5
51
102
{ACAD_XDICTIONARY
360
DB0
102
}
330
2
100
AcDbSymbolTableRecord
100
AcDbLayerTableRecord
  2
2
 70
     0
 62
     4
  6
CONTINUOUS
370
    -3
390
D57
  0
LAYER
  5
52
102
{ACAD_XDICTIONARY
360
DB2
102
}
330
2
100
AcDbSymbolTableRecord
100
AcDbLayerTableRecord
  2
3
 70
     0
 62
     2
  6
DASHED
370
    -3
390
D57
  0
LAYER
  5
53
102
{ACAD_XDICTIONARY
360
DB4
102
}
330
2
100
AcDbSymbolTableRecord
100
AcDbLayerTableRecord
  2
6
 70
     0
 62
     5
  6
CONTINUOUS
370
    -3
390
D57
  0
LAYER
  5
54
102
{ACAD_XDICTIONARY
360
DB6
102
}
330
2
100
AcDbSymbolTableRecord
100
AcDbLayerTableRecord
  2
7
 70
     0
 62
     3
  6
CONTINUOUS
370
    -3
390
D57
  0
ENDTAB
  0
TABLE
  2
STYLE
  5
3
330
0
100
AcDbSymbolTable
 70
     1
  0
STYLE
  5
F
330
3
100
AcDbSymbolTableRecord
100
AcDbTextStyleTableRecord
  2
STANDARD
 70
     0
 40
0.0
 41
1.0
 50
0.0
 71
     0
 42
2.5
  3
simplex.shx
  4

  0
ENDTAB
  0
TABLE
  2
VIEW
  5
6
330
0
100
AcDbSymbolTable
 70
     0
  0
ENDTAB
  0
TABLE
  2
UCS
  5
7
330
0
100
AcDbSymbolTable
 70
     0
  0
ENDTAB
  0
TABLE
  2
APPID
  5
9
330
0
100
AcDbSymbolTable
 70
     5
  0
APPID
  5
10
330
9
100
AcDbSymbolTableRecord
100
AcDbRegAppTableRecord
  2
ACAD
 70
     0
  0
APPID
  5
3E
330
9
100
AcDbSymbolTableRecord
100
AcDbRegAppTableRecord
  2
CONTENTTABDATA
 70
     0
  0
APPID
  5
3F
330
9
100
AcDbSymbolTableRecord
100
AcDbRegAppTableRecord
  2
CONTENTCURRENTTAB
 70
     0
  0
APPID
  5
DC2
330
9
100
AcDbSymbolTableRecord
100
AcDbRegAppTableRecord
  2
ACAD_NAV_VCDISPLAY
 70
     0
  0
APPID
  5
DFB
330
9
100
AcDbSymbolTableRecord
100
AcDbRegAppTableRecord
  2
ACAD_MLEADERVER
 70
     0
  0
ENDTAB
  0
TABLE
  2
DIMSTYLE
  5
A
330
0
100
AcDbSymbolTable
 70
     1
100
AcDbDimStyleTable
 71
     0
  0
DIMSTYLE
105
1D
330
A
100
AcDbSymbolTableRecord
100
AcDbDimStyleTableRecord
  2
STANDARD
 70
     0
 41
3.0
 42
1.0
 43
10.0
 44
1.0
 73
     0
 74
     0
 77
     3
 78
     8
140
3.2
141
0.0
147
1.0
172
     1
173
     1
340
F
341
2E
343
2E
344
2E
  0
ENDTAB
  0
TABLE
  2
BLOCK_RECORD
  5
1
330
0
100
AcDbSymbolTable
 70
     1
  0
BLOCK_RECORD
  5
18
102
{ACAD_XDICTIONARY
360
D51
102
}
330
1
100
AcDbSymbolTableRecord
100
AcDbBlockTableRecord
  2
*MODEL_SPACE
340
DA5
  0
BLOCK_RECORD
  5
15
102
{ACAD_XDICTIONARY
360
D4F
102
}
330
1
100
AcDbSymbolTableRecord
100
AcDbBlockTableRecord
  2
*PAPER_SPACE
340
DA6
  0
BLOCK_RECORD
  5
2E
330
1
100
AcDbSymbolTableRecord
100
AcDbBlockTableRecord
  2
_OPEN
340
0
  0
ENDTAB
  0
ENDSEC
  0
SECTION
  2
BLOCKS
  0
BLOCK
  5
19
330
18
100
AcDbEntity
  8
0
100
AcDbBlockBegin
  2
*MODEL_SPACE
 70
     0
 10
0.0
 20
0.0
 30
0.0
  3
*MODEL_SPACE
  1

  0
ENDBLK
  5
1A
330
18
100
AcDbEntity
  8
0
100
AcDbBlockEnd
  0
BLOCK
  5
16
330
15
100
AcDbEntity
 67
     1
  8
0
100
AcDbBlockBegin
  2
*PAPER_SPACE
 70
     0
 10
0.0
 20
0.0
 30
0.0
  3
*PAPER_SPACE
  1

  0
ENDBLK
  5
17
330
15
100
AcDbEntity
 67
     1
  8
0
100
AcDbBlockEnd
  0
BLOCK
  5
2F
330
2E
100
AcDbEntity
  8
0
100
AcDbBlockBegin
  2
_OPEN
 70
     0
 10
0.0
 20
0.0
 30
0.0
  3
_OPEN
  1

  0
LINE
  5
30
330
2E
100
AcDbEntity
  8
0
  6
ByBlock
 62
     0
100
AcDbLine
 10
-1.0
 20
0.1666666666666666
 30
0.0
 11
0.0
 21
0.0
 31
0.0
  0
LINE
  5
31
330
2E
100
AcDbEntity
  8
0
  6
ByBlock
 62
     0
100
AcDbLine
 10
0.0
 20
0.0
 30
0.0
 11
-1.0
 21
-0.1666666666666666
 31
0.0
  0
LINE
  5
32
330
2E
100
AcDbEntity
  8
0
  6
ByBlock
 62
     0
100
AcDbLine
 10
0.0
 20
0.0
 30
0.0
 11
-1.0
 21
0.0
 31
0.0
  0
ENDBLK
  5
33
330
2E
100
AcDbEntity
  8
0
100
AcDbBlockEnd
  0
ENDSEC
  0
SECTION
  2
ENTITIES
  0
TEXT
  5
63
330
18
100
AcDbEntity
  8
4
  6
CENTER
 48
0.25
100
AcDbText
 10
23.97950852663849
 20
10.0
 30
0.0
 40
1.399999999999999
  1
4
100
AcDbText
  0
TEXT
  5
64
330
18
100
AcDbEntity
  8
7
  6
Continuous
 48
0.25
100
AcDbText
 10
9.999997526638502
 20
26.0000007607689
 30
0.0
 40
3.0
  1
CODE No.13381
100
AcDbText
  0
TEXT
  5
65
330
18
100
AcDbEntity
  8
7
  6
Continuous
 48
0.25
100
AcDbText
 10
9.999997526638502
 20
18.00000076076889
 30
0.0
 40
3.0
  1
TYPE No.TEO-1121-U40
100
AcDbText
  0
TEXT
  5
66
330
18
100
AcDbEntity
  8
1
  6
Continuous
 48
0.25
100
AcDbText
 10
9.999997526638502
 20
10.00000076076889
 30
0.0
 40
1.399999999999999
  1
LAYER
100
AcDbText
  0
TEXT
  5
67
330
18
100
AcDbEntity
  8
2
  6
Continuous
 48
0.25
100
AcDbText
 10
19.9795085266385
 20
10.0
 30
0.0
 40
1.399999999999999
  1
2
100
AcDbText
  0
TEXT
  5
68
330
18
100
AcDbEntity
  8
3
  6
DASHED
 48
0.25
100
AcDbText
 10
21.9795085266385
 20
10.0
 30
0.0
 40
1.399999999999999
  1
3
100
AcDbText
  0
TEXT
  5
69
330
18
100
AcDbEntity
  8
1
  6
Continuous
 48
0.25
100
AcDbText
 10
17.9795085266385
 20
10.0
 30
0.0
 40
1.399999999999999
  1
1
100
AcDbText
  0
TEXT
  5
6A
330
18
100
AcDbEntity
  8
5
  6
PHANTOM
 48
0.25
100
AcDbText
 10
25.9795085266385
 20
10.0
 30
0.0
 40
1.399999999999999
  1
5
100
AcDbText
  0
TEXT
  5
6B
330
18
100
AcDbEntity
  8
6
  6
Continuous
 48
0.25
100
AcDbText
 10
27.9795085266385
 20
10.0
 30
0.0
 40
1.399999999999999
  1
6
100
AcDbText
  0
TEXT
  5
6C
330
18
100
AcDbEntity
  8
7
  6
Continuous
 48
0.25
100
AcDbText
 10
29.9795085266385
 20
10.0
 30
0.0
 40
1.399999999999999
  1
7
100
AcDbText
  0
LINE
  5
950
330
18
100
AcDbEntity
  8
1
  6
Continuous
100
AcDbLine
 10
112.4705960437712
 20
90.83899571461204
 30
0.0
 11
108.6705958632812
 21
90.838995714612
 31
0.0
  0
LINE
  5
951
330
18
100
AcDbEntity
  8
1
  6
Continuous
100
AcDbLine
 10
108.6705958632814
 20
85.33899545337602
 30
0.0
 11
112.4705960437712
 21
85.33899545337604
 31
0.0
  0
CIRCLE
  5
A33
330
18
100
AcDbEntity
  8
1
  6
Continuous
100
AcDbCircle
 10
78.18749360655278
 20
88.08899558399401
 30
0.0
 40
6.750000320607786
  0
CIRCLE
  5
A34
330
18
100
AcDbEntity
  8
1
  6
Continuous
100
AcDbCircle
 10
78.18749360655278
 20
88.08899558399401
 30
0.0
 40
8.000000379979617
  0
LINE
  5
A46
330
18
100
AcDbEntity
  8
1
  6
Continuous
100
AcDbLine
 10
75.20420668681906
 20
84.13899539637901
 30
0.0
 11
81.17078052628642
 21
84.13899539637908
 31
0.0
  0
LINE
  5
A47
330
18
100
AcDbEntity
  8
1
  6
Continuous
100
AcDbLine
 10
81.03354363588458
 20
92.13899577635858
 30
0.0
 11
75.3414435772209
 21
92.13899577635869
 31
0.0
  0
CIRCLE
  5
A48
330
18
100
AcDbEntity
  8
1
  6
Continuous
100
AcDbCircle
 10
78.18749360655278
 20
88.08899558399401
 30
0.0
 40
3.100000147242096
  0
LINE
  5
A5A
330
18
100
AcDbEntity
  8
1
  6
Continuous
100
AcDbLine
 10
74.23749341893778
 20
91.07228250372772
 30
0.0
 11
74.23749341893785
 21
85.10570866426036
 31
0.0
  0
ARC
  5
A5B
330
18
100
AcDbEntity
  8
1
  6
Continuous
100
AcDbCircle
 10
78.18749360655278
 20
88.08899558399401
 30
0.0
 40
4.950000235112377
100
AcDbArc
 50
217.0623819919255
 51
232.9376180080739
  0
ARC
  5
A5C
330
18
100
AcDbEntity
  8
1
  6
Continuous
100
AcDbCircle
 10
78.18749360655274
 20
88.08899558399401
 30
0.0
 40
4.950000235112368
100
AcDbArc
 50
125.0968012275866
 51
142.9376180080744
  0
LINE
  5
A5D
330
18
100
AcDbEntity
  8
1
  6
Continuous
100
AcDbLine
 10
82.13749379416777
 20
85.1057086642603
 30
0.0
 11
82.13749379416769
 21
91.07228250372768
 31
0.0
  0
ARC
  5
A5E
330
18
100
AcDbEntity
  8
1
  6
Continuous
100
AcDbCircle
 10
78.18749360655278
 20
88.08899558399401
 30
0.0
 40
4.950000235112377
100
AcDbArc
 50
307.062381991926
 51
322.9376180080744
  0
ARC
  5
A5F
330
18
100
AcDbEntity
  8
1
  6
Continuous
100
AcDbCircle
 10
78.18749360655278
 20
88.08899558399401
 30
0.0
 40
4.950000235112384
100
AcDbArc
 50
37.06238199192553
 51
54.90319877241339
  0
LINE
  5
A62
330
18
100
AcDbEntity
  8
1
  6
Continuous
100
AcDbLine
 10
108.3705955128879
 20
85.6389958037691
 30
0.0
 11
108.3705955128879
 21
90.538995364219
 31
0.0
  0
LINE
  5
A63
330
18
100
AcDbEntity
  8
1
  6
Continuous
100
AcDbLine
 10
108.6705958632812
 20
85.33899545337581
 30
0.0
 11
108.6705958632812
 21
90.838995714612
 31
0.0
  0
LINE
  5
A64
330
18
100
AcDbEntity
  8
1
  6
Continuous
100
AcDbLine
 10
108.3705955128879
 20
85.6389958037691
 30
0.0
 11
108.670595863281
 21
85.33899545337602
 31
0.0
  0
LINE
  5
A66
330
18
100
AcDbEntity
  8
1
  6
Continuous
100
AcDbLine
 10
108.6705958632814
 20
90.83899571461245
 30
0.0
 11
108.3705955128879
 21
90.538995364219
 31
0.0
  0
LINE
  5
A6A
330
18
100
AcDbEntity
  8
1
  6
Continuous
100
AcDbLine
 10
163.0981231667914
 20
87.58899867448784
 30
0.0
 11
164.2481232214134
 21
87.58899867448784
 31
0.0
  0
LINE
  5
A6B
330
18
100
AcDbEntity
  8
1
  6
Continuous
100
AcDbLine
 10
164.2481232214134
 20
88.58899872198531
 30
0.0
 11
163.0981231667914
 21
88.58899872198531
 31
0.0
  0
ARC
  5
A6D
330
18
100
AcDbEntity
  8
1
  6
Continuous
100
AcDbCircle
 10
165.0481232594114
 20
88.08899869823656
 30
0.0
 40
4.000000189989809
100
AcDbArc
 50
104.1337367207053
 51
255.8662632792952
  0
ARC
  5
A70
330
18
100
AcDbEntity
  8
1
  6
Continuous
100
AcDbCircle
 10
163.7981232000396
 20
89.08899874573403
 30
0.0
 40
0.5000000237487265
100
AcDbArc
 50
270.0000000152406
 51
359.9999999999992
  0
ARC
  5
A71
330
18
100
AcDbEntity
  8
1
  6
Continuous
100
AcDbCircle
 10
163.7981232000396
 20
87.0889986507391
 30
0.0
 40
0.5000000237487252
100
AcDbArc
 50
0.0
 51
89.99999999999836
  0
LINE
  5
A76
330
18
100
AcDbEntity
  8
1
  6
Continuous
100
AcDbLine
 10
159.5231229969879
 20
88.08899869823653
 30
0.0
 11
162.2856231281997
 21
83.3042081150622
 31
0.0
  0
LINE
  5
A78
330
18
100
AcDbEntity
  8
1
  6
Continuous
100
AcDbLine
 10
129.8705968702269
 20
81.95149529247869
 30
0.0
 11
129.8705968702269
 21
94.22649587550935
 31
0.0
  0
LINE
  5
A79
330
18
100
AcDbEntity
  8
1
  6
Continuous
100
AcDbLine
 10
129.3705968464781
 20
81.33899526338622
 30
0.0
 11
129.3705968464781
 21
94.83899590460181
 31
0.0
  0
LINE
  5
A7A
330
18
100
AcDbEntity
  8
1
  6
Continuous
100
AcDbLine
 10
128.3705967989809
 20
81.63899527763545
 30
0.0
 11
128.3705967989809
 21
94.53899589035255
 31
0.0
  0
LINE
  5
A7B
330
18
100
AcDbEntity
  8
1
  6
Continuous
100
AcDbLine
 10
133.8705970602167
 20
92.37300376710912
 30
0.0
 11
133.8705970602167
 21
83.80420502456841
 31
0.0
  0
LINE
  5
A7E
330
18
100
AcDbEntity
  8
1
  6
Continuous
100
AcDbLine
 10
116.3705962290113
 20
80.0889952040144
 30
0.0
 11
116.3705962290113
 21
96.08899596397364
 31
0.0
  0
LINE
  5
A80
330
18
100
AcDbEntity
  8
1
  6
Continuous
100
AcDbLine
 10
128.0705967847315
 20
84.13899539637908
 30
0.0
 11
124.3705966089909
 21
83.88899538450473
 31
0.0
  0
ARC
  5
A81
330
18
100
AcDbEntity
  8
1
  6
Continuous
100
AcDbCircle
 10
121.4705933277889
 20
88.08899244053462
 30
0.0
 40
3.599997027532779
100
AcDbArc
 50
89.99994997033548
 51
270.0000500297518
  0
LINE
  5
A82
330
18
100
AcDbEntity
  8
1
  6
Continuous
100
AcDbLine
 10
133.3705970364679
 20
83.30420500081968
 30
0.0
 11
129.8705968702269
 21
83.30420500081968
 31
0.0
  0
LINE
  5
A83
330
18
100
AcDbEntity
  8
1
  6
Continuous
100
AcDbLine
 10
116.3705962290113
 20
80.0889952040144
 30
0.0
 11
124.3705966089909
 21
80.0889952040144
 31
0.0
  0
LINE
  5
A84
330
18
100
AcDbEntity
  8
1
  6
Continuous
100
AcDbLine
 10
115.9705962100123
 20
81.33899526338622
 30
0.0
 11
116.3705962290113
 21
81.33899526338622
 31
0.0
  0
LINE
  5
A85
330
18
100
AcDbEntity
  8
1
  6
Continuous
100
AcDbLine
 10
129.3705968464781
 20
81.33899526338645
 30
0.0
 11
129.8706968702269
 21
81.9516177924787
 31
0.0
  0
LINE
  5
A86
330
18
100
AcDbEntity
  8
1
  6
Continuous
100
AcDbLine
 10
128.6705968132299
 20
81.33899526338622
 30
0.0
 11
129.3705968464779
 21
81.33899526338622
 31
0.0
  0
ARC
  5
A88
330
18
100
AcDbEntity
  8
1
  6
Continuous
100
AcDbCircle
 10
128.6705968132299
 20
81.63899527763545
 30
0.0
 40
0.300000014249228
100
AcDbArc
 50
180.0
 51
269.9999999999983
  0
LINE
  5
A8D
330
18
100
AcDbEntity
  8
1
  6
Continuous
100
AcDbLine
 10
128.3705967990053
 20
83.52815684177981
 30
0.0
 11
128.2205967918561
 21
83.52815684177981
 31
0.0
  0
LINE
  5
A8E
330
18
100
AcDbEntity
  8
1
  6
Continuous
100
AcDbLine
 10
128.3705967990053
 20
82.80546489420494
 30
0.0
 11
128.2205967918561
 21
82.80546489420494
 31
0.0
  0
LINE
  5
A8F
330
18
100
AcDbEntity
  8
1
  6
Continuous
100
AcDbLine
 10
128.2205967918561
 20
81.66353970124175
 30
0.0
 11
128.2205967918561
 21
87.05371935441105
 31
0.0
  0
LINE
  5
A90
330
18
100
AcDbEntity
  8
1
  6
Continuous
100
AcDbLine
 10
128.3705967990075
 20
82.24331028477095
 30
0.0
 11
128.2205967918561
 21
82.24331028477095
 31
0.0
  0
LINE
  5
A92
330
18
100
AcDbEntity
  8
1
  6
Continuous
100
AcDbLine
 10
128.3705967990075
 20
81.85877399956551
 30
0.0
 11
128.2205967918561
 21
81.85877399956551
 31
0.0
  0
LINE
  5
A93
330
18
100
AcDbEntity
  8
1
  6
Continuous
100
AcDbLine
 10
128.3705967989808
 20
81.66353970124175
 30
0.0
 11
128.2205967918561
 21
81.66353970124175
 31
0.0
  0
ARC
  5
A96
330
18
100
AcDbEntity
  8
1
  6
Continuous
100
AcDbCircle
 10
133.3705970364679
 20
83.80420502456841
 30
0.0
 40
0.5000000237487284
100
AcDbArc
 50
270.0
 51
359.9999999999992
  0
LINE
  5
A97
330
18
100
AcDbEntity
  8
1
  6
Continuous
100
AcDbLine
 10
157.9038944802819
 20
84.48899852724572
 30
0.0
 11
159.3382630950054
 21
84.48899852724572
 31
0.0
  0
LINE
  5
A99
330
18
100
AcDbEntity
  8
1
  6
Continuous
100
AcDbLine
 10
133.8705970602167
 20
88.08899554827965
 30
0.0
 11
129.8705968702269
 21
88.088995833994
 31
0.0
  0
LINE
  5
A9F
330
18
100
AcDbEntity
  8
1
  6
Continuous
100
AcDbLine
 10
115.9705962100123
 20
81.33899526338622
 30
0.0
 11
115.9705962100123
 21
94.83899590460181
 31
0.0
  0
LINE
  5
AA1
330
18
100
AcDbEntity
  8
1
  6
Continuous
100
AcDbLine
 10
112.4705960437712
 20
84.13899539637908
 30
0.0
 11
112.4705960437712
 21
92.13899577635858
 31
0.0
  0
LINE
  5
AA2
330
18
100
AcDbEntity
  8
1
  6
Continuous
100
AcDbLine
 10
115.9705962100123
 20
84.13899539637908
 30
0.0
 11
112.4705960437712
 21
84.13899539637908
 31
0.0
  0
LINE
  5
AA3
330
18
100
AcDbEntity
  8
1
  6
Continuous
100
AcDbLine
 10
115.9705962100123
 20
85.1057086642603
 30
0.0
 11
112.4705960437712
 21
85.1057086642603
 31
0.0
  0
LINE
  5
AA5
330
18
100
AcDbEntity
  8
1
  6
Continuous
100
AcDbLine
 10
115.9705962100123
 20
91.07228250372768
 30
0.0
 11
112.4705960437712
 21
91.07228250372768
 31
0.0
  0
LINE
  5
AA6
330
18
100
AcDbEntity
  8
1
  6
Continuous
100
AcDbLine
 10
115.9705962100123
 20
92.13899577635858
 30
0.0
 11
112.4705960437712
 21
92.13899577635858
 31
0.0
  0
LINE
  5
AA9
330
18
100
AcDbEntity
  8
1
  6
Continuous
100
AcDbLine
 10
124.3705966089909
 20
96.08899596397364
 30
0.0
 11
124.3705966089909
 21
80.0889952040144
 31
0.0
  0
LINE
  5
AAA
330
18
100
AcDbEntity
  8
1
  6
Continuous
100
AcDbLine
 10
128.0705967847315
 20
84.13899539637908
 30
0.0
 11
128.0705967847314
 21
92.03899577160894
 31
0.0
  0
LINE
  5
AAB
330
18
100
AcDbEntity
  8
1
  6
Continuous
100
AcDbLine
 10
124.3705966089909
 20
85.46935808008198
 30
0.0
 11
128.0705967847314
 21
85.10570866426016
 31
0.0
  0
LINE
  5
AAC
330
18
100
AcDbEntity
  8
1
  6
Continuous
100
AcDbLine
 10
121.4705964712483
 20
84.48899541300319
 30
0.0
 11
124.3705966089911
 21
84.48899541300319
 31
0.0
  0
LINE
  5
AB1
330
18
100
AcDbEntity
  8
1
  6
Continuous
100
AcDbLine
 10
128.3705967990067
 20
85.36310779363828
 30
0.0
 11
128.2205967918561
 21
85.36310779363828
 31
0.0
  0
LINE
  5
AB3
330
18
100
AcDbEntity
  8
1
  6
Continuous
100
AcDbLine
 10
128.3705967990083
 20
86.41961274177967
 30
0.0
 11
128.2205967918561
 21
86.41961274177967
 31
0.0
  0
LINE
  5
AB4
330
18
100
AcDbEntity
  8
1
  6
Continuous
100
AcDbLine
 10
128.3705967990067
 20
84.38942756664181
 30
0.0
 11
128.2205967918561
 21
84.38942756664181
 31
0.0
  0
LINE
  5
AB6
330
18
100
AcDbEntity
  8
1
  6
Continuous
100
AcDbLine
 10
128.0705967847315
 20
85.33899545337613
 30
0.0
 11
128.2205967918561
 21
85.33899545337613
 31
0.0
  0
LINE
  5
AB9
330
18
100
AcDbEntity
  8
1
  6
Continuous
100
AcDbLine
 10
128.3705967990082
 20
87.52684104283272
 30
0.0
 11
128.2205967918561
 21
87.52684104283272
 31
0.0
  0
LINE
  5
ABA
330
18
100
AcDbEntity
  8
1
  6
Continuous
100
AcDbLine
 10
128.2205967918561
 20
87.52684104283266
 30
0.0
 11
128.2205967918561
 21
88.65115012515529
 31
0.0
  0
LINE
  5
ABB
330
18
100
AcDbEntity
  8
1
  6
Continuous
100
AcDbLine
 10
128.3705967990057
 20
88.65115012515531
 30
0.0
 11
128.2205967918561
 21
88.65115012515531
 31
0.0
  0
LINE
  5
ABC
330
18
100
AcDbEntity
  8
1
  6
Continuous
100
AcDbLine
 10
128.3705967989807
 20
87.05371935441105
 30
0.0
 11
128.2205967918561
 21
87.05371935441105
 31
0.0
  0
LINE
  5
ABD
330
18
100
AcDbEntity
  8
1
  6
Continuous
100
AcDbLine
 10
128.0705967847314
 20
91.07228250372775
 30
0.0
 11
124.3705966089909
 21
90.70863308790681
 31
0.0
  0
LINE
  5
ABE
330
18
100
AcDbEntity
  8
1
  6
Continuous
100
AcDbLine
 10
124.3705966089909
 20
92.28899578348331
 30
0.0
 11
128.0705967847314
 21
92.03899577160894
 31
0.0
  0
LINE
  5
ABF
330
18
100
AcDbEntity
  8
1
  6
Continuous
100
AcDbLine
 10
121.4705964712483
 20
91.68899575498471
 30
0.0
 11
124.3705966089911
 21
91.68899575498471
 31
0.0
  0
LINE
  5
AC4
330
18
100
AcDbEntity
  8
1
  6
Continuous
100
AcDbLine
 10
128.3705967990057
 20
89.75837842620846
 30
0.0
 11
128.2205967918561
 21
89.75837842620846
 31
0.0
  0
LINE
  5
AC6
330
18
100
AcDbEntity
  8
1
  6
Continuous
100
AcDbLine
 10
128.3705967990068
 20
90.81488337434953
 30
0.0
 11
128.2205967918561
 21
90.81488337434953
 31
0.0
  0
LINE
  5
AC7
330
18
100
AcDbEntity
  8
1
  6
Continuous
100
AcDbLine
 10
128.3705967989807
 20
89.12427181357708
 30
0.0
 11
128.2205967918561
 21
89.12427181357708
 31
0.0
  0
LINE
  5
AC8
330
18
100
AcDbEntity
  8
1
  6
Continuous
100
AcDbLine
 10
128.2205967918561
 20
94.51445139170216
 30
0.0
 11
128.2205967918561
 21
89.12427181357694
 31
0.0
  0
LINE
  5
AC9
330
18
100
AcDbEntity
  8
1
  6
Continuous
100
AcDbLine
 10
128.2205967918561
 20
90.83899571461213
 30
0.0
 11
128.0705967847315
 21
90.83899571461213
 31
0.0
  0
LINE
  5
ACC
330
18
100
AcDbEntity
  8
1
  6
Continuous
100
AcDbLine
 10
128.3705967990068
 20
91.78856360134606
 30
0.0
 11
128.2205967918561
 21
91.78856360134606
 31
0.0
  0
LINE
  5
ACE
330
18
100
AcDbEntity
  8
1
  6
Continuous
100
AcDbLine
 10
128.3705967990069
 20
92.64983432620793
 30
0.0
 11
128.2205967918561
 21
92.64983432620793
 31
0.0
  0
LINE
  5
AD0
330
18
100
AcDbEntity
  8
1
  6
Continuous
100
AcDbLine
 10
128.3705967990069
 20
93.37252627378322
 30
0.0
 11
128.2205967918561
 21
93.37252627378322
 31
0.0
  0
LINE
  5
AD1
330
18
100
AcDbEntity
  8
1
  6
Continuous
100
AcDbLine
 10
124.3705966089909
 20
96.08899596397364
 30
0.0
 11
116.3705962290113
 21
96.08899596397364
 31
0.0
  0
LINE
  5
AD2
330
18
100
AcDbEntity
  8
1
  6
Continuous
100
AcDbLine
 10
116.3705962290113
 20
94.83899590460184
 30
0.0
 11
115.9705962100123
 21
94.83899590460184
 31
0.0
  0
LINE
  5
AD3
330
18
100
AcDbEntity
  8
1
  6
Continuous
100
AcDbLine
 10
129.8705968702269
 20
94.22649587550935
 30
0.0
 11
129.3705968464779
 21
94.83899590460181
 31
0.0
  0
LINE
  5
AD5
330
18
100
AcDbEntity
  8
1
  6
Continuous
100
AcDbLine
 10
129.3705968464781
 20
94.83899590460181
 30
0.0
 11
128.6705968132299
 21
94.83899590460181
 31
0.0
  0
LINE
  5
AD8
330
18
100
AcDbEntity
  8
1
  6
Continuous
100
AcDbLine
 10
128.3705967990047
 20
93.93468081494422
 30
0.0
 11
128.2205967918561
 21
93.93468081494422
 31
0.0
  0
LINE
  5
AD9
330
18
100
AcDbEntity
  8
1
  6
Continuous
100
AcDbLine
 10
128.3705967990047
 20
94.31921716842266
 30
0.0
 11
128.2205967918561
 21
94.31921716842266
 31
0.0
  0
LINE
  5
ADB
330
18
100
AcDbEntity
  8
1
  6
Continuous
100
AcDbLine
 10
128.3705967989808
 20
94.51445139170216
 30
0.0
 11
128.2205967918561
 21
94.51445139170216
 31
0.0
  0
ARC
  5
ADD
330
18
100
AcDbEntity
  8
1
  6
Continuous
100
AcDbCircle
 10
128.6705968132299
 20
94.53899589035255
 30
0.0
 40
0.300000014249228
100
AcDbArc
 50
90.00000000000161
 51
180.0
  0
LINE
  5
AE7
330
18
100
AcDbEntity
  8
1
  6
Continuous
100
AcDbLine
 10
162.2856231281992
 20
92.87378928141093
 30
0.0
 11
159.5231229969875
 21
88.08899869823681
 31
0.0
  0
LINE
  5
AF3
330
18
100
AcDbEntity
  8
1
  6
Continuous
100
AcDbLine
 10
162.7981231525421
 20
87.88899868873706
 30
0.0
 11
162.7981231525421
 21
88.28899870773609
 31
0.0
  0
ARC
  5
AF5
330
18
100
AcDbEntity
  8
1
  6
Continuous
100
AcDbCircle
 10
163.0981231667914
 20
88.28899870773605
 30
0.0
 40
0.3000000142492352
100
AcDbArc
 50
90.0
 51
179.9999999999926
  0
ARC
  5
AF6
330
18
100
AcDbEntity
  8
1
  6
Continuous
100
AcDbCircle
 10
163.0981231667914
 20
87.88899868873709
 30
0.0
 40
0.3000000142492409
100
AcDbArc
 50
180.0000000000007
 51
270.0
  0
LINE
  5
AF7
330
18
100
AcDbEntity
  8
1
  6
Continuous
100
AcDbLine
 10
157.903894480282
 20
91.68899886922735
 30
0.0
 11
159.3382630950054
 21
91.68899886922741
 31
0.0
  0
LINE
  5
AFE
330
18
100
AcDbEntity
  8
1
  6
Continuous
100
AcDbLine
 10
167.8106233906235
 20
83.30420811506199
 30
0.0
 11
170.5731235218353
 21
88.0889986982363
 31
0.0
  0
LINE
  5
AFF
330
18
100
AcDbEntity
  8
1
  6
Continuous
100
AcDbLine
 10
164.2981232237883
 20
87.08899865073911
 30
0.0
 11
164.2981232237883
 21
83.60420812931149
 31
0.0
  0
LINE
  5
B00
330
18
100
AcDbEntity
  8
1
  6
Continuous
100
AcDbLine
 10
165.7981232950345
 20
83.60420812931145
 30
0.0
 11
165.7981232950345
 21
87.08899865073911
 31
0.0
  0
ARC
  5
B01
330
18
100
AcDbEntity
  8
1
  6
Continuous
100
AcDbCircle
 10
165.0481232594114
 20
88.08899869823656
 30
0.0
 40
4.000000189989806
100
AcDbArc
 50
284.1337367207062
 51
75.86626327929599
  0
LINE
  5
B05
330
18
100
AcDbEntity
  8
1
  6
Continuous
100
AcDbLine
 10
162.2856231281997
 20
83.3042081150622
 30
0.0
 11
167.8106233906231
 21
83.30420811506222
 31
0.0
  0
ARC
  5
B0E
330
18
100
AcDbEntity
  8
1
  6
Continuous
100
AcDbCircle
 10
163.9981232095391
 20
83.91916636926614
 30
0.0
 40
0.3000000142492335
100
AcDbArc
 50
0.0
 51
75.86626327932049
  0
ARC
  5
B10
330
18
100
AcDbEntity
  8
1
  6
Continuous
100
AcDbCircle
 10
166.0981233092837
 20
83.91916636926614
 30
0.0
 40
0.3000000142492323
100
AcDbArc
 50
104.1337367206795
 51
180.0
  0
ARC
  5
B11
330
18
100
AcDbEntity
  8
1
  6
Continuous
100
AcDbCircle
 10
166.0981233092837
 20
83.60420812931145
 30
0.0
 40
0.3000000142492303
100
AcDbArc
 50
180.0
 51
270.0
  0
ARC
  5
B12
330
18
100
AcDbEntity
  8
1
  6
Continuous
100
AcDbCircle
 10
163.9981232095391
 20
83.60420812931149
 30
0.0
 40
0.3000000142492354
100
AcDbArc
 50
270.0
 51
0.0
  0
LINE
  5
B16
330
18
100
AcDbEntity
  8
1
  6
Continuous
100
AcDbLine
 10
170.5731235218349
 20
88.0889986982366
 30
0.0
 11
167.8106233906231
 21
92.87378928141093
 31
0.0
  0
LINE
  5
B17
330
18
100
AcDbEntity
  8
1
  6
Continuous
100
AcDbLine
 10
165.7981232950345
 20
89.08899874573403
 30
0.0
 11
165.7981232950345
 21
92.57378926716169
 31
0.0
  0
LINE
  5
B18
330
18
100
AcDbEntity
  8
1
  6
Continuous
100
AcDbLine
 10
164.2981232237883
 20
92.57378926716169
 30
0.0
 11
164.2981232237883
 21
89.08899874573403
 31
0.0
  0
LINE
  5
B19
330
18
100
AcDbEntity
  8
1
  6
Continuous
100
AcDbLine
 10
165.5481232831601
 20
88.88899873623453
 30
0.0
 11
165.5481232831601
 21
90.03899879085659
 31
0.0
  0
LINE
  5
B1A
330
18
100
AcDbEntity
  8
1
  6
Continuous
100
AcDbLine
 10
164.5481232356627
 20
90.03899879085659
 30
0.0
 11
164.5481232356627
 21
88.88899873623453
 31
0.0
  0
LINE
  5
B1D
330
18
100
AcDbEntity
  8
1
  6
Continuous
100
AcDbLine
 10
164.5481232356627
 20
87.28899866023859
 30
0.0
 11
164.5481232356627
 21
86.13899860561653
 31
0.0
  0
LINE
  5
B1E
330
18
100
AcDbEntity
  8
1
  6
Continuous
100
AcDbLine
 10
165.5481232831601
 20
86.1389986056165
 30
0.0
 11
165.5481232831601
 21
87.28899866023859
 31
0.0
  0
ARC
  5
B20
330
18
100
AcDbEntity
  8
1
  6
Continuous
100
AcDbCircle
 10
166.2981233187832
 20
87.08899865073911
 30
0.0
 40
0.5000000237487267
100
AcDbArc
 50
90.0
 51
180.0
  0
LINE
  5
B21
330
18
100
AcDbEntity
  8
1
  6
Continuous
100
AcDbLine
 10
164.8481232499119
 20
85.83899859136728
 30
0.0
 11
165.2481232689109
 21
85.83899859136728
 31
0.0
  0
ARC
  5
B22
330
18
100
AcDbEntity
  8
1
  6
Continuous
100
AcDbCircle
 10
164.8481232499119
 20
86.13899860561653
 30
0.0
 40
0.3000000142492396
100
AcDbArc
 50
180.0
 51
269.9999999999983
  0
ARC
  5
B23
330
18
100
AcDbEntity
  8
1
  6
Continuous
100
AcDbCircle
 10
165.2481232689109
 20
86.13899860561653
 30
0.0
 40
0.3000000142492363
100
AcDbArc
 50
270.0
 51
359.9999999999996
  0
LINE
  5
B2B
330
18
100
AcDbEntity
  8
1
  6
Continuous
100
AcDbLine
 10
165.8481232974094
 20
87.58899867448784
 30
0.0
 11
166.9981233520314
 21
87.58899867448784
 31
0.0
  0
LINE
  5
B2C
330
18
100
AcDbEntity
  8
1
  6
Continuous
100
AcDbLine
 10
166.9981233520314
 20
88.58899872198531
 30
0.0
 11
165.8481232974094
 21
88.58899872198531
 31
0.0
  0
ARC
  5
B2D
330
18
100
AcDbEntity
  8
1
  6
Continuous
100
AcDbCircle
 10
166.2981233187832
 20
89.08899874573403
 30
0.0
 40
0.5000000237487265
100
AcDbArc
 50
180.0000000000016
 51
269.9999999999983
  0
ARC
  5
B2E
330
18
100
AcDbEntity
  8
1
  6
Continuous
100
AcDbCircle
 10
164.2481232214134
 20
87.28899866023859
 30
0.0
 40
0.3000000142492361
100
AcDbArc
 50
0.0
 51
90.0
  0
ARC
  5
B2F
330
18
100
AcDbEntity
  8
1
  6
Continuous
100
AcDbCircle
 10
165.8481232974094
 20
87.28899866023859
 30
0.0
 40
0.3000000142492361
100
AcDbArc
 50
90.0
 51
180.0
  0
ARC
  5
B30
330
18
100
AcDbEntity
  8
1
  6
Continuous
100
AcDbCircle
 10
165.8481232974094
 20
88.88899873623453
 30
0.0
 40
0.3000000142492361
100
AcDbArc
 50
180.0
 51
270.0
  0
ARC
  5
B31
330
18
100
AcDbEntity
  8
1
  6
Continuous
100
AcDbCircle
 10
164.2481232214134
 20
88.88899873623453
 30
0.0
 40
0.3000000142492361
100
AcDbArc
 50
270.0
 51
0.0
  0
LINE
  5
B32
330
18
100
AcDbEntity
  8
1
  6
Continuous
100
AcDbLine
 10
167.2981233662807
 20
88.28899870773605
 30
0.0
 11
167.2981233662807
 21
87.88899868873706
 31
0.0
  0
ARC
  5
B34
330
18
100
AcDbEntity
  8
1
  6
Continuous
100
AcDbCircle
 10
166.9981233520314
 20
87.88899868873706
 30
0.0
 40
0.300000014249235
100
AcDbArc
 50
270.0
 51
359.9999999999975
  0
ARC
  5
B35
330
18
100
AcDbEntity
  8
1
  6
Continuous
100
AcDbCircle
 10
166.9981233520314
 20
88.28899870773605
 30
0.0
 40
0.3000000142492344
100
AcDbArc
 50
0.0
 51
90.0
  0
ARC
  5
B39
330
18
100
AcDbEntity
  8
1
  6
Continuous
100
AcDbCircle
 10
166.0981233092837
 20
92.25883102720695
 30
0.0
 40
0.3000000142492335
100
AcDbArc
 50
180.0
 51
255.8662632792989
  0
ARC
  5
B3A
330
18
100
AcDbEntity
  8
1
  6
Continuous
100
AcDbCircle
 10
163.9981232095391
 20
92.25883102720695
 30
0.0
 40
0.3000000142492323
100
AcDbArc
 50
284.1337367206794
 51
0.0
  0
LINE
  5
B3B
330
18
100
AcDbEntity
  8
1
  6
Continuous
100
AcDbLine
 10
165.2481232689109
 20
90.33899880510585
 30
0.0
 11
164.8481232499119
 21
90.33899880510585
 31
0.0
  0
ARC
  5
B3C
330
18
100
AcDbEntity
  8
1
  6
Continuous
100
AcDbCircle
 10
165.2481232689109
 20
90.03899879085659
 30
0.0
 40
0.3000000142492396
100
AcDbArc
 50
0.0000000000004071
 51
89.99999999999836
  0
ARC
  5
B3D
330
18
100
AcDbEntity
  8
1
  6
Continuous
100
AcDbCircle
 10
164.8481232499119
 20
90.03899879085659
 30
0.0
 40
0.3000000142492363
100
AcDbArc
 50
90.0
 51
179.9999999999996
  0
LINE
  5
B43
330
18
100
AcDbEntity
  8
1
  6
Continuous
100
AcDbLine
 10
167.8106233906231
 20
92.87378928141093
 30
0.0
 11
162.2856231281992
 21
92.87378928141093
 31
0.0
  0
ARC
  5
B4D
330
18
100
AcDbEntity
  8
1
  6
Continuous
100
AcDbCircle
 10
163.9981232095391
 20
92.57378926716169
 30
0.0
 40
0.300000014249234
100
AcDbArc
 50
0.0
 51
90.0
  0
ARC
  5
B4E
330
18
100
AcDbEntity
  8
1
  6
Continuous
100
AcDbCircle
 10
166.0981233092837
 20
92.57378926716169
 30
0.0
 40
0.3000000142492363
100
AcDbArc
 50
90.0
 51
180.0
  0
LINE
  5
B50
330
18
100
AcDbEntity
  8
1
  6
Continuous
100
AcDbLine
 10
70.18749322657317
 20
130.8667070127262
 30
0.0
 11
70.18749322657317
 21
122.8667066327463
 31
0.0
  0
LINE
  5
B51
330
18
100
AcDbEntity
  8
1
  6
Continuous
100
AcDbLine
 10
86.18749398653239
 20
122.8667066327463
 30
0.0
 11
86.18749398653239
 21
124.3667067039925
 31
0.0
  0
LINE
  5
B52
330
18
100
AcDbEntity
  8
1
  6
Continuous
100
AcDbLine
 10
80.63749372292148
 20
114.8667062527667
 30
0.0
 11
75.73749349018405
 21
114.8667062527667
 31
0.0
  0
LINE
  5
B53
330
18
100
AcDbEntity
  8
1
  6
Continuous
100
AcDbLine
 10
80.93749373717077
 20
115.166706267016
 30
0.0
 11
75.4374934759348
 21
115.1667062670159
 31
0.0
  0
LINE
  5
B54
330
18
100
AcDbEntity
  8
1
  6
Continuous
100
AcDbLine
 10
86.18749398653239
 20
122.8667066327463
 30
0.0
 11
70.18749322657317
 21
122.8667066327463
 31
0.0
  0
LINE
  5
B55
330
18
100
AcDbEntity
  8
1
  6
Continuous
100
AcDbLine
 10
84.93749392716054
 20
122.4667066137473
 30
0.0
 11
71.43749328594498
 21
122.4667066137473
 31
0.0
  0
LINE
  5
B57
330
18
100
AcDbEntity
  8
1
  6
Continuous
100
AcDbLine
 10
75.43749347593475
 20
118.9667064475063
 30
0.0
 11
75.4374934759348
 21
115.1667062670159
 31
0.0
  0
LINE
  5
B5A
330
18
100
AcDbEntity
  8
1
  6
Continuous
100
AcDbLine
 10
75.43749347593436
 20
115.1667062670164
 30
0.0
 11
75.73749349018405
 21
114.8667062527667
 31
0.0
  0
LINE
  5
B5C
330
18
100
AcDbEntity
  8
1
  6
Continuous
100
AcDbLine
 10
71.43749328594498
 20
122.8667066327463
 30
0.0
 11
71.43749328594498
 21
122.4667066137473
 31
0.0
  0
LINE
  5
B5D
330
18
100
AcDbEntity
  8
1
  6
Continuous
100
AcDbLine
 10
75.3414435772209
 20
122.4667066137473
 30
0.0
 11
75.3414435772209
 21
118.9667064475063
 31
0.0
  0
LINE
  5
B5E
330
18
100
AcDbEntity
  8
1
  6
Continuous
100
AcDbLine
 10
74.23749341893778
 20
122.4667066137473
 30
0.0
 11
74.23749341893778
 21
118.9667064475061
 31
0.0
  0
LINE
  5
B60
330
18
100
AcDbEntity
  8
1
  6
Continuous
100
AcDbLine
 10
80.93749373717077
 20
115.166706267016
 30
0.0
 11
80.93749373717074
 21
118.9667064475063
 31
0.0
  0
LINE
  5
B61
330
18
100
AcDbEntity
  8
1
  6
Continuous
100
AcDbLine
 10
80.63749338677769
 20
114.8667059166229
 30
0.0
 11
80.93749373717077
 21
115.166706267016
 31
0.0
  0
LINE
  5
B64
330
18
100
AcDbEntity
  8
1
  6
Continuous
100
AcDbLine
 10
81.03354363588458
 20
122.4667066137473
 30
0.0
 11
81.03354363588458
 21
118.9667064475063
 31
0.0
  0
LINE
  5
B65
330
18
100
AcDbEntity
  8
1
  6
Continuous
100
AcDbLine
 10
82.13749379416769
 20
122.4667066137473
 30
0.0
 11
82.13749379416769
 21
118.9667064475063
 31
0.0
  0
LINE
  5
B66
330
18
100
AcDbEntity
  8
1
  6
Continuous
100
AcDbLine
 10
82.13749379416777
 20
118.9667064475062
 30
0.0
 11
74.23749341893778
 21
118.9667064475061
 31
0.0
  0
LINE
  5
B67
330
18
100
AcDbEntity
  8
1
  6
Continuous
100
AcDbLine
 10
84.93749392716058
 20
122.4667066137473
 30
0.0
 11
84.93749392716058
 21
122.8667066327463
 31
0.0
  0
LINE
  5
B68
330
18
100
AcDbEntity
  8
1
  6
Continuous
100
AcDbLine
 10
84.93749392716058
 20
135.8667072502131
 30
0.0
 11
71.43749328594498
 21
135.8667072502131
 31
0.0
  0
LINE
  5
B69
330
18
100
AcDbEntity
  8
1
  6
Continuous
100
AcDbLine
 10
84.3249938980681
 20
136.3667072739619
 30
0.0
 11
72.04999331503746
 21
136.3667072739619
 31
0.0
  0
LINE
  5
B6D
330
18
100
AcDbEntity
  8
1
  6
Continuous
100
AcDbLine
 10
85.33172238568212
 20
130.8667070127262
 30
0.0
 11
70.18749322657313
 21
130.8667070127262
 31
0.0
  0
LINE
  5
B6F
330
18
100
AcDbEntity
  8
1
  6
Continuous
100
AcDbLine
 10
75.20420668681902
 20
134.5667071884665
 30
0.0
 11
75.56785610263998
 21
130.8667070127259
 31
0.0
  0
LINE
  5
B70
330
18
100
AcDbEntity
  8
1
  6
Continuous
100
AcDbLine
 10
73.98749340706351
 20
130.8667070127259
 30
0.0
 11
74.23749341893785
 21
134.5667071884665
 31
0.0
  0
LINE
  5
B71
330
18
100
AcDbEntity
  8
1
  6
Continuous
100
AcDbLine
 10
77.43749357092966
 20
137.8667073452081
 30
0.0
 11
77.43749357092966
 21
140.0667074497025
 31
0.0
  0
LINE
  5
B72
330
18
100
AcDbEntity
  8
1
  6
Continuous
100
AcDbLine
 10
75.42499347534107
 20
139.866707440203
 30
0.0
 11
75.42499347534107
 21
136.3667072739619
 31
0.0
  0
LINE
  5
B73
330
18
100
AcDbEntity
  8
1
  6
Continuous
100
AcDbLine
 10
72.66249334412925
 20
139.866707440203
 30
0.0
 11
72.66249348846688
 21
136.3667072739619
 31
0.0
  0
LINE
  5
B79
330
18
100
AcDbEntity
  8
1
  6
Continuous
100
AcDbLine
 10
71.43749328594498
 20
135.8667072502131
 30
0.0
 11
71.43749328594498
 21
135.1667072169649
 31
0.0
  0
LINE
  5
B7F
330
18
100
AcDbEntity
  8
1
  6
Continuous
100
AcDbLine
 10
73.62665486433858
 20
134.8667072027404
 30
0.0
 11
73.62665486433858
 21
134.7167071955911
 31
0.0
  0
LINE
  5
B81
330
18
100
AcDbEntity
  8
1
  6
Continuous
100
AcDbLine
 10
72.90396291676356
 20
134.8667072027401
 30
0.0
 11
72.90396291676356
 21
134.7167071955911
 31
0.0
  0
LINE
  5
B83
330
18
100
AcDbEntity
  8
1
  6
Continuous
100
AcDbLine
 10
72.34180837560259
 20
134.8667072027401
 30
0.0
 11
72.34180837560259
 21
134.7167071955911
 31
0.0
  0
LINE
  5
B84
330
18
100
AcDbEntity
  8
1
  6
Continuous
100
AcDbLine
 10
71.95727202212426
 20
134.8667072027433
 30
0.0
 11
71.95727202212426
 21
134.7167071955911
 31
0.0
  0
LINE
  5
B87
330
18
100
AcDbEntity
  8
1
  6
Continuous
100
AcDbLine
 10
71.73749360151724
 20
134.8667072027159
 30
0.0
 11
71.73749360151724
 21
134.7167071955911
 31
0.0
  0
ARC
  5
B8B
330
18
100
AcDbEntity
  8
1
  6
Continuous
100
AcDbCircle
 10
71.73749330019422
 20
135.166707216965
 30
0.0
 40
0.300000014249228
100
AcDbArc
 50
180.000000000002
 51
270.0
  0
LINE
  5
B8C
330
18
100
AcDbEntity
  8
1
  6
Continuous
100
AcDbLine
 10
72.04999331503746
 20
136.3667072739619
 30
0.0
 11
71.43749328594498
 21
135.8667072502129
 31
0.0
  0
LINE
  5
B94
330
18
100
AcDbEntity
  8
1
  6
Continuous
100
AcDbLine
 10
75.46160581619703
 20
134.8667072027418
 30
0.0
 11
75.46160581619703
 21
134.7167071955911
 31
0.0
  0
LINE
  5
B96
330
18
100
AcDbEntity
  8
1
  6
Continuous
100
AcDbLine
 10
74.48792558920056
 20
134.8667072027404
 30
0.0
 11
74.48792558920056
 21
134.7167071955911
 31
0.0
  0
LINE
  5
B97
330
18
100
AcDbEntity
  8
1
  6
Continuous
100
AcDbLine
 10
76.49702047929679
 20
134.8667072027157
 30
0.0
 11
76.49702047929679
 21
134.7167071955911
 31
0.0
  0
LINE
  5
B98
330
18
100
AcDbEntity
  8
1
  6
Continuous
100
AcDbLine
 10
71.73749360151724
 20
134.7167071955911
 30
0.0
 11
77.83887061900347
 21
134.7167071955911
 31
0.0
  0
LINE
  5
B99
330
18
100
AcDbEntity
  8
1
  6
Continuous
100
AcDbLine
 10
75.43749347593467
 20
134.7167071955911
 30
0.0
 11
75.43749347593467
 21
134.5667071884665
 31
0.0
  0
LINE
  5
B9C
330
18
100
AcDbEntity
  8
1
  6
Continuous
100
AcDbLine
 10
78.74964814771408
 20
134.8667072027158
 30
0.0
 11
78.74964814771408
 21
134.7167071955911
 31
0.0
  0
LINE
  5
B9E
330
18
100
AcDbEntity
  8
1
  6
Continuous
100
AcDbLine
 10
78.53611659410209
 20
134.8667072027157
 30
0.0
 11
78.53611659410209
 21
134.7167071955911
 31
0.0
  0
LINE
  5
B9F
330
18
100
AcDbEntity
  8
1
  6
Continuous
100
AcDbLine
 10
77.83887061900347
 20
134.8667072027157
 30
0.0
 11
77.83887061900347
 21
134.7167071955911
 31
0.0
  0
LINE
  5
BA1
330
18
100
AcDbEntity
  8
1
  6
Continuous
100
AcDbLine
 10
77.62533906539146
 20
134.8667072027158
 30
0.0
 11
77.62533906539146
 21
134.7167071955911
 31
0.0
  0
LINE
  5
BA2
330
18
100
AcDbEntity
  8
1
  6
Continuous
100
AcDbLine
 10
78.93749364217588
 20
137.8667073452081
 30
0.0
 11
77.43749357092969
 21
137.8667073452081
 31
0.0
  0
ARC
  5
BA7
330
18
100
AcDbEntity
  8
1
  6
Continuous
100
AcDbCircle
 10
77.13749355668046
 20
140.0667074497025
 30
0.0
 40
0.3000000142492254
100
AcDbArc
 50
0.0
 51
90.00000000000325
  0
LINE
  5
BA8
330
18
100
AcDbEntity
  8
1
  6
Continuous
100
AcDbLine
 10
73.23984364075589
 20
140.3667074639517
 30
0.0
 11
77.13749355668046
 21
140.3667074639517
 31
0.0
  0
LINE
  5
BB3
330
18
100
AcDbEntity
  8
1
  6
Continuous
100
AcDbLine
 10
80.80713111046481
 20
130.8667070127259
 30
0.0
 11
81.17078052628666
 21
134.5667071884665
 31
0.0
  0
LINE
  5
BB4
330
18
100
AcDbEntity
  8
1
  6
Continuous
100
AcDbLine
 10
82.13749379416773
 20
134.5667071884665
 30
0.0
 11
82.38749380604208
 21
130.8667070127259
 31
0.0
  0
LINE
  5
BB5
330
18
100
AcDbEntity
  8
1
  6
Continuous
100
AcDbLine
 10
85.33172238568219
 20
127.9667068749833
 30
0.0
 11
85.33172238568219
 21
130.8667070127261
 31
0.0
  0
LINE
  5
BB9
330
18
100
AcDbEntity
  8
1
  6
Continuous
100
AcDbLine
 10
84.93749392716058
 20
135.1667072169649
 30
0.0
 11
84.93749392716058
 21
135.8667072502131
 31
0.0
  0
LINE
  5
BBE
330
18
100
AcDbEntity
  8
1
  6
Continuous
100
AcDbLine
 10
79.85687644876718
 20
134.8667072027397
 30
0.0
 11
79.85687644876718
 21
134.7167071955911
 31
0.0
  0
LINE
  5
BBF
330
18
100
AcDbEntity
  8
1
  6
Continuous
100
AcDbLine
 10
80.91338139690831
 20
134.8667072027397
 30
0.0
 11
80.91338139690831
 21
134.7167071955911
 31
0.0
  0
LINE
  5
BC2
330
18
100
AcDbEntity
  8
1
  6
Continuous
100
AcDbLine
 10
81.88706162390483
 20
134.8667072027419
 30
0.0
 11
81.88706162390483
 21
134.7167071955911
 31
0.0
  0
LINE
  5
BC3
330
18
100
AcDbEntity
  8
1
  6
Continuous
100
AcDbLine
 10
84.6374936115883
 20
134.7167071955911
 30
0.0
 11
78.53611659410209
 21
134.7167071955911
 31
0.0
  0
LINE
  5
BC4
330
18
100
AcDbEntity
  8
1
  6
Continuous
100
AcDbLine
 10
80.93749373717068
 20
134.5667071884665
 30
0.0
 11
80.93749373717068
 21
134.7167071955911
 31
0.0
  0
LINE
  5
BC5
330
18
100
AcDbEntity
  8
1
  6
Continuous
100
AcDbLine
 10
82.1374937941678
 20
134.5667071884665
 30
0.0
 11
74.23749341893785
 21
134.5667071884665
 31
0.0
  0
LINE
  5
BCA
330
18
100
AcDbEntity
  8
1
  6
Continuous
100
AcDbLine
 10
84.63749391291136
 20
134.8667072027159
 30
0.0
 11
71.73749330019422
 21
134.8667072027159
 31
0.0
  0
LINE
  5
BCB
330
18
100
AcDbEntity
  8
1
  6
Continuous
100
AcDbLine
 10
82.74833234876666
 20
134.8667072027419
 30
0.0
 11
82.74833234876666
 21
134.7167071955911
 31
0.0
  0
LINE
  5
BCC
330
18
100
AcDbEntity
  8
1
  6
Continuous
100
AcDbLine
 10
83.47102429634198
 20
134.8667072027419
 30
0.0
 11
83.47102429634198
 21
134.7167071955911
 31
0.0
  0
LINE
  5
BCE
330
18
100
AcDbEntity
  8
1
  6
Continuous
100
AcDbLine
 10
84.41771519098137
 20
134.8667072027407
 30
0.0
 11
84.41771519098137
 21
134.7167071955911
 31
0.0
  0
LINE
  5
BD0
330
18
100
AcDbEntity
  8
1
  6
Continuous
100
AcDbLine
 10
84.03317883750295
 20
134.8667072027419
 30
0.0
 11
84.03317883750295
 21
134.7167071955911
 31
0.0
  0
LINE
  5
BD4
330
18
100
AcDbEntity
  8
1
  6
Continuous
100
AcDbLine
 10
84.6374936115883
 20
134.7167071955911
 30
0.0
 11
84.6374936115883
 21
134.8667072027159
 31
0.0
  0
ARC
  5
BD7
330
18
100
AcDbEntity
  8
1
  6
Continuous
100
AcDbCircle
 10
84.63749391291136
 20
135.166707216965
 30
0.0
 40
0.300000014249228
100
AcDbArc
 50
270.0
 51
359.9999999999983
  0
LINE
  5
BD8
330
18
100
AcDbEntity
  8
1
  6
Continuous
100
AcDbLine
 10
84.93749392716031
 20
135.8667072502131
 30
0.0
 11
84.32487139806809
 21
136.3668072739619
 31
0.0
  0
CIRCLE
  5
BE8
330
18
100
AcDbEntity
  8
1
  6
Continuous
100
AcDbCircle
 10
78.18749360655278
 20
88.08899558399401
 30
0.0
 40
2.75000013061819
  0
LINE
  5
BE9
330
18
100
AcDbEntity
  8
4
  6
CENTER
 48
0.2
100
AcDbLine
 10
67.18749322657315
 20
88.08899558399401
 30
0.0
 11
89.18749398653238
 21
88.08899558399401
 31
0.0
  0
LINE
  5
BEA
330
18
100
AcDbEntity
  8
4
  6
CENTER
 48
0.2
100
AcDbLine
 10
78.18749360655278
 20
77.08899520401438
 30
0.0
 11
78.18749360655278
 21
99.08899596397361
 31
0.0
  0
ARC
  5
BEC
330
18
100
AcDbEntity
  8
1
  6
Continuous
100
AcDbCircle
 10
133.370597648581
 20
92.37378614341947
 30
0.0
 40
0.5000000237487284
100
AcDbArc
 50
359.9103462465241
 51
89.99999181488719
  0
LINE
  5
BED
330
18
100
AcDbEntity
  8
1
  6
Continuous
100
AcDbLine
 10
133.3705977200096
 20
92.8737861671682
 30
0.0
 11
129.8705975537685
 21
92.87378666716831
 31
0.0
  0
LINE
  5
BEE
330
18
100
AcDbEntity
  8
4
  6
CENTER
 48
0.2
100
AcDbLine
 10
136.8705970602167
 20
88.08899869823656
 30
0.0
 11
105.3705955128879
 21
88.08899869823656
 31
0.0
  0
LINE
  5
BEF
330
18
100
AcDbEntity
  8
1
  6
Continuous
100
AcDbLine
 10
40.40439100309321
 20
81.33899526338622
 30
0.0
 11
40.40439100309321
 21
94.83899590460181
 31
0.0
  0
LINE
  5
BF0
330
18
100
AcDbEntity
  8
1
  6
Continuous
100
AcDbLine
 10
32.0043906041146
 20
96.08899596397364
 30
0.0
 11
32.00439060411461
 21
80.0889952040144
 31
0.0
  0
LINE
  5
BF1
330
18
100
AcDbEntity
  8
1
  6
Continuous
100
AcDbLine
 10
28.15439042124943
 20
94.51445139170216
 30
0.0
 11
28.15439042124941
 21
89.12427181357694
 31
0.0
  0
LINE
  5
BF2
330
18
100
AcDbEntity
  8
1
  6
Continuous
100
AcDbLine
 10
28.00439041412465
 20
81.63899527763545
 30
0.0
 11
28.00439041412465
 21
94.53899589035255
 31
0.0
  0
LINE
  5
BF3
330
18
100
AcDbEntity
  8
1
  6
Continuous
100
AcDbLine
 10
26.50439034287865
 20
81.95149529247869
 30
0.0
 11
26.50439034287866
 21
94.22649587550935
 31
0.0
  0
LINE
  5
BF4
330
18
100
AcDbEntity
  8
1
  6
Continuous
100
AcDbLine
 10
27.00439036662743
 20
81.33899526338622
 30
0.0
 11
27.00439036662743
 21
94.83899590460181
 31
0.0
  0
LINE
  5
BF5
330
18
100
AcDbEntity
  8
1
  6
Continuous
100
AcDbLine
 10
40.00439098409422
 20
80.0889952040144
 30
0.0
 11
40.00439098409422
 21
96.08899596397364
 31
0.0
  0
LINE
  5
BF6
330
18
100
AcDbEntity
  8
1
  6
Continuous
100
AcDbLine
 10
40.40439100309321
 20
81.33899526338622
 30
0.0
 11
40.00439098409422
 21
81.33899526338622
 31
0.0
  0
LINE
  5
BF7
330
18
100
AcDbEntity
  8
4
  6
CENTER
 48
0.2
100
AcDbLine
 10
19.50439015288884
 20
88.08899869823656
 30
0.0
 11
51.00439170021758
 21
88.08899869823656
 31
0.0
  0
LINE
  5
BF8
330
18
100
AcDbEntity
  8
1
  6
Continuous
100
AcDbLine
 10
43.90439116933428
 20
90.83899571461204
 30
0.0
 11
47.70439134982436
 21
90.838995714612
 31
0.0
  0
LINE
  5
BF9
330
18
100
AcDbEntity
  8
1
  6
Continuous
100
AcDbLine
 10
47.70439134982436
 20
85.33899545337581
 30
0.0
 11
47.70439134982436
 21
90.838995714612
 31
0.0
  0
LINE
  5
BFA
330
18
100
AcDbEntity
  8
1
  6
Continuous
100
AcDbLine
 10
47.70439134982415
 20
90.83899571461245
 30
0.0
 11
48.00439170021757
 21
90.538995364219
 31
0.0
  0
LINE
  5
BFB
330
18
100
AcDbEntity
  8
1
  6
Continuous
100
AcDbLine
 10
48.00439170021764
 20
85.6389958037691
 30
0.0
 11
48.00439170021757
 21
90.538995364219
 31
0.0
  0
LINE
  5
BFC
330
18
100
AcDbEntity
  8
1
  6
Continuous
100
AcDbLine
 10
40.4043910030932
 20
84.13899539637908
 30
0.0
 11
43.90439116933428
 21
84.13899539637908
 31
0.0
  0
LINE
  5
BFD
330
18
100
AcDbEntity
  8
1
  6
Continuous
100
AcDbLine
 10
43.90439116933428
 20
84.13899539637908
 30
0.0
 11
43.90439116933429
 21
92.13899577635858
 31
0.0
  0
LINE
  5
BFE
330
18
100
AcDbEntity
  8
1
  6
Continuous
100
AcDbLine
 10
40.4043910030932
 20
92.13899577635858
 30
0.0
 11
43.90439116933429
 21
92.13899577635858
 31
0.0
  0
LINE
  5
BFF
330
18
100
AcDbEntity
  8
1
  6
Continuous
100
AcDbLine
 10
47.70439134982415
 20
85.33899545337602
 30
0.0
 11
43.90439116933428
 21
85.33899545337604
 31
0.0
  0
LINE
  5
C00
330
18
100
AcDbEntity
  8
1
  6
Continuous
100
AcDbLine
 10
48.00439170021764
 20
85.6389958037691
 30
0.0
 11
47.70439134982454
 21
85.33899545337602
 31
0.0
  0
LINE
  5
C03
330
18
100
AcDbEntity
  8
1
  6
Continuous
100
AcDbLine
 10
40.4043910030932
 20
85.1057086642603
 30
0.0
 11
43.90439116933429
 21
85.1057086642603
 31
0.0
  0
LINE
  5
C04
330
18
100
AcDbEntity
  8
1
  6
Continuous
100
AcDbLine
 10
40.4043910030932
 20
91.07228250372768
 30
0.0
 11
43.90439116933429
 21
91.07228250372768
 31
0.0
  0
LINE
  5
C05
330
18
100
AcDbEntity
  8
1
  6
Continuous
100
AcDbLine
 10
28.15439042124943
 20
81.66353970124175
 30
0.0
 11
28.15439042124937
 21
87.05371935441105
 31
0.0
  0
LINE
  5
C06
330
18
100
AcDbEntity
  8
1
  6
Continuous
100
AcDbLine
 10
40.00439098409422
 20
80.0889952040144
 30
0.0
 11
32.00439060411461
 21
80.0889952040144
 31
0.0
  0
LINE
  5
C07
330
18
100
AcDbEntity
  8
1
  6
Continuous
100
AcDbLine
 10
28.00439041412472
 20
81.66353970124175
 30
0.0
 11
28.15439042124943
 21
81.66353970124175
 31
0.0
  0
ARC
  5
C08
330
18
100
AcDbEntity
  8
1
  6
Continuous
100
AcDbCircle
 10
27.70439039987559
 20
81.63899527763545
 30
0.0
 40
0.300000014249228
100
AcDbArc
 50
270.0000000000016
 51
0.000000000000007
  0
LINE
  5
C09
330
18
100
AcDbEntity
  8
1
  6
Continuous
100
AcDbLine
 10
27.00439036662743
 20
81.33899526338645
 30
0.0
 11
26.50429034287862
 21
81.9516177924787
 31
0.0
  0
LINE
  5
C0A
330
18
100
AcDbEntity
  8
1
  6
Continuous
100
AcDbLine
 10
27.70439039987559
 20
81.33899526338622
 30
0.0
 11
27.00439036662761
 21
81.33899526338622
 31
0.0
  0
LINE
  5
C0C
330
18
100
AcDbEntity
  8
1
  6
Continuous
100
AcDbLine
 10
28.00439041410015
 20
82.80546489420494
 30
0.0
 11
28.15439042124941
 21
82.80546489420494
 31
0.0
  0
LINE
  5
C0D
330
18
100
AcDbEntity
  8
1
  6
Continuous
100
AcDbLine
 10
28.00439041409799
 20
82.24331028477095
 30
0.0
 11
28.15439042124941
 21
82.24331028477095
 31
0.0
  0
LINE
  5
C0E
330
18
100
AcDbEntity
  8
1
  6
Continuous
100
AcDbLine
 10
28.00439041409799
 20
81.85877399956551
 30
0.0
 11
28.15439042124941
 21
81.85877399956551
 31
0.0
  0
LINE
  5
C0F
330
18
100
AcDbEntity
  8
1
  6
Continuous
100
AcDbLine
 10
28.30439042837406
 20
84.13899539637908
 30
0.0
 11
32.00439060411466
 21
83.88899538450473
 31
0.0
  0
LINE
  5
C10
330
18
100
AcDbEntity
  8
1
  6
Continuous
100
AcDbLine
 10
32.0043906041146
 20
85.46935808008198
 30
0.0
 11
28.30439042837406
 21
85.10570866426016
 31
0.0
  0
LINE
  5
C11
330
18
100
AcDbEntity
  8
1
  6
Continuous
100
AcDbLine
 10
28.30439042837406
 20
91.07228250372775
 30
0.0
 11
32.00439060411466
 21
90.70863308790681
 31
0.0
  0
LINE
  5
C12
330
18
100
AcDbEntity
  8
1
  6
Continuous
100
AcDbLine
 10
32.0043906041146
 20
92.28899578348331
 30
0.0
 11
28.30439042837397
 21
92.03899577160894
 31
0.0
  0
LINE
  5
C16
330
18
100
AcDbEntity
  8
1
  6
Continuous
100
AcDbLine
 10
28.00439041412483
 20
87.05371935441105
 30
0.0
 11
28.15439042124937
 21
87.05371935441105
 31
0.0
  0
LINE
  5
C17
330
18
100
AcDbEntity
  8
1
  6
Continuous
100
AcDbLine
 10
22.50439015288884
 20
92.37300376710912
 30
0.0
 11
22.50439015288884
 21
83.80420502456841
 31
0.0
  0
ARC
  5
C18
330
18
100
AcDbEntity
  8
1
  6
Continuous
100
AcDbCircle
 10
23.00438956452452
 20
92.37378614341947
 30
0.0
 40
0.5000000237487284
100
AcDbArc
 50
90.0000081851128
 51
180.0896537534758
  0
LINE
  5
C19
330
18
100
AcDbEntity
  8
1
  6
Continuous
100
AcDbLine
 10
23.00438949309594
 20
92.8737861671682
 30
0.0
 11
26.50438965933699
 21
92.87378666716831
 31
0.0
  0
LINE
  5
C1A
330
18
100
AcDbEntity
  8
1
  6
Continuous
100
AcDbLine
 10
22.50439015288884
 20
88.08899554827965
 30
0.0
 11
26.50439034287865
 21
88.088995833994
 31
0.0
  0
ARC
  5
C1B
330
18
100
AcDbEntity
  8
1
  6
Continuous
100
AcDbCircle
 10
23.00439017663757
 20
83.80420502456841
 30
0.0
 40
0.5000000237487284
100
AcDbArc
 50
180.0000000000008
 51
270.0
  0
LINE
  5
C1C
330
18
100
AcDbEntity
  8
1
  6
Continuous
100
AcDbLine
 10
28.00439041410015
 20
83.52815684177981
 30
0.0
 11
28.15439042124941
 21
83.52815684177981
 31
0.0
  0
LINE
  5
C1E
330
18
100
AcDbEntity
  8
1
  6
Continuous
100
AcDbLine
 10
28.00439041409879
 20
85.36310779363828
 30
0.0
 11
28.15439042124941
 21
85.36310779363828
 31
0.0
  0
LINE
  5
C1F
330
18
100
AcDbEntity
  8
1
  6
Continuous
100
AcDbLine
 10
28.00439041409726
 20
86.41961274177967
 30
0.0
 11
28.15439042124941
 21
86.41961274177967
 31
0.0
  0
LINE
  5
C20
330
18
100
AcDbEntity
  8
1
  6
Continuous
100
AcDbLine
 10
28.00439041409879
 20
84.38942756664181
 30
0.0
 11
28.15439042124941
 21
84.38942756664181
 31
0.0
  0
LINE
  5
C21
330
18
100
AcDbEntity
  8
1
  6
Continuous
100
AcDbLine
 10
28.30439042837403
 20
85.33899545337613
 30
0.0
 11
28.15439042124941
 21
85.33899545337613
 31
0.0
  0
LINE
  5
C22
330
18
100
AcDbEntity
  8
1
  6
Continuous
100
AcDbLine
 10
28.30439042837397
 20
92.03899577160894
 30
0.0
 11
28.30439042837397
 21
84.13899539637908
 31
0.0
  0
LINE
  5
C23
330
18
100
AcDbEntity
  8
1
  6
Continuous
100
AcDbLine
 10
28.00439041409731
 20
87.52684104283272
 30
0.0
 11
28.15439042124941
 21
87.52684104283272
 31
0.0
  0
LINE
  5
C24
330
18
100
AcDbEntity
  8
1
  6
Continuous
100
AcDbLine
 10
28.15439042124941
 20
87.52684104283266
 30
0.0
 11
28.15439042124941
 21
88.65115012515529
 31
0.0
  0
LINE
  5
C25
330
18
100
AcDbEntity
  8
1
  6
Continuous
100
AcDbLine
 10
28.00439041409982
 20
88.65115012515531
 30
0.0
 11
28.15439042124941
 21
88.65115012515531
 31
0.0
  0
LINE
  5
C27
330
18
100
AcDbEntity
  8
1
  6
Continuous
100
AcDbLine
 10
28.00439041409982
 20
89.75837842620846
 30
0.0
 11
28.15439042124941
 21
89.75837842620846
 31
0.0
  0
LINE
  5
C28
330
18
100
AcDbEntity
  8
1
  6
Continuous
100
AcDbLine
 10
28.00439041409868
 20
90.81488337434953
 30
0.0
 11
28.15439042124941
 21
90.81488337434953
 31
0.0
  0
LINE
  5
C29
330
18
100
AcDbEntity
  8
1
  6
Continuous
100
AcDbLine
 10
28.00439041412483
 20
89.12427181357708
 30
0.0
 11
28.15439042124941
 21
89.12427181357708
 31
0.0
  0
LINE
  5
C2A
330
18
100
AcDbEntity
  8
1
  6
Continuous
100
AcDbLine
 10
28.15439042124941
 20
90.83899571461213
 30
0.0
 11
28.30439042837403
 21
90.83899571461213
 31
0.0
  0
LINE
  5
C2B
330
18
100
AcDbEntity
  8
1
  6
Continuous
100
AcDbLine
 10
28.00439041409868
 20
91.78856360134606
 30
0.0
 11
28.15439042124941
 21
91.78856360134606
 31
0.0
  0
LINE
  5
C2C
330
18
100
AcDbEntity
  8
1
  6
Continuous
100
AcDbLine
 10
28.00439041409856
 20
92.64983432620793
 30
0.0
 11
28.15439042124941
 21
92.64983432620793
 31
0.0
  0
LINE
  5
C2D
330
18
100
AcDbEntity
  8
1
  6
Continuous
100
AcDbLine
 10
28.00439041409856
 20
93.37252627378322
 30
0.0
 11
28.15439042124941
 21
93.37252627378322
 31
0.0
  0
LINE
  5
C2E
330
18
100
AcDbEntity
  8
1
  6
Continuous
100
AcDbLine
 10
23.00439017663757
 20
83.30420500081968
 30
0.0
 11
26.50439034287865
 21
83.30420500081968
 31
0.0
  0
LINE
  5
C2F
330
18
100
AcDbEntity
  8
1
  6
Continuous
100
AcDbLine
 10
40.00439098409422
 20
94.83899590460184
 30
0.0
 11
40.40439100309321
 21
94.83899590460184
 31
0.0
  0
LINE
  5
C30
330
18
100
AcDbEntity
  8
1
  6
Continuous
100
AcDbLine
 10
32.0043906041146
 20
96.08899596397364
 30
0.0
 11
40.00439098409422
 21
96.08899596397364
 31
0.0
  0
LINE
  5
C31
330
18
100
AcDbEntity
  8
1
  6
Continuous
100
AcDbLine
 10
28.00439041412472
 20
94.51445139170216
 30
0.0
 11
28.15439042124943
 21
94.51445139170216
 31
0.0
  0
ARC
  5
C32
330
18
100
AcDbEntity
  8
1
  6
Continuous
100
AcDbCircle
 10
27.70439039987559
 20
94.53899589035255
 30
0.0
 40
0.300000014249228
100
AcDbArc
 50
0.000000000000007
 51
89.9999999999984
  0
LINE
  5
C33
330
18
100
AcDbEntity
  8
1
  6
Continuous
100
AcDbLine
 10
26.50439034287866
 20
94.22649587550935
 30
0.0
 11
27.00439036662761
 21
94.83899590460181
 31
0.0
  0
LINE
  5
C35
330
18
100
AcDbEntity
  8
1
  6
Continuous
100
AcDbLine
 10
27.00439036662743
 20
94.83899590460181
 30
0.0
 11
27.70439039987559
 21
94.83899590460181
 31
0.0
  0
LINE
  5
C36
330
18
100
AcDbEntity
  8
1
  6
Continuous
100
AcDbLine
 10
28.00439041410084
 20
93.93468081494422
 30
0.0
 11
28.15439042124941
 21
93.93468081494422
 31
0.0
  0
LINE
  5
C37
330
18
100
AcDbEntity
  8
1
  6
Continuous
100
AcDbLine
 10
28.00439041410084
 20
94.31921716842266
 30
0.0
 11
28.15439042124941
 21
94.31921716842266
 31
0.0
  0
LINE
  5
C38
330
18
100
AcDbEntity
  8
2
  6
Continuous
 48
0.2
100
AcDbLine
 10
128.2205967918561
 20
90.56849869823654
 30
0.0
 11
128.0705967847315
 21
90.56849869823656
 31
0.0
  0
LINE
  5
C39
330
18
100
AcDbEntity
  8
2
  6
Continuous
 48
0.2
100
AcDbLine
 10
128.2205967918561
 20
85.60949869823659
 30
0.0
 11
128.0705967847315
 21
85.60949869823657
 31
0.0
  0
LINE
  5
C3A
330
18
100
AcDbEntity
  8
2
  6
Continuous
 48
0.2
100
AcDbLine
 10
28.30439042837402
 20
90.56849869823654
 30
0.0
 11
28.15439042124941
 21
90.56849869823656
 31
0.0
  0
LINE
  5
C3B
330
18
100
AcDbEntity
  8
2
  6
Continuous
 48
0.2
100
AcDbLine
 10
28.30439042837402
 20
85.60949869823659
 30
0.0
 11
28.15439042124941
 21
85.60949869823657
 31
0.0
  0
LINE
  5
C3C
330
18
100
AcDbEntity
  8
4
  6
CENTER
 48
0.2
100
AcDbLine
 10
78.18749360655278
 20
111.8667062527667
 30
0.0
 11
78.18749360655278
 21
143.3667074639517
 31
0.0
  0
ARC
  5
C3D
330
18
100
AcDbEntity
  8
1
  6
Continuous
100
AcDbCircle
 10
73.20682370721823
 20
139.8215022379282
 30
0.0
 40
0.5462042241627698
100
AcDbArc
 50
86.5341588154844
 51
175.252630481282
  0
ARC
  5
C41
330
18
100
AcDbEntity
  8
1
  6
Continuous
100
AcDbCircle
 10
75.73768398615469
 20
140.1289205160389
 30
0.0
 40
0.238996590423474
100
AcDbArc
 50
95.76704903684548
 51
146.3195967065669
  0
ARC
  5
C42
330
18
100
AcDbEntity
  8
1
  6
Continuous
100
AcDbCircle
 10
76.0618287614973
 20
139.8968829149707
 30
0.0
 40
0.6375497948954222
100
AcDbArc
 50
145.1214708803922
 51
182.7128445937652
  0
LINE
  5
C43
330
18
100
AcDbEntity
  8
1
  6
Continuous
100
AcDbLine
 10
83.13514357234964
 20
140.3667074639517
 30
0.0
 11
79.2374936564251
 21
140.3667074639517
 31
0.0
  0
ARC
  5
C44
330
18
100
AcDbEntity
  8
1
  6
Continuous
100
AcDbCircle
 10
83.1681635058873
 20
139.8215022379282
 30
0.0
 40
0.5462042241627698
100
AcDbArc
 50
4.747369518717879
 51
93.46584118451559
  0
ARC
  5
C45
330
18
100
AcDbEntity
  8
1
  6
Continuous
100
AcDbCircle
 10
80.31315845160824
 20
139.8968829149707
 30
0.0
 40
0.6375497948954222
100
AcDbArc
 50
357.2871554062347
 51
34.87852911960774
  0
ARC
  5
C46
330
18
100
AcDbEntity
  8
1
  6
Continuous
100
AcDbCircle
 10
80.63730322695084
 20
140.1289205160389
 30
0.0
 40
0.238996590423474
100
AcDbArc
 50
33.68040329343302
 51
84.23295096315454
  0
ARC
  5
C4A
330
18
100
AcDbEntity
  8
1
  6
Continuous
100
AcDbCircle
 10
79.2374936564251
 20
140.0667074497025
 30
0.0
 40
0.3000000142492254
100
AcDbArc
 50
89.99999999999676
 51
180.0
  0
LINE
  5
C4B
330
18
100
AcDbEntity
  8
1
  6
Continuous
100
AcDbLine
 10
83.71249386897629
 20
139.866707440203
 30
0.0
 11
83.7124937246387
 21
136.3667072739619
 31
0.0
  0
LINE
  5
C4C
330
18
100
AcDbEntity
  8
1
  6
Continuous
100
AcDbLine
 10
80.94999373776449
 20
139.866707440203
 30
0.0
 11
80.94999373776449
 21
136.3667072739619
 31
0.0
  0
LINE
  5
C4D
330
18
100
AcDbEntity
  8
1
  6
Continuous
100
AcDbLine
 10
78.93749364217589
 20
137.8667073452081
 30
0.0
 11
78.93749364217589
 21
140.0667074497025
 31
0.0
  0
ARC
  5
C4F
330
18
100
AcDbEntity
  8
1
  6
Continuous
100
AcDbCircle
 10
94.0449028709391
 20
128.1362400003718
 30
0.0
 40
8.714829639715619
100
AcDbArc
 50
181.1146684140955
 51
205.6290155363053
  0
LINE
  5
C50
330
18
100
AcDbEntity
  8
4
  6
CENTER
 48
0.2
100
AcDbLine
 10
78.18749360655278
 20
64.31128491522122
 30
0.0
 11
78.18749360655278
 21
32.81128370403624
 31
0.0
  0
LINE
  5
C51
330
18
100
AcDbEntity
  8
1
  6
Continuous
100
AcDbLine
 10
72.04999331503746
 20
39.81128389402604
 30
0.0
 11
71.43749328594498
 21
40.31128391777506
 31
0.0
  0
LINE
  5
C52
330
18
100
AcDbEntity
  8
1
  6
Continuous
100
AcDbLine
 10
84.93749392716031
 20
40.31128391777484
 30
0.0
 11
84.32487139806809
 21
39.81118389402605
 31
0.0
  0
LINE
  5
C53
330
18
100
AcDbEntity
  8
1
  6
Continuous
100
AcDbLine
 10
86.18749398653239
 20
53.31128453524164
 30
0.0
 11
70.18749322657317
 21
53.31128453524164
 31
0.0
  0
LINE
  5
C54
330
18
100
AcDbEntity
  8
1
  6
Continuous
100
AcDbLine
 10
80.63749372292148
 20
61.31128491522122
 30
0.0
 11
75.73749349018405
 21
61.31128491522126
 31
0.0
  0
LINE
  5
C55
330
18
100
AcDbEntity
  8
1
  6
Continuous
100
AcDbLine
 10
80.93749373717077
 20
61.01128490097199
 30
0.0
 11
75.4374934759348
 21
61.01128490097202
 31
0.0
  0
LINE
  5
C56
330
18
100
AcDbEntity
  8
1
  6
Continuous
100
AcDbLine
 10
82.13749379416777
 20
57.21128472048173
 30
0.0
 11
74.23749341893778
 21
57.21128472048184
 31
0.0
  0
LINE
  5
C57
330
18
100
AcDbEntity
  8
1
  6
Continuous
100
AcDbLine
 10
82.1374937941678
 20
41.61128397952142
 30
0.0
 11
74.23749341893785
 21
41.61128397952139
 31
0.0
  0
LINE
  5
C58
330
18
100
AcDbEntity
  8
1
  6
Continuous
100
AcDbLine
 10
84.6374936115883
 20
41.46128397239684
 30
0.0
 11
78.53611659410209
 21
41.46128397239684
 31
0.0
  0
LINE
  5
C59
330
18
100
AcDbEntity
  8
1
  6
Continuous
100
AcDbLine
 10
84.63749391291136
 20
41.31128396527207
 30
0.0
 11
71.73749330019422
 21
41.31128396527207
 31
0.0
  0
LINE
  5
C5A
330
18
100
AcDbEntity
  8
1
  6
Continuous
100
AcDbLine
 10
84.93749392716058
 20
40.31128391777484
 30
0.0
 11
71.43749328594498
 21
40.31128391777484
 31
0.0
  0
LINE
  5
C5B
330
18
100
AcDbEntity
  8
1
  6
Continuous
100
AcDbLine
 10
85.33172238568212
 20
45.31128415526175
 30
0.0
 11
70.18749322657313
 21
45.31128415526171
 31
0.0
  0
LINE
  5
C5C
330
18
100
AcDbEntity
  8
1
  6
Continuous
100
AcDbLine
 10
84.93749392716054
 20
53.71128455424065
 30
0.0
 11
71.43749328594498
 21
53.71128455424065
 31
0.0
  0
LINE
  5
C5D
330
18
100
AcDbEntity
  8
1
  6
Continuous
100
AcDbLine
 10
75.43749347593436
 20
61.0112849009716
 30
0.0
 11
75.73749349018405
 21
61.31128491522126
 31
0.0
  0
LINE
  5
C5E
330
18
100
AcDbEntity
  8
1
  6
Continuous
100
AcDbLine
 10
70.18749322657317
 20
45.31128415526171
 30
0.0
 11
70.18749322657317
 21
53.31128453524164
 31
0.0
  0
LINE
  5
C5F
330
18
100
AcDbEntity
  8
1
  6
Continuous
100
AcDbLine
 10
75.43749347593475
 20
57.2112847204817
 30
0.0
 11
75.4374934759348
 21
61.01128490097202
 31
0.0
  0
LINE
  5
C60
330
18
100
AcDbEntity
  8
1
  6
Continuous
100
AcDbLine
 10
74.23749341893778
 20
53.71128455424062
 30
0.0
 11
74.23749341893778
 21
57.21128472048184
 31
0.0
  0
LINE
  5
C61
330
18
100
AcDbEntity
  8
1
  6
Continuous
100
AcDbLine
 10
75.3414435772209
 20
53.71128455424062
 30
0.0
 11
75.3414435772209
 21
57.21128472048167
 31
0.0
  0
LINE
  5
C62
330
18
100
AcDbEntity
  8
1
  6
Continuous
100
AcDbLine
 10
71.43749328594498
 20
53.31128453524164
 30
0.0
 11
71.43749328594498
 21
53.71128455424065
 31
0.0
  0
LINE
  5
C63
330
18
100
AcDbEntity
  8
1
  6
Continuous
100
AcDbLine
 10
73.98749340706351
 20
45.31128415526203
 30
0.0
 11
74.23749341893785
 21
41.61128397952139
 31
0.0
  0
LINE
  5
C64
330
18
100
AcDbEntity
  8
1
  6
Continuous
100
AcDbLine
 10
78.53611659410209
 20
41.31128396527222
 30
0.0
 11
78.53611659410209
 21
41.46128397239684
 31
0.0
  0
LINE
  5
C65
330
18
100
AcDbEntity
  8
1
  6
Continuous
100
AcDbLine
 10
77.83887061900347
 20
41.31128396527222
 30
0.0
 11
77.83887061900347
 21
41.46128397239684
 31
0.0
  0
LINE
  5
C66
330
18
100
AcDbEntity
  8
1
  6
Continuous
100
AcDbLine
 10
71.73749360151724
 20
41.46128397239684
 30
0.0
 11
77.83887061900347
 21
41.46128397239684
 31
0.0
  0
LINE
  5
C67
330
18
100
AcDbEntity
  8
1
  6
Continuous
100
AcDbLine
 10
71.73749360151724
 20
41.31128396527207
 30
0.0
 11
71.73749360151724
 21
41.46128397239684
 31
0.0
  0
ARC
  5
C68
330
18
100
AcDbEntity
  8
1
  6
Continuous
100
AcDbCircle
 10
71.73749330019422
 20
41.01128395102299
 30
0.0
 40
0.300000014249228
100
AcDbArc
 50
90.00000000000005
 51
179.9999999999979
  0
LINE
  5
C69
330
18
100
AcDbEntity
  8
1
  6
Continuous
100
AcDbLine
 10
71.43749328594498
 20
40.31128391777484
 30
0.0
 11
71.43749328594498
 21
41.01128395102302
 31
0.0
  0
LINE
  5
C6A
330
18
100
AcDbEntity
  8
1
  6
Continuous
100
AcDbLine
 10
77.62533906539146
 20
41.31128396527214
 30
0.0
 11
77.62533906539146
 21
41.46128397239684
 31
0.0
  0
LINE
  5
C6B
330
18
100
AcDbEntity
  8
1
  6
Continuous
100
AcDbLine
 10
78.74964814771408
 20
41.31128396527211
 30
0.0
 11
78.74964814771408
 21
41.46128397239684
 31
0.0
  0
LINE
  5
C6C
330
18
100
AcDbEntity
  8
1
  6
Continuous
100
AcDbLine
 10
75.43749347593467
 20
41.46128397239684
 30
0.0
 11
75.43749347593467
 21
41.61128397952146
 31
0.0
  0
LINE
  5
C6D
330
18
100
AcDbEntity
  8
1
  6
Continuous
100
AcDbLine
 10
76.49702047929679
 20
41.31128396527222
 30
0.0
 11
76.49702047929679
 21
41.46128397239684
 31
0.0
  0
LINE
  5
C6E
330
18
100
AcDbEntity
  8
1
  6
Continuous
100
AcDbLine
 10
74.48792558920056
 20
41.31128396524757
 30
0.0
 11
74.48792558920056
 21
41.46128397239684
 31
0.0
  0
LINE
  5
C6F
330
18
100
AcDbEntity
  8
1
  6
Continuous
100
AcDbLine
 10
75.46160581619703
 20
41.31128396524613
 30
0.0
 11
75.46160581619703
 21
41.46128397239684
 31
0.0
  0
LINE
  5
C70
330
18
100
AcDbEntity
  8
1
  6
Continuous
100
AcDbLine
 10
71.95727202212426
 20
41.31128396524467
 30
0.0
 11
71.95727202212426
 21
41.46128397239684
 31
0.0
  0
LINE
  5
C71
330
18
100
AcDbEntity
  8
1
  6
Continuous
100
AcDbLine
 10
72.34180837560259
 20
41.31128396524785
 30
0.0
 11
72.34180837560259
 21
41.46128397239684
 31
0.0
  0
LINE
  5
C72
330
18
100
AcDbEntity
  8
1
  6
Continuous
100
AcDbLine
 10
72.90396291676356
 20
41.31128396524785
 30
0.0
 11
72.90396291676356
 21
41.46128397239684
 31
0.0
  0
LINE
  5
C73
330
18
100
AcDbEntity
  8
1
  6
Continuous
100
AcDbLine
 10
73.62665486433858
 20
41.31128396524757
 30
0.0
 11
73.62665486433858
 21
41.46128397239684
 31
0.0
  0
LINE
  5
C74
330
18
100
AcDbEntity
  8
1
  6
Continuous
100
AcDbLine
 10
75.20420668681902
 20
41.6112839795215
 30
0.0
 11
75.56785610263998
 21
45.31128415526207
 31
0.0
  0
LINE
  5
C75
330
18
100
AcDbEntity
  8
1
  6
Continuous
100
AcDbLine
 10
80.63749338677769
 20
61.31128525136507
 30
0.0
 11
80.93749373717077
 21
61.01128490097199
 31
0.0
  0
ARC
  5
C76
330
18
100
AcDbEntity
  8
1
  6
Continuous
100
AcDbCircle
 10
94.0449028709391
 20
48.04175116761616
 30
0.0
 40
8.714829639715619
100
AcDbArc
 50
154.3709844636947
 51
178.8853315859044
  0
LINE
  5
C77
330
18
100
AcDbEntity
  8
1
  6
Continuous
100
AcDbLine
 10
84.93749392716058
 20
53.71128455424065
 30
0.0
 11
84.93749392716058
 21
53.31128453524164
 31
0.0
  0
LINE
  5
C78
330
18
100
AcDbEntity
  8
1
  6
Continuous
100
AcDbLine
 10
82.13749379416769
 20
53.71128455424062
 30
0.0
 11
82.13749379416769
 21
57.21128472048171
 31
0.0
  0
LINE
  5
C79
330
18
100
AcDbEntity
  8
1
  6
Continuous
100
AcDbLine
 10
81.03354363588458
 20
53.71128455424062
 30
0.0
 11
81.03354363588458
 21
57.21128472048171
 31
0.0
  0
LINE
  5
C7C
330
18
100
AcDbEntity
  8
1
  6
Continuous
100
AcDbLine
 10
80.93749373717077
 20
61.01128490097199
 30
0.0
 11
80.93749373717074
 21
57.2112847204817
 31
0.0
  0
LINE
  5
C7D
330
18
100
AcDbEntity
  8
1
  6
Continuous
100
AcDbLine
 10
86.18749398653239
 20
53.31128453524164
 30
0.0
 11
86.18749398653239
 21
51.81128446399545
 31
0.0
  0
LINE
  5
C7E
330
18
100
AcDbEntity
  8
1
  6
Continuous
100
AcDbLine
 10
84.6374936115883
 20
41.46128397239684
 30
0.0
 11
84.6374936115883
 21
41.31128396527207
 31
0.0
  0
ARC
  5
C7F
330
18
100
AcDbEntity
  8
1
  6
Continuous
100
AcDbCircle
 10
84.63749391291136
 20
41.01128395102299
 30
0.0
 40
0.300000014249228
100
AcDbArc
 50
0.0000000000016425
 51
90.00000000000005
  0
LINE
  5
C80
330
18
100
AcDbEntity
  8
1
  6
Continuous
100
AcDbLine
 10
84.03317883750295
 20
41.31128396524609
 30
0.0
 11
84.03317883750295
 21
41.46128397239684
 31
0.0
  0
LINE
  5
C81
330
18
100
AcDbEntity
  8
1
  6
Continuous
100
AcDbLine
 10
84.41771519098137
 20
41.31128396524724
 30
0.0
 11
84.41771519098137
 21
41.46128397239684
 31
0.0
  0
LINE
  5
C82
330
18
100
AcDbEntity
  8
1
  6
Continuous
100
AcDbLine
 10
83.47102429634198
 20
41.31128396524609
 30
0.0
 11
83.47102429634198
 21
41.46128397239684
 31
0.0
  0
LINE
  5
C83
330
18
100
AcDbEntity
  8
1
  6
Continuous
100
AcDbLine
 10
82.74833234876666
 20
41.31128396524601
 30
0.0
 11
82.74833234876666
 21
41.46128397239684
 31
0.0
  0
LINE
  5
C84
330
18
100
AcDbEntity
  8
1
  6
Continuous
100
AcDbLine
 10
80.93749373717068
 20
41.61128397952146
 30
0.0
 11
80.93749373717068
 21
41.46128397239684
 31
0.0
  0
LINE
  5
C85
330
18
100
AcDbEntity
  8
1
  6
Continuous
100
AcDbLine
 10
81.88706162390483
 20
41.31128396524601
 30
0.0
 11
81.88706162390483
 21
41.46128397239684
 31
0.0
  0
LINE
  5
C86
330
18
100
AcDbEntity
  8
1
  6
Continuous
100
AcDbLine
 10
80.91338139690831
 20
41.31128396524825
 30
0.0
 11
80.91338139690831
 21
41.46128397239684
 31
0.0
  0
LINE
  5
C87
330
18
100
AcDbEntity
  8
1
  6
Continuous
100
AcDbLine
 10
79.85687644876718
 20
41.31128396524825
 30
0.0
 11
79.85687644876718
 21
41.46128397239684
 31
0.0
  0
LINE
  5
C88
330
18
100
AcDbEntity
  8
1
  6
Continuous
100
AcDbLine
 10
84.93749392716058
 20
41.01128395102302
 30
0.0
 11
84.93749392716058
 21
40.31128391777484
 31
0.0
  0
LINE
  5
C89
330
18
100
AcDbEntity
  8
1
  6
Continuous
100
AcDbLine
 10
85.33172238568219
 20
48.21128429300464
 30
0.0
 11
85.33172238568219
 21
45.31128415526189
 31
0.0
  0
LINE
  5
C8A
330
18
100
AcDbEntity
  8
1
  6
Continuous
100
AcDbLine
 10
82.13749379416773
 20
41.6112839795215
 30
0.0
 11
82.38749380604208
 21
45.31128415526207
 31
0.0
  0
LINE
  5
C8B
330
18
100
AcDbEntity
  8
1
  6
Continuous
100
AcDbLine
 10
80.80713111046481
 20
45.31128415526203
 30
0.0
 11
81.17078052628666
 21
41.6112839795215
 31
0.0
  0
LINE
  5
C8C
330
18
100
AcDbEntity
  8
1
  6
Continuous
100
AcDbLine
 10
84.3249938980681
 20
39.81128389402604
 30
0.0
 11
72.04999331503746
 21
39.81128389402604
 31
0.0
  0
ARC
  5
C8D
330
18
100
AcDbEntity
  8
1
  6
Continuous
100
AcDbCircle
 10
79.2374936564251
 20
36.11128371828547
 30
0.0
 40
0.3000000142492254
100
AcDbArc
 50
180.0
 51
270.0000000000032
  0
LINE
  5
C8E
330
18
100
AcDbEntity
  8
1
  6
Continuous
100
AcDbLine
 10
78.93749364217589
 20
38.31128382277987
 30
0.0
 11
78.93749364217589
 21
36.11128371828547
 31
0.0
  0
LINE
  5
C90
330
18
100
AcDbEntity
  8
1
  6
Continuous
100
AcDbLine
 10
73.23984364075589
 20
35.81128370403624
 30
0.0
 11
77.13749355668046
 21
35.81128370403624
 31
0.0
  0
ARC
  5
C91
330
18
100
AcDbEntity
  8
1
  6
Continuous
100
AcDbCircle
 10
73.20682370721823
 20
36.35648893005972
 30
0.0
 40
0.5462042241627698
100
AcDbArc
 50
184.7473695187178
 51
273.4658411845155
  0
ARC
  5
C92
330
18
100
AcDbEntity
  8
1
  6
Continuous
100
AcDbCircle
 10
76.0618287614973
 20
36.28110825301726
 30
0.0
 40
0.6375497948954222
100
AcDbArc
 50
177.2871554062347
 51
214.8785291196077
  0
ARC
  5
C93
330
18
100
AcDbEntity
  8
1
  6
Continuous
100
AcDbCircle
 10
75.73768398615469
 20
36.04907065194905
 30
0.0
 40
0.238996590423474
100
AcDbArc
 50
213.680403293433
 51
264.2329509631545
  0
ARC
  5
C95
330
18
100
AcDbEntity
  8
1
  6
Continuous
100
AcDbCircle
 10
77.13749355668046
 20
36.11128371828547
 30
0.0
 40
0.3000000142492254
100
AcDbArc
 50
269.9999999999967
 51
0.0
  0
LINE
  5
C96
330
18
100
AcDbEntity
  8
1
  6
Continuous
100
AcDbLine
 10
78.93749364217588
 20
38.31128382277987
 30
0.0
 11
77.43749357092969
 21
38.31128382277987
 31
0.0
  0
LINE
  5
C97
330
18
100
AcDbEntity
  8
1
  6
Continuous
100
AcDbLine
 10
72.66249334412925
 20
36.31128372778496
 30
0.0
 11
72.66249348846688
 21
39.81128389402604
 31
0.0
  0
LINE
  5
C98
330
18
100
AcDbEntity
  8
1
  6
Continuous
100
AcDbLine
 10
75.42499347534107
 20
36.31128372778496
 30
0.0
 11
75.42499347534107
 21
39.81128389402604
 31
0.0
  0
LINE
  5
C99
330
18
100
AcDbEntity
  8
1
  6
Continuous
100
AcDbLine
 10
77.43749357092966
 20
38.31128382277987
 30
0.0
 11
77.43749357092966
 21
36.11128371828547
 31
0.0
  0
LINE
  5
C9A
330
18
100
AcDbEntity
  8
1
  6
Continuous
100
AcDbLine
 10
80.94999373776449
 20
36.31128372778496
 30
0.0
 11
80.94999373776449
 21
39.81128389402604
 31
0.0
  0
LINE
  5
C9B
330
18
100
AcDbEntity
  8
1
  6
Continuous
100
AcDbLine
 10
83.71249386897629
 20
36.31128372778496
 30
0.0
 11
83.7124937246387
 21
39.81128389402604
 31
0.0
  0
ARC
  5
C9C
330
18
100
AcDbEntity
  8
1
  6
Continuous
100
AcDbCircle
 10
80.63730322695084
 20
36.04907065194905
 30
0.0
 40
0.238996590423474
100
AcDbArc
 50
275.7670490368454
 51
326.3195967065669
  0
ARC
  5
C9D
330
18
100
AcDbEntity
  8
1
  6
Continuous
100
AcDbCircle
 10
80.31315845160824
 20
36.28110825301726
 30
0.0
 40
0.6375497948954222
100
AcDbArc
 50
325.1214708803922
 51
2.71284459376523
  0
ARC
  5
C9E
330
18
100
AcDbEntity
  8
1
  6
Continuous
100
AcDbCircle
 10
83.1681635058873
 20
36.35648893005972
 30
0.0
 40
0.5462042241627698
100
AcDbArc
 50
266.5341588154844
 51
355.2526304812821
  0
LINE
  5
C9F
330
18
100
AcDbEntity
  8
1
  6
Continuous
100
AcDbLine
 10
83.13514357234964
 20
35.81128370403624
 30
0.0
 11
79.2374936564251
 21
35.81128370403624
 31
0.0
  0
CIRCLE
  5
CA0
330
18
100
AcDbEntity
  8
1
  6
Continuous
100
AcDbCircle
 10
165.0481232594114
 20
88.08899869823656
 30
0.0
 40
6.137500291515328
  0
CIRCLE
  5
CA1
330
18
100
AcDbEntity
  8
1
  6
Continuous
100
AcDbCircle
 10
165.0481232594114
 20
88.08899869823656
 30
0.0
 40
6.750000320607807
  0
CIRCLE
  5
CA2
330
18
100
AcDbEntity
  8
1
  6
Continuous
100
AcDbCircle
 10
165.0481232594114
 20
88.08899869823656
 30
0.0
 40
8.000000379979622
  0
LINE
  5
CA3
330
18
100
AcDbEntity
  8
4
  6
CENTER
 48
0.2
100
AcDbLine
 10
154.0481228794318
 20
88.08899869823656
 30
0.0
 11
176.048123639391
 21
88.08899869823656
 31
0.0
  0
LINE
  5
CA4
330
18
100
AcDbEntity
  8
4
  6
CENTER
 48
0.2
100
AcDbLine
 10
165.0481232594114
 20
77.08899831825694
 30
0.0
 11
165.0481232594114
 21
99.0889990782162
 31
0.0
  0
LINE
  5
CA5
330
18
100
AcDbEntity
  8
2
  6
Continuous
100
AcDbLine
 10
112.4705960437712
 20
90.56849869823656
 30
0.0
 11
108.4000988469055
 21
90.56849869823654
 31
0.0
  0
LINE
  5
CA6
330
18
100
AcDbEntity
  8
2
  6
Continuous
100
AcDbLine
 10
112.4705960437712
 20
85.60949869823657
 30
0.0
 11
108.4000988469055
 21
85.60949869823659
 31
0.0
  0
CIRCLE
  5
CA7
330
18
100
AcDbEntity
  8
2
  6
Continuous
100
AcDbCircle
 10
78.18749360655278
 20
88.08899558399401
 30
0.0
 40
2.479499999999998
  0
LINE
  5
CA8
330
18
100
AcDbEntity
  8
2
  6
Continuous
100
AcDbLine
 10
43.90439116933429
 20
90.56849869823656
 30
0.0
 11
47.97488836620003
 21
90.56849869823654
 31
0.0
  0
LINE
  5
CA9
330
18
100
AcDbEntity
  8
2
  6
Continuous
100
AcDbLine
 10
43.90439116933429
 20
85.60949869823657
 30
0.0
 11
47.97488836620003
 21
85.60949869823659
 31
0.0
  0
LINE
  5
CAA
330
18
100
AcDbEntity
  8
2
  6
Continuous
 48
0.2
100
AcDbLine
 10
80.66699672079508
 20
134.5667071884665
 30
0.0
 11
80.66699672079511
 21
134.7167071955911
 31
0.0
  0
LINE
  5
CAC
330
18
100
AcDbEntity
  8
2
  6
Continuous
 48
0.2
100
AcDbLine
 10
75.70799672079512
 20
134.5667071884665
 30
0.0
 11
75.70799672079511
 21
134.7167071955911
 31
0.0
  0
LINE
  5
CAF
330
18
100
AcDbEntity
  8
2
  6
Continuous
100
AcDbLine
 10
75.70799672079511
 20
118.9667064475062
 30
0.0
 11
75.70799672079512
 21
114.8962092506405
 31
0.0
  0
LINE
  5
CB0
330
18
100
AcDbEntity
  8
2
  6
Continuous
100
AcDbLine
 10
80.66699672079511
 20
118.9667064475062
 30
0.0
 11
80.66699672079508
 21
114.8962092506405
 31
0.0
  0
LINE
  5
CB1
330
18
100
AcDbEntity
  8
2
  6
Continuous
 48
0.2
100
AcDbLine
 10
75.70799672079512
 20
41.61128397952146
 30
0.0
 11
75.70799672079511
 21
41.46128397239684
 31
0.0
  0
LINE
  5
CB2
330
18
100
AcDbEntity
  8
2
  6
Continuous
 48
0.2
100
AcDbLine
 10
80.66699672079508
 20
41.61128397952146
 30
0.0
 11
80.66699672079511
 21
41.46128397239684
 31
0.0
  0
LINE
  5
CB3
330
18
100
AcDbEntity
  8
2
  6
Continuous
100
AcDbLine
 10
75.70799672079511
 20
57.21128472048173
 30
0.0
 11
75.70799672079512
 21
61.28178191734747
 31
0.0
  0
LINE
  5
CB4
330
18
100
AcDbEntity
  8
2
  6
Continuous
100
AcDbLine
 10
80.66699672079511
 20
57.21128472048173
 30
0.0
 11
80.66699672079508
 21
61.28178191734747
 31
0.0
  0
ENDSEC
  0
SECTION
  2
OBJECTS
  0
DICTIONARY
  5
C
330
0
100
AcDbDictionary
281
     1
  3
ACAD_CIP_PREVIOUS_PRODUCT_INFO
350
DA7
  3
ACAD_COLOR
350
D8A
  3
ACAD_DETAILVIEWSTYLE
350
DA3
  3
ACAD_GROUP
350
D
  3
ACAD_LAYOUT
350
94
  3
ACAD_MATERIAL
350
D58
  3
ACAD_MLEADERSTYLE
350
D9F
  3
ACAD_MLINESTYLE
350
1B
  3
ACAD_PLOTSETTINGS
350
95
  3
ACAD_PLOTSTYLENAME
350
D56
  3
ACAD_SCALELIST
350
D8D
  3
ACAD_SECTIONVIEWSTYLE
350
DA1
  3
ACAD_TABLESTYLE
350
D8B
  3
ACAD_VISUALSTYLE
350
D71
  3
ACDB_RECOMPOSE_DATA
350
DC5
  3
AcDbVariableDictionary
350
DB8
  3
CONTENTDICTIONARY
350
3D
  3
DWGPROPS
350
DC6
  0
DICTIONARY
  5
DA8
330
E
100
AcDbDictionary
280
     1
281
     1
  3
ADSK_XREC_LAYER_RECONCILED
360
DA9
  0
DICTIONARY
  5
DAA
330
4E
100
AcDbDictionary
280
     1
281
     1
  3
ADSK_XREC_LAYER_RECONCILED
360
DAB
  0
DICTIONARY
  5
DAC
330
4F
100
AcDbDictionary
280
     1
281
     1
  3
ADSK_XREC_LAYER_RECONCILED
360
DAD
  0
DICTIONARY
  5
DAE
330
50
100
AcDbDictionary
280
     1
281
     1
  3
ADSK_XREC_LAYER_RECONCILED
360
DAF
  0
DICTIONARY
  5
DB0
330
51
100
AcDbDictionary
280
     1
281
     1
  3
ADSK_XREC_LAYER_RECONCILED
360
DB1
  0
DICTIONARY
  5
DB2
330
52
100
AcDbDictionary
280
     1
281
     1
  3
ADSK_XREC_LAYER_RECONCILED
360
DB3
  0
DICTIONARY
  5
DB4
330
53
100
AcDbDictionary
280
     1
281
     1
  3
ADSK_XREC_LAYER_RECONCILED
360
DB5
  0
DICTIONARY
  5
DB6
330
54
100
AcDbDictionary
280
     1
281
     1
  3
ADSK_XREC_LAYER_RECONCILED
360
DB7
  0
DICTIONARY
  5
D51
330
18
100
AcDbDictionary
281
     1
  3
ACAD_LAYOUTSELFREF
350
D52
  0
DICTIONARY
  5
D4F
330
15
100
AcDbDictionary
281
     1
  3
ACAD_LAYOUTSELFREF
350
D50
  0
XRECORD
  5
DA7
102
{ACAD_REACTORS
330
C
102
}
330
C
100
AcDbXrecord
280
     1
300
ACDLT
300
2014
300
ACDLT_F_S
  0
DICTIONARY
  5
D8A
102
{ACAD_REACTORS
330
C
102
}
330
C
100
AcDbDictionary
281
     1
  0
DICTIONARY
  5
DA3
102
{ACAD_REACTORS
330
C
102
}
330
C
100
AcDbDictionary
281
     1
  3
Imperial24
350
DA4
  0
DICTIONARY
  5
D
102
{ACAD_REACTORS
330
C
102
}
330
C
100
AcDbDictionary
281
     1
  0
DICTIONARY
  5
94
102
{ACAD_REACTORS
330
C
102
}
330
C
100
AcDbDictionary
281
     1
  3
Model
350
DA5
  3
レイアウト1
350
DA6
  0
DICTIONARY
  5
D58
102
{ACAD_REACTORS
330
C
102
}
330
C
100
AcDbDictionary
281
     1
  3
ByBlock
350
D61
  3
ByLayer
350
D59
  3
Global
350
D69
  0
DICTIONARY
  5
D9F
102
{ACAD_REACTORS
330
C
102
}
330
C
100
AcDbDictionary
281
     1
  3
Standard
350
DA0
  0
DICTIONARY
  5
1B
102
{ACAD_REACTORS
330
C
102
}
330
C
100
AcDbDictionary
281
     1
  3
STANDARD
350
1C
  0
DICTIONARY
  5
95
102
{ACAD_REACTORS
330
C
102
}
330
C
100
AcDbDictionary
281
     1
  0
ACDBDICTIONARYWDFLT
  5
D56
102
{ACAD_REACTORS
330
C
102
}
330
C
100
AcDbDictionary
281
     1
  3
Normal
350
D57
100
AcDbDictionaryWithDefault
340
D57
  0
DICTIONARY
  5
D8D
102
{ACAD_REACTORS
330
C
102
}
330
C
100
AcDbDictionary
281
     1
  3
A0
350
D8E
  3
A1
350
D8F
  3
A2
350
D90
  3
A3
350
D91
  3
A4
350
D92
  3
A5
350
D93
  3
A6
350
D94
  3
A7
350
D95
  3
A8
350
D96
  3
A9
350
D97
  3
B0
350
D98
  3
B1
350
D99
  3
B2
350
D9A
  3
B3
350
D9B
  3
B4
350
D9C
  3
B5
350
D9D
  3
B6
350
D9E
  0
DICTIONARY
  5
DA1
102
{ACAD_REACTORS
330
C
102
}
330
C
100
AcDbDictionary
281
     1
  3
Imperial24
350
DA2
  0
DICTIONARY
  5
D8B
102
{ACAD_REACTORS
330
C
102
}
330
C
100
AcDbDictionary
281
     1
  3
Standard
350
D8C
  0
DICTIONARY
  5
D71
102
{ACAD_REACTORS
330
C
102
}
330
C
100
AcDbDictionary
281
     1
  3
2dWireframe
350
D77
  3
Basic
350
D76
  3
Brighten
350
D7D
  3
ColorChange
350
D81
  3
Conceptual
350
D7A
  3
Dim
350
D7C
  3
EdgeColorOff
350
D89
  3
Facepattern
350
D80
  3
Flat
350
D72
  3
FlatWithEdges
350
D73
  3
Gouraud
350
D74
  3
GouraudWithEdges
350
D75
  3
Hidden
350
D79
  3
JitterOff
350
D87
  3
Linepattern
350
D7F
  3
OverhangOff
350
D88
  3
Realistic
350
D7B
  3
Shaded
350
D86
  3
Shaded with edges
350
D85
  3
Shades of Gray
350
D82
  3
Sketchy
350
D83
  3
Thicken
350
D7E
  3
Wireframe
350
D78
  3
X-Ray
350
D84
  0
XRECORD
  5
DC5
102
{ACAD_REACTORS
330
C
102
}
330
C
100
AcDbXrecord
280
     1
 90
        1
330
D8C
  0
DICTIONARY
  5
DB8
102
{ACAD_REACTORS
330
C
102
}
330
C
100
AcDbDictionary
281
     1
  3
CANNOSCALE
350
DBD
  3
CMLEADERSTYLE
350
DBA
  3
CTABLESTYLE
350
DB9
  3
CVIEWDETAILSTYLE
350
DBB
  3
CVIEWSECTIONSTYLE
350
DBC
  3
DIMASSOC
350
DC0
  3
INDEXCTL
350
DBF
  3
SORTENTS
350
DBE
  3
XCLIPFRAME
350
DC1
  0
DICTIONARY
  5
3D
102
{ACAD_REACTORS
330
C
102
}
330
C
100
AcDbDictionary
281
     1
  0
XRECORD
  5
DC6
102
{ACAD_REACTORS
330
C
102
}
330
C
100
AcDbXrecord
280
     1
  1
DWGPROPS COOKIE
  2

  3

  4

  6

  7

  8
Yoshitsune
  9

300
=
301
=
302
=
303
=
304
=
305
=
306
=
307
=
308
=
309
=
 40
0.0455733101851852
 41
2453777.824795463
 42
2457192.70202382
  1

 90
        0
  0
XRECORD
  5
DA9
102
{ACAD_REACTORS
330
DA8
102
}
330
DA8
100
AcDbXrecord
280
     1
290
     1
  0
XRECORD
  5
DAB
102
{ACAD_REACTORS
330
DAA
102
}
330
DAA
100
AcDbXrecord
280
     1
290
     1
  0
XRECORD
  5
DAD
102
{ACAD_REACTORS
330
DAC
102
}
330
DAC
100
AcDbXrecord
280
     1
290
     1
  0
XRECORD
  5
DAF
102
{ACAD_REACTORS
330
DAE
102
}
330
DAE
100
AcDbXrecord
280
     1
290
     1
  0
XRECORD
  5
DB1
102
{ACAD_REACTORS
330
DB0
102
}
330
DB0
100
AcDbXrecord
280
     1
290
     1
  0
XRECORD
  5
DB3
102
{ACAD_REACTORS
330
DB2
102
}
330
DB2
100
AcDbXrecord
280
     1
290
     1
  0
XRECORD
  5
DB5
102
{ACAD_REACTORS
330
DB4
102
}
330
DB4
100
AcDbXrecord
280
     1
290
     1
  0
XRECORD
  5
DB7
102
{ACAD_REACTORS
330
DB6
102
}
330
DB6
100
AcDbXrecord
280
     1
290
     1
  0
XRECORD
  5
D52
102
{ACAD_REACTORS
330
D51
102
}
330
D51
100
AcDbXrecord
280
     1
340
18
  0
XRECORD
  5
D50
102
{ACAD_REACTORS
330
D4F
102
}
330
D4F
100
AcDbXrecord
280
     1
340
15
  0
ACDBDETAILVIEWSTYLE
  5
DA4
102
{ACAD_XDICTIONARY
360
DFE
102
}
102
{ACAD_REACTORS
330
DA3
102
}
330
DA3
100
AcDbModelDocViewStyle
 70
     0
  3
Imperial24
290
     0
100
AcDbDetailViewStyle
 70
     0
 71
     0
 90
        3
 71
     1
340
F
 40
0.24
340
0
 40
0.24
300

 40
0.36
280
     3
 71
     2
340
14
 90
       25
 71
     3
340
F
 40
0.24
 90
        1
 40
0.75
 90
        1
300
%<\AcVar ViewType \f "%tc1">% %<\AcVar ViewDetailId>%\PSCALE %<\AcVar ViewScale \f "%sn">%
 71
     4
340
14
 90
       25
340
14
 90
       25
280
     0
  0
LAYOUT
  5
DA5
102
{ACAD_XDICTIONARY
360
E00
102
}
102
{ACAD_REACTORS
330
94
102
}
330
94
100
AcDbPlotSettings
  1

  2
Canon LBP9100C
  4

  6

 40
0.0
 41
0.0
 42
0.0
 43
0.0
 44
0.0
 45
0.0
 46
0.0
 47
0.0
 48
0.0
 49
0.0
140
0.0
141
0.0
142
1.0
143
1.0
 70
  1712
 72
     0
 73
     0
 74
     0
  7

 75
     0
147
1.0
148
0.0
149
0.0
100
AcDbLayout
  1
Model
 70
     1
 71
     0
 10
0.0
 20
0.0
 11
12.0
 21
9.0
 12
0.0
 22
0.0
 32
0.0
 14
0.0
 24
0.0
 34
0.0
 15
0.0
 25
0.0
 35
0.0
146
0.0
 13
0.0
 23
0.0
 33
0.0
 16
1.0
 26
0.0
 36
0.0
 17
0.0
 27
1.0
 37
0.0
 76
     0
330
18
331
D4E
  0
LAYOUT
  5
DA6
102
{ACAD_XDICTIONARY
360
E02
102
}
102
{ACAD_REACTORS
330
94
102
}
330
94
100
AcDbPlotSettings
  1

  2
Canon LBP9100C
  4

  6

 40
0.0
 41
0.0
 42
0.0
 43
0.0
 44
0.0
 45
0.0
 46
0.0
 47
0.0
 48
0.0
 49
0.0
140
0.0
141
0.0
142
1.0
143
1.0
 70
   688
 72
     0
 73
     0
 74
     5
  7

 75
    16
147
1.0
148
0.0
149
0.0
100
AcDbLayout
  1
レイアウト1
 70
     1
 71
     1
 10
-3.757080078125
 20
-3.757083177566528
 11
293.2112426757812
 21
206.2162444591522
 12
0.0
 22
0.0
 32
0.0
 14
27.8447512626648
 24
20.24591643810271
 34
0.0
 15
250.6027613639831
 25
182.2132479429244
 35
0.0
146
0.0
 13
0.0
 23
0.0
 33
0.0
 16
1.0
 26
0.0
 36
0.0
 17
0.0
 27
1.0
 37
0.0
 76
     0
330
15
  0
MATERIAL
  5
D61
102
{ACAD_XDICTIONARY
360
D62
102
}
102
{ACAD_REACTORS
330
D58
102
}
330
D58
100
AcDbMaterial
  1
ByBlock
 72
     0
 43
0.0208333333333333
 43
0.0
 43
0.0
 43
0.0
 43
0.0
 43
0.0208333333333333
 43
0.0
 43
0.0
 43
0.0
 43
0.0
 43
1.0
 43
0.0
 43
0.0
 43
0.0
 43
0.0
 43
1.0
 77
     0
 47
0.0208333333333333
 47
0.0
 47
0.0
 47
0.0
 47
0.0
 47
0.0208333333333333
 47
0.0
 47
0.0
 47
0.0
 47
0.0
 47
1.0
 47
0.0
 47
0.0
 47
0.0
 47
0.0
 47
1.0
171
     0
 49
0.0208333333333333
 49
0.0
 49
0.0
 49
0.0
 49
0.0
 49
0.0208333333333333
 49
0.0
 49
0.0
 49
0.0
 49
0.0
 49
1.0
 49
0.0
 49
0.0
 49
0.0
 49
0.0
 49
1.0
175
     0
142
0.0208333333333333
142
0.0
142
0.0
142
0.0
142
0.0
142
0.0208333333333333
142
0.0
142
0.0
142
0.0
142
0.0
142
1.0
142
0.0
142
0.0
142
0.0
142
0.0
142
1.0
179
     0
144
0.0208333333333333
144
0.0
144
0.0
144
0.0
144
0.0
144
0.0208333333333333
144
0.0
144
0.0
144
0.0
144
0.0
144
1.0
144
0.0
144
0.0
144
0.0
144
0.0
144
1.0
147
0.0208333333333333
147
0.0
147
0.0
147
0.0
147
0.0
147
0.0208333333333333
147
0.0
147
0.0
147
0.0
147
0.0
147
1.0
147
0.0
147
0.0
147
0.0
147
0.0
147
1.0
  0
MATERIAL
  5
D59
102
{ACAD_XDICTIONARY
360
D5A
102
}
102
{ACAD_REACTORS
330
D58
102
}
330
D58
100
AcDbMaterial
  1
ByLayer
 72
     0
 43
0.0208333333333333
 43
0.0
 43
0.0
 43
0.0
 43
0.0
 43
0.0208333333333333
 43
0.0
 43
0.0
 43
0.0
 43
0.0
 43
1.0
 43
0.0
 43
0.0
 43
0.0
 43
0.0
 43
1.0
 77
     0
 47
0.0208333333333333
 47
0.0
 47
0.0
 47
0.0
 47
0.0
 47
0.0208333333333333
 47
0.0
 47
0.0
 47
0.0
 47
0.0
 47
1.0
 47
0.0
 47
0.0
 47
0.0
 47
0.0
 47
1.0
171
     0
 49
0.0208333333333333
 49
0.0
 49
0.0
 49
0.0
 49
0.0
 49
0.0208333333333333
 49
0.0
 49
0.0
 49
0.0
 49
0.0
 49
1.0
 49
0.0
 49
0.0
 49
0.0
 49
0.0
 49
1.0
175
     0
142
0.0208333333333333
142
0.0
142
0.0
142
0.0
142
0.0
142
0.0208333333333333
142
0.0
142
0.0
142
0.0
142
0.0
142
1.0
142
0.0
142
0.0
142
0.0
142
0.0
142
1.0
179
     0
144
0.0208333333333333
144
0.0
144
0.0
144
0.0
144
0.0
144
0.0208333333333333
144
0.0
144
0.0
144
0.0
144
0.0
144
1.0
144
0.0
144
0.0
144
0.0
144
0.0
144
1.0
147
0.0208333333333333
147
0.0
147
0.0
147
0.0
147
0.0
147
0.0208333333333333
147
0.0
147
0.0
147
0.0
147
0.0
147
1.0
147
0.0
147
0.0
147
0.0
147
0.0
147
1.0
  0
MATERIAL
  5
D69
102
{ACAD_XDICTIONARY
360
D6A
102
}
102
{ACAD_REACTORS
330
D58
102
}
330
D58
100
AcDbMaterial
  1
Global
 72
     0
 43
0.0208333333333333
 43
0.0
 43
0.0
 43
0.0
 43
0.0
 43
0.0208333333333333
 43
0.0
 43
0.0
 43
0.0
 43
0.0
 43
1.0
 43
0.0
 43
0.0
 43
0.0
 43
0.0
 43
1.0
 77
     0
 47
0.0208333333333333
 47
0.0
 47
0.0
 47
0.0
 47
0.0
 47
0.0208333333333333
 47
0.0
 47
0.0
 47
0.0
 47
0.0
 47
1.0
 47
0.0
 47
0.0
 47
0.0
 47
0.0
 47
1.0
171
     0
 49
0.0208333333333333
 49
0.0
 49
0.0
 49
0.0
 49
0.0
 49
0.0208333333333333
 49
0.0
 49
0.0
 49
0.0
 49
0.0
 49
1.0
 49
0.0
 49
0.0
 49
0.0
 49
0.0
 49
1.0
175
     0
142
0.0208333333333333
142
0.0
142
0.0
142
0.0
142
0.0
142
0.0208333333333333
142
0.0
142
0.0
142
0.0
142
0.0
142
1.0
142
0.0
142
0.0
142
0.0
142
0.0
142
1.0
179
     0
144
0.0208333333333333
144
0.0
144
0.0
144
0.0
144
0.0
144
0.0208333333333333
144
0.0
144
0.0
144
0.0
144
0.0
144
1.0
144
0.0
144
0.0
144
0.0
144
0.0
144
1.0
147
0.0208333333333333
147
0.0
147
0.0
147
0.0
147
0.0
147
0.0208333333333333
147
0.0
147
0.0
147
0.0
147
0.0
147
1.0
147
0.0
147
0.0
147
0.0
147
0.0
147
1.0
  0
MLEADERSTYLE
  5
DA0
102
{ACAD_REACTORS
330
D9F
102
}
330
D9F
100
AcDbMLeaderStyle
170
     2
171
     1
172
     0
 90
        2
 40
0.0
 41
0.0
173
     1
 91
-1056964608
340
12
 92
       -2
290
     1
 42
0.09
291
     1
 43
0.36
  3
Standard
 44
0.18
300

342
F
174
     1
178
     6
175
     1
176
     0
 93
-1056964608
 45
0.18
292
     0
297
     0
 46
0.18
 94
-1056964608
 47
1.0
 49
1.0
140
1.0
293
     1
141
0.0
294
     1
177
     0
142
1.0
295
     0
296
     0
143
0.125
1001
ACAD_MLEADERVER
1070
     2
  0
MLINESTYLE
  5
1C
102
{ACAD_REACTORS
330
1B
102
}
330
1B
100
AcDbMlineStyle
  2
STANDARD
 70
     0
  3

 62
   256
 51
90.0
 52
90.0
 71
     2
 49
0.5
 62
   256
  6
BYLAYER
 49
-0.5
 62
   256
  6
BYLAYER
  0
ACDBPLACEHOLDER
  5
D57
102
{ACAD_REACTORS
330
D56
102
}
330
D56
  0
SCALE
  5
D8E
102
{ACAD_REACTORS
330
D8D
102
}
330
D8D
100
AcDbScale
 70
     0
300
1:1
140
1.0
141
1.0
290
     1
  0
SCALE
  5
D8F
102
{ACAD_REACTORS
330
D8D
102
}
330
D8D
100
AcDbScale
 70
     0
300
1/128" = 1'-0"
140
0.0078125
141
12.0
290
     0
  0
SCALE
  5
D90
102
{ACAD_REACTORS
330
D8D
102
}
330
D8D
100
AcDbScale
 70
     0
300
1/64" = 1'-0"
140
0.015625
141
12.0
290
     0
  0
SCALE
  5
D91
102
{ACAD_REACTORS
330
D8D
102
}
330
D8D
100
AcDbScale
 70
     0
300
1/32" = 1'-0"
140
0.03125
141
12.0
290
     0
  0
SCALE
  5
D92
102
{ACAD_REACTORS
330
D8D
102
}
330
D8D
100
AcDbScale
 70
     0
300
1/16" = 1'-0"
140
0.0625
141
12.0
290
     0
  0
SCALE
  5
D93
102
{ACAD_REACTORS
330
D8D
102
}
330
D8D
100
AcDbScale
 70
     0
300
3/32" = 1'-0"
140
0.09375
141
12.0
290
     0
  0
SCALE
  5
D94
102
{ACAD_REACTORS
330
D8D
102
}
330
D8D
100
AcDbScale
 70
     0
300
1/8" = 1'-0"
140
0.125
141
12.0
290
     0
  0
SCALE
  5
D95
102
{ACAD_REACTORS
330
D8D
102
}
330
D8D
100
AcDbScale
 70
     0
300
3/16" = 1'-0"
140
0.1875
141
12.0
290
     0
  0
SCALE
  5
D96
102
{ACAD_REACTORS
330
D8D
102
}
330
D8D
100
AcDbScale
 70
     0
300
1/4" = 1'-0"
140
0.25
141
12.0
290
     0
  0
SCALE
  5
D97
102
{ACAD_REACTORS
330
D8D
102
}
330
D8D
100
AcDbScale
 70
     0
300
3/8" = 1'-0"
140
0.375
141
12.0
290
     0
  0
SCALE
  5
D98
102
{ACAD_REACTORS
330
D8D
102
}
330
D8D
100
AcDbScale
 70
     0
300
1/2" = 1'-0"
140
0.5
141
12.0
290
     0
  0
SCALE
  5
D99
102
{ACAD_REACTORS
330
D8D
102
}
330
D8D
100
AcDbScale
 70
     0
300
3/4" = 1'-0"
140
0.75
141
12.0
290
     0
  0
SCALE
  5
D9A
102
{ACAD_REACTORS
330
D8D
102
}
330
D8D
100
AcDbScale
 70
     0
300
1" = 1'-0"
140
1.0
141
12.0
290
     0
  0
SCALE
  5
D9B
102
{ACAD_REACTORS
330
D8D
102
}
330
D8D
100
AcDbScale
 70
     0
300
1-1/2" = 1'-0"
140
1.5
141
12.0
290
     0
  0
SCALE
  5
D9C
102
{ACAD_REACTORS
330
D8D
102
}
330
D8D
100
AcDbScale
 70
     0
300
3" = 1'-0"
140
3.0
141
12.0
290
     0
  0
SCALE
  5
D9D
102
{ACAD_REACTORS
330
D8D
102
}
330
D8D
100
AcDbScale
 70
     0
300
6" = 1'-0"
140
6.0
141
12.0
290
     0
  0
SCALE
  5
D9E
102
{ACAD_REACTORS
330
D8D
102
}
330
D8D
100
AcDbScale
 70
     0
300
1'-0" = 1'-0"
140
12.0
141
12.0
290
     0
  0
ACDBSECTIONVIEWSTYLE
  5
DA2
102
{ACAD_XDICTIONARY
360
DFC
102
}
102
{ACAD_REACTORS
330
DA1
102
}
330
DA1
100
AcDbModelDocViewStyle
 70
     0
  3
Imperial24
290
     0
100
AcDbSectionViewStyle
 70
     0
 71
     0
 90
       78
 71
     1
340
F
 40
0.24
340
0
340
0
 40
0.24
300
I, O, Q, S, X, Z
 40
0.48
 90
        3
 40
0.18
 90
        1
 71
     2
340
14
 90
       25
340
14
 90
       50
 40
0.24
 40
0.0
 40
0.24
 71
     3
340
F
 40
0.24
 90
        1
 40
0.75
 90
        1
300
%<\AcVar ViewType \f "%tc1">% %<\AcVar ViewSectionStartId>%-%<\AcVar ViewSectionEndId>%\PSCALE %<\AcVar ViewScale \f "%sn">%
 71
     4
300
ANSI31
 40
1.0
 90
        0
290
     0
290
     0
 90
        6
 40
0.0
 40
1.570796326794896
 40
0.2617993877991494
 40
1.308996938995747
 40
-0.2617993877991494
 40
1.832595714594046
  0
TABLESTYLE
  5
D8C
102
{ACAD_XDICTIONARY
360
DC3
102
}
102
{ACAD_REACTORS
330
D8B
102
}
330
D8B
100
AcDbTableStyle
  3
Standard
 70
     0
 71
     0
 40
0.06
 41
0.06
280
     0
281
     0
  7
STANDARD
140
0.18
170
     2
 62
     0
 63
     7
283
     0
274
    -2
284
     1
 64
     0
275
    -2
285
     1
 65
     0
276
    -2
286
     1
 66
     0
277
    -2
287
     1
 67
     0
278
    -2
288
     1
 68
     0
279
    -2
289
     1
 69
     0
  7
STANDARD
140
0.25
170
     5
 62
     0
 63
     7
283
     0
274
    -2
284
     1
 64
     0
275
    -2
285
     1
 65
     0
276
    -2
286
     1
 66
     0
277
    -2
287
     1
 67
     0
278
    -2
288
     1
 68
     0
279
    -2
289
     1
 69
     0
  7
STANDARD
140
0.18
170
     5
 62
     0
 63
     7
283
     0
274
    -2
284
     1
 64
     0
275
    -2
285
     1
 65
     0
276
    -2
286
     1
 66
     0
277
    -2
287
     1
 67
     0
278
    -2
288
     1
 68
     0
279
    -2
289
     1
 69
     0
  0
VISUALSTYLE
  5
D77
102
{ACAD_XDICTIONARY
360
DD4
102
}
102
{ACAD_REACTORS
330
D71
102
}
330
D71
100
AcDbVisualStyle
  2
2dWireframe
 70
     4
 71
     0
 72
     2
 73
     0
 90
        0
 40
-0.6
 41
-30.0
 62
     5
 63
     7
 74
     1
 91
        4
 64
     7
 65
   257
 75
     1
175
     1
 42
1.0
 92
        0
 66
   257
 43
1.0
 76
     1
 77
     6
 78
     2
 67
     7
 79
     5
170
     0
171
     0
290
     0
174
     0
 93
        1
 44
0.0
173
     0
291
     0
 45
0.0
1001
ACAD
1000
AcDbSavedByObjectVersion
1070
     0
  0
VISUALSTYLE
  5
D76
102
{ACAD_XDICTIONARY
360
DD2
102
}
102
{ACAD_REACTORS
330
D71
102
}
330
D71
100
AcDbVisualStyle
  2
Basic
 70
     7
 71
     1
 72
     0
 73
     1
 90
        0
 40
-0.6
 41
-30.0
 62
     5
 63
     7
 74
     0
 91
        4
 64
     7
 65
   257
 75
     1
175
     1
 42
1.0
 92
        8
 66
     7
 43
1.0
 76
     1
 77
     6
 78
     2
 67
     7
 79
     5
170
     0
171
     0
290
     0
174
     0
 93
        1
 44
0.0
173
     0
291
     1
 45
0.0
1001
ACAD
1000
AcDbSavedByObjectVersion
1070
     0
  0
VISUALSTYLE
  5
D7D
102
{ACAD_XDICTIONARY
360
DE0
102
}
102
{ACAD_REACTORS
330
D71
102
}
330
D71
100
AcDbVisualStyle
  2
Brighten
 70
    12
 71
     2
 72
     2
 73
     0
 90
        0
 40
-0.6
 41
-30.0
 62
     5
 63
     7
 74
     1
 91
        4
 64
     7
 65
   257
 75
     1
175
     1
 42
1.0
 92
        8
 66
     7
 43
1.0
 76
     1
 77
     6
 78
     2
 67
     7
 79
     5
170
     0
171
     0
290
     0
174
     0
 93
        1
 44
50.0
173
     0
291
     1
 45
0.0
1001
ACAD
1000
AcDbSavedByObjectVersion
1070
     0
  0
VISUALSTYLE
  5
D81
102
{ACAD_XDICTIONARY
360
DE8
102
}
102
{ACAD_REACTORS
330
D71
102
}
330
D71
100
AcDbVisualStyle
  2
ColorChange
 70
    16
 71
     2
 72
     2
 73
     3
 90
        0
 40
-0.6
 41
-30.0
 62
     5
 63
     8
 74
     1
 91
        4
 64
     7
 65
   257
 75
     1
175
     1
 42
1.0
 92
        8
 66
     8
 43
1.0
 76
     1
 77
     6
 78
     2
 67
     7
 79
     5
170
     0
171
     0
290
     0
174
     0
 93
        1
 44
0.0
173
     0
291
     1
 45
0.0
1001
ACAD
1000
AcDbSavedByObjectVersion
1070
     0
  0
VISUALSTYLE
  5
D7A
102
{ACAD_XDICTIONARY
360
DDA
102
}
102
{ACAD_REACTORS
330
D71
102
}
330
D71
100
AcDbVisualStyle
  2
Conceptual
 70
     9
 71
     3
 72
     2
 73
     0
 90
        0
 40
-0.6
 41
-30.0
 62
     5
 63
     7
 74
     2
 91
        2
 64
     7
 65
   257
 75
     1
175
     1
 42
179.0
 92
        8
 66
     7
 43
1.0
 76
     1
 77
     6
 78
     2
 67
     7
 79
     3
170
     0
171
     0
290
     0
174
     0
 93
        1
 44
0.0
173
     0
291
     0
 45
0.0
1001
ACAD
1000
AcDbSavedByObjectVersion
1070
     0
  0
VISUALSTYLE
  5
D7C
102
{ACAD_XDICTIONARY
360
DDE
102
}
102
{ACAD_REACTORS
330
D71
102
}
330
D71
100
AcDbVisualStyle
  2
Dim
 70
    11
 71
     2
 72
     2
 73
     0
 90
        0
 40
-0.6
 41
-30.0
 62
     5
 63
     7
 74
     1
 91
        4
 64
     7
 65
   257
 75
     1
175
     1
 42
1.0
 92
        8
 66
     7
 43
1.0
 76
     1
 77
     6
 78
     2
 67
     7
 79
     5
170
     0
171
     0
290
     0
174
     0
 93
        1
 44
-50.0
173
     0
291
     1
 45
0.0
1001
ACAD
1000
AcDbSavedByObjectVersion
1070
     0
  0
VISUALSTYLE
  5
D89
102
{ACAD_XDICTIONARY
360
DF8
102
}
102
{ACAD_REACTORS
330
D71
102
}
330
D71
100
AcDbVisualStyle
  2
EdgeColorOff
 70
    22
 71
     2
 72
     2
 73
     0
 90
        0
 40
-0.6
 41
-30.0
 62
     5
 63
     7
 74
     1
 91
        4
 64
     7
 65
   257
 75
     1
175
     1
 42
1.0
 92
        8
 66
     7
 43
1.0
 76
     1
 77
     6
 78
     2
 67
     7
 79
     5
170
     0
171
     0
290
     0
174
     0
 93
        1
 44
0.0
173
     0
291
     1
 45
0.0
1001
ACAD
1000
AcDbSavedByObjectVersion
1070
     0
  0
VISUALSTYLE
  5
D80
102
{ACAD_XDICTIONARY
360
DE6
102
}
102
{ACAD_REACTORS
330
D71
102
}
330
D71
100
AcDbVisualStyle
  2
Facepattern
 70
    15
 71
     2
 72
     2
 73
     0
 90
        0
 40
-0.6
 41
-30.0
 62
     5
 63
     7
 74
     1
 91
        4
 64
     7
 65
   257
 75
     1
175
     1
 42
1.0
 92
        8
 66
     7
 43
1.0
 76
     1
 77
     6
 78
     2
 67
     7
 79
     5
170
     0
171
     0
290
     0
174
     0
 93
        1
 44
0.0
173
     0
291
     1
 45
0.0
1001
ACAD
1000
AcDbSavedByObjectVersion
1070
     0
  0
VISUALSTYLE
  5
D72
102
{ACAD_XDICTIONARY
360
DCA
102
}
102
{ACAD_REACTORS
330
D71
102
}
330
D71
100
AcDbVisualStyle
  2
Flat
 70
     0
 71
     2
 72
     1
 73
     1
 90
        2
 40
-0.6
 41
30.0
 62
     5
 63
     7
 74
     0
 91
        0
 64
     7
 65
   257
 75
     1
175
     1
 42
1.0
 92
        8
 66
     7
 43
1.0
 76
     1
 77
     6
 78
     2
 67
     7
 79
     5
170
     0
171
     0
290
     0
174
     0
 93
       13
 44
0.0
173
     0
291
     1
 45
0.0
1001
ACAD
1000
AcDbSavedByObjectVersion
1070
     0
  0
VISUALSTYLE
  5
D73
102
{ACAD_XDICTIONARY
360
DCC
102
}
102
{ACAD_REACTORS
330
D71
102
}
330
D71
100
AcDbVisualStyle
  2
FlatWithEdges
 70
     1
 71
     2
 72
     1
 73
     1
 90
        2
 40
-0.6
 41
30.0
 62
     5
 63
     7
 74
     1
 91
        0
 64
     7
 65
   257
 75
     1
175
     1
 42
1.0
 92
        0
 66
   257
 43
1.0
 76
     1
 77
     6
 78
     2
 67
     7
 79
     5
170
     0
171
     0
290
     0
174
     0
 93
       13
 44
0.0
173
     0
291
     1
 45
0.0
1001
ACAD
1000
AcDbSavedByObjectVersion
1070
     0
  0
VISUALSTYLE
  5
D74
102
{ACAD_XDICTIONARY
360
DCE
102
}
102
{ACAD_REACTORS
330
D71
102
}
330
D71
100
AcDbVisualStyle
  2
Gouraud
 70
     2
 71
     2
 72
     2
 73
     1
 90
        2
 40
-0.6
 41
30.0
 62
     5
 63
     7
 74
     0
 91
        0
 64
     7
 65
   257
 75
     1
175
     1
 42
1.0
 92
        0
 66
     7
 43
1.0
 76
     1
 77
     6
 78
     2
 67
     7
 79
     5
170
     0
171
     0
290
     0
174
     0
 93
       13
 44
0.0
173
     0
291
     1
 45
0.0
1001
ACAD
1000
AcDbSavedByObjectVersion
1070
     0
  0
VISUALSTYLE
  5
D75
102
{ACAD_XDICTIONARY
360
DD0
102
}
102
{ACAD_REACTORS
330
D71
102
}
330
D71
100
AcDbVisualStyle
  2
GouraudWithEdges
 70
     3
 71
     2
 72
     2
 73
     1
 90
        2
 40
-0.6
 41
30.0
 62
     5
 63
     7
 74
     1
 91
        0
 64
     7
 65
   257
 75
     1
175
     1
 42
1.0
 92
        0
 66
   257
 43
1.0
 76
     1
 77
     6
 78
     2
 67
     7
 79
     5
170
     0
171
     0
290
     0
174
     0
 93
       13
 44
0.0
173
     0
291
     1
 45
0.0
1001
ACAD
1000
AcDbSavedByObjectVersion
1070
     0
  0
VISUALSTYLE
  5
D79
102
{ACAD_XDICTIONARY
360
DD8
102
}
102
{ACAD_REACTORS
330
D71
102
}
330
D71
100
AcDbVisualStyle
  2
Hidden
 70
     6
 71
     1
 72
     2
 73
     2
 90
        0
 40
-0.6
 41
-30.0
 62
     5
 63
     7
 74
     2
 91
        2
 64
     7
 65
   257
 75
     2
175
     1
 42
40.0
 92
        0
 66
   257
 43
1.0
 76
     1
 77
     6
 78
     2
 67
     7
 79
     3
170
     0
171
     0
290
     0
174
     0
 93
        1
 44
0.0
173
     0
291
     0
 45
0.0
1001
ACAD
1000
AcDbSavedByObjectVersion
1070
     0
  0
VISUALSTYLE
  5
D87
102
{ACAD_XDICTIONARY
360
DF4
102
}
102
{ACAD_REACTORS
330
D71
102
}
330
D71
100
AcDbVisualStyle
  2
JitterOff
 70
    20
 71
     2
 72
     2
 73
     0
 90
        0
 40
-0.6
 41
-30.0
 62
     5
 63
     7
 74
     1
 91
        4
 64
     7
 65
   257
 75
     1
175
     1
 42
1.0
 92
       10
 66
     7
 43
1.0
 76
     1
 77
     6
 78
     2
 67
     7
 79
     5
170
     0
171
     0
290
     0
174
     0
 93
        1
 44
0.0
173
     0
291
     1
 45
0.0
1001
ACAD
1000
AcDbSavedByObjectVersion
1070
     0
  0
VISUALSTYLE
  5
D7F
102
{ACAD_XDICTIONARY
360
DE4
102
}
102
{ACAD_REACTORS
330
D71
102
}
330
D71
100
AcDbVisualStyle
  2
Linepattern
 70
    14
 71
     2
 72
     2
 73
     0
 90
        0
 40
-0.6
 41
-30.0
 62
     5
 63
     7
 74
     1
 91
        4
 64
     7
 65
   257
 75
     7
175
     7
 42
1.0
 92
        8
 66
     7
 43
1.0
 76
     1
 77
     6
 78
     2
 67
     7
 79
     5
170
     0
171
     0
290
     0
174
     0
 93
        1
 44
0.0
173
     0
291
     1
 45
0.0
1001
ACAD
1000
AcDbSavedByObjectVersion
1070
     0
  0
VISUALSTYLE
  5
D88
102
{ACAD_XDICTIONARY
360
DF6
102
}
102
{ACAD_REACTORS
330
D71
102
}
330
D71
100
AcDbVisualStyle
  2
OverhangOff
 70
    21
 71
     2
 72
     2
 73
     0
 90
        0
 40
-0.6
 41
-30.0
 62
     5
 63
     7
 74
     1
 91
        4
 64
     7
 65
   257
 75
     1
175
     1
 42
1.0
 92
        9
 66
     7
 43
1.0
 76
     1
 77
     6
 78
     2
 67
     7
 79
     5
170
     0
171
     0
290
     0
174
     0
 93
        1
 44
0.0
173
     0
291
     1
 45
0.0
1001
ACAD
1000
AcDbSavedByObjectVersion
1070
     0
  0
VISUALSTYLE
  5
D7B
102
{ACAD_XDICTIONARY
360
DDC
102
}
102
{ACAD_REACTORS
330
D71
102
}
330
D71
100
AcDbVisualStyle
  2
Realistic
 70
     8
 71
     2
 72
     3
 73
     0
 90
        2
 40
-0.6
 41
30.0
 62
     5
 63
     7
 74
     0
 91
        0
 64
     7
 65
   257
 75
     1
175
     1
 42
1.0
 92
        8
 66
   257
 43
1.0
 76
     1
 77
     6
 78
     2
 67
     7
 79
     3
170
     0
171
     0
290
     0
174
     0
 93
       13
 44
0.0
173
     0
291
     0
 45
0.0
1001
ACAD
1000
AcDbSavedByObjectVersion
1070
     0
  0
VISUALSTYLE
  5
D86
102
{ACAD_XDICTIONARY
360
DF2
102
}
102
{ACAD_REACTORS
330
D71
102
}
330
D71
100
AcDbVisualStyle
  2
Shaded
 70
    27
 71
     2
 72
     2
 73
     1
 90
        2
 40
-0.6
 41
30.0
 62
     5
 63
     7
 74
     0
 91
        4
 64
     7
 65
   257
 75
     1
175
     1
 42
1.0
 92
        8
 66
   257
 43
1.0
 76
     1
 77
     6
 78
     2
 67
     8
 79
     3
170
     0
171
     0
290
     0
174
     0
 93
        5
 44
0.0
173
     0
291
     0
 45
0.0
1001
ACAD
1000
AcDbSavedByObjectVersion
1070
     0
  0
VISUALSTYLE
  5
D85
102
{ACAD_XDICTIONARY
360
DF0
102
}
102
{ACAD_REACTORS
330
D71
102
}
330
D71
100
AcDbVisualStyle
  2
Shaded with edges
 70
    26
 71
     2
 72
     2
 73
     1
 90
        2
 40
-0.6
 41
30.0
 62
     5
 63
     7
 74
     1
 91
       10
 64
     7
 65
   257
 75
     2
175
     1
 42
1.0
 92
        8
 66
   257
 43
1.0
 76
     1
 77
     6
 78
     2
 67
     7
 79
     3
170
     0
171
     0
290
     0
174
     0
 93
        5
 44
0.0
173
     0
291
     0
 45
0.0
1001
ACAD
1000
AcDbSavedByObjectVersion
1070
     0
  0
VISUALSTYLE
  5
D82
102
{ACAD_XDICTIONARY
360
DEA
102
}
102
{ACAD_REACTORS
330
D71
102
}
330
D71
100
AcDbVisualStyle
  2
Shades of Gray
 70
    23
 71
     2
 72
     2
 73
     3
 90
        0
 40
-0.6
 41
-30.0
 62
     5
 63
     7
 74
     2
 91
        2
 64
     7
 65
     7
 75
     1
175
     1
 42
40.0
 92
        8
 66
     7
 43
1.0
 76
     1
 77
     6
 78
     2
 67
     7
 79
     3
170
     0
171
     0
290
     0
174
     0
 93
        1
 44
0.0
173
     0
291
     0
 45
0.0
1001
ACAD
1000
AcDbSavedByObjectVersion
1070
     0
  0
VISUALSTYLE
  5
D83
102
{ACAD_XDICTIONARY
360
DEC
102
}
102
{ACAD_REACTORS
330
D71
102
}
330
D71
100
AcDbVisualStyle
  2
Sketchy
 70
    24
 71
     1
 72
     2
 73
     2
 90
        0
 40
-0.6
 41
-30.0
 62
     5
 63
     7
 74
     2
 91
        2
 64
     7
 65
     7
 75
     1
175
     1
 42
40.0
 92
       11
 66
     7
 43
1.0
 76
     1
 77
     6
 78
     2
 67
     7
 79
     6
170
     0
171
     0
290
     0
174
     0
 93
        1
 44
0.0
173
     0
291
     0
 45
0.0
1001
ACAD
1000
AcDbSavedByObjectVersion
1070
     0
  0
VISUALSTYLE
  5
D7E
102
{ACAD_XDICTIONARY
360
DE2
102
}
102
{ACAD_REACTORS
330
D71
102
}
330
D71
100
AcDbVisualStyle
  2
Thicken
 70
    13
 71
     2
 72
     2
 73
     0
 90
        0
 40
-0.6
 41
-30.0
 62
     5
 63
     7
 74
     1
 91
        4
 64
     7
 65
   257
 75
     1
175
     1
 42
1.0
 92
       12
 66
     7
 43
1.0
 76
     1
 77
     6
 78
     2
 67
     7
 79
     5
170
     0
171
     0
290
     0
174
     0
 93
        1
 44
0.0
173
     0
291
     1
 45
0.0
1001
ACAD
1000
AcDbSavedByObjectVersion
1070
     0
  0
VISUALSTYLE
  5
D78
102
{ACAD_XDICTIONARY
360
DD6
102
}
102
{ACAD_REACTORS
330
D71
102
}
330
D71
100
AcDbVisualStyle
  2
Wireframe
 70
     5
 71
     0
 72
     2
 73
     0
 90
        0
 40
-0.6
 41
-30.0
 62
     5
 63
     7
 74
     1
 91
        4
 64
     7
 65
   257
 75
     1
175
     1
 42
1.0
 92
        0
 66
   257
 43
1.0
 76
     1
 77
     6
 78
     2
 67
     7
 79
     3
170
     0
171
     0
290
     0
174
     0
 93
        1
 44
0.0
173
     0
291
     0
 45
0.0
1001
ACAD
1000
AcDbSavedByObjectVersion
1070
     0
  0
VISUALSTYLE
  5
D84
102
{ACAD_XDICTIONARY
360
DEE
102
}
102
{ACAD_REACTORS
330
D71
102
}
330
D71
100
AcDbVisualStyle
  2
X-Ray
 70
    25
 71
     2
 72
     2
 73
     1
 90
        1
 40
0.5
 41
-30.0
 62
     5
 63
     7
 74
     1
 91
        0
 64
     7
 65
   257
 75
     1
175
     1
 42
1.0
 92
        8
 66
     7
 43
1.0
 76
     1
 77
     6
 78
     2
 67
     7
 79
     3
170
     0
171
     0
290
     0
174
     0
 93
       13
 44
0.0
173
     0
291
     0
 45
0.0
1001
ACAD
1000
AcDbSavedByObjectVersion
1070
     0
  0
DICTIONARYVAR
  5
DBD
102
{ACAD_REACTORS
330
DB8
102
}
330
DB8
100
DictionaryVariables
280
     0
  1
1:1
  0
DICTIONARYVAR
  5
DBA
102
{ACAD_REACTORS
330
DB8
102
}
330
DB8
100
DictionaryVariables
280
     0
  1
STANDARD
  0
DICTIONARYVAR
  5
DB9
102
{ACAD_REACTORS
330
DB8
102
}
330
DB8
100
DictionaryVariables
280
     0
  1
STANDARD
  0
DICTIONARYVAR
  5
DBB
102
{ACAD_REACTORS
330
DB8
102
}
330
DB8
100
DictionaryVariables
280
     0
  1
Imperial24
  0
DICTIONARYVAR
  5
DBC
102
{ACAD_REACTORS
330
DB8
102
}
330
DB8
100
DictionaryVariables
280
     0
  1
Imperial24
  0
DICTIONARYVAR
  5
DC0
102
{ACAD_REACTORS
330
DB8
102
}
330
DB8
100
DictionaryVariables
280
     0
  1
1
  0
DICTIONARYVAR
  5
DBF
102
{ACAD_REACTORS
330
DB8
102
}
330
DB8
100
DictionaryVariables
280
     0
  1
0
  0
DICTIONARYVAR
  5
DBE
102
{ACAD_REACTORS
330
DB8
102
}
330
DB8
100
DictionaryVariables
280
     0
  1
127
  0
DICTIONARYVAR
  5
DC1
102
{ACAD_REACTORS
330
DB8
102
}
330
DB8
100
DictionaryVariables
280
     0
  1
2
  0
DICTIONARY
  5
DFE
330
DA4
100
AcDbDictionary
280
     1
281
     1
  3
ACAD_XREC_ROUNDTRIP
360
DFF
  0
DICTIONARY
  5
E00
330
DA5
100
AcDbDictionary
280
     1
281
     1
  3
ACAD_XREC_ROUNDTRIP
360
E01
  0
DICTIONARY
  5
E02
330
DA6
100
AcDbDictionary
280
     1
281
     1
  3
ACAD_XREC_ROUNDTRIP
360
E03
  0
DICTIONARY
  5
D62
330
D61
100
AcDbDictionary
280
     1
281
     1
  3
ACAD_XREC_ROUNDTRIP
360
DC8
  3
BUMPTILE
360
D64
  3
DIFFUSETILE
360
D63
  3
OPACITYTILE
360
D67
  3
REFLECTIONTILE
360
D66
  3
REFRACTIONTILE
360
D68
  3
SPECULARTILE
360
D65
  0
DICTIONARY
  5
D5A
330
D59
100
AcDbDictionary
280
     1
281
     1
  3
ACAD_XREC_ROUNDTRIP
360
DC7
  3
BUMPTILE
360
D5C
  3
DIFFUSETILE
360
D5B
  3
OPACITYTILE
360
D5F
  3
REFLECTIONTILE
360
D5E
  3
REFRACTIONTILE
360
D60
  3
SPECULARTILE
360
D5D
  0
DICTIONARY
  5
D6A
330
D69
100
AcDbDictionary
280
     1
281
     1
  3
ACAD_XREC_ROUNDTRIP
360
DC9
  3
BUMPTILE
360
D6C
  3
DIFFUSETILE
360
D6B
  3
OPACITYTILE
360
D6F
  3
REFLECTIONTILE
360
D6E
  3
REFRACTIONTILE
360
D70
  3
SPECULARTILE
360
D6D
  0
DICTIONARY
  5
DFC
330
DA2
100
AcDbDictionary
280
     1
281
     1
  3
ACAD_XREC_ROUNDTRIP
360
DFD
  0
DICTIONARY
  5
DC3
330
D8C
100
AcDbDictionary
280
     1
281
     1
  3
ACAD_ROUNDTRIP_2008_TABLESTYLE_CELLSTYLEMAP
360
DC4
  3
ACAD_XREC_ROUNDTRIP
360
DFA
  0
DICTIONARY
  5
DD4
330
D77
100
AcDbDictionary
280
     1
281
     1
  3
ACAD_XREC_ROUNDTRIP
360
DD5
  0
DICTIONARY
  5
DD2
330
D76
100
AcDbDictionary
280
     1
281
     1
  3
ACAD_XREC_ROUNDTRIP
360
DD3
  0
DICTIONARY
  5
DE0
330
D7D
100
AcDbDictionary
280
     1
281
     1
  3
ACAD_XREC_ROUNDTRIP
360
DE1
  0
DICTIONARY
  5
DE8
330
D81
100
AcDbDictionary
280
     1
281
     1
  3
ACAD_XREC_ROUNDTRIP
360
DE9
  0
DICTIONARY
  5
DDA
330
D7A
100
AcDbDictionary
280
     1
281
     1
  3
ACAD_XREC_ROUNDTRIP
360
DDB
  0
DICTIONARY
  5
DDE
330
D7C
100
AcDbDictionary
280
     1
281
     1
  3
ACAD_XREC_ROUNDTRIP
360
DDF
  0
DICTIONARY
  5
DF8
330
D89
100
AcDbDictionary
280
     1
281
     1
  3
ACAD_XREC_ROUNDTRIP
360
DF9
  0
DICTIONARY
  5
DE6
330
D80
100
AcDbDictionary
280
     1
281
     1
  3
ACAD_XREC_ROUNDTRIP
360
DE7
  0
DICTIONARY
  5
DCA
330
D72
100
AcDbDictionary
280
     1
281
     1
  3
ACAD_XREC_ROUNDTRIP
360
DCB
  0
DICTIONARY
  5
DCC
330
D73
100
AcDbDictionary
280
     1
281
     1
  3
ACAD_XREC_ROUNDTRIP
360
DCD
  0
DICTIONARY
  5
DCE
330
D74
100
AcDbDictionary
280
     1
281
     1
  3
ACAD_XREC_ROUNDTRIP
360
DCF
  0
DICTIONARY
  5
DD0
330
D75
100
AcDbDictionary
280
     1
281
     1
  3
ACAD_XREC_ROUNDTRIP
360
DD1
  0
DICTIONARY
  5
DD8
330
D79
100
AcDbDictionary
280
     1
281
     1
  3
ACAD_XREC_ROUNDTRIP
360
DD9
  0
DICTIONARY
  5
DF4
330
D87
100
AcDbDictionary
280
     1
281
     1
  3
ACAD_XREC_ROUNDTRIP
360
DF5
  0
DICTIONARY
  5
DE4
330
D7F
100
AcDbDictionary
280
     1
281
     1
  3
ACAD_XREC_ROUNDTRIP
360
DE5
  0
DICTIONARY
  5
DF6
330
D88
100
AcDbDictionary
280
     1
281
     1
  3
ACAD_XREC_ROUNDTRIP
360
DF7
  0
DICTIONARY
  5
DDC
330
D7B
100
AcDbDictionary
280
     1
281
     1
  3
ACAD_XREC_ROUNDTRIP
360
DDD
  0
DICTIONARY
  5
DF2
330
D86
100
AcDbDictionary
280
     1
281
     1
  3
ACAD_XREC_ROUNDTRIP
360
DF3
  0
DICTIONARY
  5
DF0
330
D85
100
AcDbDictionary
280
     1
281
     1
  3
ACAD_XREC_ROUNDTRIP
360
DF1
  0
DICTIONARY
  5
DEA
330
D82
100
AcDbDictionary
280
     1
281
     1
  3
ACAD_XREC_ROUNDTRIP
360
DEB
  0
DICTIONARY
  5
DEC
330
D83
100
AcDbDictionary
280
     1
281
     1
  3
ACAD_XREC_ROUNDTRIP
360
DED
  0
DICTIONARY
  5
DE2
330
D7E
100
AcDbDictionary
280
     1
281
     1
  3
ACAD_XREC_ROUNDTRIP
360
DE3
  0
DICTIONARY
  5
DD6
330
D78
100
AcDbDictionary
280
     1
281
     1
  3
ACAD_XREC_ROUNDTRIP
360
DD7
  0
DICTIONARY
  5
DEE
330
D84
100
AcDbDictionary
280
     1
281
     1
  3
ACAD_XREC_ROUNDTRIP
360
DEF
  0
XRECORD
  5
DFF
102
{ACAD_REACTORS
330
DFE
102
}
330
DFE
100
AcDbXrecord
280
     1
102
DISPLAYNAME
  1
Imperial24
102
FLAGS
 90
        0
  0
XRECORD
  5
E01
102
{ACAD_REACTORS
330
E00
102
}
330
E00
100
AcDbXrecord
280
     1
102
SHADEPLOT
 70
     0
102
SHADEPLOTRESLEVEL
 70
     2
102
SHADEPLOTCUSTOMDPI
 70
   300
  0
XRECORD
  5
E03
102
{ACAD_REACTORS
330
E02
102
}
330
E02
100
AcDbXrecord
280
     1
102
SHADEPLOT
 70
     0
102
SHADEPLOTRESLEVEL
 70
     2
102
SHADEPLOTCUSTOMDPI
 70
   300
  0
XRECORD
  5
DC8
102
{ACAD_REACTORS
330
D62
102
}
330
D62
100
AcDbXrecord
280
     1
102
MATERIAL
148
0.0
149
0.0
149
0.0
 93
        0
 94
      127
282
     0
 72
     0
 77
     0
171
     0
175
     0
179
     0
273
     0
  0
XRECORD
  5
D64
102
{ACAD_REACTORS
330
D62
102
}
330
D62
100
AcDbXrecord
280
     1
270
     1
271
     1
  0
XRECORD
  5
D63
102
{ACAD_REACTORS
330
D62
102
}
330
D62
100
AcDbXrecord
280
     1
270
     1
271
     1
  0
XRECORD
  5
D67
102
{ACAD_REACTORS
330
D62
102
}
330
D62
100
AcDbXrecord
280
     1
270
     1
271
     1
  0
XRECORD
  5
D66
102
{ACAD_REACTORS
330
D62
102
}
330
D62
100
AcDbXrecord
280
     1
270
     1
271
     1
  0
XRECORD
  5
D68
102
{ACAD_REACTORS
330
D62
102
}
330
D62
100
AcDbXrecord
280
     1
270
     1
271
     1
  0
XRECORD
  5
D65
102
{ACAD_REACTORS
330
D62
102
}
330
D62
100
AcDbXrecord
280
     1
270
     1
271
     1
  0
XRECORD
  5
DC7
102
{ACAD_REACTORS
330
D5A
102
}
330
D5A
100
AcDbXrecord
280
     1
102
MATERIAL
148
0.0
149
0.0
149
0.0
 93
        0
 94
      127
282
     0
 72
     0
 77
     0
171
     0
175
     0
179
     0
273
     0
  0
XRECORD
  5
D5C
102
{ACAD_REACTORS
330
D5A
102
}
330
D5A
100
AcDbXrecord
280
     1
270
     1
271
     1
  0
XRECORD
  5
D5B
102
{ACAD_REACTORS
330
D5A
102
}
330
D5A
100
AcDbXrecord
280
     1
270
     1
271
     1
  0
XRECORD
  5
D5F
102
{ACAD_REACTORS
330
D5A
102
}
330
D5A
100
AcDbXrecord
280
     1
270
     1
271
     1
  0
XRECORD
  5
D5E
102
{ACAD_REACTORS
330
D5A
102
}
330
D5A
100
AcDbXrecord
280
     1
270
     1
271
     1
  0
XRECORD
  5
D60
102
{ACAD_REACTORS
330
D5A
102
}
330
D5A
100
AcDbXrecord
280
     1
270
     1
271
     1
  0
XRECORD
  5
D5D
102
{ACAD_REACTORS
330
D5A
102
}
330
D5A
100
AcDbXrecord
280
     1
270
     1
271
     1
  0
XRECORD
  5
DC9
102
{ACAD_REACTORS
330
D6A
102
}
330
D6A
100
AcDbXrecord
280
     1
102
MATERIAL
148
0.0
149
0.0
149
0.0
 93
        0
 94
      127
282
     0
 72
     0
 77
     0
171
     0
175
     0
179
     0
273
     0
  0
XRECORD
  5
D6C
102
{ACAD_REACTORS
330
D6A
102
}
330
D6A
100
AcDbXrecord
280
     1
270
     1
271
     1
  0
XRECORD
  5
D6B
102
{ACAD_REACTORS
330
D6A
102
}
330
D6A
100
AcDbXrecord
280
     1
270
     1
271
     1
  0
XRECORD
  5
D6F
102
{ACAD_REACTORS
330
D6A
102
}
330
D6A
100
AcDbXrecord
280
     1
270
     1
271
     1
  0
XRECORD
  5
D6E
102
{ACAD_REACTORS
330
D6A
102
}
330
D6A
100
AcDbXrecord
280
     1
270
     1
271
     1
  0
XRECORD
  5
D70
102
{ACAD_REACTORS
330
D6A
102
}
330
D6A
100
AcDbXrecord
280
     1
270
     1
271
     1
  0
XRECORD
  5
D6D
102
{ACAD_REACTORS
330
D6A
102
}
330
D6A
100
AcDbXrecord
280
     1
270
     1
271
     1
  0
XRECORD
  5
DFD
102
{ACAD_REACTORS
330
DFC
102
}
330
DFC
100
AcDbXrecord
280
     1
102
DISPLAYNAME
  1
Imperial24
102
FLAGS
 90
        0
  0
CELLSTYLEMAP
  5
DC4
102
{ACAD_REACTORS
330
DC3
102
}
330
DC3
100
AcDbCellStyleMap
 90
        3
300
CELLSTYLE
  1
TABLEFORMAT_BEGIN
 90
        5
170
     1
 91
        0
 92
    32768
 62
   257
 93
        1
300
CONTENTFORMAT
  1
CONTENTFORMAT_BEGIN
 90
        0
 91
        0
 92
      512
 93
        0
300

 40
0.0
140
1.0
 94
        5
 62
     0
340
F
144
0.25
309
CONTENTFORMAT_END
171
     0
 94
        0
309
TABLEFORMAT_END
  1
CELLSTYLE_BEGIN
 90
        1
 91
        1
300
_TITLE
309
CELLSTYLE_END
300
CELLSTYLE
  1
TABLEFORMAT_BEGIN
 90
        5
170
     1
 91
        0
 92
        0
 62
   257
 93
        1
300
CONTENTFORMAT
  1
CONTENTFORMAT_BEGIN
 90
        0
 91
        0
 92
      512
 93
        0
300

 40
0.0
140
1.0
 94
        5
 62
     0
340
F
144
0.18
309
CONTENTFORMAT_END
171
     0
 94
        0
309
TABLEFORMAT_END
  1
CELLSTYLE_BEGIN
 90
        2
 91
        1
300
_HEADER
309
CELLSTYLE_END
300
CELLSTYLE
  1
TABLEFORMAT_BEGIN
 90
        5
170
     1
 91
        0
 92
        0
 62
   257
 93
        1
300
CONTENTFORMAT
  1
CONTENTFORMAT_BEGIN
 90
        0
 91
        0
 92
      512
 93
        0
300

 40
0.0
140
1.0
 94
        2
 62
     0
340
F
144
0.18
309
CONTENTFORMAT_END
171
     0
 94
        0
309
TABLEFORMAT_END
  1
CELLSTYLE_BEGIN
 90
        3
 91
        2
300
_DATA
309
CELLSTYLE_END
  0
XRECORD
  5
DFA
102
{ACAD_REACTORS
330
DC3
102
}
330
DC3
100
AcDbXrecord
280
     1
102
ACAD_ROUNDTRIP_PRE2007_TABLESTYLE
 90
      512
 91
        0
  1

 92
      512
 93
        0
  2

 94
      512
 95
        0
  3

  0
XRECORD
  5
DD5
102
{ACAD_REACTORS
330
DD4
102
}
330
DD4
100
AcDbXrecord
280
     1
102
RTVSPost2010Prop28
280
     1
102
RTVSPost2010PropOp28
 70
     1
102
RTVSPost2010Prop29
280
     1
102
RTVSPost2010PropOp29
 70
     1
102
RTVSPost2010Prop30
280
     0
102
RTVSPost2010PropOp30
 70
     1
102
RTVSPost2010Prop31
280
     0
102
RTVSPost2010PropOp31
 70
     1
102
RTVSPost2010Prop32
280
     0
102
RTVSPost2010PropOp32
 70
     1
102
RTVSPost2010Prop33
280
     0
102
RTVSPost2010PropOp33
 70
     1
102
RTVSPost2010Prop34
280
     0
102
RTVSPost2010PropOp34
 70
     1
102
RTVSPost2010Prop35
280
     0
102
RTVSPost2010PropOp35
 70
     1
102
RTVSPost2010Prop36
280
     0
102
RTVSPost2010PropOp36
 70
     1
102
RTVSPost2010Prop37
 90
       50
102
RTVSPost2010PropOp37
 70
     1
102
RTVSPost2010Prop38
140
0.0
102
RTVSPost2010PropOp38
 70
     1
102
RTVSPost2010Prop39
140
1.0
102
RTVSPost2010PropOp39
 70
     1
102
RTVSPost2010Prop40
 90
        0
102
RTVSPost2010PropOp40
 70
     1
102
RTVSPost2010Prop41ColorIndex
 90
       18
102
RTVSPost2010Prop41ColorRGB
 90
        0
102
RTVSPost2010PropOp41
 70
     1
102
RTVSPost2010Prop42
 90
       50
102
RTVSPost2010PropOp42
 70
     1
102
RTVSPost2010Prop43
 90
        3
102
RTVSPost2010PropOp43
 70
     1
102
RTVSPost2010Prop44ColorIndex
 90
        5
102
RTVSPost2010Prop44ColorRGB
 90
      255
102
RTVSPost2010PropOp44
 70
     1
102
RTVSPost2010Prop45
280
     0
102
RTVSPost2010PropOp45
 70
     1
102
RTVSPost2010Prop46
 90
       50
102
RTVSPost2010PropOp46
 70
     1
102
RTVSPost2010Prop47
 90
       50
102
RTVSPost2010PropOp47
 70
     1
102
RTVSPost2010Prop48
 90
       50
102
RTVSPost2010PropOp48
 70
     1
102
RTVSPost2010Prop49
280
     0
102
RTVSPost2010PropOp49
 70
     1
102
RTVSPost2010Prop50
 90
       50
102
RTVSPost2010PropOp50
 70
     1
102
RTVSPost2010Prop51ColorIndex
 90
      256
102
RTVSPost2010Prop51ColorRGB
 90
-16777216
102
RTVSPost2010PropOp51
 70
     0
102
RTVSPost2010Prop52
140
1.0
102
RTVSPost2010PropOp52
 70
     0
102
RTVSPost2010Prop53
 90
        2
102
RTVSPost2010PropOp53
 70
     1
102
RTVSPost2010Prop54
  1
strokes_ogs.tif
102
RTVSPost2010PropOp54
 70
     1
102
RTVSPost2010Prop55
280
     0
102
RTVSPost2010PropOp55
 70
     1
102
RTVSPost2010Prop56
140
1.0
102
RTVSPost2010PropOp56
 70
     1
102
RTVSPost2010Prop57
140
1.0
102
RTVSPost2010PropOp57
 70
     1
102
RTVSPropertyOp0
 70
     1
102
RTVSPropertyOp1
 70
     1
102
RTVSPropertyOp2
 70
     1
102
RTVSPropertyOp3
 70
     1
102
RTVSPropertyOp4
 70
     1
102
RTVSPropertyOp5
 70
     1
102
RTVSPropertyOp6
 70
     1
102
RTVSPropertyOp7
 70
     1
102
RTVSPropertyOp8
 70
     1
102
RTVSPropertyOp9
 70
     1
102
RTVSPropertyOp10
 70
     1
102
RTVSPropertyOp11
 70
     1
102
RTVSPropertyOp12
 70
     1
102
RTVSPropertyOp13
 70
     1
102
RTVSPropertyOp14
 70
     1
102
RTVSPropertyOp15
 70
     1
102
RTVSPropertyOp16
 70
     1
102
RTVSPropertyOp17
 70
     1
102
RTVSPropertyOp18
 70
     1
102
RTVSPropertyOp19
 70
     1
102
RTVSPropertyOp20
 70
     1
102
RTVSPropertyOp21
 70
     1
102
RTVSPropertyOp22
 70
     1
102
RTVSPropertyOp23
 70
     1
102
RTVSPropertyOp24
 70
     1
102
RTVSPropertyOp25
 70
     1
102
RTVSPropertyOp26
 70
     1
102
RTVSPropertyOp27
 70
     1
102
RTVSPropertyOp28
 70
     1
102
RTVSPropertyOp29
 70
     1
102
RTVSPropertyOp30
 70
     1
102
RTVSPropertyOp31
 70
     1
102
RTVSPropertyOp32
 70
     1
102
RTVSPropertyOp33
 70
     1
102
RTVSPropertyOp34
 70
     1
102
RTVSPropertyOp35
 70
     1
102
RTVSPropertyOp36
 70
     1
102
RTVSPropertyOp37
 70
     1
102
RTVSPropertyOp38
 70
     1
102
RTVSPropertyOp39
 70
     1
102
RTVSPropertyOp40
 70
     1
102
RTVSPropertyOp41
 70
     1
102
RTVSPropertyOp42
 70
     1
102
RTVSPropertyOp43
 70
     1
102
RTVSPropertyOp44
 70
     1
102
RTVSPropertyOp45
 70
     1
102
RTVSPropertyOp46
 70
     1
102
RTVSPropertyOp47
 70
     1
102
RTVSPropertyOp48
 70
     1
102
RTVSPropertyOp49
 70
     1
102
RTVSPropertyOp50
 70
     1
102
RTVSPropertyOp51
 70
     0
102
RTVSPropertyOp52
 70
     0
102
RTVSPropertyOp53
 70
     1
102
RTVSPropertyOp54
 70
     1
102
RTVSPropertyOp55
 70
     1
102
RTVSPropertyOp56
 70
     1
102
RTVSPropertyOp57
 70
     1
102
RTVSPropertyOp58
 70
     1
102
RTVSPropertyOp59
 70
     1
102
RTVSPropertyOp60
 70
     1
102
RTVSPropertyOp61
 70
     1
102
RTVSPropertyOp62
 70
     1
  0
XRECORD
  5
DD3
102
{ACAD_REACTORS
330
DD2
102
}
330
DD2
100
AcDbXrecord
280
     1
102
RTVSPost2010Prop28
280
     0
102
RTVSPost2010PropOp28
 70
     1
102
RTVSPost2010Prop29
280
     1
102
RTVSPost2010PropOp29
 70
     1
102
RTVSPost2010Prop30
280
     1
102
RTVSPost2010PropOp30
 70
     1
102
RTVSPost2010Prop31
280
     0
102
RTVSPost2010PropOp31
 70
     1
102
RTVSPost2010Prop32
280
     0
102
RTVSPost2010PropOp32
 70
     1
102
RTVSPost2010Prop33
280
     0
102
RTVSPost2010PropOp33
 70
     1
102
RTVSPost2010Prop34
280
     0
102
RTVSPost2010PropOp34
 70
     1
102
RTVSPost2010Prop35
280
     0
102
RTVSPost2010PropOp35
 70
     1
102
RTVSPost2010Prop36
280
     0
102
RTVSPost2010PropOp36
 70
     1
102
RTVSPost2010Prop37
 90
       50
102
RTVSPost2010PropOp37
 70
     1
102
RTVSPost2010Prop38
140
0.0
102
RTVSPost2010PropOp38
 70
     1
102
RTVSPost2010Prop39
140
1.0
102
RTVSPost2010PropOp39
 70
     1
102
RTVSPost2010Prop40
 90
        0
102
RTVSPost2010PropOp40
 70
     1
102
RTVSPost2010Prop41ColorIndex
 90
       18
102
RTVSPost2010Prop41ColorRGB
 90
        0
102
RTVSPost2010PropOp41
 70
     1
102
RTVSPost2010Prop42
 90
       50
102
RTVSPost2010PropOp42
 70
     1
102
RTVSPost2010Prop43
 90
        3
102
RTVSPost2010PropOp43
 70
     1
102
RTVSPost2010Prop44ColorIndex
 90
        5
102
RTVSPost2010Prop44ColorRGB
 90
      255
102
RTVSPost2010PropOp44
 70
     1
102
RTVSPost2010Prop45
280
     0
102
RTVSPost2010PropOp45
 70
     1
102
RTVSPost2010Prop46
 90
       50
102
RTVSPost2010PropOp46
 70
     1
102
RTVSPost2010Prop47
 90
       50
102
RTVSPost2010PropOp47
 70
     1
102
RTVSPost2010Prop48
 90
       50
102
RTVSPost2010PropOp48
 70
     1
102
RTVSPost2010Prop49
280
     0
102
RTVSPost2010PropOp49
 70
     1
102
RTVSPost2010Prop50
 90
       50
102
RTVSPost2010PropOp50
 70
     1
102
RTVSPost2010Prop51ColorIndex
 90
      256
102
RTVSPost2010Prop51ColorRGB
 90
-16777216
102
RTVSPost2010PropOp51
 70
     0
102
RTVSPost2010Prop52
140
1.0
102
RTVSPost2010PropOp52
 70
     0
102
RTVSPost2010Prop53
 90
        2
102
RTVSPost2010PropOp53
 70
     1
102
RTVSPost2010Prop54
  1
strokes_ogs.tif
102
RTVSPost2010PropOp54
 70
     1
102
RTVSPost2010Prop55
280
     0
102
RTVSPost2010PropOp55
 70
     1
102
RTVSPost2010Prop56
140
1.0
102
RTVSPost2010PropOp56
 70
     1
102
RTVSPost2010Prop57
140
1.0
102
RTVSPost2010PropOp57
 70
     1
102
RTVSPropertyOp0
 70
     1
102
RTVSPropertyOp1
 70
     1
102
RTVSPropertyOp2
 70
     1
102
RTVSPropertyOp3
 70
     1
102
RTVSPropertyOp4
 70
     1
102
RTVSPropertyOp5
 70
     1
102
RTVSPropertyOp6
 70
     1
102
RTVSPropertyOp7
 70
     1
102
RTVSPropertyOp8
 70
     1
102
RTVSPropertyOp9
 70
     1
102
RTVSPropertyOp10
 70
     1
102
RTVSPropertyOp11
 70
     1
102
RTVSPropertyOp12
 70
     1
102
RTVSPropertyOp13
 70
     1
102
RTVSPropertyOp14
 70
     1
102
RTVSPropertyOp15
 70
     1
102
RTVSPropertyOp16
 70
     1
102
RTVSPropertyOp17
 70
     1
102
RTVSPropertyOp18
 70
     1
102
RTVSPropertyOp19
 70
     1
102
RTVSPropertyOp20
 70
     1
102
RTVSPropertyOp21
 70
     1
102
RTVSPropertyOp22
 70
     1
102
RTVSPropertyOp23
 70
     1
102
RTVSPropertyOp24
 70
     1
102
RTVSPropertyOp25
 70
     1
102
RTVSPropertyOp26
 70
     1
102
RTVSPropertyOp27
 70
     1
102
RTVSPropertyOp28
 70
     1
102
RTVSPropertyOp29
 70
     1
102
RTVSPropertyOp30
 70
     1
102
RTVSPropertyOp31
 70
     1
102
RTVSPropertyOp32
 70
     1
102
RTVSPropertyOp33
 70
     1
102
RTVSPropertyOp34
 70
     1
102
RTVSPropertyOp35
 70
     1
102
RTVSPropertyOp36
 70
     1
102
RTVSPropertyOp37
 70
     1
102
RTVSPropertyOp38
 70
     1
102
RTVSPropertyOp39
 70
     1
102
RTVSPropertyOp40
 70
     1
102
RTVSPropertyOp41
 70
     1
102
RTVSPropertyOp42
 70
     1
102
RTVSPropertyOp43
 70
     1
102
RTVSPropertyOp44
 70
     1
102
RTVSPropertyOp45
 70
     1
102
RTVSPropertyOp46
 70
     1
102
RTVSPropertyOp47
 70
     1
102
RTVSPropertyOp48
 70
     1
102
RTVSPropertyOp49
 70
     1
102
RTVSPropertyOp50
 70
     1
102
RTVSPropertyOp51
 70
     0
102
RTVSPropertyOp52
 70
     0
102
RTVSPropertyOp53
 70
     1
102
RTVSPropertyOp54
 70
     1
102
RTVSPropertyOp55
 70
     1
102
RTVSPropertyOp56
 70
     1
102
RTVSPropertyOp57
 70
     1
102
RTVSPropertyOp58
 70
     1
102
RTVSPropertyOp59
 70
     1
102
RTVSPropertyOp60
 70
     1
102
RTVSPropertyOp61
 70
     1
102
RTVSPropertyOp62
 70
     1
  0
XRECORD
  5
DE1
102
{ACAD_REACTORS
330
DE0
102
}
330
DE0
100
AcDbXrecord
280
     1
102
RTVSPost2010Prop28
280
     0
102
RTVSPost2010PropOp28
 70
     1
102
RTVSPost2010Prop29
280
     1
102
RTVSPost2010PropOp29
 70
     1
102
RTVSPost2010Prop30
280
     1
102
RTVSPost2010PropOp30
 70
     1
102
RTVSPost2010Prop31
280
     0
102
RTVSPost2010PropOp31
 70
     1
102
RTVSPost2010Prop32
280
     0
102
RTVSPost2010PropOp32
 70
     1
102
RTVSPost2010Prop33
280
     0
102
RTVSPost2010PropOp33
 70
     1
102
RTVSPost2010Prop34
280
     0
102
RTVSPost2010PropOp34
 70
     1
102
RTVSPost2010Prop35
280
     0
102
RTVSPost2010PropOp35
 70
     1
102
RTVSPost2010Prop36
280
     0
102
RTVSPost2010PropOp36
 70
     1
102
RTVSPost2010Prop37
 90
       50
102
RTVSPost2010PropOp37
 70
     1
102
RTVSPost2010Prop38
140
0.0
102
RTVSPost2010PropOp38
 70
     1
102
RTVSPost2010Prop39
140
1.0
102
RTVSPost2010PropOp39
 70
     1
102
RTVSPost2010Prop40
 90
        0
102
RTVSPost2010PropOp40
 70
     1
102
RTVSPost2010Prop41ColorIndex
 90
       18
102
RTVSPost2010Prop41ColorRGB
 90
        0
102
RTVSPost2010PropOp41
 70
     1
102
RTVSPost2010Prop42
 90
       50
102
RTVSPost2010PropOp42
 70
     1
102
RTVSPost2010Prop43
 90
        3
102
RTVSPost2010PropOp43
 70
     1
102
RTVSPost2010Prop44ColorIndex
 90
        5
102
RTVSPost2010Prop44ColorRGB
 90
      255
102
RTVSPost2010PropOp44
 70
     1
102
RTVSPost2010Prop45
280
     0
102
RTVSPost2010PropOp45
 70
     1
102
RTVSPost2010Prop46
 90
       50
102
RTVSPost2010PropOp46
 70
     1
102
RTVSPost2010Prop47
 90
       50
102
RTVSPost2010PropOp47
 70
     1
102
RTVSPost2010Prop48
 90
       50
102
RTVSPost2010PropOp48
 70
     1
102
RTVSPost2010Prop49
280
     0
102
RTVSPost2010PropOp49
 70
     1
102
RTVSPost2010Prop50
 90
       50
102
RTVSPost2010PropOp50
 70
     1
102
RTVSPost2010Prop51ColorIndex
 90
      256
102
RTVSPost2010Prop51ColorRGB
 90
-16777216
102
RTVSPost2010PropOp51
 70
     0
102
RTVSPost2010Prop52
140
1.0
102
RTVSPost2010PropOp52
 70
     0
102
RTVSPost2010Prop53
 90
        2
102
RTVSPost2010PropOp53
 70
     1
102
RTVSPost2010Prop54
  1
strokes_ogs.tif
102
RTVSPost2010PropOp54
 70
     1
102
RTVSPost2010Prop55
280
     0
102
RTVSPost2010PropOp55
 70
     1
102
RTVSPost2010Prop56
140
1.0
102
RTVSPost2010PropOp56
 70
     1
102
RTVSPost2010Prop57
140
1.0
102
RTVSPost2010PropOp57
 70
     1
102
RTVSPropertyOp0
 70
     1
102
RTVSPropertyOp1
 70
     1
102
RTVSPropertyOp2
 70
     1
102
RTVSPropertyOp3
 70
     1
102
RTVSPropertyOp4
 70
     1
102
RTVSPropertyOp5
 70
     1
102
RTVSPropertyOp6
 70
     1
102
RTVSPropertyOp7
 70
     1
102
RTVSPropertyOp8
 70
     1
102
RTVSPropertyOp9
 70
     1
102
RTVSPropertyOp10
 70
     1
102
RTVSPropertyOp11
 70
     1
102
RTVSPropertyOp12
 70
     1
102
RTVSPropertyOp13
 70
     1
102
RTVSPropertyOp14
 70
     1
102
RTVSPropertyOp15
 70
     1
102
RTVSPropertyOp16
 70
     1
102
RTVSPropertyOp17
 70
     1
102
RTVSPropertyOp18
 70
     1
102
RTVSPropertyOp19
 70
     1
102
RTVSPropertyOp20
 70
     1
102
RTVSPropertyOp21
 70
     1
102
RTVSPropertyOp22
 70
     1
102
RTVSPropertyOp23
 70
     1
102
RTVSPropertyOp24
 70
     1
102
RTVSPropertyOp25
 70
     1
102
RTVSPropertyOp26
 70
     1
102
RTVSPropertyOp27
 70
     1
102
RTVSPropertyOp28
 70
     1
102
RTVSPropertyOp29
 70
     1
102
RTVSPropertyOp30
 70
     1
102
RTVSPropertyOp31
 70
     1
102
RTVSPropertyOp32
 70
     1
102
RTVSPropertyOp33
 70
     1
102
RTVSPropertyOp34
 70
     1
102
RTVSPropertyOp35
 70
     1
102
RTVSPropertyOp36
 70
     1
102
RTVSPropertyOp37
 70
     1
102
RTVSPropertyOp38
 70
     1
102
RTVSPropertyOp39
 70
     1
102
RTVSPropertyOp40
 70
     1
102
RTVSPropertyOp41
 70
     1
102
RTVSPropertyOp42
 70
     1
102
RTVSPropertyOp43
 70
     1
102
RTVSPropertyOp44
 70
     1
102
RTVSPropertyOp45
 70
     1
102
RTVSPropertyOp46
 70
     1
102
RTVSPropertyOp47
 70
     1
102
RTVSPropertyOp48
 70
     1
102
RTVSPropertyOp49
 70
     1
102
RTVSPropertyOp50
 70
     1
102
RTVSPropertyOp51
 70
     0
102
RTVSPropertyOp52
 70
     0
102
RTVSPropertyOp53
 70
     1
102
RTVSPropertyOp54
 70
     1
102
RTVSPropertyOp55
 70
     1
102
RTVSPropertyOp56
 70
     1
102
RTVSPropertyOp57
 70
     1
102
RTVSPropertyOp58
 70
     1
102
RTVSPropertyOp59
 70
     1
102
RTVSPropertyOp60
 70
     1
102
RTVSPropertyOp61
 70
     1
102
RTVSPropertyOp62
 70
     1
  0
XRECORD
  5
DE9
102
{ACAD_REACTORS
330
DE8
102
}
330
DE8
100
AcDbXrecord
280
     1
102
RTVSPost2010Prop28
280
     0
102
RTVSPost2010PropOp28
 70
     1
102
RTVSPost2010Prop29
280
     1
102
RTVSPost2010PropOp29
 70
     1
102
RTVSPost2010Prop30
280
     1
102
RTVSPost2010PropOp30
 70
     1
102
RTVSPost2010Prop31
280
     0
102
RTVSPost2010PropOp31
 70
     1
102
RTVSPost2010Prop32
280
     0
102
RTVSPost2010PropOp32
 70
     1
102
RTVSPost2010Prop33
280
     0
102
RTVSPost2010PropOp33
 70
     1
102
RTVSPost2010Prop34
280
     0
102
RTVSPost2010PropOp34
 70
     1
102
RTVSPost2010Prop35
280
     0
102
RTVSPost2010PropOp35
 70
     1
102
RTVSPost2010Prop36
280
     0
102
RTVSPost2010PropOp36
 70
     1
102
RTVSPost2010Prop37
 90
       50
102
RTVSPost2010PropOp37
 70
     1
102
RTVSPost2010Prop38
140
0.0
102
RTVSPost2010PropOp38
 70
     1
102
RTVSPost2010Prop39
140
1.0
102
RTVSPost2010PropOp39
 70
     1
102
RTVSPost2010Prop40
 90
        0
102
RTVSPost2010PropOp40
 70
     1
102
RTVSPost2010Prop41ColorIndex
 90
       18
102
RTVSPost2010Prop41ColorRGB
 90
        0
102
RTVSPost2010PropOp41
 70
     1
102
RTVSPost2010Prop42
 90
       50
102
RTVSPost2010PropOp42
 70
     1
102
RTVSPost2010Prop43
 90
        3
102
RTVSPost2010PropOp43
 70
     1
102
RTVSPost2010Prop44ColorIndex
 90
        5
102
RTVSPost2010Prop44ColorRGB
 90
      255
102
RTVSPost2010PropOp44
 70
     1
102
RTVSPost2010Prop45
280
     0
102
RTVSPost2010PropOp45
 70
     1
102
RTVSPost2010Prop46
 90
       50
102
RTVSPost2010PropOp46
 70
     1
102
RTVSPost2010Prop47
 90
       50
102
RTVSPost2010PropOp47
 70
     1
102
RTVSPost2010Prop48
 90
       50
102
RTVSPost2010PropOp48
 70
     1
102
RTVSPost2010Prop49
280
     0
102
RTVSPost2010PropOp49
 70
     1
102
RTVSPost2010Prop50
 90
       50
102
RTVSPost2010PropOp50
 70
     1
102
RTVSPost2010Prop51ColorIndex
 90
      256
102
RTVSPost2010Prop51ColorRGB
 90
-16777216
102
RTVSPost2010PropOp51
 70
     0
102
RTVSPost2010Prop52
140
1.0
102
RTVSPost2010PropOp52
 70
     0
102
RTVSPost2010Prop53
 90
        2
102
RTVSPost2010PropOp53
 70
     1
102
RTVSPost2010Prop54
  1
strokes_ogs.tif
102
RTVSPost2010PropOp54
 70
     1
102
RTVSPost2010Prop55
280
     0
102
RTVSPost2010PropOp55
 70
     1
102
RTVSPost2010Prop56
140
1.0
102
RTVSPost2010PropOp56
 70
     1
102
RTVSPost2010Prop57
140
1.0
102
RTVSPost2010PropOp57
 70
     1
102
RTVSPropertyOp0
 70
     1
102
RTVSPropertyOp1
 70
     1
102
RTVSPropertyOp2
 70
     1
102
RTVSPropertyOp3
 70
     1
102
RTVSPropertyOp4
 70
     1
102
RTVSPropertyOp5
 70
     1
102
RTVSPropertyOp6
 70
     1
102
RTVSPropertyOp7
 70
     1
102
RTVSPropertyOp8
 70
     1
102
RTVSPropertyOp9
 70
     1
102
RTVSPropertyOp10
 70
     1
102
RTVSPropertyOp11
 70
     1
102
RTVSPropertyOp12
 70
     1
102
RTVSPropertyOp13
 70
     1
102
RTVSPropertyOp14
 70
     1
102
RTVSPropertyOp15
 70
     1
102
RTVSPropertyOp16
 70
     1
102
RTVSPropertyOp17
 70
     1
102
RTVSPropertyOp18
 70
     1
102
RTVSPropertyOp19
 70
     1
102
RTVSPropertyOp20
 70
     1
102
RTVSPropertyOp21
 70
     1
102
RTVSPropertyOp22
 70
     1
102
RTVSPropertyOp23
 70
     1
102
RTVSPropertyOp24
 70
     1
102
RTVSPropertyOp25
 70
     1
102
RTVSPropertyOp26
 70
     1
102
RTVSPropertyOp27
 70
     1
102
RTVSPropertyOp28
 70
     1
102
RTVSPropertyOp29
 70
     1
102
RTVSPropertyOp30
 70
     1
102
RTVSPropertyOp31
 70
     1
102
RTVSPropertyOp32
 70
     1
102
RTVSPropertyOp33
 70
     1
102
RTVSPropertyOp34
 70
     1
102
RTVSPropertyOp35
 70
     1
102
RTVSPropertyOp36
 70
     1
102
RTVSPropertyOp37
 70
     1
102
RTVSPropertyOp38
 70
     1
102
RTVSPropertyOp39
 70
     1
102
RTVSPropertyOp40
 70
     1
102
RTVSPropertyOp41
 70
     1
102
RTVSPropertyOp42
 70
     1
102
RTVSPropertyOp43
 70
     1
102
RTVSPropertyOp44
 70
     1
102
RTVSPropertyOp45
 70
     1
102
RTVSPropertyOp46
 70
     1
102
RTVSPropertyOp47
 70
     1
102
RTVSPropertyOp48
 70
     1
102
RTVSPropertyOp49
 70
     1
102
RTVSPropertyOp50
 70
     1
102
RTVSPropertyOp51
 70
     0
102
RTVSPropertyOp52
 70
     0
102
RTVSPropertyOp53
 70
     1
102
RTVSPropertyOp54
 70
     1
102
RTVSPropertyOp55
 70
     1
102
RTVSPropertyOp56
 70
     1
102
RTVSPropertyOp57
 70
     1
102
RTVSPropertyOp58
 70
     1
102
RTVSPropertyOp59
 70
     1
102
RTVSPropertyOp60
 70
     1
102
RTVSPropertyOp61
 70
     1
102
RTVSPropertyOp62
 70
     1
  0
XRECORD
  5
DDB
102
{ACAD_REACTORS
330
DDA
102
}
330
DDA
100
AcDbXrecord
280
     1
102
RTVSPost2010Prop28
280
     0
102
RTVSPost2010PropOp28
 70
     1
102
RTVSPost2010Prop29
280
     1
102
RTVSPost2010PropOp29
 70
     1
102
RTVSPost2010Prop30
280
     1
102
RTVSPost2010PropOp30
 70
     1
102
RTVSPost2010Prop31
280
     0
102
RTVSPost2010PropOp31
 70
     1
102
RTVSPost2010Prop32
280
     0
102
RTVSPost2010PropOp32
 70
     1
102
RTVSPost2010Prop33
280
     0
102
RTVSPost2010PropOp33
 70
     1
102
RTVSPost2010Prop34
280
     0
102
RTVSPost2010PropOp34
 70
     1
102
RTVSPost2010Prop35
280
     0
102
RTVSPost2010PropOp35
 70
     1
102
RTVSPost2010Prop36
280
     0
102
RTVSPost2010PropOp36
 70
     1
102
RTVSPost2010Prop37
 90
       50
102
RTVSPost2010PropOp37
 70
     1
102
RTVSPost2010Prop38
140
0.0
102
RTVSPost2010PropOp38
 70
     1
102
RTVSPost2010Prop39
140
1.0
102
RTVSPost2010PropOp39
 70
     1
102
RTVSPost2010Prop40
 90
        0
102
RTVSPost2010PropOp40
 70
     1
102
RTVSPost2010Prop41ColorIndex
 90
       18
102
RTVSPost2010Prop41ColorRGB
 90
        0
102
RTVSPost2010PropOp41
 70
     1
102
RTVSPost2010Prop42
 90
       50
102
RTVSPost2010PropOp42
 70
     1
102
RTVSPost2010Prop43
 90
        3
102
RTVSPost2010PropOp43
 70
     1
102
RTVSPost2010Prop44ColorIndex
 90
        5
102
RTVSPost2010Prop44ColorRGB
 90
      255
102
RTVSPost2010PropOp44
 70
     1
102
RTVSPost2010Prop45
280
     0
102
RTVSPost2010PropOp45
 70
     1
102
RTVSPost2010Prop46
 90
       50
102
RTVSPost2010PropOp46
 70
     1
102
RTVSPost2010Prop47
 90
       50
102
RTVSPost2010PropOp47
 70
     1
102
RTVSPost2010Prop48
 90
       50
102
RTVSPost2010PropOp48
 70
     1
102
RTVSPost2010Prop49
280
     0
102
RTVSPost2010PropOp49
 70
     1
102
RTVSPost2010Prop50
 90
       50
102
RTVSPost2010PropOp50
 70
     1
102
RTVSPost2010Prop51ColorIndex
 90
      256
102
RTVSPost2010Prop51ColorRGB
 90
-16777216
102
RTVSPost2010PropOp51
 70
     0
102
RTVSPost2010Prop52
140
1.0
102
RTVSPost2010PropOp52
 70
     0
102
RTVSPost2010Prop53
 90
        2
102
RTVSPost2010PropOp53
 70
     1
102
RTVSPost2010Prop54
  1
strokes_ogs.tif
102
RTVSPost2010PropOp54
 70
     1
102
RTVSPost2010Prop55
280
     0
102
RTVSPost2010PropOp55
 70
     1
102
RTVSPost2010Prop56
140
1.0
102
RTVSPost2010PropOp56
 70
     1
102
RTVSPost2010Prop57
140
1.0
102
RTVSPost2010PropOp57
 70
     1
102
RTVSPropertyOp0
 70
     1
102
RTVSPropertyOp1
 70
     1
102
RTVSPropertyOp2
 70
     1
102
RTVSPropertyOp3
 70
     1
102
RTVSPropertyOp4
 70
     1
102
RTVSPropertyOp5
 70
     1
102
RTVSPropertyOp6
 70
     1
102
RTVSPropertyOp7
 70
     1
102
RTVSPropertyOp8
 70
     1
102
RTVSPropertyOp9
 70
     1
102
RTVSPropertyOp10
 70
     1
102
RTVSPropertyOp11
 70
     1
102
RTVSPropertyOp12
 70
     1
102
RTVSPropertyOp13
 70
     1
102
RTVSPropertyOp14
 70
     1
102
RTVSPropertyOp15
 70
     1
102
RTVSPropertyOp16
 70
     1
102
RTVSPropertyOp17
 70
     1
102
RTVSPropertyOp18
 70
     1
102
RTVSPropertyOp19
 70
     1
102
RTVSPropertyOp20
 70
     1
102
RTVSPropertyOp21
 70
     1
102
RTVSPropertyOp22
 70
     1
102
RTVSPropertyOp23
 70
     1
102
RTVSPropertyOp24
 70
     1
102
RTVSPropertyOp25
 70
     1
102
RTVSPropertyOp26
 70
     1
102
RTVSPropertyOp27
 70
     1
102
RTVSPropertyOp28
 70
     1
102
RTVSPropertyOp29
 70
     1
102
RTVSPropertyOp30
 70
     1
102
RTVSPropertyOp31
 70
     1
102
RTVSPropertyOp32
 70
     1
102
RTVSPropertyOp33
 70
     1
102
RTVSPropertyOp34
 70
     1
102
RTVSPropertyOp35
 70
     1
102
RTVSPropertyOp36
 70
     1
102
RTVSPropertyOp37
 70
     1
102
RTVSPropertyOp38
 70
     1
102
RTVSPropertyOp39
 70
     1
102
RTVSPropertyOp40
 70
     1
102
RTVSPropertyOp41
 70
     1
102
RTVSPropertyOp42
 70
     1
102
RTVSPropertyOp43
 70
     1
102
RTVSPropertyOp44
 70
     1
102
RTVSPropertyOp45
 70
     1
102
RTVSPropertyOp46
 70
     1
102
RTVSPropertyOp47
 70
     1
102
RTVSPropertyOp48
 70
     1
102
RTVSPropertyOp49
 70
     1
102
RTVSPropertyOp50
 70
     1
102
RTVSPropertyOp51
 70
     0
102
RTVSPropertyOp52
 70
     0
102
RTVSPropertyOp53
 70
     1
102
RTVSPropertyOp54
 70
     1
102
RTVSPropertyOp55
 70
     1
102
RTVSPropertyOp56
 70
     1
102
RTVSPropertyOp57
 70
     1
102
RTVSPropertyOp58
 70
     1
102
RTVSPropertyOp59
 70
     1
102
RTVSPropertyOp60
 70
     1
102
RTVSPropertyOp61
 70
     1
102
RTVSPropertyOp62
 70
     1
  0
XRECORD
  5
DDF
102
{ACAD_REACTORS
330
DDE
102
}
330
DDE
100
AcDbXrecord
280
     1
102
RTVSPost2010Prop28
280
     0
102
RTVSPost2010PropOp28
 70
     1
102
RTVSPost2010Prop29
280
     1
102
RTVSPost2010PropOp29
 70
     1
102
RTVSPost2010Prop30
280
     1
102
RTVSPost2010PropOp30
 70
     1
102
RTVSPost2010Prop31
280
     0
102
RTVSPost2010PropOp31
 70
     1
102
RTVSPost2010Prop32
280
     0
102
RTVSPost2010PropOp32
 70
     1
102
RTVSPost2010Prop33
280
     0
102
RTVSPost2010PropOp33
 70
     1
102
RTVSPost2010Prop34
280
     0
102
RTVSPost2010PropOp34
 70
     1
102
RTVSPost2010Prop35
280
     0
102
RTVSPost2010PropOp35
 70
     1
102
RTVSPost2010Prop36
280
     0
102
RTVSPost2010PropOp36
 70
     1
102
RTVSPost2010Prop37
 90
       50
102
RTVSPost2010PropOp37
 70
     1
102
RTVSPost2010Prop38
140
0.0
102
RTVSPost2010PropOp38
 70
     1
102
RTVSPost2010Prop39
140
1.0
102
RTVSPost2010PropOp39
 70
     1
102
RTVSPost2010Prop40
 90
        0
102
RTVSPost2010PropOp40
 70
     1
102
RTVSPost2010Prop41ColorIndex
 90
       18
102
RTVSPost2010Prop41ColorRGB
 90
        0
102
RTVSPost2010PropOp41
 70
     1
102
RTVSPost2010Prop42
 90
       50
102
RTVSPost2010PropOp42
 70
     1
102
RTVSPost2010Prop43
 90
        3
102
RTVSPost2010PropOp43
 70
     1
102
RTVSPost2010Prop44ColorIndex
 90
        5
102
RTVSPost2010Prop44ColorRGB
 90
      255
102
RTVSPost2010PropOp44
 70
     1
102
RTVSPost2010Prop45
280
     0
102
RTVSPost2010PropOp45
 70
     1
102
RTVSPost2010Prop46
 90
       50
102
RTVSPost2010PropOp46
 70
     1
102
RTVSPost2010Prop47
 90
       50
102
RTVSPost2010PropOp47
 70
     1
102
RTVSPost2010Prop48
 90
       50
102
RTVSPost2010PropOp48
 70
     1
102
RTVSPost2010Prop49
280
     0
102
RTVSPost2010PropOp49
 70
     1
102
RTVSPost2010Prop50
 90
       50
102
RTVSPost2010PropOp50
 70
     1
102
RTVSPost2010Prop51ColorIndex
 90
      256
102
RTVSPost2010Prop51ColorRGB
 90
-16777216
102
RTVSPost2010PropOp51
 70
     0
102
RTVSPost2010Prop52
140
1.0
102
RTVSPost2010PropOp52
 70
     0
102
RTVSPost2010Prop53
 90
        2
102
RTVSPost2010PropOp53
 70
     1
102
RTVSPost2010Prop54
  1
strokes_ogs.tif
102
RTVSPost2010PropOp54
 70
     1
102
RTVSPost2010Prop55
280
     0
102
RTVSPost2010PropOp55
 70
     1
102
RTVSPost2010Prop56
140
1.0
102
RTVSPost2010PropOp56
 70
     1
102
RTVSPost2010Prop57
140
1.0
102
RTVSPost2010PropOp57
 70
     1
102
RTVSPropertyOp0
 70
     1
102
RTVSPropertyOp1
 70
     1
102
RTVSPropertyOp2
 70
     1
102
RTVSPropertyOp3
 70
     1
102
RTVSPropertyOp4
 70
     1
102
RTVSPropertyOp5
 70
     1
102
RTVSPropertyOp6
 70
     1
102
RTVSPropertyOp7
 70
     1
102
RTVSPropertyOp8
 70
     1
102
RTVSPropertyOp9
 70
     1
102
RTVSPropertyOp10
 70
     1
102
RTVSPropertyOp11
 70
     1
102
RTVSPropertyOp12
 70
     1
102
RTVSPropertyOp13
 70
     1
102
RTVSPropertyOp14
 70
     1
102
RTVSPropertyOp15
 70
     1
102
RTVSPropertyOp16
 70
     1
102
RTVSPropertyOp17
 70
     1
102
RTVSPropertyOp18
 70
     1
102
RTVSPropertyOp19
 70
     1
102
RTVSPropertyOp20
 70
     1
102
RTVSPropertyOp21
 70
     1
102
RTVSPropertyOp22
 70
     1
102
RTVSPropertyOp23
 70
     1
102
RTVSPropertyOp24
 70
     1
102
RTVSPropertyOp25
 70
     1
102
RTVSPropertyOp26
 70
     1
102
RTVSPropertyOp27
 70
     1
102
RTVSPropertyOp28
 70
     1
102
RTVSPropertyOp29
 70
     1
102
RTVSPropertyOp30
 70
     1
102
RTVSPropertyOp31
 70
     1
102
RTVSPropertyOp32
 70
     1
102
RTVSPropertyOp33
 70
     1
102
RTVSPropertyOp34
 70
     1
102
RTVSPropertyOp35
 70
     1
102
RTVSPropertyOp36
 70
     1
102
RTVSPropertyOp37
 70
     1
102
RTVSPropertyOp38
 70
     1
102
RTVSPropertyOp39
 70
     1
102
RTVSPropertyOp40
 70
     1
102
RTVSPropertyOp41
 70
     1
102
RTVSPropertyOp42
 70
     1
102
RTVSPropertyOp43
 70
     1
102
RTVSPropertyOp44
 70
     1
102
RTVSPropertyOp45
 70
     1
102
RTVSPropertyOp46
 70
     1
102
RTVSPropertyOp47
 70
     1
102
RTVSPropertyOp48
 70
     1
102
RTVSPropertyOp49
 70
     1
102
RTVSPropertyOp50
 70
     1
102
RTVSPropertyOp51
 70
     0
102
RTVSPropertyOp52
 70
     0
102
RTVSPropertyOp53
 70
     1
102
RTVSPropertyOp54
 70
     1
102
RTVSPropertyOp55
 70
     1
102
RTVSPropertyOp56
 70
     1
102
RTVSPropertyOp57
 70
     1
102
RTVSPropertyOp58
 70
     1
102
RTVSPropertyOp59
 70
     1
102
RTVSPropertyOp60
 70
     1
102
RTVSPropertyOp61
 70
     1
102
RTVSPropertyOp62
 70
     1
  0
XRECORD
  5
DF9
102
{ACAD_REACTORS
330
DF8
102
}
330
DF8
100
AcDbXrecord
280
     1
102
RTVSPost2010Prop28
280
     0
102
RTVSPost2010PropOp28
 70
     1
102
RTVSPost2010Prop29
280
     1
102
RTVSPost2010PropOp29
 70
     1
102
RTVSPost2010Prop30
280
     1
102
RTVSPost2010PropOp30
 70
     1
102
RTVSPost2010Prop31
280
     0
102
RTVSPost2010PropOp31
 70
     1
102
RTVSPost2010Prop32
280
     0
102
RTVSPost2010PropOp32
 70
     1
102
RTVSPost2010Prop33
280
     0
102
RTVSPost2010PropOp33
 70
     1
102
RTVSPost2010Prop34
280
     0
102
RTVSPost2010PropOp34
 70
     1
102
RTVSPost2010Prop35
280
     0
102
RTVSPost2010PropOp35
 70
     1
102
RTVSPost2010Prop36
280
     0
102
RTVSPost2010PropOp36
 70
     1
102
RTVSPost2010Prop37
 90
       50
102
RTVSPost2010PropOp37
 70
     0
102
RTVSPost2010Prop38
140
0.0
102
RTVSPost2010PropOp38
 70
     0
102
RTVSPost2010Prop39
140
1.0
102
RTVSPost2010PropOp39
 70
     0
102
RTVSPost2010Prop40
 90
        0
102
RTVSPost2010PropOp40
 70
     0
102
RTVSPost2010Prop41ColorIndex
 90
       18
102
RTVSPost2010Prop41ColorRGB
 90
        0
102
RTVSPost2010PropOp41
 70
     0
102
RTVSPost2010Prop42
 90
       50
102
RTVSPost2010PropOp42
 70
     0
102
RTVSPost2010Prop43
 90
        3
102
RTVSPost2010PropOp43
 70
     0
102
RTVSPost2010Prop44ColorIndex
 90
        5
102
RTVSPost2010Prop44ColorRGB
 90
      255
102
RTVSPost2010PropOp44
 70
     0
102
RTVSPost2010Prop45
280
     0
102
RTVSPost2010PropOp45
 70
     1
102
RTVSPost2010Prop46
 90
       50
102
RTVSPost2010PropOp46
 70
     0
102
RTVSPost2010Prop47
 90
       50
102
RTVSPost2010PropOp47
 70
     0
102
RTVSPost2010Prop48
 90
       50
102
RTVSPost2010PropOp48
 70
     0
102
RTVSPost2010Prop49
280
     0
102
RTVSPost2010PropOp49
 70
     1
102
RTVSPost2010Prop50
 90
       50
102
RTVSPost2010PropOp50
 70
     0
102
RTVSPost2010Prop51ColorIndex
 90
      256
102
RTVSPost2010Prop51ColorRGB
 90
-16777216
102
RTVSPost2010PropOp51
 70
     0
102
RTVSPost2010Prop52
140
1.0
102
RTVSPost2010PropOp52
 70
     0
102
RTVSPost2010Prop53
 90
        2
102
RTVSPost2010PropOp53
 70
     0
102
RTVSPost2010Prop54
  1
strokes_ogs.tif
102
RTVSPost2010PropOp54
 70
     0
102
RTVSPost2010Prop55
280
     0
102
RTVSPost2010PropOp55
 70
     1
102
RTVSPost2010Prop56
140
1.0
102
RTVSPost2010PropOp56
 70
     0
102
RTVSPost2010Prop57
140
1.0
102
RTVSPost2010PropOp57
 70
     0
102
RTVSPropertyOp0
 70
     0
102
RTVSPropertyOp1
 70
     0
102
RTVSPropertyOp2
 70
     0
102
RTVSPropertyOp3
 70
     0
102
RTVSPropertyOp4
 70
     0
102
RTVSPropertyOp5
 70
     0
102
RTVSPropertyOp6
 70
     0
102
RTVSPropertyOp7
 70
     0
102
RTVSPropertyOp8
 70
     0
102
RTVSPropertyOp9
 70
     0
102
RTVSPropertyOp10
 70
     0
102
RTVSPropertyOp11
 70
     0
102
RTVSPropertyOp12
 70
     0
102
RTVSPropertyOp13
 70
     0
102
RTVSPropertyOp14
 70
     2
102
RTVSPropertyOp15
 70
     0
102
RTVSPropertyOp16
 70
     0
102
RTVSPropertyOp17
 70
     0
102
RTVSPropertyOp18
 70
     0
102
RTVSPropertyOp19
 70
     0
102
RTVSPropertyOp20
 70
     0
102
RTVSPropertyOp21
 70
     0
102
RTVSPropertyOp22
 70
     0
102
RTVSPropertyOp23
 70
     0
102
RTVSPropertyOp24
 70
     0
102
RTVSPropertyOp25
 70
     0
102
RTVSPropertyOp26
 70
     0
102
RTVSPropertyOp27
 70
     0
102
RTVSPropertyOp28
 70
     1
102
RTVSPropertyOp29
 70
     1
102
RTVSPropertyOp30
 70
     1
102
RTVSPropertyOp31
 70
     1
102
RTVSPropertyOp32
 70
     1
102
RTVSPropertyOp33
 70
     1
102
RTVSPropertyOp34
 70
     1
102
RTVSPropertyOp35
 70
     1
102
RTVSPropertyOp36
 70
     1
102
RTVSPropertyOp37
 70
     0
102
RTVSPropertyOp38
 70
     0
102
RTVSPropertyOp39
 70
     0
102
RTVSPropertyOp40
 70
     0
102
RTVSPropertyOp41
 70
     0
102
RTVSPropertyOp42
 70
     0
102
RTVSPropertyOp43
 70
     0
102
RTVSPropertyOp44
 70
     0
102
RTVSPropertyOp45
 70
     1
102
RTVSPropertyOp46
 70
     0
102
RTVSPropertyOp47
 70
     0
102
RTVSPropertyOp48
 70
     0
102
RTVSPropertyOp49
 70
     1
102
RTVSPropertyOp50
 70
     0
102
RTVSPropertyOp51
 70
     0
102
RTVSPropertyOp52
 70
     0
102
RTVSPropertyOp53
 70
     0
102
RTVSPropertyOp54
 70
     0
102
RTVSPropertyOp55
 70
     1
102
RTVSPropertyOp56
 70
     0
102
RTVSPropertyOp57
 70
     0
102
RTVSPropertyOp58
 70
     0
102
RTVSPropertyOp59
 70
     0
102
RTVSPropertyOp60
 70
     0
102
RTVSPropertyOp61
 70
     0
102
RTVSPropertyOp62
 70
     0
  0
XRECORD
  5
DE7
102
{ACAD_REACTORS
330
DE6
102
}
330
DE6
100
AcDbXrecord
280
     1
102
RTVSPost2010Prop28
280
     0
102
RTVSPost2010PropOp28
 70
     1
102
RTVSPost2010Prop29
280
     1
102
RTVSPost2010PropOp29
 70
     1
102
RTVSPost2010Prop30
280
     1
102
RTVSPost2010PropOp30
 70
     1
102
RTVSPost2010Prop31
280
     0
102
RTVSPost2010PropOp31
 70
     1
102
RTVSPost2010Prop32
280
     0
102
RTVSPost2010PropOp32
 70
     1
102
RTVSPost2010Prop33
280
     0
102
RTVSPost2010PropOp33
 70
     1
102
RTVSPost2010Prop34
280
     0
102
RTVSPost2010PropOp34
 70
     1
102
RTVSPost2010Prop35
280
     0
102
RTVSPost2010PropOp35
 70
     1
102
RTVSPost2010Prop36
280
     0
102
RTVSPost2010PropOp36
 70
     1
102
RTVSPost2010Prop37
 90
       50
102
RTVSPost2010PropOp37
 70
     1
102
RTVSPost2010Prop38
140
0.0
102
RTVSPost2010PropOp38
 70
     1
102
RTVSPost2010Prop39
140
1.0
102
RTVSPost2010PropOp39
 70
     1
102
RTVSPost2010Prop40
 90
        0
102
RTVSPost2010PropOp40
 70
     1
102
RTVSPost2010Prop41ColorIndex
 90
       18
102
RTVSPost2010Prop41ColorRGB
 90
        0
102
RTVSPost2010PropOp41
 70
     1
102
RTVSPost2010Prop42
 90
       50
102
RTVSPost2010PropOp42
 70
     1
102
RTVSPost2010Prop43
 90
        3
102
RTVSPost2010PropOp43
 70
     1
102
RTVSPost2010Prop44ColorIndex
 90
        5
102
RTVSPost2010Prop44ColorRGB
 90
      255
102
RTVSPost2010PropOp44
 70
     1
102
RTVSPost2010Prop45
280
     0
102
RTVSPost2010PropOp45
 70
     1
102
RTVSPost2010Prop46
 90
       50
102
RTVSPost2010PropOp46
 70
     1
102
RTVSPost2010Prop47
 90
       50
102
RTVSPost2010PropOp47
 70
     1
102
RTVSPost2010Prop48
 90
       50
102
RTVSPost2010PropOp48
 70
     1
102
RTVSPost2010Prop49
280
     0
102
RTVSPost2010PropOp49
 70
     1
102
RTVSPost2010Prop50
 90
       50
102
RTVSPost2010PropOp50
 70
     1
102
RTVSPost2010Prop51ColorIndex
 90
      256
102
RTVSPost2010Prop51ColorRGB
 90
-16777216
102
RTVSPost2010PropOp51
 70
     0
102
RTVSPost2010Prop52
140
1.0
102
RTVSPost2010PropOp52
 70
     0
102
RTVSPost2010Prop53
 90
        2
102
RTVSPost2010PropOp53
 70
     1
102
RTVSPost2010Prop54
  1
strokes_ogs.tif
102
RTVSPost2010PropOp54
 70
     1
102
RTVSPost2010Prop55
280
     0
102
RTVSPost2010PropOp55
 70
     1
102
RTVSPost2010Prop56
140
1.0
102
RTVSPost2010PropOp56
 70
     1
102
RTVSPost2010Prop57
140
1.0
102
RTVSPost2010PropOp57
 70
     1
102
RTVSPropertyOp0
 70
     1
102
RTVSPropertyOp1
 70
     1
102
RTVSPropertyOp2
 70
     1
102
RTVSPropertyOp3
 70
     1
102
RTVSPropertyOp4
 70
     1
102
RTVSPropertyOp5
 70
     1
102
RTVSPropertyOp6
 70
     1
102
RTVSPropertyOp7
 70
     1
102
RTVSPropertyOp8
 70
     1
102
RTVSPropertyOp9
 70
     1
102
RTVSPropertyOp10
 70
     1
102
RTVSPropertyOp11
 70
     1
102
RTVSPropertyOp12
 70
     1
102
RTVSPropertyOp13
 70
     1
102
RTVSPropertyOp14
 70
     1
102
RTVSPropertyOp15
 70
     1
102
RTVSPropertyOp16
 70
     1
102
RTVSPropertyOp17
 70
     1
102
RTVSPropertyOp18
 70
     1
102
RTVSPropertyOp19
 70
     1
102
RTVSPropertyOp20
 70
     1
102
RTVSPropertyOp21
 70
     1
102
RTVSPropertyOp22
 70
     1
102
RTVSPropertyOp23
 70
     1
102
RTVSPropertyOp24
 70
     1
102
RTVSPropertyOp25
 70
     1
102
RTVSPropertyOp26
 70
     1
102
RTVSPropertyOp27
 70
     1
102
RTVSPropertyOp28
 70
     1
102
RTVSPropertyOp29
 70
     1
102
RTVSPropertyOp30
 70
     1
102
RTVSPropertyOp31
 70
     1
102
RTVSPropertyOp32
 70
     1
102
RTVSPropertyOp33
 70
     1
102
RTVSPropertyOp34
 70
     1
102
RTVSPropertyOp35
 70
     1
102
RTVSPropertyOp36
 70
     1
102
RTVSPropertyOp37
 70
     1
102
RTVSPropertyOp38
 70
     1
102
RTVSPropertyOp39
 70
     1
102
RTVSPropertyOp40
 70
     1
102
RTVSPropertyOp41
 70
     1
102
RTVSPropertyOp42
 70
     1
102
RTVSPropertyOp43
 70
     1
102
RTVSPropertyOp44
 70
     1
102
RTVSPropertyOp45
 70
     1
102
RTVSPropertyOp46
 70
     1
102
RTVSPropertyOp47
 70
     1
102
RTVSPropertyOp48
 70
     1
102
RTVSPropertyOp49
 70
     1
102
RTVSPropertyOp50
 70
     1
102
RTVSPropertyOp51
 70
     0
102
RTVSPropertyOp52
 70
     0
102
RTVSPropertyOp53
 70
     1
102
RTVSPropertyOp54
 70
     1
102
RTVSPropertyOp55
 70
     1
102
RTVSPropertyOp56
 70
     1
102
RTVSPropertyOp57
 70
     1
102
RTVSPropertyOp58
 70
     1
102
RTVSPropertyOp59
 70
     1
102
RTVSPropertyOp60
 70
     1
102
RTVSPropertyOp61
 70
     1
102
RTVSPropertyOp62
 70
     1
  0
XRECORD
  5
DCB
102
{ACAD_REACTORS
330
DCA
102
}
330
DCA
100
AcDbXrecord
280
     1
102
RTVSPost2010Prop28
280
     0
102
RTVSPost2010PropOp28
 70
     1
102
RTVSPost2010Prop29
280
     1
102
RTVSPost2010PropOp29
 70
     1
102
RTVSPost2010Prop30
280
     1
102
RTVSPost2010PropOp30
 70
     1
102
RTVSPost2010Prop31
280
     0
102
RTVSPost2010PropOp31
 70
     1
102
RTVSPost2010Prop32
280
     0
102
RTVSPost2010PropOp32
 70
     1
102
RTVSPost2010Prop33
280
     0
102
RTVSPost2010PropOp33
 70
     1
102
RTVSPost2010Prop34
280
     0
102
RTVSPost2010PropOp34
 70
     1
102
RTVSPost2010Prop35
280
     0
102
RTVSPost2010PropOp35
 70
     1
102
RTVSPost2010Prop36
280
     0
102
RTVSPost2010PropOp36
 70
     1
102
RTVSPost2010Prop37
 90
       50
102
RTVSPost2010PropOp37
 70
     1
102
RTVSPost2010Prop38
140
0.0
102
RTVSPost2010PropOp38
 70
     1
102
RTVSPost2010Prop39
140
1.0
102
RTVSPost2010PropOp39
 70
     1
102
RTVSPost2010Prop40
 90
        0
102
RTVSPost2010PropOp40
 70
     1
102
RTVSPost2010Prop41ColorIndex
 90
       18
102
RTVSPost2010Prop41ColorRGB
 90
        0
102
RTVSPost2010PropOp41
 70
     1
102
RTVSPost2010Prop42
 90
       50
102
RTVSPost2010PropOp42
 70
     1
102
RTVSPost2010Prop43
 90
        3
102
RTVSPost2010PropOp43
 70
     1
102
RTVSPost2010Prop44ColorIndex
 90
        5
102
RTVSPost2010Prop44ColorRGB
 90
      255
102
RTVSPost2010PropOp44
 70
     1
102
RTVSPost2010Prop45
280
     0
102
RTVSPost2010PropOp45
 70
     1
102
RTVSPost2010Prop46
 90
       50
102
RTVSPost2010PropOp46
 70
     1
102
RTVSPost2010Prop47
 90
       50
102
RTVSPost2010PropOp47
 70
     1
102
RTVSPost2010Prop48
 90
       50
102
RTVSPost2010PropOp48
 70
     1
102
RTVSPost2010Prop49
280
     0
102
RTVSPost2010PropOp49
 70
     1
102
RTVSPost2010Prop50
 90
       50
102
RTVSPost2010PropOp50
 70
     1
102
RTVSPost2010Prop51ColorIndex
 90
      256
102
RTVSPost2010Prop51ColorRGB
 90
-16777216
102
RTVSPost2010PropOp51
 70
     0
102
RTVSPost2010Prop52
140
1.0
102
RTVSPost2010PropOp52
 70
     0
102
RTVSPost2010Prop53
 90
        2
102
RTVSPost2010PropOp53
 70
     1
102
RTVSPost2010Prop54
  1
strokes_ogs.tif
102
RTVSPost2010PropOp54
 70
     1
102
RTVSPost2010Prop55
280
     0
102
RTVSPost2010PropOp55
 70
     1
102
RTVSPost2010Prop56
140
1.0
102
RTVSPost2010PropOp56
 70
     1
102
RTVSPost2010Prop57
140
1.0
102
RTVSPost2010PropOp57
 70
     1
102
RTVSPropertyOp0
 70
     1
102
RTVSPropertyOp1
 70
     1
102
RTVSPropertyOp2
 70
     1
102
RTVSPropertyOp3
 70
     1
102
RTVSPropertyOp4
 70
     1
102
RTVSPropertyOp5
 70
     1
102
RTVSPropertyOp6
 70
     1
102
RTVSPropertyOp7
 70
     1
102
RTVSPropertyOp8
 70
     1
102
RTVSPropertyOp9
 70
     1
102
RTVSPropertyOp10
 70
     1
102
RTVSPropertyOp11
 70
     1
102
RTVSPropertyOp12
 70
     1
102
RTVSPropertyOp13
 70
     1
102
RTVSPropertyOp14
 70
     1
102
RTVSPropertyOp15
 70
     1
102
RTVSPropertyOp16
 70
     1
102
RTVSPropertyOp17
 70
     1
102
RTVSPropertyOp18
 70
     1
102
RTVSPropertyOp19
 70
     1
102
RTVSPropertyOp20
 70
     1
102
RTVSPropertyOp21
 70
     1
102
RTVSPropertyOp22
 70
     1
102
RTVSPropertyOp23
 70
     1
102
RTVSPropertyOp24
 70
     1
102
RTVSPropertyOp25
 70
     1
102
RTVSPropertyOp26
 70
     1
102
RTVSPropertyOp27
 70
     1
102
RTVSPropertyOp28
 70
     1
102
RTVSPropertyOp29
 70
     1
102
RTVSPropertyOp30
 70
     1
102
RTVSPropertyOp31
 70
     1
102
RTVSPropertyOp32
 70
     1
102
RTVSPropertyOp33
 70
     1
102
RTVSPropertyOp34
 70
     1
102
RTVSPropertyOp35
 70
     1
102
RTVSPropertyOp36
 70
     1
102
RTVSPropertyOp37
 70
     1
102
RTVSPropertyOp38
 70
     1
102
RTVSPropertyOp39
 70
     1
102
RTVSPropertyOp40
 70
     1
102
RTVSPropertyOp41
 70
     1
102
RTVSPropertyOp42
 70
     1
102
RTVSPropertyOp43
 70
     1
102
RTVSPropertyOp44
 70
     1
102
RTVSPropertyOp45
 70
     1
102
RTVSPropertyOp46
 70
     1
102
RTVSPropertyOp47
 70
     1
102
RTVSPropertyOp48
 70
     1
102
RTVSPropertyOp49
 70
     1
102
RTVSPropertyOp50
 70
     1
102
RTVSPropertyOp51
 70
     0
102
RTVSPropertyOp52
 70
     0
102
RTVSPropertyOp53
 70
     1
102
RTVSPropertyOp54
 70
     1
102
RTVSPropertyOp55
 70
     1
102
RTVSPropertyOp56
 70
     1
102
RTVSPropertyOp57
 70
     1
102
RTVSPropertyOp58
 70
     1
102
RTVSPropertyOp59
 70
     1
102
RTVSPropertyOp60
 70
     1
102
RTVSPropertyOp61
 70
     1
102
RTVSPropertyOp62
 70
     1
  0
XRECORD
  5
DCD
102
{ACAD_REACTORS
330
DCC
102
}
330
DCC
100
AcDbXrecord
280
     1
102
RTVSPost2010Prop28
280
     0
102
RTVSPost2010PropOp28
 70
     1
102
RTVSPost2010Prop29
280
     1
102
RTVSPost2010PropOp29
 70
     1
102
RTVSPost2010Prop30
280
     1
102
RTVSPost2010PropOp30
 70
     1
102
RTVSPost2010Prop31
280
     0
102
RTVSPost2010PropOp31
 70
     1
102
RTVSPost2010Prop32
280
     0
102
RTVSPost2010PropOp32
 70
     1
102
RTVSPost2010Prop33
280
     0
102
RTVSPost2010PropOp33
 70
     1
102
RTVSPost2010Prop34
280
     0
102
RTVSPost2010PropOp34
 70
     1
102
RTVSPost2010Prop35
280
     0
102
RTVSPost2010PropOp35
 70
     1
102
RTVSPost2010Prop36
280
     0
102
RTVSPost2010PropOp36
 70
     1
102
RTVSPost2010Prop37
 90
       50
102
RTVSPost2010PropOp37
 70
     1
102
RTVSPost2010Prop38
140
0.0
102
RTVSPost2010PropOp38
 70
     1
102
RTVSPost2010Prop39
140
1.0
102
RTVSPost2010PropOp39
 70
     1
102
RTVSPost2010Prop40
 90
        0
102
RTVSPost2010PropOp40
 70
     1
102
RTVSPost2010Prop41ColorIndex
 90
       18
102
RTVSPost2010Prop41ColorRGB
 90
        0
102
RTVSPost2010PropOp41
 70
     1
102
RTVSPost2010Prop42
 90
       50
102
RTVSPost2010PropOp42
 70
     1
102
RTVSPost2010Prop43
 90
        3
102
RTVSPost2010PropOp43
 70
     1
102
RTVSPost2010Prop44ColorIndex
 90
        5
102
RTVSPost2010Prop44ColorRGB
 90
      255
102
RTVSPost2010PropOp44
 70
     1
102
RTVSPost2010Prop45
280
     0
102
RTVSPost2010PropOp45
 70
     1
102
RTVSPost2010Prop46
 90
       50
102
RTVSPost2010PropOp46
 70
     1
102
RTVSPost2010Prop47
 90
       50
102
RTVSPost2010PropOp47
 70
     1
102
RTVSPost2010Prop48
 90
       50
102
RTVSPost2010PropOp48
 70
     1
102
RTVSPost2010Prop49
280
     0
102
RTVSPost2010PropOp49
 70
     1
102
RTVSPost2010Prop50
 90
       50
102
RTVSPost2010PropOp50
 70
     1
102
RTVSPost2010Prop51ColorIndex
 90
      256
102
RTVSPost2010Prop51ColorRGB
 90
-16777216
102
RTVSPost2010PropOp51
 70
     0
102
RTVSPost2010Prop52
140
1.0
102
RTVSPost2010PropOp52
 70
     0
102
RTVSPost2010Prop53
 90
        2
102
RTVSPost2010PropOp53
 70
     1
102
RTVSPost2010Prop54
  1
strokes_ogs.tif
102
RTVSPost2010PropOp54
 70
     1
102
RTVSPost2010Prop55
280
     0
102
RTVSPost2010PropOp55
 70
     1
102
RTVSPost2010Prop56
140
1.0
102
RTVSPost2010PropOp56
 70
     1
102
RTVSPost2010Prop57
140
1.0
102
RTVSPost2010PropOp57
 70
     1
102
RTVSPropertyOp0
 70
     1
102
RTVSPropertyOp1
 70
     1
102
RTVSPropertyOp2
 70
     1
102
RTVSPropertyOp3
 70
     1
102
RTVSPropertyOp4
 70
     1
102
RTVSPropertyOp5
 70
     1
102
RTVSPropertyOp6
 70
     1
102
RTVSPropertyOp7
 70
     1
102
RTVSPropertyOp8
 70
     1
102
RTVSPropertyOp9
 70
     1
102
RTVSPropertyOp10
 70
     1
102
RTVSPropertyOp11
 70
     1
102
RTVSPropertyOp12
 70
     1
102
RTVSPropertyOp13
 70
     1
102
RTVSPropertyOp14
 70
     1
102
RTVSPropertyOp15
 70
     1
102
RTVSPropertyOp16
 70
     1
102
RTVSPropertyOp17
 70
     1
102
RTVSPropertyOp18
 70
     1
102
RTVSPropertyOp19
 70
     1
102
RTVSPropertyOp20
 70
     1
102
RTVSPropertyOp21
 70
     1
102
RTVSPropertyOp22
 70
     1
102
RTVSPropertyOp23
 70
     1
102
RTVSPropertyOp24
 70
     1
102
RTVSPropertyOp25
 70
     1
102
RTVSPropertyOp26
 70
     1
102
RTVSPropertyOp27
 70
     1
102
RTVSPropertyOp28
 70
     1
102
RTVSPropertyOp29
 70
     1
102
RTVSPropertyOp30
 70
     1
102
RTVSPropertyOp31
 70
     1
102
RTVSPropertyOp32
 70
     1
102
RTVSPropertyOp33
 70
     1
102
RTVSPropertyOp34
 70
     1
102
RTVSPropertyOp35
 70
     1
102
RTVSPropertyOp36
 70
     1
102
RTVSPropertyOp37
 70
     1
102
RTVSPropertyOp38
 70
     1
102
RTVSPropertyOp39
 70
     1
102
RTVSPropertyOp40
 70
     1
102
RTVSPropertyOp41
 70
     1
102
RTVSPropertyOp42
 70
     1
102
RTVSPropertyOp43
 70
     1
102
RTVSPropertyOp44
 70
     1
102
RTVSPropertyOp45
 70
     1
102
RTVSPropertyOp46
 70
     1
102
RTVSPropertyOp47
 70
     1
102
RTVSPropertyOp48
 70
     1
102
RTVSPropertyOp49
 70
     1
102
RTVSPropertyOp50
 70
     1
102
RTVSPropertyOp51
 70
     0
102
RTVSPropertyOp52
 70
     0
102
RTVSPropertyOp53
 70
     1
102
RTVSPropertyOp54
 70
     1
102
RTVSPropertyOp55
 70
     1
102
RTVSPropertyOp56
 70
     1
102
RTVSPropertyOp57
 70
     1
102
RTVSPropertyOp58
 70
     1
102
RTVSPropertyOp59
 70
     1
102
RTVSPropertyOp60
 70
     1
102
RTVSPropertyOp61
 70
     1
102
RTVSPropertyOp62
 70
     1
  0
XRECORD
  5
DCF
102
{ACAD_REACTORS
330
DCE
102
}
330
DCE
100
AcDbXrecord
280
     1
102
RTVSPost2010Prop28
280
     0
102
RTVSPost2010PropOp28
 70
     1
102
RTVSPost2010Prop29
280
     1
102
RTVSPost2010PropOp29
 70
     1
102
RTVSPost2010Prop30
280
     1
102
RTVSPost2010PropOp30
 70
     1
102
RTVSPost2010Prop31
280
     0
102
RTVSPost2010PropOp31
 70
     1
102
RTVSPost2010Prop32
280
     0
102
RTVSPost2010PropOp32
 70
     1
102
RTVSPost2010Prop33
280
     0
102
RTVSPost2010PropOp33
 70
     1
102
RTVSPost2010Prop34
280
     0
102
RTVSPost2010PropOp34
 70
     1
102
RTVSPost2010Prop35
280
     0
102
RTVSPost2010PropOp35
 70
     1
102
RTVSPost2010Prop36
280
     0
102
RTVSPost2010PropOp36
 70
     1
102
RTVSPost2010Prop37
 90
       50
102
RTVSPost2010PropOp37
 70
     1
102
RTVSPost2010Prop38
140
0.0
102
RTVSPost2010PropOp38
 70
     1
102
RTVSPost2010Prop39
140
1.0
102
RTVSPost2010PropOp39
 70
     1
102
RTVSPost2010Prop40
 90
        0
102
RTVSPost2010PropOp40
 70
     1
102
RTVSPost2010Prop41ColorIndex
 90
       18
102
RTVSPost2010Prop41ColorRGB
 90
        0
102
RTVSPost2010PropOp41
 70
     1
102
RTVSPost2010Prop42
 90
       50
102
RTVSPost2010PropOp42
 70
     1
102
RTVSPost2010Prop43
 90
        3
102
RTVSPost2010PropOp43
 70
     1
102
RTVSPost2010Prop44ColorIndex
 90
        5
102
RTVSPost2010Prop44ColorRGB
 90
      255
102
RTVSPost2010PropOp44
 70
     1
102
RTVSPost2010Prop45
280
     0
102
RTVSPost2010PropOp45
 70
     1
102
RTVSPost2010Prop46
 90
       50
102
RTVSPost2010PropOp46
 70
     1
102
RTVSPost2010Prop47
 90
       50
102
RTVSPost2010PropOp47
 70
     1
102
RTVSPost2010Prop48
 90
       50
102
RTVSPost2010PropOp48
 70
     1
102
RTVSPost2010Prop49
280
     0
102
RTVSPost2010PropOp49
 70
     1
102
RTVSPost2010Prop50
 90
       50
102
RTVSPost2010PropOp50
 70
     1
102
RTVSPost2010Prop51ColorIndex
 90
      256
102
RTVSPost2010Prop51ColorRGB
 90
-16777216
102
RTVSPost2010PropOp51
 70
     0
102
RTVSPost2010Prop52
140
1.0
102
RTVSPost2010PropOp52
 70
     0
102
RTVSPost2010Prop53
 90
        2
102
RTVSPost2010PropOp53
 70
     1
102
RTVSPost2010Prop54
  1
strokes_ogs.tif
102
RTVSPost2010PropOp54
 70
     1
102
RTVSPost2010Prop55
280
     0
102
RTVSPost2010PropOp55
 70
     1
102
RTVSPost2010Prop56
140
1.0
102
RTVSPost2010PropOp56
 70
     1
102
RTVSPost2010Prop57
140
1.0
102
RTVSPost2010PropOp57
 70
     1
102
RTVSPropertyOp0
 70
     1
102
RTVSPropertyOp1
 70
     1
102
RTVSPropertyOp2
 70
     1
102
RTVSPropertyOp3
 70
     1
102
RTVSPropertyOp4
 70
     1
102
RTVSPropertyOp5
 70
     1
102
RTVSPropertyOp6
 70
     1
102
RTVSPropertyOp7
 70
     1
102
RTVSPropertyOp8
 70
     1
102
RTVSPropertyOp9
 70
     1
102
RTVSPropertyOp10
 70
     1
102
RTVSPropertyOp11
 70
     1
102
RTVSPropertyOp12
 70
     1
102
RTVSPropertyOp13
 70
     1
102
RTVSPropertyOp14
 70
     1
102
RTVSPropertyOp15
 70
     1
102
RTVSPropertyOp16
 70
     1
102
RTVSPropertyOp17
 70
     1
102
RTVSPropertyOp18
 70
     1
102
RTVSPropertyOp19
 70
     1
102
RTVSPropertyOp20
 70
     1
102
RTVSPropertyOp21
 70
     1
102
RTVSPropertyOp22
 70
     1
102
RTVSPropertyOp23
 70
     1
102
RTVSPropertyOp24
 70
     1
102
RTVSPropertyOp25
 70
     1
102
RTVSPropertyOp26
 70
     1
102
RTVSPropertyOp27
 70
     1
102
RTVSPropertyOp28
 70
     1
102
RTVSPropertyOp29
 70
     1
102
RTVSPropertyOp30
 70
     1
102
RTVSPropertyOp31
 70
     1
102
RTVSPropertyOp32
 70
     1
102
RTVSPropertyOp33
 70
     1
102
RTVSPropertyOp34
 70
     1
102
RTVSPropertyOp35
 70
     1
102
RTVSPropertyOp36
 70
     1
102
RTVSPropertyOp37
 70
     1
102
RTVSPropertyOp38
 70
     1
102
RTVSPropertyOp39
 70
     1
102
RTVSPropertyOp40
 70
     1
102
RTVSPropertyOp41
 70
     1
102
RTVSPropertyOp42
 70
     1
102
RTVSPropertyOp43
 70
     1
102
RTVSPropertyOp44
 70
     1
102
RTVSPropertyOp45
 70
     1
102
RTVSPropertyOp46
 70
     1
102
RTVSPropertyOp47
 70
     1
102
RTVSPropertyOp48
 70
     1
102
RTVSPropertyOp49
 70
     1
102
RTVSPropertyOp50
 70
     1
102
RTVSPropertyOp51
 70
     0
102
RTVSPropertyOp52
 70
     0
102
RTVSPropertyOp53
 70
     1
102
RTVSPropertyOp54
 70
     1
102
RTVSPropertyOp55
 70
     1
102
RTVSPropertyOp56
 70
     1
102
RTVSPropertyOp57
 70
     1
102
RTVSPropertyOp58
 70
     1
102
RTVSPropertyOp59
 70
     1
102
RTVSPropertyOp60
 70
     1
102
RTVSPropertyOp61
 70
     1
102
RTVSPropertyOp62
 70
     1
  0
XRECORD
  5
DD1
102
{ACAD_REACTORS
330
DD0
102
}
330
DD0
100
AcDbXrecord
280
     1
102
RTVSPost2010Prop28
280
     0
102
RTVSPost2010PropOp28
 70
     1
102
RTVSPost2010Prop29
280
     1
102
RTVSPost2010PropOp29
 70
     1
102
RTVSPost2010Prop30
280
     1
102
RTVSPost2010PropOp30
 70
     1
102
RTVSPost2010Prop31
280
     0
102
RTVSPost2010PropOp31
 70
     1
102
RTVSPost2010Prop32
280
     0
102
RTVSPost2010PropOp32
 70
     1
102
RTVSPost2010Prop33
280
     0
102
RTVSPost2010PropOp33
 70
     1
102
RTVSPost2010Prop34
280
     0
102
RTVSPost2010PropOp34
 70
     1
102
RTVSPost2010Prop35
280
     0
102
RTVSPost2010PropOp35
 70
     1
102
RTVSPost2010Prop36
280
     0
102
RTVSPost2010PropOp36
 70
     1
102
RTVSPost2010Prop37
 90
       50
102
RTVSPost2010PropOp37
 70
     1
102
RTVSPost2010Prop38
140
0.0
102
RTVSPost2010PropOp38
 70
     1
102
RTVSPost2010Prop39
140
1.0
102
RTVSPost2010PropOp39
 70
     1
102
RTVSPost2010Prop40
 90
        0
102
RTVSPost2010PropOp40
 70
     1
102
RTVSPost2010Prop41ColorIndex
 90
       18
102
RTVSPost2010Prop41ColorRGB
 90
        0
102
RTVSPost2010PropOp41
 70
     1
102
RTVSPost2010Prop42
 90
       50
102
RTVSPost2010PropOp42
 70
     1
102
RTVSPost2010Prop43
 90
        3
102
RTVSPost2010PropOp43
 70
     1
102
RTVSPost2010Prop44ColorIndex
 90
        5
102
RTVSPost2010Prop44ColorRGB
 90
      255
102
RTVSPost2010PropOp44
 70
     1
102
RTVSPost2010Prop45
280
     0
102
RTVSPost2010PropOp45
 70
     1
102
RTVSPost2010Prop46
 90
       50
102
RTVSPost2010PropOp46
 70
     1
102
RTVSPost2010Prop47
 90
       50
102
RTVSPost2010PropOp47
 70
     1
102
RTVSPost2010Prop48
 90
       50
102
RTVSPost2010PropOp48
 70
     1
102
RTVSPost2010Prop49
280
     0
102
RTVSPost2010PropOp49
 70
     1
102
RTVSPost2010Prop50
 90
       50
102
RTVSPost2010PropOp50
 70
     1
102
RTVSPost2010Prop51ColorIndex
 90
      256
102
RTVSPost2010Prop51ColorRGB
 90
-16777216
102
RTVSPost2010PropOp51
 70
     0
102
RTVSPost2010Prop52
140
1.0
102
RTVSPost2010PropOp52
 70
     0
102
RTVSPost2010Prop53
 90
        2
102
RTVSPost2010PropOp53
 70
     1
102
RTVSPost2010Prop54
  1
strokes_ogs.tif
102
RTVSPost2010PropOp54
 70
     1
102
RTVSPost2010Prop55
280
     0
102
RTVSPost2010PropOp55
 70
     1
102
RTVSPost2010Prop56
140
1.0
102
RTVSPost2010PropOp56
 70
     1
102
RTVSPost2010Prop57
140
1.0
102
RTVSPost2010PropOp57
 70
     1
102
RTVSPropertyOp0
 70
     1
102
RTVSPropertyOp1
 70
     1
102
RTVSPropertyOp2
 70
     1
102
RTVSPropertyOp3
 70
     1
102
RTVSPropertyOp4
 70
     1
102
RTVSPropertyOp5
 70
     1
102
RTVSPropertyOp6
 70
     1
102
RTVSPropertyOp7
 70
     1
102
RTVSPropertyOp8
 70
     1
102
RTVSPropertyOp9
 70
     1
102
RTVSPropertyOp10
 70
     1
102
RTVSPropertyOp11
 70
     1
102
RTVSPropertyOp12
 70
     1
102
RTVSPropertyOp13
 70
     1
102
RTVSPropertyOp14
 70
     1
102
RTVSPropertyOp15
 70
     1
102
RTVSPropertyOp16
 70
     1
102
RTVSPropertyOp17
 70
     1
102
RTVSPropertyOp18
 70
     1
102
RTVSPropertyOp19
 70
     1
102
RTVSPropertyOp20
 70
     1
102
RTVSPropertyOp21
 70
     1
102
RTVSPropertyOp22
 70
     1
102
RTVSPropertyOp23
 70
     1
102
RTVSPropertyOp24
 70
     1
102
RTVSPropertyOp25
 70
     1
102
RTVSPropertyOp26
 70
     1
102
RTVSPropertyOp27
 70
     1
102
RTVSPropertyOp28
 70
     1
102
RTVSPropertyOp29
 70
     1
102
RTVSPropertyOp30
 70
     1
102
RTVSPropertyOp31
 70
     1
102
RTVSPropertyOp32
 70
     1
102
RTVSPropertyOp33
 70
     1
102
RTVSPropertyOp34
 70
     1
102
RTVSPropertyOp35
 70
     1
102
RTVSPropertyOp36
 70
     1
102
RTVSPropertyOp37
 70
     1
102
RTVSPropertyOp38
 70
     1
102
RTVSPropertyOp39
 70
     1
102
RTVSPropertyOp40
 70
     1
102
RTVSPropertyOp41
 70
     1
102
RTVSPropertyOp42
 70
     1
102
RTVSPropertyOp43
 70
     1
102
RTVSPropertyOp44
 70
     1
102
RTVSPropertyOp45
 70
     1
102
RTVSPropertyOp46
 70
     1
102
RTVSPropertyOp47
 70
     1
102
RTVSPropertyOp48
 70
     1
102
RTVSPropertyOp49
 70
     1
102
RTVSPropertyOp50
 70
     1
102
RTVSPropertyOp51
 70
     0
102
RTVSPropertyOp52
 70
     0
102
RTVSPropertyOp53
 70
     1
102
RTVSPropertyOp54
 70
     1
102
RTVSPropertyOp55
 70
     1
102
RTVSPropertyOp56
 70
     1
102
RTVSPropertyOp57
 70
     1
102
RTVSPropertyOp58
 70
     1
102
RTVSPropertyOp59
 70
     1
102
RTVSPropertyOp60
 70
     1
102
RTVSPropertyOp61
 70
     1
102
RTVSPropertyOp62
 70
     1
  0
XRECORD
  5
DD9
102
{ACAD_REACTORS
330
DD8
102
}
330
DD8
100
AcDbXrecord
280
     1
102
RTVSPost2010Prop28
280
     0
102
RTVSPost2010PropOp28
 70
     1
102
RTVSPost2010Prop29
280
     1
102
RTVSPost2010PropOp29
 70
     1
102
RTVSPost2010Prop30
280
     1
102
RTVSPost2010PropOp30
 70
     1
102
RTVSPost2010Prop31
280
     0
102
RTVSPost2010PropOp31
 70
     1
102
RTVSPost2010Prop32
280
     0
102
RTVSPost2010PropOp32
 70
     1
102
RTVSPost2010Prop33
280
     0
102
RTVSPost2010PropOp33
 70
     1
102
RTVSPost2010Prop34
280
     0
102
RTVSPost2010PropOp34
 70
     1
102
RTVSPost2010Prop35
280
     0
102
RTVSPost2010PropOp35
 70
     1
102
RTVSPost2010Prop36
280
     0
102
RTVSPost2010PropOp36
 70
     1
102
RTVSPost2010Prop37
 90
       50
102
RTVSPost2010PropOp37
 70
     1
102
RTVSPost2010Prop38
140
0.0
102
RTVSPost2010PropOp38
 70
     1
102
RTVSPost2010Prop39
140
1.0
102
RTVSPost2010PropOp39
 70
     1
102
RTVSPost2010Prop40
 90
        0
102
RTVSPost2010PropOp40
 70
     1
102
RTVSPost2010Prop41ColorIndex
 90
       18
102
RTVSPost2010Prop41ColorRGB
 90
        0
102
RTVSPost2010PropOp41
 70
     1
102
RTVSPost2010Prop42
 90
       50
102
RTVSPost2010PropOp42
 70
     1
102
RTVSPost2010Prop43
 90
        3
102
RTVSPost2010PropOp43
 70
     1
102
RTVSPost2010Prop44ColorIndex
 90
        5
102
RTVSPost2010Prop44ColorRGB
 90
      255
102
RTVSPost2010PropOp44
 70
     1
102
RTVSPost2010Prop45
280
     0
102
RTVSPost2010PropOp45
 70
     1
102
RTVSPost2010Prop46
 90
       50
102
RTVSPost2010PropOp46
 70
     1
102
RTVSPost2010Prop47
 90
       50
102
RTVSPost2010PropOp47
 70
     1
102
RTVSPost2010Prop48
 90
       50
102
RTVSPost2010PropOp48
 70
     1
102
RTVSPost2010Prop49
280
     0
102
RTVSPost2010PropOp49
 70
     1
102
RTVSPost2010Prop50
 90
       50
102
RTVSPost2010PropOp50
 70
     1
102
RTVSPost2010Prop51ColorIndex
 90
      256
102
RTVSPost2010Prop51ColorRGB
 90
-16777216
102
RTVSPost2010PropOp51
 70
     0
102
RTVSPost2010Prop52
140
1.0
102
RTVSPost2010PropOp52
 70
     0
102
RTVSPost2010Prop53
 90
        2
102
RTVSPost2010PropOp53
 70
     1
102
RTVSPost2010Prop54
  1
strokes_ogs.tif
102
RTVSPost2010PropOp54
 70
     1
102
RTVSPost2010Prop55
280
     0
102
RTVSPost2010PropOp55
 70
     1
102
RTVSPost2010Prop56
140
1.0
102
RTVSPost2010PropOp56
 70
     1
102
RTVSPost2010Prop57
140
1.0
102
RTVSPost2010PropOp57
 70
     1
102
RTVSPropertyOp0
 70
     1
102
RTVSPropertyOp1
 70
     1
102
RTVSPropertyOp2
 70
     1
102
RTVSPropertyOp3
 70
     1
102
RTVSPropertyOp4
 70
     1
102
RTVSPropertyOp5
 70
     1
102
RTVSPropertyOp6
 70
     1
102
RTVSPropertyOp7
 70
     1
102
RTVSPropertyOp8
 70
     1
102
RTVSPropertyOp9
 70
     1
102
RTVSPropertyOp10
 70
     1
102
RTVSPropertyOp11
 70
     1
102
RTVSPropertyOp12
 70
     1
102
RTVSPropertyOp13
 70
     1
102
RTVSPropertyOp14
 70
     1
102
RTVSPropertyOp15
 70
     1
102
RTVSPropertyOp16
 70
     1
102
RTVSPropertyOp17
 70
     1
102
RTVSPropertyOp18
 70
     1
102
RTVSPropertyOp19
 70
     1
102
RTVSPropertyOp20
 70
     1
102
RTVSPropertyOp21
 70
     1
102
RTVSPropertyOp22
 70
     1
102
RTVSPropertyOp23
 70
     1
102
RTVSPropertyOp24
 70
     1
102
RTVSPropertyOp25
 70
     1
102
RTVSPropertyOp26
 70
     1
102
RTVSPropertyOp27
 70
     1
102
RTVSPropertyOp28
 70
     1
102
RTVSPropertyOp29
 70
     1
102
RTVSPropertyOp30
 70
     1
102
RTVSPropertyOp31
 70
     1
102
RTVSPropertyOp32
 70
     1
102
RTVSPropertyOp33
 70
     1
102
RTVSPropertyOp34
 70
     1
102
RTVSPropertyOp35
 70
     1
102
RTVSPropertyOp36
 70
     1
102
RTVSPropertyOp37
 70
     1
102
RTVSPropertyOp38
 70
     1
102
RTVSPropertyOp39
 70
     1
102
RTVSPropertyOp40
 70
     1
102
RTVSPropertyOp41
 70
     1
102
RTVSPropertyOp42
 70
     1
102
RTVSPropertyOp43
 70
     1
102
RTVSPropertyOp44
 70
     1
102
RTVSPropertyOp45
 70
     1
102
RTVSPropertyOp46
 70
     1
102
RTVSPropertyOp47
 70
     1
102
RTVSPropertyOp48
 70
     1
102
RTVSPropertyOp49
 70
     1
102
RTVSPropertyOp50
 70
     1
102
RTVSPropertyOp51
 70
     0
102
RTVSPropertyOp52
 70
     0
102
RTVSPropertyOp53
 70
     1
102
RTVSPropertyOp54
 70
     1
102
RTVSPropertyOp55
 70
     1
102
RTVSPropertyOp56
 70
     1
102
RTVSPropertyOp57
 70
     1
102
RTVSPropertyOp58
 70
     1
102
RTVSPropertyOp59
 70
     1
102
RTVSPropertyOp60
 70
     1
102
RTVSPropertyOp61
 70
     1
102
RTVSPropertyOp62
 70
     1
  0
XRECORD
  5
DF5
102
{ACAD_REACTORS
330
DF4
102
}
330
DF4
100
AcDbXrecord
280
     1
102
RTVSPost2010Prop28
280
     0
102
RTVSPost2010PropOp28
 70
     1
102
RTVSPost2010Prop29
280
     1
102
RTVSPost2010PropOp29
 70
     1
102
RTVSPost2010Prop30
280
     1
102
RTVSPost2010PropOp30
 70
     1
102
RTVSPost2010Prop31
280
     0
102
RTVSPost2010PropOp31
 70
     1
102
RTVSPost2010Prop32
280
     0
102
RTVSPost2010PropOp32
 70
     1
102
RTVSPost2010Prop33
280
     0
102
RTVSPost2010PropOp33
 70
     1
102
RTVSPost2010Prop34
280
     0
102
RTVSPost2010PropOp34
 70
     1
102
RTVSPost2010Prop35
280
     0
102
RTVSPost2010PropOp35
 70
     1
102
RTVSPost2010Prop36
280
     0
102
RTVSPost2010PropOp36
 70
     1
102
RTVSPost2010Prop37
 90
       50
102
RTVSPost2010PropOp37
 70
     0
102
RTVSPost2010Prop38
140
0.0
102
RTVSPost2010PropOp38
 70
     0
102
RTVSPost2010Prop39
140
1.0
102
RTVSPost2010PropOp39
 70
     0
102
RTVSPost2010Prop40
 90
        0
102
RTVSPost2010PropOp40
 70
     0
102
RTVSPost2010Prop41ColorIndex
 90
       18
102
RTVSPost2010Prop41ColorRGB
 90
        0
102
RTVSPost2010PropOp41
 70
     0
102
RTVSPost2010Prop42
 90
       50
102
RTVSPost2010PropOp42
 70
     0
102
RTVSPost2010Prop43
 90
        3
102
RTVSPost2010PropOp43
 70
     0
102
RTVSPost2010Prop44ColorIndex
 90
        5
102
RTVSPost2010Prop44ColorRGB
 90
      255
102
RTVSPost2010PropOp44
 70
     0
102
RTVSPost2010Prop45
280
     0
102
RTVSPost2010PropOp45
 70
     1
102
RTVSPost2010Prop46
 90
       50
102
RTVSPost2010PropOp46
 70
     0
102
RTVSPost2010Prop47
 90
       50
102
RTVSPost2010PropOp47
 70
     0
102
RTVSPost2010Prop48
 90
       50
102
RTVSPost2010PropOp48
 70
     0
102
RTVSPost2010Prop49
280
     0
102
RTVSPost2010PropOp49
 70
     1
102
RTVSPost2010Prop50
 90
       50
102
RTVSPost2010PropOp50
 70
     0
102
RTVSPost2010Prop51ColorIndex
 90
      256
102
RTVSPost2010Prop51ColorRGB
 90
-16777216
102
RTVSPost2010PropOp51
 70
     0
102
RTVSPost2010Prop52
140
1.0
102
RTVSPost2010PropOp52
 70
     0
102
RTVSPost2010Prop53
 90
        2
102
RTVSPost2010PropOp53
 70
     0
102
RTVSPost2010Prop54
  1
strokes_ogs.tif
102
RTVSPost2010PropOp54
 70
     0
102
RTVSPost2010Prop55
280
     0
102
RTVSPost2010PropOp55
 70
     1
102
RTVSPost2010Prop56
140
1.0
102
RTVSPost2010PropOp56
 70
     0
102
RTVSPost2010Prop57
140
1.0
102
RTVSPost2010PropOp57
 70
     0
102
RTVSPropertyOp0
 70
     0
102
RTVSPropertyOp1
 70
     0
102
RTVSPropertyOp2
 70
     0
102
RTVSPropertyOp3
 70
     0
102
RTVSPropertyOp4
 70
     0
102
RTVSPropertyOp5
 70
     0
102
RTVSPropertyOp6
 70
     0
102
RTVSPropertyOp7
 70
     0
102
RTVSPropertyOp8
 70
     0
102
RTVSPropertyOp9
 70
     0
102
RTVSPropertyOp10
 70
     0
102
RTVSPropertyOp11
 70
     0
102
RTVSPropertyOp12
 70
     0
102
RTVSPropertyOp13
 70
     0
102
RTVSPropertyOp14
 70
     2
102
RTVSPropertyOp15
 70
     0
102
RTVSPropertyOp16
 70
     0
102
RTVSPropertyOp17
 70
     0
102
RTVSPropertyOp18
 70
     0
102
RTVSPropertyOp19
 70
     0
102
RTVSPropertyOp20
 70
     0
102
RTVSPropertyOp21
 70
     0
102
RTVSPropertyOp22
 70
     0
102
RTVSPropertyOp23
 70
     0
102
RTVSPropertyOp24
 70
     0
102
RTVSPropertyOp25
 70
     0
102
RTVSPropertyOp26
 70
     0
102
RTVSPropertyOp27
 70
     0
102
RTVSPropertyOp28
 70
     1
102
RTVSPropertyOp29
 70
     1
102
RTVSPropertyOp30
 70
     1
102
RTVSPropertyOp31
 70
     1
102
RTVSPropertyOp32
 70
     1
102
RTVSPropertyOp33
 70
     1
102
RTVSPropertyOp34
 70
     1
102
RTVSPropertyOp35
 70
     1
102
RTVSPropertyOp36
 70
     1
102
RTVSPropertyOp37
 70
     0
102
RTVSPropertyOp38
 70
     0
102
RTVSPropertyOp39
 70
     0
102
RTVSPropertyOp40
 70
     0
102
RTVSPropertyOp41
 70
     0
102
RTVSPropertyOp42
 70
     0
102
RTVSPropertyOp43
 70
     0
102
RTVSPropertyOp44
 70
     0
102
RTVSPropertyOp45
 70
     1
102
RTVSPropertyOp46
 70
     0
102
RTVSPropertyOp47
 70
     0
102
RTVSPropertyOp48
 70
     0
102
RTVSPropertyOp49
 70
     1
102
RTVSPropertyOp50
 70
     0
102
RTVSPropertyOp51
 70
     0
102
RTVSPropertyOp52
 70
     0
102
RTVSPropertyOp53
 70
     0
102
RTVSPropertyOp54
 70
     0
102
RTVSPropertyOp55
 70
     1
102
RTVSPropertyOp56
 70
     0
102
RTVSPropertyOp57
 70
     0
102
RTVSPropertyOp58
 70
     0
102
RTVSPropertyOp59
 70
     0
102
RTVSPropertyOp60
 70
     0
102
RTVSPropertyOp61
 70
     0
102
RTVSPropertyOp62
 70
     0
  0
XRECORD
  5
DE5
102
{ACAD_REACTORS
330
DE4
102
}
330
DE4
100
AcDbXrecord
280
     1
102
RTVSPost2010Prop28
280
     0
102
RTVSPost2010PropOp28
 70
     1
102
RTVSPost2010Prop29
280
     1
102
RTVSPost2010PropOp29
 70
     1
102
RTVSPost2010Prop30
280
     1
102
RTVSPost2010PropOp30
 70
     1
102
RTVSPost2010Prop31
280
     0
102
RTVSPost2010PropOp31
 70
     1
102
RTVSPost2010Prop32
280
     0
102
RTVSPost2010PropOp32
 70
     1
102
RTVSPost2010Prop33
280
     0
102
RTVSPost2010PropOp33
 70
     1
102
RTVSPost2010Prop34
280
     0
102
RTVSPost2010PropOp34
 70
     1
102
RTVSPost2010Prop35
280
     0
102
RTVSPost2010PropOp35
 70
     1
102
RTVSPost2010Prop36
280
     0
102
RTVSPost2010PropOp36
 70
     1
102
RTVSPost2010Prop37
 90
       50
102
RTVSPost2010PropOp37
 70
     1
102
RTVSPost2010Prop38
140
0.0
102
RTVSPost2010PropOp38
 70
     1
102
RTVSPost2010Prop39
140
1.0
102
RTVSPost2010PropOp39
 70
     1
102
RTVSPost2010Prop40
 90
        0
102
RTVSPost2010PropOp40
 70
     1
102
RTVSPost2010Prop41ColorIndex
 90
       18
102
RTVSPost2010Prop41ColorRGB
 90
        0
102
RTVSPost2010PropOp41
 70
     1
102
RTVSPost2010Prop42
 90
       50
102
RTVSPost2010PropOp42
 70
     1
102
RTVSPost2010Prop43
 90
        3
102
RTVSPost2010PropOp43
 70
     1
102
RTVSPost2010Prop44ColorIndex
 90
        5
102
RTVSPost2010Prop44ColorRGB
 90
      255
102
RTVSPost2010PropOp44
 70
     1
102
RTVSPost2010Prop45
280
     0
102
RTVSPost2010PropOp45
 70
     1
102
RTVSPost2010Prop46
 90
       50
102
RTVSPost2010PropOp46
 70
     1
102
RTVSPost2010Prop47
 90
       50
102
RTVSPost2010PropOp47
 70
     1
102
RTVSPost2010Prop48
 90
       50
102
RTVSPost2010PropOp48
 70
     1
102
RTVSPost2010Prop49
280
     0
102
RTVSPost2010PropOp49
 70
     1
102
RTVSPost2010Prop50
 90
       50
102
RTVSPost2010PropOp50
 70
     1
102
RTVSPost2010Prop51ColorIndex
 90
      256
102
RTVSPost2010Prop51ColorRGB
 90
-16777216
102
RTVSPost2010PropOp51
 70
     0
102
RTVSPost2010Prop52
140
1.0
102
RTVSPost2010PropOp52
 70
     0
102
RTVSPost2010Prop53
 90
        2
102
RTVSPost2010PropOp53
 70
     1
102
RTVSPost2010Prop54
  1
strokes_ogs.tif
102
RTVSPost2010PropOp54
 70
     1
102
RTVSPost2010Prop55
280
     0
102
RTVSPost2010PropOp55
 70
     1
102
RTVSPost2010Prop56
140
1.0
102
RTVSPost2010PropOp56
 70
     1
102
RTVSPost2010Prop57
140
1.0
102
RTVSPost2010PropOp57
 70
     1
102
RTVSPropertyOp0
 70
     1
102
RTVSPropertyOp1
 70
     1
102
RTVSPropertyOp2
 70
     1
102
RTVSPropertyOp3
 70
     1
102
RTVSPropertyOp4
 70
     1
102
RTVSPropertyOp5
 70
     1
102
RTVSPropertyOp6
 70
     1
102
RTVSPropertyOp7
 70
     1
102
RTVSPropertyOp8
 70
     1
102
RTVSPropertyOp9
 70
     1
102
RTVSPropertyOp10
 70
     1
102
RTVSPropertyOp11
 70
     1
102
RTVSPropertyOp12
 70
     1
102
RTVSPropertyOp13
 70
     1
102
RTVSPropertyOp14
 70
     1
102
RTVSPropertyOp15
 70
     1
102
RTVSPropertyOp16
 70
     1
102
RTVSPropertyOp17
 70
     1
102
RTVSPropertyOp18
 70
     1
102
RTVSPropertyOp19
 70
     1
102
RTVSPropertyOp20
 70
     1
102
RTVSPropertyOp21
 70
     1
102
RTVSPropertyOp22
 70
     1
102
RTVSPropertyOp23
 70
     1
102
RTVSPropertyOp24
 70
     1
102
RTVSPropertyOp25
 70
     1
102
RTVSPropertyOp26
 70
     1
102
RTVSPropertyOp27
 70
     1
102
RTVSPropertyOp28
 70
     1
102
RTVSPropertyOp29
 70
     1
102
RTVSPropertyOp30
 70
     1
102
RTVSPropertyOp31
 70
     1
102
RTVSPropertyOp32
 70
     1
102
RTVSPropertyOp33
 70
     1
102
RTVSPropertyOp34
 70
     1
102
RTVSPropertyOp35
 70
     1
102
RTVSPropertyOp36
 70
     1
102
RTVSPropertyOp37
 70
     1
102
RTVSPropertyOp38
 70
     1
102
RTVSPropertyOp39
 70
     1
102
RTVSPropertyOp40
 70
     1
102
RTVSPropertyOp41
 70
     1
102
RTVSPropertyOp42
 70
     1
102
RTVSPropertyOp43
 70
     1
102
RTVSPropertyOp44
 70
     1
102
RTVSPropertyOp45
 70
     1
102
RTVSPropertyOp46
 70
     1
102
RTVSPropertyOp47
 70
     1
102
RTVSPropertyOp48
 70
     1
102
RTVSPropertyOp49
 70
     1
102
RTVSPropertyOp50
 70
     1
102
RTVSPropertyOp51
 70
     0
102
RTVSPropertyOp52
 70
     0
102
RTVSPropertyOp53
 70
     1
102
RTVSPropertyOp54
 70
     1
102
RTVSPropertyOp55
 70
     1
102
RTVSPropertyOp56
 70
     1
102
RTVSPropertyOp57
 70
     1
102
RTVSPropertyOp58
 70
     1
102
RTVSPropertyOp59
 70
     1
102
RTVSPropertyOp60
 70
     1
102
RTVSPropertyOp61
 70
     1
102
RTVSPropertyOp62
 70
     1
  0
XRECORD
  5
DF7
102
{ACAD_REACTORS
330
DF6
102
}
330
DF6
100
AcDbXrecord
280
     1
102
RTVSPost2010Prop28
280
     0
102
RTVSPost2010PropOp28
 70
     1
102
RTVSPost2010Prop29
280
     1
102
RTVSPost2010PropOp29
 70
     1
102
RTVSPost2010Prop30
280
     1
102
RTVSPost2010PropOp30
 70
     1
102
RTVSPost2010Prop31
280
     0
102
RTVSPost2010PropOp31
 70
     1
102
RTVSPost2010Prop32
280
     0
102
RTVSPost2010PropOp32
 70
     1
102
RTVSPost2010Prop33
280
     0
102
RTVSPost2010PropOp33
 70
     1
102
RTVSPost2010Prop34
280
     0
102
RTVSPost2010PropOp34
 70
     1
102
RTVSPost2010Prop35
280
     0
102
RTVSPost2010PropOp35
 70
     1
102
RTVSPost2010Prop36
280
     0
102
RTVSPost2010PropOp36
 70
     1
102
RTVSPost2010Prop37
 90
       50
102
RTVSPost2010PropOp37
 70
     0
102
RTVSPost2010Prop38
140
0.0
102
RTVSPost2010PropOp38
 70
     0
102
RTVSPost2010Prop39
140
1.0
102
RTVSPost2010PropOp39
 70
     0
102
RTVSPost2010Prop40
 90
        0
102
RTVSPost2010PropOp40
 70
     0
102
RTVSPost2010Prop41ColorIndex
 90
       18
102
RTVSPost2010Prop41ColorRGB
 90
        0
102
RTVSPost2010PropOp41
 70
     0
102
RTVSPost2010Prop42
 90
       50
102
RTVSPost2010PropOp42
 70
     0
102
RTVSPost2010Prop43
 90
        3
102
RTVSPost2010PropOp43
 70
     0
102
RTVSPost2010Prop44ColorIndex
 90
        5
102
RTVSPost2010Prop44ColorRGB
 90
      255
102
RTVSPost2010PropOp44
 70
     0
102
RTVSPost2010Prop45
280
     0
102
RTVSPost2010PropOp45
 70
     1
102
RTVSPost2010Prop46
 90
       50
102
RTVSPost2010PropOp46
 70
     0
102
RTVSPost2010Prop47
 90
       50
102
RTVSPost2010PropOp47
 70
     0
102
RTVSPost2010Prop48
 90
       50
102
RTVSPost2010PropOp48
 70
     0
102
RTVSPost2010Prop49
280
     0
102
RTVSPost2010PropOp49
 70
     1
102
RTVSPost2010Prop50
 90
       50
102
RTVSPost2010PropOp50
 70
     0
102
RTVSPost2010Prop51ColorIndex
 90
      256
102
RTVSPost2010Prop51ColorRGB
 90
-16777216
102
RTVSPost2010PropOp51
 70
     0
102
RTVSPost2010Prop52
140
1.0
102
RTVSPost2010PropOp52
 70
     0
102
RTVSPost2010Prop53
 90
        2
102
RTVSPost2010PropOp53
 70
     0
102
RTVSPost2010Prop54
  1
strokes_ogs.tif
102
RTVSPost2010PropOp54
 70
     0
102
RTVSPost2010Prop55
280
     0
102
RTVSPost2010PropOp55
 70
     1
102
RTVSPost2010Prop56
140
1.0
102
RTVSPost2010PropOp56
 70
     0
102
RTVSPost2010Prop57
140
1.0
102
RTVSPost2010PropOp57
 70
     0
102
RTVSPropertyOp0
 70
     0
102
RTVSPropertyOp1
 70
     0
102
RTVSPropertyOp2
 70
     0
102
RTVSPropertyOp3
 70
     0
102
RTVSPropertyOp4
 70
     0
102
RTVSPropertyOp5
 70
     0
102
RTVSPropertyOp6
 70
     0
102
RTVSPropertyOp7
 70
     0
102
RTVSPropertyOp8
 70
     0
102
RTVSPropertyOp9
 70
     0
102
RTVSPropertyOp10
 70
     0
102
RTVSPropertyOp11
 70
     0
102
RTVSPropertyOp12
 70
     0
102
RTVSPropertyOp13
 70
     0
102
RTVSPropertyOp14
 70
     2
102
RTVSPropertyOp15
 70
     0
102
RTVSPropertyOp16
 70
     0
102
RTVSPropertyOp17
 70
     0
102
RTVSPropertyOp18
 70
     0
102
RTVSPropertyOp19
 70
     0
102
RTVSPropertyOp20
 70
     0
102
RTVSPropertyOp21
 70
     0
102
RTVSPropertyOp22
 70
     0
102
RTVSPropertyOp23
 70
     0
102
RTVSPropertyOp24
 70
     0
102
RTVSPropertyOp25
 70
     0
102
RTVSPropertyOp26
 70
     0
102
RTVSPropertyOp27
 70
     0
102
RTVSPropertyOp28
 70
     1
102
RTVSPropertyOp29
 70
     1
102
RTVSPropertyOp30
 70
     1
102
RTVSPropertyOp31
 70
     1
102
RTVSPropertyOp32
 70
     1
102
RTVSPropertyOp33
 70
     1
102
RTVSPropertyOp34
 70
     1
102
RTVSPropertyOp35
 70
     1
102
RTVSPropertyOp36
 70
     1
102
RTVSPropertyOp37
 70
     0
102
RTVSPropertyOp38
 70
     0
102
RTVSPropertyOp39
 70
     0
102
RTVSPropertyOp40
 70
     0
102
RTVSPropertyOp41
 70
     0
102
RTVSPropertyOp42
 70
     0
102
RTVSPropertyOp43
 70
     0
102
RTVSPropertyOp44
 70
     0
102
RTVSPropertyOp45
 70
     1
102
RTVSPropertyOp46
 70
     0
102
RTVSPropertyOp47
 70
     0
102
RTVSPropertyOp48
 70
     0
102
RTVSPropertyOp49
 70
     1
102
RTVSPropertyOp50
 70
     0
102
RTVSPropertyOp51
 70
     0
102
RTVSPropertyOp52
 70
     0
102
RTVSPropertyOp53
 70
     0
102
RTVSPropertyOp54
 70
     0
102
RTVSPropertyOp55
 70
     1
102
RTVSPropertyOp56
 70
     0
102
RTVSPropertyOp57
 70
     0
102
RTVSPropertyOp58
 70
     0
102
RTVSPropertyOp59
 70
     0
102
RTVSPropertyOp60
 70
     0
102
RTVSPropertyOp61
 70
     0
102
RTVSPropertyOp62
 70
     0
  0
XRECORD
  5
DDD
102
{ACAD_REACTORS
330
DDC
102
}
330
DDC
100
AcDbXrecord
280
     1
102
RTVSPost2010Prop28
280
     0
102
RTVSPost2010PropOp28
 70
     1
102
RTVSPost2010Prop29
280
     1
102
RTVSPost2010PropOp29
 70
     1
102
RTVSPost2010Prop30
280
     1
102
RTVSPost2010PropOp30
 70
     1
102
RTVSPost2010Prop31
280
     0
102
RTVSPost2010PropOp31
 70
     1
102
RTVSPost2010Prop32
280
     0
102
RTVSPost2010PropOp32
 70
     1
102
RTVSPost2010Prop33
280
     0
102
RTVSPost2010PropOp33
 70
     1
102
RTVSPost2010Prop34
280
     0
102
RTVSPost2010PropOp34
 70
     1
102
RTVSPost2010Prop35
280
     0
102
RTVSPost2010PropOp35
 70
     1
102
RTVSPost2010Prop36
280
     0
102
RTVSPost2010PropOp36
 70
     1
102
RTVSPost2010Prop37
 90
       50
102
RTVSPost2010PropOp37
 70
     1
102
RTVSPost2010Prop38
140
0.0
102
RTVSPost2010PropOp38
 70
     1
102
RTVSPost2010Prop39
140
1.0
102
RTVSPost2010PropOp39
 70
     1
102
RTVSPost2010Prop40
 90
        0
102
RTVSPost2010PropOp40
 70
     1
102
RTVSPost2010Prop41ColorIndex
 90
       18
102
RTVSPost2010Prop41ColorRGB
 90
        0
102
RTVSPost2010PropOp41
 70
     1
102
RTVSPost2010Prop42
 90
       50
102
RTVSPost2010PropOp42
 70
     1
102
RTVSPost2010Prop43
 90
        3
102
RTVSPost2010PropOp43
 70
     1
102
RTVSPost2010Prop44ColorIndex
 90
        5
102
RTVSPost2010Prop44ColorRGB
 90
      255
102
RTVSPost2010PropOp44
 70
     1
102
RTVSPost2010Prop45
280
     0
102
RTVSPost2010PropOp45
 70
     1
102
RTVSPost2010Prop46
 90
       50
102
RTVSPost2010PropOp46
 70
     1
102
RTVSPost2010Prop47
 90
       50
102
RTVSPost2010PropOp47
 70
     1
102
RTVSPost2010Prop48
 90
       50
102
RTVSPost2010PropOp48
 70
     1
102
RTVSPost2010Prop49
280
     0
102
RTVSPost2010PropOp49
 70
     1
102
RTVSPost2010Prop50
 90
       50
102
RTVSPost2010PropOp50
 70
     1
102
RTVSPost2010Prop51ColorIndex
 90
      256
102
RTVSPost2010Prop51ColorRGB
 90
-16777216
102
RTVSPost2010PropOp51
 70
     0
102
RTVSPost2010Prop52
140
1.0
102
RTVSPost2010PropOp52
 70
     0
102
RTVSPost2010Prop53
 90
        2
102
RTVSPost2010PropOp53
 70
     1
102
RTVSPost2010Prop54
  1
strokes_ogs.tif
102
RTVSPost2010PropOp54
 70
     1
102
RTVSPost2010Prop55
280
     0
102
RTVSPost2010PropOp55
 70
     1
102
RTVSPost2010Prop56
140
1.0
102
RTVSPost2010PropOp56
 70
     1
102
RTVSPost2010Prop57
140
1.0
102
RTVSPost2010PropOp57
 70
     1
102
RTVSPropertyOp0
 70
     1
102
RTVSPropertyOp1
 70
     1
102
RTVSPropertyOp2
 70
     1
102
RTVSPropertyOp3
 70
     1
102
RTVSPropertyOp4
 70
     1
102
RTVSPropertyOp5
 70
     1
102
RTVSPropertyOp6
 70
     1
102
RTVSPropertyOp7
 70
     1
102
RTVSPropertyOp8
 70
     1
102
RTVSPropertyOp9
 70
     1
102
RTVSPropertyOp10
 70
     1
102
RTVSPropertyOp11
 70
     1
102
RTVSPropertyOp12
 70
     1
102
RTVSPropertyOp13
 70
     1
102
RTVSPropertyOp14
 70
     1
102
RTVSPropertyOp15
 70
     1
102
RTVSPropertyOp16
 70
     1
102
RTVSPropertyOp17
 70
     1
102
RTVSPropertyOp18
 70
     1
102
RTVSPropertyOp19
 70
     1
102
RTVSPropertyOp20
 70
     1
102
RTVSPropertyOp21
 70
     1
102
RTVSPropertyOp22
 70
     1
102
RTVSPropertyOp23
 70
     1
102
RTVSPropertyOp24
 70
     1
102
RTVSPropertyOp25
 70
     1
102
RTVSPropertyOp26
 70
     1
102
RTVSPropertyOp27
 70
     1
102
RTVSPropertyOp28
 70
     1
102
RTVSPropertyOp29
 70
     1
102
RTVSPropertyOp30
 70
     1
102
RTVSPropertyOp31
 70
     1
102
RTVSPropertyOp32
 70
     1
102
RTVSPropertyOp33
 70
     1
102
RTVSPropertyOp34
 70
     1
102
RTVSPropertyOp35
 70
     1
102
RTVSPropertyOp36
 70
     1
102
RTVSPropertyOp37
 70
     1
102
RTVSPropertyOp38
 70
     1
102
RTVSPropertyOp39
 70
     1
102
RTVSPropertyOp40
 70
     1
102
RTVSPropertyOp41
 70
     1
102
RTVSPropertyOp42
 70
     1
102
RTVSPropertyOp43
 70
     1
102
RTVSPropertyOp44
 70
     1
102
RTVSPropertyOp45
 70
     1
102
RTVSPropertyOp46
 70
     1
102
RTVSPropertyOp47
 70
     1
102
RTVSPropertyOp48
 70
     1
102
RTVSPropertyOp49
 70
     1
102
RTVSPropertyOp50
 70
     1
102
RTVSPropertyOp51
 70
     0
102
RTVSPropertyOp52
 70
     0
102
RTVSPropertyOp53
 70
     1
102
RTVSPropertyOp54
 70
     1
102
RTVSPropertyOp55
 70
     1
102
RTVSPropertyOp56
 70
     1
102
RTVSPropertyOp57
 70
     1
102
RTVSPropertyOp58
 70
     1
102
RTVSPropertyOp59
 70
     1
102
RTVSPropertyOp60
 70
     1
102
RTVSPropertyOp61
 70
     1
102
RTVSPropertyOp62
 70
     1
  0
XRECORD
  5
DF3
102
{ACAD_REACTORS
330
DF2
102
}
330
DF2
100
AcDbXrecord
280
     1
102
RTVSPost2010Prop28
280
     0
102
RTVSPost2010PropOp28
 70
     1
102
RTVSPost2010Prop29
280
     1
102
RTVSPost2010PropOp29
 70
     1
102
RTVSPost2010Prop30
280
     1
102
RTVSPost2010PropOp30
 70
     1
102
RTVSPost2010Prop31
280
     0
102
RTVSPost2010PropOp31
 70
     1
102
RTVSPost2010Prop32
280
     0
102
RTVSPost2010PropOp32
 70
     1
102
RTVSPost2010Prop33
280
     0
102
RTVSPost2010PropOp33
 70
     1
102
RTVSPost2010Prop34
280
     0
102
RTVSPost2010PropOp34
 70
     1
102
RTVSPost2010Prop35
280
     0
102
RTVSPost2010PropOp35
 70
     1
102
RTVSPost2010Prop36
280
     0
102
RTVSPost2010PropOp36
 70
     1
102
RTVSPost2010Prop37
 90
       50
102
RTVSPost2010PropOp37
 70
     1
102
RTVSPost2010Prop38
140
0.0
102
RTVSPost2010PropOp38
 70
     1
102
RTVSPost2010Prop39
140
1.0
102
RTVSPost2010PropOp39
 70
     1
102
RTVSPost2010Prop40
 90
        0
102
RTVSPost2010PropOp40
 70
     1
102
RTVSPost2010Prop41ColorIndex
 90
       18
102
RTVSPost2010Prop41ColorRGB
 90
        0
102
RTVSPost2010PropOp41
 70
     1
102
RTVSPost2010Prop42
 90
       50
102
RTVSPost2010PropOp42
 70
     1
102
RTVSPost2010Prop43
 90
        3
102
RTVSPost2010PropOp43
 70
     1
102
RTVSPost2010Prop44ColorIndex
 90
        5
102
RTVSPost2010Prop44ColorRGB
 90
      255
102
RTVSPost2010PropOp44
 70
     1
102
RTVSPost2010Prop45
280
     0
102
RTVSPost2010PropOp45
 70
     1
102
RTVSPost2010Prop46
 90
       50
102
RTVSPost2010PropOp46
 70
     1
102
RTVSPost2010Prop47
 90
       50
102
RTVSPost2010PropOp47
 70
     1
102
RTVSPost2010Prop48
 90
       50
102
RTVSPost2010PropOp48
 70
     1
102
RTVSPost2010Prop49
280
     0
102
RTVSPost2010PropOp49
 70
     1
102
RTVSPost2010Prop50
 90
       50
102
RTVSPost2010PropOp50
 70
     1
102
RTVSPost2010Prop51ColorIndex
 90
      256
102
RTVSPost2010Prop51ColorRGB
 90
-16777216
102
RTVSPost2010PropOp51
 70
     0
102
RTVSPost2010Prop52
140
1.0
102
RTVSPost2010PropOp52
 70
     0
102
RTVSPost2010Prop53
 90
        2
102
RTVSPost2010PropOp53
 70
     1
102
RTVSPost2010Prop54
  1
strokes_ogs.tif
102
RTVSPost2010PropOp54
 70
     1
102
RTVSPost2010Prop55
280
     0
102
RTVSPost2010PropOp55
 70
     1
102
RTVSPost2010Prop56
140
1.0
102
RTVSPost2010PropOp56
 70
     1
102
RTVSPost2010Prop57
140
1.0
102
RTVSPost2010PropOp57
 70
     1
102
RTVSPropertyOp0
 70
     1
102
RTVSPropertyOp1
 70
     1
102
RTVSPropertyOp2
 70
     1
102
RTVSPropertyOp3
 70
     1
102
RTVSPropertyOp4
 70
     1
102
RTVSPropertyOp5
 70
     1
102
RTVSPropertyOp6
 70
     1
102
RTVSPropertyOp7
 70
     1
102
RTVSPropertyOp8
 70
     1
102
RTVSPropertyOp9
 70
     1
102
RTVSPropertyOp10
 70
     1
102
RTVSPropertyOp11
 70
     1
102
RTVSPropertyOp12
 70
     1
102
RTVSPropertyOp13
 70
     1
102
RTVSPropertyOp14
 70
     1
102
RTVSPropertyOp15
 70
     1
102
RTVSPropertyOp16
 70
     1
102
RTVSPropertyOp17
 70
     1
102
RTVSPropertyOp18
 70
     1
102
RTVSPropertyOp19
 70
     1
102
RTVSPropertyOp20
 70
     1
102
RTVSPropertyOp21
 70
     1
102
RTVSPropertyOp22
 70
     1
102
RTVSPropertyOp23
 70
     1
102
RTVSPropertyOp24
 70
     1
102
RTVSPropertyOp25
 70
     1
102
RTVSPropertyOp26
 70
     1
102
RTVSPropertyOp27
 70
     1
102
RTVSPropertyOp28
 70
     1
102
RTVSPropertyOp29
 70
     1
102
RTVSPropertyOp30
 70
     1
102
RTVSPropertyOp31
 70
     1
102
RTVSPropertyOp32
 70
     1
102
RTVSPropertyOp33
 70
     1
102
RTVSPropertyOp34
 70
     1
102
RTVSPropertyOp35
 70
     1
102
RTVSPropertyOp36
 70
     1
102
RTVSPropertyOp37
 70
     1
102
RTVSPropertyOp38
 70
     1
102
RTVSPropertyOp39
 70
     1
102
RTVSPropertyOp40
 70
     1
102
RTVSPropertyOp41
 70
     1
102
RTVSPropertyOp42
 70
     1
102
RTVSPropertyOp43
 70
     1
102
RTVSPropertyOp44
 70
     1
102
RTVSPropertyOp45
 70
     1
102
RTVSPropertyOp46
 70
     1
102
RTVSPropertyOp47
 70
     1
102
RTVSPropertyOp48
 70
     1
102
RTVSPropertyOp49
 70
     1
102
RTVSPropertyOp50
 70
     1
102
RTVSPropertyOp51
 70
     0
102
RTVSPropertyOp52
 70
     0
102
RTVSPropertyOp53
 70
     1
102
RTVSPropertyOp54
 70
     1
102
RTVSPropertyOp55
 70
     1
102
RTVSPropertyOp56
 70
     1
102
RTVSPropertyOp57
 70
     1
102
RTVSPropertyOp58
 70
     1
102
RTVSPropertyOp59
 70
     1
102
RTVSPropertyOp60
 70
     1
102
RTVSPropertyOp61
 70
     1
102
RTVSPropertyOp62
 70
     1
  0
XRECORD
  5
DF1
102
{ACAD_REACTORS
330
DF0
102
}
330
DF0
100
AcDbXrecord
280
     1
102
RTVSPost2010Prop28
280
     0
102
RTVSPost2010PropOp28
 70
     1
102
RTVSPost2010Prop29
280
     1
102
RTVSPost2010PropOp29
 70
     1
102
RTVSPost2010Prop30
280
     1
102
RTVSPost2010PropOp30
 70
     1
102
RTVSPost2010Prop31
280
     0
102
RTVSPost2010PropOp31
 70
     1
102
RTVSPost2010Prop32
280
     0
102
RTVSPost2010PropOp32
 70
     1
102
RTVSPost2010Prop33
280
     0
102
RTVSPost2010PropOp33
 70
     1
102
RTVSPost2010Prop34
280
     0
102
RTVSPost2010PropOp34
 70
     1
102
RTVSPost2010Prop35
280
     0
102
RTVSPost2010PropOp35
 70
     1
102
RTVSPost2010Prop36
280
     0
102
RTVSPost2010PropOp36
 70
     1
102
RTVSPost2010Prop37
 90
       50
102
RTVSPost2010PropOp37
 70
     1
102
RTVSPost2010Prop38
140
0.0
102
RTVSPost2010PropOp38
 70
     1
102
RTVSPost2010Prop39
140
1.0
102
RTVSPost2010PropOp39
 70
     1
102
RTVSPost2010Prop40
 90
        0
102
RTVSPost2010PropOp40
 70
     1
102
RTVSPost2010Prop41ColorIndex
 90
       18
102
RTVSPost2010Prop41ColorRGB
 90
        0
102
RTVSPost2010PropOp41
 70
     1
102
RTVSPost2010Prop42
 90
       50
102
RTVSPost2010PropOp42
 70
     1
102
RTVSPost2010Prop43
 90
        3
102
RTVSPost2010PropOp43
 70
     1
102
RTVSPost2010Prop44ColorIndex
 90
        5
102
RTVSPost2010Prop44ColorRGB
 90
      255
102
RTVSPost2010PropOp44
 70
     1
102
RTVSPost2010Prop45
280
     0
102
RTVSPost2010PropOp45
 70
     1
102
RTVSPost2010Prop46
 90
       50
102
RTVSPost2010PropOp46
 70
     1
102
RTVSPost2010Prop47
 90
       50
102
RTVSPost2010PropOp47
 70
     1
102
RTVSPost2010Prop48
 90
       50
102
RTVSPost2010PropOp48
 70
     1
102
RTVSPost2010Prop49
280
     0
102
RTVSPost2010PropOp49
 70
     1
102
RTVSPost2010Prop50
 90
       50
102
RTVSPost2010PropOp50
 70
     1
102
RTVSPost2010Prop51ColorIndex
 90
      256
102
RTVSPost2010Prop51ColorRGB
 90
-16777216
102
RTVSPost2010PropOp51
 70
     0
102
RTVSPost2010Prop52
140
1.0
102
RTVSPost2010PropOp52
 70
     0
102
RTVSPost2010Prop53
 90
        2
102
RTVSPost2010PropOp53
 70
     1
102
RTVSPost2010Prop54
  1
strokes_ogs.tif
102
RTVSPost2010PropOp54
 70
     1
102
RTVSPost2010Prop55
280
     0
102
RTVSPost2010PropOp55
 70
     1
102
RTVSPost2010Prop56
140
1.0
102
RTVSPost2010PropOp56
 70
     1
102
RTVSPost2010Prop57
140
1.0
102
RTVSPost2010PropOp57
 70
     1
102
RTVSPropertyOp0
 70
     1
102
RTVSPropertyOp1
 70
     1
102
RTVSPropertyOp2
 70
     1
102
RTVSPropertyOp3
 70
     1
102
RTVSPropertyOp4
 70
     1
102
RTVSPropertyOp5
 70
     1
102
RTVSPropertyOp6
 70
     1
102
RTVSPropertyOp7
 70
     1
102
RTVSPropertyOp8
 70
     1
102
RTVSPropertyOp9
 70
     1
102
RTVSPropertyOp10
 70
     1
102
RTVSPropertyOp11
 70
     1
102
RTVSPropertyOp12
 70
     1
102
RTVSPropertyOp13
 70
     1
102
RTVSPropertyOp14
 70
     1
102
RTVSPropertyOp15
 70
     1
102
RTVSPropertyOp16
 70
     1
102
RTVSPropertyOp17
 70
     1
102
RTVSPropertyOp18
 70
     1
102
RTVSPropertyOp19
 70
     1
102
RTVSPropertyOp20
 70
     1
102
RTVSPropertyOp21
 70
     1
102
RTVSPropertyOp22
 70
     1
102
RTVSPropertyOp23
 70
     1
102
RTVSPropertyOp24
 70
     1
102
RTVSPropertyOp25
 70
     1
102
RTVSPropertyOp26
 70
     1
102
RTVSPropertyOp27
 70
     1
102
RTVSPropertyOp28
 70
     1
102
RTVSPropertyOp29
 70
     1
102
RTVSPropertyOp30
 70
     1
102
RTVSPropertyOp31
 70
     1
102
RTVSPropertyOp32
 70
     1
102
RTVSPropertyOp33
 70
     1
102
RTVSPropertyOp34
 70
     1
102
RTVSPropertyOp35
 70
     1
102
RTVSPropertyOp36
 70
     1
102
RTVSPropertyOp37
 70
     1
102
RTVSPropertyOp38
 70
     1
102
RTVSPropertyOp39
 70
     1
102
RTVSPropertyOp40
 70
     1
102
RTVSPropertyOp41
 70
     1
102
RTVSPropertyOp42
 70
     1
102
RTVSPropertyOp43
 70
     1
102
RTVSPropertyOp44
 70
     1
102
RTVSPropertyOp45
 70
     1
102
RTVSPropertyOp46
 70
     1
102
RTVSPropertyOp47
 70
     1
102
RTVSPropertyOp48
 70
     1
102
RTVSPropertyOp49
 70
     1
102
RTVSPropertyOp50
 70
     1
102
RTVSPropertyOp51
 70
     0
102
RTVSPropertyOp52
 70
     0
102
RTVSPropertyOp53
 70
     1
102
RTVSPropertyOp54
 70
     1
102
RTVSPropertyOp55
 70
     1
102
RTVSPropertyOp56
 70
     1
102
RTVSPropertyOp57
 70
     1
102
RTVSPropertyOp58
 70
     1
102
RTVSPropertyOp59
 70
     1
102
RTVSPropertyOp60
 70
     1
102
RTVSPropertyOp61
 70
     1
102
RTVSPropertyOp62
 70
     1
  0
XRECORD
  5
DEB
102
{ACAD_REACTORS
330
DEA
102
}
330
DEA
100
AcDbXrecord
280
     1
102
RTVSPost2010Prop28
280
     0
102
RTVSPost2010PropOp28
 70
     1
102
RTVSPost2010Prop29
280
     1
102
RTVSPost2010PropOp29
 70
     1
102
RTVSPost2010Prop30
280
     1
102
RTVSPost2010PropOp30
 70
     1
102
RTVSPost2010Prop31
280
     0
102
RTVSPost2010PropOp31
 70
     1
102
RTVSPost2010Prop32
280
     0
102
RTVSPost2010PropOp32
 70
     1
102
RTVSPost2010Prop33
280
     0
102
RTVSPost2010PropOp33
 70
     1
102
RTVSPost2010Prop34
280
     0
102
RTVSPost2010PropOp34
 70
     1
102
RTVSPost2010Prop35
280
     0
102
RTVSPost2010PropOp35
 70
     1
102
RTVSPost2010Prop36
280
     0
102
RTVSPost2010PropOp36
 70
     1
102
RTVSPost2010Prop37
 90
       50
102
RTVSPost2010PropOp37
 70
     1
102
RTVSPost2010Prop38
140
0.0
102
RTVSPost2010PropOp38
 70
     1
102
RTVSPost2010Prop39
140
1.0
102
RTVSPost2010PropOp39
 70
     1
102
RTVSPost2010Prop40
 90
        0
102
RTVSPost2010PropOp40
 70
     1
102
RTVSPost2010Prop41ColorIndex
 90
       18
102
RTVSPost2010Prop41ColorRGB
 90
        0
102
RTVSPost2010PropOp41
 70
     1
102
RTVSPost2010Prop42
 90
       50
102
RTVSPost2010PropOp42
 70
     1
102
RTVSPost2010Prop43
 90
        3
102
RTVSPost2010PropOp43
 70
     1
102
RTVSPost2010Prop44ColorIndex
 90
        5
102
RTVSPost2010Prop44ColorRGB
 90
      255
102
RTVSPost2010PropOp44
 70
     1
102
RTVSPost2010Prop45
280
     0
102
RTVSPost2010PropOp45
 70
     1
102
RTVSPost2010Prop46
 90
       50
102
RTVSPost2010PropOp46
 70
     1
102
RTVSPost2010Prop47
 90
       50
102
RTVSPost2010PropOp47
 70
     1
102
RTVSPost2010Prop48
 90
       50
102
RTVSPost2010PropOp48
 70
     1
102
RTVSPost2010Prop49
280
     0
102
RTVSPost2010PropOp49
 70
     1
102
RTVSPost2010Prop50
 90
       50
102
RTVSPost2010PropOp50
 70
     1
102
RTVSPost2010Prop51ColorIndex
 90
      256
102
RTVSPost2010Prop51ColorRGB
 90
-16777216
102
RTVSPost2010PropOp51
 70
     0
102
RTVSPost2010Prop52
140
1.0
102
RTVSPost2010PropOp52
 70
     0
102
RTVSPost2010Prop53
 90
        2
102
RTVSPost2010PropOp53
 70
     1
102
RTVSPost2010Prop54
  1
strokes_ogs.tif
102
RTVSPost2010PropOp54
 70
     1
102
RTVSPost2010Prop55
280
     0
102
RTVSPost2010PropOp55
 70
     1
102
RTVSPost2010Prop56
140
1.0
102
RTVSPost2010PropOp56
 70
     1
102
RTVSPost2010Prop57
140
1.0
102
RTVSPost2010PropOp57
 70
     1
102
RTVSPropertyOp0
 70
     1
102
RTVSPropertyOp1
 70
     1
102
RTVSPropertyOp2
 70
     1
102
RTVSPropertyOp3
 70
     1
102
RTVSPropertyOp4
 70
     1
102
RTVSPropertyOp5
 70
     1
102
RTVSPropertyOp6
 70
     1
102
RTVSPropertyOp7
 70
     1
102
RTVSPropertyOp8
 70
     1
102
RTVSPropertyOp9
 70
     1
102
RTVSPropertyOp10
 70
     1
102
RTVSPropertyOp11
 70
     1
102
RTVSPropertyOp12
 70
     1
102
RTVSPropertyOp13
 70
     1
102
RTVSPropertyOp14
 70
     1
102
RTVSPropertyOp15
 70
     1
102
RTVSPropertyOp16
 70
     1
102
RTVSPropertyOp17
 70
     1
102
RTVSPropertyOp18
 70
     1
102
RTVSPropertyOp19
 70
     1
102
RTVSPropertyOp20
 70
     1
102
RTVSPropertyOp21
 70
     1
102
RTVSPropertyOp22
 70
     1
102
RTVSPropertyOp23
 70
     1
102
RTVSPropertyOp24
 70
     1
102
RTVSPropertyOp25
 70
     1
102
RTVSPropertyOp26
 70
     1
102
RTVSPropertyOp27
 70
     1
102
RTVSPropertyOp28
 70
     1
102
RTVSPropertyOp29
 70
     1
102
RTVSPropertyOp30
 70
     1
102
RTVSPropertyOp31
 70
     1
102
RTVSPropertyOp32
 70
     1
102
RTVSPropertyOp33
 70
     1
102
RTVSPropertyOp34
 70
     1
102
RTVSPropertyOp35
 70
     1
102
RTVSPropertyOp36
 70
     1
102
RTVSPropertyOp37
 70
     1
102
RTVSPropertyOp38
 70
     1
102
RTVSPropertyOp39
 70
     1
102
RTVSPropertyOp40
 70
     1
102
RTVSPropertyOp41
 70
     1
102
RTVSPropertyOp42
 70
     1
102
RTVSPropertyOp43
 70
     1
102
RTVSPropertyOp44
 70
     1
102
RTVSPropertyOp45
 70
     1
102
RTVSPropertyOp46
 70
     1
102
RTVSPropertyOp47
 70
     1
102
RTVSPropertyOp48
 70
     1
102
RTVSPropertyOp49
 70
     1
102
RTVSPropertyOp50
 70
     1
102
RTVSPropertyOp51
 70
     0
102
RTVSPropertyOp52
 70
     0
102
RTVSPropertyOp53
 70
     1
102
RTVSPropertyOp54
 70
     1
102
RTVSPropertyOp55
 70
     1
102
RTVSPropertyOp56
 70
     1
102
RTVSPropertyOp57
 70
     1
102
RTVSPropertyOp58
 70
     1
102
RTVSPropertyOp59
 70
     1
102
RTVSPropertyOp60
 70
     1
102
RTVSPropertyOp61
 70
     1
102
RTVSPropertyOp62
 70
     1
  0
XRECORD
  5
DED
102
{ACAD_REACTORS
330
DEC
102
}
330
DEC
100
AcDbXrecord
280
     1
102
RTVSPost2010Prop28
280
     0
102
RTVSPost2010PropOp28
 70
     1
102
RTVSPost2010Prop29
280
     1
102
RTVSPost2010PropOp29
 70
     1
102
RTVSPost2010Prop30
280
     1
102
RTVSPost2010PropOp30
 70
     1
102
RTVSPost2010Prop31
280
     0
102
RTVSPost2010PropOp31
 70
     1
102
RTVSPost2010Prop32
280
     0
102
RTVSPost2010PropOp32
 70
     1
102
RTVSPost2010Prop33
280
     0
102
RTVSPost2010PropOp33
 70
     1
102
RTVSPost2010Prop34
280
     0
102
RTVSPost2010PropOp34
 70
     1
102
RTVSPost2010Prop35
280
     0
102
RTVSPost2010PropOp35
 70
     1
102
RTVSPost2010Prop36
280
     0
102
RTVSPost2010PropOp36
 70
     1
102
RTVSPost2010Prop37
 90
       50
102
RTVSPost2010PropOp37
 70
     1
102
RTVSPost2010Prop38
140
0.0
102
RTVSPost2010PropOp38
 70
     1
102
RTVSPost2010Prop39
140
1.0
102
RTVSPost2010PropOp39
 70
     1
102
RTVSPost2010Prop40
 90
        0
102
RTVSPost2010PropOp40
 70
     1
102
RTVSPost2010Prop41ColorIndex
 90
       18
102
RTVSPost2010Prop41ColorRGB
 90
        0
102
RTVSPost2010PropOp41
 70
     1
102
RTVSPost2010Prop42
 90
       50
102
RTVSPost2010PropOp42
 70
     1
102
RTVSPost2010Prop43
 90
        3
102
RTVSPost2010PropOp43
 70
     1
102
RTVSPost2010Prop44ColorIndex
 90
        5
102
RTVSPost2010Prop44ColorRGB
 90
      255
102
RTVSPost2010PropOp44
 70
     1
102
RTVSPost2010Prop45
280
     0
102
RTVSPost2010PropOp45
 70
     1
102
RTVSPost2010Prop46
 90
       50
102
RTVSPost2010PropOp46
 70
     1
102
RTVSPost2010Prop47
 90
       50
102
RTVSPost2010PropOp47
 70
     1
102
RTVSPost2010Prop48
 90
       50
102
RTVSPost2010PropOp48
 70
     1
102
RTVSPost2010Prop49
280
     0
102
RTVSPost2010PropOp49
 70
     1
102
RTVSPost2010Prop50
 90
       50
102
RTVSPost2010PropOp50
 70
     1
102
RTVSPost2010Prop51ColorIndex
 90
      256
102
RTVSPost2010Prop51ColorRGB
 90
-16777216
102
RTVSPost2010PropOp51
 70
     0
102
RTVSPost2010Prop52
140
1.0
102
RTVSPost2010PropOp52
 70
     0
102
RTVSPost2010Prop53
 90
        2
102
RTVSPost2010PropOp53
 70
     1
102
RTVSPost2010Prop54
  1
strokes_ogs.tif
102
RTVSPost2010PropOp54
 70
     1
102
RTVSPost2010Prop55
280
     0
102
RTVSPost2010PropOp55
 70
     1
102
RTVSPost2010Prop56
140
1.0
102
RTVSPost2010PropOp56
 70
     1
102
RTVSPost2010Prop57
140
1.0
102
RTVSPost2010PropOp57
 70
     1
102
RTVSPropertyOp0
 70
     1
102
RTVSPropertyOp1
 70
     1
102
RTVSPropertyOp2
 70
     1
102
RTVSPropertyOp3
 70
     1
102
RTVSPropertyOp4
 70
     1
102
RTVSPropertyOp5
 70
     1
102
RTVSPropertyOp6
 70
     1
102
RTVSPropertyOp7
 70
     1
102
RTVSPropertyOp8
 70
     1
102
RTVSPropertyOp9
 70
     1
102
RTVSPropertyOp10
 70
     1
102
RTVSPropertyOp11
 70
     1
102
RTVSPropertyOp12
 70
     1
102
RTVSPropertyOp13
 70
     1
102
RTVSPropertyOp14
 70
     1
102
RTVSPropertyOp15
 70
     1
102
RTVSPropertyOp16
 70
     1
102
RTVSPropertyOp17
 70
     1
102
RTVSPropertyOp18
 70
     1
102
RTVSPropertyOp19
 70
     1
102
RTVSPropertyOp20
 70
     1
102
RTVSPropertyOp21
 70
     1
102
RTVSPropertyOp22
 70
     1
102
RTVSPropertyOp23
 70
     1
102
RTVSPropertyOp24
 70
     1
102
RTVSPropertyOp25
 70
     1
102
RTVSPropertyOp26
 70
     1
102
RTVSPropertyOp27
 70
     1
102
RTVSPropertyOp28
 70
     1
102
RTVSPropertyOp29
 70
     1
102
RTVSPropertyOp30
 70
     1
102
RTVSPropertyOp31
 70
     1
102
RTVSPropertyOp32
 70
     1
102
RTVSPropertyOp33
 70
     1
102
RTVSPropertyOp34
 70
     1
102
RTVSPropertyOp35
 70
     1
102
RTVSPropertyOp36
 70
     1
102
RTVSPropertyOp37
 70
     1
102
RTVSPropertyOp38
 70
     1
102
RTVSPropertyOp39
 70
     1
102
RTVSPropertyOp40
 70
     1
102
RTVSPropertyOp41
 70
     1
102
RTVSPropertyOp42
 70
     1
102
RTVSPropertyOp43
 70
     1
102
RTVSPropertyOp44
 70
     1
102
RTVSPropertyOp45
 70
     1
102
RTVSPropertyOp46
 70
     1
102
RTVSPropertyOp47
 70
     1
102
RTVSPropertyOp48
 70
     1
102
RTVSPropertyOp49
 70
     1
102
RTVSPropertyOp50
 70
     1
102
RTVSPropertyOp51
 70
     0
102
RTVSPropertyOp52
 70
     0
102
RTVSPropertyOp53
 70
     1
102
RTVSPropertyOp54
 70
     1
102
RTVSPropertyOp55
 70
     1
102
RTVSPropertyOp56
 70
     1
102
RTVSPropertyOp57
 70
     1
102
RTVSPropertyOp58
 70
     1
102
RTVSPropertyOp59
 70
     1
102
RTVSPropertyOp60
 70
     1
102
RTVSPropertyOp61
 70
     1
102
RTVSPropertyOp62
 70
     1
  0
XRECORD
  5
DE3
102
{ACAD_REACTORS
330
DE2
102
}
330
DE2
100
AcDbXrecord
280
     1
102
RTVSPost2010Prop28
280
     0
102
RTVSPost2010PropOp28
 70
     1
102
RTVSPost2010Prop29
280
     1
102
RTVSPost2010PropOp29
 70
     1
102
RTVSPost2010Prop30
280
     1
102
RTVSPost2010PropOp30
 70
     1
102
RTVSPost2010Prop31
280
     0
102
RTVSPost2010PropOp31
 70
     1
102
RTVSPost2010Prop32
280
     0
102
RTVSPost2010PropOp32
 70
     1
102
RTVSPost2010Prop33
280
     0
102
RTVSPost2010PropOp33
 70
     1
102
RTVSPost2010Prop34
280
     0
102
RTVSPost2010PropOp34
 70
     1
102
RTVSPost2010Prop35
280
     0
102
RTVSPost2010PropOp35
 70
     1
102
RTVSPost2010Prop36
280
     0
102
RTVSPost2010PropOp36
 70
     1
102
RTVSPost2010Prop37
 90
       50
102
RTVSPost2010PropOp37
 70
     1
102
RTVSPost2010Prop38
140
0.0
102
RTVSPost2010PropOp38
 70
     1
102
RTVSPost2010Prop39
140
1.0
102
RTVSPost2010PropOp39
 70
     1
102
RTVSPost2010Prop40
 90
        0
102
RTVSPost2010PropOp40
 70
     1
102
RTVSPost2010Prop41ColorIndex
 90
       18
102
RTVSPost2010Prop41ColorRGB
 90
        0
102
RTVSPost2010PropOp41
 70
     1
102
RTVSPost2010Prop42
 90
       50
102
RTVSPost2010PropOp42
 70
     1
102
RTVSPost2010Prop43
 90
        3
102
RTVSPost2010PropOp43
 70
     1
102
RTVSPost2010Prop44ColorIndex
 90
        5
102
RTVSPost2010Prop44ColorRGB
 90
      255
102
RTVSPost2010PropOp44
 70
     1
102
RTVSPost2010Prop45
280
     0
102
RTVSPost2010PropOp45
 70
     1
102
RTVSPost2010Prop46
 90
       50
102
RTVSPost2010PropOp46
 70
     1
102
RTVSPost2010Prop47
 90
       50
102
RTVSPost2010PropOp47
 70
     1
102
RTVSPost2010Prop48
 90
       50
102
RTVSPost2010PropOp48
 70
     1
102
RTVSPost2010Prop49
280
     0
102
RTVSPost2010PropOp49
 70
     1
102
RTVSPost2010Prop50
 90
       50
102
RTVSPost2010PropOp50
 70
     1
102
RTVSPost2010Prop51ColorIndex
 90
      256
102
RTVSPost2010Prop51ColorRGB
 90
-16777216
102
RTVSPost2010PropOp51
 70
     0
102
RTVSPost2010Prop52
140
1.0
102
RTVSPost2010PropOp52
 70
     0
102
RTVSPost2010Prop53
 90
        2
102
RTVSPost2010PropOp53
 70
     1
102
RTVSPost2010Prop54
  1
strokes_ogs.tif
102
RTVSPost2010PropOp54
 70
     1
102
RTVSPost2010Prop55
280
     0
102
RTVSPost2010PropOp55
 70
     1
102
RTVSPost2010Prop56
140
1.0
102
RTVSPost2010PropOp56
 70
     1
102
RTVSPost2010Prop57
140
1.0
102
RTVSPost2010PropOp57
 70
     1
102
RTVSPropertyOp0
 70
     1
102
RTVSPropertyOp1
 70
     1
102
RTVSPropertyOp2
 70
     1
102
RTVSPropertyOp3
 70
     1
102
RTVSPropertyOp4
 70
     1
102
RTVSPropertyOp5
 70
     1
102
RTVSPropertyOp6
 70
     1
102
RTVSPropertyOp7
 70
     1
102
RTVSPropertyOp8
 70
     1
102
RTVSPropertyOp9
 70
     1
102
RTVSPropertyOp10
 70
     1
102
RTVSPropertyOp11
 70
     1
102
RTVSPropertyOp12
 70
     1
102
RTVSPropertyOp13
 70
     1
102
RTVSPropertyOp14
 70
     1
102
RTVSPropertyOp15
 70
     1
102
RTVSPropertyOp16
 70
     1
102
RTVSPropertyOp17
 70
     1
102
RTVSPropertyOp18
 70
     1
102
RTVSPropertyOp19
 70
     1
102
RTVSPropertyOp20
 70
     1
102
RTVSPropertyOp21
 70
     1
102
RTVSPropertyOp22
 70
     1
102
RTVSPropertyOp23
 70
     1
102
RTVSPropertyOp24
 70
     1
102
RTVSPropertyOp25
 70
     1
102
RTVSPropertyOp26
 70
     1
102
RTVSPropertyOp27
 70
     1
102
RTVSPropertyOp28
 70
     1
102
RTVSPropertyOp29
 70
     1
102
RTVSPropertyOp30
 70
     1
102
RTVSPropertyOp31
 70
     1
102
RTVSPropertyOp32
 70
     1
102
RTVSPropertyOp33
 70
     1
102
RTVSPropertyOp34
 70
     1
102
RTVSPropertyOp35
 70
     1
102
RTVSPropertyOp36
 70
     1
102
RTVSPropertyOp37
 70
     1
102
RTVSPropertyOp38
 70
     1
102
RTVSPropertyOp39
 70
     1
102
RTVSPropertyOp40
 70
     1
102
RTVSPropertyOp41
 70
     1
102
RTVSPropertyOp42
 70
     1
102
RTVSPropertyOp43
 70
     1
102
RTVSPropertyOp44
 70
     1
102
RTVSPropertyOp45
 70
     1
102
RTVSPropertyOp46
 70
     1
102
RTVSPropertyOp47
 70
     1
102
RTVSPropertyOp48
 70
     1
102
RTVSPropertyOp49
 70
     1
102
RTVSPropertyOp50
 70
     1
102
RTVSPropertyOp51
 70
     0
102
RTVSPropertyOp52
 70
     0
102
RTVSPropertyOp53
 70
     1
102
RTVSPropertyOp54
 70
     1
102
RTVSPropertyOp55
 70
     1
102
RTVSPropertyOp56
 70
     1
102
RTVSPropertyOp57
 70
     1
102
RTVSPropertyOp58
 70
     1
102
RTVSPropertyOp59
 70
     1
102
RTVSPropertyOp60
 70
     1
102
RTVSPropertyOp61
 70
     1
102
RTVSPropertyOp62
 70
     1
  0
XRECORD
  5
DD7
102
{ACAD_REACTORS
330
DD6
102
}
330
DD6
100
AcDbXrecord
280
     1
102
RTVSPost2010Prop28
280
     0
102
RTVSPost2010PropOp28
 70
     1
102
RTVSPost2010Prop29
280
     1
102
RTVSPost2010PropOp29
 70
     1
102
RTVSPost2010Prop30
280
     1
102
RTVSPost2010PropOp30
 70
     1
102
RTVSPost2010Prop31
280
     0
102
RTVSPost2010PropOp31
 70
     1
102
RTVSPost2010Prop32
280
     0
102
RTVSPost2010PropOp32
 70
     1
102
RTVSPost2010Prop33
280
     0
102
RTVSPost2010PropOp33
 70
     1
102
RTVSPost2010Prop34
280
     0
102
RTVSPost2010PropOp34
 70
     1
102
RTVSPost2010Prop35
280
     0
102
RTVSPost2010PropOp35
 70
     1
102
RTVSPost2010Prop36
280
     0
102
RTVSPost2010PropOp36
 70
     1
102
RTVSPost2010Prop37
 90
       50
102
RTVSPost2010PropOp37
 70
     1
102
RTVSPost2010Prop38
140
0.0
102
RTVSPost2010PropOp38
 70
     1
102
RTVSPost2010Prop39
140
1.0
102
RTVSPost2010PropOp39
 70
     1
102
RTVSPost2010Prop40
 90
        0
102
RTVSPost2010PropOp40
 70
     1
102
RTVSPost2010Prop41ColorIndex
 90
       18
102
RTVSPost2010Prop41ColorRGB
 90
        0
102
RTVSPost2010PropOp41
 70
     1
102
RTVSPost2010Prop42
 90
       50
102
RTVSPost2010PropOp42
 70
     1
102
RTVSPost2010Prop43
 90
        3
102
RTVSPost2010PropOp43
 70
     1
102
RTVSPost2010Prop44ColorIndex
 90
        5
102
RTVSPost2010Prop44ColorRGB
 90
      255
102
RTVSPost2010PropOp44
 70
     1
102
RTVSPost2010Prop45
280
     0
102
RTVSPost2010PropOp45
 70
     1
102
RTVSPost2010Prop46
 90
       50
102
RTVSPost2010PropOp46
 70
     1
102
RTVSPost2010Prop47
 90
       50
102
RTVSPost2010PropOp47
 70
     1
102
RTVSPost2010Prop48
 90
       50
102
RTVSPost2010PropOp48
 70
     1
102
RTVSPost2010Prop49
280
     0
102
RTVSPost2010PropOp49
 70
     1
102
RTVSPost2010Prop50
 90
       50
102
RTVSPost2010PropOp50
 70
     1
102
RTVSPost2010Prop51ColorIndex
 90
      256
102
RTVSPost2010Prop51ColorRGB
 90
-16777216
102
RTVSPost2010PropOp51
 70
     0
102
RTVSPost2010Prop52
140
1.0
102
RTVSPost2010PropOp52
 70
     0
102
RTVSPost2010Prop53
 90
        2
102
RTVSPost2010PropOp53
 70
     1
102
RTVSPost2010Prop54
  1
strokes_ogs.tif
102
RTVSPost2010PropOp54
 70
     1
102
RTVSPost2010Prop55
280
     0
102
RTVSPost2010PropOp55
 70
     1
102
RTVSPost2010Prop56
140
1.0
102
RTVSPost2010PropOp56
 70
     1
102
RTVSPost2010Prop57
140
1.0
102
RTVSPost2010PropOp57
 70
     1
102
RTVSPropertyOp0
 70
     1
102
RTVSPropertyOp1
 70
     1
102
RTVSPropertyOp2
 70
     1
102
RTVSPropertyOp3
 70
     1
102
RTVSPropertyOp4
 70
     1
102
RTVSPropertyOp5
 70
     1
102
RTVSPropertyOp6
 70
     1
102
RTVSPropertyOp7
 70
     1
102
RTVSPropertyOp8
 70
     1
102
RTVSPropertyOp9
 70
     1
102
RTVSPropertyOp10
 70
     1
102
RTVSPropertyOp11
 70
     1
102
RTVSPropertyOp12
 70
     1
102
RTVSPropertyOp13
 70
     1
102
RTVSPropertyOp14
 70
     1
102
RTVSPropertyOp15
 70
     1
102
RTVSPropertyOp16
 70
     1
102
RTVSPropertyOp17
 70
     1
102
RTVSPropertyOp18
 70
     1
102
RTVSPropertyOp19
 70
     1
102
RTVSPropertyOp20
 70
     1
102
RTVSPropertyOp21
 70
     1
102
RTVSPropertyOp22
 70
     1
102
RTVSPropertyOp23
 70
     1
102
RTVSPropertyOp24
 70
     1
102
RTVSPropertyOp25
 70
     1
102
RTVSPropertyOp26
 70
     1
102
RTVSPropertyOp27
 70
     1
102
RTVSPropertyOp28
 70
     1
102
RTVSPropertyOp29
 70
     1
102
RTVSPropertyOp30
 70
     1
102
RTVSPropertyOp31
 70
     1
102
RTVSPropertyOp32
 70
     1
102
RTVSPropertyOp33
 70
     1
102
RTVSPropertyOp34
 70
     1
102
RTVSPropertyOp35
 70
     1
102
RTVSPropertyOp36
 70
     1
102
RTVSPropertyOp37
 70
     1
102
RTVSPropertyOp38
 70
     1
102
RTVSPropertyOp39
 70
     1
102
RTVSPropertyOp40
 70
     1
102
RTVSPropertyOp41
 70
     1
102
RTVSPropertyOp42
 70
     1
102
RTVSPropertyOp43
 70
     1
102
RTVSPropertyOp44
 70
     1
102
RTVSPropertyOp45
 70
     1
102
RTVSPropertyOp46
 70
     1
102
RTVSPropertyOp47
 70
     1
102
RTVSPropertyOp48
 70
     1
102
RTVSPropertyOp49
 70
     1
102
RTVSPropertyOp50
 70
     1
102
RTVSPropertyOp51
 70
     0
102
RTVSPropertyOp52
 70
     0
102
RTVSPropertyOp53
 70
     1
102
RTVSPropertyOp54
 70
     1
102
RTVSPropertyOp55
 70
     1
102
RTVSPropertyOp56
 70
     1
102
RTVSPropertyOp57
 70
     1
102
RTVSPropertyOp58
 70
     1
102
RTVSPropertyOp59
 70
     1
102
RTVSPropertyOp60
 70
     1
102
RTVSPropertyOp61
 70
     1
102
RTVSPropertyOp62
 70
     1
  0
XRECORD
  5
DEF
102
{ACAD_REACTORS
330
DEE
102
}
330
DEE
100
AcDbXrecord
280
     1
102
RTVSPost2010Prop28
280
     0
102
RTVSPost2010PropOp28
 70
     1
102
RTVSPost2010Prop29
280
     1
102
RTVSPost2010PropOp29
 70
     1
102
RTVSPost2010Prop30
280
     1
102
RTVSPost2010PropOp30
 70
     1
102
RTVSPost2010Prop31
280
     0
102
RTVSPost2010PropOp31
 70
     1
102
RTVSPost2010Prop32
280
     0
102
RTVSPost2010PropOp32
 70
     1
102
RTVSPost2010Prop33
280
     0
102
RTVSPost2010PropOp33
 70
     1
102
RTVSPost2010Prop34
280
     0
102
RTVSPost2010PropOp34
 70
     1
102
RTVSPost2010Prop35
280
     0
102
RTVSPost2010PropOp35
 70
     1
102
RTVSPost2010Prop36
280
     0
102
RTVSPost2010PropOp36
 70
     1
102
RTVSPost2010Prop37
 90
       50
102
RTVSPost2010PropOp37
 70
     1
102
RTVSPost2010Prop38
140
0.0
102
RTVSPost2010PropOp38
 70
     1
102
RTVSPost2010Prop39
140
1.0
102
RTVSPost2010PropOp39
 70
     1
102
RTVSPost2010Prop40
 90
        0
102
RTVSPost2010PropOp40
 70
     1
102
RTVSPost2010Prop41ColorIndex
 90
       18
102
RTVSPost2010Prop41ColorRGB
 90
        0
102
RTVSPost2010PropOp41
 70
     1
102
RTVSPost2010Prop42
 90
       50
102
RTVSPost2010PropOp42
 70
     1
102
RTVSPost2010Prop43
 90
        3
102
RTVSPost2010PropOp43
 70
     1
102
RTVSPost2010Prop44ColorIndex
 90
        5
102
RTVSPost2010Prop44ColorRGB
 90
      255
102
RTVSPost2010PropOp44
 70
     1
102
RTVSPost2010Prop45
280
     0
102
RTVSPost2010PropOp45
 70
     1
102
RTVSPost2010Prop46
 90
       50
102
RTVSPost2010PropOp46
 70
     1
102
RTVSPost2010Prop47
 90
       50
102
RTVSPost2010PropOp47
 70
     1
102
RTVSPost2010Prop48
 90
       50
102
RTVSPost2010PropOp48
 70
     1
102
RTVSPost2010Prop49
280
     0
102
RTVSPost2010PropOp49
 70
     1
102
RTVSPost2010Prop50
 90
       50
102
RTVSPost2010PropOp50
 70
     1
102
RTVSPost2010Prop51ColorIndex
 90
      256
102
RTVSPost2010Prop51ColorRGB
 90
-16777216
102
RTVSPost2010PropOp51
 70
     0
102
RTVSPost2010Prop52
140
1.0
102
RTVSPost2010PropOp52
 70
     0
102
RTVSPost2010Prop53
 90
        2
102
RTVSPost2010PropOp53
 70
     1
102
RTVSPost2010Prop54
  1
strokes_ogs.tif
102
RTVSPost2010PropOp54
 70
     1
102
RTVSPost2010Prop55
280
     0
102
RTVSPost2010PropOp55
 70
     1
102
RTVSPost2010Prop56
140
1.0
102
RTVSPost2010PropOp56
 70
     1
102
RTVSPost2010Prop57
140
1.0
102
RTVSPost2010PropOp57
 70
     1
102
RTVSPropertyOp0
 70
     1
102
RTVSPropertyOp1
 70
     1
102
RTVSPropertyOp2
 70
     1
102
RTVSPropertyOp3
 70
     1
102
RTVSPropertyOp4
 70
     1
102
RTVSPropertyOp5
 70
     1
102
RTVSPropertyOp6
 70
     1
102
RTVSPropertyOp7
 70
     1
102
RTVSPropertyOp8
 70
     1
102
RTVSPropertyOp9
 70
     1
102
RTVSPropertyOp10
 70
     1
102
RTVSPropertyOp11
 70
     1
102
RTVSPropertyOp12
 70
     1
102
RTVSPropertyOp13
 70
     1
102
RTVSPropertyOp14
 70
     1
102
RTVSPropertyOp15
 70
     1
102
RTVSPropertyOp16
 70
     1
102
RTVSPropertyOp17
 70
     1
102
RTVSPropertyOp18
 70
     1
102
RTVSPropertyOp19
 70
     1
102
RTVSPropertyOp20
 70
     1
102
RTVSPropertyOp21
 70
     1
102
RTVSPropertyOp22
 70
     1
102
RTVSPropertyOp23
 70
     1
102
RTVSPropertyOp24
 70
     1
102
RTVSPropertyOp25
 70
     1
102
RTVSPropertyOp26
 70
     1
102
RTVSPropertyOp27
 70
     1
102
RTVSPropertyOp28
 70
     1
102
RTVSPropertyOp29
 70
     1
102
RTVSPropertyOp30
 70
     1
102
RTVSPropertyOp31
 70
     1
102
RTVSPropertyOp32
 70
     1
102
RTVSPropertyOp33
 70
     1
102
RTVSPropertyOp34
 70
     1
102
RTVSPropertyOp35
 70
     1
102
RTVSPropertyOp36
 70
     1
102
RTVSPropertyOp37
 70
     1
102
RTVSPropertyOp38
 70
     1
102
RTVSPropertyOp39
 70
     1
102
RTVSPropertyOp40
 70
     1
102
RTVSPropertyOp41
 70
     1
102
RTVSPropertyOp42
 70
     1
102
RTVSPropertyOp43
 70
     1
102
RTVSPropertyOp44
 70
     1
102
RTVSPropertyOp45
 70
     1
102
RTVSPropertyOp46
 70
     1
102
RTVSPropertyOp47
 70
     1
102
RTVSPropertyOp48
 70
     1
102
RTVSPropertyOp49
 70
     1
102
RTVSPropertyOp50
 70
     1
102
RTVSPropertyOp51
 70
     0
102
RTVSPropertyOp52
 70
     0
102
RTVSPropertyOp53
 70
     1
102
RTVSPropertyOp54
 70
     1
102
RTVSPropertyOp55
 70
     1
102
RTVSPropertyOp56
 70
     1
102
RTVSPropertyOp57
 70
     1
102
RTVSPropertyOp58
 70
     1
102
RTVSPropertyOp59
 70
     1
102
RTVSPropertyOp60
 70
     1
102
RTVSPropertyOp61
 70
     1
102
RTVSPropertyOp62
 70
     1
  0
ENDSEC
  0
EOF
