  0
SECTION
  2
HEADER
  9
$ACADVER
  1
AC1015
  9
$DWGCODEPAGE
  3
ANSI_932
  9
$LTSCALE
 40
20.0
  9
$FILLMODE
 70
     1
  9
$CLAYER
  8
0
  9
$PDMODE
 70
     0
  9
$SPLFRAME
 70
     0
  9
$SPLINETYPE
 70
     6
  9
$SPLINESEGS
 70
     8
  9
$DIMASZ
 40
2.000000
  9
$DIMEXE
 40
1.500000
  9
$DIMEXO
 40
0.800000
  9
$DIMTAD
 70
     1
  9
$DIMTIH
 70
     0
  9
$DIMTOH
 70
     0
  9
$DIMTVP
 40
0.500000
  9
$DIMTXT
 40
3.100000
  9
$EXTMIN
 10
0.000000
 20
0.000000
 30
0.000000
  9
$EXTMAX
 10
297.000000
 20
420.000000
 30
0.000000
  9
$MEASUREMENT
 70
  1
  9
$LIMMIN
 10
0.000000
 20
0.000000
  9
$LIMMAX
 10
297.000000
 20
420.000000
  9
$HANDSEED
  5
127
  9
$LWDISPLAY
290
     0
  9
$DIMBLK
  1
_OPEN
  9
$DIMDEC
 70
     2
  9
$DIMADEC
 70
     2
  9
$DIMAUNIT
 70
     0
  9
$DIMZIN
 70
     8
  9
$DIMAZIN
 70
     2
  9
$DIMTOFL
 70
     1
  0
ENDSEC
  0
SECTION
  2
CLASSES
  0
ENDSEC
  0
SECTION
  2
TABLES
  0
TABLE
  2
VPORT
  5
F7
100
AcDbSymbolTable
 70
     1
  0
VPORT
  5
F8
100
AcDbSymbolTableRecord
100
AcDbViewportTableRecord
  2
*ACTIVE
 70
     0
 12
101.826863
 22
103.455500
 40
170.911000
 41
1.085448
  0
ENDTAB
  0
TABLE
  2
LTYPE
  5
F9
100
AcDbSymbolTable
 70
     2
  0
LTYPE
  5
FA
100
AcDbSymbolTableRecord
100
AcDbLinetypeTableRecord
  2
BYBLOCK
 70
     0
  3

 72
    65
 73
     0
 40
0.0
  0
LTYPE
  5
FB
100
AcDbSymbolTableRecord
100
AcDbLinetypeTableRecord
  2
BYLAYER
 70
     0
  3

 72
    65
 73
     0
 40
0.0
  0
LTYPE
  5
FC
100
AcDbSymbolTableRecord
100
AcDbLinetypeTableRecord
  2
CONTINUOUS
 70
     0
  3
Solid line (NEC CAE2D for Win R15.2 : 2020.03.13)
 72
    65
 73
     0
 40
0.0
  0
LTYPE
  5
FD
100
AcDbSymbolTableRecord
100
AcDbLinetypeTableRecord
  2
CENTER
 70
     0
  3
____ _ ____ _ ____ _ ____ _ ____ _ ____
 72
    65
 73
     4
 40
2.0
 49
1.25
 74
     0
 49
-0.25
 74
     0
 49
0.25
 74
     0
 49
-0.25
 74
     0
  0
ENDTAB
  0
TABLE
  2
LAYER
  5
FE
100
AcDbSymbolTable
 70
    10
  0
LAYER
  5
FF
100
AcDbSymbolTableRecord
100
AcDbLayerTableRecord
  2
0
 70
     0
 62
     7
  6
CONTINUOUS
370
    -3
390

  0
LAYER
  5
100
100
AcDbSymbolTableRecord
100
AcDbLayerTableRecord
  2
DXF0
 70
     0
 62
     7
  6
CONTINUOUS
370
    -3
390

  0
LAYER
  5
101
100
AcDbSymbolTableRecord
100
AcDbLayerTableRecord
  2
4
 70
     0
 62
     1
  6
CONTINUOUS
370
    -3
390

  0
LAYER
  5
102
100
AcDbSymbolTableRecord
100
AcDbLayerTableRecord
  2
5
 70
     0
 62
     6
  6
CONTINUOUS
370
    -3
390

  0
LAYER
  5
103
100
AcDbSymbolTableRecord
100
AcDbLayerTableRecord
  2
1
 70
     0
 62
     7
  6
CONTINUOUS
370
    -3
390

  0
LAYER
  5
104
100
AcDbSymbolTableRecord
100
AcDbLayerTableRecord
  2
2
 70
     0
 62
     4
  6
CONTINUOUS
370
    -3
390

  0
LAYER
  5
105
100
AcDbSymbolTableRecord
100
AcDbLayerTableRecord
  2
3
 70
     0
 62
     2
  6
CONTINUOUS
370
    -3
390

  0
LAYER
  5
106
100
AcDbSymbolTableRecord
100
AcDbLayerTableRecord
  2
6
 70
     0
 62
     5
  6
CONTINUOUS
370
    -3
390

  0
LAYER
  5
107
100
AcDbSymbolTableRecord
100
AcDbLayerTableRecord
  2
7
 70
     0
 62
     7
  6
CONTINUOUS
370
    -3
390

  0
LAYER
  5
108
100
AcDbSymbolTableRecord
100
AcDbLayerTableRecord
  2
DXF1023
 70
     0
 62
    16
  6
CONTINUOUS
370
    -3
390

  0
ENDTAB
  0
TABLE
  2
STYLE
  5
109
100
AcDbSymbolTable
 70
     4
  0
STYLE
  5
10A
100
AcDbSymbolTableRecord
100
AcDbTextStyleTableRecord
  2
STANDARD
 70
    64
 40
0.0
 41
1.0
 50
0.0
 71
     0
 42
3.000000000000000
  3
TXT
  4

  0
STYLE
  5
10B
100
AcDbSymbolTableRecord
100
AcDbTextStyleTableRecord
  2
ANKTATE
 70
    68
 40
0.0
 41
1.0
 50
0.0
 71
     0
 42
3.000000000000000
  3
TXT
  4

  0
STYLE
  5
10C
100
AcDbSymbolTableRecord
100
AcDbTextStyleTableRecord
  2
KNJYOKO
 70
    64
 40
0.0
 41
1.0
 50
0.0
 71
     0
 42
3.000000000000000
  3
TXT
  4
BIGFONT
  0
STYLE
  5
10D
100
AcDbSymbolTableRecord
100
AcDbTextStyleTableRecord
  2
KNJTATE
 70
    68
 40
0.0
 41
1.0
 50
0.0
 71
     0
 42
3.000000000000000
  3
TXT
  4
BIGFONT
  0
ENDTAB
  0
TABLE
  2
VIEW
  5
10E
100
AcDbSymbolTable
 70
     0
  0
ENDTAB
  0
TABLE
  2
UCS
  5
10F
100
AcDbSymbolTable
 70
     0
  0
ENDTAB
  0
TABLE
  2
APPID
  5
110
100
AcDbSymbolTable
 70
     1
  0
APPID
  5
111
100
AcDbSymbolTableRecord
100
AcDbRegAppTableRecord
  2
ACAD
 70
     0
  0
ENDTAB
  0
TABLE
  2
DIMSTYLE
  5
112
100
AcDbSymbolTable
 70
     2
100
AcDbDimStyleTable
  0
DIMSTYLE
105
113
100
AcDbSymbolTableRecord
100
AcDbDimStyleTableRecord
  2
STANDARD
 70
     0
 41
2.000000
 44
1.500000
 42
0.800000
145
0.661290
140
3.100000
144
1.000000
146
0.645161
340
10A
  0
DIMSTYLE
105
114
100
AcDbSymbolTableRecord
100
AcDbDimStyleTableRecord
  2
DXF001
 70
     0
 41
2.000000
 44
1.500000
 42
0.800000
145
0.661290
140
3.100000
144
1.000000
146
0.645161
 77
     1
 73
     0
 74
     0
271
     2
179
     2
275
     0
 78
     8
 79
     2
172
     1
340
10A
  0
ENDTAB
  0
TABLE
  2
BLOCK_RECORD
  5
115
100
AcDbSymbolTable
 70
    12
  0
BLOCK_RECORD
  5
116
100
AcDbSymbolTableRecord
100
AcDbBlockTableRecord
  2
*MODEL_SPACE
  0
BLOCK_RECORD
  5
117
100
AcDbSymbolTableRecord
100
AcDbBlockTableRecord
  2
*PAPER_SPACE
  0
BLOCK_RECORD
  5
118
100
AcDbSymbolTableRecord
100
AcDbBlockTableRecord
  2
*PAPER_SPACE0
  0
BLOCK_RECORD
  5
1
100
AcDbSymbolTableRecord
100
AcDbBlockTableRecord
  2
_NONE
  0
BLOCK_RECORD
  5
4
100
AcDbSymbolTableRecord
100
AcDbBlockTableRecord
  2
_CLOSED
  0
BLOCK_RECORD
  5
B
100
AcDbSymbolTableRecord
100
AcDbBlockTableRecord
  2
_DOT
  0
BLOCK_RECORD
  5
13
100
AcDbSymbolTableRecord
100
AcDbBlockTableRecord
  2
_OPEN
  0
BLOCK_RECORD
  5
19
100
AcDbSymbolTableRecord
100
AcDbBlockTableRecord
  2
_ORIGIN
  0
BLOCK_RECORD
  5
1E
100
AcDbSymbolTableRecord
100
AcDbBlockTableRecord
  2
_OPEN30
  0
BLOCK_RECORD
  5
24
100
AcDbSymbolTableRecord
100
AcDbBlockTableRecord
  2
_BOXFILLED
  0
BLOCK_RECORD
  5
29
100
AcDbSymbolTableRecord
100
AcDbBlockTableRecord
  2
_BOXBLANK
  0
BLOCK_RECORD
  5
31
100
AcDbSymbolTableRecord
100
AcDbBlockTableRecord
  2
_OBLIQUE
  0
BLOCK_RECORD
  5
35
100
AcDbSymbolTableRecord
100
AcDbBlockTableRecord
  2
_OPEN90
  0
BLOCK_RECORD
  5
3B
100
AcDbSymbolTableRecord
100
AcDbBlockTableRecord
  2
_CLOSEDBLANK
  0
BLOCK_RECORD
  5
41
100
AcDbSymbolTableRecord
100
AcDbBlockTableRecord
  2
_DOTBLANK
  0
ENDTAB
  0
ENDSEC
  0
SECTION
  2
BLOCKS
  0
BLOCK
  5
119
100
AcDbEntity
  8
0
100
AcDbBlockBegin
  2
*MODEL_SPACE
 70
     0
 10
0.0
 20
0.0
 30
0.0
  3
*MODEL_SPACE
  1

  0
ENDBLK
  5
11A
100
AcDbEntity
  8
0
100
AcDbBlockEnd
  0
BLOCK
  5
11B
100
AcDbEntity
  8
0
100
AcDbBlockBegin
  2
*PAPER_SPACE
 70
     0
 10
0.0
 20
0.0
 30
0.0
  3
*PAPER_SPACE
  1

  0
ENDBLK
  5
11C
100
AcDbEntity
  8
0
100
AcDbBlockEnd
  0
BLOCK
  5
11D
100
AcDbEntity
  8
0
100
AcDbBlockBegin
  2
*PAPER_SPACE0
 70
     0
 10
0.0
 20
0.0
 30
0.0
  3
*PAPER_SPACE0
  1

  0
ENDBLK
  5
11E
100
AcDbEntity
  8
0
100
AcDbBlockEnd
  0
BLOCK
  5
2
330
1
100
AcDbEntity
  8
0
100
AcDbBlockBegin
  2
_NONE
 70
     0
 10
0.0
 20
0.0
 30
0.0
  3
_NONE
  1

  0
ENDBLK
  5
3
330
1
100
AcDbEntity
  8
0
100
AcDbBlockEnd
  0
BLOCK
  5
5
330
4
100
AcDbEntity
  8
0
100
AcDbBlockBegin
  2
_CLOSED
 70
     0
 10
0.0
 20
0.0
 30
0.0
  3
_CLOSED
  1

  0
LINE
  5
6
330
4
100
AcDbEntity
  8
0
  6
BYBLOCK
 62
     0
370
    -2
100
AcDbLine
 10
-1.0
 20
0.166667
 30
0.0
 11
0.0
 21
0.0
 31
0.0
  0
LINE
  5
7
330
4
100
AcDbEntity
  8
0
  6
BYBLOCK
 62
     0
370
    -2
100
AcDbLine
 10
0.0
 20
0.0
 30
0.0
 11
-1.0
 21
-0.166667
 31
0.0
  0
LINE
  5
8
330
4
100
AcDbEntity
  8
0
  6
BYBLOCK
 62
     0
370
    -2
100
AcDbLine
 10
-1.0
 20
0.166667
 30
0.0
 11
-1.0
 21
-0.166667
 31
0.0
  0
LINE
  5
9
330
4
100
AcDbEntity
  8
0
  6
BYBLOCK
 62
     0
370
    -2
100
AcDbLine
 10
0.0
 20
0.0
 30
0.0
 11
-1.0
 21
0.0
 31
0.0
  0
ENDBLK
  5
A
330
4
100
AcDbEntity
  8
0
100
AcDbBlockEnd
  0
BLOCK
  5
C
330
B
100
AcDbEntity
  8
0
100
AcDbBlockBegin
  2
_DOT
 70
     0
 10
0.0
 20
0.0
 30
0.0
  3
_DOT
  1

  0
POLYLINE
  5
D
330
B
100
AcDbEntity
  8
0
  6
BYBLOCK
 62
     0
370
    -2
100
AcDb2dPolyline
 66
     1
 10
0.0
 20
0.0
 30
0.0
 70
     1
 40
0.5
 41
0.5
  0
VERTEX
  5
E
330
B
100
AcDbEntity
  8
0
  6
BYBLOCK
 62
     0
370
    -2
100
AcDbVertex
100
AcDb2dVertex
 10
-0.25
 20
0.0
 30
0.0
 42
1.0
  0
VERTEX
  5
F
330
B
100
AcDbEntity
  8
0
  6
BYBLOCK
 62
     0
370
    -2
100
AcDbVertex
100
AcDb2dVertex
 10
0.25
 20
0.0
 30
0.0
 42
1.0
  0
SEQEND
  5
10
330
B
100
AcDbEntity
  8
0
  6
BYBLOCK
 62
     0
370
    -2
  0
LINE
  5
11
330
B
100
AcDbEntity
  8
0
  6
BYBLOCK
 62
     0
370
    -2
100
AcDbLine
 10
-0.5
 20
0.0
 30
0.0
 11
-1.0
 21
0.0
 31
0.0
  0
ENDBLK
  5
12
330
B
100
AcDbEntity
  8
0
100
AcDbBlockEnd
  0
BLOCK
  5
14
330
13
100
AcDbEntity
  8
0
100
AcDbBlockBegin
  2
_OPEN
 70
     0
 10
0.0
 20
0.0
 30
0.0
  3
_OPEN
  1

  0
LINE
  5
15
330
13
100
AcDbEntity
  8
0
  6
BYBLOCK
 62
     0
370
    -2
100
AcDbLine
 10
-1.0
 20
0.166667
 30
0.0
 11
0.0
 21
0.0
 31
0.0
  0
LINE
  5
16
330
13
100
AcDbEntity
  8
0
  6
BYBLOCK
 62
     0
370
    -2
100
AcDbLine
 10
0.0
 20
0.0
 30
0.0
 11
-1.0
 21
-0.166667
 31
0.0
  0
LINE
  5
17
330
13
100
AcDbEntity
  8
0
  6
BYBLOCK
 62
     0
370
    -2
100
AcDbLine
 10
0.0
 20
0.0
 30
0.0
 11
-1.0
 21
0.0
 31
0.0
  0
ENDBLK
  5
18
330
13
100
AcDbEntity
  8
0
100
AcDbBlockEnd
  0
BLOCK
  5
1A
330
19
100
AcDbEntity
  8
0
100
AcDbBlockBegin
  2
_ORIGIN
 70
     0
 10
0.0
 20
0.0
 30
0.0
  3
_ORIGIN
  1

  0
CIRCLE
  5
1B
330
19
100
AcDbEntity
  8
0
  6
BYBLOCK
 62
     0
370
    -2
100
AcDbCircle
 10
0.0
 20
0.0
 30
0.0
 40
0.5
  0
LINE
  5
1C
330
19
100
AcDbEntity
  8
0
  6
BYBLOCK
 62
     0
370
    -2
100
AcDbLine
 10
0.0
 20
0.0
 30
0.0
 11
-1.0
 21
0.0
 31
0.0
  0
ENDBLK
  5
1D
330
19
100
AcDbEntity
  8
0
100
AcDbBlockEnd
  0
BLOCK
  5
1F
330
1E
100
AcDbEntity
  8
0
100
AcDbBlockBegin
  2
_OPEN30
 70
     0
 10
0.0
 20
0.0
 30
0.0
  3
_OPEN30
  1

  0
LINE
  5
20
330
1E
100
AcDbEntity
  8
0
  6
BYBLOCK
 62
     0
370
    -2
100
AcDbLine
 10
-1.0
 20
0.267949
 30
0.0
 11
0.0
 21
0.0
 31
0.0
  0
LINE
  5
21
330
1E
100
AcDbEntity
  8
0
  6
BYBLOCK
 62
     0
370
    -2
100
AcDbLine
 10
0.0
 20
0.0
 30
0.0
 11
-1.0
 21
-0.267949
 31
0.0
  0
LINE
  5
22
330
1E
100
AcDbEntity
  8
0
  6
BYBLOCK
 62
     0
370
    -2
100
AcDbLine
 10
0.0
 20
0.0
 30
0.0
 11
-1.0
 21
0.0
 31
0.0
  0
ENDBLK
  5
23
330
1E
100
AcDbEntity
  8
0
100
AcDbBlockEnd
  0
BLOCK
  5
25
330
24
100
AcDbEntity
  8
0
100
AcDbBlockBegin
  2
_BOXFILLED
 70
     0
 10
0.0
 20
0.0
 30
0.0
  3
_BOXFILLED
  1

  0
SOLID
  5
26
330
24
100
AcDbEntity
  8
0
  6
BYBLOCK
 62
     0
370
    -2
100
AcDbTrace
 10
-0.5
 20
0.5
 30
0.0
 11
0.5
 21
0.5
 31
0.0
 12
-0.5
 22
-0.5
 32
0.0
 13
0.5
 23
-0.5
 33
0.0
  0
LINE
  5
27
330
24
100
AcDbEntity
  8
0
  6
BYBLOCK
 62
     0
370
    -2
100
AcDbLine
 10
-0.5
 20
0.0
 30
0.0
 11
-1.0
 21
0.0
 31
0.0
  0
ENDBLK
  5
28
330
24
100
AcDbEntity
  8
0
100
AcDbBlockEnd
  0
BLOCK
  5
2A
330
29
100
AcDbEntity
  8
0
100
AcDbBlockBegin
  2
_BOXBLANK
 70
     0
 10
0.0
 20
0.0
 30
0.0
  3
_BOXBLANK
  1

  0
LINE
  5
2B
330
29
100
AcDbEntity
  8
0
  6
BYBLOCK
 62
     0
370
    -2
100
AcDbLine
 10
-0.5
 20
-0.5
 30
0.0
 11
0.5
 21
-0.5
 31
0.0
  0
LINE
  5
2C
330
29
100
AcDbEntity
  8
0
  6
BYBLOCK
 62
     0
370
    -2
100
AcDbLine
 10
0.5
 20
-0.5
 30
0.0
 11
0.5
 21
0.5
 31
0.0
  0
LINE
  5
2D
330
29
100
AcDbEntity
  8
0
  6
BYBLOCK
 62
     0
370
    -2
100
AcDbLine
 10
0.5
 20
0.5
 30
0.0
 11
-0.5
 21
0.5
 31
0.0
  0
LINE
  5
2E
330
29
100
AcDbEntity
  8
0
  6
BYBLOCK
 62
     0
370
    -2
100
AcDbLine
 10
-0.5
 20
0.5
 30
0.0
 11
-0.5
 21
-0.5
 31
0.0
  0
LINE
  5
2F
330
29
100
AcDbEntity
  8
0
  6
BYBLOCK
 62
     0
370
    -2
100
AcDbLine
 10
-0.5
 20
0.0
 30
0.0
 11
-1.0
 21
0.0
 31
0.0
  0
ENDBLK
  5
30
330
29
100
AcDbEntity
  8
0
100
AcDbBlockEnd
  0
BLOCK
  5
32
330
31
100
AcDbEntity
  8
0
100
AcDbBlockBegin
  2
_OBLIQUE
 70
     0
 10
0.0
 20
0.0
 30
0.0
  3
_OBLIQUE
  1

  0
LINE
  5
33
330
31
100
AcDbEntity
  8
0
  6
BYBLOCK
 62
     0
370
    -2
100
AcDbLine
 10
-0.5
 20
-0.5
 30
0.0
 11
0.5
 21
0.5
 31
0.0
  0
ENDBLK
  5
34
330
31
100
AcDbEntity
  8
0
100
AcDbBlockEnd
  0
BLOCK
  5
36
330
35
100
AcDbEntity
  8
0
100
AcDbBlockBegin
  2
_OPEN90
 70
     0
 10
0.0
 20
0.0
 30
0.0
  3
_OPEN90
  1

  0
LINE
  5
37
330
35
100
AcDbEntity
  8
0
  6
BYBLOCK
 62
     0
370
    -2
100
AcDbLine
 10
-0.5
 20
0.5
 30
0.0
 11
0.0
 21
0.0
 31
0.0
  0
LINE
  5
38
330
35
100
AcDbEntity
  8
0
  6
BYBLOCK
 62
     0
370
    -2
100
AcDbLine
 10
0.0
 20
0.0
 30
0.0
 11
-0.5
 21
-0.5
 31
0.0
  0
LINE
  5
39
330
35
100
AcDbEntity
  8
0
  6
BYBLOCK
 62
     0
370
    -2
100
AcDbLine
 10
0.0
 20
0.0
 30
0.0
 11
-1.0
 21
0.0
 31
0.0
  0
ENDBLK
  5
3A
330
35
100
AcDbEntity
  8
0
100
AcDbBlockEnd
  0
BLOCK
  5
3C
330
3B
100
AcDbEntity
  8
0
100
AcDbBlockBegin
  2
_CLOSEDBLANK
 70
     0
 10
0.0
 20
0.0
 30
0.0
  3
_CLOSEDBLANK
  1

  0
LINE
  5
3D
330
3B
100
AcDbEntity
  8
0
  6
BYBLOCK
 62
     0
370
    -2
100
AcDbLine
 10
-1.0
 20
0.1666666666666666
 30
0.0
 11
0.0
 21
0.0
 31
0.0
  0
LINE
  5
3E
330
3B
100
AcDbEntity
  8
0
  6
BYBLOCK
 62
     0
370
    -2
100
AcDbLine
 10
0.0
 20
0.0
 30
0.0
 11
-1.0
 21
-0.1666666666666666
 31
0.0
  0
LINE
  5
3F
330
3B
100
AcDbEntity
  8
0
  6
BYBLOCK
 62
     0
370
    -2
100
AcDbLine
 10
-1.0
 20
0.1666666666666666
 30
0.0
 11
-1.0
 21
-0.1666666666666666
 31
0.0
  0
ENDBLK
  5
40
330
3B
100
AcDbEntity
  8
0
100
AcDbBlockEnd
  0
BLOCK
  5
42
330
41
100
AcDbEntity
  8
0
100
AcDbBlockBegin
  2
_DOTBLANK
 70
     0
 10
0.0
 20
0.0
 30
0.0
  3
_DOTBLANK
  1

  0
CIRCLE
  5
43
330
41
100
AcDbEntity
  8
0
  6
BYBLOCK
 62
     0
370
    -2
100
AcDbCircle
 10
0.0
 20
0.0
 30
0.0
 40
0.5
  0
LINE
  5
44
330
41
100
AcDbEntity
  8
0
  6
BYBLOCK
 62
     0
370
    -2
100
AcDbLine
 10
-0.5
 20
0.0
 30
0.0
 11
-1.0
 21
0.0
 31
0.0
  0
ENDBLK
  5
45
330
41
100
AcDbEntity
  8
0
100
AcDbBlockEnd
  0
ENDSEC
  0
SECTION
  2
ENTITIES
  0
ARC
  5
46
100
AcDbEntity
  8
1
  6
CONTINUOUS
 62
7
100
AcDbCircle
 10
73.06910153760813
 20
52.25109980684671
 30
0.0000000000000000
 40
4.299640000000000
100
AcDbArc
 50
54.46200000000001
 51
125.5380000000000
  0
ARC
  5
47
100
AcDbEntity
  8
1
  6
CONTINUOUS
 62
7
100
AcDbCircle
 10
73.06910153760813
 20
57.85039980684672
 30
0.0000000000000000
 40
4.299640000000000
100
AcDbArc
 50
234.4619999999999
 51
305.5379999999998
  0
LINE
  5
48
100
AcDbEntity
  8
1
  6
CONTINUOUS
 62
7
100
AcDbLine
 10
69.06940153760812
 20
57.55109980684676
 30
0.0000000000000000
 11
77.06940153760812
 21
57.55109980684676
 31
0.0000000000000000
  0
LINE
  5
49
100
AcDbEntity
  8
1
  6
CONTINUOUS
 62
7
100
AcDbLine
 10
69.06940153760812
 20
52.55109980684676
 30
0.0000000000000000
 11
77.06940153760812
 21
52.55109980684676
 31
0.0000000000000000
  0
LINE
  5
4A
100
AcDbEntity
  8
1
  6
CONTINUOUS
 62
7
100
AcDbLine
 10
20.89712974303898
 20
60.05109980684676
 30
0.0000000000000000
 11
141.2416733321772
 21
60.05109980684676
 31
0.0000000000000000
  0
LINE
  5
4B
100
AcDbEntity
  8
1
  6
CONTINUOUS
 62
7
100
AcDbLine
 10
20.89712974303898
 20
50.05109980684676
 30
0.0000000000000000
 11
141.2416733321772
 21
50.05109980684672
 31
0.0000000000000000
  0
LINE
  5
4C
100
AcDbEntity
  8
4
  6
CENTER
 62
1
100
AcDbLine
 10
9.069401537608117
 20
55.05109980684676
 30
0.0000000000000000
 11
153.0690015376079
 21
55.05109980684676
 31
0.0000000000000000
  0
MTEXT
  5
4D
100
AcDbEntity
  8
7
  6
CONTINUOUS
 62
7
100
AcDbMText
 10
10.00000153760811
 20
17.99999980684674
 30
0.0000000000000000
 40
3.000000000000000
 41
0.0000000000000000
 44
0.6739999771118164
 71
     7
 72
     1
  1
{\H0.94x;{TYPE No.THA-158S-2}}
 11
1.000000000000000
 21
0.0000000000000000
 31
0.0000000000000000
  7
STANDARD
  0
LINE
  5
4E
100
AcDbEntity
  8
1
  6
CONTINUOUS
 62
7
100
AcDbLine
 10
19.06940153760811
 20
49.05109980684676
 30
0.0000000000000000
 11
12.06940153760811
 21
49.05109980684676
 31
0.0000000000000000
  0
LINE
  5
4F
100
AcDbEntity
  8
1
  6
CONTINUOUS
 62
7
100
AcDbLine
 10
19.06940153760811
 20
61.05109980684677
 30
0.0000000000000000
 11
12.06940153760811
 21
61.05109980684677
 31
0.0000000000000000
  0
LINE
  5
50
100
AcDbEntity
  8
1
  6
CONTINUOUS
 62
7
100
AcDbLine
 10
11.06940153760811
 20
60.05109980684676
 30
0.0000000000000000
 11
11.06940153760811
 21
50.05109980684676
 31
0.0000000000000000
  0
ARC
  5
51
100
AcDbEntity
  8
1
  6
CONTINUOUS
 62
7
100
AcDbCircle
 10
12.06940153760811
 20
50.05109980684676
 30
0.0000000000000000
 40
1.000000000000000
100
AcDbArc
 50
180.0000000000000
 51
270.0000000000000
  0
ARC
  5
52
100
AcDbEntity
  8
1
  6
CONTINUOUS
 62
7
100
AcDbCircle
 10
12.06940153760811
 20
60.05109980684676
 30
0.0000000000000000
 40
1.000000000000000
100
AcDbArc
 50
90.00000000000000
 51
180.0000000000000
  0
CIRCLE
  5
53
100
AcDbEntity
  8
2
  6
CONTINUOUS
 62
4
100
AcDbCircle
 10
16.06940153760810
 20
55.05109980684676
 30
0.0000000000000000
 40
2.500000000000000
  0
LINE
  5
54
100
AcDbEntity
  8
1
  6
CONTINUOUS
 62
7
100
AcDbLine
 10
21.06940153760811
 20
59.05109980684676
 30
0.0000000000000000
 11
21.06940153760811
 21
51.05109980684677
 31
0.0000000000000000
  0
LINE
  5
55
100
AcDbEntity
  8
4
  6
CENTER
 62
1
100
AcDbLine
 10
16.06940153760810
 20
60.05109980684676
 30
0.0000000000000000
 11
16.06940153760810
 21
50.05109980684676
 31
0.0000000000000000
  0
ARC
  5
56
100
AcDbEntity
  8
1
  6
CONTINUOUS
 62
7
100
AcDbCircle
 10
19.06940153760811
 20
51.05109980684677
 30
0.0000000000000000
 40
2.000000000000000
100
AcDbArc
 50
270.0000000000000
 51
360.0000000000000
  0
ARC
  5
57
100
AcDbEntity
  8
1
  6
CONTINUOUS
 62
7
100
AcDbCircle
 10
19.06940153760811
 20
59.05109980684676
 30
0.0000000000000000
 40
2.000000000000000
100
AcDbArc
 50
0.0000000000000000
 51
90.00000000000000
  0
CIRCLE
  5
58
100
AcDbEntity
  8
1
  6
CONTINUOUS
 62
7
100
AcDbCircle
 10
16.06940153760810
 20
55.05109980684676
 30
0.0000000000000000
 40
2.066999999999996
  0
ARC
  5
59
100
AcDbEntity
  8
1
  6
CONTINUOUS
 62
7
100
AcDbCircle
 10
71.06960153760809
 20
55.05109980684676
 30
0.0000000000000000
 40
0.8589389999999998
100
AcDbArc
 50
125.5310000000000
 51
234.4619999999999
  0
LINE
  5
5A
100
AcDbEntity
  8
1
  6
CONTINUOUS
 62
7
100
AcDbLine
 10
69.06940153760812
 20
57.55109980684676
 30
0.0000000000000000
 11
69.06940153760812
 21
52.55109980684676
 31
0.0000000000000000
  0
ARC
  5
5B
100
AcDbEntity
  8
1
  6
CONTINUOUS
 62
7
100
AcDbCircle
 10
72.20230153760809
 20
56.08709980684675
 30
0.0000000000000000
 40
0.03335900000000000
100
AcDbArc
 50
0.0000000000000000
 51
102.7290000000000
  0
ARC
  5
5C
100
AcDbEntity
  8
1
  6
CONTINUOUS
 62
7
100
AcDbCircle
 10
72.20230153760809
 20
54.01449980684674
 30
0.0000000000000000
 40
0.03335900000000000
100
AcDbArc
 50
257.2709999999998
 51
360.0000000000000
  0
ARC
  5
5D
100
AcDbEntity
  8
1
  6
CONTINUOUS
 62
7
100
AcDbCircle
 10
73.06910153760813
 20
57.85039980684672
 30
0.0000000000000000
 40
3.966319999999998
100
AcDbArc
 50
277.7930000000001
 51
280.1040000000000
  0
ARC
  5
5E
100
AcDbEntity
  8
1
  6
CONTINUOUS
 62
7
100
AcDbCircle
 10
73.60230153760813
 20
53.95359980684673
 30
0.0000000000000000
 40
0.03335900000000000
100
AcDbArc
 50
180.0000000000000
 51
277.7930000000001
  0
ARC
  5
5F
100
AcDbEntity
  8
1
  6
CONTINUOUS
 62
7
100
AcDbCircle
 10
73.73560153760816
 20
54.10989980684671
 30
0.0000000000000000
 40
0.1667270000000000
100
AcDbArc
 50
280.1040000000000
 51
360.0000000000000
  0
ARC
  5
60
100
AcDbEntity
  8
1
  6
CONTINUOUS
 62
7
100
AcDbCircle
 10
73.60230153760813
 20
56.14799980684671
 30
0.0000000000000000
 40
0.03335900000000000
100
AcDbArc
 50
82.20700000000001
 51
180.0000000000000
  0
ARC
  5
61
100
AcDbEntity
  8
1
  6
CONTINUOUS
 62
7
100
AcDbCircle
 10
73.06910153760813
 20
52.25109980684671
 30
0.0000000000000000
 40
3.966319999999998
100
AcDbArc
 50
79.89600000000000
 51
82.20700000000001
  0
ARC
  5
62
100
AcDbEntity
  8
1
  6
CONTINUOUS
 62
7
100
AcDbCircle
 10
73.73560153760816
 20
55.99169980684671
 30
0.0000000000000000
 40
0.1667270000000000
100
AcDbArc
 50
0.0000000000000000
 51
79.89600000000000
  0
ARC
  5
63
100
AcDbEntity
  8
1
  6
CONTINUOUS
 62
7
100
AcDbCircle
 10
73.06910153760813
 20
52.25109980684671
 30
0.0000000000000000
 40
3.966319999999998
100
AcDbArc
 50
112.9439999999998
 51
116.0139999999999
  0
ARC
  5
64
100
AcDbEntity
  8
1
  6
CONTINUOUS
 62
7
100
AcDbCircle
 10
71.53580153760811
 20
55.87329980684675
 30
0.0000000000000000
 40
0.03335900000000000
100
AcDbArc
 50
0.0000000000000000
 51
112.9439999999998
  0
ARC
  5
65
100
AcDbEntity
  8
1
  6
CONTINUOUS
 62
7
100
AcDbCircle
 10
71.40250153760813
 20
55.66549980684673
 30
0.0000000000000000
 40
0.1667270000000000
100
AcDbArc
 50
116.0139999999999
 51
180.0000000000000
  0
ARC
  5
66
100
AcDbEntity
  8
1
  6
CONTINUOUS
 62
7
100
AcDbCircle
 10
73.06910153760813
 20
57.85039980684672
 30
0.0000000000000000
 40
3.966319999999998
100
AcDbArc
 50
243.9859999999999
 51
244.7720000000000
  0
ARC
  5
67
100
AcDbEntity
  8
1
  6
CONTINUOUS
 62
7
100
AcDbCircle
 10
73.06910153760813
 20
57.85039980684672
 30
0.0000000000000000
 40
3.966319999999998
100
AcDbArc
 50
243.9859999999999
 51
247.0559999999999
  0
ARC
  5
68
100
AcDbEntity
  8
1
  6
CONTINUOUS
 62
7
100
AcDbCircle
 10
71.53580153760811
 20
54.22899980684672
 30
0.0000000000000000
 40
0.03335900000000000
100
AcDbArc
 50
247.0559999999999
 51
360.0000000000000
  0
ARC
  5
69
100
AcDbEntity
  8
1
  6
CONTINUOUS
 62
7
100
AcDbCircle
 10
71.40250153760813
 20
54.43599980684675
 30
0.0000000000000000
 40
0.1667270000000000
100
AcDbArc
 50
180.0000000000000
 51
243.9859999999999
  0
ARC
  5
6A
100
AcDbEntity
  8
1
  6
CONTINUOUS
 62
7
100
AcDbCircle
 10
73.06910153760813
 20
57.85039980684672
 30
0.0000000000000000
 40
3.966319999999998
100
AcDbArc
 50
254.7940000000000
 51
257.2709999999998
  0
ARC
  5
6B
100
AcDbEntity
  8
1
  6
CONTINUOUS
 62
7
100
AcDbCircle
 10
73.06910153760813
 20
57.85039980684672
 30
0.0000000000000000
 40
3.966319999999998
100
AcDbArc
 50
254.7419999999999
 51
254.7940000000000
  0
ARC
  5
6C
100
AcDbEntity
  8
1
  6
CONTINUOUS
 62
7
100
AcDbCircle
 10
72.06970153760808
 20
54.18499980684675
 30
0.0000000000000000
 40
0.1667270000000000
100
AcDbArc
 50
180.0000000000000
 51
254.7419999999999
  0
ARC
  5
6D
100
AcDbEntity
  8
1
  6
CONTINUOUS
 62
7
100
AcDbCircle
 10
72.06970153760808
 20
55.91659980684676
 30
0.0000000000000000
 40
0.1667270000000000
100
AcDbArc
 50
105.2580000000000
 51
180.0000000000000
  0
ARC
  5
6E
100
AcDbEntity
  8
1
  6
CONTINUOUS
 62
7
100
AcDbCircle
 10
73.06910153760813
 20
52.25109980684671
 30
0.0000000000000000
 40
3.966319999999998
100
AcDbArc
 50
103.2680000000000
 51
105.2580000000000
  0
ARC
  5
6F
100
AcDbEntity
  8
1
  6
CONTINUOUS
 62
7
100
AcDbCircle
 10
73.06910153760813
 20
52.25109980684671
 30
0.0000000000000000
 40
3.966319999999998
100
AcDbArc
 50
102.7290000000000
 51
103.2680000000000
  0
LINE
  5
70
100
AcDbEntity
  8
1
  6
CONTINUOUS
 62
7
100
AcDbLine
 10
73.90270153760810
 20
55.45099980684671
 30
0.0000000000000000
 11
73.90270153760810
 21
55.99169980684671
 31
0.0000000000000000
  0
LINE
  5
71
100
AcDbEntity
  8
1
  6
CONTINUOUS
 62
7
100
AcDbLine
 10
74.23560153760813
 20
56.14659980684675
 30
0.0000000000000000
 11
74.23560153760813
 21
54.05979980684674
 31
0.0000000000000000
  0
LINE
  5
72
100
AcDbEntity
  8
1
  6
CONTINUOUS
 62
7
100
AcDbLine
 10
73.56910153760811
 20
56.14799980684671
 30
0.0000000000000000
 11
73.56910153760811
 21
53.95359980684673
 31
0.0000000000000000
  0
LINE
  5
73
100
AcDbEntity
  8
1
  6
CONTINUOUS
 62
7
100
AcDbLine
 10
73.23620153760811
 20
56.21359980684673
 30
0.0000000000000000
 11
73.23620153760811
 21
53.88799980684675
 31
0.0000000000000000
  0
LINE
  5
74
100
AcDbEntity
  8
1
  6
CONTINUOUS
 62
7
100
AcDbLine
 10
72.90260153760813
 20
56.21359980684673
 30
0.0000000000000000
 11
72.90260153760813
 21
53.88799980684675
 31
0.0000000000000000
  0
LINE
  5
75
100
AcDbEntity
  8
1
  6
CONTINUOUS
 62
7
100
AcDbLine
 10
72.56900153760813
 20
56.18589980684674
 30
0.0000000000000000
 11
72.56900153760813
 21
53.91569980684676
 31
0.0000000000000000
  0
LINE
  5
76
100
AcDbEntity
  8
1
  6
CONTINUOUS
 62
7
100
AcDbLine
 10
73.90270153760810
 20
55.05109980684676
 30
0.0000000000000000
 11
73.73560153760816
 21
55.05109980684676
 31
0.0000000000000000
  0
LINE
  5
77
100
AcDbEntity
  8
1
  6
CONTINUOUS
 62
7
100
AcDbLine
 10
72.90260153760813
 20
55.05109980684676
 30
0.0000000000000000
 11
72.56900153760813
 21
55.05109980684676
 31
0.0000000000000000
  0
LINE
  5
78
100
AcDbEntity
  8
1
  6
CONTINUOUS
 62
7
100
AcDbLine
 10
73.90270153760810
 20
54.10989980684671
 30
0.0000000000000000
 11
73.90270153760810
 21
55.05109980684676
 31
0.0000000000000000
  0
LINE
  5
79
100
AcDbEntity
  8
1
  6
CONTINUOUS
 62
7
100
AcDbLine
 10
72.23610153760808
 20
55.45099980684671
 30
0.0000000000000000
 11
72.23610153760808
 21
56.08709980684675
 31
0.0000000000000000
  0
LINE
  5
7A
100
AcDbEntity
  8
1
  6
CONTINUOUS
 62
7
100
AcDbLine
 10
70.90240153760811
 20
55.96529980684675
 30
0.0000000000000000
 11
70.90240153760811
 21
54.52809980684674
 31
0.0000000000000000
  0
LINE
  5
7B
100
AcDbEntity
  8
1
  6
CONTINUOUS
 62
7
100
AcDbLine
 10
71.90250153760810
 20
55.91659980684676
 30
0.0000000000000000
 11
71.90250153760810
 21
54.18499980684675
 31
0.0000000000000000
  0
LINE
  5
7C
100
AcDbEntity
  8
1
  6
CONTINUOUS
 62
7
100
AcDbLine
 10
71.56960153760809
 20
55.87329980684675
 30
0.0000000000000000
 11
71.56960153760809
 21
54.22899980684672
 31
0.0000000000000000
  0
LINE
  5
7D
100
AcDbEntity
  8
1
  6
CONTINUOUS
 62
7
100
AcDbLine
 10
71.23600153760809
 20
54.43599980684675
 30
0.0000000000000000
 11
71.23600153760809
 21
55.66549980684673
 31
0.0000000000000000
  0
LINE
  5
7E
100
AcDbEntity
  8
1
  6
CONTINUOUS
 62
7
100
AcDbLine
 10
72.23610153760808
 20
54.01449980684674
 30
0.0000000000000000
 11
72.23610153760808
 21
54.65119980684676
 31
0.0000000000000000
  0
ARC
  5
7F
100
AcDbEntity
  8
1
  6
CONTINUOUS
 62
7
100
AcDbCircle
 10
105.4050015376080
 20
54.51829980684673
 30
0.0000000000000000
 40
0.8688600000000000
100
AcDbArc
 50
44.07250000000000
 51
135.9280000000000
  0
ARC
  5
80
100
AcDbEntity
  8
1
  6
CONTINUOUS
 62
7
100
AcDbCircle
 10
105.4050015376080
 20
54.41999980684676
 30
0.0000000000000000
 40
0.8688600000000000
100
AcDbArc
 50
224.0720000000000
 51
315.9270000000000
  0
ARC
  5
81
100
AcDbEntity
  8
1
  6
CONTINUOUS
 62
7
100
AcDbCircle
 10
105.4050015376080
 20
55.68199980684676
 30
0.0000000000000000
 40
0.8688600000000000
100
AcDbArc
 50
44.07250000000000
 51
135.9280000000000
  0
LINE
  5
82
100
AcDbEntity
  8
1
  6
CONTINUOUS
 62
7
100
AcDbLine
 10
85.06940153760814
 20
52.55109980684676
 30
0.0000000000000000
 11
113.0690015376080
 21
52.55109980684676
 31
0.0000000000000000
  0
LINE
  5
83
100
AcDbEntity
  8
1
  6
CONTINUOUS
 62
7
100
AcDbLine
 10
85.06940153760814
 20
57.55109980684676
 30
0.0000000000000000
 11
113.0690015376080
 21
57.55109980684676
 31
0.0000000000000000
  0
LINE
  5
84
100
AcDbEntity
  8
4
  6
CENTER
 62
1
100
AcDbLine
 10
81.06940153760809
 20
62.05109980684676
 30
0.0000000000000000
 11
81.06940153760809
 21
48.05109980684676
 31
0.0000000000000000
  0
LINE
  5
85
100
AcDbEntity
  8
1
  6
CONTINUOUS
 62
7
100
AcDbLine
 10
89.51740153760809
 20
55.05109980684676
 30
0.0000000000000000
 11
91.39690153760813
 21
55.05109980684676
 31
0.0000000000000000
  0
ARC
  5
86
100
AcDbEntity
  8
1
  6
CONTINUOUS
 62
7
100
AcDbCircle
 10
75.06920153760808
 20
55.05109980684676
 30
0.0000000000000000
 40
0.8590069999999999
100
AcDbArc
 50
305.5470000000001
 51
414.4620000000000
  0
ARC
  5
87
100
AcDbEntity
  8
1
  6
CONTINUOUS
 62
7
100
AcDbCircle
 10
74.73570153760809
 20
55.21759980684675
 30
0.0000000000000000
 40
0.1667270000000000
100
AcDbArc
 50
180.0000000000000
 51
360.0000000000000
  0
LINE
  5
88
100
AcDbEntity
  8
1
  6
CONTINUOUS
 62
7
100
AcDbLine
 10
74.90210153760813
 20
55.21759980684675
 30
0.0000000000000000
 11
74.90210153760813
 21
55.92939980684672
 31
0.0000000000000000
  0
LINE
  5
89
100
AcDbEntity
  8
1
  6
CONTINUOUS
 62
7
100
AcDbLine
 10
74.56920153760808
 20
55.98959980684674
 30
0.0000000000000000
 11
74.56920153760808
 21
55.21759980684675
 31
0.0000000000000000
  0
LINE
  5
8A
100
AcDbEntity
  8
1
  6
CONTINUOUS
 62
7
100
AcDbLine
 10
75.07190153760811
 20
54.42719980684674
 30
0.0000000000000000
 11
75.44880153760815
 21
55.83199980684671
 31
0.0000000000000000
  0
LINE
  5
8B
100
AcDbEntity
  8
1
  6
CONTINUOUS
 62
7
100
AcDbLine
 10
75.92790153760808
 20
55.05109980684676
 30
0.0000000000000000
 11
75.23910153760809
 21
55.05109980684676
 31
0.0000000000000000
  0
LINE
  5
8C
100
AcDbEntity
  8
1
  6
CONTINUOUS
 62
7
100
AcDbLine
 10
74.73570153760809
 20
55.05109980684676
 30
0.0000000000000000
 11
74.73570153760809
 21
54.25129980684676
 31
0.0000000000000000
  0
LINE
  5
8D
100
AcDbEntity
  8
1
  6
CONTINUOUS
 62
7
100
AcDbLine
 10
77.06940153760812
 20
57.55109980684676
 30
0.0000000000000000
 11
77.06940153760812
 21
52.55109980684676
 31
0.0000000000000000
  0
LINE
  5
8E
100
AcDbEntity
  8
1
  6
CONTINUOUS
 62
7
100
AcDbLine
 10
85.06940153760814
 20
57.55109980684676
 30
0.0000000000000000
 11
85.06940153760814
 21
52.55109980684676
 31
0.0000000000000000
  0
LINE
  5
8F
100
AcDbEntity
  8
1
  6
CONTINUOUS
 62
7
100
AcDbLine
 10
89.51740153760809
 20
56.57359980684674
 30
0.0000000000000000
 11
89.51740153760809
 21
53.57359980684674
 31
0.0000000000000000
  0
LINE
  5
90
100
AcDbEntity
  8
1
  6
CONTINUOUS
 62
7
100
AcDbLine
 10
87.45720153760811
 20
56.55109980684676
 30
0.0000000000000000
 11
87.45720153760811
 21
53.55109980684677
 31
0.0000000000000000
  0
LINE
  5
91
100
AcDbEntity
  8
1
  6
CONTINUOUS
 62
7
100
AcDbLine
 10
86.28110153760809
 20
56.55109980684676
 30
0.0000000000000000
 11
88.64360153760813
 21
56.55109980684676
 31
0.0000000000000000
  0
LINE
  5
92
100
AcDbEntity
  8
1
  6
CONTINUOUS
 62
7
100
AcDbLine
 10
93.45710153760808
 20
56.55379980684671
 30
0.0000000000000000
 11
94.56690153760812
 21
53.55379980684670
 31
0.0000000000000000
  0
LINE
  5
93
100
AcDbEntity
  8
1
  6
CONTINUOUS
 62
7
100
AcDbLine
 10
92.65390153760811
 20
54.45889980684675
 30
0.0000000000000000
 11
94.23410153760813
 21
54.45889980684675
 31
0.0000000000000000
  0
LINE
  5
94
100
AcDbEntity
  8
1
  6
CONTINUOUS
 62
7
100
AcDbLine
 10
93.45720153760813
 20
56.54849980684672
 30
0.0000000000000000
 11
92.29420153760813
 21
53.55379980684670
 31
0.0000000000000000
  0
LINE
  5
95
100
AcDbEntity
  8
1
  6
CONTINUOUS
 62
7
100
AcDbLine
 10
91.39690153760813
 20
56.57359980684674
 30
0.0000000000000000
 11
91.39690153760813
 21
53.57359980684674
 31
0.0000000000000000
  0
LINE
  5
96
100
AcDbEntity
  8
1
  6
CONTINUOUS
 62
7
100
AcDbLine
 10
95.98720153760814
 20
55.05109980684676
 30
0.0000000000000000
 11
96.92710153760812
 21
55.05109980684676
 31
0.0000000000000000
  0
LINE
  5
97
100
AcDbEntity
  8
1
  6
CONTINUOUS
 62
7
100
AcDbLine
 10
99.45720153760811
 20
56.55109980684675
 30
0.0000000000000000
 11
99.12610153760811
 21
56.23039980684675
 31
0.0000000000000000
  0
LINE
  5
98
100
AcDbEntity
  8
1
  6
CONTINUOUS
 62
7
100
AcDbLine
 10
99.45720153760813
 20
56.55109980684676
 30
0.0000000000000000
 11
99.45720153760813
 21
53.55109980684677
 31
0.0000000000000000
  0
ARC
  5
99
100
AcDbEntity
  8
1
  6
CONTINUOUS
 62
7
100
AcDbCircle
 10
105.4560015376080
 20
54.46909980684671
 30
0.0000000000000000
 40
0.9395070000000000
100
AcDbArc
 50
135.9280000000000
 51
224.0720000000000
  0
ARC
  5
9A
100
AcDbEntity
  8
1
  6
CONTINUOUS
 62
7
100
AcDbCircle
 10
105.4560015376080
 20
55.63279980684676
 30
0.0000000000000000
 40
0.9395070000000000
100
AcDbArc
 50
135.9280000000000
 51
218.2659999999998
  0
ARC
  5
9B
100
AcDbEntity
  8
1
  6
CONTINUOUS
 62
7
100
AcDbCircle
 10
102.0910015376080
 20
54.94249980684674
 30
0.0000000000000000
 40
0.3631270000000000
100
AcDbArc
 50
121.8450000000000
 51
180.0000000000000
  0
ARC
  5
9C
100
AcDbEntity
  8
1
  6
CONTINUOUS
 62
7
100
AcDbCircle
 10
102.5010015376080
 20
54.28299980684676
 30
0.0000000000000000
 40
1.139569999999997
100
AcDbArc
 50
90.00000000000000
 51
121.8450000000000
  0
ARC
  5
9D
100
AcDbEntity
  8
1
  6
CONTINUOUS
 62
7
100
AcDbCircle
 10
102.5020015376081
 20
54.71549980684677
 30
0.0000000000000000
 40
0.7059569999999999
100
AcDbArc
 50
40.05589999999999
 51
90.10099999999998
  0
ARC
  5
9E
100
AcDbEntity
  8
1
  6
CONTINUOUS
 62
7
100
AcDbCircle
 10
102.5020015376081
 20
54.24349980684672
 30
0.0000000000000000
 40
0.7059569999999999
100
AcDbArc
 50
220.0559999999999
 51
319.9440000000000
  0
ARC
  5
9F
100
AcDbEntity
  8
1
  6
CONTINUOUS
 62
7
100
AcDbCircle
 10
102.2210015376081
 20
54.47949980684676
 30
0.0000000000000000
 40
1.072750000000000
100
AcDbArc
 50
319.9440000000000
 51
400.0559000000000
  0
ARC
  5
A0
100
AcDbEntity
  8
1
  6
CONTINUOUS
 62
7
100
AcDbCircle
 10
102.7830015376080
 20
54.47949980684676
 30
0.0000000000000000
 40
1.072750000000000
100
AcDbArc
 50
189.3070000000000
 51
220.0559999999999
  0
LINE
  5
A1
100
AcDbEntity
  8
1
  6
CONTINUOUS
 62
7
100
AcDbLine
 10
102.3870015376081
 20
53.53419980684674
 30
0.0000000000000000
 11
102.4410015376081
 21
53.53419980684674
 31
0.0000000000000000
  0
LINE
  5
A2
100
AcDbEntity
  8
1
  6
CONTINUOUS
 62
7
100
AcDbLine
 10
101.7150015376080
 20
56.55109980684676
 30
0.0000000000000000
 11
103.2770015376080
 21
56.55109980684676
 31
0.0000000000000000
  0
LINE
  5
A3
100
AcDbEntity
  8
1
  6
CONTINUOUS
 62
7
100
AcDbLine
 10
101.7270015376081
 20
56.55109980684676
 30
0.0000000000000000
 11
101.7270015376081
 21
54.94249980684674
 31
0.0000000000000000
  0
ARC
  5
A4
100
AcDbEntity
  8
1
  6
CONTINUOUS
 62
7
100
AcDbCircle
 10
105.3550015376080
 20
54.46909980684671
 30
0.0000000000000000
 40
0.9395070000000000
100
AcDbArc
 50
315.9270000000000
 51
404.0725000000000
  0
ARC
  5
A5
100
AcDbEntity
  8
1
  6
CONTINUOUS
 62
7
100
AcDbCircle
 10
105.3550015376080
 20
55.63279980684676
 30
0.0000000000000000
 40
0.9395070000000000
100
AcDbArc
 50
321.7340000000000
 51
404.0725000000000
  0
LINE
  5
A6
100
AcDbEntity
  8
1
  6
CONTINUOUS
 62
7
100
AcDbLine
 10
107.9870015376080
 20
55.05109980684676
 30
0.0000000000000000
 11
108.9270015376081
 21
55.05109980684676
 31
0.0000000000000000
  0
ARC
  5
A7
100
AcDbEntity
  8
1
  6
CONTINUOUS
 62
7
100
AcDbCircle
 10
110.9500015376081
 20
55.72609980684674
 30
0.0000000000000000
 40
0.7837950000000001
100
AcDbArc
 50
132.8699999999997
 51
204.2769999999999
  0
ARC
  5
A8
100
AcDbEntity
  8
1
  6
CONTINUOUS
 62
7
100
AcDbCircle
 10
111.1600015376080
 20
55.72609980684674
 30
0.0000000000000000
 40
0.7837950000000001
100
AcDbArc
 50
312.8700000000000
 51
407.1304000000000
  0
ARC
  5
A9
100
AcDbEntity
  8
1
  6
CONTINUOUS
 62
7
100
AcDbCircle
 10
111.0550015376081
 20
55.61309980684676
 30
0.0000000000000000
 40
0.9380650000000001
100
AcDbArc
 50
47.13040000000000
 51
132.8699999999997
  0
ARC
  5
AA
100
AcDbEntity
  8
1
  6
CONTINUOUS
 62
7
100
AcDbCircle
 10
111.0550015376081
 20
55.83919980684675
 30
0.0000000000000000
 40
0.9380650000000001
100
AcDbArc
 50
312.8700000000000
 51
316.2749999999999
  0
LINE
  5
AB
100
AcDbEntity
  8
1
  6
CONTINUOUS
 62
7
100
AcDbLine
 10
110.1650015376081
 20
53.55109980684677
 30
0.0000000000000000
 11
111.9460015376080
 21
53.55109980684677
 31
0.0000000000000000
  0
LINE
  5
AC
100
AcDbEntity
  8
1
  6
CONTINUOUS
 62
7
100
AcDbLine
 10
110.1650015376081
 20
53.55109980684676
 30
0.0000000000000000
 11
111.7330015376080
 21
55.19079980684671
 31
0.0000000000000000
  0
LINE
  5
AD
100
AcDbEntity
  8
1
  6
CONTINUOUS
 62
7
100
AcDbLine
 10
113.0690015376080
 20
57.55109980684676
 30
0.0000000000000000
 11
113.0690015376080
 21
52.55109980684676
 31
0.0000000000000000
  0
LINE
  5
AE
100
AcDbEntity
  8
4
  6
CENTER
 62
1
100
AcDbLine
 10
146.0694015376080
 20
60.05109980684676
 30
0.0000000000000000
 11
146.0694015376080
 21
50.05109980684676
 31
0.0000000000000000
  0
LINE
  5
AF
100
AcDbEntity
  8
1
  6
CONTINUOUS
 62
7
100
AcDbLine
 10
141.0690015376080
 20
59.05109980684676
 30
0.0000000000000000
 11
141.0690015376080
 21
51.05109980684677
 31
0.0000000000000000
  0
LINE
  5
B0
100
AcDbEntity
  8
1
  6
CONTINUOUS
 62
7
100
AcDbLine
 10
151.0690015376079
 20
60.05109980684676
 30
0.0000000000000000
 11
151.0690015376079
 21
50.05109980684676
 31
0.0000000000000000
  0
LINE
  5
B1
100
AcDbEntity
  8
1
  6
CONTINUOUS
 62
7
100
AcDbLine
 10
143.0690015376081
 20
49.05109980684676
 30
0.0000000000000000
 11
150.0690015376079
 21
49.05109980684676
 31
0.0000000000000000
  0
ARC
  5
B2
100
AcDbEntity
  8
1
  6
CONTINUOUS
 62
7
100
AcDbCircle
 10
143.0690015376081
 20
51.05109980684677
 30
0.0000000000000000
 40
2.000000000000000
100
AcDbArc
 50
180.0000000000000
 51
270.0000000000000
  0
ARC
  5
B3
100
AcDbEntity
  8
1
  6
CONTINUOUS
 62
7
100
AcDbCircle
 10
150.0690015376079
 20
50.05109980684676
 30
0.0000000000000000
 40
1.000000000000000
100
AcDbArc
 50
270.0000000000000
 51
360.0000000000000
  0
CIRCLE
  5
B4
100
AcDbEntity
  8
2
  6
CONTINUOUS
 62
4
100
AcDbCircle
 10
146.0694015376080
 20
55.05109980684676
 30
0.0000000000000000
 40
2.500000000000000
  0
LINE
  5
B5
100
AcDbEntity
  8
1
  6
CONTINUOUS
 62
7
100
AcDbLine
 10
143.0690015376081
 20
61.05109980684677
 30
0.0000000000000000
 11
150.0690015376079
 21
61.05109980684677
 31
0.0000000000000000
  0
ARC
  5
B6
100
AcDbEntity
  8
1
  6
CONTINUOUS
 62
7
100
AcDbCircle
 10
143.0690015376081
 20
59.05109980684676
 30
0.0000000000000000
 40
2.000000000000000
100
AcDbArc
 50
90.00000000000000
 51
180.0000000000000
  0
CIRCLE
  5
B7
100
AcDbEntity
  8
1
  6
CONTINUOUS
 62
7
100
AcDbCircle
 10
146.0694015376080
 20
55.05109980684676
 30
0.0000000000000000
 40
2.066999999999996
  0
ARC
  5
B8
100
AcDbEntity
  8
1
  6
CONTINUOUS
 62
7
100
AcDbCircle
 10
150.0690015376079
 20
60.05109980684676
 30
0.0000000000000000
 40
1.000000000000000
100
AcDbArc
 50
0.0000000000000000
 51
90.00000000000000
  0
LINE
  5
B9
100
AcDbEntity
  8
1
  6
CONTINUOUS
 62
7
100
AcDbLine
 10
14.06949340162631
 20
175.9109998068465
 30
0.0000000000000000
 11
148.0693096735898
 21
175.9109998068465
 31
0.0000000000000000
  0
LINE
  5
BA
100
AcDbEntity
  8
1
  6
CONTINUOUS
 62
7
100
AcDbLine
 10
14.06949340162634
 20
185.9109998068466
 30
0.0000000000000000
 11
148.0693096735898
 21
185.9109998068466
 31
0.0000000000000000
  0
LINE
  5
BB
100
AcDbEntity
  8
4
  6
CENTER
 62
1
100
AcDbLine
 10
9.069401537608117
 20
180.9109998068464
 30
0.0000000000000000
 11
153.0690015376079
 21
180.9109998068464
 31
0.0000000000000000
  0
LINE
  5
BC
100
AcDbEntity
  8
1
  6
CONTINUOUS
 62
7
100
AcDbLine
 10
23.73681910014204
 20
125.5699998068466
 30
0.0000000000000000
 11
138.4008438038996
 21
125.5699998068466
 31
0.0000000000000000
  0
LINE
  5
BD
100
AcDbEntity
  8
1
  6
CONTINUOUS
 62
7
100
AcDbLine
 10
12.55570153760811
 20
135.5699998068466
 30
0.0000000000000000
 11
149.5830015376080
 21
135.5699998068466
 31
0.0000000000000000
  0
ARC
  5
BE
100
AcDbEntity
  8
1
  6
CONTINUOUS
 62
7
100
AcDbCircle
 10
12.55570153760811
 20
135.0699998068466
 30
0.0000000000000000
 40
0.5000000000000000
100
AcDbArc
 50
90.00000000000000
 51
178.4089999999999
  0
LINE
  5
BF
100
AcDbEntity
  8
1
  6
CONTINUOUS
 62
7
100
AcDbLine
 10
21.06940153760811
 20
99.56999980684662
 30
0.0000000000000000
 11
11.06940153760811
 21
99.56999980684662
 31
0.0000000000000000
  0
LINE
  5
C0
100
AcDbEntity
  8
1
  6
CONTINUOUS
 62
7
100
AcDbLine
 10
12.05595364993865
 20
135.0858758507467
 30
0.0000000000000000
 11
11.06940153760811
 21
99.56999980684664
 31
0.0000000000000000
  0
LINE
  5
C1
100
AcDbEntity
  8
1
  6
CONTINUOUS
 62
7
100
AcDbLine
 10
21.73759021140887
 20
123.6255322339021
 30
0.0000000000000000
 11
21.06940153760811
 21
99.56999980684662
 31
0.0000000000000000
  0
LINE
  5
C2
100
AcDbEntity
  8
4
  6
CENTER
 62
1
100
AcDbLine
 10
16.06940153760808
 20
101.5699998068466
 30
0.0000000000000000
 11
16.06940153760808
 21
97.56999980684661
 31
0.0000000000000000
  0
LINE
  5
C3
100
AcDbEntity
  8
1
  6
CONTINUOUS
 62
7
100
AcDbLine
 10
19.06940153760811
 20
186.9109998068465
 30
0.0000000000000000
 11
12.06940153760811
 21
186.9109998068465
 31
0.0000000000000000
  0
LINE
  5
C4
100
AcDbEntity
  8
1
  6
CONTINUOUS
 62
7
100
AcDbLine
 10
19.06940153760811
 20
174.9109998068466
 30
0.0000000000000000
 11
12.06940153760811
 21
174.9109998068466
 31
0.0000000000000000
  0
LINE
  5
C5
100
AcDbEntity
  8
1
  6
CONTINUOUS
 62
7
100
AcDbLine
 10
11.06940153760811
 20
185.9109998068466
 30
0.0000000000000000
 11
11.06940153760811
 21
175.9109998068465
 31
0.0000000000000000
  0
ARC
  5
C6
100
AcDbEntity
  8
1
  6
CONTINUOUS
 62
7
100
AcDbCircle
 10
12.06940153760811
 20
175.9109998068465
 30
0.0000000000000000
 40
1.000000000000000
100
AcDbArc
 50
180.0000000000000
 51
270.0000000000000
  0
ARC
  5
C7
100
AcDbEntity
  8
1
  6
CONTINUOUS
 62
7
100
AcDbCircle
 10
12.06940153760811
 20
185.9109998068466
 30
0.0000000000000000
 40
1.000000000000000
100
AcDbArc
 50
90.00000000000000
 51
180.0000000000000
  0
LINE
  5
C8
100
AcDbEntity
  8
4
  6
CENTER
 62
1
100
AcDbLine
 10
16.06940153760808
 20
184.9109998068465
 30
0.0000000000000000
 11
16.06940153760808
 21
176.9109998068465
 31
0.0000000000000000
  0
ARC
  5
C9
100
AcDbEntity
  8
1
  6
CONTINUOUS
 62
7
100
AcDbCircle
 10
19.06940153760811
 20
176.9109998068465
 30
0.0000000000000000
 40
2.000000000000000
100
AcDbArc
 50
270.0000000000000
 51
329.9999999999999
  0
ARC
  5
CA
100
AcDbEntity
  8
1
  6
CONTINUOUS
 62
7
100
AcDbCircle
 10
19.06940153760811
 20
184.9109998068465
 30
0.0000000000000000
 40
2.000000000000000
100
AcDbArc
 50
30.00000000000000
 51
90.00000000000000
  0
LINE
  5
CB
100
AcDbEntity
  8
4
  6
CENTER
 62
1
100
AcDbLine
 10
81.06940153760809
 20
137.5699998068466
 30
0.0000000000000000
 11
81.06940153760809
 21
123.5699998068466
 31
0.0000000000000000
  0
LINE
  5
CC
100
AcDbEntity
  8
1
  6
CONTINUOUS
 62
7
100
AcDbLine
 10
140.4000709843167
 20
123.6255937011328
 30
0.0000000000000000
 11
141.0690015376079
 21
99.56999980684664
 31
0.0000000000000000
  0
LINE
  5
CD
100
AcDbEntity
  8
1
  6
CONTINUOUS
 62
7
100
AcDbLine
 10
150.0828087480001
 20
135.0838833381011
 30
0.0000000000000000
 11
151.0690015376079
 21
99.56999980684664
 31
0.0000000000000000
  0
LINE
  5
CE
100
AcDbEntity
  8
1
  6
CONTINUOUS
 62
7
100
AcDbLine
 10
141.0690015376079
 20
99.56999980684662
 30
0.0000000000000000
 11
151.0690015376079
 21
99.56999980684662
 31
0.0000000000000000
  0
LINE
  5
CF
100
AcDbEntity
  8
4
  6
CENTER
 62
1
100
AcDbLine
 10
146.0694015376080
 20
101.5699998068466
 30
0.0000000000000000
 11
146.0694015376080
 21
97.56999980684661
 31
0.0000000000000000
  0
ARC
  5
D0
100
AcDbEntity
  8
1
  6
CONTINUOUS
 62
7
100
AcDbCircle
 10
149.5830015376080
 20
135.0699998068466
 30
0.0000000000000000
 40
0.5000000000000000
100
AcDbArc
 50
1.591140000000000
 51
90.00000000000000
  0
LINE
  5
D1
100
AcDbEntity
  8
4
  6
CENTER
 62
1
100
AcDbLine
 10
81.06940153760809
 20
188.9109998068465
 30
0.0000000000000000
 11
81.06940153760809
 21
172.9109998068466
 31
0.0000000000000000
  0
LINE
  5
D2
100
AcDbEntity
  8
1
  6
CONTINUOUS
 62
7
100
AcDbLine
 10
151.0690015376079
 20
185.9109998068466
 30
0.0000000000000000
 11
151.0690015376079
 21
175.9109998068465
 31
0.0000000000000000
  0
LINE
  5
D3
100
AcDbEntity
  8
1
  6
CONTINUOUS
 62
7
100
AcDbLine
 10
143.0690015376081
 20
174.9109998068466
 30
0.0000000000000000
 11
150.0690015376079
 21
174.9109998068466
 31
0.0000000000000000
  0
ARC
  5
D4
100
AcDbEntity
  8
1
  6
CONTINUOUS
 62
7
100
AcDbCircle
 10
143.0690015376081
 20
176.9109998068465
 30
0.0000000000000000
 40
2.000000000000000
100
AcDbArc
 50
210.0000000000000
 51
270.0000000000000
  0
ARC
  5
D5
100
AcDbEntity
  8
1
  6
CONTINUOUS
 62
7
100
AcDbCircle
 10
150.0690015376079
 20
175.9109998068465
 30
0.0000000000000000
 40
1.000000000000000
100
AcDbArc
 50
270.0000000000000
 51
360.0000000000000
  0
LINE
  5
D6
100
AcDbEntity
  8
1
  6
CONTINUOUS
 62
7
100
AcDbLine
 10
143.0690015376081
 20
186.9109998068465
 30
0.0000000000000000
 11
150.0690015376079
 21
186.9109998068465
 31
0.0000000000000000
  0
ARC
  5
D7
100
AcDbEntity
  8
1
  6
CONTINUOUS
 62
7
100
AcDbCircle
 10
143.0690015376081
 20
184.9109998068465
 30
0.0000000000000000
 40
2.000000000000000
100
AcDbArc
 50
90.00000000000000
 51
150.0000000000000
  0
ARC
  5
D8
100
AcDbEntity
  8
1
  6
CONTINUOUS
 62
7
100
AcDbCircle
 10
150.0690015376079
 20
185.9109998068466
 30
0.0000000000000000
 40
1.000000000000000
100
AcDbArc
 50
0.0000000000000000
 51
90.00000000000000
  0
LINE
  5
D9
100
AcDbEntity
  8
1
  6
CONTINUOUS
 62
7
100
AcDbLine
 10
183.5573180672536
 20
134.5977668740870
 30
0.0000000000000000
 11
182.5843245376081
 21
99.56999980684661
 31
0.0000000000000000
  0
LINE
  5
DA
100
AcDbEntity
  8
1
  6
CONTINUOUS
 62
7
100
AcDbLine
 10
193.6113310079626
 20
134.5977668740871
 30
0.0000000000000000
 11
194.5843245376081
 21
99.56999980684661
 31
0.0000000000000000
  0
LINE
  5
DB
100
AcDbEntity
  8
4
  6
CENTER
 62
1
100
AcDbLine
 10
188.5843245376081
 20
137.5699998068466
 30
0.0000000000000000
 11
188.5843245376081
 21
97.56999980684667
 31
0.0000000000000000
  0
LINE
  5
DC
100
AcDbEntity
  8
1
  6
CONTINUOUS
 62
7
100
AcDbLine
 10
182.5843245376081
 20
99.56999980684662
 30
0.0000000000000000
 11
194.5843245376081
 21
99.56999980684662
 31
0.0000000000000000
  0
LINE
  5
DD
100
AcDbEntity
  8
1
  6
CONTINUOUS
 62
7
100
AcDbLine
 10
184.5569324879063
 20
135.5699998068466
 30
0.0000000000000000
 11
192.6117165873099
 21
135.5699998068468
 31
0.0000000000000000
  0
ARC
  5
DE
100
AcDbEntity
  8
1
  6
CONTINUOUS
 62
7
100
AcDbCircle
 10
23.73681910014204
 20
123.5699998068466
 30
0.0000000000000000
 40
2.000000000000000
100
AcDbArc
 50
90.00000000000000
 51
178.4089086618013
  0
ARC
  5
DF
100
AcDbEntity
  8
1
  6
CONTINUOUS
 62
7
100
AcDbCircle
 10
138.4008438038996
 20
123.5699998068466
 30
0.0000000000000000
 40
2.000000000000000
100
AcDbArc
 50
1.592852924589517
 51
90.00000000000000
  0
LINE
  5
E0
100
AcDbEntity
  8
1
  6
CONTINUOUS
 62
7
100
AcDbLine
 10
20.48248068717646
 20
60.46530279794956
 30
0.0000000000000000
 11
21.18467060710827
 21
59.76386826904897
 31
0.0000000000000000
  0
LINE
  5
E1
100
AcDbEntity
  8
1
  6
CONTINUOUS
 62
7
100
AcDbLine
 10
20.48248068717648
 20
49.63689681574397
 30
0.0000000000000000
 11
21.18467060710830
 21
50.33833134464457
 31
0.0000000000000000
  0
LINE
  5
E2
100
AcDbEntity
  8
1
  6
CONTINUOUS
 62
7
100
AcDbLine
 10
141.6563223880397
 20
49.63689681574397
 30
0.0000000000000000
 11
140.9541324681079
 21
50.33833134464455
 31
0.0000000000000000
  0
LINE
  5
E3
100
AcDbEntity
  8
1
  6
CONTINUOUS
 62
7
100
AcDbLine
 10
141.6563223880397
 20
60.46530279794955
 30
0.0000000000000000
 11
140.9541324681079
 21
59.76386826904898
 31
0.0000000000000000
  0
ARC
  5
E4
100
AcDbEntity
  8
1
  6
CONTINUOUS
 62
7
100
AcDbCircle
 10
19.89655682728505
 20
58.47615903823784
 30
0.0000000000000000
 40
1.821381940414214
100
AcDbArc
 50
32.91518902752102
 51
44.99100134222207
  0
ARC
  5
E5
100
AcDbEntity
  8
1
  6
CONTINUOUS
 62
7
100
AcDbCircle
 10
19.89655682728505
 20
51.62604057545568
 30
0.0000000000000000
 40
1.821381940414214
100
AcDbArc
 50
315.0089986577778
 51
327.0848109724790
  0
LINE
  5
E6
100
AcDbEntity
  8
4
  6
CENTER
 62
1
100
AcDbLine
 10
146.0694015376080
 20
184.9109998068465
 30
0.0000000000000000
 11
146.0694015376080
 21
176.9109998068465
 31
0.0000000000000000
  0
CIRCLE
  5
E7
100
AcDbEntity
  8
1
  6
CONTINUOUS
 62
7
100
AcDbCircle
 10
16.06940153760810
 20
55.05109980684676
 30
0.0000000000000000
 40
3.000000000000000
  0
CIRCLE
  5
E8
100
AcDbEntity
  8
1
  6
CONTINUOUS
 62
7
100
AcDbCircle
 10
146.0694015376080
 20
55.05109980684676
 30
0.0000000000000000
 40
3.000000000000000
  0
ARC
  5
E9
100
AcDbEntity
  8
1
  6
CONTINUOUS
 62
7
100
AcDbCircle
 10
142.2422462479311
 20
58.47615903823784
 30
0.0000000000000000
 40
1.821381940414214
100
AcDbArc
 50
135.0089986577779
 51
147.0848109724790
  0
ARC
  5
EA
100
AcDbEntity
  8
1
  6
CONTINUOUS
 62
7
100
AcDbCircle
 10
142.2422462479311
 20
51.62604057545568
 30
0.0000000000000000
 40
1.821381940414214
100
AcDbArc
 50
212.9151890275209
 51
224.9910013422220
  0
ARC
  5
EB
100
AcDbEntity
  8
1
  6
CONTINUOUS
 62
7
100
AcDbCircle
 10
184.5569324879063
 20
134.5699998068466
 30
0.0000000000000000
 40
1.000000000000000
100
AcDbArc
 50
90.00000000000026
 51
178.4088597288055
  0
ARC
  5
EC
100
AcDbEntity
  8
1
  6
CONTINUOUS
 62
7
100
AcDbCircle
 10
192.6117165873099
 20
134.5699998068468
 30
0.0000000000000000
 40
1.000000000000000
100
AcDbArc
 50
1.591140271194530
 51
90.00000000000045
  0
LINE
  5
ED
100
AcDbEntity
  8
1
  6
CONTINUOUS
 62
7
100
AcDbLine
 10
150.0693096735898
 20
177.9109998068465
 30
0.0000000000000000
 11
150.0693096735898
 21
183.9109998068465
 31
0.0000000000000000
  0
ARC
  5
EE
100
AcDbEntity
  8
1
  6
CONTINUOUS
 62
7
100
AcDbCircle
 10
149.0693096735898
 20
184.9109998068465
 30
0.0000000000000000
 40
1.000000000000000
100
AcDbArc
 50
0.0000000000000000
 51
90.00000000000000
  0
ARC
  5
EF
100
AcDbEntity
  8
1
  6
CONTINUOUS
 62
7
100
AcDbCircle
 10
149.0693096735898
 20
176.9109998068465
 30
0.0000000000000000
 40
1.000000000000000
100
AcDbArc
 50
270.0000000000000
 51
360.0000000000000
  0
LINE
  5
F0
100
AcDbEntity
  8
1
  6
CONTINUOUS
 62
7
100
AcDbLine
 10
150.6347087560975
 20
175.3453361720796
 30
0.0000000000000000
 11
149.9178160174733
 21
176.0624498792401
 31
0.0000000000000000
  0
LINE
  5
F1
100
AcDbEntity
  8
1
  6
CONTINUOUS
 62
7
100
AcDbLine
 10
11.50409431911858
 20
186.4766634416134
 30
0.0000000000000000
 11
12.22098705774285
 21
185.7595497344529
 31
0.0000000000000000
  0
ARC
  5
F2
100
AcDbEntity
  8
1
  6
CONTINUOUS
 62
7
100
AcDbCircle
 10
13.06949340162634
 20
184.9109998068465
 30
0.0000000000000000
 40
1.000000000000000
100
AcDbArc
 50
90.00000000000000
 51
180.0000000000000
  0
LINE
  5
F3
100
AcDbEntity
  8
1
  6
CONTINUOUS
 62
7
100
AcDbLine
 10
12.06949340162631
 20
177.9109998068465
 30
0.0000000000000000
 11
12.06949340162634
 21
183.9109998068465
 31
0.0000000000000000
  0
ARC
  5
F4
100
AcDbEntity
  8
1
  6
CONTINUOUS
 62
7
100
AcDbCircle
 10
13.06949340162631
 20
176.9109998068465
 30
0.0000000000000000
 40
1.000000000000000
100
AcDbArc
 50
180.0000000000000
 51
270.0000000000000
  0
LINE
  5
F5
100
AcDbEntity
  8
1
  6
CONTINUOUS
 62
7
100
AcDbLine
 10
11.50409431911859
 20
175.3453361720797
 30
0.0000000000000000
 11
12.22098705774282
 21
176.0624498792402
 31
0.0000000000000000
  0
LINE
  5
F6
100
AcDbEntity
  8
1
  6
CONTINUOUS
 62
7
100
AcDbLine
 10
150.6347087560975
 20
186.4766634416133
 30
0.0000000000000000
 11
149.9178160174733
 21
185.7595497344528
 31
0.0000000000000000
  0
ENDSEC
  0
SECTION
  2
OBJECTS
  0
DICTIONARY
  5
11F
100
AcDbDictionary
  3
ACAD_GROUP
350
120
  3
ACAD_LAYOUT
350
121
  3
ACAD_MLINESTYLE
350
122
  0
DICTIONARY
  5
120
102
{ACAD_REACTORS
330
11F
102
}
330
11F
100
AcDbDictionary
  0
DICTIONARY
  5
121
102
{ACAD_REACTORS
330
11F
102
}
330
11F
100
AcDbDictionary
  3
Model
350
123
  3
ﾚｲｱｳﾄ1
350
124
  3
ﾚｲｱｳﾄ2
350
125
  0
DICTIONARY
  5
122
102
{ACAD_REACTORS
330
11F
102
}
330
11F
100
AcDbDictionary
  3
STANDARD
350
126
  0
LAYOUT
  5
123
102
{ACAD_REACTORS
330
121
102
}
330
121
100
AcDbPlotSettings
 70
11952
  4
A3
 44
297.000000
 45
420.000000
 73
  1
 72
  1
100
AcDbLayout
  1
Model
 71
0
330
116
  0
LAYOUT
  5
124
102
{ACAD_REACTORS
330
121
102
}
330
121
100
AcDbPlotSettings
100
AcDbLayout
  1
ﾚｲｱｳﾄ1
 71
1
330
117
  0
LAYOUT
  5
125
102
{ACAD_REACTORS
330
121
102
}
330
121
100
AcDbPlotSettings
100
AcDbLayout
  1
ﾚｲｱｳﾄ2
 71
2
330
118
  0
MLINESTYLE
  5
126
102
{ACAD_REACTORS
330
122
102
}
330
122
100
AcDbMlineStyle
  2
STANDARD
 70
     0
  3

 62
   256
 51
90.00
 52
90.00
 71
     2
 49
0.50
 62
   256
  6
BYLAYER
 49
-0.50
 62
   256
  6
BYLAYER
  0
ENDSEC
  0
EOF
