  0
SECTION
  2
HEADER
  9
$ACADVER
  1
AC1015
  9
$ACADMAINTVER
 70
    20
  9
$DWGCODEPAGE
  3
ANSI_932
  9
$INSBASE
 10
0.0
 20
0.0
 30
0.0
  9
$EXTMIN
 10
10.0
 20
9.999999999999998
 30
0.0
  9
$EXTMAX
 10
350.762262
 20
271.2803579999999
 30
0.0
  9
$LIMMIN
 10
0.0
 20
0.0
  9
$LIMMAX
 10
396.0
 20
273.0
  9
$ORTHOMODE
 70
     1
  9
$REGENMODE
 70
     1
  9
$FILLMODE
 70
     1
  9
$QTEXTMODE
 70
     0
  9
$MIRRTEXT
 70
     1
  9
$LTSCALE
 40
20.0
  9
$ATTMODE
 70
     1
  9
$TEXTSIZE
 40
5.0
  9
$TRACEWID
 40
1.0
  9
$TEXTSTYLE
  7
STANDARD
  9
$CLAYER
  8
0
  9
$CELTYPE
  6
BYLAYER
  9
$CECOLOR
 62
   256
  9
$CELTSCALE
 40
1.0
  9
$DISPSILH
 70
     0
  9
$DIMSCALE
 40
1.0
  9
$DIMASZ
 40
3.0
  9
$DIMEXO
 40
1.0
  9
$DIMDLI
 40
1.0
  9
$DIMRND
 40
0.0
  9
$DIMDLE
 40
0.0
  9
$DIMEXE
 40
1.0
  9
$DIMTP
 40
0.0
  9
$DIMTM
 40
0.0
  9
$DIMTXT
 40
3.2
  9
$DIMCEN
 40
0.0
  9
$DIMTSZ
 40
0.0
  9
$DIMTOL
 70
     0
  9
$DIMLIM
 70
     0
  9
$DIMTIH
 70
     0
  9
$DIMTOH
 70
     0
  9
$DIMSE1
 70
     0
  9
$DIMSE2
 70
     0
  9
$DIMTAD
 70
     1
  9
$DIMZIN
 70
     8
  9
$DIMBLK
  1

  9
$DIMASO
 70
     1
  9
$DIMSHO
 70
     1
  9
$DIMPOST
  1

  9
$DIMAPOST
  1

  9
$DIMALT
 70
     0
  9
$DIMALTD
 70
     2
  9
$DIMALTF
 40
25.4
  9
$DIMLFAC
 40
1.0
  9
$DIMTOFL
 70
     1
  9
$DIMTVP
 40
0.0
  9
$DIMTIX
 70
     0
  9
$DIMSOXD
 70
     0
  9
$DIMSAH
 70
     1
  9
$DIMBLK1
  1

  9
$DIMBLK2
  1

  9
$DIMSTYLE
  2
STANDARD
  9
$DIMCLRD
 70
   256
  9
$DIMCLRE
 70
   256
  9
$DIMCLRT
 70
   256
  9
$DIMTFAC
 40
1.0
  9
$DIMGAP
 40
1.0
  9
$DIMJUST
 70
     0
  9
$DIMSD1
 70
     0
  9
$DIMSD2
 70
     0
  9
$DIMTOLJ
 70
     1
  9
$DIMTZIN
 70
     0
  9
$DIMALTZ
 70
     0
  9
$DIMALTTZ
 70
     0
  9
$DIMUPT
 70
     0
  9
$DIMDEC
 70
     4
  9
$DIMTDEC
 70
     4
  9
$DIMALTU
 70
     2
  9
$DIMALTTD
 70
     2
  9
$DIMTXSTY
  7
STANDARD
  9
$DIMAUNIT
 70
     0
  9
$DIMADEC
 70
     0
  9
$DIMALTRND
 40
0.0
  9
$DIMAZIN
 70
     0
  9
$DIMDSEP
 70
    46
  9
$DIMATFIT
 70
     3
  9
$DIMFRAC
 70
     0
  9
$DIMLDRBLK
  1

  9
$DIMLUNIT
 70
     2
  9
$DIMLWD
 70
    -2
  9
$DIMLWE
 70
    -2
  9
$DIMTMOVE
 70
     0
  9
$LUNITS
 70
     2
  9
$LUPREC
 70
     4
  9
$SKETCHINC
 40
1.0
  9
$FILLETRAD
 40
0.0
  9
$AUNITS
 70
     0
  9
$AUPREC
 70
     2
  9
$MENU
  1
.
  9
$ELEVATION
 40
0.0
  9
$PELEVATION
 40
0.0
  9
$THICKNESS
 40
0.0
  9
$LIMCHECK
 70
     0
  9
$CHAMFERA
 40
1.0
  9
$CHAMFERB
 40
1.0
  9
$CHAMFERC
 40
0.0
  9
$CHAMFERD
 40
0.0
  9
$SKPOLY
 70
     0
  9
$TDCREATE
 40
2450737.682546412
  9
$TDUCREATE
 40
2450737.307546412
  9
$TDUPDATE
 40
2457192.638447847
  9
$TDUUPDATE
 40
2457192.263447848
  9
$TDINDWG
 40
0.0000155093
  9
$TDUSRTIMER
 40
0.0000151852
  9
$USRTIMER
 70
     1
  9
$ANGBASE
 50
0.0
  9
$ANGDIR
 70
     0
  9
$PDMODE
 70
    35
  9
$PDSIZE
 40
0.0
  9
$PLINEWID
 40
0.0
  9
$SPLFRAME
 70
     0
  9
$SPLINETYPE
 70
     6
  9
$SPLINESEGS
 70
     8
  9
$HANDSEED
  5
AF9E
  9
$SURFTAB1
 70
     6
  9
$SURFTAB2
 70
     6
  9
$SURFTYPE
 70
     6
  9
$SURFU
 70
     6
  9
$SURFV
 70
     6
  9
$UCSBASE
  2

  9
$UCSNAME
  2

  9
$UCSORG
 10
0.0
 20
0.0
 30
0.0
  9
$UCSXDIR
 10
1.0
 20
0.0
 30
0.0
  9
$UCSYDIR
 10
0.0
 20
1.0
 30
0.0
  9
$UCSORTHOREF
  2

  9
$UCSORTHOVIEW
 70
     0
  9
$UCSORGTOP
 10
0.0
 20
0.0
 30
0.0
  9
$UCSORGBOTTOM
 10
0.0
 20
0.0
 30
0.0
  9
$UCSORGLEFT
 10
0.0
 20
0.0
 30
0.0
  9
$UCSORGRIGHT
 10
0.0
 20
0.0
 30
0.0
  9
$UCSORGFRONT
 10
0.0
 20
0.0
 30
0.0
  9
$UCSORGBACK
 10
0.0
 20
0.0
 30
0.0
  9
$PUCSBASE
  2

  9
$PUCSNAME
  2

  9
$PUCSORG
 10
0.0
 20
0.0
 30
0.0
  9
$PUCSXDIR
 10
1.0
 20
0.0
 30
0.0
  9
$PUCSYDIR
 10
0.0
 20
1.0
 30
0.0
  9
$PUCSORTHOREF
  2

  9
$PUCSORTHOVIEW
 70
     0
  9
$PUCSORGTOP
 10
0.0
 20
0.0
 30
0.0
  9
$PUCSORGBOTTOM
 10
0.0
 20
0.0
 30
0.0
  9
$PUCSORGLEFT
 10
0.0
 20
0.0
 30
0.0
  9
$PUCSORGRIGHT
 10
0.0
 20
0.0
 30
0.0
  9
$PUCSORGFRONT
 10
0.0
 20
0.0
 30
0.0
  9
$PUCSORGBACK
 10
0.0
 20
0.0
 30
0.0
  9
$USERI1
 70
     0
  9
$USERI2
 70
     0
  9
$USERI3
 70
     0
  9
$USERI4
 70
     0
  9
$USERI5
 70
     0
  9
$USERR1
 40
0.0
  9
$USERR2
 40
0.0
  9
$USERR3
 40
0.0
  9
$USERR4
 40
0.0
  9
$USERR5
 40
0.0
  9
$WORLDVIEW
 70
     1
  9
$SHADEDGE
 70
     3
  9
$SHADEDIF
 70
    70
  9
$TILEMODE
 70
     1
  9
$MAXACTVP
 70
    16
  9
$PINSBASE
 10
0.0
 20
0.0
 30
0.0
  9
$PLIMCHECK
 70
     0
  9
$PEXTMIN
 10
1.000000000000000E+20
 20
1.000000000000000E+20
 30
1.000000000000000E+20
  9
$PEXTMAX
 10
-1.000000000000000E+20
 20
-1.000000000000000E+20
 30
-1.000000000000000E+20
  9
$PLIMMIN
 10
0.0
 20
0.0
  9
$PLIMMAX
 10
420.0
 20
297.0
  9
$UNITMODE
 70
     0
  9
$VISRETAIN
 70
     0
  9
$PLINEGEN
 70
     0
  9
$PSLTSCALE
 70
     0
  9
$TREEDEPTH
 70
  3020
  9
$CMLSTYLE
  2
STANDARD
  9
$CMLJUST
 70
     0
  9
$CMLSCALE
 40
1.0
  9
$PROXYGRAPHICS
 70
     1
  9
$MEASUREMENT
 70
     0
  9
$CELWEIGHT
370
    -1
  9
$ENDCAPS
280
     0
  9
$JOINSTYLE
280
     0
  9
$LWDISPLAY
290
     0
  9
$INSUNITS
 70
     0
  9
$HYPERLINKBASE
  1

  9
$STYLESHEET
  1

  9
$XEDIT
290
     1
  9
$CEPSNTYPE
380
     0
  9
$PSTYLEMODE
290
     1
  9
$FINGERPRINTGUID
  2
{3BDE96A3-B696-4E8B-BBD9-405F5928B398}
  9
$VERSIONGUID
  2
{FD33B87F-53D6-45F2-9CFB-4653E9DF14B5}
  9
$EXTNAMES
290
     1
  9
$PSVPSCALE
 40
0.0
  9
$OLESTARTUP
290
     0
  0
ENDSEC
  0
SECTION
  2
CLASSES
  0
CLASS
  1
ACDBDICTIONARYWDFLT
  2
AcDbDictionaryWithDefault
  3
ObjectDBX Classes
 90
        0
280
     0
281
     0
  0
CLASS
  1
ACDBPLACEHOLDER
  2
AcDbPlaceHolder
  3
ObjectDBX Classes
 90
        0
280
     0
281
     0
  0
CLASS
  1
LAYOUT
  2
AcDbLayout
  3
ObjectDBX Classes
 90
        0
280
     0
281
     0
  0
CLASS
  1
DICTIONARYVAR
  2
AcDbDictionaryVar
  3
ObjectDBX Classes
 90
        0
280
     0
281
     0
  0
CLASS
  1
MATERIAL
  2
AcDbMaterial
  3
ObjectDBX Classes
 90
     1153
280
     0
281
     0
  0
CLASS
  1
VISUALSTYLE
  2
AcDbVisualStyle
  3
ObjectDBX Classes
 90
     4095
280
     0
281
     0
  0
CLASS
  1
TABLESTYLE
  2
AcDbTableStyle
  3
ObjectDBX Classes
 90
     4095
280
     0
281
     0
  0
CLASS
  1
SCALE
  2
AcDbScale
  3
ObjectDBX Classes
 90
     1153
280
     0
281
     0
  0
CLASS
  1
MLEADERSTYLE
  2
AcDbMLeaderStyle
  3
ACDB_MLEADERSTYLE_CLASS
 90
     4095
280
     0
281
     0
  0
CLASS
  1
ACDBSECTIONVIEWSTYLE
  2
AcDbSectionViewStyle
  3
ObjectDBX Classes
 90
     1025
280
     0
281
     0
  0
CLASS
  1
ACDBDETAILVIEWSTYLE
  2
AcDbDetailViewStyle
  3
ObjectDBX Classes
 90
     1025
280
     0
281
     0
  0
CLASS
  1
CELLSTYLEMAP
  2
AcDbCellStyleMap
  3
ObjectDBX Classes
 90
     1152
280
     0
281
     0
  0
ENDSEC
  0
SECTION
  2
TABLES
  0
TABLE
  2
VPORT
  5
ACAE
330
0
100
AcDbSymbolTable
 70
     1
  0
VPORT
  5
AEE7
330
ACAE
100
AcDbSymbolTableRecord
100
AcDbViewportTableRecord
  2
*ACTIVE
 70
     0
 10
0.0
 20
0.0
 11
1.0
 21
1.0
 12
259.5326139462382
 22
140.644821807445
 13
0.0
 23
0.0
 14
10.0
 24
10.0
 15
10.0
 25
10.0
 16
0.0
 26
0.0
 36
1.0
 17
0.0
 27
0.0
 37
0.0
 40
264.2338011988227
 41
1.899603698811096
 42
50.0
 43
0.0
 44
0.0
 50
0.0
 51
0.0
 71
     0
 72
   100
 73
     1
 74
     0
 75
     0
 76
     0
 77
     0
 78
     0
281
     0
 65
     1
110
0.0
120
0.0
130
0.0
111
1.0
121
0.0
131
0.0
112
0.0
122
1.0
132
0.0
 79
     0
146
0.0
1001
ACAD_NAV_VCDISPLAY
1070
     3
  0
ENDTAB
  0
TABLE
  2
LTYPE
  5
ACAB
330
0
100
AcDbSymbolTable
 70
     4
  0
LTYPE
  5
ACB9
330
ACAB
100
AcDbSymbolTableRecord
100
AcDbLinetypeTableRecord
  2
BYBLOCK
 70
     0
  3

 72
    65
 73
     0
 40
0.0
  0
LTYPE
  5
ACBA
330
ACAB
100
AcDbSymbolTableRecord
100
AcDbLinetypeTableRecord
  2
BYLAYER
 70
     0
  3

 72
    65
 73
     0
 40
0.0
  0
LTYPE
  5
ACBB
330
ACAB
100
AcDbSymbolTableRecord
100
AcDbLinetypeTableRecord
  2
CONTINUOUS
 70
     0
  3
Solid line
 72
    65
 73
     0
 40
0.0
  0
LTYPE
  5
ACC9
330
ACAB
100
AcDbSymbolTableRecord
100
AcDbLinetypeTableRecord
  2
DASHED
 70
     0
  3
__ __ __ __ __ __ __ __ __ __ __ __ __ __ __ __
 72
    65
 73
     2
 40
0.75
 49
0.5
 74
     0
 49
-0.25
 74
     0
  0
LTYPE
  5
ACCA
330
ACAB
100
AcDbSymbolTableRecord
100
AcDbLinetypeTableRecord
  2
CENTER
 70
     0
  3
____ _ ____ _ ____ _ ____ _ ____ _ ____ _ ____ 
 72
    65
 73
     4
 40
2.0
 49
1.25
 74
     0
 49
-0.25
 74
     0
 49
0.25
 74
     0
 49
-0.25
 74
     0
  0
LTYPE
  5
ACCB
330
ACAB
100
AcDbSymbolTableRecord
100
AcDbLinetypeTableRecord
  2
PHANTOM
 70
     0
  3
______  __  __  ______  __  __  ______  __  __ 
 72
    65
 73
     6
 40
2.5
 49
1.25
 74
     0
 49
-0.25
 74
     0
 49
0.25
 74
     0
 49
-0.25
 74
     0
 49
0.25
 74
     0
 49
-0.25
 74
     0
  0
ENDTAB
  0
TABLE
  2
LAYER
  5
ACA8
330
0
100
AcDbSymbolTable
 70
     8
  0
LAYER
  5
ACB6
102
{ACAD_XDICTIONARY
360
AF42
102
}
330
ACA8
100
AcDbSymbolTableRecord
100
AcDbLayerTableRecord
  2
0
 70
     0
 62
     7
  6
CONTINUOUS
370
    -3
390
AEF0
  0
LAYER
  5
ACCC
102
{ACAD_XDICTIONARY
360
AF44
102
}
330
ACA8
100
AcDbSymbolTableRecord
100
AcDbLayerTableRecord
  2
4
 70
     0
 62
     1
  6
CENTER
370
    -3
390
AEF0
  0
LAYER
  5
ACCD
102
{ACAD_XDICTIONARY
360
AF46
102
}
330
ACA8
100
AcDbSymbolTableRecord
100
AcDbLayerTableRecord
  2
5
 70
     0
 62
     6
  6
PHANTOM
370
    -3
390
AEF0
  0
LAYER
  5
ACCE
102
{ACAD_XDICTIONARY
360
AF48
102
}
330
ACA8
100
AcDbSymbolTableRecord
100
AcDbLayerTableRecord
  2
1
 70
     0
 62
     7
  6
CONTINUOUS
370
    -3
390
AEF0
  0
LAYER
  5
ACCF
102
{ACAD_XDICTIONARY
360
AF4A
102
}
330
ACA8
100
AcDbSymbolTableRecord
100
AcDbLayerTableRecord
  2
2
 70
     0
 62
     4
  6
CONTINUOUS
370
    -3
390
AEF0
  0
LAYER
  5
ACD0
102
{ACAD_XDICTIONARY
360
AF4C
102
}
330
ACA8
100
AcDbSymbolTableRecord
100
AcDbLayerTableRecord
  2
3
 70
     0
 62
     2
  6
DASHED
370
    -3
390
AEF0
  0
LAYER
  5
ACD1
102
{ACAD_XDICTIONARY
360
AF4E
102
}
330
ACA8
100
AcDbSymbolTableRecord
100
AcDbLayerTableRecord
  2
6
 70
     0
 62
     5
  6
CONTINUOUS
370
    -3
390
AEF0
  0
LAYER
  5
ACD2
102
{ACAD_XDICTIONARY
360
AF50
102
}
330
ACA8
100
AcDbSymbolTableRecord
100
AcDbLayerTableRecord
  2
7
 70
     0
 62
     3
  6
CONTINUOUS
370
    -3
390
AEF0
  0
ENDTAB
  0
TABLE
  2
STYLE
  5
ACA9
330
0
100
AcDbSymbolTable
 70
     1
  0
STYLE
  5
ACB7
330
ACA9
100
AcDbSymbolTableRecord
100
AcDbTextStyleTableRecord
  2
STANDARD
 70
     0
 40
0.0
 41
1.0
 50
0.0
 71
     0
 42
5.0
  3
txt
  4

  0
ENDTAB
  0
TABLE
  2
VIEW
  5
ACAC
330
0
100
AcDbSymbolTable
 70
     0
  0
ENDTAB
  0
TABLE
  2
UCS
  5
ACAD
330
0
100
AcDbSymbolTable
 70
     0
  0
ENDTAB
  0
TABLE
  2
APPID
  5
ACAF
330
0
100
AcDbSymbolTable
 70
     3
  0
APPID
  5
ACB8
330
ACAF
100
AcDbSymbolTableRecord
100
AcDbRegAppTableRecord
  2
ACAD
 70
     0
  0
APPID
  5
AF5C
330
ACAF
100
AcDbSymbolTableRecord
100
AcDbRegAppTableRecord
  2
ACAD_NAV_VCDISPLAY
 70
     0
  0
APPID
  5
AF95
330
ACAF
100
AcDbSymbolTableRecord
100
AcDbRegAppTableRecord
  2
ACAD_MLEADERVER
 70
     0
  0
ENDTAB
  0
TABLE
  2
DIMSTYLE
  5
ACB0
330
0
100
AcDbSymbolTable
 70
     1
100
AcDbDimStyleTable
 71
     0
  0
DIMSTYLE
105
ACD4
330
ACB0
100
AcDbSymbolTableRecord
100
AcDbDimStyleTableRecord
  2
STANDARD
 70
     0
 41
3.0
 42
1.0
 43
1.0
 44
1.0
 73
     0
 74
     0
 77
     1
 78
     8
140
3.2
141
0.0
147
1.0
172
     1
173
     1
176
   256
177
   256
178
   256
284
     8
285
     8
286
     8
340
ACB7
  0
ENDTAB
  0
TABLE
  2
BLOCK_RECORD
  5
ACA7
330
0
100
AcDbSymbolTable
 70
     0
  0
BLOCK_RECORD
  5
ACC4
102
{ACAD_XDICTIONARY
360
AEEA
102
}
330
ACA7
100
AcDbSymbolTableRecord
100
AcDbBlockTableRecord
  2
*MODEL_SPACE
340
AF3E
  0
BLOCK_RECORD
  5
ACC0
102
{ACAD_XDICTIONARY
360
AEE8
102
}
330
ACA7
100
AcDbSymbolTableRecord
100
AcDbBlockTableRecord
  2
*PAPER_SPACE
340
AF3F
  0
ENDTAB
  0
ENDSEC
  0
SECTION
  2
BLOCKS
  0
BLOCK
  5
ACC5
330
ACC4
100
AcDbEntity
  8
0
100
AcDbBlockBegin
  2
*MODEL_SPACE
 70
     0
 10
0.0
 20
0.0
 30
0.0
  3
*MODEL_SPACE
  1

  0
ENDBLK
  5
ACC6
330
ACC4
100
AcDbEntity
  8
0
100
AcDbBlockEnd
  0
BLOCK
  5
ACC1
330
ACC0
100
AcDbEntity
 67
     1
  8
0
100
AcDbBlockBegin
  2
*PAPER_SPACE
 70
     0
 10
0.0
 20
0.0
 30
0.0
  3
*PAPER_SPACE
  1

  0
ENDBLK
  5
ACC2
330
ACC0
100
AcDbEntity
 67
     1
  8
0
100
AcDbBlockEnd
  0
ENDSEC
  0
SECTION
  2
ENTITIES
  0
TEXT
  5
ACDC
330
ACC4
100
AcDbEntity
  8
7
  6
Continuous
100
AcDbText
 10
10.0
 20
18.0
 30
0.0
 40
3.0
  1
TYPE No.THA-195-003
100
AcDbText
  0
TEXT
  5
ACDD
330
ACC4
100
AcDbEntity
  8
7
  6
Continuous
100
AcDbText
 10
10.0
 20
26.0
 30
0.0
 40
3.0
  1
CODE No.3807
100
AcDbText
  0
TEXT
  5
ACDE
330
ACC4
100
AcDbEntity
  8
1
  6
Continuous
100
AcDbText
 10
10.0
 20
10.0
 30
0.0
 40
1.399999999999999
  1
LAYER
100
AcDbText
  0
TEXT
  5
ACDF
330
ACC4
100
AcDbEntity
  8
1
  6
Continuous
100
AcDbText
 10
17.97951099999998
 20
10.04873699999998
 30
0.0
 40
1.399999999999999
  1
1
100
AcDbText
  0
TEXT
  5
ACE0
330
ACC4
100
AcDbEntity
  8
7
  6
Continuous
100
AcDbText
 10
29.97951099999999
 20
10.04873699999998
 30
0.0
 40
1.399999999999999
  1
7
100
AcDbText
  0
TEXT
  5
ACE1
330
ACC4
100
AcDbEntity
  8
4
  6
CENTER
100
AcDbText
 10
23.97951099999999
 20
10.04873699999998
 30
0.0
 40
1.399999999999999
  1
4
100
AcDbText
  0
TEXT
  5
ACE2
330
ACC4
100
AcDbEntity
  8
3
  6
DASHED
100
AcDbText
 10
21.979511
 20
10.04873699999998
 30
0.0
 40
1.399999999999999
  1
3
100
AcDbText
  0
TEXT
  5
ACE3
330
ACC4
100
AcDbEntity
  8
2
  6
Continuous
100
AcDbText
 10
19.97951099999999
 20
10.04873699999998
 30
0.0
 40
1.399999999999999
  1
2
100
AcDbText
  0
TEXT
  5
ACE4
330
ACC4
100
AcDbEntity
  8
6
  6
Continuous
100
AcDbText
 10
27.979511
 20
10.04873699999998
 30
0.0
 40
1.399999999999999
  1
6
100
AcDbText
  0
TEXT
  5
ACE5
330
ACC4
100
AcDbEntity
  8
5
  6
PHANTOM
100
AcDbText
 10
25.97951099999999
 20
10.04873699999998
 30
0.0
 40
1.399999999999999
  1
5
100
AcDbText
  0
LINE
  5
ACE6
330
ACC4
100
AcDbEntity
  8
1
  6
Continuous
100
AcDbLine
 10
95.17262200000001
 20
185.6901139999999
 30
0.0
 11
95.17262200000001
 21
123.690114
 31
0.0
  0
LINE
  5
ACE7
330
ACC4
100
AcDbEntity
  8
1
  6
Continuous
100
AcDbLine
 10
95.17262200000001
 20
185.6901139999999
 30
0.0
 11
15.172622
 21
185.6901139999999
 31
0.0
  0
LINE
  5
ACE8
330
ACC4
100
AcDbEntity
  8
1
  6
Continuous
100
AcDbLine
 10
15.172622
 20
185.6901139999999
 30
0.0
 11
15.172622
 21
123.690114
 31
0.0
  0
LINE
  5
ACE9
330
ACC4
100
AcDbEntity
  8
1
  6
Continuous
100
AcDbLine
 10
95.17262200000001
 20
123.690114
 30
0.0
 11
15.172622
 21
123.690114
 31
0.0
  0
LINE
  5
ACEA
330
ACC4
100
AcDbEntity
  8
1
  6
Continuous
100
AcDbLine
 10
95.17262200000001
 20
182.1901139999999
 30
0.0
 11
15.172622
 21
182.1901139999999
 31
0.0
  0
LINE
  5
ACEB
330
ACC4
100
AcDbEntity
  8
1
  6
Continuous
100
AcDbLine
 10
95.17262200000001
 20
180.190114
 30
0.0
 11
15.172622
 21
180.190114
 31
0.0
  0
LINE
  5
ACEC
330
ACC4
100
AcDbEntity
  8
1
  6
Continuous
100
AcDbLine
 10
95.17262200000001
 20
178.1901139999999
 30
0.0
 11
15.172622
 21
178.1901139999999
 31
0.0
  0
LINE
  5
ACED
330
ACC4
100
AcDbEntity
  8
1
  6
Continuous
100
AcDbLine
 10
95.17262200000001
 20
176.1901139999999
 30
0.0
 11
15.172622
 21
176.1901139999999
 31
0.0
  0
LINE
  5
ACEE
330
ACC4
100
AcDbEntity
  8
1
  6
Continuous
100
AcDbLine
 10
95.17262200000001
 20
174.1901139999999
 30
0.0
 11
15.172622
 21
174.1901139999999
 31
0.0
  0
LINE
  5
ACEF
330
ACC4
100
AcDbEntity
  8
1
  6
Continuous
100
AcDbLine
 10
95.17262200000001
 20
172.1901139999999
 30
0.0
 11
15.172622
 21
172.1901139999999
 31
0.0
  0
LINE
  5
ACF0
330
ACC4
100
AcDbEntity
  8
1
  6
Continuous
100
AcDbLine
 10
95.17262200000001
 20
170.1901139999999
 30
0.0
 11
15.172622
 21
170.1901139999999
 31
0.0
  0
LINE
  5
ACF1
330
ACC4
100
AcDbEntity
  8
1
  6
Continuous
100
AcDbLine
 10
95.17262200000001
 20
168.1901139999999
 30
0.0
 11
15.172622
 21
168.1901139999999
 31
0.0
  0
LINE
  5
ACF2
330
ACC4
100
AcDbEntity
  8
1
  6
Continuous
100
AcDbLine
 10
95.17262200000001
 20
166.1901139999999
 30
0.0
 11
15.172622
 21
166.1901139999999
 31
0.0
  0
LINE
  5
ACF3
330
ACC4
100
AcDbEntity
  8
1
  6
Continuous
100
AcDbLine
 10
95.17262200000001
 20
164.1901139999999
 30
0.0
 11
15.172622
 21
164.1901139999999
 31
0.0
  0
LINE
  5
ACF4
330
ACC4
100
AcDbEntity
  8
1
  6
Continuous
100
AcDbLine
 10
95.17262200000001
 20
160.6901139999999
 30
0.0
 11
15.172622
 21
160.6901139999999
 31
0.0
  0
LINE
  5
ACF5
330
ACC4
100
AcDbEntity
  8
1
  6
Continuous
100
AcDbLine
 10
144.8800159999999
 20
190.690114
 30
0.0
 11
146.580016
 21
190.690114
 31
0.0
  0
LINE
  5
ACF6
330
ACC4
100
AcDbEntity
  8
1
  6
Continuous
100
AcDbLine
 10
144.580016
 20
190.3901139999999
 30
0.0
 11
144.580016
 21
187.190114
 31
0.0
  0
LINE
  5
ACF7
330
ACC4
100
AcDbEntity
  8
1
  6
Continuous
100
AcDbLine
 10
144.580016
 20
165.6901139999999
 30
0.0
 11
145.580016
 21
165.6901139999999
 31
0.0
  0
LINE
  5
ACF8
330
ACC4
100
AcDbEntity
  8
1
  6
Continuous
100
AcDbLine
 10
146.580016
 20
190.690114
 30
0.0
 11
146.580016
 21
180.6901139999999
 31
0.0
  0
LINE
  5
ACF9
330
ACC4
100
AcDbEntity
  8
1
  6
Continuous
100
AcDbLine
 10
144.8800159999999
 20
187.190114
 30
0.0
 11
144.8800159999999
 21
185.190114
 31
0.0
  0
LINE
  5
ACFA
330
ACC4
100
AcDbEntity
  8
1
  6
Continuous
100
AcDbLine
 10
144.8800159999999
 20
187.190114
 30
0.0
 11
144.580016
 21
187.190114
 31
0.0
  0
LINE
  5
ACFB
330
ACC4
100
AcDbEntity
  8
1
  6
Continuous
100
AcDbLine
 10
144.8800159999999
 20
185.190114
 30
0.0
 11
144.580016
 21
185.190114
 31
0.0
  0
LINE
  5
ACFC
330
ACC4
100
AcDbEntity
  8
1
  6
Continuous
100
AcDbLine
 10
144.8800159999999
 20
183.190114
 30
0.0
 11
144.580016
 21
183.190114
 31
0.0
  0
LINE
  5
ACFD
330
ACC4
100
AcDbEntity
  8
1
  6
Continuous
100
AcDbLine
 10
144.8800159999999
 20
181.1901139999999
 30
0.0
 11
144.580016
 21
181.1901139999999
 31
0.0
  0
LINE
  5
ACFE
330
ACC4
100
AcDbEntity
  8
1
  6
Continuous
100
AcDbLine
 10
144.8800159999999
 20
179.190114
 30
0.0
 11
144.580016
 21
179.190114
 31
0.0
  0
LINE
  5
ACFF
330
ACC4
100
AcDbEntity
  8
1
  6
Continuous
100
AcDbLine
 10
144.8800159999999
 20
177.1901139999999
 30
0.0
 11
144.580016
 21
177.1901139999999
 31
0.0
  0
LINE
  5
AD00
330
ACC4
100
AcDbEntity
  8
1
  6
Continuous
100
AcDbLine
 10
144.8800159999999
 20
175.190114
 30
0.0
 11
144.580016
 21
175.190114
 31
0.0
  0
LINE
  5
AD01
330
ACC4
100
AcDbEntity
  8
1
  6
Continuous
100
AcDbLine
 10
144.8800159999999
 20
173.1901139999999
 30
0.0
 11
144.580016
 21
173.1901139999999
 31
0.0
  0
LINE
  5
AD02
330
ACC4
100
AcDbEntity
  8
1
  6
Continuous
100
AcDbLine
 10
144.8800159999999
 20
171.1901139999999
 30
0.0
 11
144.580016
 21
171.1901139999999
 31
0.0
  0
LINE
  5
AD03
330
ACC4
100
AcDbEntity
  8
1
  6
Continuous
100
AcDbLine
 10
144.8800159999999
 20
169.1901139999998
 30
0.0
 11
144.580016
 21
169.1901139999998
 31
0.0
  0
LINE
  5
AD04
330
ACC4
100
AcDbEntity
  8
1
  6
Continuous
100
AcDbLine
 10
145.580016
 20
165.6901139999999
 30
0.0
 11
144.580016
 21
165.6901139999999
 31
0.0
  0
LINE
  5
AD05
330
ACC4
100
AcDbEntity
  8
1
  6
Continuous
100
AcDbLine
 10
144.580016
 20
185.190114
 30
0.0
 11
144.580016
 21
183.190114
 31
0.0
  0
LINE
  5
AD06
330
ACC4
100
AcDbEntity
  8
1
  6
Continuous
100
AcDbLine
 10
144.580016
 20
181.1901139999999
 30
0.0
 11
144.580016
 21
179.190114
 31
0.0
  0
LINE
  5
AD07
330
ACC4
100
AcDbEntity
  8
1
  6
Continuous
100
AcDbLine
 10
144.580016
 20
177.1901139999999
 30
0.0
 11
144.580016
 21
175.190114
 31
0.0
  0
LINE
  5
AD08
330
ACC4
100
AcDbEntity
  8
1
  6
Continuous
100
AcDbLine
 10
144.580016
 20
173.1901139999999
 30
0.0
 11
144.580016
 21
171.1901139999999
 31
0.0
  0
LINE
  5
AD09
330
ACC4
100
AcDbEntity
  8
1
  6
Continuous
100
AcDbLine
 10
144.580016
 20
169.1901139999998
 30
0.0
 11
144.580016
 21
165.6901139999999
 31
0.0
  0
LINE
  5
AD0A
330
ACC4
100
AcDbEntity
  8
1
  6
Continuous
100
AcDbLine
 10
144.8800159999999
 20
171.1901139999999
 30
0.0
 11
144.8800159999999
 21
169.1901139999998
 31
0.0
  0
LINE
  5
AD0B
330
ACC4
100
AcDbEntity
  8
1
  6
Continuous
100
AcDbLine
 10
144.8800159999999
 20
175.190114
 30
0.0
 11
144.8800159999999
 21
173.1901139999999
 31
0.0
  0
LINE
  5
AD0C
330
ACC4
100
AcDbEntity
  8
1
  6
Continuous
100
AcDbLine
 10
144.8800159999999
 20
179.190114
 30
0.0
 11
144.8800159999999
 21
177.1901139999999
 31
0.0
  0
LINE
  5
AD0D
330
ACC4
100
AcDbEntity
  8
1
  6
Continuous
100
AcDbLine
 10
144.8800159999999
 20
183.190114
 30
0.0
 11
144.8800159999999
 21
181.1901139999999
 31
0.0
  0
LINE
  5
AD0E
330
ACC4
100
AcDbEntity
  8
1
  6
Continuous
100
AcDbLine
 10
166.580016
 20
186.6901139999999
 30
0.0
 11
166.580016
 21
158.095573
 31
0.0
  0
LINE
  5
AD0F
330
ACC4
100
AcDbEntity
  8
1
  6
Continuous
100
AcDbLine
 10
164.580016
 20
186.6901139999999
 30
0.0
 11
164.580016
 21
179.78941
 31
0.0
  0
LINE
  5
AD10
330
ACC4
100
AcDbEntity
  8
1
  6
Continuous
100
AcDbLine
 10
164.580016
 20
186.6901139999999
 30
0.0
 11
166.580016
 21
186.6901139999999
 31
0.0
  0
LINE
  5
AD11
330
ACC4
100
AcDbEntity
  8
1
  6
Continuous
100
AcDbLine
 10
164.580016
 20
133.6901139999999
 30
0.0
 11
166.580016
 21
133.6901139999999
 31
0.0
  0
LINE
  5
AD12
330
ACC4
100
AcDbEntity
  8
1
  6
Continuous
100
AcDbLine
 10
144.8800159999999
 20
128.6901139999999
 30
0.0
 11
146.580016
 21
128.6901139999999
 31
0.0
  0
LINE
  5
AD13
330
ACC4
100
AcDbEntity
  8
1
  6
Continuous
100
AcDbLine
 10
146.580016
 20
180.6901139999999
 30
0.0
 11
158.5800159999998
 21
180.6901139999999
 31
0.0
  0
LINE
  5
AD14
330
ACC4
100
AcDbEntity
  8
1
  6
Continuous
100
AcDbLine
 10
152.580016
 20
178.6901139999999
 30
0.0
 11
158.5800159999998
 21
178.6901139999999
 31
0.0
  0
ARC
  5
AD15
330
ACC4
100
AcDbEntity
  8
1
  6
Continuous
100
AcDbCircle
 10
145.580016
 20
168.6901139999999
 30
0.0
 40
3.0
100
AcDbArc
 50
270.0
 51
53.130102
  0
LINE
  5
AD16
330
ACC4
100
AcDbEntity
  8
1
  6
Continuous
100
AcDbLine
 10
146.580016
 20
172.690114
 30
0.0
 11
146.580016
 21
172.690114
 31
0.0
  0
ARC
  5
AD17
330
ACC4
100
AcDbEntity
  8
1
  6
Continuous
100
AcDbCircle
 10
152.580016
 20
172.690114
 30
0.0
 40
6.0
100
AcDbArc
 50
90.0
 51
180.0
  0
ARC
  5
AD18
330
ACC4
100
AcDbEntity
  8
1
  6
Continuous
100
AcDbCircle
 10
148.5800159999998
 20
172.690114
 30
0.0
 40
2.0
100
AcDbArc
 50
180.0
 51
233.130102
  0
LINE
  5
AD19
330
ACC4
100
AcDbEntity
  8
1
  6
Continuous
100
AcDbLine
 10
164.580016
 20
172.690114
 30
0.0
 11
164.580016
 21
158.6901139999999
 31
0.0
  0
ARC
  5
AD1A
330
ACC4
100
AcDbEntity
  8
1
  6
Continuous
100
AcDbCircle
 10
158.5800159999998
 20
172.690114
 30
0.0
 40
6.0
100
AcDbArc
 50
0.0
 51
90.0
  0
ARC
  5
AD1B
330
ACC4
100
AcDbEntity
  8
1
  6
Continuous
100
AcDbCircle
 10
163.7800159999999
 20
179.78941
 30
0.0
 40
0.8
100
AcDbArc
 50
233.7784529999999
 51
0.0
  0
ARC
  5
AD1C
330
ACC4
100
AcDbEntity
  8
1
  6
Continuous
100
AcDbCircle
 10
158.5800159999998
 20
172.690114
 30
0.0
 40
8.0
100
AcDbArc
 50
53.778453
 51
90.0
  0
LINE
  5
AD1D
330
ACC4
100
AcDbEntity
  8
1
  6
Continuous
100
AcDbLine
 10
146.580016
 20
132.6901139999999
 30
0.0
 11
146.580016
 21
128.6901139999999
 31
0.0
  0
LINE
  5
AD1E
330
ACC4
100
AcDbEntity
  8
1
  6
Continuous
100
AcDbLine
 10
144.580016
 20
132.6901139999999
 30
0.0
 11
144.580016
 21
128.9901139999997
 31
0.0
  0
LINE
  5
AD1F
330
ACC4
100
AcDbEntity
  8
1
  6
Continuous
100
AcDbLine
 10
147.580016
 20
135.6901139999999
 30
0.0
 11
149.5800159999998
 21
135.6901139999999
 31
0.0
  0
LINE
  5
AD20
330
ACC4
100
AcDbEntity
  8
1
  6
Continuous
100
AcDbLine
 10
147.580016
 20
133.6901139999999
 30
0.0
 11
150.663412
 21
133.6901139999999
 31
0.0
  0
LINE
  5
AD21
330
ACC4
100
AcDbEntity
  8
1
  6
Continuous
100
AcDbLine
 10
164.580016
 20
158.6901139999999
 30
0.0
 11
149.5800159999998
 21
135.6901139999999
 31
0.0
  0
LINE
  5
AD22
330
ACC4
100
AcDbEntity
  8
1
  6
Continuous
100
AcDbLine
 10
166.580016
 20
158.095573
 30
0.0
 11
161.098195
 21
149.690114
 31
0.0
  0
LINE
  5
AD23
330
ACC4
100
AcDbEntity
  8
1
  6
Continuous
100
AcDbLine
 10
161.098195
 20
149.690114
 30
0.0
 11
166.580016
 21
143.6901139999999
 31
0.0
  0
LINE
  5
AD24
330
ACC4
100
AcDbEntity
  8
1
  6
Continuous
100
AcDbLine
 10
159.9698529999998
 20
147.959991
 30
0.0
 11
164.580016
 21
142.914045
 31
0.0
  0
LINE
  5
AD25
330
ACC4
100
AcDbEntity
  8
1
  6
Continuous
100
AcDbLine
 10
159.9698529999998
 20
147.959991
 30
0.0
 11
150.663412
 21
133.6901139999999
 31
0.0
  0
LINE
  5
AD26
330
ACC4
100
AcDbEntity
  8
1
  6
Continuous
100
AcDbLine
 10
166.580016
 20
143.6901139999999
 30
0.0
 11
166.580016
 21
133.6901139999999
 31
0.0
  0
LINE
  5
AD27
330
ACC4
100
AcDbEntity
  8
1
  6
Continuous
100
AcDbLine
 10
164.580016
 20
142.914045
 30
0.0
 11
164.580016
 21
133.6901139999999
 31
0.0
  0
ARC
  5
AD28
330
ACC4
100
AcDbEntity
  8
1
  6
Continuous
100
AcDbCircle
 10
147.580016
 20
132.6901139999999
 30
0.0
 40
1.0
100
AcDbArc
 50
90.0
 51
180.0
  0
ARC
  5
AD29
330
ACC4
100
AcDbEntity
  8
1
  6
Continuous
100
AcDbCircle
 10
147.580016
 20
132.6901139999999
 30
0.0
 40
3.0
100
AcDbArc
 50
90.0
 51
180.0
  0
LINE
  5
AD2A
330
ACC4
100
AcDbEntity
  8
1
  6
Continuous
100
AcDbLine
 10
144.8800159999999
 20
190.690114
 30
0.0
 11
144.580016
 21
190.3901139999999
 31
0.0
  0
LINE
  5
AD2B
330
ACC4
100
AcDbEntity
  8
4
  6
CENTER
100
AcDbLine
 10
162.0800159999998
 20
183.6901139999999
 30
0.0
 11
169.080016
 21
183.6901139999999
 31
0.0
  0
LINE
  5
AD2C
330
ACC4
100
AcDbEntity
  8
4
  6
CENTER
100
AcDbLine
 10
162.0800159999998
 20
137.6901139999999
 30
0.0
 11
169.080016
 21
137.6901139999999
 31
0.0
  0
LINE
  5
AD2D
330
ACC4
100
AcDbEntity
  8
1
  6
Continuous
100
AcDbLine
 10
95.17262200000001
 20
130.6901139999999
 30
0.0
 11
15.172622
 21
130.6901139999999
 31
0.0
  0
LINE
  5
AD2E
330
ACC4
100
AcDbEntity
  8
1
  6
Continuous
100
AcDbLine
 10
263.912262
 20
190.690114
 30
0.0
 11
343.912262
 21
190.690114
 31
0.0
  0
LINE
  5
AD2F
330
ACC4
100
AcDbEntity
  8
1
  6
Continuous
100
AcDbLine
 10
263.912262
 20
128.6901139999999
 30
0.0
 11
343.912262
 21
128.6901139999999
 31
0.0
  0
LINE
  5
AD30
330
ACC4
100
AcDbEntity
  8
1
  6
Continuous
100
AcDbLine
 10
343.912262
 20
190.690114
 30
0.0
 11
343.912262
 21
188.6901139999999
 31
0.0
  0
LINE
  5
AD31
330
ACC4
100
AcDbEntity
  8
1
  6
Continuous
100
AcDbLine
 10
263.912262
 20
190.690114
 30
0.0
 11
263.912262
 21
188.6901139999999
 31
0.0
  0
LINE
  5
AD32
330
ACC4
100
AcDbEntity
  8
1
  6
Continuous
100
AcDbLine
 10
15.172622
 20
209.060603
 30
0.0
 11
95.17262200000001
 21
209.060603
 31
0.0
  0
LINE
  5
AD33
330
ACC4
100
AcDbEntity
  8
1
  6
Continuous
100
AcDbLine
 10
16.172622
 20
229.0606029999999
 30
0.0
 11
94.17262200000001
 21
229.0606029999999
 31
0.0
  0
LINE
  5
AD34
330
ACC4
100
AcDbEntity
  8
1
  6
Continuous
100
AcDbLine
 10
95.17262200000001
 20
207.0606029999999
 30
0.0
 11
95.17262200000001
 21
228.0606029999999
 31
0.0
  0
LINE
  5
AD35
330
ACC4
100
AcDbEntity
  8
1
  6
Continuous
100
AcDbLine
 10
15.172622
 20
207.0606029999999
 30
0.0
 11
15.172622
 21
228.0606029999999
 31
0.0
  0
LINE
  5
AD36
330
ACC4
100
AcDbEntity
  8
1
  6
Continuous
100
AcDbLine
 10
15.172622
 20
207.0606029999999
 30
0.0
 11
95.17262200000001
 21
207.0606029999999
 31
0.0
  0
LINE
  5
AD37
330
ACC4
100
AcDbEntity
  8
1
  6
Continuous
100
AcDbLine
 10
15.172622
 20
227.0606029999999
 30
0.0
 11
95.17262200000001
 21
227.0606029999999
 31
0.0
  0
LINE
  5
AD38
330
ACC4
100
AcDbEntity
  8
4
  6
CENTER
100
AcDbLine
 10
20.172622
 20
231.560603
 30
0.0
 11
20.172622
 21
224.5606029999999
 31
0.0
  0
LINE
  5
AD39
330
ACC4
100
AcDbEntity
  8
4
  6
CENTER
100
AcDbLine
 10
90.17262200000001
 20
231.560603
 30
0.0
 11
90.17262200000001
 21
224.5606029999999
 31
0.0
  0
LINE
  5
AD3A
330
ACC4
100
AcDbEntity
  8
1
  6
Continuous
100
AcDbLine
 10
16.172622
 20
229.0606029999999
 30
0.0
 11
15.172622
 21
228.0606029999999
 31
0.0
  0
LINE
  5
AD3B
330
ACC4
100
AcDbEntity
  8
1
  6
Continuous
100
AcDbLine
 10
94.17262200000001
 20
229.0606029999999
 30
0.0
 11
95.17262200000001
 21
228.0606029999999
 31
0.0
  0
LINE
  5
AD3C
330
ACC4
100
AcDbEntity
  8
1
  6
Continuous
100
AcDbLine
 10
16.172622
 20
80.39132099999998
 30
0.0
 11
94.17262200000001
 21
80.39132099999998
 31
0.0
  0
LINE
  5
AD3D
330
ACC4
100
AcDbEntity
  8
1
  6
Continuous
100
AcDbLine
 10
15.172622
 20
82.39132099999997
 30
0.0
 11
95.17262200000001
 21
82.39132099999997
 31
0.0
  0
LINE
  5
AD3E
330
ACC4
100
AcDbEntity
  8
1
  6
Continuous
100
AcDbLine
 10
15.172622
 20
102.3913209999999
 30
0.0
 11
95.17262200000001
 21
102.3913209999999
 31
0.0
  0
LINE
  5
AD3F
330
ACC4
100
AcDbEntity
  8
1
  6
Continuous
100
AcDbLine
 10
15.172622
 20
100.3913209999999
 30
0.0
 11
95.17262200000001
 21
100.3913209999999
 31
0.0
  0
LINE
  5
AD40
330
ACC4
100
AcDbEntity
  8
1
  6
Continuous
100
AcDbLine
 10
16.172622
 20
80.39132099999998
 30
0.0
 11
15.172622
 21
81.39132099999997
 31
0.0
  0
LINE
  5
AD41
330
ACC4
100
AcDbEntity
  8
1
  6
Continuous
100
AcDbLine
 10
15.172622
 20
102.3913209999999
 30
0.0
 11
15.172622
 21
81.39132099999997
 31
0.0
  0
LINE
  5
AD42
330
ACC4
100
AcDbEntity
  8
4
  6
CENTER
100
AcDbLine
 10
20.172622
 20
77.89132099999998
 30
0.0
 11
20.172622
 21
84.89132099999997
 31
0.0
  0
LINE
  5
AD43
330
ACC4
100
AcDbEntity
  8
1
  6
Continuous
100
AcDbLine
 10
94.17262200000001
 20
80.39132099999998
 30
0.0
 11
95.17262200000001
 21
81.39132099999997
 31
0.0
  0
LINE
  5
AD44
330
ACC4
100
AcDbEntity
  8
4
  6
CENTER
100
AcDbLine
 10
90.17262200000001
 20
77.89132099999998
 30
0.0
 11
90.17262200000001
 21
84.89132099999997
 31
0.0
  0
LINE
  5
AD45
330
ACC4
100
AcDbEntity
  8
1
  6
Continuous
100
AcDbLine
 10
95.17262200000001
 20
102.3913209999999
 30
0.0
 11
95.17262200000001
 21
81.39132099999997
 31
0.0
  0
LINE
  5
AD46
330
ACC4
100
AcDbEntity
  8
1
  6
Continuous
100
AcDbLine
 10
144.580016
 20
128.9901139999997
 30
0.0
 11
144.8800159999999
 21
128.6901139999999
 31
0.0
  0
LINE
  5
AD47
330
ACC4
100
AcDbEntity
  8
4
  6
CENTER
100
AcDbLine
 10
16.672622
 20
132.6901139999999
 30
0.0
 11
23.672622
 21
132.6901139999999
 31
0.0
  0
LINE
  5
AD48
330
ACC4
100
AcDbEntity
  8
4
  6
CENTER
100
AcDbLine
 10
20.172622
 20
136.190114
 30
0.0
 11
20.172622
 21
129.190114
 31
0.0
  0
LINE
  5
AD49
330
ACC4
100
AcDbEntity
  8
4
  6
CENTER
100
AcDbLine
 10
20.172622
 20
182.1901139999999
 30
0.0
 11
20.172622
 21
175.190114
 31
0.0
  0
LINE
  5
AD4A
330
ACC4
100
AcDbEntity
  8
4
  6
CENTER
100
AcDbLine
 10
16.672622
 20
178.6901139999999
 30
0.0
 11
23.672622
 21
178.6901139999999
 31
0.0
  0
LINE
  5
AD4B
330
ACC4
100
AcDbEntity
  8
4
  6
CENTER
100
AcDbLine
 10
55.172622
 20
189.1901139999999
 30
0.0
 11
55.172622
 21
120.1901139999998
 31
0.0
  0
LINE
  5
AD4C
330
ACC4
100
AcDbEntity
  8
4
  6
CENTER
100
AcDbLine
 10
86.67262200000001
 20
132.6901139999999
 30
0.0
 11
93.672622
 21
132.6901139999999
 31
0.0
  0
LINE
  5
AD4D
330
ACC4
100
AcDbEntity
  8
4
  6
CENTER
100
AcDbLine
 10
90.17262200000001
 20
136.190114
 30
0.0
 11
90.17262200000001
 21
129.190114
 31
0.0
  0
LINE
  5
AD4E
330
ACC4
100
AcDbEntity
  8
4
  6
CENTER
100
AcDbLine
 10
86.67262200000001
 20
178.6901139999999
 30
0.0
 11
93.672622
 21
178.6901139999999
 31
0.0
  0
LINE
  5
AD4F
330
ACC4
100
AcDbEntity
  8
4
  6
CENTER
100
AcDbLine
 10
90.17262200000001
 20
182.1901139999999
 30
0.0
 11
90.17262200000001
 21
175.190114
 31
0.0
  0
LINE
  5
AD50
330
ACC4
100
AcDbEntity
  8
4
  6
CENTER
100
AcDbLine
 10
55.172622
 20
105.8913209999999
 30
0.0
 11
55.172622
 21
76.89132099999998
 31
0.0
  0
LINE
  5
AD51
330
ACC4
100
AcDbEntity
  8
4
  6
CENTER
100
AcDbLine
 10
55.172622
 20
232.5606029999999
 30
0.0
 11
55.172622
 21
203.5606029999999
 31
0.0
  0
LINE
  5
AD52
330
ACC4
100
AcDbEntity
  8
4
  6
CENTER
100
AcDbLine
 10
303.912262
 20
125.6901139999998
 30
0.0
 11
303.912262
 21
193.6901139999999
 31
0.0
  0
LINE
  5
AD53
330
ACC4
100
AcDbEntity
  8
1
  6
Continuous
100
AcDbLine
 10
345.762262
 20
130.6901139999999
 30
0.0
 11
345.762262
 21
188.6901139999999
 31
0.0
  0
LINE
  5
AD54
330
ACC4
100
AcDbEntity
  8
1
  6
Continuous
100
AcDbLine
 10
262.0622619999999
 20
130.6901139999999
 30
0.0
 11
262.0622619999999
 21
188.6901139999999
 31
0.0
  0
LINE
  5
AD55
330
ACC4
100
AcDbEntity
  8
4
  6
CENTER
100
AcDbLine
 10
350.762262
 20
159.6901139999999
 30
0.0
 11
257.0622619999999
 21
159.6901139999999
 31
0.0
  0
LINE
  5
AD56
330
ACC4
100
AcDbEntity
  8
1
  6
Continuous
100
AcDbLine
 10
345.762262
 20
130.6901139999999
 30
0.0
 11
262.0622619999999
 21
130.6901139999999
 31
0.0
  0
LINE
  5
AD57
330
ACC4
100
AcDbEntity
  8
1
  6
Continuous
100
AcDbLine
 10
345.762262
 20
188.6901139999999
 30
0.0
 11
262.0622619999999
 21
188.6901139999999
 31
0.0
  0
LINE
  5
AD58
330
ACC4
100
AcDbEntity
  8
1
  6
Continuous
100
AcDbLine
 10
338.912262
 20
170.1901139999999
 30
0.0
 11
268.912262
 21
170.1901139999999
 31
0.0
  0
LINE
  5
AD59
330
ACC4
100
AcDbEntity
  8
1
  6
Continuous
100
AcDbLine
 10
338.912262
 20
175.190114
 30
0.0
 11
268.912262
 21
175.190114
 31
0.0
  0
LINE
  5
AD5A
330
ACC4
100
AcDbEntity
  8
1
  6
Continuous
100
AcDbLine
 10
338.912262
 20
144.1901139999998
 30
0.0
 11
268.912262
 21
144.1901139999998
 31
0.0
  0
LINE
  5
AD5B
330
ACC4
100
AcDbEntity
  8
1
  6
Continuous
100
AcDbLine
 10
338.912262
 20
149.1901139999999
 30
0.0
 11
268.912262
 21
149.1901139999999
 31
0.0
  0
ARC
  5
AD5C
330
ACC4
100
AcDbEntity
  8
1
  6
Continuous
100
AcDbCircle
 10
268.912262
 20
146.690114
 30
0.0
 40
2.5
100
AcDbArc
 50
90.0
 51
270.0
  0
ARC
  5
AD5D
330
ACC4
100
AcDbEntity
  8
1
  6
Continuous
100
AcDbCircle
 10
268.912262
 20
172.690114
 30
0.0
 40
2.5
100
AcDbArc
 50
90.0
 51
270.0
  0
ARC
  5
AD5E
330
ACC4
100
AcDbEntity
  8
1
  6
Continuous
100
AcDbCircle
 10
338.912262
 20
172.690114
 30
0.0
 40
2.5
100
AcDbArc
 50
270.0
 51
90.0
  0
ARC
  5
AD5F
330
ACC4
100
AcDbEntity
  8
1
  6
Continuous
100
AcDbCircle
 10
338.912262
 20
146.690114
 30
0.0
 40
2.5
100
AcDbArc
 50
270.0
 51
90.0
  0
LINE
  5
AD60
330
ACC4
100
AcDbEntity
  8
3
  6
DASHED
100
AcDbLine
 10
344.1622619999998
 20
130.6901139999999
 30
0.0
 11
344.1622619999998
 21
188.6901139999999
 31
0.0
  0
LINE
  5
AD61
330
ACC4
100
AcDbEntity
  8
3
  6
DASHED
100
AcDbLine
 10
263.662262
 20
130.6901139999999
 30
0.0
 11
263.662262
 21
188.6901139999999
 31
0.0
  0
LINE
  5
AD62
330
ACC4
100
AcDbEntity
  8
4
  6
CENTER
100
AcDbLine
 10
338.912262
 20
132.9401139999999
 30
0.0
 11
338.912262
 21
140.440114
 31
0.0
  0
LINE
  5
AD63
330
ACC4
100
AcDbEntity
  8
4
  6
CENTER
100
AcDbLine
 10
268.912262
 20
132.9401139999999
 30
0.0
 11
268.912262
 21
140.440114
 31
0.0
  0
LINE
  5
AD64
330
ACC4
100
AcDbEntity
  8
4
  6
CENTER
100
AcDbLine
 10
342.6622619999998
 20
136.6901139999999
 30
0.0
 11
335.162262
 21
136.6901139999999
 31
0.0
  0
LINE
  5
AD65
330
ACC4
100
AcDbEntity
  8
4
  6
CENTER
100
AcDbLine
 10
342.6622619999998
 20
182.690114
 30
0.0
 11
335.162262
 21
182.690114
 31
0.0
  0
CIRCLE
  5
AD66
330
ACC4
100
AcDbEntity
  8
1
  6
Continuous
100
AcDbCircle
 10
338.912262
 20
182.690114
 30
0.0
 40
1.75
  0
CIRCLE
  5
AD67
330
ACC4
100
AcDbEntity
  8
1
  6
Continuous
100
AcDbCircle
 10
338.912262
 20
136.6901139999999
 30
0.0
 40
1.75
  0
CIRCLE
  5
AD68
330
ACC4
100
AcDbEntity
  8
1
  6
Continuous
100
AcDbCircle
 10
268.912262
 20
136.6901139999999
 30
0.0
 40
1.75
  0
CIRCLE
  5
AD69
330
ACC4
100
AcDbEntity
  8
1
  6
Continuous
100
AcDbCircle
 10
268.912262
 20
182.690114
 30
0.0
 40
1.75
  0
LINE
  5
AD6A
330
ACC4
100
AcDbEntity
  8
4
  6
CENTER
100
AcDbLine
 10
338.912262
 20
178.940114
 30
0.0
 11
338.912262
 21
186.440114
 31
0.0
  0
LINE
  5
AD6B
330
ACC4
100
AcDbEntity
  8
4
  6
CENTER
100
AcDbLine
 10
268.912262
 20
178.940114
 30
0.0
 11
268.912262
 21
186.440114
 31
0.0
  0
LINE
  5
AD6C
330
ACC4
100
AcDbEntity
  8
4
  6
CENTER
100
AcDbLine
 10
272.662262
 20
182.690114
 30
0.0
 11
265.1622619999999
 21
182.690114
 31
0.0
  0
LINE
  5
AD6D
330
ACC4
100
AcDbEntity
  8
4
  6
CENTER
100
AcDbLine
 10
272.662262
 20
136.6901139999999
 30
0.0
 11
265.1622619999999
 21
136.6901139999999
 31
0.0
  0
LINE
  5
AD6E
330
ACC4
100
AcDbEntity
  8
4
  6
CENTER
100
AcDbLine
 10
55.172622
 20
71.65116600000001
 30
0.0
 11
55.172622
 21
38.05116599999998
 31
0.0
  0
LINE
  5
AD6F
330
ACC4
100
AcDbEntity
  8
1
  6
Continuous
100
AcDbLine
 10
97.02262199999999
 20
66.65116600000001
 30
0.0
 11
95.42262200000001
 21
66.65116600000001
 31
0.0
  0
LINE
  5
AD70
330
ACC4
100
AcDbEntity
  8
1
  6
Continuous
100
AcDbLine
 10
94.62262200000001
 20
44.65116599999999
 30
0.0
 11
15.72262199999999
 21
44.65116599999999
 31
0.0
  0
LINE
  5
AD71
330
ACC4
100
AcDbEntity
  8
1
  6
Continuous
100
AcDbLine
 10
91.07262199999999
 20
43.05116599999998
 30
0.0
 11
19.27262199999999
 21
43.05116599999998
 31
0.0
  0
LINE
  5
AD72
330
ACC4
100
AcDbEntity
  8
1
  6
Continuous
100
AcDbLine
 10
97.02262199999999
 20
47.05116599999999
 30
0.0
 11
97.02262199999999
 21
66.65116600000001
 31
0.0
  0
LINE
  5
AD73
330
ACC4
100
AcDbEntity
  8
1
  6
Continuous
100
AcDbLine
 10
95.42262200000001
 20
47.05116599999999
 30
0.0
 11
95.42262200000001
 21
66.65116600000001
 31
0.0
  0
LINE
  5
AD74
330
ACC4
100
AcDbEntity
  8
1
  6
Continuous
100
AcDbLine
 10
94.62262200000001
 20
46.251166
 30
0.0
 11
15.72262199999999
 21
46.251166
 31
0.0
  0
LINE
  5
AD75
330
ACC4
100
AcDbEntity
  8
1
  6
Continuous
100
AcDbLine
 10
14.922622
 20
66.65116600000001
 30
0.0
 11
13.322622
 21
66.65116600000001
 31
0.0
  0
ARC
  5
AD76
330
ACC4
100
AcDbEntity
  8
1
  6
Continuous
100
AcDbCircle
 10
94.62262200000001
 20
47.05116599999999
 30
0.0
 40
0.8
100
AcDbArc
 50
270.0
 51
0.0
  0
ARC
  5
AD77
330
ACC4
100
AcDbEntity
  8
1
  6
Continuous
100
AcDbCircle
 10
94.62262200000001
 20
47.05116599999999
 30
0.0
 40
2.399999999999999
100
AcDbArc
 50
270.0
 51
0.0
  0
LINE
  5
AD78
330
ACC4
100
AcDbEntity
  8
1
  6
Continuous
100
AcDbLine
 10
13.322622
 20
47.05116599999999
 30
0.0
 11
13.322622
 21
66.65116600000001
 31
0.0
  0
LINE
  5
AD79
330
ACC4
100
AcDbEntity
  8
1
  6
Continuous
100
AcDbLine
 10
14.922622
 20
47.05116599999999
 30
0.0
 11
14.922622
 21
66.65116600000001
 31
0.0
  0
ARC
  5
AD7A
330
ACC4
100
AcDbEntity
  8
1
  6
Continuous
100
AcDbCircle
 10
15.72262199999999
 20
47.05116599999999
 30
0.0
 40
2.399999999999999
100
AcDbArc
 50
180.0
 51
270.0
  0
ARC
  5
AD7B
330
ACC4
100
AcDbEntity
  8
1
  6
Continuous
100
AcDbCircle
 10
15.72262199999999
 20
47.05116599999999
 30
0.0
 40
0.8
100
AcDbArc
 50
180.0
 51
270.0
  0
LINE
  5
AD7C
330
ACC4
100
AcDbEntity
  8
1
  6
Continuous
100
AcDbLine
 10
13.322622
 20
66.65116600000001
 30
0.0
 11
14.922622
 21
66.65116600000001
 31
0.0
  0
LINE
  5
AD7D
330
ACC4
100
AcDbEntity
  8
1
  6
Continuous
100
AcDbLine
 10
94.62262200000001
 20
264.680358
 30
0.0
 11
15.72262199999999
 21
264.680358
 31
0.0
  0
LINE
  5
AD7E
330
ACC4
100
AcDbEntity
  8
1
  6
Continuous
100
AcDbLine
 10
91.07262199999999
 20
266.2803579999999
 30
0.0
 11
19.27262199999999
 21
266.2803579999999
 31
0.0
  0
LINE
  5
AD7F
330
ACC4
100
AcDbEntity
  8
1
  6
Continuous
100
AcDbLine
 10
94.62262200000001
 20
263.0803579999998
 30
0.0
 11
15.72262199999999
 21
263.0803579999998
 31
0.0
  0
LINE
  5
AD80
330
ACC4
100
AcDbEntity
  8
1
  6
Continuous
100
AcDbLine
 10
13.322622
 20
262.2803579999999
 30
0.0
 11
13.322622
 21
242.680358
 31
0.0
  0
LINE
  5
AD81
330
ACC4
100
AcDbEntity
  8
1
  6
Continuous
100
AcDbLine
 10
14.922622
 20
262.2803579999999
 30
0.0
 11
14.922622
 21
242.680358
 31
0.0
  0
LINE
  5
AD82
330
ACC4
100
AcDbEntity
  8
1
  6
Continuous
100
AcDbLine
 10
14.922622
 20
242.680358
 30
0.0
 11
13.322622
 21
242.680358
 31
0.0
  0
LINE
  5
AD83
330
ACC4
100
AcDbEntity
  8
1
  6
Continuous
100
AcDbLine
 10
13.322622
 20
242.680358
 30
0.0
 11
14.922622
 21
242.680358
 31
0.0
  0
ARC
  5
AD84
330
ACC4
100
AcDbEntity
  8
1
  6
Continuous
100
AcDbCircle
 10
15.72262199999999
 20
262.2803579999999
 30
0.0
 40
2.399999999999999
100
AcDbArc
 50
90.0
 51
180.0
  0
ARC
  5
AD85
330
ACC4
100
AcDbEntity
  8
1
  6
Continuous
100
AcDbCircle
 10
15.72262199999999
 20
262.2803579999999
 30
0.0
 40
0.8
100
AcDbArc
 50
90.0
 51
180.0
  0
LINE
  5
AD86
330
ACC4
100
AcDbEntity
  8
4
  6
CENTER
100
AcDbLine
 10
55.172622
 20
237.680358
 30
0.0
 11
55.172622
 21
271.2803579999999
 31
0.0
  0
LINE
  5
AD87
330
ACC4
100
AcDbEntity
  8
1
  6
Continuous
100
AcDbLine
 10
97.02262199999999
 20
262.2803579999999
 30
0.0
 11
97.02262199999999
 21
242.680358
 31
0.0
  0
LINE
  5
AD88
330
ACC4
100
AcDbEntity
  8
1
  6
Continuous
100
AcDbLine
 10
95.42262200000001
 20
262.2803579999999
 30
0.0
 11
95.42262200000001
 21
242.680358
 31
0.0
  0
LINE
  5
AD89
330
ACC4
100
AcDbEntity
  8
1
  6
Continuous
100
AcDbLine
 10
97.02262199999999
 20
242.680358
 30
0.0
 11
95.42262200000001
 21
242.680358
 31
0.0
  0
ARC
  5
AD8A
330
ACC4
100
AcDbEntity
  8
1
  6
Continuous
100
AcDbCircle
 10
94.62262200000001
 20
262.2803579999999
 30
0.0
 40
2.399999999999999
100
AcDbArc
 50
0.0
 51
90.0
  0
ARC
  5
AD8B
330
ACC4
100
AcDbEntity
  8
1
  6
Continuous
100
AcDbCircle
 10
94.62262200000001
 20
262.2803579999999
 30
0.0
 40
0.8
100
AcDbArc
 50
0.0
 51
90.0
  0
LINE
  5
AD8C
330
ACC4
100
AcDbEntity
  8
1
  6
Continuous
100
AcDbLine
 10
210.441143
 20
188.6901139999999
 30
0.0
 11
188.4411429999999
 21
188.6901139999999
 31
0.0
  0
LINE
  5
AD8D
330
ACC4
100
AcDbEntity
  8
1
  6
Continuous
100
AcDbLine
 10
210.441143
 20
130.6901139999999
 30
0.0
 11
188.4411429999999
 21
130.6901139999999
 31
0.0
  0
LINE
  5
AD8E
330
ACC4
100
AcDbEntity
  8
1
  6
Continuous
100
AcDbLine
 10
210.441143
 20
188.6901139999999
 30
0.0
 11
210.441143
 21
130.6901139999999
 31
0.0
  0
LINE
  5
AD8F
330
ACC4
100
AcDbEntity
  8
1
  6
Continuous
100
AcDbLine
 10
188.4411429999999
 20
188.6901139999999
 30
0.0
 11
188.4411429999999
 21
130.6901139999999
 31
0.0
  0
ARC
  5
AD90
330
ACC4
100
AcDbEntity
  8
1
  6
Continuous
100
AcDbCircle
 10
209.2880179999999
 20
172.690114
 30
0.0
 40
2.753124999999998
100
AcDbArc
 50
294.7615139999999
 51
65.23848599999999
  0
ARC
  5
AD91
330
ACC4
100
AcDbEntity
  8
1
  6
Continuous
100
AcDbCircle
 10
209.2880179999999
 20
146.690114
 30
0.0
 40
2.753124999999998
100
AcDbArc
 50
294.7615139999999
 51
65.23848599999999
  0
LINE
  5
AD92
330
ACC4
100
AcDbEntity
  8
3
  6
DASHED
100
AcDbLine
 10
208.8411429999999
 20
188.6901139999999
 30
0.0
 11
208.8411429999999
 21
130.6901139999999
 31
0.0
  0
LINE
  5
AD93
330
ACC4
100
AcDbEntity
  8
1
  6
Continuous
100
AcDbLine
 10
95.42262200000001
 20
125.6901139999998
 30
0.0
 11
95.42262200000001
 21
183.6901139999999
 31
0.0
  0
LINE
  5
AD94
330
ACC4
100
AcDbEntity
  8
1
  6
Continuous
100
AcDbLine
 10
14.922622
 20
125.6901139999998
 30
0.0
 11
14.922622
 21
183.6901139999999
 31
0.0
  0
LINE
  5
AD95
330
ACC4
100
AcDbEntity
  8
1
  6
Continuous
100
AcDbLine
 10
97.02262199999999
 20
125.6901139999998
 30
0.0
 11
97.02262199999999
 21
183.6901139999999
 31
0.0
  0
LINE
  5
AD96
330
ACC4
100
AcDbEntity
  8
1
  6
Continuous
100
AcDbLine
 10
13.322622
 20
125.6901139999998
 30
0.0
 11
13.322622
 21
183.6901139999999
 31
0.0
  0
LINE
  5
AD97
330
ACC4
100
AcDbEntity
  8
1
  6
Continuous
100
AcDbLine
 10
13.322622
 20
125.6901139999998
 30
0.0
 11
15.172622
 21
125.6901139999998
 31
0.0
  0
LINE
  5
AD98
330
ACC4
100
AcDbEntity
  8
1
  6
Continuous
100
AcDbLine
 10
13.322622
 20
183.6901139999999
 30
0.0
 11
15.172622
 21
183.6901139999999
 31
0.0
  0
LINE
  5
AD99
330
ACC4
100
AcDbEntity
  8
1
  6
Continuous
100
AcDbLine
 10
303.379137
 20
155.6901139999999
 30
0.0
 11
304.9453869999999
 21
155.6901139999999
 31
0.0
  0
LINE
  5
AD9A
330
ACC4
100
AcDbEntity
  8
1
  6
Continuous
100
AcDbLine
 10
308.770699
 20
155.6901139999999
 30
0.0
 11
309.553824
 21
155.6901139999999
 31
0.0
  0
LINE
  5
AD9B
330
ACC4
100
AcDbEntity
  8
1
  6
Continuous
100
AcDbLine
 10
321.270699
 20
155.6901139999999
 30
0.0
 11
322.053824
 21
155.6901139999999
 31
0.0
  0
LINE
  5
AD9C
330
ACC4
100
AcDbEntity
  8
1
  6
Continuous
100
AcDbLine
 10
305.992887
 20
155.1966769999999
 30
0.0
 11
307.3097619999999
 21
155.1966769999999
 31
0.0
  0
LINE
  5
AD9D
330
ACC4
100
AcDbEntity
  8
1
  6
Continuous
100
AcDbLine
 10
306.6622619999999
 20
156.942302
 30
0.0
 11
307.587041
 21
154.442302
 31
0.0
  0
LINE
  5
AD9E
330
ACC4
100
AcDbEntity
  8
1
  6
Continuous
100
AcDbLine
 10
304.9453869999999
 20
156.9588639999998
 30
0.0
 11
304.9453869999999
 21
154.4588639999998
 31
0.0
  0
LINE
  5
AD9F
330
ACC4
100
AcDbEntity
  8
1
  6
Continuous
100
AcDbLine
 10
306.6622619999999
 20
156.9379269999998
 30
0.0
 11
305.693216
 21
154.442302
 31
0.0
  0
ARC
  5
ADA0
330
ACC4
100
AcDbEntity
  8
1
  6
Continuous
100
AcDbCircle
 10
293.1344509999998
 20
155.55067
 30
0.0
 40
5.861699999999999
100
AcDbArc
 50
102.7288999999999
 51
103.2680999999999
  0
ARC
  5
ADA1
330
ACC4
100
AcDbEntity
  8
1
  6
Continuous
100
AcDbCircle
 10
293.1344509999998
 20
155.55067
 30
0.0
 40
5.861699999999999
100
AcDbArc
 50
103.2680999999999
 51
105.2575
  0
ARC
  5
ADA2
330
ACC4
100
AcDbEntity
  8
1
  6
Continuous
100
AcDbCircle
 10
291.6574509999999
 20
160.96767
 30
0.0
 40
0.24635
100
AcDbArc
 50
105.2575
 51
180.0
  0
LINE
  5
ADA3
330
ACC4
100
AcDbEntity
  8
1
  6
Continuous
100
AcDbLine
 10
291.9034509999999
 20
158.1566699999999
 30
0.0
 11
291.9034509999999
 21
159.0976699999998
 31
0.0
  0
ARC
  5
ADA4
330
ACC4
100
AcDbEntity
  8
1
  6
Continuous
100
AcDbCircle
 10
291.6574509999999
 20
158.40867
 30
0.0
 40
0.24635
100
AcDbArc
 50
180.0
 51
254.742
  0
ARC
  5
ADA5
330
ACC4
100
AcDbEntity
  8
1
  6
Continuous
100
AcDbCircle
 10
293.1344509999998
 20
163.82567
 30
0.0
 40
5.861699999999999
100
AcDbArc
 50
254.742
 51
254.794
  0
ARC
  5
ADA6
330
ACC4
100
AcDbEntity
  8
1
  6
Continuous
100
AcDbCircle
 10
293.1344509999998
 20
163.82567
 30
0.0
 40
5.861699999999999
100
AcDbArc
 50
254.794
 51
257.2709999999998
  0
ARC
  5
ADA7
330
ACC4
100
AcDbEntity
  8
1
  6
Continuous
100
AcDbCircle
 10
290.1794509999998
 20
159.6886699999998
 30
0.0
 40
1.269449999999998
100
AcDbArc
 50
180.0
 51
234.4619999999999
  0
ARC
  5
ADA8
330
ACC4
100
AcDbEntity
  8
1
  6
Continuous
100
AcDbCircle
 10
290.671451
 20
158.7796699999999
 30
0.0
 40
0.24635
100
AcDbArc
 50
180.0
 51
243.9859999999999
  0
ARC
  5
ADA9
330
ACC4
100
AcDbEntity
  8
1
  6
Continuous
100
AcDbCircle
 10
290.868451
 20
158.47367
 30
0.0
 40
0.04927
100
AcDbArc
 50
247.0559999999999
 51
0.0
  0
ARC
  5
ADAA
330
ACC4
100
AcDbEntity
  8
1
  6
Continuous
100
AcDbCircle
 10
293.1344509999998
 20
163.82567
 30
0.0
 40
5.861699999999999
100
AcDbArc
 50
243.9859999999999
 51
247.0559999999999
  0
ARC
  5
ADAB
330
ACC4
100
AcDbEntity
  8
1
  6
Continuous
100
AcDbCircle
 10
293.1344509999998
 20
163.82567
 30
0.0
 40
5.861699999999999
100
AcDbArc
 50
243.9859999999999
 51
244.772
  0
LINE
  5
ADAC
330
ACC4
100
AcDbEntity
  8
1
  6
Continuous
100
AcDbLine
 10
290.4254509999999
 20
158.7796699999999
 30
0.0
 11
290.4254509999999
 21
160.5966699999999
 31
0.0
  0
ARC
  5
ADAD
330
ACC4
100
AcDbEntity
  8
1
  6
Continuous
100
AcDbCircle
 10
290.1794509999998
 20
159.6886699999998
 30
0.0
 40
1.269449999999998
100
AcDbArc
 50
125.5376999999999
 51
166.5373999999999
  0
LINE
  5
ADAE
330
ACC4
100
AcDbEntity
  8
1
  6
Continuous
100
AcDbLine
 10
290.918451
 20
160.90367
 30
0.0
 11
290.918451
 21
158.47367
 31
0.0
  0
ARC
  5
ADAF
330
ACC4
100
AcDbEntity
  8
1
  6
Continuous
100
AcDbCircle
 10
290.671451
 20
160.5966699999999
 30
0.0
 40
0.24635
100
AcDbArc
 50
116.0144
 51
180.0
  0
ARC
  5
ADB0
330
ACC4
100
AcDbEntity
  8
1
  6
Continuous
100
AcDbCircle
 10
290.868451
 20
160.90367
 30
0.0
 40
0.04927
100
AcDbArc
 50
0.0
 51
112.9439999999999
  0
LINE
  5
ADB1
330
ACC4
100
AcDbEntity
  8
1
  6
Continuous
100
AcDbLine
 10
291.4104509999999
 20
160.96767
 30
0.0
 11
291.4104509999999
 21
158.40867
 31
0.0
  0
ARC
  5
ADB2
330
ACC4
100
AcDbEntity
  8
1
  6
Continuous
100
AcDbCircle
 10
293.1344509999998
 20
155.55067
 30
0.0
 40
5.861699999999999
100
AcDbArc
 50
112.9439999999999
 51
116.0144
  0
LINE
  5
ADB3
330
ACC4
100
AcDbEntity
  8
1
  6
Continuous
100
AcDbLine
 10
289.9324509999999
 20
161.03967
 30
0.0
 11
289.9324509999999
 21
158.91567
 31
0.0
  0
LINE
  5
ADB4
330
ACC4
100
AcDbEntity
  8
1
  6
Continuous
100
AcDbLine
 10
291.9034509999999
 20
160.2796699999998
 30
0.0
 11
291.9034509999999
 21
161.21967
 31
0.0
  0
ARC
  5
ADB5
330
ACC4
100
AcDbEntity
  8
1
  6
Continuous
100
AcDbCircle
 10
294.1194509999998
 20
161.07867
 30
0.0
 40
0.24635
100
AcDbArc
 50
0.0
 51
79.896
  0
ARC
  5
ADB6
330
ACC4
100
AcDbEntity
  8
1
  6
Continuous
100
AcDbCircle
 10
293.1344509999998
 20
155.55067
 30
0.0
 40
5.861699999999999
100
AcDbArc
 50
79.896
 51
82.20699999999999
  0
ARC
  5
ADB7
330
ACC4
100
AcDbEntity
  8
1
  6
Continuous
100
AcDbCircle
 10
293.9224509999998
 20
161.3096699999998
 30
0.0
 40
0.04927
100
AcDbArc
 50
82.20699999999999
 51
180.0
  0
LINE
  5
ADB8
330
ACC4
100
AcDbEntity
  8
1
  6
Continuous
100
AcDbLine
 10
300.6822619999999
 20
156.940114
 30
0.0
 11
302.6510119999999
 21
156.940114
 31
0.0
  0
LINE
  5
ADB9
330
ACC4
100
AcDbEntity
  8
1
  6
Continuous
100
AcDbLine
 10
294.3664509999999
 20
158.2976699999998
 30
0.0
 11
294.3664509999999
 21
159.6886699999998
 31
0.0
  0
ARC
  5
ADBA
330
ACC4
100
AcDbEntity
  8
1
  6
Continuous
100
AcDbCircle
 10
294.1194509999998
 20
158.2976699999998
 30
0.0
 40
0.24635
100
AcDbArc
 50
280.104
 51
0.0
  0
ARC
  5
ADBB
330
ACC4
100
AcDbEntity
  8
1
  6
Continuous
100
AcDbCircle
 10
293.9224509999998
 20
158.0666699999999
 30
0.0
 40
0.04927
100
AcDbArc
 50
180.0
 51
277.793
  0
ARC
  5
ADBC
330
ACC4
100
AcDbEntity
  8
1
  6
Continuous
100
AcDbCircle
 10
293.1344509999998
 20
163.82567
 30
0.0
 40
5.861699999999999
100
AcDbArc
 50
277.793
 51
280.104
  0
LINE
  5
ADBD
330
ACC4
100
AcDbEntity
  8
1
  6
Continuous
100
AcDbLine
 10
295.5974509999999
 20
159.6886699999998
 30
0.0
 11
295.5974509999999
 21
158.5066699999998
 31
0.0
  0
ARC
  5
ADBE
330
ACC4
100
AcDbEntity
  8
1
  6
Continuous
100
AcDbCircle
 10
296.0904509999998
 20
159.6886699999998
 30
0.0
 40
1.269449999999998
100
AcDbArc
 50
305.5379999999999
 51
315.699
  0
LINE
  5
ADBF
330
ACC4
100
AcDbEntity
  8
1
  6
Continuous
100
AcDbLine
 10
292.8884509999999
 20
159.6886699999998
 30
0.0
 11
292.3954509999999
 21
159.6886699999998
 31
0.0
  0
LINE
  5
ADC0
330
ACC4
100
AcDbEntity
  8
1
  6
Continuous
100
AcDbLine
 10
294.3664509999999
 20
159.6886699999998
 30
0.0
 11
294.1194509999998
 21
159.6886699999998
 31
0.0
  0
LINE
  5
ADC1
330
ACC4
100
AcDbEntity
  8
1
  6
Continuous
100
AcDbLine
 10
297.3594509999998
 20
159.6886699999998
 30
0.0
 11
296.3414509999998
 21
159.6886699999998
 31
0.0
  0
ARC
  5
ADC2
330
ACC4
100
AcDbEntity
  8
1
  6
Continuous
100
AcDbCircle
 10
295.5974509999999
 20
159.9346699999999
 30
0.0
 40
0.24635
100
AcDbArc
 50
180.0
 51
0.0
  0
ARC
  5
ADC3
330
ACC4
100
AcDbEntity
  8
1
  6
Continuous
100
AcDbCircle
 10
296.0904509999998
 20
159.6886699999998
 30
0.0
 40
1.269449999999998
100
AcDbArc
 50
332.25
 51
54.46200000000001
  0
LINE
  5
ADC4
330
ACC4
100
AcDbEntity
  8
1
  6
Continuous
100
AcDbLine
 10
296.094451
 20
158.7666699999998
 30
0.0
 11
296.6514509999999
 21
160.84267
 31
0.0
  0
LINE
  5
ADC5
330
ACC4
100
AcDbEntity
  8
1
  6
Continuous
100
AcDbLine
 10
292.3954509999999
 20
161.3656699999999
 30
0.0
 11
292.3954509999999
 21
158.0106699999998
 31
0.0
  0
LINE
  5
ADC6
330
ACC4
100
AcDbEntity
  8
1
  6
Continuous
100
AcDbLine
 10
292.8884509999999
 20
161.4066699999999
 30
0.0
 11
292.8884509999999
 21
157.96967
 31
0.0
  0
LINE
  5
ADC7
330
ACC4
100
AcDbEntity
  8
1
  6
Continuous
100
AcDbLine
 10
293.3814509999999
 20
161.4066699999999
 30
0.0
 11
293.3814509999999
 21
157.96967
 31
0.0
  0
LINE
  5
ADC8
330
ACC4
100
AcDbEntity
  8
1
  6
Continuous
100
AcDbLine
 10
293.8734509999998
 20
161.3096699999998
 30
0.0
 11
293.8734509999998
 21
158.0666699999999
 31
0.0
  0
LINE
  5
ADC9
330
ACC4
100
AcDbEntity
  8
1
  6
Continuous
100
AcDbLine
 10
294.8584509999998
 20
161.30767
 30
0.0
 11
294.8584509999998
 21
158.2236699999999
 31
0.0
  0
LINE
  5
ADCA
330
ACC4
100
AcDbEntity
  8
1
  6
Continuous
100
AcDbLine
 10
294.3664509999999
 20
160.2796699999998
 30
0.0
 11
294.3664509999999
 21
161.07867
 31
0.0
  0
LINE
  5
ADCB
330
ACC4
100
AcDbEntity
  8
1
  6
Continuous
100
AcDbLine
 10
295.351451
 20
161.07567
 30
0.0
 11
295.351451
 21
159.9346699999999
 31
0.0
  0
LINE
  5
ADCC
330
ACC4
100
AcDbEntity
  8
1
  6
Continuous
100
AcDbLine
 10
295.8434509999999
 20
159.9346699999999
 30
0.0
 11
295.8434509999999
 21
160.9866699999998
 31
0.0
  0
LINE
  5
ADCD
330
ACC4
100
AcDbEntity
  8
1
  6
Continuous
100
AcDbLine
 10
301.662262
 20
156.940114
 30
0.0
 11
301.662262
 21
154.4401139999999
 31
0.0
  0
LINE
  5
ADCE
330
ACC4
100
AcDbEntity
  8
1
  6
Continuous
100
AcDbLine
 10
303.379137
 20
156.9588639999998
 30
0.0
 11
303.379137
 21
154.4588639999998
 31
0.0
  0
ARC
  5
ADCF
330
ACC4
100
AcDbEntity
  8
1
  6
Continuous
100
AcDbCircle
 10
293.1344509999998
 20
163.82567
 30
0.0
 40
6.354269999999998
100
AcDbArc
 50
234.4619999999999
 51
305.5379999999999
  0
ARC
  5
ADD0
330
ACC4
100
AcDbEntity
  8
1
  6
Continuous
100
AcDbCircle
 10
291.8534509999998
 20
158.1566699999999
 30
0.0
 40
0.04927
100
AcDbArc
 50
257.2709999999998
 51
0.0
  0
ARC
  5
ADD1
330
ACC4
100
AcDbEntity
  8
1
  6
Continuous
100
AcDbCircle
 10
291.8534509999998
 20
161.21967
 30
0.0
 40
0.04927
100
AcDbArc
 50
0.0
 51
102.7288999999999
  0
ARC
  5
ADD2
330
ACC4
100
AcDbEntity
  8
1
  6
Continuous
100
AcDbCircle
 10
293.1344509999998
 20
155.55067
 30
0.0
 40
6.354269999999998
100
AcDbArc
 50
54.46200000000001
 51
125.5376999999999
  0
LINE
  5
ADD3
330
ACC4
100
AcDbEntity
  8
4
  6
CENTER
100
AcDbLine
 10
90.17262200000001
 20
269.2803579999999
 30
0.0
 11
90.17262200000001
 21
260.080358
 31
0.0
  0
LINE
  5
ADD4
330
ACC4
100
AcDbEntity
  8
4
  6
CENTER
100
AcDbLine
 10
20.172622
 20
269.2803579999999
 30
0.0
 11
20.172622
 21
260.080358
 31
0.0
  0
LINE
  5
ADD5
330
ACC4
100
AcDbEntity
  8
4
  6
CENTER
100
AcDbLine
 10
213.441143
 20
182.690114
 30
0.0
 11
205.841143
 21
182.690114
 31
0.0
  0
LINE
  5
ADD6
330
ACC4
100
AcDbEntity
  8
4
  6
CENTER
100
AcDbLine
 10
213.441143
 20
136.6901139999999
 30
0.0
 11
205.841143
 21
136.6901139999999
 31
0.0
  0
LINE
  5
ADD7
330
ACC4
100
AcDbEntity
  8
4
  6
CENTER
100
AcDbLine
 10
90.17262200000001
 20
49.25116599999999
 30
0.0
 11
90.17262200000001
 21
40.051166
 31
0.0
  0
LINE
  5
ADD8
330
ACC4
100
AcDbEntity
  8
4
  6
CENTER
100
AcDbLine
 10
20.172622
 20
49.25116599999999
 30
0.0
 11
20.172622
 21
40.051166
 31
0.0
  0
LINE
  5
ADD9
330
ACC4
100
AcDbEntity
  8
1
  6
Continuous
100
AcDbLine
 10
317.814363
 20
159.1828679999998
 30
0.0
 11
319.177588
 21
159.1828679999998
 31
0.0
  0
LINE
  5
ADDA
330
ACC4
100
AcDbEntity
  8
1
  6
Continuous
100
AcDbLine
 10
318.507298
 20
160.989933
 30
0.0
 11
319.4538559999998
 21
158.431056
 31
0.0
  0
LINE
  5
ADDB
330
ACC4
100
AcDbEntity
  8
1
  6
Continuous
100
AcDbLine
 10
308.27632
 20
159.7354039999999
 30
0.0
 11
309.8976969999998
 21
159.7354039999999
 31
0.0
  0
LINE
  5
ADDC
330
ACC4
100
AcDbEntity
  8
1
  6
Continuous
100
AcDbLine
 10
301.392262
 20
160.9401139999999
 30
0.0
 11
301.392262
 21
158.4401139999999
 31
0.0
  0
LINE
  5
ADDD
330
ACC4
100
AcDbEntity
  8
1
  6
Continuous
100
AcDbLine
 10
300.377769
 20
160.9401139999999
 30
0.0
 11
302.4158129999999
 21
160.9401139999999
 31
0.0
  0
LINE
  5
ADDE
330
ACC4
100
AcDbEntity
  8
1
  6
Continuous
100
AcDbLine
 10
308.27632
 20
161.0488099999998
 30
0.0
 11
308.27632
 21
158.421998
 31
0.0
  0
LINE
  5
ADDF
330
ACC4
100
AcDbEntity
  8
1
  6
Continuous
100
AcDbLine
 10
312.823421
 20
159.6085929999999
 30
0.0
 11
313.702044
 21
159.6085929999999
 31
0.0
  0
LINE
  5
ADE0
330
ACC4
100
AcDbEntity
  8
1
  6
Continuous
100
AcDbLine
 10
309.8976969999998
 20
161.0488099999998
 30
0.0
 11
309.8976969999998
 21
158.421998
 31
0.0
  0
LINE
  5
ADE1
330
ACC4
100
AcDbEntity
  8
1
  6
Continuous
100
AcDbLine
 10
310.7763199999999
 20
161.0488099999998
 30
0.0
 11
310.7763199999999
 21
158.421998
 31
0.0
  0
LINE
  5
ADE2
330
ACC4
100
AcDbEntity
  8
1
  6
Continuous
100
AcDbLine
 10
318.507298
 20
160.9854039999999
 30
0.0
 11
317.51545
 21
158.431056
 31
0.0
  0
LINE
  5
ADE3
330
ACC4
100
AcDbEntity
  8
1
  6
Continuous
100
AcDbLine
 10
316.1748709999999
 20
159.599535
 30
0.0
 11
316.1748709999999
 21
158.421998
 31
0.0
  0
LINE
  5
ADE4
330
ACC4
100
AcDbEntity
  8
1
  6
Continuous
100
AcDbLine
 10
313.702044
 20
159.6085929999999
 30
0.0
 11
313.702044
 21
158.4401139999999
 31
0.0
  0
LINE
  5
ADE5
330
ACC4
100
AcDbEntity
  8
1
  6
Continuous
100
AcDbLine
 10
314.4266819999999
 20
161.0488099999998
 30
0.0
 11
314.4266819999999
 21
158.421998
 31
0.0
  0
LINE
  5
ADE6
330
ACC4
100
AcDbEntity
  8
1
  6
Continuous
100
AcDbLine
 10
316.1748709999999
 20
159.599535
 30
0.0
 11
317.0231499999998
 21
161.0687829999999
 31
0.0
  0
LINE
  5
ADE7
330
ACC4
100
AcDbEntity
  8
1
  6
Continuous
100
AcDbLine
 10
316.1748709999999
 20
159.604064
 30
0.0
 11
315.3327959999999
 21
161.0671069999999
 31
0.0
  0
LINE
  5
ADE8
330
ACC4
100
AcDbEntity
  8
1
  6
Continuous
100
AcDbLine
 10
319.9955949999999
 20
155.082596
 30
0.0
 11
319.9829139999998
 21
154.9787919999999
 31
0.0
  0
LINE
  5
ADE9
330
ACC4
100
AcDbEntity
  8
1
  6
Continuous
100
AcDbLine
 10
319.9829139999998
 20
154.9787919999999
 30
0.0
 11
319.9453229999999
 21
154.8781119999999
 31
0.0
  0
LINE
  5
ADEA
330
ACC4
100
AcDbEntity
  8
1
  6
Continuous
100
AcDbLine
 10
319.9453229999999
 20
154.8781119999999
 30
0.0
 11
319.883956
 21
154.783683
 31
0.0
  0
LINE
  5
ADEB
330
ACC4
100
AcDbEntity
  8
1
  6
Continuous
100
AcDbLine
 10
319.883956
 20
154.783683
 30
0.0
 11
319.8006219999999
 21
154.6983119999999
 31
0.0
  0
LINE
  5
ADEC
330
ACC4
100
AcDbEntity
  8
1
  6
Continuous
100
AcDbLine
 10
319.8006219999999
 20
154.6983119999999
 30
0.0
 11
319.6979049999999
 21
154.624625
 31
0.0
  0
LINE
  5
ADED
330
ACC4
100
AcDbEntity
  8
1
  6
Continuous
100
AcDbLine
 10
319.6979049999999
 20
154.624625
 30
0.0
 11
319.578929
 21
154.5648879999999
 31
0.0
  0
LINE
  5
ADEE
330
ACC4
100
AcDbEntity
  8
1
  6
Continuous
100
AcDbLine
 10
319.578929
 20
154.5648879999999
 30
0.0
 11
319.4472709999998
 21
154.520821
 31
0.0
  0
LINE
  5
ADEF
330
ACC4
100
AcDbEntity
  8
1
  6
Continuous
100
AcDbLine
 10
319.4472709999998
 20
154.520821
 30
0.0
 11
319.306963
 21
154.493873
 31
0.0
  0
LINE
  5
ADF0
330
ACC4
100
AcDbEntity
  8
1
  6
Continuous
100
AcDbLine
 10
319.306963
 20
154.493873
 30
0.0
 11
319.1622619999999
 21
154.48477
 31
0.0
  0
LINE
  5
ADF1
330
ACC4
100
AcDbEntity
  8
1
  6
Continuous
100
AcDbLine
 10
319.9865369999999
 20
156.2976319999999
 30
0.0
 11
319.973856
 21
156.4014369999999
 31
0.0
  0
LINE
  5
ADF2
330
ACC4
100
AcDbEntity
  8
1
  6
Continuous
100
AcDbLine
 10
319.973856
 20
156.4014369999999
 30
0.0
 11
319.9362649999998
 21
156.502116
 31
0.0
  0
LINE
  5
ADF3
330
ACC4
100
AcDbEntity
  8
1
  6
Continuous
100
AcDbLine
 10
319.9362649999998
 20
156.502116
 30
0.0
 11
319.8748979999999
 21
156.596545
 31
0.0
  0
LINE
  5
ADF4
330
ACC4
100
AcDbEntity
  8
1
  6
Continuous
100
AcDbLine
 10
319.8748979999999
 20
156.596545
 30
0.0
 11
319.791564
 21
156.681917
 31
0.0
  0
LINE
  5
ADF5
330
ACC4
100
AcDbEntity
  8
1
  6
Continuous
100
AcDbLine
 10
319.791564
 20
156.681917
 30
0.0
 11
319.688847
 21
156.755603
 31
0.0
  0
LINE
  5
ADF6
330
ACC4
100
AcDbEntity
  8
1
  6
Continuous
100
AcDbLine
 10
319.688847
 20
156.755603
 30
0.0
 11
319.5698709999998
 21
156.8153409999998
 31
0.0
  0
LINE
  5
ADF7
330
ACC4
100
AcDbEntity
  8
1
  6
Continuous
100
AcDbLine
 10
319.5698709999998
 20
156.8153409999998
 30
0.0
 11
319.4382129999999
 21
156.859408
 31
0.0
  0
LINE
  5
ADF8
330
ACC4
100
AcDbEntity
  8
1
  6
Continuous
100
AcDbLine
 10
319.4382129999999
 20
156.859408
 30
0.0
 11
319.2979049999999
 21
156.886355
 31
0.0
  0
LINE
  5
ADF9
330
ACC4
100
AcDbEntity
  8
1
  6
Continuous
100
AcDbLine
 10
319.2979049999999
 20
156.886355
 30
0.0
 11
319.153204
 21
156.8954589999999
 31
0.0
  0
LINE
  5
ADFA
330
ACC4
100
AcDbEntity
  8
1
  6
Continuous
100
AcDbLine
 10
311.662262
 20
156.940114
 30
0.0
 11
311.662262
 21
154.4401139999999
 31
0.0
  0
LINE
  5
ADFB
330
ACC4
100
AcDbEntity
  8
1
  6
Continuous
100
AcDbLine
 10
311.662262
 20
156.940114
 30
0.0
 11
311.3863999999999
 21
156.672873
 31
0.0
  0
LINE
  5
ADFC
330
ACC4
100
AcDbEntity
  8
1
  6
Continuous
100
AcDbLine
 10
314.778608
 20
156.248403
 30
0.0
 11
314.778608
 21
155.0431429999999
 31
0.0
  0
ARC
  5
ADFD
330
ACC4
100
AcDbEntity
  8
1
  6
Continuous
100
AcDbCircle
 10
314.1036619999998
 20
155.062427
 30
0.0
 40
0.6363770000000001
100
AcDbArc
 50
180.0
 51
270.0
  0
LINE
  5
ADFE
330
ACC4
100
AcDbEntity
  8
1
  6
Continuous
100
AcDbLine
 10
316.05384
 20
156.940114
 30
0.0
 11
316.05384
 21
155.599645
 31
0.0
  0
LINE
  5
ADFF
330
ACC4
100
AcDbEntity
  8
1
  6
Continuous
100
AcDbLine
 10
316.044056
 20
156.940114
 30
0.0
 11
317.345388
 21
156.940114
 31
0.0
  0
LINE
  5
AE00
330
ACC4
100
AcDbEntity
  8
1
  6
Continuous
100
AcDbLine
 10
319.1622619999999
 20
154.48477
 30
0.0
 11
318.9955499999999
 21
154.5030669999999
 31
0.0
  0
LINE
  5
AE01
330
ACC4
100
AcDbEntity
  8
1
  6
Continuous
100
AcDbLine
 10
318.9955499999999
 20
154.5030669999999
 30
0.0
 11
318.8338649999999
 21
154.557415
 31
0.0
  0
LINE
  5
AE02
330
ACC4
100
AcDbEntity
  8
1
  6
Continuous
100
AcDbLine
 10
318.8338649999999
 20
154.557415
 30
0.0
 11
318.682189
 21
154.646183
 31
0.0
  0
LINE
  5
AE03
330
ACC4
100
AcDbEntity
  8
1
  6
Continuous
100
AcDbLine
 10
318.682189
 20
154.646183
 30
0.0
 11
318.545097
 21
154.7666089999999
 31
0.0
  0
LINE
  5
AE04
330
ACC4
100
AcDbEntity
  8
1
  6
Continuous
100
AcDbLine
 10
318.545097
 20
154.7666089999999
 30
0.0
 11
318.4267549999999
 21
154.9150689999999
 31
0.0
  0
LINE
  5
AE05
330
ACC4
100
AcDbEntity
  8
1
  6
Continuous
100
AcDbLine
 10
318.4267549999999
 20
154.9150689999999
 30
0.0
 11
318.3307399999999
 21
155.0871249999999
 31
0.0
  0
LINE
  5
AE06
330
ACC4
100
AcDbEntity
  8
1
  6
Continuous
100
AcDbLine
 10
318.3307399999999
 20
155.0871249999999
 30
0.0
 11
318.2600429999999
 21
155.277433
 31
0.0
  0
LINE
  5
AE07
330
ACC4
100
AcDbEntity
  8
1
  6
Continuous
100
AcDbLine
 10
318.2600429999999
 20
155.277433
 30
0.0
 11
318.2167
 21
155.480286
 31
0.0
  0
LINE
  5
AE08
330
ACC4
100
AcDbEntity
  8
1
  6
Continuous
100
AcDbLine
 10
318.2167
 20
155.480286
 30
0.0
 11
318.202117
 21
155.68948
 31
0.0
  0
LINE
  5
AE09
330
ACC4
100
AcDbEntity
  8
1
  6
Continuous
100
AcDbLine
 10
319.1622619999999
 20
156.8954589999999
 30
0.0
 11
318.9955499999999
 21
156.8771609999998
 31
0.0
  0
LINE
  5
AE0A
330
ACC4
100
AcDbEntity
  8
1
  6
Continuous
100
AcDbLine
 10
318.9955499999999
 20
156.8771609999998
 30
0.0
 11
318.8338649999999
 21
156.8228139999999
 31
0.0
  0
LINE
  5
AE0B
330
ACC4
100
AcDbEntity
  8
1
  6
Continuous
100
AcDbLine
 10
318.8338649999999
 20
156.8228139999999
 30
0.0
 11
318.682189
 21
156.734045
 31
0.0
  0
LINE
  5
AE0C
330
ACC4
100
AcDbEntity
  8
1
  6
Continuous
100
AcDbLine
 10
318.682189
 20
156.734045
 30
0.0
 11
318.545097
 21
156.61362
 31
0.0
  0
LINE
  5
AE0D
330
ACC4
100
AcDbEntity
  8
1
  6
Continuous
100
AcDbLine
 10
318.545097
 20
156.61362
 30
0.0
 11
318.4267549999999
 21
156.4651599999999
 31
0.0
  0
LINE
  5
AE0E
330
ACC4
100
AcDbEntity
  8
1
  6
Continuous
100
AcDbLine
 10
318.4267549999999
 20
156.4651599999999
 30
0.0
 11
318.3307399999999
 21
156.293103
 31
0.0
  0
LINE
  5
AE0F
330
ACC4
100
AcDbEntity
  8
1
  6
Continuous
100
AcDbLine
 10
318.3307399999999
 20
156.293103
 30
0.0
 11
318.2600429999999
 21
156.1027949999999
 31
0.0
  0
LINE
  5
AE10
330
ACC4
100
AcDbEntity
  8
1
  6
Continuous
100
AcDbLine
 10
318.2600429999999
 20
156.1027949999999
 30
0.0
 11
318.2167
 21
155.8999419999999
 31
0.0
  0
LINE
  5
AE11
330
ACC4
100
AcDbEntity
  8
1
  6
Continuous
100
AcDbLine
 10
318.2167
 20
155.8999419999999
 30
0.0
 11
318.202117
 21
155.6907479999999
 31
0.0
  0
LINE
  5
AE12
330
ACC4
100
AcDbEntity
  8
1
  6
Continuous
100
AcDbLine
 10
324.162262
 20
156.9418409999999
 30
0.0
 11
324.162262
 21
154.4418409999998
 31
0.0
  0
LINE
  5
AE13
330
ACC4
100
AcDbEntity
  8
1
  6
Continuous
100
AcDbLine
 10
324.162262
 20
156.9418409999999
 30
0.0
 11
323.8863999999999
 21
156.6746
 31
0.0
  0
LINE
  5
AE14
330
ACC4
100
AcDbEntity
  8
1
  6
Continuous
100
AcDbLine
 10
303.892262
 20
158.5397519999999
 30
0.0
 11
303.714816
 21
158.5571429999999
 31
0.0
  0
LINE
  5
AE15
330
ACC4
100
AcDbEntity
  8
1
  6
Continuous
100
AcDbLine
 10
303.714816
 20
158.5571429999999
 30
0.0
 11
303.5424879999998
 21
158.608728
 31
0.0
  0
LINE
  5
AE16
330
ACC4
100
AcDbEntity
  8
1
  6
Continuous
100
AcDbLine
 10
303.5424879999998
 20
158.608728
 30
0.0
 11
303.3801689999999
 21
158.693103
 31
0.0
  0
LINE
  5
AE17
330
ACC4
100
AcDbEntity
  8
1
  6
Continuous
100
AcDbLine
 10
303.3801689999999
 20
158.693103
 30
0.0
 11
303.232615
 21
158.8077769999999
 31
0.0
  0
LINE
  5
AE18
330
ACC4
100
AcDbEntity
  8
1
  6
Continuous
100
AcDbLine
 10
303.232615
 20
158.8077769999999
 30
0.0
 11
303.103947
 21
158.949489
 31
0.0
  0
LINE
  5
AE19
330
ACC4
100
AcDbEntity
  8
1
  6
Continuous
100
AcDbLine
 10
303.103947
 20
158.949489
 30
0.0
 11
302.997968
 21
159.1141629999999
 31
0.0
  0
LINE
  5
AE1A
330
ACC4
100
AcDbEntity
  8
1
  6
Continuous
100
AcDbLine
 10
302.997968
 20
159.1141629999999
 30
0.0
 11
302.9176689999999
 21
159.297089
 31
0.0
  0
LINE
  5
AE1B
330
ACC4
100
AcDbEntity
  8
1
  6
Continuous
100
AcDbLine
 10
302.9176689999999
 20
159.297089
 30
0.0
 11
302.86536
 21
159.4930129999999
 31
0.0
  0
LINE
  5
AE1C
330
ACC4
100
AcDbEntity
  8
1
  6
Continuous
100
AcDbLine
 10
302.86536
 20
159.4930129999999
 30
0.0
 11
302.842534
 21
159.6962739999999
 31
0.0
  0
LINE
  5
AE1D
330
ACC4
100
AcDbEntity
  8
1
  6
Continuous
100
AcDbLine
 10
302.842534
 20
159.6962739999999
 30
0.0
 11
302.849871
 21
159.901029
 31
0.0
  0
LINE
  5
AE1E
330
ACC4
100
AcDbEntity
  8
1
  6
Continuous
100
AcDbLine
 10
302.849871
 20
159.901029
 30
0.0
 11
302.8871439999999
 21
160.101437
 31
0.0
  0
LINE
  5
AE1F
330
ACC4
100
AcDbEntity
  8
1
  6
Continuous
100
AcDbLine
 10
302.8871439999999
 20
160.101437
 30
0.0
 11
302.9533129999999
 21
160.2916989999999
 31
0.0
  0
LINE
  5
AE20
330
ACC4
100
AcDbEntity
  8
1
  6
Continuous
100
AcDbLine
 10
302.9533129999999
 20
160.2916989999999
 30
0.0
 11
303.0464289999998
 21
160.466382
 31
0.0
  0
LINE
  5
AE21
330
ACC4
100
AcDbEntity
  8
1
  6
Continuous
100
AcDbLine
 10
303.0464289999998
 20
160.466382
 30
0.0
 11
303.1638199999999
 21
160.620459
 31
0.0
  0
LINE
  5
AE22
330
ACC4
100
AcDbEntity
  8
1
  6
Continuous
100
AcDbLine
 10
303.1638199999999
 20
160.620459
 30
0.0
 11
303.3021799999999
 21
160.749535
 31
0.0
  0
LINE
  5
AE23
330
ACC4
100
AcDbEntity
  8
1
  6
Continuous
100
AcDbLine
 10
303.3021799999999
 20
160.749535
 30
0.0
 11
303.4574789999999
 21
160.8498519999999
 31
0.0
  0
LINE
  5
AE24
330
ACC4
100
AcDbEntity
  8
1
  6
Continuous
100
AcDbLine
 10
303.4574789999999
 20
160.8498519999999
 30
0.0
 11
303.6252329999999
 21
160.918511
 31
0.0
  0
LINE
  5
AE25
330
ACC4
100
AcDbEntity
  8
1
  6
Continuous
100
AcDbLine
 10
303.6252329999999
 20
160.918511
 30
0.0
 11
303.8006859999999
 21
160.953611
 31
0.0
  0
LINE
  5
AE26
330
ACC4
100
AcDbEntity
  8
1
  6
Continuous
100
AcDbLine
 10
303.8006859999999
 20
160.953611
 30
0.0
 11
303.978765
 21
160.954109
 31
0.0
  0
LINE
  5
AE27
330
ACC4
100
AcDbEntity
  8
1
  6
Continuous
100
AcDbLine
 10
303.978765
 20
160.954109
 30
0.0
 11
304.154354
 21
160.920006
 31
0.0
  0
LINE
  5
AE28
330
ACC4
100
AcDbEntity
  8
1
  6
Continuous
100
AcDbLine
 10
304.154354
 20
160.920006
 30
0.0
 11
304.322425
 21
160.852252
 31
0.0
  0
LINE
  5
AE29
330
ACC4
100
AcDbEntity
  8
1
  6
Continuous
100
AcDbLine
 10
304.322425
 20
160.852252
 30
0.0
 11
304.478131
 21
160.7527949999998
 31
0.0
  0
LINE
  5
AE2A
330
ACC4
100
AcDbEntity
  8
1
  6
Continuous
100
AcDbLine
 10
304.478131
 20
160.7527949999998
 30
0.0
 11
304.6169899999998
 21
160.624535
 31
0.0
  0
LINE
  5
AE2B
330
ACC4
100
AcDbEntity
  8
1
  6
Continuous
100
AcDbLine
 10
304.6169899999998
 20
160.624535
 30
0.0
 11
304.7350609999999
 21
160.4710929999999
 31
0.0
  0
LINE
  5
AE2C
330
ACC4
100
AcDbEntity
  8
1
  6
Continuous
100
AcDbLine
 10
304.7350609999999
 20
160.4710929999999
 30
0.0
 11
304.8289009999999
 21
160.296953
 31
0.0
  0
LINE
  5
AE2D
330
ACC4
100
AcDbEntity
  8
1
  6
Continuous
100
AcDbLine
 10
304.8289009999999
 20
160.296953
 30
0.0
 11
304.895885
 21
160.107007
 31
0.0
  0
LINE
  5
AE2E
330
ACC4
100
AcDbEntity
  8
1
  6
Continuous
100
AcDbLine
 10
304.895885
 20
160.107007
 30
0.0
 11
304.9340189999999
 21
159.9068259999999
 31
0.0
  0
LINE
  5
AE2F
330
ACC4
100
AcDbEntity
  8
1
  6
Continuous
100
AcDbLine
 10
304.9340189999999
 20
159.9068259999999
 30
0.0
 11
304.9422169999999
 21
159.7021159999999
 31
0.0
  0
LINE
  5
AE30
330
ACC4
100
AcDbEntity
  8
1
  6
Continuous
100
AcDbLine
 10
304.9422169999999
 20
159.7021159999999
 30
0.0
 11
304.9202509999998
 21
159.4987189999999
 31
0.0
  0
LINE
  5
AE31
330
ACC4
100
AcDbEntity
  8
1
  6
Continuous
100
AcDbLine
 10
304.9202509999998
 20
159.4987189999999
 30
0.0
 11
304.868756
 21
159.302524
 31
0.0
  0
LINE
  5
AE32
330
ACC4
100
AcDbEntity
  8
1
  6
Continuous
100
AcDbLine
 10
304.868756
 20
159.302524
 30
0.0
 11
304.7892269999999
 21
159.11919
 31
0.0
  0
LINE
  5
AE33
330
ACC4
100
AcDbEntity
  8
1
  6
Continuous
100
AcDbLine
 10
304.7892269999999
 20
159.11919
 30
0.0
 11
304.6839289999998
 21
158.953882
 31
0.0
  0
LINE
  5
AE34
330
ACC4
100
AcDbEntity
  8
1
  6
Continuous
100
AcDbLine
 10
304.6839289999998
 20
158.953882
 30
0.0
 11
304.5558939999999
 21
158.8114459999999
 31
0.0
  0
LINE
  5
AE35
330
ACC4
100
AcDbEntity
  8
1
  6
Continuous
100
AcDbLine
 10
304.5558939999999
 20
158.8114459999999
 30
0.0
 11
304.4087929999998
 21
158.6959569999999
 31
0.0
  0
LINE
  5
AE36
330
ACC4
100
AcDbEntity
  8
1
  6
Continuous
100
AcDbLine
 10
304.4087929999998
 20
158.6959569999999
 30
0.0
 11
304.2468359999999
 21
158.610676
 31
0.0
  0
LINE
  5
AE37
330
ACC4
100
AcDbEntity
  8
1
  6
Continuous
100
AcDbLine
 10
304.2468359999999
 20
158.610676
 30
0.0
 11
304.0747349999999
 21
158.5581399999998
 31
0.0
  0
LINE
  5
AE38
330
ACC4
100
AcDbEntity
  8
1
  6
Continuous
100
AcDbLine
 10
304.0747349999999
 20
158.5581399999998
 30
0.0
 11
303.892262
 21
158.5397519999999
 31
0.0
  0
LINE
  5
AE39
330
ACC4
100
AcDbEntity
  8
1
  6
Continuous
100
AcDbLine
 10
306.4312109999999
 20
160.9776139999999
 30
0.0
 11
306.2644989999999
 21
160.959317
 31
0.0
  0
LINE
  5
AE3A
330
ACC4
100
AcDbEntity
  8
1
  6
Continuous
100
AcDbLine
 10
306.2644989999999
 20
160.959317
 30
0.0
 11
306.102814
 21
160.9049689999999
 31
0.0
  0
LINE
  5
AE3B
330
ACC4
100
AcDbEntity
  8
1
  6
Continuous
100
AcDbLine
 10
306.102814
 20
160.9049689999999
 30
0.0
 11
305.951139
 21
160.816201
 31
0.0
  0
LINE
  5
AE3C
330
ACC4
100
AcDbEntity
  8
1
  6
Continuous
100
AcDbLine
 10
305.951139
 20
160.816201
 30
0.0
 11
305.814046
 21
160.695776
 31
0.0
  0
LINE
  5
AE3D
330
ACC4
100
AcDbEntity
  8
1
  6
Continuous
100
AcDbLine
 10
305.814046
 20
160.695776
 30
0.0
 11
305.6957039999999
 21
160.5473149999999
 31
0.0
  0
LINE
  5
AE3E
330
ACC4
100
AcDbEntity
  8
1
  6
Continuous
100
AcDbLine
 10
305.6957039999999
 20
160.5473149999999
 30
0.0
 11
305.599689
 21
160.375259
 31
0.0
  0
LINE
  5
AE3F
330
ACC4
100
AcDbEntity
  8
1
  6
Continuous
100
AcDbLine
 10
305.599689
 20
160.375259
 30
0.0
 11
305.528992
 21
160.184951
 31
0.0
  0
LINE
  5
AE40
330
ACC4
100
AcDbEntity
  8
1
  6
Continuous
100
AcDbLine
 10
305.528992
 20
160.184951
 30
0.0
 11
305.48565
 21
159.982098
 31
0.0
  0
LINE
  5
AE41
330
ACC4
100
AcDbEntity
  8
1
  6
Continuous
100
AcDbLine
 10
305.48565
 20
159.982098
 30
0.0
 11
305.471066
 21
159.772904
 31
0.0
  0
LINE
  5
AE42
330
ACC4
100
AcDbEntity
  8
1
  6
Continuous
100
AcDbLine
 10
312.7382759999999
 20
160.94718
 30
0.0
 11
312.571564
 21
160.9288819999999
 31
0.0
  0
LINE
  5
AE43
330
ACC4
100
AcDbEntity
  8
1
  6
Continuous
100
AcDbLine
 10
312.571564
 20
160.9288819999999
 30
0.0
 11
312.40988
 21
160.874535
 31
0.0
  0
LINE
  5
AE44
330
ACC4
100
AcDbEntity
  8
1
  6
Continuous
100
AcDbLine
 10
312.40988
 20
160.874535
 30
0.0
 11
312.2582039999999
 21
160.785766
 31
0.0
  0
LINE
  5
AE45
330
ACC4
100
AcDbEntity
  8
1
  6
Continuous
100
AcDbLine
 10
312.2582039999999
 20
160.785766
 30
0.0
 11
312.1211119999999
 21
160.6653409999998
 31
0.0
  0
LINE
  5
AE46
330
ACC4
100
AcDbEntity
  8
1
  6
Continuous
100
AcDbLine
 10
312.1211119999999
 20
160.6653409999998
 30
0.0
 11
312.002769
 21
160.516881
 31
0.0
  0
LINE
  5
AE47
330
ACC4
100
AcDbEntity
  8
1
  6
Continuous
100
AcDbLine
 10
312.002769
 20
160.516881
 30
0.0
 11
311.906755
 21
160.3448239999998
 31
0.0
  0
LINE
  5
AE48
330
ACC4
100
AcDbEntity
  8
1
  6
Continuous
100
AcDbLine
 10
311.906755
 20
160.3448239999998
 30
0.0
 11
311.836057
 21
160.154516
 31
0.0
  0
LINE
  5
AE49
330
ACC4
100
AcDbEntity
  8
1
  6
Continuous
100
AcDbLine
 10
311.836057
 20
160.154516
 30
0.0
 11
311.7927149999998
 21
159.951663
 31
0.0
  0
LINE
  5
AE4A
330
ACC4
100
AcDbEntity
  8
1
  6
Continuous
100
AcDbLine
 10
311.7927149999998
 20
159.951663
 30
0.0
 11
311.7781309999998
 21
159.7424689999998
 31
0.0
  0
LINE
  5
AE4B
330
ACC4
100
AcDbEntity
  8
1
  6
Continuous
100
AcDbLine
 10
306.4312109999999
 20
158.5669259999999
 30
0.0
 11
306.2644989999999
 21
158.5852229999999
 31
0.0
  0
LINE
  5
AE4C
330
ACC4
100
AcDbEntity
  8
1
  6
Continuous
100
AcDbLine
 10
306.2644989999999
 20
158.5852229999999
 30
0.0
 11
306.102814
 21
158.6395709999998
 31
0.0
  0
LINE
  5
AE4D
330
ACC4
100
AcDbEntity
  8
1
  6
Continuous
100
AcDbLine
 10
306.102814
 20
158.6395709999998
 30
0.0
 11
305.951139
 21
158.7283389999998
 31
0.0
  0
LINE
  5
AE4E
330
ACC4
100
AcDbEntity
  8
1
  6
Continuous
100
AcDbLine
 10
305.951139
 20
158.7283389999998
 30
0.0
 11
305.814046
 21
158.8487649999999
 31
0.0
  0
LINE
  5
AE4F
330
ACC4
100
AcDbEntity
  8
1
  6
Continuous
100
AcDbLine
 10
305.814046
 20
158.8487649999999
 30
0.0
 11
305.6957039999999
 21
158.9972249999999
 31
0.0
  0
LINE
  5
AE50
330
ACC4
100
AcDbEntity
  8
1
  6
Continuous
100
AcDbLine
 10
305.6957039999999
 20
158.9972249999999
 30
0.0
 11
305.599689
 21
159.169281
 31
0.0
  0
LINE
  5
AE51
330
ACC4
100
AcDbEntity
  8
1
  6
Continuous
100
AcDbLine
 10
305.599689
 20
159.169281
 30
0.0
 11
305.528992
 21
159.359589
 31
0.0
  0
LINE
  5
AE52
330
ACC4
100
AcDbEntity
  8
1
  6
Continuous
100
AcDbLine
 10
305.528992
 20
159.359589
 30
0.0
 11
305.48565
 21
159.562442
 31
0.0
  0
LINE
  5
AE53
330
ACC4
100
AcDbEntity
  8
1
  6
Continuous
100
AcDbLine
 10
305.48565
 20
159.562442
 30
0.0
 11
305.471066
 21
159.7716359999998
 31
0.0
  0
LINE
  5
AE54
330
ACC4
100
AcDbEntity
  8
1
  6
Continuous
100
AcDbLine
 10
307.264544
 20
159.1647519999999
 30
0.0
 11
307.251863
 21
159.0609479999999
 31
0.0
  0
LINE
  5
AE55
330
ACC4
100
AcDbEntity
  8
1
  6
Continuous
100
AcDbLine
 10
307.251863
 20
159.0609479999999
 30
0.0
 11
307.2142729999999
 21
158.9602679999998
 31
0.0
  0
LINE
  5
AE56
330
ACC4
100
AcDbEntity
  8
1
  6
Continuous
100
AcDbLine
 10
307.2142729999999
 20
158.9602679999998
 30
0.0
 11
307.1529049999999
 21
158.8658389999999
 31
0.0
  0
LINE
  5
AE57
330
ACC4
100
AcDbEntity
  8
1
  6
Continuous
100
AcDbLine
 10
307.1529049999999
 20
158.8658389999999
 30
0.0
 11
307.0695719999998
 21
158.7804679999998
 31
0.0
  0
LINE
  5
AE58
330
ACC4
100
AcDbEntity
  8
1
  6
Continuous
100
AcDbLine
 10
307.0695719999998
 20
158.7804679999998
 30
0.0
 11
306.966854
 21
158.706781
 31
0.0
  0
LINE
  5
AE59
330
ACC4
100
AcDbEntity
  8
1
  6
Continuous
100
AcDbLine
 10
306.966854
 20
158.706781
 30
0.0
 11
306.8478779999999
 21
158.647044
 31
0.0
  0
LINE
  5
AE5A
330
ACC4
100
AcDbEntity
  8
1
  6
Continuous
100
AcDbLine
 10
306.8478779999999
 20
158.647044
 30
0.0
 11
306.71622
 21
158.602977
 31
0.0
  0
LINE
  5
AE5B
330
ACC4
100
AcDbEntity
  8
1
  6
Continuous
100
AcDbLine
 10
306.71622
 20
158.602977
 30
0.0
 11
306.575912
 21
158.576029
 31
0.0
  0
LINE
  5
AE5C
330
ACC4
100
AcDbEntity
  8
1
  6
Continuous
100
AcDbLine
 10
306.575912
 20
158.576029
 30
0.0
 11
306.4312109999999
 21
158.5669259999999
 31
0.0
  0
LINE
  5
AE5D
330
ACC4
100
AcDbEntity
  8
1
  6
Continuous
100
AcDbLine
 10
313.692987
 20
159.418375
 30
0.0
 11
313.678494
 21
159.2652499999998
 31
0.0
  0
LINE
  5
AE5E
330
ACC4
100
AcDbEntity
  8
1
  6
Continuous
100
AcDbLine
 10
313.678494
 20
159.2652499999998
 30
0.0
 11
313.635423
 21
159.116745
 31
0.0
  0
LINE
  5
AE5F
330
ACC4
100
AcDbEntity
  8
1
  6
Continuous
100
AcDbLine
 10
313.635423
 20
159.116745
 30
0.0
 11
313.565088
 21
158.977433
 31
0.0
  0
LINE
  5
AE60
330
ACC4
100
AcDbEntity
  8
1
  6
Continuous
100
AcDbLine
 10
313.565088
 20
158.977433
 30
0.0
 11
313.4696169999998
 21
158.851527
 31
0.0
  0
LINE
  5
AE61
330
ACC4
100
AcDbEntity
  8
1
  6
Continuous
100
AcDbLine
 10
313.4696169999998
 20
158.851527
 30
0.0
 11
313.3519539999999
 21
158.7428319999999
 31
0.0
  0
LINE
  5
AE62
330
ACC4
100
AcDbEntity
  8
1
  6
Continuous
100
AcDbLine
 10
313.3519539999999
 20
158.7428319999999
 30
0.0
 11
313.2156309999999
 21
158.6546519999999
 31
0.0
  0
LINE
  5
AE63
330
ACC4
100
AcDbEntity
  8
1
  6
Continuous
100
AcDbLine
 10
313.2156309999999
 20
158.6546519999999
 30
0.0
 11
313.064816
 21
158.5896609999998
 31
0.0
  0
LINE
  5
AE64
330
ACC4
100
AcDbEntity
  8
1
  6
Continuous
100
AcDbLine
 10
313.064816
 20
158.5896609999998
 30
0.0
 11
312.904083
 21
158.5498969999999
 31
0.0
  0
LINE
  5
AE65
330
ACC4
100
AcDbEntity
  8
1
  6
Continuous
100
AcDbLine
 10
312.904083
 20
158.5498969999999
 30
0.0
 11
312.7382759999999
 21
158.5364909999999
 31
0.0
  0
LINE
  5
AE66
330
ACC4
100
AcDbEntity
  8
1
  6
Continuous
100
AcDbLine
 10
312.7382759999999
 20
158.5364909999999
 30
0.0
 11
312.571564
 21
158.554788
 31
0.0
  0
LINE
  5
AE67
330
ACC4
100
AcDbEntity
  8
1
  6
Continuous
100
AcDbLine
 10
312.571564
 20
158.554788
 30
0.0
 11
312.40988
 21
158.609136
 31
0.0
  0
LINE
  5
AE68
330
ACC4
100
AcDbEntity
  8
1
  6
Continuous
100
AcDbLine
 10
312.40988
 20
158.609136
 30
0.0
 11
312.2582039999999
 21
158.6979039999999
 31
0.0
  0
LINE
  5
AE69
330
ACC4
100
AcDbEntity
  8
1
  6
Continuous
100
AcDbLine
 10
312.2582039999999
 20
158.6979039999999
 30
0.0
 11
312.1211119999999
 21
158.81833
 31
0.0
  0
LINE
  5
AE6A
330
ACC4
100
AcDbEntity
  8
1
  6
Continuous
100
AcDbLine
 10
312.1211119999999
 20
158.81833
 30
0.0
 11
312.002769
 21
158.96679
 31
0.0
  0
LINE
  5
AE6B
330
ACC4
100
AcDbEntity
  8
1
  6
Continuous
100
AcDbLine
 10
312.002769
 20
158.96679
 30
0.0
 11
311.906755
 21
159.138846
 31
0.0
  0
LINE
  5
AE6C
330
ACC4
100
AcDbEntity
  8
1
  6
Continuous
100
AcDbLine
 10
311.906755
 20
159.138846
 30
0.0
 11
311.836057
 21
159.3291539999999
 31
0.0
  0
LINE
  5
AE6D
330
ACC4
100
AcDbEntity
  8
1
  6
Continuous
100
AcDbLine
 10
311.836057
 20
159.3291539999999
 30
0.0
 11
311.7927149999998
 21
159.5320069999999
 31
0.0
  0
LINE
  5
AE6E
330
ACC4
100
AcDbEntity
  8
1
  6
Continuous
100
AcDbLine
 10
311.7927149999998
 20
159.5320069999999
 30
0.0
 11
311.7781309999998
 21
159.741201
 31
0.0
  0
LINE
  5
AE6F
330
ACC4
100
AcDbEntity
  8
1
  6
Continuous
100
AcDbLine
 10
314.127767
 20
155.525247
 30
0.0
 11
314.017848
 21
155.5354189999999
 31
0.0
  0
LINE
  5
AE70
330
ACC4
100
AcDbEntity
  8
1
  6
Continuous
100
AcDbLine
 10
314.017848
 20
155.5354189999999
 30
0.0
 11
313.91111
 21
155.5656469999999
 31
0.0
  0
LINE
  5
AE71
330
ACC4
100
AcDbEntity
  8
1
  6
Continuous
100
AcDbLine
 10
313.91111
 20
155.5656469999999
 30
0.0
 11
313.810591
 21
155.615111
 31
0.0
  0
LINE
  5
AE72
330
ACC4
100
AcDbEntity
  8
1
  6
Continuous
100
AcDbLine
 10
313.810591
 20
155.615111
 30
0.0
 11
313.7191839999999
 21
155.6823159999999
 31
0.0
  0
LINE
  5
AE73
330
ACC4
100
AcDbEntity
  8
1
  6
Continuous
100
AcDbLine
 10
313.7191839999999
 20
155.6823159999999
 30
0.0
 11
313.639492
 21
155.765383
 31
0.0
  0
LINE
  5
AE74
330
ACC4
100
AcDbEntity
  8
1
  6
Continuous
100
AcDbLine
 10
313.639492
 20
155.765383
 30
0.0
 11
313.5738299999998
 21
155.8619
 31
0.0
  0
LINE
  5
AE75
330
ACC4
100
AcDbEntity
  8
1
  6
Continuous
100
AcDbLine
 10
313.5738299999998
 20
155.8619
 30
0.0
 11
313.5240769999999
 21
155.96912
 31
0.0
  0
LINE
  5
AE76
330
ACC4
100
AcDbEntity
  8
1
  6
Continuous
100
AcDbLine
 10
313.5240769999999
 20
155.96912
 30
0.0
 11
313.4916789999999
 21
156.0839089999998
 31
0.0
  0
LINE
  5
AE77
330
ACC4
100
AcDbEntity
  8
1
  6
Continuous
100
AcDbLine
 10
313.4916789999999
 20
156.0839089999998
 30
0.0
 11
313.477553
 21
156.203037
 31
0.0
  0
LINE
  5
AE78
330
ACC4
100
AcDbEntity
  8
1
  6
Continuous
100
AcDbLine
 10
313.477553
 20
156.203037
 30
0.0
 11
313.482085
 21
156.323033
 31
0.0
  0
LINE
  5
AE79
330
ACC4
100
AcDbEntity
  8
1
  6
Continuous
100
AcDbLine
 10
313.482085
 20
156.323033
 30
0.0
 11
313.5051779999999
 21
156.4404729999999
 31
0.0
  0
LINE
  5
AE7A
330
ACC4
100
AcDbEntity
  8
1
  6
Continuous
100
AcDbLine
 10
313.5051779999999
 20
156.4404729999999
 30
0.0
 11
313.5461569999999
 21
156.551984
 31
0.0
  0
LINE
  5
AE7B
330
ACC4
100
AcDbEntity
  8
1
  6
Continuous
100
AcDbLine
 10
313.5461569999999
 20
156.551984
 30
0.0
 11
313.6038169999999
 21
156.654383
 31
0.0
  0
LINE
  5
AE7C
330
ACC4
100
AcDbEntity
  8
1
  6
Continuous
100
AcDbLine
 10
313.6038169999999
 20
156.654383
 30
0.0
 11
313.676566
 21
156.744681
 31
0.0
  0
LINE
  5
AE7D
330
ACC4
100
AcDbEntity
  8
1
  6
Continuous
100
AcDbLine
 10
313.676566
 20
156.744681
 30
0.0
 11
313.7622359999999
 21
156.8203229999998
 31
0.0
  0
LINE
  5
AE7E
330
ACC4
100
AcDbEntity
  8
1
  6
Continuous
100
AcDbLine
 10
313.7622359999999
 20
156.8203229999998
 30
0.0
 11
313.858464
 21
156.8790919999998
 31
0.0
  0
LINE
  5
AE7F
330
ACC4
100
AcDbEntity
  8
1
  6
Continuous
100
AcDbLine
 10
313.858464
 20
156.8790919999998
 30
0.0
 11
313.9623569999999
 21
156.9193469999999
 31
0.0
  0
LINE
  5
AE80
330
ACC4
100
AcDbEntity
  8
1
  6
Continuous
100
AcDbLine
 10
313.9623569999999
 20
156.9193469999999
 30
0.0
 11
314.071024
 21
156.9399329999999
 31
0.0
  0
LINE
  5
AE81
330
ACC4
100
AcDbEntity
  8
1
  6
Continuous
100
AcDbLine
 10
314.071024
 20
156.9399329999999
 30
0.0
 11
314.181377
 21
156.940222
 31
0.0
  0
LINE
  5
AE82
330
ACC4
100
AcDbEntity
  8
1
  6
Continuous
100
AcDbLine
 10
314.181377
 20
156.940222
 30
0.0
 11
314.290092
 21
156.9202149999999
 31
0.0
  0
LINE
  5
AE83
330
ACC4
100
AcDbEntity
  8
1
  6
Continuous
100
AcDbLine
 10
314.290092
 20
156.9202149999999
 30
0.0
 11
314.394226
 21
156.880538
 31
0.0
  0
LINE
  5
AE84
330
ACC4
100
AcDbEntity
  8
1
  6
Continuous
100
AcDbLine
 10
314.394226
 20
156.880538
 30
0.0
 11
314.490647
 21
156.8222519999999
 31
0.0
  0
LINE
  5
AE85
330
ACC4
100
AcDbEntity
  8
1
  6
Continuous
100
AcDbLine
 10
314.490647
 20
156.8222519999999
 30
0.0
 11
314.5767029999999
 21
156.747043
 31
0.0
  0
LINE
  5
AE86
330
ACC4
100
AcDbEntity
  8
1
  6
Continuous
100
AcDbLine
 10
314.5767029999999
 20
156.747043
 30
0.0
 11
314.649838
 21
156.657131
 31
0.0
  0
LINE
  5
AE87
330
ACC4
100
AcDbEntity
  8
1
  6
Continuous
100
AcDbLine
 10
314.649838
 20
156.657131
 30
0.0
 11
314.7079309999999
 21
156.555069
 31
0.0
  0
LINE
  5
AE88
330
ACC4
100
AcDbEntity
  8
1
  6
Continuous
100
AcDbLine
 10
314.7079309999999
 20
156.555069
 30
0.0
 11
314.749441
 21
156.443752
 31
0.0
  0
LINE
  5
AE89
330
ACC4
100
AcDbEntity
  8
1
  6
Continuous
100
AcDbLine
 10
314.749441
 20
156.443752
 30
0.0
 11
314.773015
 21
156.326456
 31
0.0
  0
LINE
  5
AE8A
330
ACC4
100
AcDbEntity
  8
1
  6
Continuous
100
AcDbLine
 10
314.773015
 20
156.326456
 30
0.0
 11
314.7781259999998
 21
156.20646
 31
0.0
  0
LINE
  5
AE8B
330
ACC4
100
AcDbEntity
  8
1
  6
Continuous
100
AcDbLine
 10
314.7781259999998
 20
156.20646
 30
0.0
 11
314.7645299999999
 21
156.087284
 31
0.0
  0
LINE
  5
AE8C
330
ACC4
100
AcDbEntity
  8
1
  6
Continuous
100
AcDbLine
 10
314.7645299999999
 20
156.087284
 30
0.0
 11
314.732615
 21
155.972302
 31
0.0
  0
LINE
  5
AE8D
330
ACC4
100
AcDbEntity
  8
1
  6
Continuous
100
AcDbLine
 10
314.732615
 20
155.972302
 30
0.0
 11
314.6833439999999
 21
155.8648409999999
 31
0.0
  0
LINE
  5
AE8E
330
ACC4
100
AcDbEntity
  8
1
  6
Continuous
100
AcDbLine
 10
314.6833439999999
 20
155.8648409999999
 30
0.0
 11
314.6181149999998
 21
155.7679379999999
 31
0.0
  0
LINE
  5
AE8F
330
ACC4
100
AcDbEntity
  8
1
  6
Continuous
100
AcDbLine
 10
314.6181149999998
 20
155.7679379999999
 30
0.0
 11
314.5388089999999
 21
155.6844859999999
 31
0.0
  0
LINE
  5
AE90
330
ACC4
100
AcDbEntity
  8
1
  6
Continuous
100
AcDbLine
 10
314.5388089999999
 20
155.6844859999999
 30
0.0
 11
314.447692
 21
155.6167979999998
 31
0.0
  0
LINE
  5
AE91
330
ACC4
100
AcDbEntity
  8
1
  6
Continuous
100
AcDbLine
 10
314.447692
 20
155.6167979999998
 30
0.0
 11
314.347414
 21
155.566804
 31
0.0
  0
LINE
  5
AE92
330
ACC4
100
AcDbEntity
  8
1
  6
Continuous
100
AcDbLine
 10
314.347414
 20
155.566804
 30
0.0
 11
314.2407729999998
 21
155.535998
 31
0.0
  0
LINE
  5
AE93
330
ACC4
100
AcDbEntity
  8
1
  6
Continuous
100
AcDbLine
 10
314.2407729999998
 20
155.535998
 30
0.0
 11
314.127767
 21
155.525247
 31
0.0
  0
LINE
  5
AE94
330
ACC4
100
AcDbEntity
  8
1
  6
Continuous
100
AcDbLine
 10
314.778608
 20
155.0431429999999
 30
0.0
 11
314.768339
 21
154.937658
 31
0.0
  0
LINE
  5
AE95
330
ACC4
100
AcDbEntity
  8
1
  6
Continuous
100
AcDbLine
 10
314.768339
 20
154.937658
 30
0.0
 11
314.7379179999999
 21
154.835404
 31
0.0
  0
LINE
  5
AE96
330
ACC4
100
AcDbEntity
  8
1
  6
Continuous
100
AcDbLine
 10
314.7379179999999
 20
154.835404
 30
0.0
 11
314.6881649999999
 21
154.739417
 31
0.0
  0
LINE
  5
AE97
330
ACC4
100
AcDbEntity
  8
1
  6
Continuous
100
AcDbLine
 10
314.6881649999999
 20
154.739417
 30
0.0
 11
314.620719
 21
154.6526859999999
 31
0.0
  0
LINE
  5
AE98
330
ACC4
100
AcDbEntity
  8
1
  6
Continuous
100
AcDbLine
 10
314.620719
 20
154.6526859999999
 30
0.0
 11
314.5375079999999
 21
154.5778159999999
 31
0.0
  0
LINE
  5
AE99
330
ACC4
100
AcDbEntity
  8
1
  6
Continuous
100
AcDbLine
 10
314.5375079999999
 20
154.5778159999999
 30
0.0
 11
314.4411349999999
 21
154.5170709999998
 31
0.0
  0
LINE
  5
AE9A
330
ACC4
100
AcDbEntity
  8
1
  6
Continuous
100
AcDbLine
 10
314.4411349999999
 20
154.5170709999998
 30
0.0
 11
314.3344939999999
 21
154.472331
 31
0.0
  0
LINE
  5
AE9B
330
ACC4
100
AcDbEntity
  8
1
  6
Continuous
100
AcDbLine
 10
314.3344939999999
 20
154.472331
 30
0.0
 11
314.220862
 21
154.4449
 31
0.0
  0
LINE
  5
AE9C
330
ACC4
100
AcDbEntity
  8
1
  6
Continuous
100
AcDbLine
 10
314.220862
 20
154.4449
 30
0.0
 11
314.1036619999998
 21
154.4356909999999
 31
0.0
  0
LINE
  5
AE9D
330
ACC4
100
AcDbEntity
  8
1
  6
Continuous
100
AcDbLine
 10
317.3845249999998
 20
155.218051
 30
0.0
 11
317.3743979999999
 21
155.0821449999999
 31
0.0
  0
LINE
  5
AE9E
330
ACC4
100
AcDbEntity
  8
1
  6
Continuous
100
AcDbLine
 10
317.3743979999999
 20
155.0821449999999
 30
0.0
 11
317.3444089999999
 21
154.950349
 31
0.0
  0
LINE
  5
AE9F
330
ACC4
100
AcDbEntity
  8
1
  6
Continuous
100
AcDbLine
 10
317.3444089999999
 20
154.950349
 30
0.0
 11
317.295389
 21
154.8266729999998
 31
0.0
  0
LINE
  5
AEA0
330
ACC4
100
AcDbEntity
  8
1
  6
Continuous
100
AcDbLine
 10
317.295389
 20
154.8266729999998
 30
0.0
 11
317.2288549999998
 21
154.7149349999999
 31
0.0
  0
LINE
  5
AEA1
330
ACC4
100
AcDbEntity
  8
1
  6
Continuous
100
AcDbLine
 10
317.2288549999998
 20
154.7149349999999
 30
0.0
 11
317.146861
 21
154.618411
 31
0.0
  0
LINE
  5
AEA2
330
ACC4
100
AcDbEntity
  8
1
  6
Continuous
100
AcDbLine
 10
317.146861
 20
154.618411
 30
0.0
 11
317.0518539999998
 21
154.540185
 31
0.0
  0
LINE
  5
AEA3
330
ACC4
100
AcDbEntity
  8
1
  6
Continuous
100
AcDbLine
 10
317.0518539999998
 20
154.540185
 30
0.0
 11
316.946769
 21
154.482505
 31
0.0
  0
LINE
  5
AEA4
330
ACC4
100
AcDbEntity
  8
1
  6
Continuous
100
AcDbLine
 10
316.946769
 20
154.482505
 30
0.0
 11
316.834737
 21
154.4471839999999
 31
0.0
  0
LINE
  5
AEA5
330
ACC4
100
AcDbEntity
  8
1
  6
Continuous
100
AcDbLine
 10
316.834737
 20
154.4471839999999
 30
0.0
 11
316.719183
 21
154.4352949999999
 31
0.0
  0
LINE
  5
AEA6
330
ACC4
100
AcDbEntity
  8
1
  6
Continuous
100
AcDbLine
 10
316.6987329999999
 20
156.0105919999998
 30
0.0
 11
316.8178099999999
 21
155.998557
 31
0.0
  0
LINE
  5
AEA7
330
ACC4
100
AcDbEntity
  8
1
  6
Continuous
100
AcDbLine
 10
316.8178099999999
 20
155.998557
 30
0.0
 11
316.933267
 21
155.962795
 31
0.0
  0
LINE
  5
AEA8
330
ACC4
100
AcDbEntity
  8
1
  6
Continuous
100
AcDbLine
 10
316.933267
 20
155.962795
 30
0.0
 11
317.0416289999999
 21
155.90443
 31
0.0
  0
LINE
  5
AEA9
330
ACC4
100
AcDbEntity
  8
1
  6
Continuous
100
AcDbLine
 10
317.0416289999999
 20
155.90443
 30
0.0
 11
317.139572
 21
155.825176
 31
0.0
  0
LINE
  5
AEAA
330
ACC4
100
AcDbEntity
  8
1
  6
Continuous
100
AcDbLine
 10
317.139572
 20
155.825176
 30
0.0
 11
317.22406
 21
155.7274789999999
 31
0.0
  0
LINE
  5
AEAB
330
ACC4
100
AcDbEntity
  8
1
  6
Continuous
100
AcDbLine
 10
317.22406
 20
155.7274789999999
 30
0.0
 11
317.292649
 21
155.6143219999999
 31
0.0
  0
LINE
  5
AEAC
330
ACC4
100
AcDbEntity
  8
1
  6
Continuous
100
AcDbLine
 10
317.292649
 20
155.6143219999999
 30
0.0
 11
317.3431859999999
 21
155.489129
 31
0.0
  0
LINE
  5
AEAD
330
ACC4
100
AcDbEntity
  8
1
  6
Continuous
100
AcDbLine
 10
317.3431859999999
 20
155.489129
 30
0.0
 11
317.3741049999998
 21
155.35567
 31
0.0
  0
LINE
  5
AEAE
330
ACC4
100
AcDbEntity
  8
1
  6
Continuous
100
AcDbLine
 10
317.3741049999998
 20
155.35567
 30
0.0
 11
317.3845249999998
 21
155.218051
 31
0.0
  0
LINE
  5
AEAF
330
ACC4
100
AcDbEntity
  8
1
  6
Continuous
100
AcDbLine
 10
316.719183
 20
154.4352949999999
 30
0.0
 11
316.6053409999999
 21
154.4449329999999
 31
0.0
  0
LINE
  5
AEB0
330
ACC4
100
AcDbEntity
  8
1
  6
Continuous
100
AcDbLine
 10
316.6053409999999
 20
154.4449329999999
 30
0.0
 11
316.494972
 21
154.4736509999999
 31
0.0
  0
LINE
  5
AEB1
330
ACC4
100
AcDbEntity
  8
1
  6
Continuous
100
AcDbLine
 10
316.494972
 20
154.4736509999999
 30
0.0
 11
316.391404
 21
154.5205179999999
 31
0.0
  0
LINE
  5
AEB2
330
ACC4
100
AcDbEntity
  8
1
  6
Continuous
100
AcDbLine
 10
316.391404
 20
154.5205179999999
 30
0.0
 11
316.297816
 21
154.5840679999998
 31
0.0
  0
LINE
  5
AEB3
330
ACC4
100
AcDbEntity
  8
1
  6
Continuous
100
AcDbLine
 10
316.297816
 20
154.5840679999998
 30
0.0
 11
316.2169959999999
 21
154.6624899999999
 31
0.0
  0
LINE
  5
AEB4
330
ACC4
100
AcDbEntity
  8
1
  6
Continuous
100
AcDbLine
 10
316.2169959999999
 20
154.6624899999999
 30
0.0
 11
316.1514399999999
 21
154.75329
 31
0.0
  0
LINE
  5
AEB5
330
ACC4
100
AcDbEntity
  8
1
  6
Continuous
100
AcDbLine
 10
316.1514399999999
 20
154.75329
 30
0.0
 11
316.103154
 21
154.853776
 31
0.0
  0
LINE
  5
AEB6
330
ACC4
100
AcDbEntity
  8
1
  6
Continuous
100
AcDbLine
 10
316.103154
 20
154.853776
 30
0.0
 11
316.073605
 21
154.9608179999999
 31
0.0
  0
LINE
  5
AEB7
330
ACC4
100
AcDbEntity
  8
1
  6
Continuous
100
AcDbLine
 10
316.073605
 20
154.9608179999999
 30
0.0
 11
316.063625
 21
155.071285
 31
0.0
  0
LINE
  5
AEB8
330
ACC4
100
AcDbEntity
  8
1
  6
Continuous
100
AcDbLine
 10
316.063625
 20
155.599645
 30
0.0
 11
316.073263
 21
155.670973
 31
0.0
  0
LINE
  5
AEB9
330
ACC4
100
AcDbEntity
  8
1
  6
Continuous
100
AcDbLine
 10
316.073263
 20
155.670973
 30
0.0
 11
316.1019799999999
 21
155.7401979999999
 31
0.0
  0
LINE
  5
AEBA
330
ACC4
100
AcDbEntity
  8
1
  6
Continuous
100
AcDbLine
 10
316.1019799999999
 20
155.7401979999999
 30
0.0
 11
316.148847
 21
155.8051179999999
 31
0.0
  0
LINE
  5
AEBB
330
ACC4
100
AcDbEntity
  8
1
  6
Continuous
100
AcDbLine
 10
316.148847
 20
155.8051179999999
 30
0.0
 11
316.212397
 21
155.863776
 31
0.0
  0
LINE
  5
AEBC
330
ACC4
100
AcDbEntity
  8
1
  6
Continuous
100
AcDbLine
 10
316.212397
 20
155.863776
 30
0.0
 11
316.2908199999999
 21
155.914459
 31
0.0
  0
LINE
  5
AEBD
330
ACC4
100
AcDbEntity
  8
1
  6
Continuous
100
AcDbLine
 10
316.2908199999999
 20
155.914459
 30
0.0
 11
316.3816189999999
 21
155.955554
 31
0.0
  0
LINE
  5
AEBE
330
ACC4
100
AcDbEntity
  8
1
  6
Continuous
100
AcDbLine
 10
316.3816189999999
 20
155.955554
 30
0.0
 11
316.4820569999998
 21
155.9857879999999
 31
0.0
  0
LINE
  5
AEBF
330
ACC4
100
AcDbEntity
  8
1
  6
Continuous
100
AcDbLine
 10
316.4820569999998
 20
155.9857879999999
 30
0.0
 11
316.589148
 21
156.00433
 31
0.0
  0
LINE
  5
AEC0
330
ACC4
100
AcDbEntity
  8
1
  6
Continuous
100
AcDbLine
 10
316.589148
 20
156.00433
 30
0.0
 11
316.699614
 21
156.0105919999998
 31
0.0
  0
LINE
  5
AEC1
330
ACC4
100
AcDbEntity
  8
1
  6
Continuous
100
AcDbLine
 10
307.255487
 20
160.3797879999999
 30
0.0
 11
307.2428049999999
 21
160.4835929999999
 31
0.0
  0
LINE
  5
AEC2
330
ACC4
100
AcDbEntity
  8
1
  6
Continuous
100
AcDbLine
 10
307.2428049999999
 20
160.4835929999999
 30
0.0
 11
307.205215
 21
160.584272
 31
0.0
  0
LINE
  5
AEC3
330
ACC4
100
AcDbEntity
  8
1
  6
Continuous
100
AcDbLine
 10
307.205215
 20
160.584272
 30
0.0
 11
307.1438469999999
 21
160.6787009999998
 31
0.0
  0
LINE
  5
AEC4
330
ACC4
100
AcDbEntity
  8
1
  6
Continuous
100
AcDbLine
 10
307.1438469999999
 20
160.6787009999998
 30
0.0
 11
307.060514
 21
160.7640729999999
 31
0.0
  0
LINE
  5
AEC5
330
ACC4
100
AcDbEntity
  8
1
  6
Continuous
100
AcDbLine
 10
307.060514
 20
160.7640729999999
 30
0.0
 11
306.9577959999999
 21
160.837759
 31
0.0
  0
LINE
  5
AEC6
330
ACC4
100
AcDbEntity
  8
1
  6
Continuous
100
AcDbLine
 10
306.9577959999999
 20
160.837759
 30
0.0
 11
306.83882
 21
160.897497
 31
0.0
  0
LINE
  5
AEC7
330
ACC4
100
AcDbEntity
  8
1
  6
Continuous
100
AcDbLine
 10
306.83882
 20
160.897497
 30
0.0
 11
306.707162
 21
160.9415639999998
 31
0.0
  0
LINE
  5
AEC8
330
ACC4
100
AcDbEntity
  8
1
  6
Continuous
100
AcDbLine
 10
306.707162
 20
160.9415639999998
 30
0.0
 11
306.5668539999998
 21
160.968511
 31
0.0
  0
LINE
  5
AEC9
330
ACC4
100
AcDbEntity
  8
1
  6
Continuous
100
AcDbLine
 10
306.5668539999998
 20
160.968511
 30
0.0
 11
306.4221529999999
 21
160.9776139999999
 31
0.0
  0
LINE
  5
AECA
330
ACC4
100
AcDbEntity
  8
1
  6
Continuous
100
AcDbLine
 10
313.562552
 20
160.349353
 30
0.0
 11
313.549871
 21
160.4531579999998
 31
0.0
  0
LINE
  5
AECB
330
ACC4
100
AcDbEntity
  8
1
  6
Continuous
100
AcDbLine
 10
313.549871
 20
160.4531579999998
 30
0.0
 11
313.5122799999999
 21
160.5538369999999
 31
0.0
  0
LINE
  5
AECC
330
ACC4
100
AcDbEntity
  8
1
  6
Continuous
100
AcDbLine
 10
313.5122799999999
 20
160.5538369999999
 30
0.0
 11
313.450912
 21
160.6482659999998
 31
0.0
  0
LINE
  5
AECD
330
ACC4
100
AcDbEntity
  8
1
  6
Continuous
100
AcDbLine
 10
313.450912
 20
160.6482659999998
 30
0.0
 11
313.3675789999998
 21
160.7336379999999
 31
0.0
  0
LINE
  5
AECE
330
ACC4
100
AcDbEntity
  8
1
  6
Continuous
100
AcDbLine
 10
313.3675789999998
 20
160.7336379999999
 30
0.0
 11
313.2648619999998
 21
160.8073239999999
 31
0.0
  0
LINE
  5
AECF
330
ACC4
100
AcDbEntity
  8
1
  6
Continuous
100
AcDbLine
 10
313.2648619999998
 20
160.8073239999999
 30
0.0
 11
313.145885
 21
160.867062
 31
0.0
  0
LINE
  5
AED0
330
ACC4
100
AcDbEntity
  8
1
  6
Continuous
100
AcDbLine
 10
313.145885
 20
160.867062
 30
0.0
 11
313.014227
 21
160.9111289999999
 31
0.0
  0
LINE
  5
AED1
330
ACC4
100
AcDbEntity
  8
1
  6
Continuous
100
AcDbLine
 10
313.014227
 20
160.9111289999999
 30
0.0
 11
312.873919
 21
160.938076
 31
0.0
  0
LINE
  5
AED2
330
ACC4
100
AcDbEntity
  8
1
  6
Continuous
100
AcDbLine
 10
312.873919
 20
160.938076
 30
0.0
 11
312.7292179999999
 21
160.94718
 31
0.0
  0
ARC
  5
AED3
330
ACC4
100
AcDbEntity
  8
1
  6
Continuous
100
AcDbCircle
 10
19.27262199999999
 20
264.680358
 30
0.0
 40
1.6
100
AcDbArc
 50
90.0
 51
180.0
  0
ARC
  5
AED4
330
ACC4
100
AcDbEntity
  8
1
  6
Continuous
100
AcDbCircle
 10
91.07262199999999
 20
264.680358
 30
0.0
 40
1.6
100
AcDbArc
 50
0.0
 51
90.0
  0
ARC
  5
AED5
330
ACC4
100
AcDbEntity
  8
1
  6
Continuous
100
AcDbCircle
 10
19.27262199999999
 20
44.65116599999999
 30
0.0
 40
1.6
100
AcDbArc
 50
180.0
 51
270.0
  0
ARC
  5
AED6
330
ACC4
100
AcDbEntity
  8
1
  6
Continuous
100
AcDbCircle
 10
91.07262199999999
 20
44.65116599999999
 30
0.0
 40
1.6
100
AcDbArc
 50
270.0
 51
0.0
  0
LINE
  5
AED7
330
ACC4
100
AcDbEntity
  8
4
  6
CENTER
100
AcDbLine
 10
183.4411429999999
 20
159.6901139999999
 30
0.0
 11
219.166373
 21
159.6901139999999
 31
0.0
  0
LINE
  5
AED8
330
ACC4
100
AcDbEntity
  8
1
  6
Continuous
100
AcDbLine
 10
263.912262
 20
130.6901139999999
 30
0.0
 11
263.912262
 21
128.6901139999999
 31
0.0
  0
LINE
  5
AED9
330
ACC4
100
AcDbEntity
  8
1
  6
Continuous
100
AcDbLine
 10
343.912262
 20
130.6901139999999
 30
0.0
 11
343.912262
 21
128.6901139999999
 31
0.0
  0
LINE
  5
AEDA
330
ACC4
100
AcDbEntity
  8
1
  6
Continuous
100
AcDbLine
 10
95.17262200000001
 20
183.6901139999999
 30
0.0
 11
97.02262199999999
 21
183.6901139999999
 31
0.0
  0
LINE
  5
AEDB
330
ACC4
100
AcDbEntity
  8
1
  6
Continuous
100
AcDbLine
 10
95.17262200000001
 20
125.6901139999998
 30
0.0
 11
97.02262199999999
 21
125.6901139999998
 31
0.0
  0
ENDSEC
  0
SECTION
  2
OBJECTS
  0
DICTIONARY
  5
ACB2
330
0
100
AcDbDictionary
281
     1
  3
ACAD_CIP_PREVIOUS_PRODUCT_INFO
350
AF41
  3
ACAD_COLOR
350
AF23
  3
ACAD_DETAILVIEWSTYLE
350
AF3C
  3
ACAD_GROUP
350
ACB3
  3
ACAD_LAYOUT
350
ACBF
  3
ACAD_MATERIAL
350
AEF1
  3
ACAD_MLEADERSTYLE
350
AF38
  3
ACAD_MLINESTYLE
350
ACBC
  3
ACAD_PLOTSETTINGS
350
ACBE
  3
ACAD_PLOTSTYLENAME
350
AEEF
  3
ACAD_SCALELIST
350
AF26
  3
ACAD_SECTIONVIEWSTYLE
350
AF3A
  3
ACAD_TABLESTYLE
350
AF24
  3
ACAD_VISUALSTYLE
350
AF0A
  3
ACDB_RECOMPOSE_DATA
350
AF5F
  3
AcDbVariableDictionary
350
AF52
  3
DWGPROPS
350
AF60
  0
DICTIONARY
  5
AF42
330
ACB6
100
AcDbDictionary
280
     1
281
     1
  3
ADSK_XREC_LAYER_RECONCILED
360
AF43
  0
DICTIONARY
  5
AF44
330
ACCC
100
AcDbDictionary
280
     1
281
     1
  3
ADSK_XREC_LAYER_RECONCILED
360
AF45
  0
DICTIONARY
  5
AF46
330
ACCD
100
AcDbDictionary
280
     1
281
     1
  3
ADSK_XREC_LAYER_RECONCILED
360
AF47
  0
DICTIONARY
  5
AF48
330
ACCE
100
AcDbDictionary
280
     1
281
     1
  3
ADSK_XREC_LAYER_RECONCILED
360
AF49
  0
DICTIONARY
  5
AF4A
330
ACCF
100
AcDbDictionary
280
     1
281
     1
  3
ADSK_XREC_LAYER_RECONCILED
360
AF4B
  0
DICTIONARY
  5
AF4C
330
ACD0
100
AcDbDictionary
280
     1
281
     1
  3
ADSK_XREC_LAYER_RECONCILED
360
AF4D
  0
DICTIONARY
  5
AF4E
330
ACD1
100
AcDbDictionary
280
     1
281
     1
  3
ADSK_XREC_LAYER_RECONCILED
360
AF4F
  0
DICTIONARY
  5
AF50
330
ACD2
100
AcDbDictionary
280
     1
281
     1
  3
ADSK_XREC_LAYER_RECONCILED
360
AF51
  0
DICTIONARY
  5
AEEA
330
ACC4
100
AcDbDictionary
281
     1
  3
ACAD_LAYOUTSELFREF
350
AEEB
  0
DICTIONARY
  5
AEE8
330
ACC0
100
AcDbDictionary
281
     1
  3
ACAD_LAYOUTSELFREF
350
AEE9
  0
XRECORD
  5
AF41
102
{ACAD_REACTORS
330
ACB2
102
}
330
ACB2
100
AcDbXrecord
280
     1
300
ACDLT
300
2014
300
ACDLT_F_S
  0
DICTIONARY
  5
AF23
102
{ACAD_REACTORS
330
ACB2
102
}
330
ACB2
100
AcDbDictionary
281
     1
  0
DICTIONARY
  5
AF3C
102
{ACAD_REACTORS
330
ACB2
102
}
330
ACB2
100
AcDbDictionary
281
     1
  3
Imperial24
350
AF3D
  0
DICTIONARY
  5
ACB3
102
{ACAD_REACTORS
330
ACB2
102
}
330
ACB2
100
AcDbDictionary
281
     1
  0
DICTIONARY
  5
ACBF
102
{ACAD_REACTORS
330
ACB2
102
}
330
ACB2
100
AcDbDictionary
281
     1
  3
Model
350
AF3E
  3
レイアウト1
350
AF3F
  0
DICTIONARY
  5
AEF1
102
{ACAD_REACTORS
330
ACB2
102
}
330
ACB2
100
AcDbDictionary
281
     1
  3
ByBlock
350
AEFA
  3
ByLayer
350
AEF2
  3
Global
350
AF02
  0
DICTIONARY
  5
AF38
102
{ACAD_REACTORS
330
ACB2
102
}
330
ACB2
100
AcDbDictionary
281
     1
  3
Standard
350
AF39
  0
DICTIONARY
  5
ACBC
102
{ACAD_REACTORS
330
ACB2
102
}
330
ACB2
100
AcDbDictionary
281
     1
  3
STANDARD
350
ACBD
  0
DICTIONARY
  5
ACBE
102
{ACAD_REACTORS
330
ACB2
102
}
330
ACB2
100
AcDbDictionary
281
     1
  0
ACDBDICTIONARYWDFLT
  5
AEEF
102
{ACAD_REACTORS
330
ACB2
102
}
330
ACB2
100
AcDbDictionary
281
     1
  3
Normal
350
AEF0
100
AcDbDictionaryWithDefault
340
AEF0
  0
DICTIONARY
  5
AF26
102
{ACAD_REACTORS
330
ACB2
102
}
330
ACB2
100
AcDbDictionary
281
     1
  3
A0
350
AF27
  3
A1
350
AF28
  3
A2
350
AF29
  3
A3
350
AF2A
  3
A4
350
AF2B
  3
A5
350
AF2C
  3
A6
350
AF2D
  3
A7
350
AF2E
  3
A8
350
AF2F
  3
A9
350
AF30
  3
B0
350
AF31
  3
B1
350
AF32
  3
B2
350
AF33
  3
B3
350
AF34
  3
B4
350
AF35
  3
B5
350
AF36
  3
B6
350
AF37
  0
DICTIONARY
  5
AF3A
102
{ACAD_REACTORS
330
ACB2
102
}
330
ACB2
100
AcDbDictionary
281
     1
  3
Imperial24
350
AF3B
  0
DICTIONARY
  5
AF24
102
{ACAD_REACTORS
330
ACB2
102
}
330
ACB2
100
AcDbDictionary
281
     1
  3
Standard
350
AF25
  0
DICTIONARY
  5
AF0A
102
{ACAD_REACTORS
330
ACB2
102
}
330
ACB2
100
AcDbDictionary
281
     1
  3
2dWireframe
350
AF10
  3
Basic
350
AF0F
  3
Brighten
350
AF16
  3
ColorChange
350
AF1A
  3
Conceptual
350
AF13
  3
Dim
350
AF15
  3
EdgeColorOff
350
AF22
  3
Facepattern
350
AF19
  3
Flat
350
AF0B
  3
FlatWithEdges
350
AF0C
  3
Gouraud
350
AF0D
  3
GouraudWithEdges
350
AF0E
  3
Hidden
350
AF12
  3
JitterOff
350
AF20
  3
Linepattern
350
AF18
  3
OverhangOff
350
AF21
  3
Realistic
350
AF14
  3
Shaded
350
AF1F
  3
Shaded with edges
350
AF1E
  3
Shades of Gray
350
AF1B
  3
Sketchy
350
AF1C
  3
Thicken
350
AF17
  3
Wireframe
350
AF11
  3
X-Ray
350
AF1D
  0
XRECORD
  5
AF5F
102
{ACAD_REACTORS
330
ACB2
102
}
330
ACB2
100
AcDbXrecord
280
     1
 90
        1
330
AF25
  0
DICTIONARY
  5
AF52
102
{ACAD_REACTORS
330
ACB2
102
}
330
ACB2
100
AcDbDictionary
281
     1
  3
CANNOSCALE
350
AF57
  3
CMLEADERSTYLE
350
AF54
  3
CTABLESTYLE
350
AF53
  3
CVIEWDETAILSTYLE
350
AF55
  3
CVIEWSECTIONSTYLE
350
AF56
  3
DIMASSOC
350
AF5A
  3
INDEXCTL
350
AF59
  3
SORTENTS
350
AF58
  3
XCLIPFRAME
350
AF5B
  0
XRECORD
  5
AF60
102
{ACAD_REACTORS
330
ACB2
102
}
330
ACB2
100
AcDbXrecord
280
     1
  1
DWGPROPS COOKIE
  2

  3

  4

  6

  7

  8
Yoshitsune
  9

300
=
301
=
302
=
303
=
304
=
305
=
306
=
307
=
308
=
309
=
 40
0.0000147685185185
 41
2450737.682546412
 42
2457192.638447847
  1

 90
        0
  0
XRECORD
  5
AF43
102
{ACAD_REACTORS
330
AF42
102
}
330
AF42
100
AcDbXrecord
280
     1
290
     1
  0
XRECORD
  5
AF45
102
{ACAD_REACTORS
330
AF44
102
}
330
AF44
100
AcDbXrecord
280
     1
290
     1
  0
XRECORD
  5
AF47
102
{ACAD_REACTORS
330
AF46
102
}
330
AF46
100
AcDbXrecord
280
     1
290
     1
  0
XRECORD
  5
AF49
102
{ACAD_REACTORS
330
AF48
102
}
330
AF48
100
AcDbXrecord
280
     1
290
     1
  0
XRECORD
  5
AF4B
102
{ACAD_REACTORS
330
AF4A
102
}
330
AF4A
100
AcDbXrecord
280
     1
290
     1
  0
XRECORD
  5
AF4D
102
{ACAD_REACTORS
330
AF4C
102
}
330
AF4C
100
AcDbXrecord
280
     1
290
     1
  0
XRECORD
  5
AF4F
102
{ACAD_REACTORS
330
AF4E
102
}
330
AF4E
100
AcDbXrecord
280
     1
290
     1
  0
XRECORD
  5
AF51
102
{ACAD_REACTORS
330
AF50
102
}
330
AF50
100
AcDbXrecord
280
     1
290
     1
  0
XRECORD
  5
AEEB
102
{ACAD_REACTORS
330
AEEA
102
}
330
AEEA
100
AcDbXrecord
280
     1
340
ACC4
  0
XRECORD
  5
AEE9
102
{ACAD_REACTORS
330
AEE8
102
}
330
AEE8
100
AcDbXrecord
280
     1
340
ACC0
  0
ACDBDETAILVIEWSTYLE
  5
AF3D
102
{ACAD_XDICTIONARY
360
AF98
102
}
102
{ACAD_REACTORS
330
AF3C
102
}
330
AF3C
100
AcDbModelDocViewStyle
 70
     0
  3
Imperial24
290
     0
100
AcDbDetailViewStyle
 70
     0
 71
     0
 90
        3
 71
     1
340
ACB7
 40
0.24
340
0
 40
0.24
300

 40
0.36
280
     3
 71
     2
340
ACBB
 90
       25
 71
     3
340
ACB7
 40
0.24
 90
        1
 40
0.75
 90
        1
300
%<\AcVar ViewType \f "%tc1">% %<\AcVar ViewDetailId>%\PSCALE %<\AcVar ViewScale \f "%sn">%
 71
     4
340
ACBB
 90
       25
340
ACBB
 90
       25
280
     0
  0
LAYOUT
  5
AF3E
102
{ACAD_XDICTIONARY
360
AF9A
102
}
102
{ACAD_REACTORS
330
ACBF
102
}
330
ACBF
100
AcDbPlotSettings
  1

  2
Canon LBP9100C
  4

  6

 40
0.0
 41
0.0
 42
0.0
 43
0.0
 44
0.0
 45
0.0
 46
0.0
 47
0.0
 48
0.0
 49
0.0
140
0.0
141
0.0
142
1.0
143
1.0
 70
  1712
 72
     0
 73
     0
 74
     0
  7

 75
     0
147
1.0
148
0.0
149
0.0
100
AcDbLayout
  1
Model
 70
     1
 71
     0
 10
0.0
 20
0.0
 11
12.0
 21
9.0
 12
0.0
 22
0.0
 32
0.0
 14
0.0
 24
0.0
 34
0.0
 15
0.0
 25
0.0
 35
0.0
146
0.0
 13
0.0
 23
0.0
 33
0.0
 16
1.0
 26
0.0
 36
0.0
 17
0.0
 27
1.0
 37
0.0
 76
     0
330
ACC4
331
AEE7
  0
LAYOUT
  5
AF3F
102
{ACAD_XDICTIONARY
360
AF9C
102
}
102
{ACAD_REACTORS
330
ACBF
102
}
330
ACBF
100
AcDbPlotSettings
  1

  2
Canon LBP9100C
  4

  6

 40
0.0
 41
0.0
 42
0.0
 43
0.0
 44
0.0
 45
0.0
 46
0.0
 47
0.0
 48
0.0
 49
0.0
140
0.0
141
0.0
142
1.0
143
1.0
 70
   688
 72
     0
 73
     0
 74
     5
  7

 75
    16
147
1.0
148
0.0
149
0.0
100
AcDbLayout
  1
レイアウト1
 70
     0
 71
     1
 10
0.0
 20
0.0
 11
420.0
 21
297.0
 12
0.0
 22
0.0
 32
0.0
 14
1.000000000000000E+20
 24
1.000000000000000E+20
 34
1.000000000000000E+20
 15
-1.000000000000000E+20
 25
-1.000000000000000E+20
 35
-1.000000000000000E+20
146
0.0
 13
0.0
 23
0.0
 33
0.0
 16
1.0
 26
0.0
 36
0.0
 17
0.0
 27
1.0
 37
0.0
 76
     0
330
ACC0
  0
MATERIAL
  5
AEFA
102
{ACAD_XDICTIONARY
360
AEFB
102
}
102
{ACAD_REACTORS
330
AEF1
102
}
330
AEF1
100
AcDbMaterial
  1
ByBlock
 72
     0
 43
0.0208333333333333
 43
0.0
 43
0.0
 43
0.0
 43
0.0
 43
0.0208333333333333
 43
0.0
 43
0.0
 43
0.0
 43
0.0
 43
1.0
 43
0.0
 43
0.0
 43
0.0
 43
0.0
 43
1.0
 77
     0
 47
0.0208333333333333
 47
0.0
 47
0.0
 47
0.0
 47
0.0
 47
0.0208333333333333
 47
0.0
 47
0.0
 47
0.0
 47
0.0
 47
1.0
 47
0.0
 47
0.0
 47
0.0
 47
0.0
 47
1.0
171
     0
 49
0.0208333333333333
 49
0.0
 49
0.0
 49
0.0
 49
0.0
 49
0.0208333333333333
 49
0.0
 49
0.0
 49
0.0
 49
0.0
 49
1.0
 49
0.0
 49
0.0
 49
0.0
 49
0.0
 49
1.0
175
     0
142
0.0208333333333333
142
0.0
142
0.0
142
0.0
142
0.0
142
0.0208333333333333
142
0.0
142
0.0
142
0.0
142
0.0
142
1.0
142
0.0
142
0.0
142
0.0
142
0.0
142
1.0
179
     0
144
0.0208333333333333
144
0.0
144
0.0
144
0.0
144
0.0
144
0.0208333333333333
144
0.0
144
0.0
144
0.0
144
0.0
144
1.0
144
0.0
144
0.0
144
0.0
144
0.0
144
1.0
147
0.0208333333333333
147
0.0
147
0.0
147
0.0
147
0.0
147
0.0208333333333333
147
0.0
147
0.0
147
0.0
147
0.0
147
1.0
147
0.0
147
0.0
147
0.0
147
0.0
147
1.0
  0
MATERIAL
  5
AEF2
102
{ACAD_XDICTIONARY
360
AEF3
102
}
102
{ACAD_REACTORS
330
AEF1
102
}
330
AEF1
100
AcDbMaterial
  1
ByLayer
 72
     0
 43
0.0208333333333333
 43
0.0
 43
0.0
 43
0.0
 43
0.0
 43
0.0208333333333333
 43
0.0
 43
0.0
 43
0.0
 43
0.0
 43
1.0
 43
0.0
 43
0.0
 43
0.0
 43
0.0
 43
1.0
 77
     0
 47
0.0208333333333333
 47
0.0
 47
0.0
 47
0.0
 47
0.0
 47
0.0208333333333333
 47
0.0
 47
0.0
 47
0.0
 47
0.0
 47
1.0
 47
0.0
 47
0.0
 47
0.0
 47
0.0
 47
1.0
171
     0
 49
0.0208333333333333
 49
0.0
 49
0.0
 49
0.0
 49
0.0
 49
0.0208333333333333
 49
0.0
 49
0.0
 49
0.0
 49
0.0
 49
1.0
 49
0.0
 49
0.0
 49
0.0
 49
0.0
 49
1.0
175
     0
142
0.0208333333333333
142
0.0
142
0.0
142
0.0
142
0.0
142
0.0208333333333333
142
0.0
142
0.0
142
0.0
142
0.0
142
1.0
142
0.0
142
0.0
142
0.0
142
0.0
142
1.0
179
     0
144
0.0208333333333333
144
0.0
144
0.0
144
0.0
144
0.0
144
0.0208333333333333
144
0.0
144
0.0
144
0.0
144
0.0
144
1.0
144
0.0
144
0.0
144
0.0
144
0.0
144
1.0
147
0.0208333333333333
147
0.0
147
0.0
147
0.0
147
0.0
147
0.0208333333333333
147
0.0
147
0.0
147
0.0
147
0.0
147
1.0
147
0.0
147
0.0
147
0.0
147
0.0
147
1.0
  0
MATERIAL
  5
AF02
102
{ACAD_XDICTIONARY
360
AF03
102
}
102
{ACAD_REACTORS
330
AEF1
102
}
330
AEF1
100
AcDbMaterial
  1
Global
 72
     0
 43
0.0208333333333333
 43
0.0
 43
0.0
 43
0.0
 43
0.0
 43
0.0208333333333333
 43
0.0
 43
0.0
 43
0.0
 43
0.0
 43
1.0
 43
0.0
 43
0.0
 43
0.0
 43
0.0
 43
1.0
 77
     0
 47
0.0208333333333333
 47
0.0
 47
0.0
 47
0.0
 47
0.0
 47
0.0208333333333333
 47
0.0
 47
0.0
 47
0.0
 47
0.0
 47
1.0
 47
0.0
 47
0.0
 47
0.0
 47
0.0
 47
1.0
171
     0
 49
0.0208333333333333
 49
0.0
 49
0.0
 49
0.0
 49
0.0
 49
0.0208333333333333
 49
0.0
 49
0.0
 49
0.0
 49
0.0
 49
1.0
 49
0.0
 49
0.0
 49
0.0
 49
0.0
 49
1.0
175
     0
142
0.0208333333333333
142
0.0
142
0.0
142
0.0
142
0.0
142
0.0208333333333333
142
0.0
142
0.0
142
0.0
142
0.0
142
1.0
142
0.0
142
0.0
142
0.0
142
0.0
142
1.0
179
     0
144
0.0208333333333333
144
0.0
144
0.0
144
0.0
144
0.0
144
0.0208333333333333
144
0.0
144
0.0
144
0.0
144
0.0
144
1.0
144
0.0
144
0.0
144
0.0
144
0.0
144
1.0
147
0.0208333333333333
147
0.0
147
0.0
147
0.0
147
0.0
147
0.0208333333333333
147
0.0
147
0.0
147
0.0
147
0.0
147
1.0
147
0.0
147
0.0
147
0.0
147
0.0
147
1.0
  0
MLEADERSTYLE
  5
AF39
102
{ACAD_REACTORS
330
AF38
102
}
330
AF38
100
AcDbMLeaderStyle
170
     2
171
     1
172
     0
 90
        2
 40
0.0
 41
0.0
173
     1
 91
-1056964608
340
ACB9
 92
       -2
290
     1
 42
0.09
291
     1
 43
0.36
  3
Standard
 44
0.18
300

342
ACB7
174
     1
178
     6
175
     1
176
     0
 93
-1056964608
 45
0.18
292
     0
297
     0
 46
0.18
 94
-1056964608
 47
1.0
 49
1.0
140
1.0
293
     1
141
0.0
294
     1
177
     0
142
1.0
295
     0
296
     0
143
0.125
1001
ACAD_MLEADERVER
1070
     2
  0
MLINESTYLE
  5
ACBD
102
{ACAD_REACTORS
330
ACBC
102
}
330
ACBC
100
AcDbMlineStyle
  2
STANDARD
 70
     0
  3

 62
   256
 51
90.0
 52
90.0
 71
     2
 49
0.5
 62
   256
  6
BYLAYER
 49
-0.5
 62
   256
  6
BYLAYER
  0
ACDBPLACEHOLDER
  5
AEF0
102
{ACAD_REACTORS
330
AEEF
102
}
330
AEEF
  0
SCALE
  5
AF27
102
{ACAD_REACTORS
330
AF26
102
}
330
AF26
100
AcDbScale
 70
     0
300
1:1
140
1.0
141
1.0
290
     1
  0
SCALE
  5
AF28
102
{ACAD_REACTORS
330
AF26
102
}
330
AF26
100
AcDbScale
 70
     0
300
1/128" = 1'-0"
140
0.0078125
141
12.0
290
     0
  0
SCALE
  5
AF29
102
{ACAD_REACTORS
330
AF26
102
}
330
AF26
100
AcDbScale
 70
     0
300
1/64" = 1'-0"
140
0.015625
141
12.0
290
     0
  0
SCALE
  5
AF2A
102
{ACAD_REACTORS
330
AF26
102
}
330
AF26
100
AcDbScale
 70
     0
300
1/32" = 1'-0"
140
0.03125
141
12.0
290
     0
  0
SCALE
  5
AF2B
102
{ACAD_REACTORS
330
AF26
102
}
330
AF26
100
AcDbScale
 70
     0
300
1/16" = 1'-0"
140
0.0625
141
12.0
290
     0
  0
SCALE
  5
AF2C
102
{ACAD_REACTORS
330
AF26
102
}
330
AF26
100
AcDbScale
 70
     0
300
3/32" = 1'-0"
140
0.09375
141
12.0
290
     0
  0
SCALE
  5
AF2D
102
{ACAD_REACTORS
330
AF26
102
}
330
AF26
100
AcDbScale
 70
     0
300
1/8" = 1'-0"
140
0.125
141
12.0
290
     0
  0
SCALE
  5
AF2E
102
{ACAD_REACTORS
330
AF26
102
}
330
AF26
100
AcDbScale
 70
     0
300
3/16" = 1'-0"
140
0.1875
141
12.0
290
     0
  0
SCALE
  5
AF2F
102
{ACAD_REACTORS
330
AF26
102
}
330
AF26
100
AcDbScale
 70
     0
300
1/4" = 1'-0"
140
0.25
141
12.0
290
     0
  0
SCALE
  5
AF30
102
{ACAD_REACTORS
330
AF26
102
}
330
AF26
100
AcDbScale
 70
     0
300
3/8" = 1'-0"
140
0.375
141
12.0
290
     0
  0
SCALE
  5
AF31
102
{ACAD_REACTORS
330
AF26
102
}
330
AF26
100
AcDbScale
 70
     0
300
1/2" = 1'-0"
140
0.5
141
12.0
290
     0
  0
SCALE
  5
AF32
102
{ACAD_REACTORS
330
AF26
102
}
330
AF26
100
AcDbScale
 70
     0
300
3/4" = 1'-0"
140
0.75
141
12.0
290
     0
  0
SCALE
  5
AF33
102
{ACAD_REACTORS
330
AF26
102
}
330
AF26
100
AcDbScale
 70
     0
300
1" = 1'-0"
140
1.0
141
12.0
290
     0
  0
SCALE
  5
AF34
102
{ACAD_REACTORS
330
AF26
102
}
330
AF26
100
AcDbScale
 70
     0
300
1-1/2" = 1'-0"
140
1.5
141
12.0
290
     0
  0
SCALE
  5
AF35
102
{ACAD_REACTORS
330
AF26
102
}
330
AF26
100
AcDbScale
 70
     0
300
3" = 1'-0"
140
3.0
141
12.0
290
     0
  0
SCALE
  5
AF36
102
{ACAD_REACTORS
330
AF26
102
}
330
AF26
100
AcDbScale
 70
     0
300
6" = 1'-0"
140
6.0
141
12.0
290
     0
  0
SCALE
  5
AF37
102
{ACAD_REACTORS
330
AF26
102
}
330
AF26
100
AcDbScale
 70
     0
300
1'-0" = 1'-0"
140
12.0
141
12.0
290
     0
  0
ACDBSECTIONVIEWSTYLE
  5
AF3B
102
{ACAD_XDICTIONARY
360
AF96
102
}
102
{ACAD_REACTORS
330
AF3A
102
}
330
AF3A
100
AcDbModelDocViewStyle
 70
     0
  3
Imperial24
290
     0
100
AcDbSectionViewStyle
 70
     0
 71
     0
 90
       78
 71
     1
340
ACB7
 40
0.24
340
0
340
0
 40
0.24
300
I, O, Q, S, X, Z
 40
0.48
 90
        3
 40
0.18
 90
        1
 71
     2
340
ACBB
 90
       25
340
ACBB
 90
       50
 40
0.24
 40
0.0
 40
0.24
 71
     3
340
ACB7
 40
0.24
 90
        1
 40
0.75
 90
        1
300
%<\AcVar ViewType \f "%tc1">% %<\AcVar ViewSectionStartId>%-%<\AcVar ViewSectionEndId>%\PSCALE %<\AcVar ViewScale \f "%sn">%
 71
     4
300
ANSI31
 40
1.0
 90
        0
290
     0
290
     0
 90
        6
 40
0.0
 40
1.570796326794896
 40
0.2617993877991494
 40
1.308996938995747
 40
-0.2617993877991494
 40
1.832595714594046
  0
TABLESTYLE
  5
AF25
102
{ACAD_XDICTIONARY
360
AF5D
102
}
102
{ACAD_REACTORS
330
AF24
102
}
330
AF24
100
AcDbTableStyle
  3
Standard
 70
     0
 71
     0
 40
0.06
 41
0.06
280
     0
281
     0
  7
STANDARD
140
0.18
170
     2
 62
     0
 63
     7
283
     0
274
    -2
284
     1
 64
     0
275
    -2
285
     1
 65
     0
276
    -2
286
     1
 66
     0
277
    -2
287
     1
 67
     0
278
    -2
288
     1
 68
     0
279
    -2
289
     1
 69
     0
  7
STANDARD
140
0.25
170
     5
 62
     0
 63
     7
283
     0
274
    -2
284
     1
 64
     0
275
    -2
285
     1
 65
     0
276
    -2
286
     1
 66
     0
277
    -2
287
     1
 67
     0
278
    -2
288
     1
 68
     0
279
    -2
289
     1
 69
     0
  7
STANDARD
140
0.18
170
     5
 62
     0
 63
     7
283
     0
274
    -2
284
     1
 64
     0
275
    -2
285
     1
 65
     0
276
    -2
286
     1
 66
     0
277
    -2
287
     1
 67
     0
278
    -2
288
     1
 68
     0
279
    -2
289
     1
 69
     0
  0
VISUALSTYLE
  5
AF10
102
{ACAD_XDICTIONARY
360
AF6E
102
}
102
{ACAD_REACTORS
330
AF0A
102
}
330
AF0A
100
AcDbVisualStyle
  2
2dWireframe
 70
     4
 71
     0
 72
     2
 73
     0
 90
        0
 40
-0.6
 41
-30.0
 62
     5
 63
     7
 74
     1
 91
        4
 64
     7
 65
   257
 75
     1
175
     1
 42
1.0
 92
        0
 66
   257
 43
1.0
 76
     1
 77
     6
 78
     2
 67
     7
 79
     5
170
     0
171
     0
290
     0
174
     0
 93
        1
 44
0.0
173
     0
291
     0
 45
0.0
1001
ACAD
1000
AcDbSavedByObjectVersion
1070
     0
  0
VISUALSTYLE
  5
AF0F
102
{ACAD_XDICTIONARY
360
AF6C
102
}
102
{ACAD_REACTORS
330
AF0A
102
}
330
AF0A
100
AcDbVisualStyle
  2
Basic
 70
     7
 71
     1
 72
     0
 73
     1
 90
        0
 40
-0.6
 41
-30.0
 62
     5
 63
     7
 74
     0
 91
        4
 64
     7
 65
   257
 75
     1
175
     1
 42
1.0
 92
        8
 66
     7
 43
1.0
 76
     1
 77
     6
 78
     2
 67
     7
 79
     5
170
     0
171
     0
290
     0
174
     0
 93
        1
 44
0.0
173
     0
291
     1
 45
0.0
1001
ACAD
1000
AcDbSavedByObjectVersion
1070
     0
  0
VISUALSTYLE
  5
AF16
102
{ACAD_XDICTIONARY
360
AF7A
102
}
102
{ACAD_REACTORS
330
AF0A
102
}
330
AF0A
100
AcDbVisualStyle
  2
Brighten
 70
    12
 71
     2
 72
     2
 73
     0
 90
        0
 40
-0.6
 41
-30.0
 62
     5
 63
     7
 74
     1
 91
        4
 64
     7
 65
   257
 75
     1
175
     1
 42
1.0
 92
        8
 66
     7
 43
1.0
 76
     1
 77
     6
 78
     2
 67
     7
 79
     5
170
     0
171
     0
290
     0
174
     0
 93
        1
 44
50.0
173
     0
291
     1
 45
0.0
1001
ACAD
1000
AcDbSavedByObjectVersion
1070
     0
  0
VISUALSTYLE
  5
AF1A
102
{ACAD_XDICTIONARY
360
AF82
102
}
102
{ACAD_REACTORS
330
AF0A
102
}
330
AF0A
100
AcDbVisualStyle
  2
ColorChange
 70
    16
 71
     2
 72
     2
 73
     3
 90
        0
 40
-0.6
 41
-30.0
 62
     5
 63
     8
 74
     1
 91
        4
 64
     7
 65
   257
 75
     1
175
     1
 42
1.0
 92
        8
 66
     8
 43
1.0
 76
     1
 77
     6
 78
     2
 67
     7
 79
     5
170
     0
171
     0
290
     0
174
     0
 93
        1
 44
0.0
173
     0
291
     1
 45
0.0
1001
ACAD
1000
AcDbSavedByObjectVersion
1070
     0
  0
VISUALSTYLE
  5
AF13
102
{ACAD_XDICTIONARY
360
AF74
102
}
102
{ACAD_REACTORS
330
AF0A
102
}
330
AF0A
100
AcDbVisualStyle
  2
Conceptual
 70
     9
 71
     3
 72
     2
 73
     0
 90
        0
 40
-0.6
 41
-30.0
 62
     5
 63
     7
 74
     2
 91
        2
 64
     7
 65
   257
 75
     1
175
     1
 42
179.0
 92
        8
 66
     7
 43
1.0
 76
     1
 77
     6
 78
     2
 67
     7
 79
     3
170
     0
171
     0
290
     0
174
     0
 93
        1
 44
0.0
173
     0
291
     0
 45
0.0
1001
ACAD
1000
AcDbSavedByObjectVersion
1070
     0
  0
VISUALSTYLE
  5
AF15
102
{ACAD_XDICTIONARY
360
AF78
102
}
102
{ACAD_REACTORS
330
AF0A
102
}
330
AF0A
100
AcDbVisualStyle
  2
Dim
 70
    11
 71
     2
 72
     2
 73
     0
 90
        0
 40
-0.6
 41
-30.0
 62
     5
 63
     7
 74
     1
 91
        4
 64
     7
 65
   257
 75
     1
175
     1
 42
1.0
 92
        8
 66
     7
 43
1.0
 76
     1
 77
     6
 78
     2
 67
     7
 79
     5
170
     0
171
     0
290
     0
174
     0
 93
        1
 44
-50.0
173
     0
291
     1
 45
0.0
1001
ACAD
1000
AcDbSavedByObjectVersion
1070
     0
  0
VISUALSTYLE
  5
AF22
102
{ACAD_XDICTIONARY
360
AF92
102
}
102
{ACAD_REACTORS
330
AF0A
102
}
330
AF0A
100
AcDbVisualStyle
  2
EdgeColorOff
 70
    22
 71
     2
 72
     2
 73
     0
 90
        0
 40
-0.6
 41
-30.0
 62
     5
 63
     7
 74
     1
 91
        4
 64
     7
 65
   257
 75
     1
175
     1
 42
1.0
 92
        8
 66
     7
 43
1.0
 76
     1
 77
     6
 78
     2
 67
     7
 79
     5
170
     0
171
     0
290
     0
174
     0
 93
        1
 44
0.0
173
     0
291
     1
 45
0.0
1001
ACAD
1000
AcDbSavedByObjectVersion
1070
     0
  0
VISUALSTYLE
  5
AF19
102
{ACAD_XDICTIONARY
360
AF80
102
}
102
{ACAD_REACTORS
330
AF0A
102
}
330
AF0A
100
AcDbVisualStyle
  2
Facepattern
 70
    15
 71
     2
 72
     2
 73
     0
 90
        0
 40
-0.6
 41
-30.0
 62
     5
 63
     7
 74
     1
 91
        4
 64
     7
 65
   257
 75
     1
175
     1
 42
1.0
 92
        8
 66
     7
 43
1.0
 76
     1
 77
     6
 78
     2
 67
     7
 79
     5
170
     0
171
     0
290
     0
174
     0
 93
        1
 44
0.0
173
     0
291
     1
 45
0.0
1001
ACAD
1000
AcDbSavedByObjectVersion
1070
     0
  0
VISUALSTYLE
  5
AF0B
102
{ACAD_XDICTIONARY
360
AF64
102
}
102
{ACAD_REACTORS
330
AF0A
102
}
330
AF0A
100
AcDbVisualStyle
  2
Flat
 70
     0
 71
     2
 72
     1
 73
     1
 90
        2
 40
-0.6
 41
30.0
 62
     5
 63
     7
 74
     0
 91
        0
 64
     7
 65
   257
 75
     1
175
     1
 42
1.0
 92
        8
 66
     7
 43
1.0
 76
     1
 77
     6
 78
     2
 67
     7
 79
     5
170
     0
171
     0
290
     0
174
     0
 93
       13
 44
0.0
173
     0
291
     1
 45
0.0
1001
ACAD
1000
AcDbSavedByObjectVersion
1070
     0
  0
VISUALSTYLE
  5
AF0C
102
{ACAD_XDICTIONARY
360
AF66
102
}
102
{ACAD_REACTORS
330
AF0A
102
}
330
AF0A
100
AcDbVisualStyle
  2
FlatWithEdges
 70
     1
 71
     2
 72
     1
 73
     1
 90
        2
 40
-0.6
 41
30.0
 62
     5
 63
     7
 74
     1
 91
        0
 64
     7
 65
   257
 75
     1
175
     1
 42
1.0
 92
        0
 66
   257
 43
1.0
 76
     1
 77
     6
 78
     2
 67
     7
 79
     5
170
     0
171
     0
290
     0
174
     0
 93
       13
 44
0.0
173
     0
291
     1
 45
0.0
1001
ACAD
1000
AcDbSavedByObjectVersion
1070
     0
  0
VISUALSTYLE
  5
AF0D
102
{ACAD_XDICTIONARY
360
AF68
102
}
102
{ACAD_REACTORS
330
AF0A
102
}
330
AF0A
100
AcDbVisualStyle
  2
Gouraud
 70
     2
 71
     2
 72
     2
 73
     1
 90
        2
 40
-0.6
 41
30.0
 62
     5
 63
     7
 74
     0
 91
        0
 64
     7
 65
   257
 75
     1
175
     1
 42
1.0
 92
        0
 66
     7
 43
1.0
 76
     1
 77
     6
 78
     2
 67
     7
 79
     5
170
     0
171
     0
290
     0
174
     0
 93
       13
 44
0.0
173
     0
291
     1
 45
0.0
1001
ACAD
1000
AcDbSavedByObjectVersion
1070
     0
  0
VISUALSTYLE
  5
AF0E
102
{ACAD_XDICTIONARY
360
AF6A
102
}
102
{ACAD_REACTORS
330
AF0A
102
}
330
AF0A
100
AcDbVisualStyle
  2
GouraudWithEdges
 70
     3
 71
     2
 72
     2
 73
     1
 90
        2
 40
-0.6
 41
30.0
 62
     5
 63
     7
 74
     1
 91
        0
 64
     7
 65
   257
 75
     1
175
     1
 42
1.0
 92
        0
 66
   257
 43
1.0
 76
     1
 77
     6
 78
     2
 67
     7
 79
     5
170
     0
171
     0
290
     0
174
     0
 93
       13
 44
0.0
173
     0
291
     1
 45
0.0
1001
ACAD
1000
AcDbSavedByObjectVersion
1070
     0
  0
VISUALSTYLE
  5
AF12
102
{ACAD_XDICTIONARY
360
AF72
102
}
102
{ACAD_REACTORS
330
AF0A
102
}
330
AF0A
100
AcDbVisualStyle
  2
Hidden
 70
     6
 71
     1
 72
     2
 73
     2
 90
        0
 40
-0.6
 41
-30.0
 62
     5
 63
     7
 74
     2
 91
        2
 64
     7
 65
   257
 75
     2
175
     1
 42
40.0
 92
        0
 66
   257
 43
1.0
 76
     1
 77
     6
 78
     2
 67
     7
 79
     3
170
     0
171
     0
290
     0
174
     0
 93
        1
 44
0.0
173
     0
291
     0
 45
0.0
1001
ACAD
1000
AcDbSavedByObjectVersion
1070
     0
  0
VISUALSTYLE
  5
AF20
102
{ACAD_XDICTIONARY
360
AF8E
102
}
102
{ACAD_REACTORS
330
AF0A
102
}
330
AF0A
100
AcDbVisualStyle
  2
JitterOff
 70
    20
 71
     2
 72
     2
 73
     0
 90
        0
 40
-0.6
 41
-30.0
 62
     5
 63
     7
 74
     1
 91
        4
 64
     7
 65
   257
 75
     1
175
     1
 42
1.0
 92
       10
 66
     7
 43
1.0
 76
     1
 77
     6
 78
     2
 67
     7
 79
     5
170
     0
171
     0
290
     0
174
     0
 93
        1
 44
0.0
173
     0
291
     1
 45
0.0
1001
ACAD
1000
AcDbSavedByObjectVersion
1070
     0
  0
VISUALSTYLE
  5
AF18
102
{ACAD_XDICTIONARY
360
AF7E
102
}
102
{ACAD_REACTORS
330
AF0A
102
}
330
AF0A
100
AcDbVisualStyle
  2
Linepattern
 70
    14
 71
     2
 72
     2
 73
     0
 90
        0
 40
-0.6
 41
-30.0
 62
     5
 63
     7
 74
     1
 91
        4
 64
     7
 65
   257
 75
     7
175
     7
 42
1.0
 92
        8
 66
     7
 43
1.0
 76
     1
 77
     6
 78
     2
 67
     7
 79
     5
170
     0
171
     0
290
     0
174
     0
 93
        1
 44
0.0
173
     0
291
     1
 45
0.0
1001
ACAD
1000
AcDbSavedByObjectVersion
1070
     0
  0
VISUALSTYLE
  5
AF21
102
{ACAD_XDICTIONARY
360
AF90
102
}
102
{ACAD_REACTORS
330
AF0A
102
}
330
AF0A
100
AcDbVisualStyle
  2
OverhangOff
 70
    21
 71
     2
 72
     2
 73
     0
 90
        0
 40
-0.6
 41
-30.0
 62
     5
 63
     7
 74
     1
 91
        4
 64
     7
 65
   257
 75
     1
175
     1
 42
1.0
 92
        9
 66
     7
 43
1.0
 76
     1
 77
     6
 78
     2
 67
     7
 79
     5
170
     0
171
     0
290
     0
174
     0
 93
        1
 44
0.0
173
     0
291
     1
 45
0.0
1001
ACAD
1000
AcDbSavedByObjectVersion
1070
     0
  0
VISUALSTYLE
  5
AF14
102
{ACAD_XDICTIONARY
360
AF76
102
}
102
{ACAD_REACTORS
330
AF0A
102
}
330
AF0A
100
AcDbVisualStyle
  2
Realistic
 70
     8
 71
     2
 72
     3
 73
     0
 90
        2
 40
-0.6
 41
30.0
 62
     5
 63
     7
 74
     0
 91
        0
 64
     7
 65
   257
 75
     1
175
     1
 42
1.0
 92
        8
 66
   257
 43
1.0
 76
     1
 77
     6
 78
     2
 67
     7
 79
     3
170
     0
171
     0
290
     0
174
     0
 93
       13
 44
0.0
173
     0
291
     0
 45
0.0
1001
ACAD
1000
AcDbSavedByObjectVersion
1070
     0
  0
VISUALSTYLE
  5
AF1F
102
{ACAD_XDICTIONARY
360
AF8C
102
}
102
{ACAD_REACTORS
330
AF0A
102
}
330
AF0A
100
AcDbVisualStyle
  2
Shaded
 70
    27
 71
     2
 72
     2
 73
     1
 90
        2
 40
-0.6
 41
30.0
 62
     5
 63
     7
 74
     0
 91
        4
 64
     7
 65
   257
 75
     1
175
     1
 42
1.0
 92
        8
 66
   257
 43
1.0
 76
     1
 77
     6
 78
     2
 67
     8
 79
     3
170
     0
171
     0
290
     0
174
     0
 93
        5
 44
0.0
173
     0
291
     0
 45
0.0
1001
ACAD
1000
AcDbSavedByObjectVersion
1070
     0
  0
VISUALSTYLE
  5
AF1E
102
{ACAD_XDICTIONARY
360
AF8A
102
}
102
{ACAD_REACTORS
330
AF0A
102
}
330
AF0A
100
AcDbVisualStyle
  2
Shaded with edges
 70
    26
 71
     2
 72
     2
 73
     1
 90
        2
 40
-0.6
 41
30.0
 62
     5
 63
     7
 74
     1
 91
       10
 64
     7
 65
   257
 75
     2
175
     1
 42
1.0
 92
        8
 66
   257
 43
1.0
 76
     1
 77
     6
 78
     2
 67
     7
 79
     3
170
     0
171
     0
290
     0
174
     0
 93
        5
 44
0.0
173
     0
291
     0
 45
0.0
1001
ACAD
1000
AcDbSavedByObjectVersion
1070
     0
  0
VISUALSTYLE
  5
AF1B
102
{ACAD_XDICTIONARY
360
AF84
102
}
102
{ACAD_REACTORS
330
AF0A
102
}
330
AF0A
100
AcDbVisualStyle
  2
Shades of Gray
 70
    23
 71
     2
 72
     2
 73
     3
 90
        0
 40
-0.6
 41
-30.0
 62
     5
 63
     7
 74
     2
 91
        2
 64
     7
 65
     7
 75
     1
175
     1
 42
40.0
 92
        8
 66
     7
 43
1.0
 76
     1
 77
     6
 78
     2
 67
     7
 79
     3
170
     0
171
     0
290
     0
174
     0
 93
        1
 44
0.0
173
     0
291
     0
 45
0.0
1001
ACAD
1000
AcDbSavedByObjectVersion
1070
     0
  0
VISUALSTYLE
  5
AF1C
102
{ACAD_XDICTIONARY
360
AF86
102
}
102
{ACAD_REACTORS
330
AF0A
102
}
330
AF0A
100
AcDbVisualStyle
  2
Sketchy
 70
    24
 71
     1
 72
     2
 73
     2
 90
        0
 40
-0.6
 41
-30.0
 62
     5
 63
     7
 74
     2
 91
        2
 64
     7
 65
     7
 75
     1
175
     1
 42
40.0
 92
       11
 66
     7
 43
1.0
 76
     1
 77
     6
 78
     2
 67
     7
 79
     6
170
     0
171
     0
290
     0
174
     0
 93
        1
 44
0.0
173
     0
291
     0
 45
0.0
1001
ACAD
1000
AcDbSavedByObjectVersion
1070
     0
  0
VISUALSTYLE
  5
AF17
102
{ACAD_XDICTIONARY
360
AF7C
102
}
102
{ACAD_REACTORS
330
AF0A
102
}
330
AF0A
100
AcDbVisualStyle
  2
Thicken
 70
    13
 71
     2
 72
     2
 73
     0
 90
        0
 40
-0.6
 41
-30.0
 62
     5
 63
     7
 74
     1
 91
        4
 64
     7
 65
   257
 75
     1
175
     1
 42
1.0
 92
       12
 66
     7
 43
1.0
 76
     1
 77
     6
 78
     2
 67
     7
 79
     5
170
     0
171
     0
290
     0
174
     0
 93
        1
 44
0.0
173
     0
291
     1
 45
0.0
1001
ACAD
1000
AcDbSavedByObjectVersion
1070
     0
  0
VISUALSTYLE
  5
AF11
102
{ACAD_XDICTIONARY
360
AF70
102
}
102
{ACAD_REACTORS
330
AF0A
102
}
330
AF0A
100
AcDbVisualStyle
  2
Wireframe
 70
     5
 71
     0
 72
     2
 73
     0
 90
        0
 40
-0.6
 41
-30.0
 62
     5
 63
     7
 74
     1
 91
        4
 64
     7
 65
   257
 75
     1
175
     1
 42
1.0
 92
        0
 66
   257
 43
1.0
 76
     1
 77
     6
 78
     2
 67
     7
 79
     3
170
     0
171
     0
290
     0
174
     0
 93
        1
 44
0.0
173
     0
291
     0
 45
0.0
1001
ACAD
1000
AcDbSavedByObjectVersion
1070
     0
  0
VISUALSTYLE
  5
AF1D
102
{ACAD_XDICTIONARY
360
AF88
102
}
102
{ACAD_REACTORS
330
AF0A
102
}
330
AF0A
100
AcDbVisualStyle
  2
X-Ray
 70
    25
 71
     2
 72
     2
 73
     1
 90
        1
 40
0.5
 41
-30.0
 62
     5
 63
     7
 74
     1
 91
        0
 64
     7
 65
   257
 75
     1
175
     1
 42
1.0
 92
        8
 66
     7
 43
1.0
 76
     1
 77
     6
 78
     2
 67
     7
 79
     3
170
     0
171
     0
290
     0
174
     0
 93
       13
 44
0.0
173
     0
291
     0
 45
0.0
1001
ACAD
1000
AcDbSavedByObjectVersion
1070
     0
  0
DICTIONARYVAR
  5
AF57
102
{ACAD_REACTORS
330
AF52
102
}
330
AF52
100
DictionaryVariables
280
     0
  1
1:1
  0
DICTIONARYVAR
  5
AF54
102
{ACAD_REACTORS
330
AF52
102
}
330
AF52
100
DictionaryVariables
280
     0
  1
STANDARD
  0
DICTIONARYVAR
  5
AF53
102
{ACAD_REACTORS
330
AF52
102
}
330
AF52
100
DictionaryVariables
280
     0
  1
STANDARD
  0
DICTIONARYVAR
  5
AF55
102
{ACAD_REACTORS
330
AF52
102
}
330
AF52
100
DictionaryVariables
280
     0
  1
Imperial24
  0
DICTIONARYVAR
  5
AF56
102
{ACAD_REACTORS
330
AF52
102
}
330
AF52
100
DictionaryVariables
280
     0
  1
Imperial24
  0
DICTIONARYVAR
  5
AF5A
102
{ACAD_REACTORS
330
AF52
102
}
330
AF52
100
DictionaryVariables
280
     0
  1
1
  0
DICTIONARYVAR
  5
AF59
102
{ACAD_REACTORS
330
AF52
102
}
330
AF52
100
DictionaryVariables
280
     0
  1
0
  0
DICTIONARYVAR
  5
AF58
102
{ACAD_REACTORS
330
AF52
102
}
330
AF52
100
DictionaryVariables
280
     0
  1
127
  0
DICTIONARYVAR
  5
AF5B
102
{ACAD_REACTORS
330
AF52
102
}
330
AF52
100
DictionaryVariables
280
     0
  1
2
  0
DICTIONARY
  5
AF98
330
AF3D
100
AcDbDictionary
280
     1
281
     1
  3
ACAD_XREC_ROUNDTRIP
360
AF99
  0
DICTIONARY
  5
AF9A
330
AF3E
100
AcDbDictionary
280
     1
281
     1
  3
ACAD_XREC_ROUNDTRIP
360
AF9B
  0
DICTIONARY
  5
AF9C
330
AF3F
100
AcDbDictionary
280
     1
281
     1
  3
ACAD_XREC_ROUNDTRIP
360
AF9D
  0
DICTIONARY
  5
AEFB
330
AEFA
100
AcDbDictionary
280
     1
281
     1
  3
ACAD_XREC_ROUNDTRIP
360
AF62
  3
BUMPTILE
360
AEFD
  3
DIFFUSETILE
360
AEFC
  3
OPACITYTILE
360
AF00
  3
REFLECTIONTILE
360
AEFF
  3
REFRACTIONTILE
360
AF01
  3
SPECULARTILE
360
AEFE
  0
DICTIONARY
  5
AEF3
330
AEF2
100
AcDbDictionary
280
     1
281
     1
  3
ACAD_XREC_ROUNDTRIP
360
AF61
  3
BUMPTILE
360
AEF5
  3
DIFFUSETILE
360
AEF4
  3
OPACITYTILE
360
AEF8
  3
REFLECTIONTILE
360
AEF7
  3
REFRACTIONTILE
360
AEF9
  3
SPECULARTILE
360
AEF6
  0
DICTIONARY
  5
AF03
330
AF02
100
AcDbDictionary
280
     1
281
     1
  3
ACAD_XREC_ROUNDTRIP
360
AF63
  3
BUMPTILE
360
AF05
  3
DIFFUSETILE
360
AF04
  3
OPACITYTILE
360
AF08
  3
REFLECTIONTILE
360
AF07
  3
REFRACTIONTILE
360
AF09
  3
SPECULARTILE
360
AF06
  0
DICTIONARY
  5
AF96
330
AF3B
100
AcDbDictionary
280
     1
281
     1
  3
ACAD_XREC_ROUNDTRIP
360
AF97
  0
DICTIONARY
  5
AF5D
330
AF25
100
AcDbDictionary
280
     1
281
     1
  3
ACAD_ROUNDTRIP_2008_TABLESTYLE_CELLSTYLEMAP
360
AF5E
  3
ACAD_XREC_ROUNDTRIP
360
AF94
  0
DICTIONARY
  5
AF6E
330
AF10
100
AcDbDictionary
280
     1
281
     1
  3
ACAD_XREC_ROUNDTRIP
360
AF6F
  0
DICTIONARY
  5
AF6C
330
AF0F
100
AcDbDictionary
280
     1
281
     1
  3
ACAD_XREC_ROUNDTRIP
360
AF6D
  0
DICTIONARY
  5
AF7A
330
AF16
100
AcDbDictionary
280
     1
281
     1
  3
ACAD_XREC_ROUNDTRIP
360
AF7B
  0
DICTIONARY
  5
AF82
330
AF1A
100
AcDbDictionary
280
     1
281
     1
  3
ACAD_XREC_ROUNDTRIP
360
AF83
  0
DICTIONARY
  5
AF74
330
AF13
100
AcDbDictionary
280
     1
281
     1
  3
ACAD_XREC_ROUNDTRIP
360
AF75
  0
DICTIONARY
  5
AF78
330
AF15
100
AcDbDictionary
280
     1
281
     1
  3
ACAD_XREC_ROUNDTRIP
360
AF79
  0
DICTIONARY
  5
AF92
330
AF22
100
AcDbDictionary
280
     1
281
     1
  3
ACAD_XREC_ROUNDTRIP
360
AF93
  0
DICTIONARY
  5
AF80
330
AF19
100
AcDbDictionary
280
     1
281
     1
  3
ACAD_XREC_ROUNDTRIP
360
AF81
  0
DICTIONARY
  5
AF64
330
AF0B
100
AcDbDictionary
280
     1
281
     1
  3
ACAD_XREC_ROUNDTRIP
360
AF65
  0
DICTIONARY
  5
AF66
330
AF0C
100
AcDbDictionary
280
     1
281
     1
  3
ACAD_XREC_ROUNDTRIP
360
AF67
  0
DICTIONARY
  5
AF68
330
AF0D
100
AcDbDictionary
280
     1
281
     1
  3
ACAD_XREC_ROUNDTRIP
360
AF69
  0
DICTIONARY
  5
AF6A
330
AF0E
100
AcDbDictionary
280
     1
281
     1
  3
ACAD_XREC_ROUNDTRIP
360
AF6B
  0
DICTIONARY
  5
AF72
330
AF12
100
AcDbDictionary
280
     1
281
     1
  3
ACAD_XREC_ROUNDTRIP
360
AF73
  0
DICTIONARY
  5
AF8E
330
AF20
100
AcDbDictionary
280
     1
281
     1
  3
ACAD_XREC_ROUNDTRIP
360
AF8F
  0
DICTIONARY
  5
AF7E
330
AF18
100
AcDbDictionary
280
     1
281
     1
  3
ACAD_XREC_ROUNDTRIP
360
AF7F
  0
DICTIONARY
  5
AF90
330
AF21
100
AcDbDictionary
280
     1
281
     1
  3
ACAD_XREC_ROUNDTRIP
360
AF91
  0
DICTIONARY
  5
AF76
330
AF14
100
AcDbDictionary
280
     1
281
     1
  3
ACAD_XREC_ROUNDTRIP
360
AF77
  0
DICTIONARY
  5
AF8C
330
AF1F
100
AcDbDictionary
280
     1
281
     1
  3
ACAD_XREC_ROUNDTRIP
360
AF8D
  0
DICTIONARY
  5
AF8A
330
AF1E
100
AcDbDictionary
280
     1
281
     1
  3
ACAD_XREC_ROUNDTRIP
360
AF8B
  0
DICTIONARY
  5
AF84
330
AF1B
100
AcDbDictionary
280
     1
281
     1
  3
ACAD_XREC_ROUNDTRIP
360
AF85
  0
DICTIONARY
  5
AF86
330
AF1C
100
AcDbDictionary
280
     1
281
     1
  3
ACAD_XREC_ROUNDTRIP
360
AF87
  0
DICTIONARY
  5
AF7C
330
AF17
100
AcDbDictionary
280
     1
281
     1
  3
ACAD_XREC_ROUNDTRIP
360
AF7D
  0
DICTIONARY
  5
AF70
330
AF11
100
AcDbDictionary
280
     1
281
     1
  3
ACAD_XREC_ROUNDTRIP
360
AF71
  0
DICTIONARY
  5
AF88
330
AF1D
100
AcDbDictionary
280
     1
281
     1
  3
ACAD_XREC_ROUNDTRIP
360
AF89
  0
XRECORD
  5
AF99
102
{ACAD_REACTORS
330
AF98
102
}
330
AF98
100
AcDbXrecord
280
     1
102
DISPLAYNAME
  1
Imperial24
102
FLAGS
 90
        0
  0
XRECORD
  5
AF9B
102
{ACAD_REACTORS
330
AF9A
102
}
330
AF9A
100
AcDbXrecord
280
     1
102
SHADEPLOT
 70
     0
102
SHADEPLOTRESLEVEL
 70
     2
102
SHADEPLOTCUSTOMDPI
 70
   300
  0
XRECORD
  5
AF9D
102
{ACAD_REACTORS
330
AF9C
102
}
330
AF9C
100
AcDbXrecord
280
     1
102
SHADEPLOT
 70
     0
102
SHADEPLOTRESLEVEL
 70
     2
102
SHADEPLOTCUSTOMDPI
 70
   300
  0
XRECORD
  5
AF62
102
{ACAD_REACTORS
330
AEFB
102
}
330
AEFB
100
AcDbXrecord
280
     1
102
MATERIAL
148
0.0
149
0.0
149
0.0
 93
        0
 94
      127
282
     0
 72
     0
 77
     0
171
     0
175
     0
179
     0
273
     0
  0
XRECORD
  5
AEFD
102
{ACAD_REACTORS
330
AEFB
102
}
330
AEFB
100
AcDbXrecord
280
     1
270
     1
271
     1
  0
XRECORD
  5
AEFC
102
{ACAD_REACTORS
330
AEFB
102
}
330
AEFB
100
AcDbXrecord
280
     1
270
     1
271
     1
  0
XRECORD
  5
AF00
102
{ACAD_REACTORS
330
AEFB
102
}
330
AEFB
100
AcDbXrecord
280
     1
270
     1
271
     1
  0
XRECORD
  5
AEFF
102
{ACAD_REACTORS
330
AEFB
102
}
330
AEFB
100
AcDbXrecord
280
     1
270
     1
271
     1
  0
XRECORD
  5
AF01
102
{ACAD_REACTORS
330
AEFB
102
}
330
AEFB
100
AcDbXrecord
280
     1
270
     1
271
     1
  0
XRECORD
  5
AEFE
102
{ACAD_REACTORS
330
AEFB
102
}
330
AEFB
100
AcDbXrecord
280
     1
270
     1
271
     1
  0
XRECORD
  5
AF61
102
{ACAD_REACTORS
330
AEF3
102
}
330
AEF3
100
AcDbXrecord
280
     1
102
MATERIAL
148
0.0
149
0.0
149
0.0
 93
        0
 94
      127
282
     0
 72
     0
 77
     0
171
     0
175
     0
179
     0
273
     0
  0
XRECORD
  5
AEF5
102
{ACAD_REACTORS
330
AEF3
102
}
330
AEF3
100
AcDbXrecord
280
     1
270
     1
271
     1
  0
XRECORD
  5
AEF4
102
{ACAD_REACTORS
330
AEF3
102
}
330
AEF3
100
AcDbXrecord
280
     1
270
     1
271
     1
  0
XRECORD
  5
AEF8
102
{ACAD_REACTORS
330
AEF3
102
}
330
AEF3
100
AcDbXrecord
280
     1
270
     1
271
     1
  0
XRECORD
  5
AEF7
102
{ACAD_REACTORS
330
AEF3
102
}
330
AEF3
100
AcDbXrecord
280
     1
270
     1
271
     1
  0
XRECORD
  5
AEF9
102
{ACAD_REACTORS
330
AEF3
102
}
330
AEF3
100
AcDbXrecord
280
     1
270
     1
271
     1
  0
XRECORD
  5
AEF6
102
{ACAD_REACTORS
330
AEF3
102
}
330
AEF3
100
AcDbXrecord
280
     1
270
     1
271
     1
  0
XRECORD
  5
AF63
102
{ACAD_REACTORS
330
AF03
102
}
330
AF03
100
AcDbXrecord
280
     1
102
MATERIAL
148
0.0
149
0.0
149
0.0
 93
        0
 94
      127
282
     0
 72
     0
 77
     0
171
     0
175
     0
179
     0
273
     0
  0
XRECORD
  5
AF05
102
{ACAD_REACTORS
330
AF03
102
}
330
AF03
100
AcDbXrecord
280
     1
270
     1
271
     1
  0
XRECORD
  5
AF04
102
{ACAD_REACTORS
330
AF03
102
}
330
AF03
100
AcDbXrecord
280
     1
270
     1
271
     1
  0
XRECORD
  5
AF08
102
{ACAD_REACTORS
330
AF03
102
}
330
AF03
100
AcDbXrecord
280
     1
270
     1
271
     1
  0
XRECORD
  5
AF07
102
{ACAD_REACTORS
330
AF03
102
}
330
AF03
100
AcDbXrecord
280
     1
270
     1
271
     1
  0
XRECORD
  5
AF09
102
{ACAD_REACTORS
330
AF03
102
}
330
AF03
100
AcDbXrecord
280
     1
270
     1
271
     1
  0
XRECORD
  5
AF06
102
{ACAD_REACTORS
330
AF03
102
}
330
AF03
100
AcDbXrecord
280
     1
270
     1
271
     1
  0
XRECORD
  5
AF97
102
{ACAD_REACTORS
330
AF96
102
}
330
AF96
100
AcDbXrecord
280
     1
102
DISPLAYNAME
  1
Imperial24
102
FLAGS
 90
        0
  0
CELLSTYLEMAP
  5
AF5E
102
{ACAD_REACTORS
330
AF5D
102
}
330
AF5D
100
AcDbCellStyleMap
 90
        3
300
CELLSTYLE
  1
TABLEFORMAT_BEGIN
 90
        5
170
     1
 91
        0
 92
    32768
 62
   257
 93
        1
300
CONTENTFORMAT
  1
CONTENTFORMAT_BEGIN
 90
        0
 91
        0
 92
      512
 93
        0
300

 40
0.0
140
1.0
 94
        5
 62
     0
340
ACB7
144
0.25
309
CONTENTFORMAT_END
171
     0
 94
        0
309
TABLEFORMAT_END
  1
CELLSTYLE_BEGIN
 90
        1
 91
        1
300
_TITLE
309
CELLSTYLE_END
300
CELLSTYLE
  1
TABLEFORMAT_BEGIN
 90
        5
170
     1
 91
        0
 92
        0
 62
   257
 93
        1
300
CONTENTFORMAT
  1
CONTENTFORMAT_BEGIN
 90
        0
 91
        0
 92
      512
 93
        0
300

 40
0.0
140
1.0
 94
        5
 62
     0
340
ACB7
144
0.18
309
CONTENTFORMAT_END
171
     0
 94
        0
309
TABLEFORMAT_END
  1
CELLSTYLE_BEGIN
 90
        2
 91
        1
300
_HEADER
309
CELLSTYLE_END
300
CELLSTYLE
  1
TABLEFORMAT_BEGIN
 90
        5
170
     1
 91
        0
 92
        0
 62
   257
 93
        1
300
CONTENTFORMAT
  1
CONTENTFORMAT_BEGIN
 90
        0
 91
        0
 92
      512
 93
        0
300

 40
0.0
140
1.0
 94
        2
 62
     0
340
ACB7
144
0.18
309
CONTENTFORMAT_END
171
     0
 94
        0
309
TABLEFORMAT_END
  1
CELLSTYLE_BEGIN
 90
        3
 91
        2
300
_DATA
309
CELLSTYLE_END
  0
XRECORD
  5
AF94
102
{ACAD_REACTORS
330
AF5D
102
}
330
AF5D
100
AcDbXrecord
280
     1
102
ACAD_ROUNDTRIP_PRE2007_TABLESTYLE
 90
      512
 91
        0
  1

 92
      512
 93
        0
  2

 94
      512
 95
        0
  3

  0
XRECORD
  5
AF6F
102
{ACAD_REACTORS
330
AF6E
102
}
330
AF6E
100
AcDbXrecord
280
     1
102
RTVSPost2010Prop28
280
     1
102
RTVSPost2010PropOp28
 70
     1
102
RTVSPost2010Prop29
280
     1
102
RTVSPost2010PropOp29
 70
     1
102
RTVSPost2010Prop30
280
     0
102
RTVSPost2010PropOp30
 70
     1
102
RTVSPost2010Prop31
280
     0
102
RTVSPost2010PropOp31
 70
     1
102
RTVSPost2010Prop32
280
     0
102
RTVSPost2010PropOp32
 70
     1
102
RTVSPost2010Prop33
280
     0
102
RTVSPost2010PropOp33
 70
     1
102
RTVSPost2010Prop34
280
     0
102
RTVSPost2010PropOp34
 70
     1
102
RTVSPost2010Prop35
280
     0
102
RTVSPost2010PropOp35
 70
     1
102
RTVSPost2010Prop36
280
     0
102
RTVSPost2010PropOp36
 70
     1
102
RTVSPost2010Prop37
 90
       50
102
RTVSPost2010PropOp37
 70
     1
102
RTVSPost2010Prop38
140
0.0
102
RTVSPost2010PropOp38
 70
     1
102
RTVSPost2010Prop39
140
1.0
102
RTVSPost2010PropOp39
 70
     1
102
RTVSPost2010Prop40
 90
        0
102
RTVSPost2010PropOp40
 70
     1
102
RTVSPost2010Prop41ColorIndex
 90
       18
102
RTVSPost2010Prop41ColorRGB
 90
        0
102
RTVSPost2010PropOp41
 70
     1
102
RTVSPost2010Prop42
 90
       50
102
RTVSPost2010PropOp42
 70
     1
102
RTVSPost2010Prop43
 90
        3
102
RTVSPost2010PropOp43
 70
     1
102
RTVSPost2010Prop44ColorIndex
 90
        5
102
RTVSPost2010Prop44ColorRGB
 90
      255
102
RTVSPost2010PropOp44
 70
     1
102
RTVSPost2010Prop45
280
     0
102
RTVSPost2010PropOp45
 70
     1
102
RTVSPost2010Prop46
 90
       50
102
RTVSPost2010PropOp46
 70
     1
102
RTVSPost2010Prop47
 90
       50
102
RTVSPost2010PropOp47
 70
     1
102
RTVSPost2010Prop48
 90
       50
102
RTVSPost2010PropOp48
 70
     1
102
RTVSPost2010Prop49
280
     0
102
RTVSPost2010PropOp49
 70
     1
102
RTVSPost2010Prop50
 90
       50
102
RTVSPost2010PropOp50
 70
     1
102
RTVSPost2010Prop51ColorIndex
 90
      256
102
RTVSPost2010Prop51ColorRGB
 90
-16777216
102
RTVSPost2010PropOp51
 70
     0
102
RTVSPost2010Prop52
140
1.0
102
RTVSPost2010PropOp52
 70
     0
102
RTVSPost2010Prop53
 90
        2
102
RTVSPost2010PropOp53
 70
     1
102
RTVSPost2010Prop54
  1
strokes_ogs.tif
102
RTVSPost2010PropOp54
 70
     1
102
RTVSPost2010Prop55
280
     0
102
RTVSPost2010PropOp55
 70
     1
102
RTVSPost2010Prop56
140
1.0
102
RTVSPost2010PropOp56
 70
     1
102
RTVSPost2010Prop57
140
1.0
102
RTVSPost2010PropOp57
 70
     1
102
RTVSPropertyOp0
 70
     1
102
RTVSPropertyOp1
 70
     1
102
RTVSPropertyOp2
 70
     1
102
RTVSPropertyOp3
 70
     1
102
RTVSPropertyOp4
 70
     1
102
RTVSPropertyOp5
 70
     1
102
RTVSPropertyOp6
 70
     1
102
RTVSPropertyOp7
 70
     1
102
RTVSPropertyOp8
 70
     1
102
RTVSPropertyOp9
 70
     1
102
RTVSPropertyOp10
 70
     1
102
RTVSPropertyOp11
 70
     1
102
RTVSPropertyOp12
 70
     1
102
RTVSPropertyOp13
 70
     1
102
RTVSPropertyOp14
 70
     1
102
RTVSPropertyOp15
 70
     1
102
RTVSPropertyOp16
 70
     1
102
RTVSPropertyOp17
 70
     1
102
RTVSPropertyOp18
 70
     1
102
RTVSPropertyOp19
 70
     1
102
RTVSPropertyOp20
 70
     1
102
RTVSPropertyOp21
 70
     1
102
RTVSPropertyOp22
 70
     1
102
RTVSPropertyOp23
 70
     1
102
RTVSPropertyOp24
 70
     1
102
RTVSPropertyOp25
 70
     1
102
RTVSPropertyOp26
 70
     1
102
RTVSPropertyOp27
 70
     1
102
RTVSPropertyOp28
 70
     1
102
RTVSPropertyOp29
 70
     1
102
RTVSPropertyOp30
 70
     1
102
RTVSPropertyOp31
 70
     1
102
RTVSPropertyOp32
 70
     1
102
RTVSPropertyOp33
 70
     1
102
RTVSPropertyOp34
 70
     1
102
RTVSPropertyOp35
 70
     1
102
RTVSPropertyOp36
 70
     1
102
RTVSPropertyOp37
 70
     1
102
RTVSPropertyOp38
 70
     1
102
RTVSPropertyOp39
 70
     1
102
RTVSPropertyOp40
 70
     1
102
RTVSPropertyOp41
 70
     1
102
RTVSPropertyOp42
 70
     1
102
RTVSPropertyOp43
 70
     1
102
RTVSPropertyOp44
 70
     1
102
RTVSPropertyOp45
 70
     1
102
RTVSPropertyOp46
 70
     1
102
RTVSPropertyOp47
 70
     1
102
RTVSPropertyOp48
 70
     1
102
RTVSPropertyOp49
 70
     1
102
RTVSPropertyOp50
 70
     1
102
RTVSPropertyOp51
 70
     0
102
RTVSPropertyOp52
 70
     0
102
RTVSPropertyOp53
 70
     1
102
RTVSPropertyOp54
 70
     1
102
RTVSPropertyOp55
 70
     1
102
RTVSPropertyOp56
 70
     1
102
RTVSPropertyOp57
 70
     1
102
RTVSPropertyOp58
 70
     1
102
RTVSPropertyOp59
 70
     1
102
RTVSPropertyOp60
 70
     1
102
RTVSPropertyOp61
 70
     1
102
RTVSPropertyOp62
 70
     1
  0
XRECORD
  5
AF6D
102
{ACAD_REACTORS
330
AF6C
102
}
330
AF6C
100
AcDbXrecord
280
     1
102
RTVSPost2010Prop28
280
     0
102
RTVSPost2010PropOp28
 70
     1
102
RTVSPost2010Prop29
280
     1
102
RTVSPost2010PropOp29
 70
     1
102
RTVSPost2010Prop30
280
     1
102
RTVSPost2010PropOp30
 70
     1
102
RTVSPost2010Prop31
280
     0
102
RTVSPost2010PropOp31
 70
     1
102
RTVSPost2010Prop32
280
     0
102
RTVSPost2010PropOp32
 70
     1
102
RTVSPost2010Prop33
280
     0
102
RTVSPost2010PropOp33
 70
     1
102
RTVSPost2010Prop34
280
     0
102
RTVSPost2010PropOp34
 70
     1
102
RTVSPost2010Prop35
280
     0
102
RTVSPost2010PropOp35
 70
     1
102
RTVSPost2010Prop36
280
     0
102
RTVSPost2010PropOp36
 70
     1
102
RTVSPost2010Prop37
 90
       50
102
RTVSPost2010PropOp37
 70
     1
102
RTVSPost2010Prop38
140
0.0
102
RTVSPost2010PropOp38
 70
     1
102
RTVSPost2010Prop39
140
1.0
102
RTVSPost2010PropOp39
 70
     1
102
RTVSPost2010Prop40
 90
        0
102
RTVSPost2010PropOp40
 70
     1
102
RTVSPost2010Prop41ColorIndex
 90
       18
102
RTVSPost2010Prop41ColorRGB
 90
        0
102
RTVSPost2010PropOp41
 70
     1
102
RTVSPost2010Prop42
 90
       50
102
RTVSPost2010PropOp42
 70
     1
102
RTVSPost2010Prop43
 90
        3
102
RTVSPost2010PropOp43
 70
     1
102
RTVSPost2010Prop44ColorIndex
 90
        5
102
RTVSPost2010Prop44ColorRGB
 90
      255
102
RTVSPost2010PropOp44
 70
     1
102
RTVSPost2010Prop45
280
     0
102
RTVSPost2010PropOp45
 70
     1
102
RTVSPost2010Prop46
 90
       50
102
RTVSPost2010PropOp46
 70
     1
102
RTVSPost2010Prop47
 90
       50
102
RTVSPost2010PropOp47
 70
     1
102
RTVSPost2010Prop48
 90
       50
102
RTVSPost2010PropOp48
 70
     1
102
RTVSPost2010Prop49
280
     0
102
RTVSPost2010PropOp49
 70
     1
102
RTVSPost2010Prop50
 90
       50
102
RTVSPost2010PropOp50
 70
     1
102
RTVSPost2010Prop51ColorIndex
 90
      256
102
RTVSPost2010Prop51ColorRGB
 90
-16777216
102
RTVSPost2010PropOp51
 70
     0
102
RTVSPost2010Prop52
140
1.0
102
RTVSPost2010PropOp52
 70
     0
102
RTVSPost2010Prop53
 90
        2
102
RTVSPost2010PropOp53
 70
     1
102
RTVSPost2010Prop54
  1
strokes_ogs.tif
102
RTVSPost2010PropOp54
 70
     1
102
RTVSPost2010Prop55
280
     0
102
RTVSPost2010PropOp55
 70
     1
102
RTVSPost2010Prop56
140
1.0
102
RTVSPost2010PropOp56
 70
     1
102
RTVSPost2010Prop57
140
1.0
102
RTVSPost2010PropOp57
 70
     1
102
RTVSPropertyOp0
 70
     1
102
RTVSPropertyOp1
 70
     1
102
RTVSPropertyOp2
 70
     1
102
RTVSPropertyOp3
 70
     1
102
RTVSPropertyOp4
 70
     1
102
RTVSPropertyOp5
 70
     1
102
RTVSPropertyOp6
 70
     1
102
RTVSPropertyOp7
 70
     1
102
RTVSPropertyOp8
 70
     1
102
RTVSPropertyOp9
 70
     1
102
RTVSPropertyOp10
 70
     1
102
RTVSPropertyOp11
 70
     1
102
RTVSPropertyOp12
 70
     1
102
RTVSPropertyOp13
 70
     1
102
RTVSPropertyOp14
 70
     1
102
RTVSPropertyOp15
 70
     1
102
RTVSPropertyOp16
 70
     1
102
RTVSPropertyOp17
 70
     1
102
RTVSPropertyOp18
 70
     1
102
RTVSPropertyOp19
 70
     1
102
RTVSPropertyOp20
 70
     1
102
RTVSPropertyOp21
 70
     1
102
RTVSPropertyOp22
 70
     1
102
RTVSPropertyOp23
 70
     1
102
RTVSPropertyOp24
 70
     1
102
RTVSPropertyOp25
 70
     1
102
RTVSPropertyOp26
 70
     1
102
RTVSPropertyOp27
 70
     1
102
RTVSPropertyOp28
 70
     1
102
RTVSPropertyOp29
 70
     1
102
RTVSPropertyOp30
 70
     1
102
RTVSPropertyOp31
 70
     1
102
RTVSPropertyOp32
 70
     1
102
RTVSPropertyOp33
 70
     1
102
RTVSPropertyOp34
 70
     1
102
RTVSPropertyOp35
 70
     1
102
RTVSPropertyOp36
 70
     1
102
RTVSPropertyOp37
 70
     1
102
RTVSPropertyOp38
 70
     1
102
RTVSPropertyOp39
 70
     1
102
RTVSPropertyOp40
 70
     1
102
RTVSPropertyOp41
 70
     1
102
RTVSPropertyOp42
 70
     1
102
RTVSPropertyOp43
 70
     1
102
RTVSPropertyOp44
 70
     1
102
RTVSPropertyOp45
 70
     1
102
RTVSPropertyOp46
 70
     1
102
RTVSPropertyOp47
 70
     1
102
RTVSPropertyOp48
 70
     1
102
RTVSPropertyOp49
 70
     1
102
RTVSPropertyOp50
 70
     1
102
RTVSPropertyOp51
 70
     0
102
RTVSPropertyOp52
 70
     0
102
RTVSPropertyOp53
 70
     1
102
RTVSPropertyOp54
 70
     1
102
RTVSPropertyOp55
 70
     1
102
RTVSPropertyOp56
 70
     1
102
RTVSPropertyOp57
 70
     1
102
RTVSPropertyOp58
 70
     1
102
RTVSPropertyOp59
 70
     1
102
RTVSPropertyOp60
 70
     1
102
RTVSPropertyOp61
 70
     1
102
RTVSPropertyOp62
 70
     1
  0
XRECORD
  5
AF7B
102
{ACAD_REACTORS
330
AF7A
102
}
330
AF7A
100
AcDbXrecord
280
     1
102
RTVSPost2010Prop28
280
     0
102
RTVSPost2010PropOp28
 70
     1
102
RTVSPost2010Prop29
280
     1
102
RTVSPost2010PropOp29
 70
     1
102
RTVSPost2010Prop30
280
     1
102
RTVSPost2010PropOp30
 70
     1
102
RTVSPost2010Prop31
280
     0
102
RTVSPost2010PropOp31
 70
     1
102
RTVSPost2010Prop32
280
     0
102
RTVSPost2010PropOp32
 70
     1
102
RTVSPost2010Prop33
280
     0
102
RTVSPost2010PropOp33
 70
     1
102
RTVSPost2010Prop34
280
     0
102
RTVSPost2010PropOp34
 70
     1
102
RTVSPost2010Prop35
280
     0
102
RTVSPost2010PropOp35
 70
     1
102
RTVSPost2010Prop36
280
     0
102
RTVSPost2010PropOp36
 70
     1
102
RTVSPost2010Prop37
 90
       50
102
RTVSPost2010PropOp37
 70
     1
102
RTVSPost2010Prop38
140
0.0
102
RTVSPost2010PropOp38
 70
     1
102
RTVSPost2010Prop39
140
1.0
102
RTVSPost2010PropOp39
 70
     1
102
RTVSPost2010Prop40
 90
        0
102
RTVSPost2010PropOp40
 70
     1
102
RTVSPost2010Prop41ColorIndex
 90
       18
102
RTVSPost2010Prop41ColorRGB
 90
        0
102
RTVSPost2010PropOp41
 70
     1
102
RTVSPost2010Prop42
 90
       50
102
RTVSPost2010PropOp42
 70
     1
102
RTVSPost2010Prop43
 90
        3
102
RTVSPost2010PropOp43
 70
     1
102
RTVSPost2010Prop44ColorIndex
 90
        5
102
RTVSPost2010Prop44ColorRGB
 90
      255
102
RTVSPost2010PropOp44
 70
     1
102
RTVSPost2010Prop45
280
     0
102
RTVSPost2010PropOp45
 70
     1
102
RTVSPost2010Prop46
 90
       50
102
RTVSPost2010PropOp46
 70
     1
102
RTVSPost2010Prop47
 90
       50
102
RTVSPost2010PropOp47
 70
     1
102
RTVSPost2010Prop48
 90
       50
102
RTVSPost2010PropOp48
 70
     1
102
RTVSPost2010Prop49
280
     0
102
RTVSPost2010PropOp49
 70
     1
102
RTVSPost2010Prop50
 90
       50
102
RTVSPost2010PropOp50
 70
     1
102
RTVSPost2010Prop51ColorIndex
 90
      256
102
RTVSPost2010Prop51ColorRGB
 90
-16777216
102
RTVSPost2010PropOp51
 70
     0
102
RTVSPost2010Prop52
140
1.0
102
RTVSPost2010PropOp52
 70
     0
102
RTVSPost2010Prop53
 90
        2
102
RTVSPost2010PropOp53
 70
     1
102
RTVSPost2010Prop54
  1
strokes_ogs.tif
102
RTVSPost2010PropOp54
 70
     1
102
RTVSPost2010Prop55
280
     0
102
RTVSPost2010PropOp55
 70
     1
102
RTVSPost2010Prop56
140
1.0
102
RTVSPost2010PropOp56
 70
     1
102
RTVSPost2010Prop57
140
1.0
102
RTVSPost2010PropOp57
 70
     1
102
RTVSPropertyOp0
 70
     1
102
RTVSPropertyOp1
 70
     1
102
RTVSPropertyOp2
 70
     1
102
RTVSPropertyOp3
 70
     1
102
RTVSPropertyOp4
 70
     1
102
RTVSPropertyOp5
 70
     1
102
RTVSPropertyOp6
 70
     1
102
RTVSPropertyOp7
 70
     1
102
RTVSPropertyOp8
 70
     1
102
RTVSPropertyOp9
 70
     1
102
RTVSPropertyOp10
 70
     1
102
RTVSPropertyOp11
 70
     1
102
RTVSPropertyOp12
 70
     1
102
RTVSPropertyOp13
 70
     1
102
RTVSPropertyOp14
 70
     1
102
RTVSPropertyOp15
 70
     1
102
RTVSPropertyOp16
 70
     1
102
RTVSPropertyOp17
 70
     1
102
RTVSPropertyOp18
 70
     1
102
RTVSPropertyOp19
 70
     1
102
RTVSPropertyOp20
 70
     1
102
RTVSPropertyOp21
 70
     1
102
RTVSPropertyOp22
 70
     1
102
RTVSPropertyOp23
 70
     1
102
RTVSPropertyOp24
 70
     1
102
RTVSPropertyOp25
 70
     1
102
RTVSPropertyOp26
 70
     1
102
RTVSPropertyOp27
 70
     1
102
RTVSPropertyOp28
 70
     1
102
RTVSPropertyOp29
 70
     1
102
RTVSPropertyOp30
 70
     1
102
RTVSPropertyOp31
 70
     1
102
RTVSPropertyOp32
 70
     1
102
RTVSPropertyOp33
 70
     1
102
RTVSPropertyOp34
 70
     1
102
RTVSPropertyOp35
 70
     1
102
RTVSPropertyOp36
 70
     1
102
RTVSPropertyOp37
 70
     1
102
RTVSPropertyOp38
 70
     1
102
RTVSPropertyOp39
 70
     1
102
RTVSPropertyOp40
 70
     1
102
RTVSPropertyOp41
 70
     1
102
RTVSPropertyOp42
 70
     1
102
RTVSPropertyOp43
 70
     1
102
RTVSPropertyOp44
 70
     1
102
RTVSPropertyOp45
 70
     1
102
RTVSPropertyOp46
 70
     1
102
RTVSPropertyOp47
 70
     1
102
RTVSPropertyOp48
 70
     1
102
RTVSPropertyOp49
 70
     1
102
RTVSPropertyOp50
 70
     1
102
RTVSPropertyOp51
 70
     0
102
RTVSPropertyOp52
 70
     0
102
RTVSPropertyOp53
 70
     1
102
RTVSPropertyOp54
 70
     1
102
RTVSPropertyOp55
 70
     1
102
RTVSPropertyOp56
 70
     1
102
RTVSPropertyOp57
 70
     1
102
RTVSPropertyOp58
 70
     1
102
RTVSPropertyOp59
 70
     1
102
RTVSPropertyOp60
 70
     1
102
RTVSPropertyOp61
 70
     1
102
RTVSPropertyOp62
 70
     1
  0
XRECORD
  5
AF83
102
{ACAD_REACTORS
330
AF82
102
}
330
AF82
100
AcDbXrecord
280
     1
102
RTVSPost2010Prop28
280
     0
102
RTVSPost2010PropOp28
 70
     1
102
RTVSPost2010Prop29
280
     1
102
RTVSPost2010PropOp29
 70
     1
102
RTVSPost2010Prop30
280
     1
102
RTVSPost2010PropOp30
 70
     1
102
RTVSPost2010Prop31
280
     0
102
RTVSPost2010PropOp31
 70
     1
102
RTVSPost2010Prop32
280
     0
102
RTVSPost2010PropOp32
 70
     1
102
RTVSPost2010Prop33
280
     0
102
RTVSPost2010PropOp33
 70
     1
102
RTVSPost2010Prop34
280
     0
102
RTVSPost2010PropOp34
 70
     1
102
RTVSPost2010Prop35
280
     0
102
RTVSPost2010PropOp35
 70
     1
102
RTVSPost2010Prop36
280
     0
102
RTVSPost2010PropOp36
 70
     1
102
RTVSPost2010Prop37
 90
       50
102
RTVSPost2010PropOp37
 70
     1
102
RTVSPost2010Prop38
140
0.0
102
RTVSPost2010PropOp38
 70
     1
102
RTVSPost2010Prop39
140
1.0
102
RTVSPost2010PropOp39
 70
     1
102
RTVSPost2010Prop40
 90
        0
102
RTVSPost2010PropOp40
 70
     1
102
RTVSPost2010Prop41ColorIndex
 90
       18
102
RTVSPost2010Prop41ColorRGB
 90
        0
102
RTVSPost2010PropOp41
 70
     1
102
RTVSPost2010Prop42
 90
       50
102
RTVSPost2010PropOp42
 70
     1
102
RTVSPost2010Prop43
 90
        3
102
RTVSPost2010PropOp43
 70
     1
102
RTVSPost2010Prop44ColorIndex
 90
        5
102
RTVSPost2010Prop44ColorRGB
 90
      255
102
RTVSPost2010PropOp44
 70
     1
102
RTVSPost2010Prop45
280
     0
102
RTVSPost2010PropOp45
 70
     1
102
RTVSPost2010Prop46
 90
       50
102
RTVSPost2010PropOp46
 70
     1
102
RTVSPost2010Prop47
 90
       50
102
RTVSPost2010PropOp47
 70
     1
102
RTVSPost2010Prop48
 90
       50
102
RTVSPost2010PropOp48
 70
     1
102
RTVSPost2010Prop49
280
     0
102
RTVSPost2010PropOp49
 70
     1
102
RTVSPost2010Prop50
 90
       50
102
RTVSPost2010PropOp50
 70
     1
102
RTVSPost2010Prop51ColorIndex
 90
      256
102
RTVSPost2010Prop51ColorRGB
 90
-16777216
102
RTVSPost2010PropOp51
 70
     0
102
RTVSPost2010Prop52
140
1.0
102
RTVSPost2010PropOp52
 70
     0
102
RTVSPost2010Prop53
 90
        2
102
RTVSPost2010PropOp53
 70
     1
102
RTVSPost2010Prop54
  1
strokes_ogs.tif
102
RTVSPost2010PropOp54
 70
     1
102
RTVSPost2010Prop55
280
     0
102
RTVSPost2010PropOp55
 70
     1
102
RTVSPost2010Prop56
140
1.0
102
RTVSPost2010PropOp56
 70
     1
102
RTVSPost2010Prop57
140
1.0
102
RTVSPost2010PropOp57
 70
     1
102
RTVSPropertyOp0
 70
     1
102
RTVSPropertyOp1
 70
     1
102
RTVSPropertyOp2
 70
     1
102
RTVSPropertyOp3
 70
     1
102
RTVSPropertyOp4
 70
     1
102
RTVSPropertyOp5
 70
     1
102
RTVSPropertyOp6
 70
     1
102
RTVSPropertyOp7
 70
     1
102
RTVSPropertyOp8
 70
     1
102
RTVSPropertyOp9
 70
     1
102
RTVSPropertyOp10
 70
     1
102
RTVSPropertyOp11
 70
     1
102
RTVSPropertyOp12
 70
     1
102
RTVSPropertyOp13
 70
     1
102
RTVSPropertyOp14
 70
     1
102
RTVSPropertyOp15
 70
     1
102
RTVSPropertyOp16
 70
     1
102
RTVSPropertyOp17
 70
     1
102
RTVSPropertyOp18
 70
     1
102
RTVSPropertyOp19
 70
     1
102
RTVSPropertyOp20
 70
     1
102
RTVSPropertyOp21
 70
     1
102
RTVSPropertyOp22
 70
     1
102
RTVSPropertyOp23
 70
     1
102
RTVSPropertyOp24
 70
     1
102
RTVSPropertyOp25
 70
     1
102
RTVSPropertyOp26
 70
     1
102
RTVSPropertyOp27
 70
     1
102
RTVSPropertyOp28
 70
     1
102
RTVSPropertyOp29
 70
     1
102
RTVSPropertyOp30
 70
     1
102
RTVSPropertyOp31
 70
     1
102
RTVSPropertyOp32
 70
     1
102
RTVSPropertyOp33
 70
     1
102
RTVSPropertyOp34
 70
     1
102
RTVSPropertyOp35
 70
     1
102
RTVSPropertyOp36
 70
     1
102
RTVSPropertyOp37
 70
     1
102
RTVSPropertyOp38
 70
     1
102
RTVSPropertyOp39
 70
     1
102
RTVSPropertyOp40
 70
     1
102
RTVSPropertyOp41
 70
     1
102
RTVSPropertyOp42
 70
     1
102
RTVSPropertyOp43
 70
     1
102
RTVSPropertyOp44
 70
     1
102
RTVSPropertyOp45
 70
     1
102
RTVSPropertyOp46
 70
     1
102
RTVSPropertyOp47
 70
     1
102
RTVSPropertyOp48
 70
     1
102
RTVSPropertyOp49
 70
     1
102
RTVSPropertyOp50
 70
     1
102
RTVSPropertyOp51
 70
     0
102
RTVSPropertyOp52
 70
     0
102
RTVSPropertyOp53
 70
     1
102
RTVSPropertyOp54
 70
     1
102
RTVSPropertyOp55
 70
     1
102
RTVSPropertyOp56
 70
     1
102
RTVSPropertyOp57
 70
     1
102
RTVSPropertyOp58
 70
     1
102
RTVSPropertyOp59
 70
     1
102
RTVSPropertyOp60
 70
     1
102
RTVSPropertyOp61
 70
     1
102
RTVSPropertyOp62
 70
     1
  0
XRECORD
  5
AF75
102
{ACAD_REACTORS
330
AF74
102
}
330
AF74
100
AcDbXrecord
280
     1
102
RTVSPost2010Prop28
280
     0
102
RTVSPost2010PropOp28
 70
     1
102
RTVSPost2010Prop29
280
     1
102
RTVSPost2010PropOp29
 70
     1
102
RTVSPost2010Prop30
280
     1
102
RTVSPost2010PropOp30
 70
     1
102
RTVSPost2010Prop31
280
     0
102
RTVSPost2010PropOp31
 70
     1
102
RTVSPost2010Prop32
280
     0
102
RTVSPost2010PropOp32
 70
     1
102
RTVSPost2010Prop33
280
     0
102
RTVSPost2010PropOp33
 70
     1
102
RTVSPost2010Prop34
280
     0
102
RTVSPost2010PropOp34
 70
     1
102
RTVSPost2010Prop35
280
     0
102
RTVSPost2010PropOp35
 70
     1
102
RTVSPost2010Prop36
280
     0
102
RTVSPost2010PropOp36
 70
     1
102
RTVSPost2010Prop37
 90
       50
102
RTVSPost2010PropOp37
 70
     1
102
RTVSPost2010Prop38
140
0.0
102
RTVSPost2010PropOp38
 70
     1
102
RTVSPost2010Prop39
140
1.0
102
RTVSPost2010PropOp39
 70
     1
102
RTVSPost2010Prop40
 90
        0
102
RTVSPost2010PropOp40
 70
     1
102
RTVSPost2010Prop41ColorIndex
 90
       18
102
RTVSPost2010Prop41ColorRGB
 90
        0
102
RTVSPost2010PropOp41
 70
     1
102
RTVSPost2010Prop42
 90
       50
102
RTVSPost2010PropOp42
 70
     1
102
RTVSPost2010Prop43
 90
        3
102
RTVSPost2010PropOp43
 70
     1
102
RTVSPost2010Prop44ColorIndex
 90
        5
102
RTVSPost2010Prop44ColorRGB
 90
      255
102
RTVSPost2010PropOp44
 70
     1
102
RTVSPost2010Prop45
280
     0
102
RTVSPost2010PropOp45
 70
     1
102
RTVSPost2010Prop46
 90
       50
102
RTVSPost2010PropOp46
 70
     1
102
RTVSPost2010Prop47
 90
       50
102
RTVSPost2010PropOp47
 70
     1
102
RTVSPost2010Prop48
 90
       50
102
RTVSPost2010PropOp48
 70
     1
102
RTVSPost2010Prop49
280
     0
102
RTVSPost2010PropOp49
 70
     1
102
RTVSPost2010Prop50
 90
       50
102
RTVSPost2010PropOp50
 70
     1
102
RTVSPost2010Prop51ColorIndex
 90
      256
102
RTVSPost2010Prop51ColorRGB
 90
-16777216
102
RTVSPost2010PropOp51
 70
     0
102
RTVSPost2010Prop52
140
1.0
102
RTVSPost2010PropOp52
 70
     0
102
RTVSPost2010Prop53
 90
        2
102
RTVSPost2010PropOp53
 70
     1
102
RTVSPost2010Prop54
  1
strokes_ogs.tif
102
RTVSPost2010PropOp54
 70
     1
102
RTVSPost2010Prop55
280
     0
102
RTVSPost2010PropOp55
 70
     1
102
RTVSPost2010Prop56
140
1.0
102
RTVSPost2010PropOp56
 70
     1
102
RTVSPost2010Prop57
140
1.0
102
RTVSPost2010PropOp57
 70
     1
102
RTVSPropertyOp0
 70
     1
102
RTVSPropertyOp1
 70
     1
102
RTVSPropertyOp2
 70
     1
102
RTVSPropertyOp3
 70
     1
102
RTVSPropertyOp4
 70
     1
102
RTVSPropertyOp5
 70
     1
102
RTVSPropertyOp6
 70
     1
102
RTVSPropertyOp7
 70
     1
102
RTVSPropertyOp8
 70
     1
102
RTVSPropertyOp9
 70
     1
102
RTVSPropertyOp10
 70
     1
102
RTVSPropertyOp11
 70
     1
102
RTVSPropertyOp12
 70
     1
102
RTVSPropertyOp13
 70
     1
102
RTVSPropertyOp14
 70
     1
102
RTVSPropertyOp15
 70
     1
102
RTVSPropertyOp16
 70
     1
102
RTVSPropertyOp17
 70
     1
102
RTVSPropertyOp18
 70
     1
102
RTVSPropertyOp19
 70
     1
102
RTVSPropertyOp20
 70
     1
102
RTVSPropertyOp21
 70
     1
102
RTVSPropertyOp22
 70
     1
102
RTVSPropertyOp23
 70
     1
102
RTVSPropertyOp24
 70
     1
102
RTVSPropertyOp25
 70
     1
102
RTVSPropertyOp26
 70
     1
102
RTVSPropertyOp27
 70
     1
102
RTVSPropertyOp28
 70
     1
102
RTVSPropertyOp29
 70
     1
102
RTVSPropertyOp30
 70
     1
102
RTVSPropertyOp31
 70
     1
102
RTVSPropertyOp32
 70
     1
102
RTVSPropertyOp33
 70
     1
102
RTVSPropertyOp34
 70
     1
102
RTVSPropertyOp35
 70
     1
102
RTVSPropertyOp36
 70
     1
102
RTVSPropertyOp37
 70
     1
102
RTVSPropertyOp38
 70
     1
102
RTVSPropertyOp39
 70
     1
102
RTVSPropertyOp40
 70
     1
102
RTVSPropertyOp41
 70
     1
102
RTVSPropertyOp42
 70
     1
102
RTVSPropertyOp43
 70
     1
102
RTVSPropertyOp44
 70
     1
102
RTVSPropertyOp45
 70
     1
102
RTVSPropertyOp46
 70
     1
102
RTVSPropertyOp47
 70
     1
102
RTVSPropertyOp48
 70
     1
102
RTVSPropertyOp49
 70
     1
102
RTVSPropertyOp50
 70
     1
102
RTVSPropertyOp51
 70
     0
102
RTVSPropertyOp52
 70
     0
102
RTVSPropertyOp53
 70
     1
102
RTVSPropertyOp54
 70
     1
102
RTVSPropertyOp55
 70
     1
102
RTVSPropertyOp56
 70
     1
102
RTVSPropertyOp57
 70
     1
102
RTVSPropertyOp58
 70
     1
102
RTVSPropertyOp59
 70
     1
102
RTVSPropertyOp60
 70
     1
102
RTVSPropertyOp61
 70
     1
102
RTVSPropertyOp62
 70
     1
  0
XRECORD
  5
AF79
102
{ACAD_REACTORS
330
AF78
102
}
330
AF78
100
AcDbXrecord
280
     1
102
RTVSPost2010Prop28
280
     0
102
RTVSPost2010PropOp28
 70
     1
102
RTVSPost2010Prop29
280
     1
102
RTVSPost2010PropOp29
 70
     1
102
RTVSPost2010Prop30
280
     1
102
RTVSPost2010PropOp30
 70
     1
102
RTVSPost2010Prop31
280
     0
102
RTVSPost2010PropOp31
 70
     1
102
RTVSPost2010Prop32
280
     0
102
RTVSPost2010PropOp32
 70
     1
102
RTVSPost2010Prop33
280
     0
102
RTVSPost2010PropOp33
 70
     1
102
RTVSPost2010Prop34
280
     0
102
RTVSPost2010PropOp34
 70
     1
102
RTVSPost2010Prop35
280
     0
102
RTVSPost2010PropOp35
 70
     1
102
RTVSPost2010Prop36
280
     0
102
RTVSPost2010PropOp36
 70
     1
102
RTVSPost2010Prop37
 90
       50
102
RTVSPost2010PropOp37
 70
     1
102
RTVSPost2010Prop38
140
0.0
102
RTVSPost2010PropOp38
 70
     1
102
RTVSPost2010Prop39
140
1.0
102
RTVSPost2010PropOp39
 70
     1
102
RTVSPost2010Prop40
 90
        0
102
RTVSPost2010PropOp40
 70
     1
102
RTVSPost2010Prop41ColorIndex
 90
       18
102
RTVSPost2010Prop41ColorRGB
 90
        0
102
RTVSPost2010PropOp41
 70
     1
102
RTVSPost2010Prop42
 90
       50
102
RTVSPost2010PropOp42
 70
     1
102
RTVSPost2010Prop43
 90
        3
102
RTVSPost2010PropOp43
 70
     1
102
RTVSPost2010Prop44ColorIndex
 90
        5
102
RTVSPost2010Prop44ColorRGB
 90
      255
102
RTVSPost2010PropOp44
 70
     1
102
RTVSPost2010Prop45
280
     0
102
RTVSPost2010PropOp45
 70
     1
102
RTVSPost2010Prop46
 90
       50
102
RTVSPost2010PropOp46
 70
     1
102
RTVSPost2010Prop47
 90
       50
102
RTVSPost2010PropOp47
 70
     1
102
RTVSPost2010Prop48
 90
       50
102
RTVSPost2010PropOp48
 70
     1
102
RTVSPost2010Prop49
280
     0
102
RTVSPost2010PropOp49
 70
     1
102
RTVSPost2010Prop50
 90
       50
102
RTVSPost2010PropOp50
 70
     1
102
RTVSPost2010Prop51ColorIndex
 90
      256
102
RTVSPost2010Prop51ColorRGB
 90
-16777216
102
RTVSPost2010PropOp51
 70
     0
102
RTVSPost2010Prop52
140
1.0
102
RTVSPost2010PropOp52
 70
     0
102
RTVSPost2010Prop53
 90
        2
102
RTVSPost2010PropOp53
 70
     1
102
RTVSPost2010Prop54
  1
strokes_ogs.tif
102
RTVSPost2010PropOp54
 70
     1
102
RTVSPost2010Prop55
280
     0
102
RTVSPost2010PropOp55
 70
     1
102
RTVSPost2010Prop56
140
1.0
102
RTVSPost2010PropOp56
 70
     1
102
RTVSPost2010Prop57
140
1.0
102
RTVSPost2010PropOp57
 70
     1
102
RTVSPropertyOp0
 70
     1
102
RTVSPropertyOp1
 70
     1
102
RTVSPropertyOp2
 70
     1
102
RTVSPropertyOp3
 70
     1
102
RTVSPropertyOp4
 70
     1
102
RTVSPropertyOp5
 70
     1
102
RTVSPropertyOp6
 70
     1
102
RTVSPropertyOp7
 70
     1
102
RTVSPropertyOp8
 70
     1
102
RTVSPropertyOp9
 70
     1
102
RTVSPropertyOp10
 70
     1
102
RTVSPropertyOp11
 70
     1
102
RTVSPropertyOp12
 70
     1
102
RTVSPropertyOp13
 70
     1
102
RTVSPropertyOp14
 70
     1
102
RTVSPropertyOp15
 70
     1
102
RTVSPropertyOp16
 70
     1
102
RTVSPropertyOp17
 70
     1
102
RTVSPropertyOp18
 70
     1
102
RTVSPropertyOp19
 70
     1
102
RTVSPropertyOp20
 70
     1
102
RTVSPropertyOp21
 70
     1
102
RTVSPropertyOp22
 70
     1
102
RTVSPropertyOp23
 70
     1
102
RTVSPropertyOp24
 70
     1
102
RTVSPropertyOp25
 70
     1
102
RTVSPropertyOp26
 70
     1
102
RTVSPropertyOp27
 70
     1
102
RTVSPropertyOp28
 70
     1
102
RTVSPropertyOp29
 70
     1
102
RTVSPropertyOp30
 70
     1
102
RTVSPropertyOp31
 70
     1
102
RTVSPropertyOp32
 70
     1
102
RTVSPropertyOp33
 70
     1
102
RTVSPropertyOp34
 70
     1
102
RTVSPropertyOp35
 70
     1
102
RTVSPropertyOp36
 70
     1
102
RTVSPropertyOp37
 70
     1
102
RTVSPropertyOp38
 70
     1
102
RTVSPropertyOp39
 70
     1
102
RTVSPropertyOp40
 70
     1
102
RTVSPropertyOp41
 70
     1
102
RTVSPropertyOp42
 70
     1
102
RTVSPropertyOp43
 70
     1
102
RTVSPropertyOp44
 70
     1
102
RTVSPropertyOp45
 70
     1
102
RTVSPropertyOp46
 70
     1
102
RTVSPropertyOp47
 70
     1
102
RTVSPropertyOp48
 70
     1
102
RTVSPropertyOp49
 70
     1
102
RTVSPropertyOp50
 70
     1
102
RTVSPropertyOp51
 70
     0
102
RTVSPropertyOp52
 70
     0
102
RTVSPropertyOp53
 70
     1
102
RTVSPropertyOp54
 70
     1
102
RTVSPropertyOp55
 70
     1
102
RTVSPropertyOp56
 70
     1
102
RTVSPropertyOp57
 70
     1
102
RTVSPropertyOp58
 70
     1
102
RTVSPropertyOp59
 70
     1
102
RTVSPropertyOp60
 70
     1
102
RTVSPropertyOp61
 70
     1
102
RTVSPropertyOp62
 70
     1
  0
XRECORD
  5
AF93
102
{ACAD_REACTORS
330
AF92
102
}
330
AF92
100
AcDbXrecord
280
     1
102
RTVSPost2010Prop28
280
     0
102
RTVSPost2010PropOp28
 70
     1
102
RTVSPost2010Prop29
280
     1
102
RTVSPost2010PropOp29
 70
     1
102
RTVSPost2010Prop30
280
     1
102
RTVSPost2010PropOp30
 70
     1
102
RTVSPost2010Prop31
280
     0
102
RTVSPost2010PropOp31
 70
     1
102
RTVSPost2010Prop32
280
     0
102
RTVSPost2010PropOp32
 70
     1
102
RTVSPost2010Prop33
280
     0
102
RTVSPost2010PropOp33
 70
     1
102
RTVSPost2010Prop34
280
     0
102
RTVSPost2010PropOp34
 70
     1
102
RTVSPost2010Prop35
280
     0
102
RTVSPost2010PropOp35
 70
     1
102
RTVSPost2010Prop36
280
     0
102
RTVSPost2010PropOp36
 70
     1
102
RTVSPost2010Prop37
 90
       50
102
RTVSPost2010PropOp37
 70
     0
102
RTVSPost2010Prop38
140
0.0
102
RTVSPost2010PropOp38
 70
     0
102
RTVSPost2010Prop39
140
1.0
102
RTVSPost2010PropOp39
 70
     0
102
RTVSPost2010Prop40
 90
        0
102
RTVSPost2010PropOp40
 70
     0
102
RTVSPost2010Prop41ColorIndex
 90
       18
102
RTVSPost2010Prop41ColorRGB
 90
        0
102
RTVSPost2010PropOp41
 70
     0
102
RTVSPost2010Prop42
 90
       50
102
RTVSPost2010PropOp42
 70
     0
102
RTVSPost2010Prop43
 90
        3
102
RTVSPost2010PropOp43
 70
     0
102
RTVSPost2010Prop44ColorIndex
 90
        5
102
RTVSPost2010Prop44ColorRGB
 90
      255
102
RTVSPost2010PropOp44
 70
     0
102
RTVSPost2010Prop45
280
     0
102
RTVSPost2010PropOp45
 70
     1
102
RTVSPost2010Prop46
 90
       50
102
RTVSPost2010PropOp46
 70
     0
102
RTVSPost2010Prop47
 90
       50
102
RTVSPost2010PropOp47
 70
     0
102
RTVSPost2010Prop48
 90
       50
102
RTVSPost2010PropOp48
 70
     0
102
RTVSPost2010Prop49
280
     0
102
RTVSPost2010PropOp49
 70
     1
102
RTVSPost2010Prop50
 90
       50
102
RTVSPost2010PropOp50
 70
     0
102
RTVSPost2010Prop51ColorIndex
 90
      256
102
RTVSPost2010Prop51ColorRGB
 90
-16777216
102
RTVSPost2010PropOp51
 70
     0
102
RTVSPost2010Prop52
140
1.0
102
RTVSPost2010PropOp52
 70
     0
102
RTVSPost2010Prop53
 90
        2
102
RTVSPost2010PropOp53
 70
     0
102
RTVSPost2010Prop54
  1
strokes_ogs.tif
102
RTVSPost2010PropOp54
 70
     0
102
RTVSPost2010Prop55
280
     0
102
RTVSPost2010PropOp55
 70
     1
102
RTVSPost2010Prop56
140
1.0
102
RTVSPost2010PropOp56
 70
     0
102
RTVSPost2010Prop57
140
1.0
102
RTVSPost2010PropOp57
 70
     0
102
RTVSPropertyOp0
 70
     0
102
RTVSPropertyOp1
 70
     0
102
RTVSPropertyOp2
 70
     0
102
RTVSPropertyOp3
 70
     0
102
RTVSPropertyOp4
 70
     0
102
RTVSPropertyOp5
 70
     0
102
RTVSPropertyOp6
 70
     0
102
RTVSPropertyOp7
 70
     0
102
RTVSPropertyOp8
 70
     0
102
RTVSPropertyOp9
 70
     0
102
RTVSPropertyOp10
 70
     0
102
RTVSPropertyOp11
 70
     0
102
RTVSPropertyOp12
 70
     0
102
RTVSPropertyOp13
 70
     0
102
RTVSPropertyOp14
 70
     2
102
RTVSPropertyOp15
 70
     0
102
RTVSPropertyOp16
 70
     0
102
RTVSPropertyOp17
 70
     0
102
RTVSPropertyOp18
 70
     0
102
RTVSPropertyOp19
 70
     0
102
RTVSPropertyOp20
 70
     0
102
RTVSPropertyOp21
 70
     0
102
RTVSPropertyOp22
 70
     0
102
RTVSPropertyOp23
 70
     0
102
RTVSPropertyOp24
 70
     0
102
RTVSPropertyOp25
 70
     0
102
RTVSPropertyOp26
 70
     0
102
RTVSPropertyOp27
 70
     0
102
RTVSPropertyOp28
 70
     1
102
RTVSPropertyOp29
 70
     1
102
RTVSPropertyOp30
 70
     1
102
RTVSPropertyOp31
 70
     1
102
RTVSPropertyOp32
 70
     1
102
RTVSPropertyOp33
 70
     1
102
RTVSPropertyOp34
 70
     1
102
RTVSPropertyOp35
 70
     1
102
RTVSPropertyOp36
 70
     1
102
RTVSPropertyOp37
 70
     0
102
RTVSPropertyOp38
 70
     0
102
RTVSPropertyOp39
 70
     0
102
RTVSPropertyOp40
 70
     0
102
RTVSPropertyOp41
 70
     0
102
RTVSPropertyOp42
 70
     0
102
RTVSPropertyOp43
 70
     0
102
RTVSPropertyOp44
 70
     0
102
RTVSPropertyOp45
 70
     1
102
RTVSPropertyOp46
 70
     0
102
RTVSPropertyOp47
 70
     0
102
RTVSPropertyOp48
 70
     0
102
RTVSPropertyOp49
 70
     1
102
RTVSPropertyOp50
 70
     0
102
RTVSPropertyOp51
 70
     0
102
RTVSPropertyOp52
 70
     0
102
RTVSPropertyOp53
 70
     0
102
RTVSPropertyOp54
 70
     0
102
RTVSPropertyOp55
 70
     1
102
RTVSPropertyOp56
 70
     0
102
RTVSPropertyOp57
 70
     0
102
RTVSPropertyOp58
 70
     0
102
RTVSPropertyOp59
 70
     0
102
RTVSPropertyOp60
 70
     0
102
RTVSPropertyOp61
 70
     0
102
RTVSPropertyOp62
 70
     0
  0
XRECORD
  5
AF81
102
{ACAD_REACTORS
330
AF80
102
}
330
AF80
100
AcDbXrecord
280
     1
102
RTVSPost2010Prop28
280
     0
102
RTVSPost2010PropOp28
 70
     1
102
RTVSPost2010Prop29
280
     1
102
RTVSPost2010PropOp29
 70
     1
102
RTVSPost2010Prop30
280
     1
102
RTVSPost2010PropOp30
 70
     1
102
RTVSPost2010Prop31
280
     0
102
RTVSPost2010PropOp31
 70
     1
102
RTVSPost2010Prop32
280
     0
102
RTVSPost2010PropOp32
 70
     1
102
RTVSPost2010Prop33
280
     0
102
RTVSPost2010PropOp33
 70
     1
102
RTVSPost2010Prop34
280
     0
102
RTVSPost2010PropOp34
 70
     1
102
RTVSPost2010Prop35
280
     0
102
RTVSPost2010PropOp35
 70
     1
102
RTVSPost2010Prop36
280
     0
102
RTVSPost2010PropOp36
 70
     1
102
RTVSPost2010Prop37
 90
       50
102
RTVSPost2010PropOp37
 70
     1
102
RTVSPost2010Prop38
140
0.0
102
RTVSPost2010PropOp38
 70
     1
102
RTVSPost2010Prop39
140
1.0
102
RTVSPost2010PropOp39
 70
     1
102
RTVSPost2010Prop40
 90
        0
102
RTVSPost2010PropOp40
 70
     1
102
RTVSPost2010Prop41ColorIndex
 90
       18
102
RTVSPost2010Prop41ColorRGB
 90
        0
102
RTVSPost2010PropOp41
 70
     1
102
RTVSPost2010Prop42
 90
       50
102
RTVSPost2010PropOp42
 70
     1
102
RTVSPost2010Prop43
 90
        3
102
RTVSPost2010PropOp43
 70
     1
102
RTVSPost2010Prop44ColorIndex
 90
        5
102
RTVSPost2010Prop44ColorRGB
 90
      255
102
RTVSPost2010PropOp44
 70
     1
102
RTVSPost2010Prop45
280
     0
102
RTVSPost2010PropOp45
 70
     1
102
RTVSPost2010Prop46
 90
       50
102
RTVSPost2010PropOp46
 70
     1
102
RTVSPost2010Prop47
 90
       50
102
RTVSPost2010PropOp47
 70
     1
102
RTVSPost2010Prop48
 90
       50
102
RTVSPost2010PropOp48
 70
     1
102
RTVSPost2010Prop49
280
     0
102
RTVSPost2010PropOp49
 70
     1
102
RTVSPost2010Prop50
 90
       50
102
RTVSPost2010PropOp50
 70
     1
102
RTVSPost2010Prop51ColorIndex
 90
      256
102
RTVSPost2010Prop51ColorRGB
 90
-16777216
102
RTVSPost2010PropOp51
 70
     0
102
RTVSPost2010Prop52
140
1.0
102
RTVSPost2010PropOp52
 70
     0
102
RTVSPost2010Prop53
 90
        2
102
RTVSPost2010PropOp53
 70
     1
102
RTVSPost2010Prop54
  1
strokes_ogs.tif
102
RTVSPost2010PropOp54
 70
     1
102
RTVSPost2010Prop55
280
     0
102
RTVSPost2010PropOp55
 70
     1
102
RTVSPost2010Prop56
140
1.0
102
RTVSPost2010PropOp56
 70
     1
102
RTVSPost2010Prop57
140
1.0
102
RTVSPost2010PropOp57
 70
     1
102
RTVSPropertyOp0
 70
     1
102
RTVSPropertyOp1
 70
     1
102
RTVSPropertyOp2
 70
     1
102
RTVSPropertyOp3
 70
     1
102
RTVSPropertyOp4
 70
     1
102
RTVSPropertyOp5
 70
     1
102
RTVSPropertyOp6
 70
     1
102
RTVSPropertyOp7
 70
     1
102
RTVSPropertyOp8
 70
     1
102
RTVSPropertyOp9
 70
     1
102
RTVSPropertyOp10
 70
     1
102
RTVSPropertyOp11
 70
     1
102
RTVSPropertyOp12
 70
     1
102
RTVSPropertyOp13
 70
     1
102
RTVSPropertyOp14
 70
     1
102
RTVSPropertyOp15
 70
     1
102
RTVSPropertyOp16
 70
     1
102
RTVSPropertyOp17
 70
     1
102
RTVSPropertyOp18
 70
     1
102
RTVSPropertyOp19
 70
     1
102
RTVSPropertyOp20
 70
     1
102
RTVSPropertyOp21
 70
     1
102
RTVSPropertyOp22
 70
     1
102
RTVSPropertyOp23
 70
     1
102
RTVSPropertyOp24
 70
     1
102
RTVSPropertyOp25
 70
     1
102
RTVSPropertyOp26
 70
     1
102
RTVSPropertyOp27
 70
     1
102
RTVSPropertyOp28
 70
     1
102
RTVSPropertyOp29
 70
     1
102
RTVSPropertyOp30
 70
     1
102
RTVSPropertyOp31
 70
     1
102
RTVSPropertyOp32
 70
     1
102
RTVSPropertyOp33
 70
     1
102
RTVSPropertyOp34
 70
     1
102
RTVSPropertyOp35
 70
     1
102
RTVSPropertyOp36
 70
     1
102
RTVSPropertyOp37
 70
     1
102
RTVSPropertyOp38
 70
     1
102
RTVSPropertyOp39
 70
     1
102
RTVSPropertyOp40
 70
     1
102
RTVSPropertyOp41
 70
     1
102
RTVSPropertyOp42
 70
     1
102
RTVSPropertyOp43
 70
     1
102
RTVSPropertyOp44
 70
     1
102
RTVSPropertyOp45
 70
     1
102
RTVSPropertyOp46
 70
     1
102
RTVSPropertyOp47
 70
     1
102
RTVSPropertyOp48
 70
     1
102
RTVSPropertyOp49
 70
     1
102
RTVSPropertyOp50
 70
     1
102
RTVSPropertyOp51
 70
     0
102
RTVSPropertyOp52
 70
     0
102
RTVSPropertyOp53
 70
     1
102
RTVSPropertyOp54
 70
     1
102
RTVSPropertyOp55
 70
     1
102
RTVSPropertyOp56
 70
     1
102
RTVSPropertyOp57
 70
     1
102
RTVSPropertyOp58
 70
     1
102
RTVSPropertyOp59
 70
     1
102
RTVSPropertyOp60
 70
     1
102
RTVSPropertyOp61
 70
     1
102
RTVSPropertyOp62
 70
     1
  0
XRECORD
  5
AF65
102
{ACAD_REACTORS
330
AF64
102
}
330
AF64
100
AcDbXrecord
280
     1
102
RTVSPost2010Prop28
280
     0
102
RTVSPost2010PropOp28
 70
     1
102
RTVSPost2010Prop29
280
     1
102
RTVSPost2010PropOp29
 70
     1
102
RTVSPost2010Prop30
280
     1
102
RTVSPost2010PropOp30
 70
     1
102
RTVSPost2010Prop31
280
     0
102
RTVSPost2010PropOp31
 70
     1
102
RTVSPost2010Prop32
280
     0
102
RTVSPost2010PropOp32
 70
     1
102
RTVSPost2010Prop33
280
     0
102
RTVSPost2010PropOp33
 70
     1
102
RTVSPost2010Prop34
280
     0
102
RTVSPost2010PropOp34
 70
     1
102
RTVSPost2010Prop35
280
     0
102
RTVSPost2010PropOp35
 70
     1
102
RTVSPost2010Prop36
280
     0
102
RTVSPost2010PropOp36
 70
     1
102
RTVSPost2010Prop37
 90
       50
102
RTVSPost2010PropOp37
 70
     1
102
RTVSPost2010Prop38
140
0.0
102
RTVSPost2010PropOp38
 70
     1
102
RTVSPost2010Prop39
140
1.0
102
RTVSPost2010PropOp39
 70
     1
102
RTVSPost2010Prop40
 90
        0
102
RTVSPost2010PropOp40
 70
     1
102
RTVSPost2010Prop41ColorIndex
 90
       18
102
RTVSPost2010Prop41ColorRGB
 90
        0
102
RTVSPost2010PropOp41
 70
     1
102
RTVSPost2010Prop42
 90
       50
102
RTVSPost2010PropOp42
 70
     1
102
RTVSPost2010Prop43
 90
        3
102
RTVSPost2010PropOp43
 70
     1
102
RTVSPost2010Prop44ColorIndex
 90
        5
102
RTVSPost2010Prop44ColorRGB
 90
      255
102
RTVSPost2010PropOp44
 70
     1
102
RTVSPost2010Prop45
280
     0
102
RTVSPost2010PropOp45
 70
     1
102
RTVSPost2010Prop46
 90
       50
102
RTVSPost2010PropOp46
 70
     1
102
RTVSPost2010Prop47
 90
       50
102
RTVSPost2010PropOp47
 70
     1
102
RTVSPost2010Prop48
 90
       50
102
RTVSPost2010PropOp48
 70
     1
102
RTVSPost2010Prop49
280
     0
102
RTVSPost2010PropOp49
 70
     1
102
RTVSPost2010Prop50
 90
       50
102
RTVSPost2010PropOp50
 70
     1
102
RTVSPost2010Prop51ColorIndex
 90
      256
102
RTVSPost2010Prop51ColorRGB
 90
-16777216
102
RTVSPost2010PropOp51
 70
     0
102
RTVSPost2010Prop52
140
1.0
102
RTVSPost2010PropOp52
 70
     0
102
RTVSPost2010Prop53
 90
        2
102
RTVSPost2010PropOp53
 70
     1
102
RTVSPost2010Prop54
  1
strokes_ogs.tif
102
RTVSPost2010PropOp54
 70
     1
102
RTVSPost2010Prop55
280
     0
102
RTVSPost2010PropOp55
 70
     1
102
RTVSPost2010Prop56
140
1.0
102
RTVSPost2010PropOp56
 70
     1
102
RTVSPost2010Prop57
140
1.0
102
RTVSPost2010PropOp57
 70
     1
102
RTVSPropertyOp0
 70
     1
102
RTVSPropertyOp1
 70
     1
102
RTVSPropertyOp2
 70
     1
102
RTVSPropertyOp3
 70
     1
102
RTVSPropertyOp4
 70
     1
102
RTVSPropertyOp5
 70
     1
102
RTVSPropertyOp6
 70
     1
102
RTVSPropertyOp7
 70
     1
102
RTVSPropertyOp8
 70
     1
102
RTVSPropertyOp9
 70
     1
102
RTVSPropertyOp10
 70
     1
102
RTVSPropertyOp11
 70
     1
102
RTVSPropertyOp12
 70
     1
102
RTVSPropertyOp13
 70
     1
102
RTVSPropertyOp14
 70
     1
102
RTVSPropertyOp15
 70
     1
102
RTVSPropertyOp16
 70
     1
102
RTVSPropertyOp17
 70
     1
102
RTVSPropertyOp18
 70
     1
102
RTVSPropertyOp19
 70
     1
102
RTVSPropertyOp20
 70
     1
102
RTVSPropertyOp21
 70
     1
102
RTVSPropertyOp22
 70
     1
102
RTVSPropertyOp23
 70
     1
102
RTVSPropertyOp24
 70
     1
102
RTVSPropertyOp25
 70
     1
102
RTVSPropertyOp26
 70
     1
102
RTVSPropertyOp27
 70
     1
102
RTVSPropertyOp28
 70
     1
102
RTVSPropertyOp29
 70
     1
102
RTVSPropertyOp30
 70
     1
102
RTVSPropertyOp31
 70
     1
102
RTVSPropertyOp32
 70
     1
102
RTVSPropertyOp33
 70
     1
102
RTVSPropertyOp34
 70
     1
102
RTVSPropertyOp35
 70
     1
102
RTVSPropertyOp36
 70
     1
102
RTVSPropertyOp37
 70
     1
102
RTVSPropertyOp38
 70
     1
102
RTVSPropertyOp39
 70
     1
102
RTVSPropertyOp40
 70
     1
102
RTVSPropertyOp41
 70
     1
102
RTVSPropertyOp42
 70
     1
102
RTVSPropertyOp43
 70
     1
102
RTVSPropertyOp44
 70
     1
102
RTVSPropertyOp45
 70
     1
102
RTVSPropertyOp46
 70
     1
102
RTVSPropertyOp47
 70
     1
102
RTVSPropertyOp48
 70
     1
102
RTVSPropertyOp49
 70
     1
102
RTVSPropertyOp50
 70
     1
102
RTVSPropertyOp51
 70
     0
102
RTVSPropertyOp52
 70
     0
102
RTVSPropertyOp53
 70
     1
102
RTVSPropertyOp54
 70
     1
102
RTVSPropertyOp55
 70
     1
102
RTVSPropertyOp56
 70
     1
102
RTVSPropertyOp57
 70
     1
102
RTVSPropertyOp58
 70
     1
102
RTVSPropertyOp59
 70
     1
102
RTVSPropertyOp60
 70
     1
102
RTVSPropertyOp61
 70
     1
102
RTVSPropertyOp62
 70
     1
  0
XRECORD
  5
AF67
102
{ACAD_REACTORS
330
AF66
102
}
330
AF66
100
AcDbXrecord
280
     1
102
RTVSPost2010Prop28
280
     0
102
RTVSPost2010PropOp28
 70
     1
102
RTVSPost2010Prop29
280
     1
102
RTVSPost2010PropOp29
 70
     1
102
RTVSPost2010Prop30
280
     1
102
RTVSPost2010PropOp30
 70
     1
102
RTVSPost2010Prop31
280
     0
102
RTVSPost2010PropOp31
 70
     1
102
RTVSPost2010Prop32
280
     0
102
RTVSPost2010PropOp32
 70
     1
102
RTVSPost2010Prop33
280
     0
102
RTVSPost2010PropOp33
 70
     1
102
RTVSPost2010Prop34
280
     0
102
RTVSPost2010PropOp34
 70
     1
102
RTVSPost2010Prop35
280
     0
102
RTVSPost2010PropOp35
 70
     1
102
RTVSPost2010Prop36
280
     0
102
RTVSPost2010PropOp36
 70
     1
102
RTVSPost2010Prop37
 90
       50
102
RTVSPost2010PropOp37
 70
     1
102
RTVSPost2010Prop38
140
0.0
102
RTVSPost2010PropOp38
 70
     1
102
RTVSPost2010Prop39
140
1.0
102
RTVSPost2010PropOp39
 70
     1
102
RTVSPost2010Prop40
 90
        0
102
RTVSPost2010PropOp40
 70
     1
102
RTVSPost2010Prop41ColorIndex
 90
       18
102
RTVSPost2010Prop41ColorRGB
 90
        0
102
RTVSPost2010PropOp41
 70
     1
102
RTVSPost2010Prop42
 90
       50
102
RTVSPost2010PropOp42
 70
     1
102
RTVSPost2010Prop43
 90
        3
102
RTVSPost2010PropOp43
 70
     1
102
RTVSPost2010Prop44ColorIndex
 90
        5
102
RTVSPost2010Prop44ColorRGB
 90
      255
102
RTVSPost2010PropOp44
 70
     1
102
RTVSPost2010Prop45
280
     0
102
RTVSPost2010PropOp45
 70
     1
102
RTVSPost2010Prop46
 90
       50
102
RTVSPost2010PropOp46
 70
     1
102
RTVSPost2010Prop47
 90
       50
102
RTVSPost2010PropOp47
 70
     1
102
RTVSPost2010Prop48
 90
       50
102
RTVSPost2010PropOp48
 70
     1
102
RTVSPost2010Prop49
280
     0
102
RTVSPost2010PropOp49
 70
     1
102
RTVSPost2010Prop50
 90
       50
102
RTVSPost2010PropOp50
 70
     1
102
RTVSPost2010Prop51ColorIndex
 90
      256
102
RTVSPost2010Prop51ColorRGB
 90
-16777216
102
RTVSPost2010PropOp51
 70
     0
102
RTVSPost2010Prop52
140
1.0
102
RTVSPost2010PropOp52
 70
     0
102
RTVSPost2010Prop53
 90
        2
102
RTVSPost2010PropOp53
 70
     1
102
RTVSPost2010Prop54
  1
strokes_ogs.tif
102
RTVSPost2010PropOp54
 70
     1
102
RTVSPost2010Prop55
280
     0
102
RTVSPost2010PropOp55
 70
     1
102
RTVSPost2010Prop56
140
1.0
102
RTVSPost2010PropOp56
 70
     1
102
RTVSPost2010Prop57
140
1.0
102
RTVSPost2010PropOp57
 70
     1
102
RTVSPropertyOp0
 70
     1
102
RTVSPropertyOp1
 70
     1
102
RTVSPropertyOp2
 70
     1
102
RTVSPropertyOp3
 70
     1
102
RTVSPropertyOp4
 70
     1
102
RTVSPropertyOp5
 70
     1
102
RTVSPropertyOp6
 70
     1
102
RTVSPropertyOp7
 70
     1
102
RTVSPropertyOp8
 70
     1
102
RTVSPropertyOp9
 70
     1
102
RTVSPropertyOp10
 70
     1
102
RTVSPropertyOp11
 70
     1
102
RTVSPropertyOp12
 70
     1
102
RTVSPropertyOp13
 70
     1
102
RTVSPropertyOp14
 70
     1
102
RTVSPropertyOp15
 70
     1
102
RTVSPropertyOp16
 70
     1
102
RTVSPropertyOp17
 70
     1
102
RTVSPropertyOp18
 70
     1
102
RTVSPropertyOp19
 70
     1
102
RTVSPropertyOp20
 70
     1
102
RTVSPropertyOp21
 70
     1
102
RTVSPropertyOp22
 70
     1
102
RTVSPropertyOp23
 70
     1
102
RTVSPropertyOp24
 70
     1
102
RTVSPropertyOp25
 70
     1
102
RTVSPropertyOp26
 70
     1
102
RTVSPropertyOp27
 70
     1
102
RTVSPropertyOp28
 70
     1
102
RTVSPropertyOp29
 70
     1
102
RTVSPropertyOp30
 70
     1
102
RTVSPropertyOp31
 70
     1
102
RTVSPropertyOp32
 70
     1
102
RTVSPropertyOp33
 70
     1
102
RTVSPropertyOp34
 70
     1
102
RTVSPropertyOp35
 70
     1
102
RTVSPropertyOp36
 70
     1
102
RTVSPropertyOp37
 70
     1
102
RTVSPropertyOp38
 70
     1
102
RTVSPropertyOp39
 70
     1
102
RTVSPropertyOp40
 70
     1
102
RTVSPropertyOp41
 70
     1
102
RTVSPropertyOp42
 70
     1
102
RTVSPropertyOp43
 70
     1
102
RTVSPropertyOp44
 70
     1
102
RTVSPropertyOp45
 70
     1
102
RTVSPropertyOp46
 70
     1
102
RTVSPropertyOp47
 70
     1
102
RTVSPropertyOp48
 70
     1
102
RTVSPropertyOp49
 70
     1
102
RTVSPropertyOp50
 70
     1
102
RTVSPropertyOp51
 70
     0
102
RTVSPropertyOp52
 70
     0
102
RTVSPropertyOp53
 70
     1
102
RTVSPropertyOp54
 70
     1
102
RTVSPropertyOp55
 70
     1
102
RTVSPropertyOp56
 70
     1
102
RTVSPropertyOp57
 70
     1
102
RTVSPropertyOp58
 70
     1
102
RTVSPropertyOp59
 70
     1
102
RTVSPropertyOp60
 70
     1
102
RTVSPropertyOp61
 70
     1
102
RTVSPropertyOp62
 70
     1
  0
XRECORD
  5
AF69
102
{ACAD_REACTORS
330
AF68
102
}
330
AF68
100
AcDbXrecord
280
     1
102
RTVSPost2010Prop28
280
     0
102
RTVSPost2010PropOp28
 70
     1
102
RTVSPost2010Prop29
280
     1
102
RTVSPost2010PropOp29
 70
     1
102
RTVSPost2010Prop30
280
     1
102
RTVSPost2010PropOp30
 70
     1
102
RTVSPost2010Prop31
280
     0
102
RTVSPost2010PropOp31
 70
     1
102
RTVSPost2010Prop32
280
     0
102
RTVSPost2010PropOp32
 70
     1
102
RTVSPost2010Prop33
280
     0
102
RTVSPost2010PropOp33
 70
     1
102
RTVSPost2010Prop34
280
     0
102
RTVSPost2010PropOp34
 70
     1
102
RTVSPost2010Prop35
280
     0
102
RTVSPost2010PropOp35
 70
     1
102
RTVSPost2010Prop36
280
     0
102
RTVSPost2010PropOp36
 70
     1
102
RTVSPost2010Prop37
 90
       50
102
RTVSPost2010PropOp37
 70
     1
102
RTVSPost2010Prop38
140
0.0
102
RTVSPost2010PropOp38
 70
     1
102
RTVSPost2010Prop39
140
1.0
102
RTVSPost2010PropOp39
 70
     1
102
RTVSPost2010Prop40
 90
        0
102
RTVSPost2010PropOp40
 70
     1
102
RTVSPost2010Prop41ColorIndex
 90
       18
102
RTVSPost2010Prop41ColorRGB
 90
        0
102
RTVSPost2010PropOp41
 70
     1
102
RTVSPost2010Prop42
 90
       50
102
RTVSPost2010PropOp42
 70
     1
102
RTVSPost2010Prop43
 90
        3
102
RTVSPost2010PropOp43
 70
     1
102
RTVSPost2010Prop44ColorIndex
 90
        5
102
RTVSPost2010Prop44ColorRGB
 90
      255
102
RTVSPost2010PropOp44
 70
     1
102
RTVSPost2010Prop45
280
     0
102
RTVSPost2010PropOp45
 70
     1
102
RTVSPost2010Prop46
 90
       50
102
RTVSPost2010PropOp46
 70
     1
102
RTVSPost2010Prop47
 90
       50
102
RTVSPost2010PropOp47
 70
     1
102
RTVSPost2010Prop48
 90
       50
102
RTVSPost2010PropOp48
 70
     1
102
RTVSPost2010Prop49
280
     0
102
RTVSPost2010PropOp49
 70
     1
102
RTVSPost2010Prop50
 90
       50
102
RTVSPost2010PropOp50
 70
     1
102
RTVSPost2010Prop51ColorIndex
 90
      256
102
RTVSPost2010Prop51ColorRGB
 90
-16777216
102
RTVSPost2010PropOp51
 70
     0
102
RTVSPost2010Prop52
140
1.0
102
RTVSPost2010PropOp52
 70
     0
102
RTVSPost2010Prop53
 90
        2
102
RTVSPost2010PropOp53
 70
     1
102
RTVSPost2010Prop54
  1
strokes_ogs.tif
102
RTVSPost2010PropOp54
 70
     1
102
RTVSPost2010Prop55
280
     0
102
RTVSPost2010PropOp55
 70
     1
102
RTVSPost2010Prop56
140
1.0
102
RTVSPost2010PropOp56
 70
     1
102
RTVSPost2010Prop57
140
1.0
102
RTVSPost2010PropOp57
 70
     1
102
RTVSPropertyOp0
 70
     1
102
RTVSPropertyOp1
 70
     1
102
RTVSPropertyOp2
 70
     1
102
RTVSPropertyOp3
 70
     1
102
RTVSPropertyOp4
 70
     1
102
RTVSPropertyOp5
 70
     1
102
RTVSPropertyOp6
 70
     1
102
RTVSPropertyOp7
 70
     1
102
RTVSPropertyOp8
 70
     1
102
RTVSPropertyOp9
 70
     1
102
RTVSPropertyOp10
 70
     1
102
RTVSPropertyOp11
 70
     1
102
RTVSPropertyOp12
 70
     1
102
RTVSPropertyOp13
 70
     1
102
RTVSPropertyOp14
 70
     1
102
RTVSPropertyOp15
 70
     1
102
RTVSPropertyOp16
 70
     1
102
RTVSPropertyOp17
 70
     1
102
RTVSPropertyOp18
 70
     1
102
RTVSPropertyOp19
 70
     1
102
RTVSPropertyOp20
 70
     1
102
RTVSPropertyOp21
 70
     1
102
RTVSPropertyOp22
 70
     1
102
RTVSPropertyOp23
 70
     1
102
RTVSPropertyOp24
 70
     1
102
RTVSPropertyOp25
 70
     1
102
RTVSPropertyOp26
 70
     1
102
RTVSPropertyOp27
 70
     1
102
RTVSPropertyOp28
 70
     1
102
RTVSPropertyOp29
 70
     1
102
RTVSPropertyOp30
 70
     1
102
RTVSPropertyOp31
 70
     1
102
RTVSPropertyOp32
 70
     1
102
RTVSPropertyOp33
 70
     1
102
RTVSPropertyOp34
 70
     1
102
RTVSPropertyOp35
 70
     1
102
RTVSPropertyOp36
 70
     1
102
RTVSPropertyOp37
 70
     1
102
RTVSPropertyOp38
 70
     1
102
RTVSPropertyOp39
 70
     1
102
RTVSPropertyOp40
 70
     1
102
RTVSPropertyOp41
 70
     1
102
RTVSPropertyOp42
 70
     1
102
RTVSPropertyOp43
 70
     1
102
RTVSPropertyOp44
 70
     1
102
RTVSPropertyOp45
 70
     1
102
RTVSPropertyOp46
 70
     1
102
RTVSPropertyOp47
 70
     1
102
RTVSPropertyOp48
 70
     1
102
RTVSPropertyOp49
 70
     1
102
RTVSPropertyOp50
 70
     1
102
RTVSPropertyOp51
 70
     0
102
RTVSPropertyOp52
 70
     0
102
RTVSPropertyOp53
 70
     1
102
RTVSPropertyOp54
 70
     1
102
RTVSPropertyOp55
 70
     1
102
RTVSPropertyOp56
 70
     1
102
RTVSPropertyOp57
 70
     1
102
RTVSPropertyOp58
 70
     1
102
RTVSPropertyOp59
 70
     1
102
RTVSPropertyOp60
 70
     1
102
RTVSPropertyOp61
 70
     1
102
RTVSPropertyOp62
 70
     1
  0
XRECORD
  5
AF6B
102
{ACAD_REACTORS
330
AF6A
102
}
330
AF6A
100
AcDbXrecord
280
     1
102
RTVSPost2010Prop28
280
     0
102
RTVSPost2010PropOp28
 70
     1
102
RTVSPost2010Prop29
280
     1
102
RTVSPost2010PropOp29
 70
     1
102
RTVSPost2010Prop30
280
     1
102
RTVSPost2010PropOp30
 70
     1
102
RTVSPost2010Prop31
280
     0
102
RTVSPost2010PropOp31
 70
     1
102
RTVSPost2010Prop32
280
     0
102
RTVSPost2010PropOp32
 70
     1
102
RTVSPost2010Prop33
280
     0
102
RTVSPost2010PropOp33
 70
     1
102
RTVSPost2010Prop34
280
     0
102
RTVSPost2010PropOp34
 70
     1
102
RTVSPost2010Prop35
280
     0
102
RTVSPost2010PropOp35
 70
     1
102
RTVSPost2010Prop36
280
     0
102
RTVSPost2010PropOp36
 70
     1
102
RTVSPost2010Prop37
 90
       50
102
RTVSPost2010PropOp37
 70
     1
102
RTVSPost2010Prop38
140
0.0
102
RTVSPost2010PropOp38
 70
     1
102
RTVSPost2010Prop39
140
1.0
102
RTVSPost2010PropOp39
 70
     1
102
RTVSPost2010Prop40
 90
        0
102
RTVSPost2010PropOp40
 70
     1
102
RTVSPost2010Prop41ColorIndex
 90
       18
102
RTVSPost2010Prop41ColorRGB
 90
        0
102
RTVSPost2010PropOp41
 70
     1
102
RTVSPost2010Prop42
 90
       50
102
RTVSPost2010PropOp42
 70
     1
102
RTVSPost2010Prop43
 90
        3
102
RTVSPost2010PropOp43
 70
     1
102
RTVSPost2010Prop44ColorIndex
 90
        5
102
RTVSPost2010Prop44ColorRGB
 90
      255
102
RTVSPost2010PropOp44
 70
     1
102
RTVSPost2010Prop45
280
     0
102
RTVSPost2010PropOp45
 70
     1
102
RTVSPost2010Prop46
 90
       50
102
RTVSPost2010PropOp46
 70
     1
102
RTVSPost2010Prop47
 90
       50
102
RTVSPost2010PropOp47
 70
     1
102
RTVSPost2010Prop48
 90
       50
102
RTVSPost2010PropOp48
 70
     1
102
RTVSPost2010Prop49
280
     0
102
RTVSPost2010PropOp49
 70
     1
102
RTVSPost2010Prop50
 90
       50
102
RTVSPost2010PropOp50
 70
     1
102
RTVSPost2010Prop51ColorIndex
 90
      256
102
RTVSPost2010Prop51ColorRGB
 90
-16777216
102
RTVSPost2010PropOp51
 70
     0
102
RTVSPost2010Prop52
140
1.0
102
RTVSPost2010PropOp52
 70
     0
102
RTVSPost2010Prop53
 90
        2
102
RTVSPost2010PropOp53
 70
     1
102
RTVSPost2010Prop54
  1
strokes_ogs.tif
102
RTVSPost2010PropOp54
 70
     1
102
RTVSPost2010Prop55
280
     0
102
RTVSPost2010PropOp55
 70
     1
102
RTVSPost2010Prop56
140
1.0
102
RTVSPost2010PropOp56
 70
     1
102
RTVSPost2010Prop57
140
1.0
102
RTVSPost2010PropOp57
 70
     1
102
RTVSPropertyOp0
 70
     1
102
RTVSPropertyOp1
 70
     1
102
RTVSPropertyOp2
 70
     1
102
RTVSPropertyOp3
 70
     1
102
RTVSPropertyOp4
 70
     1
102
RTVSPropertyOp5
 70
     1
102
RTVSPropertyOp6
 70
     1
102
RTVSPropertyOp7
 70
     1
102
RTVSPropertyOp8
 70
     1
102
RTVSPropertyOp9
 70
     1
102
RTVSPropertyOp10
 70
     1
102
RTVSPropertyOp11
 70
     1
102
RTVSPropertyOp12
 70
     1
102
RTVSPropertyOp13
 70
     1
102
RTVSPropertyOp14
 70
     1
102
RTVSPropertyOp15
 70
     1
102
RTVSPropertyOp16
 70
     1
102
RTVSPropertyOp17
 70
     1
102
RTVSPropertyOp18
 70
     1
102
RTVSPropertyOp19
 70
     1
102
RTVSPropertyOp20
 70
     1
102
RTVSPropertyOp21
 70
     1
102
RTVSPropertyOp22
 70
     1
102
RTVSPropertyOp23
 70
     1
102
RTVSPropertyOp24
 70
     1
102
RTVSPropertyOp25
 70
     1
102
RTVSPropertyOp26
 70
     1
102
RTVSPropertyOp27
 70
     1
102
RTVSPropertyOp28
 70
     1
102
RTVSPropertyOp29
 70
     1
102
RTVSPropertyOp30
 70
     1
102
RTVSPropertyOp31
 70
     1
102
RTVSPropertyOp32
 70
     1
102
RTVSPropertyOp33
 70
     1
102
RTVSPropertyOp34
 70
     1
102
RTVSPropertyOp35
 70
     1
102
RTVSPropertyOp36
 70
     1
102
RTVSPropertyOp37
 70
     1
102
RTVSPropertyOp38
 70
     1
102
RTVSPropertyOp39
 70
     1
102
RTVSPropertyOp40
 70
     1
102
RTVSPropertyOp41
 70
     1
102
RTVSPropertyOp42
 70
     1
102
RTVSPropertyOp43
 70
     1
102
RTVSPropertyOp44
 70
     1
102
RTVSPropertyOp45
 70
     1
102
RTVSPropertyOp46
 70
     1
102
RTVSPropertyOp47
 70
     1
102
RTVSPropertyOp48
 70
     1
102
RTVSPropertyOp49
 70
     1
102
RTVSPropertyOp50
 70
     1
102
RTVSPropertyOp51
 70
     0
102
RTVSPropertyOp52
 70
     0
102
RTVSPropertyOp53
 70
     1
102
RTVSPropertyOp54
 70
     1
102
RTVSPropertyOp55
 70
     1
102
RTVSPropertyOp56
 70
     1
102
RTVSPropertyOp57
 70
     1
102
RTVSPropertyOp58
 70
     1
102
RTVSPropertyOp59
 70
     1
102
RTVSPropertyOp60
 70
     1
102
RTVSPropertyOp61
 70
     1
102
RTVSPropertyOp62
 70
     1
  0
XRECORD
  5
AF73
102
{ACAD_REACTORS
330
AF72
102
}
330
AF72
100
AcDbXrecord
280
     1
102
RTVSPost2010Prop28
280
     0
102
RTVSPost2010PropOp28
 70
     1
102
RTVSPost2010Prop29
280
     1
102
RTVSPost2010PropOp29
 70
     1
102
RTVSPost2010Prop30
280
     1
102
RTVSPost2010PropOp30
 70
     1
102
RTVSPost2010Prop31
280
     0
102
RTVSPost2010PropOp31
 70
     1
102
RTVSPost2010Prop32
280
     0
102
RTVSPost2010PropOp32
 70
     1
102
RTVSPost2010Prop33
280
     0
102
RTVSPost2010PropOp33
 70
     1
102
RTVSPost2010Prop34
280
     0
102
RTVSPost2010PropOp34
 70
     1
102
RTVSPost2010Prop35
280
     0
102
RTVSPost2010PropOp35
 70
     1
102
RTVSPost2010Prop36
280
     0
102
RTVSPost2010PropOp36
 70
     1
102
RTVSPost2010Prop37
 90
       50
102
RTVSPost2010PropOp37
 70
     1
102
RTVSPost2010Prop38
140
0.0
102
RTVSPost2010PropOp38
 70
     1
102
RTVSPost2010Prop39
140
1.0
102
RTVSPost2010PropOp39
 70
     1
102
RTVSPost2010Prop40
 90
        0
102
RTVSPost2010PropOp40
 70
     1
102
RTVSPost2010Prop41ColorIndex
 90
       18
102
RTVSPost2010Prop41ColorRGB
 90
        0
102
RTVSPost2010PropOp41
 70
     1
102
RTVSPost2010Prop42
 90
       50
102
RTVSPost2010PropOp42
 70
     1
102
RTVSPost2010Prop43
 90
        3
102
RTVSPost2010PropOp43
 70
     1
102
RTVSPost2010Prop44ColorIndex
 90
        5
102
RTVSPost2010Prop44ColorRGB
 90
      255
102
RTVSPost2010PropOp44
 70
     1
102
RTVSPost2010Prop45
280
     0
102
RTVSPost2010PropOp45
 70
     1
102
RTVSPost2010Prop46
 90
       50
102
RTVSPost2010PropOp46
 70
     1
102
RTVSPost2010Prop47
 90
       50
102
RTVSPost2010PropOp47
 70
     1
102
RTVSPost2010Prop48
 90
       50
102
RTVSPost2010PropOp48
 70
     1
102
RTVSPost2010Prop49
280
     0
102
RTVSPost2010PropOp49
 70
     1
102
RTVSPost2010Prop50
 90
       50
102
RTVSPost2010PropOp50
 70
     1
102
RTVSPost2010Prop51ColorIndex
 90
      256
102
RTVSPost2010Prop51ColorRGB
 90
-16777216
102
RTVSPost2010PropOp51
 70
     0
102
RTVSPost2010Prop52
140
1.0
102
RTVSPost2010PropOp52
 70
     0
102
RTVSPost2010Prop53
 90
        2
102
RTVSPost2010PropOp53
 70
     1
102
RTVSPost2010Prop54
  1
strokes_ogs.tif
102
RTVSPost2010PropOp54
 70
     1
102
RTVSPost2010Prop55
280
     0
102
RTVSPost2010PropOp55
 70
     1
102
RTVSPost2010Prop56
140
1.0
102
RTVSPost2010PropOp56
 70
     1
102
RTVSPost2010Prop57
140
1.0
102
RTVSPost2010PropOp57
 70
     1
102
RTVSPropertyOp0
 70
     1
102
RTVSPropertyOp1
 70
     1
102
RTVSPropertyOp2
 70
     1
102
RTVSPropertyOp3
 70
     1
102
RTVSPropertyOp4
 70
     1
102
RTVSPropertyOp5
 70
     1
102
RTVSPropertyOp6
 70
     1
102
RTVSPropertyOp7
 70
     1
102
RTVSPropertyOp8
 70
     1
102
RTVSPropertyOp9
 70
     1
102
RTVSPropertyOp10
 70
     1
102
RTVSPropertyOp11
 70
     1
102
RTVSPropertyOp12
 70
     1
102
RTVSPropertyOp13
 70
     1
102
RTVSPropertyOp14
 70
     1
102
RTVSPropertyOp15
 70
     1
102
RTVSPropertyOp16
 70
     1
102
RTVSPropertyOp17
 70
     1
102
RTVSPropertyOp18
 70
     1
102
RTVSPropertyOp19
 70
     1
102
RTVSPropertyOp20
 70
     1
102
RTVSPropertyOp21
 70
     1
102
RTVSPropertyOp22
 70
     1
102
RTVSPropertyOp23
 70
     1
102
RTVSPropertyOp24
 70
     1
102
RTVSPropertyOp25
 70
     1
102
RTVSPropertyOp26
 70
     1
102
RTVSPropertyOp27
 70
     1
102
RTVSPropertyOp28
 70
     1
102
RTVSPropertyOp29
 70
     1
102
RTVSPropertyOp30
 70
     1
102
RTVSPropertyOp31
 70
     1
102
RTVSPropertyOp32
 70
     1
102
RTVSPropertyOp33
 70
     1
102
RTVSPropertyOp34
 70
     1
102
RTVSPropertyOp35
 70
     1
102
RTVSPropertyOp36
 70
     1
102
RTVSPropertyOp37
 70
     1
102
RTVSPropertyOp38
 70
     1
102
RTVSPropertyOp39
 70
     1
102
RTVSPropertyOp40
 70
     1
102
RTVSPropertyOp41
 70
     1
102
RTVSPropertyOp42
 70
     1
102
RTVSPropertyOp43
 70
     1
102
RTVSPropertyOp44
 70
     1
102
RTVSPropertyOp45
 70
     1
102
RTVSPropertyOp46
 70
     1
102
RTVSPropertyOp47
 70
     1
102
RTVSPropertyOp48
 70
     1
102
RTVSPropertyOp49
 70
     1
102
RTVSPropertyOp50
 70
     1
102
RTVSPropertyOp51
 70
     0
102
RTVSPropertyOp52
 70
     0
102
RTVSPropertyOp53
 70
     1
102
RTVSPropertyOp54
 70
     1
102
RTVSPropertyOp55
 70
     1
102
RTVSPropertyOp56
 70
     1
102
RTVSPropertyOp57
 70
     1
102
RTVSPropertyOp58
 70
     1
102
RTVSPropertyOp59
 70
     1
102
RTVSPropertyOp60
 70
     1
102
RTVSPropertyOp61
 70
     1
102
RTVSPropertyOp62
 70
     1
  0
XRECORD
  5
AF8F
102
{ACAD_REACTORS
330
AF8E
102
}
330
AF8E
100
AcDbXrecord
280
     1
102
RTVSPost2010Prop28
280
     0
102
RTVSPost2010PropOp28
 70
     1
102
RTVSPost2010Prop29
280
     1
102
RTVSPost2010PropOp29
 70
     1
102
RTVSPost2010Prop30
280
     1
102
RTVSPost2010PropOp30
 70
     1
102
RTVSPost2010Prop31
280
     0
102
RTVSPost2010PropOp31
 70
     1
102
RTVSPost2010Prop32
280
     0
102
RTVSPost2010PropOp32
 70
     1
102
RTVSPost2010Prop33
280
     0
102
RTVSPost2010PropOp33
 70
     1
102
RTVSPost2010Prop34
280
     0
102
RTVSPost2010PropOp34
 70
     1
102
RTVSPost2010Prop35
280
     0
102
RTVSPost2010PropOp35
 70
     1
102
RTVSPost2010Prop36
280
     0
102
RTVSPost2010PropOp36
 70
     1
102
RTVSPost2010Prop37
 90
       50
102
RTVSPost2010PropOp37
 70
     0
102
RTVSPost2010Prop38
140
0.0
102
RTVSPost2010PropOp38
 70
     0
102
RTVSPost2010Prop39
140
1.0
102
RTVSPost2010PropOp39
 70
     0
102
RTVSPost2010Prop40
 90
        0
102
RTVSPost2010PropOp40
 70
     0
102
RTVSPost2010Prop41ColorIndex
 90
       18
102
RTVSPost2010Prop41ColorRGB
 90
        0
102
RTVSPost2010PropOp41
 70
     0
102
RTVSPost2010Prop42
 90
       50
102
RTVSPost2010PropOp42
 70
     0
102
RTVSPost2010Prop43
 90
        3
102
RTVSPost2010PropOp43
 70
     0
102
RTVSPost2010Prop44ColorIndex
 90
        5
102
RTVSPost2010Prop44ColorRGB
 90
      255
102
RTVSPost2010PropOp44
 70
     0
102
RTVSPost2010Prop45
280
     0
102
RTVSPost2010PropOp45
 70
     1
102
RTVSPost2010Prop46
 90
       50
102
RTVSPost2010PropOp46
 70
     0
102
RTVSPost2010Prop47
 90
       50
102
RTVSPost2010PropOp47
 70
     0
102
RTVSPost2010Prop48
 90
       50
102
RTVSPost2010PropOp48
 70
     0
102
RTVSPost2010Prop49
280
     0
102
RTVSPost2010PropOp49
 70
     1
102
RTVSPost2010Prop50
 90
       50
102
RTVSPost2010PropOp50
 70
     0
102
RTVSPost2010Prop51ColorIndex
 90
      256
102
RTVSPost2010Prop51ColorRGB
 90
-16777216
102
RTVSPost2010PropOp51
 70
     0
102
RTVSPost2010Prop52
140
1.0
102
RTVSPost2010PropOp52
 70
     0
102
RTVSPost2010Prop53
 90
        2
102
RTVSPost2010PropOp53
 70
     0
102
RTVSPost2010Prop54
  1
strokes_ogs.tif
102
RTVSPost2010PropOp54
 70
     0
102
RTVSPost2010Prop55
280
     0
102
RTVSPost2010PropOp55
 70
     1
102
RTVSPost2010Prop56
140
1.0
102
RTVSPost2010PropOp56
 70
     0
102
RTVSPost2010Prop57
140
1.0
102
RTVSPost2010PropOp57
 70
     0
102
RTVSPropertyOp0
 70
     0
102
RTVSPropertyOp1
 70
     0
102
RTVSPropertyOp2
 70
     0
102
RTVSPropertyOp3
 70
     0
102
RTVSPropertyOp4
 70
     0
102
RTVSPropertyOp5
 70
     0
102
RTVSPropertyOp6
 70
     0
102
RTVSPropertyOp7
 70
     0
102
RTVSPropertyOp8
 70
     0
102
RTVSPropertyOp9
 70
     0
102
RTVSPropertyOp10
 70
     0
102
RTVSPropertyOp11
 70
     0
102
RTVSPropertyOp12
 70
     0
102
RTVSPropertyOp13
 70
     0
102
RTVSPropertyOp14
 70
     2
102
RTVSPropertyOp15
 70
     0
102
RTVSPropertyOp16
 70
     0
102
RTVSPropertyOp17
 70
     0
102
RTVSPropertyOp18
 70
     0
102
RTVSPropertyOp19
 70
     0
102
RTVSPropertyOp20
 70
     0
102
RTVSPropertyOp21
 70
     0
102
RTVSPropertyOp22
 70
     0
102
RTVSPropertyOp23
 70
     0
102
RTVSPropertyOp24
 70
     0
102
RTVSPropertyOp25
 70
     0
102
RTVSPropertyOp26
 70
     0
102
RTVSPropertyOp27
 70
     0
102
RTVSPropertyOp28
 70
     1
102
RTVSPropertyOp29
 70
     1
102
RTVSPropertyOp30
 70
     1
102
RTVSPropertyOp31
 70
     1
102
RTVSPropertyOp32
 70
     1
102
RTVSPropertyOp33
 70
     1
102
RTVSPropertyOp34
 70
     1
102
RTVSPropertyOp35
 70
     1
102
RTVSPropertyOp36
 70
     1
102
RTVSPropertyOp37
 70
     0
102
RTVSPropertyOp38
 70
     0
102
RTVSPropertyOp39
 70
     0
102
RTVSPropertyOp40
 70
     0
102
RTVSPropertyOp41
 70
     0
102
RTVSPropertyOp42
 70
     0
102
RTVSPropertyOp43
 70
     0
102
RTVSPropertyOp44
 70
     0
102
RTVSPropertyOp45
 70
     1
102
RTVSPropertyOp46
 70
     0
102
RTVSPropertyOp47
 70
     0
102
RTVSPropertyOp48
 70
     0
102
RTVSPropertyOp49
 70
     1
102
RTVSPropertyOp50
 70
     0
102
RTVSPropertyOp51
 70
     0
102
RTVSPropertyOp52
 70
     0
102
RTVSPropertyOp53
 70
     0
102
RTVSPropertyOp54
 70
     0
102
RTVSPropertyOp55
 70
     1
102
RTVSPropertyOp56
 70
     0
102
RTVSPropertyOp57
 70
     0
102
RTVSPropertyOp58
 70
     0
102
RTVSPropertyOp59
 70
     0
102
RTVSPropertyOp60
 70
     0
102
RTVSPropertyOp61
 70
     0
102
RTVSPropertyOp62
 70
     0
  0
XRECORD
  5
AF7F
102
{ACAD_REACTORS
330
AF7E
102
}
330
AF7E
100
AcDbXrecord
280
     1
102
RTVSPost2010Prop28
280
     0
102
RTVSPost2010PropOp28
 70
     1
102
RTVSPost2010Prop29
280
     1
102
RTVSPost2010PropOp29
 70
     1
102
RTVSPost2010Prop30
280
     1
102
RTVSPost2010PropOp30
 70
     1
102
RTVSPost2010Prop31
280
     0
102
RTVSPost2010PropOp31
 70
     1
102
RTVSPost2010Prop32
280
     0
102
RTVSPost2010PropOp32
 70
     1
102
RTVSPost2010Prop33
280
     0
102
RTVSPost2010PropOp33
 70
     1
102
RTVSPost2010Prop34
280
     0
102
RTVSPost2010PropOp34
 70
     1
102
RTVSPost2010Prop35
280
     0
102
RTVSPost2010PropOp35
 70
     1
102
RTVSPost2010Prop36
280
     0
102
RTVSPost2010PropOp36
 70
     1
102
RTVSPost2010Prop37
 90
       50
102
RTVSPost2010PropOp37
 70
     1
102
RTVSPost2010Prop38
140
0.0
102
RTVSPost2010PropOp38
 70
     1
102
RTVSPost2010Prop39
140
1.0
102
RTVSPost2010PropOp39
 70
     1
102
RTVSPost2010Prop40
 90
        0
102
RTVSPost2010PropOp40
 70
     1
102
RTVSPost2010Prop41ColorIndex
 90
       18
102
RTVSPost2010Prop41ColorRGB
 90
        0
102
RTVSPost2010PropOp41
 70
     1
102
RTVSPost2010Prop42
 90
       50
102
RTVSPost2010PropOp42
 70
     1
102
RTVSPost2010Prop43
 90
        3
102
RTVSPost2010PropOp43
 70
     1
102
RTVSPost2010Prop44ColorIndex
 90
        5
102
RTVSPost2010Prop44ColorRGB
 90
      255
102
RTVSPost2010PropOp44
 70
     1
102
RTVSPost2010Prop45
280
     0
102
RTVSPost2010PropOp45
 70
     1
102
RTVSPost2010Prop46
 90
       50
102
RTVSPost2010PropOp46
 70
     1
102
RTVSPost2010Prop47
 90
       50
102
RTVSPost2010PropOp47
 70
     1
102
RTVSPost2010Prop48
 90
       50
102
RTVSPost2010PropOp48
 70
     1
102
RTVSPost2010Prop49
280
     0
102
RTVSPost2010PropOp49
 70
     1
102
RTVSPost2010Prop50
 90
       50
102
RTVSPost2010PropOp50
 70
     1
102
RTVSPost2010Prop51ColorIndex
 90
      256
102
RTVSPost2010Prop51ColorRGB
 90
-16777216
102
RTVSPost2010PropOp51
 70
     0
102
RTVSPost2010Prop52
140
1.0
102
RTVSPost2010PropOp52
 70
     0
102
RTVSPost2010Prop53
 90
        2
102
RTVSPost2010PropOp53
 70
     1
102
RTVSPost2010Prop54
  1
strokes_ogs.tif
102
RTVSPost2010PropOp54
 70
     1
102
RTVSPost2010Prop55
280
     0
102
RTVSPost2010PropOp55
 70
     1
102
RTVSPost2010Prop56
140
1.0
102
RTVSPost2010PropOp56
 70
     1
102
RTVSPost2010Prop57
140
1.0
102
RTVSPost2010PropOp57
 70
     1
102
RTVSPropertyOp0
 70
     1
102
RTVSPropertyOp1
 70
     1
102
RTVSPropertyOp2
 70
     1
102
RTVSPropertyOp3
 70
     1
102
RTVSPropertyOp4
 70
     1
102
RTVSPropertyOp5
 70
     1
102
RTVSPropertyOp6
 70
     1
102
RTVSPropertyOp7
 70
     1
102
RTVSPropertyOp8
 70
     1
102
RTVSPropertyOp9
 70
     1
102
RTVSPropertyOp10
 70
     1
102
RTVSPropertyOp11
 70
     1
102
RTVSPropertyOp12
 70
     1
102
RTVSPropertyOp13
 70
     1
102
RTVSPropertyOp14
 70
     1
102
RTVSPropertyOp15
 70
     1
102
RTVSPropertyOp16
 70
     1
102
RTVSPropertyOp17
 70
     1
102
RTVSPropertyOp18
 70
     1
102
RTVSPropertyOp19
 70
     1
102
RTVSPropertyOp20
 70
     1
102
RTVSPropertyOp21
 70
     1
102
RTVSPropertyOp22
 70
     1
102
RTVSPropertyOp23
 70
     1
102
RTVSPropertyOp24
 70
     1
102
RTVSPropertyOp25
 70
     1
102
RTVSPropertyOp26
 70
     1
102
RTVSPropertyOp27
 70
     1
102
RTVSPropertyOp28
 70
     1
102
RTVSPropertyOp29
 70
     1
102
RTVSPropertyOp30
 70
     1
102
RTVSPropertyOp31
 70
     1
102
RTVSPropertyOp32
 70
     1
102
RTVSPropertyOp33
 70
     1
102
RTVSPropertyOp34
 70
     1
102
RTVSPropertyOp35
 70
     1
102
RTVSPropertyOp36
 70
     1
102
RTVSPropertyOp37
 70
     1
102
RTVSPropertyOp38
 70
     1
102
RTVSPropertyOp39
 70
     1
102
RTVSPropertyOp40
 70
     1
102
RTVSPropertyOp41
 70
     1
102
RTVSPropertyOp42
 70
     1
102
RTVSPropertyOp43
 70
     1
102
RTVSPropertyOp44
 70
     1
102
RTVSPropertyOp45
 70
     1
102
RTVSPropertyOp46
 70
     1
102
RTVSPropertyOp47
 70
     1
102
RTVSPropertyOp48
 70
     1
102
RTVSPropertyOp49
 70
     1
102
RTVSPropertyOp50
 70
     1
102
RTVSPropertyOp51
 70
     0
102
RTVSPropertyOp52
 70
     0
102
RTVSPropertyOp53
 70
     1
102
RTVSPropertyOp54
 70
     1
102
RTVSPropertyOp55
 70
     1
102
RTVSPropertyOp56
 70
     1
102
RTVSPropertyOp57
 70
     1
102
RTVSPropertyOp58
 70
     1
102
RTVSPropertyOp59
 70
     1
102
RTVSPropertyOp60
 70
     1
102
RTVSPropertyOp61
 70
     1
102
RTVSPropertyOp62
 70
     1
  0
XRECORD
  5
AF91
102
{ACAD_REACTORS
330
AF90
102
}
330
AF90
100
AcDbXrecord
280
     1
102
RTVSPost2010Prop28
280
     0
102
RTVSPost2010PropOp28
 70
     1
102
RTVSPost2010Prop29
280
     1
102
RTVSPost2010PropOp29
 70
     1
102
RTVSPost2010Prop30
280
     1
102
RTVSPost2010PropOp30
 70
     1
102
RTVSPost2010Prop31
280
     0
102
RTVSPost2010PropOp31
 70
     1
102
RTVSPost2010Prop32
280
     0
102
RTVSPost2010PropOp32
 70
     1
102
RTVSPost2010Prop33
280
     0
102
RTVSPost2010PropOp33
 70
     1
102
RTVSPost2010Prop34
280
     0
102
RTVSPost2010PropOp34
 70
     1
102
RTVSPost2010Prop35
280
     0
102
RTVSPost2010PropOp35
 70
     1
102
RTVSPost2010Prop36
280
     0
102
RTVSPost2010PropOp36
 70
     1
102
RTVSPost2010Prop37
 90
       50
102
RTVSPost2010PropOp37
 70
     0
102
RTVSPost2010Prop38
140
0.0
102
RTVSPost2010PropOp38
 70
     0
102
RTVSPost2010Prop39
140
1.0
102
RTVSPost2010PropOp39
 70
     0
102
RTVSPost2010Prop40
 90
        0
102
RTVSPost2010PropOp40
 70
     0
102
RTVSPost2010Prop41ColorIndex
 90
       18
102
RTVSPost2010Prop41ColorRGB
 90
        0
102
RTVSPost2010PropOp41
 70
     0
102
RTVSPost2010Prop42
 90
       50
102
RTVSPost2010PropOp42
 70
     0
102
RTVSPost2010Prop43
 90
        3
102
RTVSPost2010PropOp43
 70
     0
102
RTVSPost2010Prop44ColorIndex
 90
        5
102
RTVSPost2010Prop44ColorRGB
 90
      255
102
RTVSPost2010PropOp44
 70
     0
102
RTVSPost2010Prop45
280
     0
102
RTVSPost2010PropOp45
 70
     1
102
RTVSPost2010Prop46
 90
       50
102
RTVSPost2010PropOp46
 70
     0
102
RTVSPost2010Prop47
 90
       50
102
RTVSPost2010PropOp47
 70
     0
102
RTVSPost2010Prop48
 90
       50
102
RTVSPost2010PropOp48
 70
     0
102
RTVSPost2010Prop49
280
     0
102
RTVSPost2010PropOp49
 70
     1
102
RTVSPost2010Prop50
 90
       50
102
RTVSPost2010PropOp50
 70
     0
102
RTVSPost2010Prop51ColorIndex
 90
      256
102
RTVSPost2010Prop51ColorRGB
 90
-16777216
102
RTVSPost2010PropOp51
 70
     0
102
RTVSPost2010Prop52
140
1.0
102
RTVSPost2010PropOp52
 70
     0
102
RTVSPost2010Prop53
 90
        2
102
RTVSPost2010PropOp53
 70
     0
102
RTVSPost2010Prop54
  1
strokes_ogs.tif
102
RTVSPost2010PropOp54
 70
     0
102
RTVSPost2010Prop55
280
     0
102
RTVSPost2010PropOp55
 70
     1
102
RTVSPost2010Prop56
140
1.0
102
RTVSPost2010PropOp56
 70
     0
102
RTVSPost2010Prop57
140
1.0
102
RTVSPost2010PropOp57
 70
     0
102
RTVSPropertyOp0
 70
     0
102
RTVSPropertyOp1
 70
     0
102
RTVSPropertyOp2
 70
     0
102
RTVSPropertyOp3
 70
     0
102
RTVSPropertyOp4
 70
     0
102
RTVSPropertyOp5
 70
     0
102
RTVSPropertyOp6
 70
     0
102
RTVSPropertyOp7
 70
     0
102
RTVSPropertyOp8
 70
     0
102
RTVSPropertyOp9
 70
     0
102
RTVSPropertyOp10
 70
     0
102
RTVSPropertyOp11
 70
     0
102
RTVSPropertyOp12
 70
     0
102
RTVSPropertyOp13
 70
     0
102
RTVSPropertyOp14
 70
     2
102
RTVSPropertyOp15
 70
     0
102
RTVSPropertyOp16
 70
     0
102
RTVSPropertyOp17
 70
     0
102
RTVSPropertyOp18
 70
     0
102
RTVSPropertyOp19
 70
     0
102
RTVSPropertyOp20
 70
     0
102
RTVSPropertyOp21
 70
     0
102
RTVSPropertyOp22
 70
     0
102
RTVSPropertyOp23
 70
     0
102
RTVSPropertyOp24
 70
     0
102
RTVSPropertyOp25
 70
     0
102
RTVSPropertyOp26
 70
     0
102
RTVSPropertyOp27
 70
     0
102
RTVSPropertyOp28
 70
     1
102
RTVSPropertyOp29
 70
     1
102
RTVSPropertyOp30
 70
     1
102
RTVSPropertyOp31
 70
     1
102
RTVSPropertyOp32
 70
     1
102
RTVSPropertyOp33
 70
     1
102
RTVSPropertyOp34
 70
     1
102
RTVSPropertyOp35
 70
     1
102
RTVSPropertyOp36
 70
     1
102
RTVSPropertyOp37
 70
     0
102
RTVSPropertyOp38
 70
     0
102
RTVSPropertyOp39
 70
     0
102
RTVSPropertyOp40
 70
     0
102
RTVSPropertyOp41
 70
     0
102
RTVSPropertyOp42
 70
     0
102
RTVSPropertyOp43
 70
     0
102
RTVSPropertyOp44
 70
     0
102
RTVSPropertyOp45
 70
     1
102
RTVSPropertyOp46
 70
     0
102
RTVSPropertyOp47
 70
     0
102
RTVSPropertyOp48
 70
     0
102
RTVSPropertyOp49
 70
     1
102
RTVSPropertyOp50
 70
     0
102
RTVSPropertyOp51
 70
     0
102
RTVSPropertyOp52
 70
     0
102
RTVSPropertyOp53
 70
     0
102
RTVSPropertyOp54
 70
     0
102
RTVSPropertyOp55
 70
     1
102
RTVSPropertyOp56
 70
     0
102
RTVSPropertyOp57
 70
     0
102
RTVSPropertyOp58
 70
     0
102
RTVSPropertyOp59
 70
     0
102
RTVSPropertyOp60
 70
     0
102
RTVSPropertyOp61
 70
     0
102
RTVSPropertyOp62
 70
     0
  0
XRECORD
  5
AF77
102
{ACAD_REACTORS
330
AF76
102
}
330
AF76
100
AcDbXrecord
280
     1
102
RTVSPost2010Prop28
280
     0
102
RTVSPost2010PropOp28
 70
     1
102
RTVSPost2010Prop29
280
     1
102
RTVSPost2010PropOp29
 70
     1
102
RTVSPost2010Prop30
280
     1
102
RTVSPost2010PropOp30
 70
     1
102
RTVSPost2010Prop31
280
     0
102
RTVSPost2010PropOp31
 70
     1
102
RTVSPost2010Prop32
280
     0
102
RTVSPost2010PropOp32
 70
     1
102
RTVSPost2010Prop33
280
     0
102
RTVSPost2010PropOp33
 70
     1
102
RTVSPost2010Prop34
280
     0
102
RTVSPost2010PropOp34
 70
     1
102
RTVSPost2010Prop35
280
     0
102
RTVSPost2010PropOp35
 70
     1
102
RTVSPost2010Prop36
280
     0
102
RTVSPost2010PropOp36
 70
     1
102
RTVSPost2010Prop37
 90
       50
102
RTVSPost2010PropOp37
 70
     1
102
RTVSPost2010Prop38
140
0.0
102
RTVSPost2010PropOp38
 70
     1
102
RTVSPost2010Prop39
140
1.0
102
RTVSPost2010PropOp39
 70
     1
102
RTVSPost2010Prop40
 90
        0
102
RTVSPost2010PropOp40
 70
     1
102
RTVSPost2010Prop41ColorIndex
 90
       18
102
RTVSPost2010Prop41ColorRGB
 90
        0
102
RTVSPost2010PropOp41
 70
     1
102
RTVSPost2010Prop42
 90
       50
102
RTVSPost2010PropOp42
 70
     1
102
RTVSPost2010Prop43
 90
        3
102
RTVSPost2010PropOp43
 70
     1
102
RTVSPost2010Prop44ColorIndex
 90
        5
102
RTVSPost2010Prop44ColorRGB
 90
      255
102
RTVSPost2010PropOp44
 70
     1
102
RTVSPost2010Prop45
280
     0
102
RTVSPost2010PropOp45
 70
     1
102
RTVSPost2010Prop46
 90
       50
102
RTVSPost2010PropOp46
 70
     1
102
RTVSPost2010Prop47
 90
       50
102
RTVSPost2010PropOp47
 70
     1
102
RTVSPost2010Prop48
 90
       50
102
RTVSPost2010PropOp48
 70
     1
102
RTVSPost2010Prop49
280
     0
102
RTVSPost2010PropOp49
 70
     1
102
RTVSPost2010Prop50
 90
       50
102
RTVSPost2010PropOp50
 70
     1
102
RTVSPost2010Prop51ColorIndex
 90
      256
102
RTVSPost2010Prop51ColorRGB
 90
-16777216
102
RTVSPost2010PropOp51
 70
     0
102
RTVSPost2010Prop52
140
1.0
102
RTVSPost2010PropOp52
 70
     0
102
RTVSPost2010Prop53
 90
        2
102
RTVSPost2010PropOp53
 70
     1
102
RTVSPost2010Prop54
  1
strokes_ogs.tif
102
RTVSPost2010PropOp54
 70
     1
102
RTVSPost2010Prop55
280
     0
102
RTVSPost2010PropOp55
 70
     1
102
RTVSPost2010Prop56
140
1.0
102
RTVSPost2010PropOp56
 70
     1
102
RTVSPost2010Prop57
140
1.0
102
RTVSPost2010PropOp57
 70
     1
102
RTVSPropertyOp0
 70
     1
102
RTVSPropertyOp1
 70
     1
102
RTVSPropertyOp2
 70
     1
102
RTVSPropertyOp3
 70
     1
102
RTVSPropertyOp4
 70
     1
102
RTVSPropertyOp5
 70
     1
102
RTVSPropertyOp6
 70
     1
102
RTVSPropertyOp7
 70
     1
102
RTVSPropertyOp8
 70
     1
102
RTVSPropertyOp9
 70
     1
102
RTVSPropertyOp10
 70
     1
102
RTVSPropertyOp11
 70
     1
102
RTVSPropertyOp12
 70
     1
102
RTVSPropertyOp13
 70
     1
102
RTVSPropertyOp14
 70
     1
102
RTVSPropertyOp15
 70
     1
102
RTVSPropertyOp16
 70
     1
102
RTVSPropertyOp17
 70
     1
102
RTVSPropertyOp18
 70
     1
102
RTVSPropertyOp19
 70
     1
102
RTVSPropertyOp20
 70
     1
102
RTVSPropertyOp21
 70
     1
102
RTVSPropertyOp22
 70
     1
102
RTVSPropertyOp23
 70
     1
102
RTVSPropertyOp24
 70
     1
102
RTVSPropertyOp25
 70
     1
102
RTVSPropertyOp26
 70
     1
102
RTVSPropertyOp27
 70
     1
102
RTVSPropertyOp28
 70
     1
102
RTVSPropertyOp29
 70
     1
102
RTVSPropertyOp30
 70
     1
102
RTVSPropertyOp31
 70
     1
102
RTVSPropertyOp32
 70
     1
102
RTVSPropertyOp33
 70
     1
102
RTVSPropertyOp34
 70
     1
102
RTVSPropertyOp35
 70
     1
102
RTVSPropertyOp36
 70
     1
102
RTVSPropertyOp37
 70
     1
102
RTVSPropertyOp38
 70
     1
102
RTVSPropertyOp39
 70
     1
102
RTVSPropertyOp40
 70
     1
102
RTVSPropertyOp41
 70
     1
102
RTVSPropertyOp42
 70
     1
102
RTVSPropertyOp43
 70
     1
102
RTVSPropertyOp44
 70
     1
102
RTVSPropertyOp45
 70
     1
102
RTVSPropertyOp46
 70
     1
102
RTVSPropertyOp47
 70
     1
102
RTVSPropertyOp48
 70
     1
102
RTVSPropertyOp49
 70
     1
102
RTVSPropertyOp50
 70
     1
102
RTVSPropertyOp51
 70
     0
102
RTVSPropertyOp52
 70
     0
102
RTVSPropertyOp53
 70
     1
102
RTVSPropertyOp54
 70
     1
102
RTVSPropertyOp55
 70
     1
102
RTVSPropertyOp56
 70
     1
102
RTVSPropertyOp57
 70
     1
102
RTVSPropertyOp58
 70
     1
102
RTVSPropertyOp59
 70
     1
102
RTVSPropertyOp60
 70
     1
102
RTVSPropertyOp61
 70
     1
102
RTVSPropertyOp62
 70
     1
  0
XRECORD
  5
AF8D
102
{ACAD_REACTORS
330
AF8C
102
}
330
AF8C
100
AcDbXrecord
280
     1
102
RTVSPost2010Prop28
280
     0
102
RTVSPost2010PropOp28
 70
     1
102
RTVSPost2010Prop29
280
     1
102
RTVSPost2010PropOp29
 70
     1
102
RTVSPost2010Prop30
280
     1
102
RTVSPost2010PropOp30
 70
     1
102
RTVSPost2010Prop31
280
     0
102
RTVSPost2010PropOp31
 70
     1
102
RTVSPost2010Prop32
280
     0
102
RTVSPost2010PropOp32
 70
     1
102
RTVSPost2010Prop33
280
     0
102
RTVSPost2010PropOp33
 70
     1
102
RTVSPost2010Prop34
280
     0
102
RTVSPost2010PropOp34
 70
     1
102
RTVSPost2010Prop35
280
     0
102
RTVSPost2010PropOp35
 70
     1
102
RTVSPost2010Prop36
280
     0
102
RTVSPost2010PropOp36
 70
     1
102
RTVSPost2010Prop37
 90
       50
102
RTVSPost2010PropOp37
 70
     1
102
RTVSPost2010Prop38
140
0.0
102
RTVSPost2010PropOp38
 70
     1
102
RTVSPost2010Prop39
140
1.0
102
RTVSPost2010PropOp39
 70
     1
102
RTVSPost2010Prop40
 90
        0
102
RTVSPost2010PropOp40
 70
     1
102
RTVSPost2010Prop41ColorIndex
 90
       18
102
RTVSPost2010Prop41ColorRGB
 90
        0
102
RTVSPost2010PropOp41
 70
     1
102
RTVSPost2010Prop42
 90
       50
102
RTVSPost2010PropOp42
 70
     1
102
RTVSPost2010Prop43
 90
        3
102
RTVSPost2010PropOp43
 70
     1
102
RTVSPost2010Prop44ColorIndex
 90
        5
102
RTVSPost2010Prop44ColorRGB
 90
      255
102
RTVSPost2010PropOp44
 70
     1
102
RTVSPost2010Prop45
280
     0
102
RTVSPost2010PropOp45
 70
     1
102
RTVSPost2010Prop46
 90
       50
102
RTVSPost2010PropOp46
 70
     1
102
RTVSPost2010Prop47
 90
       50
102
RTVSPost2010PropOp47
 70
     1
102
RTVSPost2010Prop48
 90
       50
102
RTVSPost2010PropOp48
 70
     1
102
RTVSPost2010Prop49
280
     0
102
RTVSPost2010PropOp49
 70
     1
102
RTVSPost2010Prop50
 90
       50
102
RTVSPost2010PropOp50
 70
     1
102
RTVSPost2010Prop51ColorIndex
 90
      256
102
RTVSPost2010Prop51ColorRGB
 90
-16777216
102
RTVSPost2010PropOp51
 70
     0
102
RTVSPost2010Prop52
140
1.0
102
RTVSPost2010PropOp52
 70
     0
102
RTVSPost2010Prop53
 90
        2
102
RTVSPost2010PropOp53
 70
     1
102
RTVSPost2010Prop54
  1
strokes_ogs.tif
102
RTVSPost2010PropOp54
 70
     1
102
RTVSPost2010Prop55
280
     0
102
RTVSPost2010PropOp55
 70
     1
102
RTVSPost2010Prop56
140
1.0
102
RTVSPost2010PropOp56
 70
     1
102
RTVSPost2010Prop57
140
1.0
102
RTVSPost2010PropOp57
 70
     1
102
RTVSPropertyOp0
 70
     1
102
RTVSPropertyOp1
 70
     1
102
RTVSPropertyOp2
 70
     1
102
RTVSPropertyOp3
 70
     1
102
RTVSPropertyOp4
 70
     1
102
RTVSPropertyOp5
 70
     1
102
RTVSPropertyOp6
 70
     1
102
RTVSPropertyOp7
 70
     1
102
RTVSPropertyOp8
 70
     1
102
RTVSPropertyOp9
 70
     1
102
RTVSPropertyOp10
 70
     1
102
RTVSPropertyOp11
 70
     1
102
RTVSPropertyOp12
 70
     1
102
RTVSPropertyOp13
 70
     1
102
RTVSPropertyOp14
 70
     1
102
RTVSPropertyOp15
 70
     1
102
RTVSPropertyOp16
 70
     1
102
RTVSPropertyOp17
 70
     1
102
RTVSPropertyOp18
 70
     1
102
RTVSPropertyOp19
 70
     1
102
RTVSPropertyOp20
 70
     1
102
RTVSPropertyOp21
 70
     1
102
RTVSPropertyOp22
 70
     1
102
RTVSPropertyOp23
 70
     1
102
RTVSPropertyOp24
 70
     1
102
RTVSPropertyOp25
 70
     1
102
RTVSPropertyOp26
 70
     1
102
RTVSPropertyOp27
 70
     1
102
RTVSPropertyOp28
 70
     1
102
RTVSPropertyOp29
 70
     1
102
RTVSPropertyOp30
 70
     1
102
RTVSPropertyOp31
 70
     1
102
RTVSPropertyOp32
 70
     1
102
RTVSPropertyOp33
 70
     1
102
RTVSPropertyOp34
 70
     1
102
RTVSPropertyOp35
 70
     1
102
RTVSPropertyOp36
 70
     1
102
RTVSPropertyOp37
 70
     1
102
RTVSPropertyOp38
 70
     1
102
RTVSPropertyOp39
 70
     1
102
RTVSPropertyOp40
 70
     1
102
RTVSPropertyOp41
 70
     1
102
RTVSPropertyOp42
 70
     1
102
RTVSPropertyOp43
 70
     1
102
RTVSPropertyOp44
 70
     1
102
RTVSPropertyOp45
 70
     1
102
RTVSPropertyOp46
 70
     1
102
RTVSPropertyOp47
 70
     1
102
RTVSPropertyOp48
 70
     1
102
RTVSPropertyOp49
 70
     1
102
RTVSPropertyOp50
 70
     1
102
RTVSPropertyOp51
 70
     0
102
RTVSPropertyOp52
 70
     0
102
RTVSPropertyOp53
 70
     1
102
RTVSPropertyOp54
 70
     1
102
RTVSPropertyOp55
 70
     1
102
RTVSPropertyOp56
 70
     1
102
RTVSPropertyOp57
 70
     1
102
RTVSPropertyOp58
 70
     1
102
RTVSPropertyOp59
 70
     1
102
RTVSPropertyOp60
 70
     1
102
RTVSPropertyOp61
 70
     1
102
RTVSPropertyOp62
 70
     1
  0
XRECORD
  5
AF8B
102
{ACAD_REACTORS
330
AF8A
102
}
330
AF8A
100
AcDbXrecord
280
     1
102
RTVSPost2010Prop28
280
     0
102
RTVSPost2010PropOp28
 70
     1
102
RTVSPost2010Prop29
280
     1
102
RTVSPost2010PropOp29
 70
     1
102
RTVSPost2010Prop30
280
     1
102
RTVSPost2010PropOp30
 70
     1
102
RTVSPost2010Prop31
280
     0
102
RTVSPost2010PropOp31
 70
     1
102
RTVSPost2010Prop32
280
     0
102
RTVSPost2010PropOp32
 70
     1
102
RTVSPost2010Prop33
280
     0
102
RTVSPost2010PropOp33
 70
     1
102
RTVSPost2010Prop34
280
     0
102
RTVSPost2010PropOp34
 70
     1
102
RTVSPost2010Prop35
280
     0
102
RTVSPost2010PropOp35
 70
     1
102
RTVSPost2010Prop36
280
     0
102
RTVSPost2010PropOp36
 70
     1
102
RTVSPost2010Prop37
 90
       50
102
RTVSPost2010PropOp37
 70
     1
102
RTVSPost2010Prop38
140
0.0
102
RTVSPost2010PropOp38
 70
     1
102
RTVSPost2010Prop39
140
1.0
102
RTVSPost2010PropOp39
 70
     1
102
RTVSPost2010Prop40
 90
        0
102
RTVSPost2010PropOp40
 70
     1
102
RTVSPost2010Prop41ColorIndex
 90
       18
102
RTVSPost2010Prop41ColorRGB
 90
        0
102
RTVSPost2010PropOp41
 70
     1
102
RTVSPost2010Prop42
 90
       50
102
RTVSPost2010PropOp42
 70
     1
102
RTVSPost2010Prop43
 90
        3
102
RTVSPost2010PropOp43
 70
     1
102
RTVSPost2010Prop44ColorIndex
 90
        5
102
RTVSPost2010Prop44ColorRGB
 90
      255
102
RTVSPost2010PropOp44
 70
     1
102
RTVSPost2010Prop45
280
     0
102
RTVSPost2010PropOp45
 70
     1
102
RTVSPost2010Prop46
 90
       50
102
RTVSPost2010PropOp46
 70
     1
102
RTVSPost2010Prop47
 90
       50
102
RTVSPost2010PropOp47
 70
     1
102
RTVSPost2010Prop48
 90
       50
102
RTVSPost2010PropOp48
 70
     1
102
RTVSPost2010Prop49
280
     0
102
RTVSPost2010PropOp49
 70
     1
102
RTVSPost2010Prop50
 90
       50
102
RTVSPost2010PropOp50
 70
     1
102
RTVSPost2010Prop51ColorIndex
 90
      256
102
RTVSPost2010Prop51ColorRGB
 90
-16777216
102
RTVSPost2010PropOp51
 70
     0
102
RTVSPost2010Prop52
140
1.0
102
RTVSPost2010PropOp52
 70
     0
102
RTVSPost2010Prop53
 90
        2
102
RTVSPost2010PropOp53
 70
     1
102
RTVSPost2010Prop54
  1
strokes_ogs.tif
102
RTVSPost2010PropOp54
 70
     1
102
RTVSPost2010Prop55
280
     0
102
RTVSPost2010PropOp55
 70
     1
102
RTVSPost2010Prop56
140
1.0
102
RTVSPost2010PropOp56
 70
     1
102
RTVSPost2010Prop57
140
1.0
102
RTVSPost2010PropOp57
 70
     1
102
RTVSPropertyOp0
 70
     1
102
RTVSPropertyOp1
 70
     1
102
RTVSPropertyOp2
 70
     1
102
RTVSPropertyOp3
 70
     1
102
RTVSPropertyOp4
 70
     1
102
RTVSPropertyOp5
 70
     1
102
RTVSPropertyOp6
 70
     1
102
RTVSPropertyOp7
 70
     1
102
RTVSPropertyOp8
 70
     1
102
RTVSPropertyOp9
 70
     1
102
RTVSPropertyOp10
 70
     1
102
RTVSPropertyOp11
 70
     1
102
RTVSPropertyOp12
 70
     1
102
RTVSPropertyOp13
 70
     1
102
RTVSPropertyOp14
 70
     1
102
RTVSPropertyOp15
 70
     1
102
RTVSPropertyOp16
 70
     1
102
RTVSPropertyOp17
 70
     1
102
RTVSPropertyOp18
 70
     1
102
RTVSPropertyOp19
 70
     1
102
RTVSPropertyOp20
 70
     1
102
RTVSPropertyOp21
 70
     1
102
RTVSPropertyOp22
 70
     1
102
RTVSPropertyOp23
 70
     1
102
RTVSPropertyOp24
 70
     1
102
RTVSPropertyOp25
 70
     1
102
RTVSPropertyOp26
 70
     1
102
RTVSPropertyOp27
 70
     1
102
RTVSPropertyOp28
 70
     1
102
RTVSPropertyOp29
 70
     1
102
RTVSPropertyOp30
 70
     1
102
RTVSPropertyOp31
 70
     1
102
RTVSPropertyOp32
 70
     1
102
RTVSPropertyOp33
 70
     1
102
RTVSPropertyOp34
 70
     1
102
RTVSPropertyOp35
 70
     1
102
RTVSPropertyOp36
 70
     1
102
RTVSPropertyOp37
 70
     1
102
RTVSPropertyOp38
 70
     1
102
RTVSPropertyOp39
 70
     1
102
RTVSPropertyOp40
 70
     1
102
RTVSPropertyOp41
 70
     1
102
RTVSPropertyOp42
 70
     1
102
RTVSPropertyOp43
 70
     1
102
RTVSPropertyOp44
 70
     1
102
RTVSPropertyOp45
 70
     1
102
RTVSPropertyOp46
 70
     1
102
RTVSPropertyOp47
 70
     1
102
RTVSPropertyOp48
 70
     1
102
RTVSPropertyOp49
 70
     1
102
RTVSPropertyOp50
 70
     1
102
RTVSPropertyOp51
 70
     0
102
RTVSPropertyOp52
 70
     0
102
RTVSPropertyOp53
 70
     1
102
RTVSPropertyOp54
 70
     1
102
RTVSPropertyOp55
 70
     1
102
RTVSPropertyOp56
 70
     1
102
RTVSPropertyOp57
 70
     1
102
RTVSPropertyOp58
 70
     1
102
RTVSPropertyOp59
 70
     1
102
RTVSPropertyOp60
 70
     1
102
RTVSPropertyOp61
 70
     1
102
RTVSPropertyOp62
 70
     1
  0
XRECORD
  5
AF85
102
{ACAD_REACTORS
330
AF84
102
}
330
AF84
100
AcDbXrecord
280
     1
102
RTVSPost2010Prop28
280
     0
102
RTVSPost2010PropOp28
 70
     1
102
RTVSPost2010Prop29
280
     1
102
RTVSPost2010PropOp29
 70
     1
102
RTVSPost2010Prop30
280
     1
102
RTVSPost2010PropOp30
 70
     1
102
RTVSPost2010Prop31
280
     0
102
RTVSPost2010PropOp31
 70
     1
102
RTVSPost2010Prop32
280
     0
102
RTVSPost2010PropOp32
 70
     1
102
RTVSPost2010Prop33
280
     0
102
RTVSPost2010PropOp33
 70
     1
102
RTVSPost2010Prop34
280
     0
102
RTVSPost2010PropOp34
 70
     1
102
RTVSPost2010Prop35
280
     0
102
RTVSPost2010PropOp35
 70
     1
102
RTVSPost2010Prop36
280
     0
102
RTVSPost2010PropOp36
 70
     1
102
RTVSPost2010Prop37
 90
       50
102
RTVSPost2010PropOp37
 70
     1
102
RTVSPost2010Prop38
140
0.0
102
RTVSPost2010PropOp38
 70
     1
102
RTVSPost2010Prop39
140
1.0
102
RTVSPost2010PropOp39
 70
     1
102
RTVSPost2010Prop40
 90
        0
102
RTVSPost2010PropOp40
 70
     1
102
RTVSPost2010Prop41ColorIndex
 90
       18
102
RTVSPost2010Prop41ColorRGB
 90
        0
102
RTVSPost2010PropOp41
 70
     1
102
RTVSPost2010Prop42
 90
       50
102
RTVSPost2010PropOp42
 70
     1
102
RTVSPost2010Prop43
 90
        3
102
RTVSPost2010PropOp43
 70
     1
102
RTVSPost2010Prop44ColorIndex
 90
        5
102
RTVSPost2010Prop44ColorRGB
 90
      255
102
RTVSPost2010PropOp44
 70
     1
102
RTVSPost2010Prop45
280
     0
102
RTVSPost2010PropOp45
 70
     1
102
RTVSPost2010Prop46
 90
       50
102
RTVSPost2010PropOp46
 70
     1
102
RTVSPost2010Prop47
 90
       50
102
RTVSPost2010PropOp47
 70
     1
102
RTVSPost2010Prop48
 90
       50
102
RTVSPost2010PropOp48
 70
     1
102
RTVSPost2010Prop49
280
     0
102
RTVSPost2010PropOp49
 70
     1
102
RTVSPost2010Prop50
 90
       50
102
RTVSPost2010PropOp50
 70
     1
102
RTVSPost2010Prop51ColorIndex
 90
      256
102
RTVSPost2010Prop51ColorRGB
 90
-16777216
102
RTVSPost2010PropOp51
 70
     0
102
RTVSPost2010Prop52
140
1.0
102
RTVSPost2010PropOp52
 70
     0
102
RTVSPost2010Prop53
 90
        2
102
RTVSPost2010PropOp53
 70
     1
102
RTVSPost2010Prop54
  1
strokes_ogs.tif
102
RTVSPost2010PropOp54
 70
     1
102
RTVSPost2010Prop55
280
     0
102
RTVSPost2010PropOp55
 70
     1
102
RTVSPost2010Prop56
140
1.0
102
RTVSPost2010PropOp56
 70
     1
102
RTVSPost2010Prop57
140
1.0
102
RTVSPost2010PropOp57
 70
     1
102
RTVSPropertyOp0
 70
     1
102
RTVSPropertyOp1
 70
     1
102
RTVSPropertyOp2
 70
     1
102
RTVSPropertyOp3
 70
     1
102
RTVSPropertyOp4
 70
     1
102
RTVSPropertyOp5
 70
     1
102
RTVSPropertyOp6
 70
     1
102
RTVSPropertyOp7
 70
     1
102
RTVSPropertyOp8
 70
     1
102
RTVSPropertyOp9
 70
     1
102
RTVSPropertyOp10
 70
     1
102
RTVSPropertyOp11
 70
     1
102
RTVSPropertyOp12
 70
     1
102
RTVSPropertyOp13
 70
     1
102
RTVSPropertyOp14
 70
     1
102
RTVSPropertyOp15
 70
     1
102
RTVSPropertyOp16
 70
     1
102
RTVSPropertyOp17
 70
     1
102
RTVSPropertyOp18
 70
     1
102
RTVSPropertyOp19
 70
     1
102
RTVSPropertyOp20
 70
     1
102
RTVSPropertyOp21
 70
     1
102
RTVSPropertyOp22
 70
     1
102
RTVSPropertyOp23
 70
     1
102
RTVSPropertyOp24
 70
     1
102
RTVSPropertyOp25
 70
     1
102
RTVSPropertyOp26
 70
     1
102
RTVSPropertyOp27
 70
     1
102
RTVSPropertyOp28
 70
     1
102
RTVSPropertyOp29
 70
     1
102
RTVSPropertyOp30
 70
     1
102
RTVSPropertyOp31
 70
     1
102
RTVSPropertyOp32
 70
     1
102
RTVSPropertyOp33
 70
     1
102
RTVSPropertyOp34
 70
     1
102
RTVSPropertyOp35
 70
     1
102
RTVSPropertyOp36
 70
     1
102
RTVSPropertyOp37
 70
     1
102
RTVSPropertyOp38
 70
     1
102
RTVSPropertyOp39
 70
     1
102
RTVSPropertyOp40
 70
     1
102
RTVSPropertyOp41
 70
     1
102
RTVSPropertyOp42
 70
     1
102
RTVSPropertyOp43
 70
     1
102
RTVSPropertyOp44
 70
     1
102
RTVSPropertyOp45
 70
     1
102
RTVSPropertyOp46
 70
     1
102
RTVSPropertyOp47
 70
     1
102
RTVSPropertyOp48
 70
     1
102
RTVSPropertyOp49
 70
     1
102
RTVSPropertyOp50
 70
     1
102
RTVSPropertyOp51
 70
     0
102
RTVSPropertyOp52
 70
     0
102
RTVSPropertyOp53
 70
     1
102
RTVSPropertyOp54
 70
     1
102
RTVSPropertyOp55
 70
     1
102
RTVSPropertyOp56
 70
     1
102
RTVSPropertyOp57
 70
     1
102
RTVSPropertyOp58
 70
     1
102
RTVSPropertyOp59
 70
     1
102
RTVSPropertyOp60
 70
     1
102
RTVSPropertyOp61
 70
     1
102
RTVSPropertyOp62
 70
     1
  0
XRECORD
  5
AF87
102
{ACAD_REACTORS
330
AF86
102
}
330
AF86
100
AcDbXrecord
280
     1
102
RTVSPost2010Prop28
280
     0
102
RTVSPost2010PropOp28
 70
     1
102
RTVSPost2010Prop29
280
     1
102
RTVSPost2010PropOp29
 70
     1
102
RTVSPost2010Prop30
280
     1
102
RTVSPost2010PropOp30
 70
     1
102
RTVSPost2010Prop31
280
     0
102
RTVSPost2010PropOp31
 70
     1
102
RTVSPost2010Prop32
280
     0
102
RTVSPost2010PropOp32
 70
     1
102
RTVSPost2010Prop33
280
     0
102
RTVSPost2010PropOp33
 70
     1
102
RTVSPost2010Prop34
280
     0
102
RTVSPost2010PropOp34
 70
     1
102
RTVSPost2010Prop35
280
     0
102
RTVSPost2010PropOp35
 70
     1
102
RTVSPost2010Prop36
280
     0
102
RTVSPost2010PropOp36
 70
     1
102
RTVSPost2010Prop37
 90
       50
102
RTVSPost2010PropOp37
 70
     1
102
RTVSPost2010Prop38
140
0.0
102
RTVSPost2010PropOp38
 70
     1
102
RTVSPost2010Prop39
140
1.0
102
RTVSPost2010PropOp39
 70
     1
102
RTVSPost2010Prop40
 90
        0
102
RTVSPost2010PropOp40
 70
     1
102
RTVSPost2010Prop41ColorIndex
 90
       18
102
RTVSPost2010Prop41ColorRGB
 90
        0
102
RTVSPost2010PropOp41
 70
     1
102
RTVSPost2010Prop42
 90
       50
102
RTVSPost2010PropOp42
 70
     1
102
RTVSPost2010Prop43
 90
        3
102
RTVSPost2010PropOp43
 70
     1
102
RTVSPost2010Prop44ColorIndex
 90
        5
102
RTVSPost2010Prop44ColorRGB
 90
      255
102
RTVSPost2010PropOp44
 70
     1
102
RTVSPost2010Prop45
280
     0
102
RTVSPost2010PropOp45
 70
     1
102
RTVSPost2010Prop46
 90
       50
102
RTVSPost2010PropOp46
 70
     1
102
RTVSPost2010Prop47
 90
       50
102
RTVSPost2010PropOp47
 70
     1
102
RTVSPost2010Prop48
 90
       50
102
RTVSPost2010PropOp48
 70
     1
102
RTVSPost2010Prop49
280
     0
102
RTVSPost2010PropOp49
 70
     1
102
RTVSPost2010Prop50
 90
       50
102
RTVSPost2010PropOp50
 70
     1
102
RTVSPost2010Prop51ColorIndex
 90
      256
102
RTVSPost2010Prop51ColorRGB
 90
-16777216
102
RTVSPost2010PropOp51
 70
     0
102
RTVSPost2010Prop52
140
1.0
102
RTVSPost2010PropOp52
 70
     0
102
RTVSPost2010Prop53
 90
        2
102
RTVSPost2010PropOp53
 70
     1
102
RTVSPost2010Prop54
  1
strokes_ogs.tif
102
RTVSPost2010PropOp54
 70
     1
102
RTVSPost2010Prop55
280
     0
102
RTVSPost2010PropOp55
 70
     1
102
RTVSPost2010Prop56
140
1.0
102
RTVSPost2010PropOp56
 70
     1
102
RTVSPost2010Prop57
140
1.0
102
RTVSPost2010PropOp57
 70
     1
102
RTVSPropertyOp0
 70
     1
102
RTVSPropertyOp1
 70
     1
102
RTVSPropertyOp2
 70
     1
102
RTVSPropertyOp3
 70
     1
102
RTVSPropertyOp4
 70
     1
102
RTVSPropertyOp5
 70
     1
102
RTVSPropertyOp6
 70
     1
102
RTVSPropertyOp7
 70
     1
102
RTVSPropertyOp8
 70
     1
102
RTVSPropertyOp9
 70
     1
102
RTVSPropertyOp10
 70
     1
102
RTVSPropertyOp11
 70
     1
102
RTVSPropertyOp12
 70
     1
102
RTVSPropertyOp13
 70
     1
102
RTVSPropertyOp14
 70
     1
102
RTVSPropertyOp15
 70
     1
102
RTVSPropertyOp16
 70
     1
102
RTVSPropertyOp17
 70
     1
102
RTVSPropertyOp18
 70
     1
102
RTVSPropertyOp19
 70
     1
102
RTVSPropertyOp20
 70
     1
102
RTVSPropertyOp21
 70
     1
102
RTVSPropertyOp22
 70
     1
102
RTVSPropertyOp23
 70
     1
102
RTVSPropertyOp24
 70
     1
102
RTVSPropertyOp25
 70
     1
102
RTVSPropertyOp26
 70
     1
102
RTVSPropertyOp27
 70
     1
102
RTVSPropertyOp28
 70
     1
102
RTVSPropertyOp29
 70
     1
102
RTVSPropertyOp30
 70
     1
102
RTVSPropertyOp31
 70
     1
102
RTVSPropertyOp32
 70
     1
102
RTVSPropertyOp33
 70
     1
102
RTVSPropertyOp34
 70
     1
102
RTVSPropertyOp35
 70
     1
102
RTVSPropertyOp36
 70
     1
102
RTVSPropertyOp37
 70
     1
102
RTVSPropertyOp38
 70
     1
102
RTVSPropertyOp39
 70
     1
102
RTVSPropertyOp40
 70
     1
102
RTVSPropertyOp41
 70
     1
102
RTVSPropertyOp42
 70
     1
102
RTVSPropertyOp43
 70
     1
102
RTVSPropertyOp44
 70
     1
102
RTVSPropertyOp45
 70
     1
102
RTVSPropertyOp46
 70
     1
102
RTVSPropertyOp47
 70
     1
102
RTVSPropertyOp48
 70
     1
102
RTVSPropertyOp49
 70
     1
102
RTVSPropertyOp50
 70
     1
102
RTVSPropertyOp51
 70
     0
102
RTVSPropertyOp52
 70
     0
102
RTVSPropertyOp53
 70
     1
102
RTVSPropertyOp54
 70
     1
102
RTVSPropertyOp55
 70
     1
102
RTVSPropertyOp56
 70
     1
102
RTVSPropertyOp57
 70
     1
102
RTVSPropertyOp58
 70
     1
102
RTVSPropertyOp59
 70
     1
102
RTVSPropertyOp60
 70
     1
102
RTVSPropertyOp61
 70
     1
102
RTVSPropertyOp62
 70
     1
  0
XRECORD
  5
AF7D
102
{ACAD_REACTORS
330
AF7C
102
}
330
AF7C
100
AcDbXrecord
280
     1
102
RTVSPost2010Prop28
280
     0
102
RTVSPost2010PropOp28
 70
     1
102
RTVSPost2010Prop29
280
     1
102
RTVSPost2010PropOp29
 70
     1
102
RTVSPost2010Prop30
280
     1
102
RTVSPost2010PropOp30
 70
     1
102
RTVSPost2010Prop31
280
     0
102
RTVSPost2010PropOp31
 70
     1
102
RTVSPost2010Prop32
280
     0
102
RTVSPost2010PropOp32
 70
     1
102
RTVSPost2010Prop33
280
     0
102
RTVSPost2010PropOp33
 70
     1
102
RTVSPost2010Prop34
280
     0
102
RTVSPost2010PropOp34
 70
     1
102
RTVSPost2010Prop35
280
     0
102
RTVSPost2010PropOp35
 70
     1
102
RTVSPost2010Prop36
280
     0
102
RTVSPost2010PropOp36
 70
     1
102
RTVSPost2010Prop37
 90
       50
102
RTVSPost2010PropOp37
 70
     1
102
RTVSPost2010Prop38
140
0.0
102
RTVSPost2010PropOp38
 70
     1
102
RTVSPost2010Prop39
140
1.0
102
RTVSPost2010PropOp39
 70
     1
102
RTVSPost2010Prop40
 90
        0
102
RTVSPost2010PropOp40
 70
     1
102
RTVSPost2010Prop41ColorIndex
 90
       18
102
RTVSPost2010Prop41ColorRGB
 90
        0
102
RTVSPost2010PropOp41
 70
     1
102
RTVSPost2010Prop42
 90
       50
102
RTVSPost2010PropOp42
 70
     1
102
RTVSPost2010Prop43
 90
        3
102
RTVSPost2010PropOp43
 70
     1
102
RTVSPost2010Prop44ColorIndex
 90
        5
102
RTVSPost2010Prop44ColorRGB
 90
      255
102
RTVSPost2010PropOp44
 70
     1
102
RTVSPost2010Prop45
280
     0
102
RTVSPost2010PropOp45
 70
     1
102
RTVSPost2010Prop46
 90
       50
102
RTVSPost2010PropOp46
 70
     1
102
RTVSPost2010Prop47
 90
       50
102
RTVSPost2010PropOp47
 70
     1
102
RTVSPost2010Prop48
 90
       50
102
RTVSPost2010PropOp48
 70
     1
102
RTVSPost2010Prop49
280
     0
102
RTVSPost2010PropOp49
 70
     1
102
RTVSPost2010Prop50
 90
       50
102
RTVSPost2010PropOp50
 70
     1
102
RTVSPost2010Prop51ColorIndex
 90
      256
102
RTVSPost2010Prop51ColorRGB
 90
-16777216
102
RTVSPost2010PropOp51
 70
     0
102
RTVSPost2010Prop52
140
1.0
102
RTVSPost2010PropOp52
 70
     0
102
RTVSPost2010Prop53
 90
        2
102
RTVSPost2010PropOp53
 70
     1
102
RTVSPost2010Prop54
  1
strokes_ogs.tif
102
RTVSPost2010PropOp54
 70
     1
102
RTVSPost2010Prop55
280
     0
102
RTVSPost2010PropOp55
 70
     1
102
RTVSPost2010Prop56
140
1.0
102
RTVSPost2010PropOp56
 70
     1
102
RTVSPost2010Prop57
140
1.0
102
RTVSPost2010PropOp57
 70
     1
102
RTVSPropertyOp0
 70
     1
102
RTVSPropertyOp1
 70
     1
102
RTVSPropertyOp2
 70
     1
102
RTVSPropertyOp3
 70
     1
102
RTVSPropertyOp4
 70
     1
102
RTVSPropertyOp5
 70
     1
102
RTVSPropertyOp6
 70
     1
102
RTVSPropertyOp7
 70
     1
102
RTVSPropertyOp8
 70
     1
102
RTVSPropertyOp9
 70
     1
102
RTVSPropertyOp10
 70
     1
102
RTVSPropertyOp11
 70
     1
102
RTVSPropertyOp12
 70
     1
102
RTVSPropertyOp13
 70
     1
102
RTVSPropertyOp14
 70
     1
102
RTVSPropertyOp15
 70
     1
102
RTVSPropertyOp16
 70
     1
102
RTVSPropertyOp17
 70
     1
102
RTVSPropertyOp18
 70
     1
102
RTVSPropertyOp19
 70
     1
102
RTVSPropertyOp20
 70
     1
102
RTVSPropertyOp21
 70
     1
102
RTVSPropertyOp22
 70
     1
102
RTVSPropertyOp23
 70
     1
102
RTVSPropertyOp24
 70
     1
102
RTVSPropertyOp25
 70
     1
102
RTVSPropertyOp26
 70
     1
102
RTVSPropertyOp27
 70
     1
102
RTVSPropertyOp28
 70
     1
102
RTVSPropertyOp29
 70
     1
102
RTVSPropertyOp30
 70
     1
102
RTVSPropertyOp31
 70
     1
102
RTVSPropertyOp32
 70
     1
102
RTVSPropertyOp33
 70
     1
102
RTVSPropertyOp34
 70
     1
102
RTVSPropertyOp35
 70
     1
102
RTVSPropertyOp36
 70
     1
102
RTVSPropertyOp37
 70
     1
102
RTVSPropertyOp38
 70
     1
102
RTVSPropertyOp39
 70
     1
102
RTVSPropertyOp40
 70
     1
102
RTVSPropertyOp41
 70
     1
102
RTVSPropertyOp42
 70
     1
102
RTVSPropertyOp43
 70
     1
102
RTVSPropertyOp44
 70
     1
102
RTVSPropertyOp45
 70
     1
102
RTVSPropertyOp46
 70
     1
102
RTVSPropertyOp47
 70
     1
102
RTVSPropertyOp48
 70
     1
102
RTVSPropertyOp49
 70
     1
102
RTVSPropertyOp50
 70
     1
102
RTVSPropertyOp51
 70
     0
102
RTVSPropertyOp52
 70
     0
102
RTVSPropertyOp53
 70
     1
102
RTVSPropertyOp54
 70
     1
102
RTVSPropertyOp55
 70
     1
102
RTVSPropertyOp56
 70
     1
102
RTVSPropertyOp57
 70
     1
102
RTVSPropertyOp58
 70
     1
102
RTVSPropertyOp59
 70
     1
102
RTVSPropertyOp60
 70
     1
102
RTVSPropertyOp61
 70
     1
102
RTVSPropertyOp62
 70
     1
  0
XRECORD
  5
AF71
102
{ACAD_REACTORS
330
AF70
102
}
330
AF70
100
AcDbXrecord
280
     1
102
RTVSPost2010Prop28
280
     0
102
RTVSPost2010PropOp28
 70
     1
102
RTVSPost2010Prop29
280
     1
102
RTVSPost2010PropOp29
 70
     1
102
RTVSPost2010Prop30
280
     1
102
RTVSPost2010PropOp30
 70
     1
102
RTVSPost2010Prop31
280
     0
102
RTVSPost2010PropOp31
 70
     1
102
RTVSPost2010Prop32
280
     0
102
RTVSPost2010PropOp32
 70
     1
102
RTVSPost2010Prop33
280
     0
102
RTVSPost2010PropOp33
 70
     1
102
RTVSPost2010Prop34
280
     0
102
RTVSPost2010PropOp34
 70
     1
102
RTVSPost2010Prop35
280
     0
102
RTVSPost2010PropOp35
 70
     1
102
RTVSPost2010Prop36
280
     0
102
RTVSPost2010PropOp36
 70
     1
102
RTVSPost2010Prop37
 90
       50
102
RTVSPost2010PropOp37
 70
     1
102
RTVSPost2010Prop38
140
0.0
102
RTVSPost2010PropOp38
 70
     1
102
RTVSPost2010Prop39
140
1.0
102
RTVSPost2010PropOp39
 70
     1
102
RTVSPost2010Prop40
 90
        0
102
RTVSPost2010PropOp40
 70
     1
102
RTVSPost2010Prop41ColorIndex
 90
       18
102
RTVSPost2010Prop41ColorRGB
 90
        0
102
RTVSPost2010PropOp41
 70
     1
102
RTVSPost2010Prop42
 90
       50
102
RTVSPost2010PropOp42
 70
     1
102
RTVSPost2010Prop43
 90
        3
102
RTVSPost2010PropOp43
 70
     1
102
RTVSPost2010Prop44ColorIndex
 90
        5
102
RTVSPost2010Prop44ColorRGB
 90
      255
102
RTVSPost2010PropOp44
 70
     1
102
RTVSPost2010Prop45
280
     0
102
RTVSPost2010PropOp45
 70
     1
102
RTVSPost2010Prop46
 90
       50
102
RTVSPost2010PropOp46
 70
     1
102
RTVSPost2010Prop47
 90
       50
102
RTVSPost2010PropOp47
 70
     1
102
RTVSPost2010Prop48
 90
       50
102
RTVSPost2010PropOp48
 70
     1
102
RTVSPost2010Prop49
280
     0
102
RTVSPost2010PropOp49
 70
     1
102
RTVSPost2010Prop50
 90
       50
102
RTVSPost2010PropOp50
 70
     1
102
RTVSPost2010Prop51ColorIndex
 90
      256
102
RTVSPost2010Prop51ColorRGB
 90
-16777216
102
RTVSPost2010PropOp51
 70
     0
102
RTVSPost2010Prop52
140
1.0
102
RTVSPost2010PropOp52
 70
     0
102
RTVSPost2010Prop53
 90
        2
102
RTVSPost2010PropOp53
 70
     1
102
RTVSPost2010Prop54
  1
strokes_ogs.tif
102
RTVSPost2010PropOp54
 70
     1
102
RTVSPost2010Prop55
280
     0
102
RTVSPost2010PropOp55
 70
     1
102
RTVSPost2010Prop56
140
1.0
102
RTVSPost2010PropOp56
 70
     1
102
RTVSPost2010Prop57
140
1.0
102
RTVSPost2010PropOp57
 70
     1
102
RTVSPropertyOp0
 70
     1
102
RTVSPropertyOp1
 70
     1
102
RTVSPropertyOp2
 70
     1
102
RTVSPropertyOp3
 70
     1
102
RTVSPropertyOp4
 70
     1
102
RTVSPropertyOp5
 70
     1
102
RTVSPropertyOp6
 70
     1
102
RTVSPropertyOp7
 70
     1
102
RTVSPropertyOp8
 70
     1
102
RTVSPropertyOp9
 70
     1
102
RTVSPropertyOp10
 70
     1
102
RTVSPropertyOp11
 70
     1
102
RTVSPropertyOp12
 70
     1
102
RTVSPropertyOp13
 70
     1
102
RTVSPropertyOp14
 70
     1
102
RTVSPropertyOp15
 70
     1
102
RTVSPropertyOp16
 70
     1
102
RTVSPropertyOp17
 70
     1
102
RTVSPropertyOp18
 70
     1
102
RTVSPropertyOp19
 70
     1
102
RTVSPropertyOp20
 70
     1
102
RTVSPropertyOp21
 70
     1
102
RTVSPropertyOp22
 70
     1
102
RTVSPropertyOp23
 70
     1
102
RTVSPropertyOp24
 70
     1
102
RTVSPropertyOp25
 70
     1
102
RTVSPropertyOp26
 70
     1
102
RTVSPropertyOp27
 70
     1
102
RTVSPropertyOp28
 70
     1
102
RTVSPropertyOp29
 70
     1
102
RTVSPropertyOp30
 70
     1
102
RTVSPropertyOp31
 70
     1
102
RTVSPropertyOp32
 70
     1
102
RTVSPropertyOp33
 70
     1
102
RTVSPropertyOp34
 70
     1
102
RTVSPropertyOp35
 70
     1
102
RTVSPropertyOp36
 70
     1
102
RTVSPropertyOp37
 70
     1
102
RTVSPropertyOp38
 70
     1
102
RTVSPropertyOp39
 70
     1
102
RTVSPropertyOp40
 70
     1
102
RTVSPropertyOp41
 70
     1
102
RTVSPropertyOp42
 70
     1
102
RTVSPropertyOp43
 70
     1
102
RTVSPropertyOp44
 70
     1
102
RTVSPropertyOp45
 70
     1
102
RTVSPropertyOp46
 70
     1
102
RTVSPropertyOp47
 70
     1
102
RTVSPropertyOp48
 70
     1
102
RTVSPropertyOp49
 70
     1
102
RTVSPropertyOp50
 70
     1
102
RTVSPropertyOp51
 70
     0
102
RTVSPropertyOp52
 70
     0
102
RTVSPropertyOp53
 70
     1
102
RTVSPropertyOp54
 70
     1
102
RTVSPropertyOp55
 70
     1
102
RTVSPropertyOp56
 70
     1
102
RTVSPropertyOp57
 70
     1
102
RTVSPropertyOp58
 70
     1
102
RTVSPropertyOp59
 70
     1
102
RTVSPropertyOp60
 70
     1
102
RTVSPropertyOp61
 70
     1
102
RTVSPropertyOp62
 70
     1
  0
XRECORD
  5
AF89
102
{ACAD_REACTORS
330
AF88
102
}
330
AF88
100
AcDbXrecord
280
     1
102
RTVSPost2010Prop28
280
     0
102
RTVSPost2010PropOp28
 70
     1
102
RTVSPost2010Prop29
280
     1
102
RTVSPost2010PropOp29
 70
     1
102
RTVSPost2010Prop30
280
     1
102
RTVSPost2010PropOp30
 70
     1
102
RTVSPost2010Prop31
280
     0
102
RTVSPost2010PropOp31
 70
     1
102
RTVSPost2010Prop32
280
     0
102
RTVSPost2010PropOp32
 70
     1
102
RTVSPost2010Prop33
280
     0
102
RTVSPost2010PropOp33
 70
     1
102
RTVSPost2010Prop34
280
     0
102
RTVSPost2010PropOp34
 70
     1
102
RTVSPost2010Prop35
280
     0
102
RTVSPost2010PropOp35
 70
     1
102
RTVSPost2010Prop36
280
     0
102
RTVSPost2010PropOp36
 70
     1
102
RTVSPost2010Prop37
 90
       50
102
RTVSPost2010PropOp37
 70
     1
102
RTVSPost2010Prop38
140
0.0
102
RTVSPost2010PropOp38
 70
     1
102
RTVSPost2010Prop39
140
1.0
102
RTVSPost2010PropOp39
 70
     1
102
RTVSPost2010Prop40
 90
        0
102
RTVSPost2010PropOp40
 70
     1
102
RTVSPost2010Prop41ColorIndex
 90
       18
102
RTVSPost2010Prop41ColorRGB
 90
        0
102
RTVSPost2010PropOp41
 70
     1
102
RTVSPost2010Prop42
 90
       50
102
RTVSPost2010PropOp42
 70
     1
102
RTVSPost2010Prop43
 90
        3
102
RTVSPost2010PropOp43
 70
     1
102
RTVSPost2010Prop44ColorIndex
 90
        5
102
RTVSPost2010Prop44ColorRGB
 90
      255
102
RTVSPost2010PropOp44
 70
     1
102
RTVSPost2010Prop45
280
     0
102
RTVSPost2010PropOp45
 70
     1
102
RTVSPost2010Prop46
 90
       50
102
RTVSPost2010PropOp46
 70
     1
102
RTVSPost2010Prop47
 90
       50
102
RTVSPost2010PropOp47
 70
     1
102
RTVSPost2010Prop48
 90
       50
102
RTVSPost2010PropOp48
 70
     1
102
RTVSPost2010Prop49
280
     0
102
RTVSPost2010PropOp49
 70
     1
102
RTVSPost2010Prop50
 90
       50
102
RTVSPost2010PropOp50
 70
     1
102
RTVSPost2010Prop51ColorIndex
 90
      256
102
RTVSPost2010Prop51ColorRGB
 90
-16777216
102
RTVSPost2010PropOp51
 70
     0
102
RTVSPost2010Prop52
140
1.0
102
RTVSPost2010PropOp52
 70
     0
102
RTVSPost2010Prop53
 90
        2
102
RTVSPost2010PropOp53
 70
     1
102
RTVSPost2010Prop54
  1
strokes_ogs.tif
102
RTVSPost2010PropOp54
 70
     1
102
RTVSPost2010Prop55
280
     0
102
RTVSPost2010PropOp55
 70
     1
102
RTVSPost2010Prop56
140
1.0
102
RTVSPost2010PropOp56
 70
     1
102
RTVSPost2010Prop57
140
1.0
102
RTVSPost2010PropOp57
 70
     1
102
RTVSPropertyOp0
 70
     1
102
RTVSPropertyOp1
 70
     1
102
RTVSPropertyOp2
 70
     1
102
RTVSPropertyOp3
 70
     1
102
RTVSPropertyOp4
 70
     1
102
RTVSPropertyOp5
 70
     1
102
RTVSPropertyOp6
 70
     1
102
RTVSPropertyOp7
 70
     1
102
RTVSPropertyOp8
 70
     1
102
RTVSPropertyOp9
 70
     1
102
RTVSPropertyOp10
 70
     1
102
RTVSPropertyOp11
 70
     1
102
RTVSPropertyOp12
 70
     1
102
RTVSPropertyOp13
 70
     1
102
RTVSPropertyOp14
 70
     1
102
RTVSPropertyOp15
 70
     1
102
RTVSPropertyOp16
 70
     1
102
RTVSPropertyOp17
 70
     1
102
RTVSPropertyOp18
 70
     1
102
RTVSPropertyOp19
 70
     1
102
RTVSPropertyOp20
 70
     1
102
RTVSPropertyOp21
 70
     1
102
RTVSPropertyOp22
 70
     1
102
RTVSPropertyOp23
 70
     1
102
RTVSPropertyOp24
 70
     1
102
RTVSPropertyOp25
 70
     1
102
RTVSPropertyOp26
 70
     1
102
RTVSPropertyOp27
 70
     1
102
RTVSPropertyOp28
 70
     1
102
RTVSPropertyOp29
 70
     1
102
RTVSPropertyOp30
 70
     1
102
RTVSPropertyOp31
 70
     1
102
RTVSPropertyOp32
 70
     1
102
RTVSPropertyOp33
 70
     1
102
RTVSPropertyOp34
 70
     1
102
RTVSPropertyOp35
 70
     1
102
RTVSPropertyOp36
 70
     1
102
RTVSPropertyOp37
 70
     1
102
RTVSPropertyOp38
 70
     1
102
RTVSPropertyOp39
 70
     1
102
RTVSPropertyOp40
 70
     1
102
RTVSPropertyOp41
 70
     1
102
RTVSPropertyOp42
 70
     1
102
RTVSPropertyOp43
 70
     1
102
RTVSPropertyOp44
 70
     1
102
RTVSPropertyOp45
 70
     1
102
RTVSPropertyOp46
 70
     1
102
RTVSPropertyOp47
 70
     1
102
RTVSPropertyOp48
 70
     1
102
RTVSPropertyOp49
 70
     1
102
RTVSPropertyOp50
 70
     1
102
RTVSPropertyOp51
 70
     0
102
RTVSPropertyOp52
 70
     0
102
RTVSPropertyOp53
 70
     1
102
RTVSPropertyOp54
 70
     1
102
RTVSPropertyOp55
 70
     1
102
RTVSPropertyOp56
 70
     1
102
RTVSPropertyOp57
 70
     1
102
RTVSPropertyOp58
 70
     1
102
RTVSPropertyOp59
 70
     1
102
RTVSPropertyOp60
 70
     1
102
RTVSPropertyOp61
 70
     1
102
RTVSPropertyOp62
 70
     1
  0
ENDSEC
  0
EOF
