  0
SECTION
  2
HEADER
  9
$ACADVER
  1
AC1015
  9
$ACADMAINTVER
 70
    20
  9
$DWGCODEPAGE
  3
ANSI_932
  9
$INSBASE
 10
0.0
 20
0.0
 30
0.0
  9
$EXTMIN
 10
10.0
 20
9.999999999999998
 30
0.0
  9
$EXTMAX
 10
413.5001529999998
 20
298.517424
 30
0.0
  9
$LIMMIN
 10
0.0
 20
0.0
  9
$LIMMAX
 10
495.0
 20
341.25
  9
$ORTHOMODE
 70
     0
  9
$REGENMODE
 70
     1
  9
$FILLMODE
 70
     1
  9
$QTEXTMODE
 70
     0
  9
$MIRRTEXT
 70
     1
  9
$LTSCALE
 40
20.0
  9
$ATTMODE
 70
     1
  9
$TEXTSIZE
 40
5.0
  9
$TRACEWID
 40
1.0
  9
$TEXTSTYLE
  7
STANDARD
  9
$CLAYER
  8
0
  9
$CELTYPE
  6
BYLAYER
  9
$CECOLOR
 62
   256
  9
$CELTSCALE
 40
1.0
  9
$DISPSILH
 70
     0
  9
$DIMSCALE
 40
1.0
  9
$DIMASZ
 40
3.0
  9
$DIMEXO
 40
1.0
  9
$DIMDLI
 40
1.0
  9
$DIMRND
 40
0.0
  9
$DIMDLE
 40
0.0
  9
$DIMEXE
 40
1.0
  9
$DIMTP
 40
0.0
  9
$DIMTM
 40
0.0
  9
$DIMTXT
 40
3.2
  9
$DIMCEN
 40
0.0
  9
$DIMTSZ
 40
0.0
  9
$DIMTOL
 70
     0
  9
$DIMLIM
 70
     0
  9
$DIMTIH
 70
     0
  9
$DIMTOH
 70
     0
  9
$DIMSE1
 70
     0
  9
$DIMSE2
 70
     0
  9
$DIMTAD
 70
     1
  9
$DIMZIN
 70
     8
  9
$DIMBLK
  1

  9
$DIMASO
 70
     1
  9
$DIMSHO
 70
     1
  9
$DIMPOST
  1

  9
$DIMAPOST
  1

  9
$DIMALT
 70
     0
  9
$DIMALTD
 70
     2
  9
$DIMALTF
 40
25.4
  9
$DIMLFAC
 40
1.0
  9
$DIMTOFL
 70
     1
  9
$DIMTVP
 40
0.0
  9
$DIMTIX
 70
     0
  9
$DIMSOXD
 70
     0
  9
$DIMSAH
 70
     1
  9
$DIMBLK1
  1

  9
$DIMBLK2
  1

  9
$DIMSTYLE
  2
STANDARD
  9
$DIMCLRD
 70
   256
  9
$DIMCLRE
 70
   256
  9
$DIMCLRT
 70
   256
  9
$DIMTFAC
 40
1.0
  9
$DIMGAP
 40
1.0
  9
$DIMJUST
 70
     0
  9
$DIMSD1
 70
     0
  9
$DIMSD2
 70
     0
  9
$DIMTOLJ
 70
     1
  9
$DIMTZIN
 70
     0
  9
$DIMALTZ
 70
     0
  9
$DIMALTTZ
 70
     0
  9
$DIMUPT
 70
     0
  9
$DIMDEC
 70
     4
  9
$DIMTDEC
 70
     4
  9
$DIMALTU
 70
     2
  9
$DIMALTTD
 70
     2
  9
$DIMTXSTY
  7
STANDARD
  9
$DIMAUNIT
 70
     0
  9
$DIMADEC
 70
     0
  9
$DIMALTRND
 40
0.0
  9
$DIMAZIN
 70
     0
  9
$DIMDSEP
 70
    46
  9
$DIMATFIT
 70
     3
  9
$DIMFRAC
 70
     0
  9
$DIMLDRBLK
  1

  9
$DIMLUNIT
 70
     2
  9
$DIMLWD
 70
    -2
  9
$DIMLWE
 70
    -2
  9
$DIMTMOVE
 70
     0
  9
$LUNITS
 70
     2
  9
$LUPREC
 70
     4
  9
$SKETCHINC
 40
1.0
  9
$FILLETRAD
 40
0.0
  9
$AUNITS
 70
     0
  9
$AUPREC
 70
     2
  9
$MENU
  1
.
  9
$ELEVATION
 40
0.0
  9
$PELEVATION
 40
0.0
  9
$THICKNESS
 40
0.0
  9
$LIMCHECK
 70
     0
  9
$CHAMFERA
 40
1.0
  9
$CHAMFERB
 40
1.0
  9
$CHAMFERC
 40
0.0
  9
$CHAMFERD
 40
0.0
  9
$SKPOLY
 70
     0
  9
$TDCREATE
 40
2450737.682945023
  9
$TDUCREATE
 40
2450737.307945023
  9
$TDUPDATE
 40
2457192.638457303
  9
$TDUUPDATE
 40
2457192.263457304
  9
$TDINDWG
 40
0.0003113773
  9
$TDUSRTIMER
 40
0.0003108912
  9
$USRTIMER
 70
     1
  9
$ANGBASE
 50
0.0
  9
$ANGDIR
 70
     0
  9
$PDMODE
 70
     0
  9
$PDSIZE
 40
0.0
  9
$PLINEWID
 40
0.0
  9
$SPLFRAME
 70
     0
  9
$SPLINETYPE
 70
     6
  9
$SPLINESEGS
 70
     8
  9
$HANDSEED
  5
AB66
  9
$SURFTAB1
 70
     6
  9
$SURFTAB2
 70
     6
  9
$SURFTYPE
 70
     6
  9
$SURFU
 70
     6
  9
$SURFV
 70
     6
  9
$UCSBASE
  2

  9
$UCSNAME
  2

  9
$UCSORG
 10
0.0
 20
0.0
 30
0.0
  9
$UCSXDIR
 10
1.0
 20
0.0
 30
0.0
  9
$UCSYDIR
 10
0.0
 20
1.0
 30
0.0
  9
$UCSORTHOREF
  2

  9
$UCSORTHOVIEW
 70
     0
  9
$UCSORGTOP
 10
0.0
 20
0.0
 30
0.0
  9
$UCSORGBOTTOM
 10
0.0
 20
0.0
 30
0.0
  9
$UCSORGLEFT
 10
0.0
 20
0.0
 30
0.0
  9
$UCSORGRIGHT
 10
0.0
 20
0.0
 30
0.0
  9
$UCSORGFRONT
 10
0.0
 20
0.0
 30
0.0
  9
$UCSORGBACK
 10
0.0
 20
0.0
 30
0.0
  9
$PUCSBASE
  2

  9
$PUCSNAME
  2

  9
$PUCSORG
 10
0.0
 20
0.0
 30
0.0
  9
$PUCSXDIR
 10
1.0
 20
0.0
 30
0.0
  9
$PUCSYDIR
 10
0.0
 20
1.0
 30
0.0
  9
$PUCSORTHOREF
  2

  9
$PUCSORTHOVIEW
 70
     0
  9
$PUCSORGTOP
 10
0.0
 20
0.0
 30
0.0
  9
$PUCSORGBOTTOM
 10
0.0
 20
0.0
 30
0.0
  9
$PUCSORGLEFT
 10
0.0
 20
0.0
 30
0.0
  9
$PUCSORGRIGHT
 10
0.0
 20
0.0
 30
0.0
  9
$PUCSORGFRONT
 10
0.0
 20
0.0
 30
0.0
  9
$PUCSORGBACK
 10
0.0
 20
0.0
 30
0.0
  9
$USERI1
 70
     0
  9
$USERI2
 70
     0
  9
$USERI3
 70
     0
  9
$USERI4
 70
     0
  9
$USERI5
 70
     0
  9
$USERR1
 40
0.0
  9
$USERR2
 40
0.0
  9
$USERR3
 40
0.0
  9
$USERR4
 40
0.0
  9
$USERR5
 40
0.0
  9
$WORLDVIEW
 70
     1
  9
$SHADEDGE
 70
     3
  9
$SHADEDIF
 70
    70
  9
$TILEMODE
 70
     1
  9
$MAXACTVP
 70
    16
  9
$PINSBASE
 10
0.0
 20
0.0
 30
0.0
  9
$PLIMCHECK
 70
     0
  9
$PEXTMIN
 10
1.000000000000000E+20
 20
1.000000000000000E+20
 30
1.000000000000000E+20
  9
$PEXTMAX
 10
-1.000000000000000E+20
 20
-1.000000000000000E+20
 30
-1.000000000000000E+20
  9
$PLIMMIN
 10
0.0
 20
0.0
  9
$PLIMMAX
 10
420.0
 20
297.0
  9
$UNITMODE
 70
     0
  9
$VISRETAIN
 70
     0
  9
$PLINEGEN
 70
     0
  9
$PSLTSCALE
 70
     0
  9
$TREEDEPTH
 70
  3020
  9
$CMLSTYLE
  2
STANDARD
  9
$CMLJUST
 70
     0
  9
$CMLSCALE
 40
1.0
  9
$PROXYGRAPHICS
 70
     1
  9
$MEASUREMENT
 70
     0
  9
$CELWEIGHT
370
    -1
  9
$ENDCAPS
280
     0
  9
$JOINSTYLE
280
     0
  9
$LWDISPLAY
290
     0
  9
$INSUNITS
 70
     0
  9
$HYPERLINKBASE
  1

  9
$STYLESHEET
  1

  9
$XEDIT
290
     1
  9
$CEPSNTYPE
380
     0
  9
$PSTYLEMODE
290
     1
  9
$FINGERPRINTGUID
  2
{91683DDD-C0FB-4C85-B24E-51364F5EB86F}
  9
$VERSIONGUID
  2
{3AC9D210-3292-4157-BC2D-8ADBD399B687}
  9
$EXTNAMES
290
     1
  9
$PSVPSCALE
 40
0.0
  9
$OLESTARTUP
290
     0
  0
ENDSEC
  0
SECTION
  2
CLASSES
  0
CLASS
  1
ACDBDICTIONARYWDFLT
  2
AcDbDictionaryWithDefault
  3
ObjectDBX Classes
 90
        0
280
     0
281
     0
  0
CLASS
  1
ACDBPLACEHOLDER
  2
AcDbPlaceHolder
  3
ObjectDBX Classes
 90
        0
280
     0
281
     0
  0
CLASS
  1
LAYOUT
  2
AcDbLayout
  3
ObjectDBX Classes
 90
        0
280
     0
281
     0
  0
CLASS
  1
DICTIONARYVAR
  2
AcDbDictionaryVar
  3
ObjectDBX Classes
 90
        0
280
     0
281
     0
  0
CLASS
  1
MATERIAL
  2
AcDbMaterial
  3
ObjectDBX Classes
 90
     1153
280
     0
281
     0
  0
CLASS
  1
VISUALSTYLE
  2
AcDbVisualStyle
  3
ObjectDBX Classes
 90
     4095
280
     0
281
     0
  0
CLASS
  1
TABLESTYLE
  2
AcDbTableStyle
  3
ObjectDBX Classes
 90
     4095
280
     0
281
     0
  0
CLASS
  1
SCALE
  2
AcDbScale
  3
ObjectDBX Classes
 90
     1153
280
     0
281
     0
  0
CLASS
  1
MLEADERSTYLE
  2
AcDbMLeaderStyle
  3
ACDB_MLEADERSTYLE_CLASS
 90
     4095
280
     0
281
     0
  0
CLASS
  1
ACDBSECTIONVIEWSTYLE
  2
AcDbSectionViewStyle
  3
ObjectDBX Classes
 90
     1025
280
     0
281
     0
  0
CLASS
  1
ACDBDETAILVIEWSTYLE
  2
AcDbDetailViewStyle
  3
ObjectDBX Classes
 90
     1025
280
     0
281
     0
  0
CLASS
  1
CELLSTYLEMAP
  2
AcDbCellStyleMap
  3
ObjectDBX Classes
 90
     1152
280
     0
281
     0
  0
ENDSEC
  0
SECTION
  2
TABLES
  0
TABLE
  2
VPORT
  5
A872
330
0
100
AcDbSymbolTable
 70
     1
  0
VPORT
  5
AAAF
330
A872
100
AcDbSymbolTableRecord
100
AcDbViewportTableRecord
  2
*ACTIVE
 70
     0
 10
0.0
 20
0.0
 11
1.0
 21
1.0
 12
299.1513373322346
 22
154.261809170871
 13
0.0
 23
0.0
 14
10.0
 24
10.0
 15
10.0
 25
10.0
 16
0.0
 26
0.0
 36
1.0
 17
0.0
 27
0.0
 37
0.0
 40
291.7765839925464
 41
1.899603698811096
 42
50.0
 43
0.0
 44
0.0
 50
0.0
 51
0.0
 71
     0
 72
   100
 73
     1
 74
     0
 75
     0
 76
     0
 77
     0
 78
     0
281
     0
 65
     1
110
0.0
120
0.0
130
0.0
111
1.0
121
0.0
131
0.0
112
0.0
122
1.0
132
0.0
 79
     0
146
0.0
1001
ACAD_NAV_VCDISPLAY
1070
     3
  0
ENDTAB
  0
TABLE
  2
LTYPE
  5
A86F
330
0
100
AcDbSymbolTable
 70
     4
  0
LTYPE
  5
A87D
330
A86F
100
AcDbSymbolTableRecord
100
AcDbLinetypeTableRecord
  2
BYBLOCK
 70
     0
  3

 72
    65
 73
     0
 40
0.0
  0
LTYPE
  5
A87E
330
A86F
100
AcDbSymbolTableRecord
100
AcDbLinetypeTableRecord
  2
BYLAYER
 70
     0
  3

 72
    65
 73
     0
 40
0.0
  0
LTYPE
  5
A87F
330
A86F
100
AcDbSymbolTableRecord
100
AcDbLinetypeTableRecord
  2
CONTINUOUS
 70
     0
  3
Solid line
 72
    65
 73
     0
 40
0.0
  0
LTYPE
  5
A88D
330
A86F
100
AcDbSymbolTableRecord
100
AcDbLinetypeTableRecord
  2
DASHED
 70
     0
  3
__ __ __ __ __ __ __ __ __ __ __ __ __ __ __ __
 72
    65
 73
     2
 40
0.75
 49
0.5
 74
     0
 49
-0.25
 74
     0
  0
LTYPE
  5
A88E
330
A86F
100
AcDbSymbolTableRecord
100
AcDbLinetypeTableRecord
  2
CENTER
 70
     0
  3
____ _ ____ _ ____ _ ____ _ ____ _ ____ _ ____ 
 72
    65
 73
     4
 40
2.0
 49
1.25
 74
     0
 49
-0.25
 74
     0
 49
0.25
 74
     0
 49
-0.25
 74
     0
  0
LTYPE
  5
A88F
330
A86F
100
AcDbSymbolTableRecord
100
AcDbLinetypeTableRecord
  2
PHANTOM
 70
     0
  3
______  __  __  ______  __  __  ______  __  __ 
 72
    65
 73
     6
 40
2.5
 49
1.25
 74
     0
 49
-0.25
 74
     0
 49
0.25
 74
     0
 49
-0.25
 74
     0
 49
0.25
 74
     0
 49
-0.25
 74
     0
  0
ENDTAB
  0
TABLE
  2
LAYER
  5
A86C
330
0
100
AcDbSymbolTable
 70
     8
  0
LAYER
  5
A87A
102
{ACAD_XDICTIONARY
360
AB0A
102
}
330
A86C
100
AcDbSymbolTableRecord
100
AcDbLayerTableRecord
  2
0
 70
     0
 62
     7
  6
CONTINUOUS
370
    -3
390
AAB8
  0
LAYER
  5
A890
102
{ACAD_XDICTIONARY
360
AB0C
102
}
330
A86C
100
AcDbSymbolTableRecord
100
AcDbLayerTableRecord
  2
4
 70
     0
 62
     1
  6
CENTER
370
    -3
390
AAB8
  0
LAYER
  5
A891
102
{ACAD_XDICTIONARY
360
AB0E
102
}
330
A86C
100
AcDbSymbolTableRecord
100
AcDbLayerTableRecord
  2
5
 70
     0
 62
     6
  6
PHANTOM
370
    -3
390
AAB8
  0
LAYER
  5
A892
102
{ACAD_XDICTIONARY
360
AB10
102
}
330
A86C
100
AcDbSymbolTableRecord
100
AcDbLayerTableRecord
  2
1
 70
     0
 62
     7
  6
CONTINUOUS
370
    -3
390
AAB8
  0
LAYER
  5
A893
102
{ACAD_XDICTIONARY
360
AB12
102
}
330
A86C
100
AcDbSymbolTableRecord
100
AcDbLayerTableRecord
  2
2
 70
     0
 62
     4
  6
CONTINUOUS
370
    -3
390
AAB8
  0
LAYER
  5
A894
102
{ACAD_XDICTIONARY
360
AB14
102
}
330
A86C
100
AcDbSymbolTableRecord
100
AcDbLayerTableRecord
  2
3
 70
     0
 62
     2
  6
DASHED
370
    -3
390
AAB8
  0
LAYER
  5
A895
102
{ACAD_XDICTIONARY
360
AB16
102
}
330
A86C
100
AcDbSymbolTableRecord
100
AcDbLayerTableRecord
  2
6
 70
     0
 62
     5
  6
CONTINUOUS
370
    -3
390
AAB8
  0
LAYER
  5
A896
102
{ACAD_XDICTIONARY
360
AB18
102
}
330
A86C
100
AcDbSymbolTableRecord
100
AcDbLayerTableRecord
  2
7
 70
     0
 62
     3
  6
CONTINUOUS
370
    -3
390
AAB8
  0
ENDTAB
  0
TABLE
  2
STYLE
  5
A86D
330
0
100
AcDbSymbolTable
 70
     1
  0
STYLE
  5
A87B
330
A86D
100
AcDbSymbolTableRecord
100
AcDbTextStyleTableRecord
  2
STANDARD
 70
     0
 40
0.0
 41
1.0
 50
0.0
 71
     0
 42
5.0
  3
txt
  4

  0
ENDTAB
  0
TABLE
  2
VIEW
  5
A870
330
0
100
AcDbSymbolTable
 70
     0
  0
ENDTAB
  0
TABLE
  2
UCS
  5
A871
330
0
100
AcDbSymbolTable
 70
     0
  0
ENDTAB
  0
TABLE
  2
APPID
  5
A873
330
0
100
AcDbSymbolTable
 70
     3
  0
APPID
  5
A87C
330
A873
100
AcDbSymbolTableRecord
100
AcDbRegAppTableRecord
  2
ACAD
 70
     0
  0
APPID
  5
AB24
330
A873
100
AcDbSymbolTableRecord
100
AcDbRegAppTableRecord
  2
ACAD_NAV_VCDISPLAY
 70
     0
  0
APPID
  5
AB5D
330
A873
100
AcDbSymbolTableRecord
100
AcDbRegAppTableRecord
  2
ACAD_MLEADERVER
 70
     0
  0
ENDTAB
  0
TABLE
  2
DIMSTYLE
  5
A874
330
0
100
AcDbSymbolTable
 70
     1
100
AcDbDimStyleTable
 71
     0
  0
DIMSTYLE
105
A898
330
A874
100
AcDbSymbolTableRecord
100
AcDbDimStyleTableRecord
  2
STANDARD
 70
     0
 41
3.0
 42
1.0
 43
1.0
 44
1.0
 73
     0
 74
     0
 77
     1
 78
     8
140
3.2
141
0.0
147
1.0
172
     1
173
     1
176
   256
177
   256
178
   256
284
     8
285
     8
286
     8
340
A87B
  0
ENDTAB
  0
TABLE
  2
BLOCK_RECORD
  5
A86B
330
0
100
AcDbSymbolTable
 70
     0
  0
BLOCK_RECORD
  5
A888
102
{ACAD_XDICTIONARY
360
AAB2
102
}
330
A86B
100
AcDbSymbolTableRecord
100
AcDbBlockTableRecord
  2
*MODEL_SPACE
340
AB06
  0
BLOCK_RECORD
  5
A884
102
{ACAD_XDICTIONARY
360
AAB0
102
}
330
A86B
100
AcDbSymbolTableRecord
100
AcDbBlockTableRecord
  2
*PAPER_SPACE
340
AB07
  0
ENDTAB
  0
ENDSEC
  0
SECTION
  2
BLOCKS
  0
BLOCK
  5
A889
330
A888
100
AcDbEntity
  8
0
100
AcDbBlockBegin
  2
*MODEL_SPACE
 70
     0
 10
0.0
 20
0.0
 30
0.0
  3
*MODEL_SPACE
  1

  0
ENDBLK
  5
A88A
330
A888
100
AcDbEntity
  8
0
100
AcDbBlockEnd
  0
BLOCK
  5
A885
330
A884
100
AcDbEntity
 67
     1
  8
0
100
AcDbBlockBegin
  2
*PAPER_SPACE
 70
     0
 10
0.0
 20
0.0
 30
0.0
  3
*PAPER_SPACE
  1

  0
ENDBLK
  5
A886
330
A884
100
AcDbEntity
 67
     1
  8
0
100
AcDbBlockEnd
  0
ENDSEC
  0
SECTION
  2
ENTITIES
  0
TEXT
  5
A8A0
330
A888
100
AcDbEntity
  8
7
  6
Continuous
100
AcDbText
 10
10.0
 20
18.0
 30
0.0
 40
3.0
  1
TYPE No.THA-195-004
100
AcDbText
  0
TEXT
  5
A8A1
330
A888
100
AcDbEntity
  8
7
  6
Continuous
100
AcDbText
 10
10.0
 20
26.0
 30
0.0
 40
3.0
  1
CODE No.3808
100
AcDbText
  0
TEXT
  5
A8A2
330
A888
100
AcDbEntity
  8
1
  6
Continuous
100
AcDbText
 10
10.0
 20
10.0
 30
0.0
 40
1.399999999999999
  1
LAYER
100
AcDbText
  0
TEXT
  5
A8A3
330
A888
100
AcDbEntity
  8
1
  6
Continuous
100
AcDbText
 10
17.97951099999998
 20
10.04873699999998
 30
0.0
 40
1.399999999999999
  1
1
100
AcDbText
  0
TEXT
  5
A8A4
330
A888
100
AcDbEntity
  8
7
  6
Continuous
100
AcDbText
 10
29.97951099999999
 20
10.04873699999998
 30
0.0
 40
1.399999999999999
  1
7
100
AcDbText
  0
TEXT
  5
A8A5
330
A888
100
AcDbEntity
  8
4
  6
CENTER
100
AcDbText
 10
23.97951099999999
 20
10.04873699999998
 30
0.0
 40
1.399999999999999
  1
4
100
AcDbText
  0
TEXT
  5
A8A6
330
A888
100
AcDbEntity
  8
3
  6
DASHED
100
AcDbText
 10
21.979511
 20
10.04873699999998
 30
0.0
 40
1.399999999999999
  1
3
100
AcDbText
  0
TEXT
  5
A8A7
330
A888
100
AcDbEntity
  8
2
  6
Continuous
100
AcDbText
 10
19.97951099999999
 20
10.04873699999998
 30
0.0
 40
1.399999999999999
  1
2
100
AcDbText
  0
TEXT
  5
A8A8
330
A888
100
AcDbEntity
  8
6
  6
Continuous
100
AcDbText
 10
27.979511
 20
10.04873699999998
 30
0.0
 40
1.399999999999999
  1
6
100
AcDbText
  0
TEXT
  5
A8A9
330
A888
100
AcDbEntity
  8
5
  6
PHANTOM
100
AcDbText
 10
25.97951099999999
 20
10.04873699999998
 30
0.0
 40
1.399999999999999
  1
5
100
AcDbText
  0
LINE
  5
A8AA
330
A888
100
AcDbEntity
  8
1
  6
Continuous
100
AcDbLine
 10
132.917104
 20
201.289454
 30
0.0
 11
132.917104
 21
139.289454
 31
0.0
  0
LINE
  5
A8AB
330
A888
100
AcDbEntity
  8
1
  6
Continuous
100
AcDbLine
 10
132.917104
 20
201.289454
 30
0.0
 11
12.917104
 21
201.289454
 31
0.0
  0
LINE
  5
A8AC
330
A888
100
AcDbEntity
  8
1
  6
Continuous
100
AcDbLine
 10
12.917104
 20
201.289454
 30
0.0
 11
12.917104
 21
139.289454
 31
0.0
  0
LINE
  5
A8AD
330
A888
100
AcDbEntity
  8
1
  6
Continuous
100
AcDbLine
 10
132.917104
 20
139.289454
 30
0.0
 11
12.917104
 21
139.289454
 31
0.0
  0
LINE
  5
A8AE
330
A888
100
AcDbEntity
  8
1
  6
Continuous
100
AcDbLine
 10
132.917104
 20
197.789454
 30
0.0
 11
12.917104
 21
197.789454
 31
0.0
  0
LINE
  5
A8AF
330
A888
100
AcDbEntity
  8
1
  6
Continuous
100
AcDbLine
 10
132.917104
 20
195.789454
 30
0.0
 11
12.917104
 21
195.789454
 31
0.0
  0
LINE
  5
A8B0
330
A888
100
AcDbEntity
  8
1
  6
Continuous
100
AcDbLine
 10
132.917104
 20
193.789454
 30
0.0
 11
12.917104
 21
193.789454
 31
0.0
  0
LINE
  5
A8B1
330
A888
100
AcDbEntity
  8
1
  6
Continuous
100
AcDbLine
 10
132.917104
 20
191.7894539999998
 30
0.0
 11
12.917104
 21
191.7894539999998
 31
0.0
  0
LINE
  5
A8B2
330
A888
100
AcDbEntity
  8
1
  6
Continuous
100
AcDbLine
 10
132.917104
 20
189.789454
 30
0.0
 11
12.917104
 21
189.789454
 31
0.0
  0
LINE
  5
A8B3
330
A888
100
AcDbEntity
  8
1
  6
Continuous
100
AcDbLine
 10
132.917104
 20
187.7894539999998
 30
0.0
 11
12.917104
 21
187.7894539999998
 31
0.0
  0
LINE
  5
A8B4
330
A888
100
AcDbEntity
  8
1
  6
Continuous
100
AcDbLine
 10
132.917104
 20
185.789454
 30
0.0
 11
12.917104
 21
185.789454
 31
0.0
  0
LINE
  5
A8B5
330
A888
100
AcDbEntity
  8
1
  6
Continuous
100
AcDbLine
 10
132.917104
 20
183.789454
 30
0.0
 11
12.917104
 21
183.789454
 31
0.0
  0
LINE
  5
A8B6
330
A888
100
AcDbEntity
  8
1
  6
Continuous
100
AcDbLine
 10
132.917104
 20
181.789454
 30
0.0
 11
12.917104
 21
181.789454
 31
0.0
  0
LINE
  5
A8B7
330
A888
100
AcDbEntity
  8
1
  6
Continuous
100
AcDbLine
 10
132.917104
 20
179.789454
 30
0.0
 11
12.917104
 21
179.789454
 31
0.0
  0
LINE
  5
A8B8
330
A888
100
AcDbEntity
  8
1
  6
Continuous
100
AcDbLine
 10
132.917104
 20
176.289454
 30
0.0
 11
12.917104
 21
176.289454
 31
0.0
  0
LINE
  5
A8B9
330
A888
100
AcDbEntity
  8
1
  6
Continuous
100
AcDbLine
 10
179.5823809999999
 20
201.289454
 30
0.0
 11
181.2823809999999
 21
201.289454
 31
0.0
  0
LINE
  5
A8BA
330
A888
100
AcDbEntity
  8
1
  6
Continuous
100
AcDbLine
 10
179.2823809999999
 20
200.9894539999999
 30
0.0
 11
179.2823809999999
 21
197.789454
 31
0.0
  0
LINE
  5
A8BB
330
A888
100
AcDbEntity
  8
1
  6
Continuous
100
AcDbLine
 10
179.2823809999999
 20
176.289454
 30
0.0
 11
180.2823809999999
 21
176.289454
 31
0.0
  0
LINE
  5
A8BC
330
A888
100
AcDbEntity
  8
1
  6
Continuous
100
AcDbLine
 10
181.2823809999999
 20
201.289454
 30
0.0
 11
181.2823809999999
 21
191.289454
 31
0.0
  0
LINE
  5
A8BD
330
A888
100
AcDbEntity
  8
1
  6
Continuous
100
AcDbLine
 10
179.5823809999999
 20
197.789454
 30
0.0
 11
179.5823809999999
 21
195.789454
 31
0.0
  0
LINE
  5
A8BE
330
A888
100
AcDbEntity
  8
1
  6
Continuous
100
AcDbLine
 10
179.5823809999999
 20
197.789454
 30
0.0
 11
179.2823809999999
 21
197.789454
 31
0.0
  0
LINE
  5
A8BF
330
A888
100
AcDbEntity
  8
1
  6
Continuous
100
AcDbLine
 10
179.5823809999999
 20
195.789454
 30
0.0
 11
179.2823809999999
 21
195.789454
 31
0.0
  0
LINE
  5
A8C0
330
A888
100
AcDbEntity
  8
1
  6
Continuous
100
AcDbLine
 10
179.5823809999999
 20
193.789454
 30
0.0
 11
179.2823809999999
 21
193.789454
 31
0.0
  0
LINE
  5
A8C1
330
A888
100
AcDbEntity
  8
1
  6
Continuous
100
AcDbLine
 10
179.5823809999999
 20
191.7894539999998
 30
0.0
 11
179.2823809999999
 21
191.7894539999998
 31
0.0
  0
LINE
  5
A8C2
330
A888
100
AcDbEntity
  8
1
  6
Continuous
100
AcDbLine
 10
179.5823809999999
 20
189.789454
 30
0.0
 11
179.2823809999999
 21
189.789454
 31
0.0
  0
LINE
  5
A8C3
330
A888
100
AcDbEntity
  8
1
  6
Continuous
100
AcDbLine
 10
179.5823809999999
 20
187.7894539999998
 30
0.0
 11
179.2823809999999
 21
187.7894539999998
 31
0.0
  0
LINE
  5
A8C4
330
A888
100
AcDbEntity
  8
1
  6
Continuous
100
AcDbLine
 10
179.5823809999999
 20
185.789454
 30
0.0
 11
179.2823809999999
 21
185.789454
 31
0.0
  0
LINE
  5
A8C5
330
A888
100
AcDbEntity
  8
1
  6
Continuous
100
AcDbLine
 10
179.5823809999999
 20
183.789454
 30
0.0
 11
179.2823809999999
 21
183.789454
 31
0.0
  0
LINE
  5
A8C6
330
A888
100
AcDbEntity
  8
1
  6
Continuous
100
AcDbLine
 10
179.5823809999999
 20
181.789454
 30
0.0
 11
179.2823809999999
 21
181.789454
 31
0.0
  0
LINE
  5
A8C7
330
A888
100
AcDbEntity
  8
1
  6
Continuous
100
AcDbLine
 10
179.5823809999999
 20
179.789454
 30
0.0
 11
179.2823809999999
 21
179.789454
 31
0.0
  0
LINE
  5
A8C8
330
A888
100
AcDbEntity
  8
1
  6
Continuous
100
AcDbLine
 10
180.2823809999999
 20
176.289454
 30
0.0
 11
179.2823809999999
 21
176.289454
 31
0.0
  0
LINE
  5
A8C9
330
A888
100
AcDbEntity
  8
1
  6
Continuous
100
AcDbLine
 10
179.2823809999999
 20
195.789454
 30
0.0
 11
179.2823809999999
 21
193.789454
 31
0.0
  0
LINE
  5
A8CA
330
A888
100
AcDbEntity
  8
1
  6
Continuous
100
AcDbLine
 10
179.2823809999999
 20
191.7894539999998
 30
0.0
 11
179.2823809999999
 21
189.789454
 31
0.0
  0
LINE
  5
A8CB
330
A888
100
AcDbEntity
  8
1
  6
Continuous
100
AcDbLine
 10
179.2823809999999
 20
187.7894539999998
 30
0.0
 11
179.2823809999999
 21
185.789454
 31
0.0
  0
LINE
  5
A8CC
330
A888
100
AcDbEntity
  8
1
  6
Continuous
100
AcDbLine
 10
179.2823809999999
 20
183.789454
 30
0.0
 11
179.2823809999999
 21
181.789454
 31
0.0
  0
LINE
  5
A8CD
330
A888
100
AcDbEntity
  8
1
  6
Continuous
100
AcDbLine
 10
179.2823809999999
 20
179.789454
 30
0.0
 11
179.2823809999999
 21
176.289454
 31
0.0
  0
LINE
  5
A8CE
330
A888
100
AcDbEntity
  8
1
  6
Continuous
100
AcDbLine
 10
179.5823809999999
 20
181.789454
 30
0.0
 11
179.5823809999999
 21
179.789454
 31
0.0
  0
LINE
  5
A8CF
330
A888
100
AcDbEntity
  8
1
  6
Continuous
100
AcDbLine
 10
179.5823809999999
 20
185.789454
 30
0.0
 11
179.5823809999999
 21
183.789454
 31
0.0
  0
LINE
  5
A8D0
330
A888
100
AcDbEntity
  8
1
  6
Continuous
100
AcDbLine
 10
179.5823809999999
 20
189.789454
 30
0.0
 11
179.5823809999999
 21
187.7894539999998
 31
0.0
  0
LINE
  5
A8D1
330
A888
100
AcDbEntity
  8
1
  6
Continuous
100
AcDbLine
 10
179.5823809999999
 20
193.789454
 30
0.0
 11
179.5823809999999
 21
191.7894539999998
 31
0.0
  0
LINE
  5
A8D2
330
A888
100
AcDbEntity
  8
1
  6
Continuous
100
AcDbLine
 10
201.2823809999999
 20
197.289454
 30
0.0
 11
201.2823809999999
 21
168.6949129999999
 31
0.0
  0
LINE
  5
A8D3
330
A888
100
AcDbEntity
  8
1
  6
Continuous
100
AcDbLine
 10
199.2823809999999
 20
197.289454
 30
0.0
 11
199.2823809999999
 21
190.3887499999999
 31
0.0
  0
LINE
  5
A8D4
330
A888
100
AcDbEntity
  8
1
  6
Continuous
100
AcDbLine
 10
199.2823809999999
 20
197.289454
 30
0.0
 11
201.2823809999999
 21
197.289454
 31
0.0
  0
LINE
  5
A8D5
330
A888
100
AcDbEntity
  8
1
  6
Continuous
100
AcDbLine
 10
199.2823809999999
 20
144.289454
 30
0.0
 11
201.2823809999999
 21
144.289454
 31
0.0
  0
LINE
  5
A8D6
330
A888
100
AcDbEntity
  8
1
  6
Continuous
100
AcDbLine
 10
179.5823809999999
 20
139.289454
 30
0.0
 11
181.2823809999999
 21
139.289454
 31
0.0
  0
LINE
  5
A8D7
330
A888
100
AcDbEntity
  8
1
  6
Continuous
100
AcDbLine
 10
181.2823809999999
 20
191.289454
 30
0.0
 11
193.282381
 21
191.289454
 31
0.0
  0
LINE
  5
A8D8
330
A888
100
AcDbEntity
  8
1
  6
Continuous
100
AcDbLine
 10
187.2823809999999
 20
189.289454
 30
0.0
 11
193.282381
 21
189.289454
 31
0.0
  0
ARC
  5
A8D9
330
A888
100
AcDbEntity
  8
1
  6
Continuous
100
AcDbCircle
 10
180.2823809999999
 20
179.2894539999998
 30
0.0
 40
3.0
100
AcDbArc
 50
270.0
 51
53.130102
  0
LINE
  5
A8DA
330
A888
100
AcDbEntity
  8
1
  6
Continuous
100
AcDbLine
 10
181.2823809999999
 20
183.289454
 30
0.0
 11
181.2823809999999
 21
183.289454
 31
0.0
  0
ARC
  5
A8DB
330
A888
100
AcDbEntity
  8
1
  6
Continuous
100
AcDbCircle
 10
187.2823809999999
 20
183.289454
 30
0.0
 40
6.0
100
AcDbArc
 50
90.0
 51
180.0
  0
ARC
  5
A8DC
330
A888
100
AcDbEntity
  8
1
  6
Continuous
100
AcDbCircle
 10
183.2823809999999
 20
183.289454
 30
0.0
 40
2.0
100
AcDbArc
 50
180.0
 51
233.130102
  0
LINE
  5
A8DD
330
A888
100
AcDbEntity
  8
1
  6
Continuous
100
AcDbLine
 10
199.2823809999999
 20
183.289454
 30
0.0
 11
199.2823809999999
 21
169.289454
 31
0.0
  0
ARC
  5
A8DE
330
A888
100
AcDbEntity
  8
1
  6
Continuous
100
AcDbCircle
 10
193.282381
 20
183.289454
 30
0.0
 40
6.0
100
AcDbArc
 50
0.0
 51
90.0
  0
ARC
  5
A8DF
330
A888
100
AcDbEntity
  8
1
  6
Continuous
100
AcDbCircle
 10
198.482381
 20
190.3887499999999
 30
0.0
 40
0.8
100
AcDbArc
 50
233.7784529999999
 51
0.0
  0
ARC
  5
A8E0
330
A888
100
AcDbEntity
  8
1
  6
Continuous
100
AcDbCircle
 10
193.282381
 20
183.289454
 30
0.0
 40
8.0
100
AcDbArc
 50
53.778453
 51
90.0
  0
LINE
  5
A8E1
330
A888
100
AcDbEntity
  8
1
  6
Continuous
100
AcDbLine
 10
181.2823809999999
 20
143.289454
 30
0.0
 11
181.2823809999999
 21
139.289454
 31
0.0
  0
LINE
  5
A8E2
330
A888
100
AcDbEntity
  8
1
  6
Continuous
100
AcDbLine
 10
179.2823809999999
 20
143.289454
 30
0.0
 11
179.2823809999999
 21
139.589454
 31
0.0
  0
LINE
  5
A8E3
330
A888
100
AcDbEntity
  8
1
  6
Continuous
100
AcDbLine
 10
182.2823809999999
 20
146.289454
 30
0.0
 11
184.2823809999999
 21
146.289454
 31
0.0
  0
LINE
  5
A8E4
330
A888
100
AcDbEntity
  8
1
  6
Continuous
100
AcDbLine
 10
182.2823809999999
 20
144.289454
 30
0.0
 11
185.365777
 21
144.289454
 31
0.0
  0
LINE
  5
A8E5
330
A888
100
AcDbEntity
  8
1
  6
Continuous
100
AcDbLine
 10
199.2823809999999
 20
169.289454
 30
0.0
 11
184.2823809999999
 21
146.289454
 31
0.0
  0
LINE
  5
A8E6
330
A888
100
AcDbEntity
  8
1
  6
Continuous
100
AcDbLine
 10
201.2823809999999
 20
168.6949129999999
 30
0.0
 11
195.8005599999999
 21
160.289454
 31
0.0
  0
LINE
  5
A8E7
330
A888
100
AcDbEntity
  8
1
  6
Continuous
100
AcDbLine
 10
195.8005599999999
 20
160.289454
 30
0.0
 11
201.2823809999999
 21
154.2894539999998
 31
0.0
  0
LINE
  5
A8E8
330
A888
100
AcDbEntity
  8
1
  6
Continuous
100
AcDbLine
 10
194.6722189999999
 20
158.5593309999999
 30
0.0
 11
199.2823809999999
 21
153.513384
 31
0.0
  0
LINE
  5
A8E9
330
A888
100
AcDbEntity
  8
1
  6
Continuous
100
AcDbLine
 10
194.6722189999999
 20
158.5593309999999
 30
0.0
 11
185.365777
 21
144.289454
 31
0.0
  0
LINE
  5
A8EA
330
A888
100
AcDbEntity
  8
1
  6
Continuous
100
AcDbLine
 10
201.2823809999999
 20
154.2894539999998
 30
0.0
 11
201.2823809999999
 21
144.289454
 31
0.0
  0
LINE
  5
A8EB
330
A888
100
AcDbEntity
  8
1
  6
Continuous
100
AcDbLine
 10
199.2823809999999
 20
153.513384
 30
0.0
 11
199.2823809999999
 21
144.289454
 31
0.0
  0
ARC
  5
A8EC
330
A888
100
AcDbEntity
  8
1
  6
Continuous
100
AcDbCircle
 10
182.2823809999999
 20
143.289454
 30
0.0
 40
1.0
100
AcDbArc
 50
90.0
 51
180.0
  0
ARC
  5
A8ED
330
A888
100
AcDbEntity
  8
1
  6
Continuous
100
AcDbCircle
 10
182.2823809999999
 20
143.289454
 30
0.0
 40
3.0
100
AcDbArc
 50
90.0
 51
180.0
  0
LINE
  5
A8EE
330
A888
100
AcDbEntity
  8
1
  6
Continuous
100
AcDbLine
 10
179.5823809999999
 20
201.289454
 30
0.0
 11
179.2823809999999
 21
200.9894539999999
 31
0.0
  0
LINE
  5
A8EF
330
A888
100
AcDbEntity
  8
4
  6
CENTER
100
AcDbLine
 10
196.7823809999999
 20
194.289454
 30
0.0
 11
203.7823809999999
 21
194.289454
 31
0.0
  0
LINE
  5
A8F0
330
A888
100
AcDbEntity
  8
4
  6
CENTER
100
AcDbLine
 10
196.7823809999999
 20
148.289454
 30
0.0
 11
203.7823809999999
 21
148.289454
 31
0.0
  0
LINE
  5
A8F1
330
A888
100
AcDbEntity
  8
1
  6
Continuous
100
AcDbLine
 10
132.917104
 20
146.289454
 30
0.0
 11
12.917104
 21
146.289454
 31
0.0
  0
LINE
  5
A8F2
330
A888
100
AcDbEntity
  8
1
  6
Continuous
100
AcDbLine
 10
291.650153
 20
201.289454
 30
0.0
 11
411.6501529999998
 21
201.289454
 31
0.0
  0
LINE
  5
A8F3
330
A888
100
AcDbEntity
  8
1
  6
Continuous
100
AcDbLine
 10
291.650153
 20
139.289454
 30
0.0
 11
411.6501529999998
 21
139.289454
 31
0.0
  0
LINE
  5
A8F4
330
A888
100
AcDbEntity
  8
1
  6
Continuous
100
AcDbLine
 10
411.6501529999998
 20
201.289454
 30
0.0
 11
411.6501529999998
 21
199.289454
 31
0.0
  0
LINE
  5
A8F5
330
A888
100
AcDbEntity
  8
1
  6
Continuous
100
AcDbLine
 10
291.650153
 20
201.289454
 30
0.0
 11
291.650153
 21
199.289454
 31
0.0
  0
LINE
  5
A8F6
330
A888
100
AcDbEntity
  8
1
  6
Continuous
100
AcDbLine
 10
12.917104
 20
224.659943
 30
0.0
 11
132.917104
 21
224.659943
 31
0.0
  0
LINE
  5
A8F7
330
A888
100
AcDbEntity
  8
1
  6
Continuous
100
AcDbLine
 10
13.917104
 20
244.659943
 30
0.0
 11
131.917104
 21
244.659943
 31
0.0
  0
LINE
  5
A8F8
330
A888
100
AcDbEntity
  8
1
  6
Continuous
100
AcDbLine
 10
132.917104
 20
222.659943
 30
0.0
 11
132.917104
 21
243.659943
 31
0.0
  0
LINE
  5
A8F9
330
A888
100
AcDbEntity
  8
1
  6
Continuous
100
AcDbLine
 10
12.917104
 20
222.659943
 30
0.0
 11
12.917104
 21
243.659943
 31
0.0
  0
LINE
  5
A8FA
330
A888
100
AcDbEntity
  8
1
  6
Continuous
100
AcDbLine
 10
12.917104
 20
222.659943
 30
0.0
 11
132.917104
 21
222.659943
 31
0.0
  0
LINE
  5
A8FB
330
A888
100
AcDbEntity
  8
1
  6
Continuous
100
AcDbLine
 10
12.917104
 20
242.659943
 30
0.0
 11
132.917104
 21
242.659943
 31
0.0
  0
LINE
  5
A8FC
330
A888
100
AcDbEntity
  8
4
  6
CENTER
100
AcDbLine
 10
17.91710399999999
 20
247.159943
 30
0.0
 11
17.91710399999999
 21
240.159943
 31
0.0
  0
LINE
  5
A8FD
330
A888
100
AcDbEntity
  8
4
  6
CENTER
100
AcDbLine
 10
127.917104
 20
247.159943
 30
0.0
 11
127.917104
 21
240.159943
 31
0.0
  0
LINE
  5
A8FE
330
A888
100
AcDbEntity
  8
1
  6
Continuous
100
AcDbLine
 10
13.917104
 20
244.659943
 30
0.0
 11
12.917104
 21
243.659943
 31
0.0
  0
LINE
  5
A8FF
330
A888
100
AcDbEntity
  8
1
  6
Continuous
100
AcDbLine
 10
131.917104
 20
244.659943
 30
0.0
 11
132.917104
 21
243.659943
 31
0.0
  0
LINE
  5
A900
330
A888
100
AcDbEntity
  8
1
  6
Continuous
100
AcDbLine
 10
13.917104
 20
92.99066100000001
 30
0.0
 11
131.917104
 21
92.99066100000001
 31
0.0
  0
LINE
  5
A901
330
A888
100
AcDbEntity
  8
1
  6
Continuous
100
AcDbLine
 10
12.917104
 20
94.990661
 30
0.0
 11
132.917104
 21
94.990661
 31
0.0
  0
LINE
  5
A902
330
A888
100
AcDbEntity
  8
1
  6
Continuous
100
AcDbLine
 10
12.917104
 20
114.990661
 30
0.0
 11
132.917104
 21
114.990661
 31
0.0
  0
LINE
  5
A903
330
A888
100
AcDbEntity
  8
1
  6
Continuous
100
AcDbLine
 10
12.917104
 20
112.990661
 30
0.0
 11
132.917104
 21
112.990661
 31
0.0
  0
LINE
  5
A904
330
A888
100
AcDbEntity
  8
1
  6
Continuous
100
AcDbLine
 10
13.917104
 20
92.99066100000001
 30
0.0
 11
12.917104
 21
93.990661
 31
0.0
  0
LINE
  5
A905
330
A888
100
AcDbEntity
  8
1
  6
Continuous
100
AcDbLine
 10
12.917104
 20
114.990661
 30
0.0
 11
12.917104
 21
93.990661
 31
0.0
  0
LINE
  5
A906
330
A888
100
AcDbEntity
  8
4
  6
CENTER
100
AcDbLine
 10
17.91710399999999
 20
90.49066100000001
 30
0.0
 11
17.91710399999999
 21
97.490661
 31
0.0
  0
LINE
  5
A907
330
A888
100
AcDbEntity
  8
1
  6
Continuous
100
AcDbLine
 10
131.917104
 20
92.99066100000001
 30
0.0
 11
132.917104
 21
93.990661
 31
0.0
  0
LINE
  5
A908
330
A888
100
AcDbEntity
  8
4
  6
CENTER
100
AcDbLine
 10
127.917104
 20
90.49066100000001
 30
0.0
 11
127.917104
 21
97.490661
 31
0.0
  0
LINE
  5
A909
330
A888
100
AcDbEntity
  8
1
  6
Continuous
100
AcDbLine
 10
132.917104
 20
114.990661
 30
0.0
 11
132.917104
 21
93.990661
 31
0.0
  0
LINE
  5
A90A
330
A888
100
AcDbEntity
  8
1
  6
Continuous
100
AcDbLine
 10
179.2823809999999
 20
139.589454
 30
0.0
 11
179.5823809999999
 21
139.289454
 31
0.0
  0
LINE
  5
A90B
330
A888
100
AcDbEntity
  8
4
  6
CENTER
100
AcDbLine
 10
351.6501529999999
 20
204.789454
 30
0.0
 11
351.6501529999999
 21
135.4318899999997
 31
0.0
  0
LINE
  5
A90C
330
A888
100
AcDbEntity
  8
4
  6
CENTER
100
AcDbLine
 10
72.91710400000003
 20
204.789454
 30
0.0
 11
72.91710400000003
 21
135.4318899999997
 31
0.0
  0
LINE
  5
A90D
330
A888
100
AcDbEntity
  8
4
  6
CENTER
100
AcDbLine
 10
14.417104
 20
148.289454
 30
0.0
 11
21.417104
 21
148.289454
 31
0.0
  0
LINE
  5
A90E
330
A888
100
AcDbEntity
  8
4
  6
CENTER
100
AcDbLine
 10
17.91710399999999
 20
151.789454
 30
0.0
 11
17.91710399999999
 21
144.789454
 31
0.0
  0
LINE
  5
A90F
330
A888
100
AcDbEntity
  8
4
  6
CENTER
100
AcDbLine
 10
124.4171039999999
 20
148.289454
 30
0.0
 11
131.4171039999999
 21
148.289454
 31
0.0
  0
LINE
  5
A910
330
A888
100
AcDbEntity
  8
4
  6
CENTER
100
AcDbLine
 10
127.917104
 20
151.789454
 30
0.0
 11
127.917104
 21
144.789454
 31
0.0
  0
LINE
  5
A911
330
A888
100
AcDbEntity
  8
4
  6
CENTER
100
AcDbLine
 10
14.417104
 20
194.289454
 30
0.0
 11
21.417104
 21
194.289454
 31
0.0
  0
LINE
  5
A912
330
A888
100
AcDbEntity
  8
4
  6
CENTER
100
AcDbLine
 10
17.91710399999999
 20
197.789454
 30
0.0
 11
17.91710399999999
 21
190.789454
 31
0.0
  0
LINE
  5
A913
330
A888
100
AcDbEntity
  8
4
  6
CENTER
100
AcDbLine
 10
124.4171039999999
 20
194.289454
 30
0.0
 11
131.4171039999999
 21
194.289454
 31
0.0
  0
LINE
  5
A914
330
A888
100
AcDbEntity
  8
4
  6
CENTER
100
AcDbLine
 10
127.917104
 20
197.789454
 30
0.0
 11
127.917104
 21
190.789454
 31
0.0
  0
LINE
  5
A915
330
A888
100
AcDbEntity
  8
4
  6
CENTER
100
AcDbLine
 10
72.91710400000003
 20
248.159943
 30
0.0
 11
72.91710400000003
 21
219.159943
 31
0.0
  0
LINE
  5
A916
330
A888
100
AcDbEntity
  8
4
  6
CENTER
100
AcDbLine
 10
72.91710400000003
 20
118.490661
 30
0.0
 11
72.91710400000003
 21
89.49066100000001
 31
0.0
  0
LINE
  5
A917
330
A888
100
AcDbEntity
  8
1
  6
Continuous
100
AcDbLine
 10
413.5001529999998
 20
141.289454
 30
0.0
 11
413.5001529999998
 21
199.289454
 31
0.0
  0
LINE
  5
A918
330
A888
100
AcDbEntity
  8
1
  6
Continuous
100
AcDbLine
 10
289.8001529999999
 20
141.289454
 30
0.0
 11
289.8001529999999
 21
199.289454
 31
0.0
  0
LINE
  5
A919
330
A888
100
AcDbEntity
  8
1
  6
Continuous
100
AcDbLine
 10
413.5001529999998
 20
141.289454
 30
0.0
 11
289.8001529999999
 21
141.289454
 31
0.0
  0
LINE
  5
A91A
330
A888
100
AcDbEntity
  8
1
  6
Continuous
100
AcDbLine
 10
413.5001529999998
 20
199.289454
 30
0.0
 11
289.8001529999999
 21
199.289454
 31
0.0
  0
LINE
  5
A91B
330
A888
100
AcDbEntity
  8
1
  6
Continuous
100
AcDbLine
 10
406.650153
 20
180.789454
 30
0.0
 11
296.650153
 21
180.789454
 31
0.0
  0
LINE
  5
A91C
330
A888
100
AcDbEntity
  8
1
  6
Continuous
100
AcDbLine
 10
406.650153
 20
185.789454
 30
0.0
 11
296.650153
 21
185.789454
 31
0.0
  0
LINE
  5
A91D
330
A888
100
AcDbEntity
  8
1
  6
Continuous
100
AcDbLine
 10
406.650153
 20
154.789454
 30
0.0
 11
296.650153
 21
154.789454
 31
0.0
  0
LINE
  5
A91E
330
A888
100
AcDbEntity
  8
1
  6
Continuous
100
AcDbLine
 10
406.650153
 20
159.789454
 30
0.0
 11
296.650153
 21
159.789454
 31
0.0
  0
ARC
  5
A91F
330
A888
100
AcDbEntity
  8
1
  6
Continuous
100
AcDbCircle
 10
296.650153
 20
157.289454
 30
0.0
 40
2.5
100
AcDbArc
 50
90.0
 51
270.0
  0
ARC
  5
A920
330
A888
100
AcDbEntity
  8
1
  6
Continuous
100
AcDbCircle
 10
296.650153
 20
183.289454
 30
0.0
 40
2.5
100
AcDbArc
 50
90.0
 51
270.0
  0
ARC
  5
A921
330
A888
100
AcDbEntity
  8
1
  6
Continuous
100
AcDbCircle
 10
406.650153
 20
183.289454
 30
0.0
 40
2.5
100
AcDbArc
 50
270.0
 51
90.0
  0
ARC
  5
A922
330
A888
100
AcDbEntity
  8
1
  6
Continuous
100
AcDbCircle
 10
406.650153
 20
157.289454
 30
0.0
 40
2.5
100
AcDbArc
 50
270.0
 51
90.0
  0
LINE
  5
A923
330
A888
100
AcDbEntity
  8
3
  6
DASHED
100
AcDbLine
 10
411.900153
 20
141.289454
 30
0.0
 11
411.900153
 21
199.289454
 31
0.0
  0
LINE
  5
A924
330
A888
100
AcDbEntity
  8
3
  6
DASHED
100
AcDbLine
 10
291.4001529999998
 20
141.289454
 30
0.0
 11
291.4001529999998
 21
199.289454
 31
0.0
  0
LINE
  5
A925
330
A888
100
AcDbEntity
  8
4
  6
CENTER
100
AcDbLine
 10
406.650153
 20
143.539454
 30
0.0
 11
406.650153
 21
151.039454
 31
0.0
  0
LINE
  5
A926
330
A888
100
AcDbEntity
  8
4
  6
CENTER
100
AcDbLine
 10
296.650153
 20
143.539454
 30
0.0
 11
296.650153
 21
151.039454
 31
0.0
  0
LINE
  5
A927
330
A888
100
AcDbEntity
  8
4
  6
CENTER
100
AcDbLine
 10
410.4001529999998
 20
147.289454
 30
0.0
 11
402.900153
 21
147.289454
 31
0.0
  0
LINE
  5
A928
330
A888
100
AcDbEntity
  8
4
  6
CENTER
100
AcDbLine
 10
410.4001529999998
 20
193.289454
 30
0.0
 11
402.900153
 21
193.289454
 31
0.0
  0
CIRCLE
  5
A929
330
A888
100
AcDbEntity
  8
1
  6
Continuous
100
AcDbCircle
 10
406.650153
 20
193.289454
 30
0.0
 40
1.75
  0
CIRCLE
  5
A92A
330
A888
100
AcDbEntity
  8
1
  6
Continuous
100
AcDbCircle
 10
406.650153
 20
147.289454
 30
0.0
 40
1.75
  0
CIRCLE
  5
A92B
330
A888
100
AcDbEntity
  8
1
  6
Continuous
100
AcDbCircle
 10
296.650153
 20
147.289454
 30
0.0
 40
1.75
  0
CIRCLE
  5
A92C
330
A888
100
AcDbEntity
  8
1
  6
Continuous
100
AcDbCircle
 10
296.650153
 20
193.289454
 30
0.0
 40
1.75
  0
LINE
  5
A92D
330
A888
100
AcDbEntity
  8
4
  6
CENTER
100
AcDbLine
 10
406.650153
 20
189.539454
 30
0.0
 11
406.650153
 21
197.039454
 31
0.0
  0
LINE
  5
A92E
330
A888
100
AcDbEntity
  8
4
  6
CENTER
100
AcDbLine
 10
296.650153
 20
189.539454
 30
0.0
 11
296.650153
 21
197.039454
 31
0.0
  0
LINE
  5
A92F
330
A888
100
AcDbEntity
  8
4
  6
CENTER
100
AcDbLine
 10
300.400153
 20
193.289454
 30
0.0
 11
292.9001529999998
 21
193.289454
 31
0.0
  0
LINE
  5
A930
330
A888
100
AcDbEntity
  8
4
  6
CENTER
100
AcDbLine
 10
300.400153
 20
147.289454
 30
0.0
 11
292.9001529999998
 21
147.289454
 31
0.0
  0
LINE
  5
A931
330
A888
100
AcDbEntity
  8
4
  6
CENTER
100
AcDbLine
 10
72.91710400000003
 20
74.407347
 30
0.0
 11
72.91710400000003
 21
40.80734699999999
 31
0.0
  0
LINE
  5
A932
330
A888
100
AcDbEntity
  8
1
  6
Continuous
100
AcDbLine
 10
134.7671039999999
 20
69.407347
 30
0.0
 11
133.167104
 21
69.407347
 31
0.0
  0
LINE
  5
A933
330
A888
100
AcDbEntity
  8
1
  6
Continuous
100
AcDbLine
 10
132.367104
 20
47.40734699999999
 30
0.0
 11
13.467104
 21
47.40734699999999
 31
0.0
  0
LINE
  5
A934
330
A888
100
AcDbEntity
  8
1
  6
Continuous
100
AcDbLine
 10
128.8171039999998
 20
45.80734699999999
 30
0.0
 11
17.017104
 21
45.80734699999999
 31
0.0
  0
LINE
  5
A935
330
A888
100
AcDbEntity
  8
1
  6
Continuous
100
AcDbLine
 10
134.7671039999999
 20
49.807347
 30
0.0
 11
134.7671039999999
 21
69.407347
 31
0.0
  0
LINE
  5
A936
330
A888
100
AcDbEntity
  8
1
  6
Continuous
100
AcDbLine
 10
133.167104
 20
49.807347
 30
0.0
 11
133.167104
 21
69.407347
 31
0.0
  0
LINE
  5
A937
330
A888
100
AcDbEntity
  8
1
  6
Continuous
100
AcDbLine
 10
132.367104
 20
49.007347
 30
0.0
 11
13.467104
 21
49.007347
 31
0.0
  0
LINE
  5
A938
330
A888
100
AcDbEntity
  8
1
  6
Continuous
100
AcDbLine
 10
12.667104
 20
69.407347
 30
0.0
 11
11.06710399999998
 21
69.407347
 31
0.0
  0
ARC
  5
A939
330
A888
100
AcDbEntity
  8
1
  6
Continuous
100
AcDbCircle
 10
132.367104
 20
49.807347
 30
0.0
 40
0.8
100
AcDbArc
 50
270.0
 51
0.0
  0
ARC
  5
A93A
330
A888
100
AcDbEntity
  8
1
  6
Continuous
100
AcDbCircle
 10
132.367104
 20
49.807347
 30
0.0
 40
2.399999999999999
100
AcDbArc
 50
270.0
 51
0.0
  0
LINE
  5
A93B
330
A888
100
AcDbEntity
  8
1
  6
Continuous
100
AcDbLine
 10
11.06710399999998
 20
49.807347
 30
0.0
 11
11.06710399999998
 21
69.407347
 31
0.0
  0
LINE
  5
A93C
330
A888
100
AcDbEntity
  8
1
  6
Continuous
100
AcDbLine
 10
12.667104
 20
49.807347
 30
0.0
 11
12.667104
 21
69.407347
 31
0.0
  0
ARC
  5
A93D
330
A888
100
AcDbEntity
  8
1
  6
Continuous
100
AcDbCircle
 10
13.467104
 20
49.807347
 30
0.0
 40
2.399999999999999
100
AcDbArc
 50
180.0
 51
270.0
  0
ARC
  5
A93E
330
A888
100
AcDbEntity
  8
1
  6
Continuous
100
AcDbCircle
 10
13.467104
 20
49.807347
 30
0.0
 40
0.8
100
AcDbArc
 50
180.0
 51
270.0
  0
LINE
  5
A93F
330
A888
100
AcDbEntity
  8
1
  6
Continuous
100
AcDbLine
 10
11.06710399999998
 20
69.407347
 30
0.0
 11
12.667104
 21
69.407347
 31
0.0
  0
LINE
  5
A940
330
A888
100
AcDbEntity
  8
1
  6
Continuous
100
AcDbLine
 10
132.367104
 20
291.9174239999999
 30
0.0
 11
13.467104
 21
291.9174239999999
 31
0.0
  0
LINE
  5
A941
330
A888
100
AcDbEntity
  8
1
  6
Continuous
100
AcDbLine
 10
128.8171039999998
 20
293.517424
 30
0.0
 11
17.017104
 21
293.517424
 31
0.0
  0
LINE
  5
A942
330
A888
100
AcDbEntity
  8
1
  6
Continuous
100
AcDbLine
 10
132.367104
 20
290.317424
 30
0.0
 11
13.467104
 21
290.317424
 31
0.0
  0
LINE
  5
A943
330
A888
100
AcDbEntity
  8
1
  6
Continuous
100
AcDbLine
 10
11.06710399999998
 20
289.517424
 30
0.0
 11
11.06710399999998
 21
269.917424
 31
0.0
  0
LINE
  5
A944
330
A888
100
AcDbEntity
  8
1
  6
Continuous
100
AcDbLine
 10
12.667104
 20
289.517424
 30
0.0
 11
12.667104
 21
269.917424
 31
0.0
  0
LINE
  5
A945
330
A888
100
AcDbEntity
  8
1
  6
Continuous
100
AcDbLine
 10
12.667104
 20
269.917424
 30
0.0
 11
11.06710399999998
 21
269.917424
 31
0.0
  0
LINE
  5
A946
330
A888
100
AcDbEntity
  8
1
  6
Continuous
100
AcDbLine
 10
11.06710399999998
 20
269.917424
 30
0.0
 11
12.667104
 21
269.917424
 31
0.0
  0
ARC
  5
A947
330
A888
100
AcDbEntity
  8
1
  6
Continuous
100
AcDbCircle
 10
13.467104
 20
289.517424
 30
0.0
 40
2.399999999999999
100
AcDbArc
 50
90.0
 51
180.0
  0
ARC
  5
A948
330
A888
100
AcDbEntity
  8
1
  6
Continuous
100
AcDbCircle
 10
13.467104
 20
289.517424
 30
0.0
 40
0.8
100
AcDbArc
 50
90.0
 51
180.0
  0
LINE
  5
A949
330
A888
100
AcDbEntity
  8
4
  6
CENTER
100
AcDbLine
 10
72.91710400000003
 20
264.9174239999999
 30
0.0
 11
72.91710400000003
 21
298.517424
 31
0.0
  0
LINE
  5
A94A
330
A888
100
AcDbEntity
  8
1
  6
Continuous
100
AcDbLine
 10
134.7671039999999
 20
289.517424
 30
0.0
 11
134.7671039999999
 21
269.917424
 31
0.0
  0
LINE
  5
A94B
330
A888
100
AcDbEntity
  8
1
  6
Continuous
100
AcDbLine
 10
133.167104
 20
289.517424
 30
0.0
 11
133.167104
 21
269.917424
 31
0.0
  0
LINE
  5
A94C
330
A888
100
AcDbEntity
  8
1
  6
Continuous
100
AcDbLine
 10
134.7671039999999
 20
269.917424
 30
0.0
 11
133.167104
 21
269.917424
 31
0.0
  0
ARC
  5
A94D
330
A888
100
AcDbEntity
  8
1
  6
Continuous
100
AcDbCircle
 10
132.367104
 20
289.517424
 30
0.0
 40
2.399999999999999
100
AcDbArc
 50
0.0
 51
90.0
  0
ARC
  5
A94E
330
A888
100
AcDbEntity
  8
1
  6
Continuous
100
AcDbCircle
 10
132.367104
 20
289.517424
 30
0.0
 40
0.8
100
AcDbArc
 50
0.0
 51
90.0
  0
LINE
  5
A94F
330
A888
100
AcDbEntity
  8
1
  6
Continuous
100
AcDbLine
 10
243.945158
 20
141.289454
 30
0.0
 11
243.945158
 21
199.289454
 31
0.0
  0
LINE
  5
A950
330
A888
100
AcDbEntity
  8
1
  6
Continuous
100
AcDbLine
 10
243.945158
 20
141.289454
 30
0.0
 11
221.9451579999999
 21
141.289454
 31
0.0
  0
LINE
  5
A951
330
A888
100
AcDbEntity
  8
1
  6
Continuous
100
AcDbLine
 10
243.945158
 20
199.289454
 30
0.0
 11
221.9451579999999
 21
199.289454
 31
0.0
  0
LINE
  5
A952
330
A888
100
AcDbEntity
  8
1
  6
Continuous
100
AcDbLine
 10
221.9451579999999
 20
141.289454
 30
0.0
 11
221.9451579999999
 21
199.289454
 31
0.0
  0
ARC
  5
A953
330
A888
100
AcDbEntity
  8
1
  6
Continuous
100
AcDbCircle
 10
242.792033
 20
183.289454
 30
0.0
 40
2.753124999999998
100
AcDbArc
 50
294.7615139999999
 51
65.23848599999999
  0
ARC
  5
A954
330
A888
100
AcDbEntity
  8
1
  6
Continuous
100
AcDbCircle
 10
242.792033
 20
157.289454
 30
0.0
 40
2.753124999999998
100
AcDbArc
 50
294.7615139999999
 51
65.23848599999999
  0
LINE
  5
A955
330
A888
100
AcDbEntity
  8
3
  6
DASHED
100
AcDbLine
 10
242.345158
 20
141.289454
 30
0.0
 11
242.345158
 21
199.289454
 31
0.0
  0
LINE
  5
A956
330
A888
100
AcDbEntity
  8
1
  6
Continuous
100
AcDbLine
 10
12.667104
 20
141.289454
 30
0.0
 11
12.667104
 21
199.289454
 31
0.0
  0
LINE
  5
A957
330
A888
100
AcDbEntity
  8
1
  6
Continuous
100
AcDbLine
 10
134.7671039999999
 20
141.289454
 30
0.0
 11
134.7671039999999
 21
199.289454
 31
0.0
  0
LINE
  5
A958
330
A888
100
AcDbEntity
  8
1
  6
Continuous
100
AcDbLine
 10
133.167104
 20
141.289454
 30
0.0
 11
133.167104
 21
199.289454
 31
0.0
  0
LINE
  5
A959
330
A888
100
AcDbEntity
  8
1
  6
Continuous
100
AcDbLine
 10
11.06710399999998
 20
141.289454
 30
0.0
 11
11.06710399999998
 21
199.289454
 31
0.0
  0
LINE
  5
A95A
330
A888
100
AcDbEntity
  8
1
  6
Continuous
100
AcDbLine
 10
11.06710399999998
 20
141.289454
 30
0.0
 11
12.917104
 21
141.289454
 31
0.0
  0
LINE
  5
A95B
330
A888
100
AcDbEntity
  8
1
  6
Continuous
100
AcDbLine
 10
11.06710399999998
 20
199.289454
 30
0.0
 11
12.917104
 21
199.289454
 31
0.0
  0
ARC
  5
A95C
330
A888
100
AcDbEntity
  8
1
  6
Continuous
100
AcDbCircle
 10
337.917342
 20
170.2880089999999
 30
0.0
 40
1.269449999999998
100
AcDbArc
 50
180.0
 51
234.4619999999999
  0
ARC
  5
A95D
330
A888
100
AcDbEntity
  8
1
  6
Continuous
100
AcDbCircle
 10
337.917342
 20
170.2880089999999
 30
0.0
 40
1.269449999999998
100
AcDbArc
 50
125.5376999999999
 51
166.5373999999999
  0
ARC
  5
A95E
330
A888
100
AcDbEntity
  8
1
  6
Continuous
100
AcDbCircle
 10
341.857342
 20
171.678009
 30
0.0
 40
0.24635
100
AcDbArc
 50
0.0
 51
79.896
  0
ARC
  5
A95F
330
A888
100
AcDbEntity
  8
1
  6
Continuous
100
AcDbCircle
 10
341.857342
 20
168.8970089999999
 30
0.0
 40
0.24635
100
AcDbArc
 50
280.104
 51
0.0
  0
LINE
  5
A960
330
A888
100
AcDbEntity
  8
1
  6
Continuous
100
AcDbLine
 10
342.1043419999999
 20
170.2880089999999
 30
0.0
 11
341.857342
 21
170.2880089999999
 31
0.0
  0
ARC
  5
A961
330
A888
100
AcDbEntity
  8
1
  6
Continuous
100
AcDbCircle
 10
340.872342
 20
174.4250089999999
 30
0.0
 40
6.354269999999998
100
AcDbArc
 50
234.4619999999999
 51
305.5379999999999
  0
ARC
  5
A962
330
A888
100
AcDbEntity
  8
1
  6
Continuous
100
AcDbCircle
 10
340.872342
 20
166.150009
 30
0.0
 40
6.354269999999998
100
AcDbArc
 50
54.46200000000001
 51
125.5376999999999
  0
ARC
  5
A963
330
A888
100
AcDbEntity
  8
1
  6
Continuous
100
AcDbCircle
 10
340.872342
 20
166.150009
 30
0.0
 40
5.861699999999999
100
AcDbArc
 50
102.7288999999999
 51
103.2680999999999
  0
ARC
  5
A964
330
A888
100
AcDbEntity
  8
1
  6
Continuous
100
AcDbCircle
 10
340.872342
 20
166.150009
 30
0.0
 40
5.861699999999999
100
AcDbArc
 50
103.2680999999999
 51
105.2575
  0
ARC
  5
A965
330
A888
100
AcDbEntity
  8
1
  6
Continuous
100
AcDbCircle
 10
339.3953419999998
 20
171.567009
 30
0.0
 40
0.24635
100
AcDbArc
 50
105.2575
 51
180.0
  0
LINE
  5
A966
330
A888
100
AcDbEntity
  8
1
  6
Continuous
100
AcDbLine
 10
339.641342
 20
168.756009
 30
0.0
 11
339.641342
 21
169.697009
 31
0.0
  0
ARC
  5
A967
330
A888
100
AcDbEntity
  8
1
  6
Continuous
100
AcDbCircle
 10
339.3953419999998
 20
169.0080089999999
 30
0.0
 40
0.24635
100
AcDbArc
 50
180.0
 51
254.742
  0
ARC
  5
A968
330
A888
100
AcDbEntity
  8
1
  6
Continuous
100
AcDbCircle
 10
340.872342
 20
174.4250089999999
 30
0.0
 40
5.861699999999999
100
AcDbArc
 50
254.742
 51
254.794
  0
ARC
  5
A969
330
A888
100
AcDbEntity
  8
1
  6
Continuous
100
AcDbCircle
 10
340.872342
 20
174.4250089999999
 30
0.0
 40
5.861699999999999
100
AcDbArc
 50
254.794
 51
257.2709999999998
  0
LINE
  5
A96A
330
A888
100
AcDbEntity
  8
1
  6
Continuous
100
AcDbLine
 10
339.148342
 20
171.567009
 30
0.0
 11
339.148342
 21
169.0080089999999
 31
0.0
  0
LINE
  5
A96B
330
A888
100
AcDbEntity
  8
1
  6
Continuous
100
AcDbLine
 10
339.641342
 20
170.8790089999999
 30
0.0
 11
339.641342
 21
171.819009
 31
0.0
  0
ARC
  5
A96C
330
A888
100
AcDbEntity
  8
1
  6
Continuous
100
AcDbCircle
 10
340.872342
 20
166.150009
 30
0.0
 40
5.861699999999999
100
AcDbArc
 50
79.896
 51
82.20699999999999
  0
ARC
  5
A96D
330
A888
100
AcDbEntity
  8
1
  6
Continuous
100
AcDbCircle
 10
341.660342
 20
171.9090089999999
 30
0.0
 40
0.04927
100
AcDbArc
 50
82.20699999999999
 51
180.0
  0
ARC
  5
A96E
330
A888
100
AcDbEntity
  8
1
  6
Continuous
100
AcDbCircle
 10
341.660342
 20
168.666009
 30
0.0
 40
0.04927
100
AcDbArc
 50
180.0
 51
277.793
  0
ARC
  5
A96F
330
A888
100
AcDbEntity
  8
1
  6
Continuous
100
AcDbCircle
 10
340.872342
 20
174.4250089999999
 30
0.0
 40
5.861699999999999
100
AcDbArc
 50
277.793
 51
280.104
  0
LINE
  5
A970
330
A888
100
AcDbEntity
  8
1
  6
Continuous
100
AcDbLine
 10
340.6263419999999
 20
170.2880089999999
 30
0.0
 11
340.1333419999999
 21
170.2880089999999
 31
0.0
  0
LINE
  5
A971
330
A888
100
AcDbEntity
  8
1
  6
Continuous
100
AcDbLine
 10
340.1333419999999
 20
171.965009
 30
0.0
 11
340.1333419999999
 21
168.610009
 31
0.0
  0
LINE
  5
A972
330
A888
100
AcDbEntity
  8
1
  6
Continuous
100
AcDbLine
 10
340.6263419999999
 20
172.006009
 30
0.0
 11
340.6263419999999
 21
168.569009
 31
0.0
  0
LINE
  5
A973
330
A888
100
AcDbEntity
  8
1
  6
Continuous
100
AcDbLine
 10
341.119342
 20
172.006009
 30
0.0
 11
341.119342
 21
168.569009
 31
0.0
  0
LINE
  5
A974
330
A888
100
AcDbEntity
  8
1
  6
Continuous
100
AcDbLine
 10
341.6113419999998
 20
171.9090089999999
 30
0.0
 11
341.6113419999998
 21
168.666009
 31
0.0
  0
ARC
  5
A975
330
A888
100
AcDbEntity
  8
1
  6
Continuous
100
AcDbCircle
 10
339.5913419999998
 20
168.756009
 30
0.0
 40
0.04927
100
AcDbArc
 50
257.2709999999998
 51
0.0
  0
ARC
  5
A976
330
A888
100
AcDbEntity
  8
1
  6
Continuous
100
AcDbCircle
 10
339.5913419999998
 20
171.819009
 30
0.0
 40
0.04927
100
AcDbArc
 50
0.0
 51
102.7288999999999
  0
ARC
  5
A977
330
A888
100
AcDbEntity
  8
1
  6
Continuous
100
AcDbCircle
 10
338.4093419999999
 20
169.379009
 30
0.0
 40
0.24635
100
AcDbArc
 50
180.0
 51
243.9859999999999
  0
ARC
  5
A978
330
A888
100
AcDbEntity
  8
1
  6
Continuous
100
AcDbCircle
 10
338.6063419999999
 20
169.073009
 30
0.0
 40
0.04927
100
AcDbArc
 50
247.0559999999999
 51
0.0
  0
ARC
  5
A979
330
A888
100
AcDbEntity
  8
1
  6
Continuous
100
AcDbCircle
 10
340.872342
 20
174.4250089999999
 30
0.0
 40
5.861699999999999
100
AcDbArc
 50
243.9859999999999
 51
247.0559999999999
  0
ARC
  5
A97A
330
A888
100
AcDbEntity
  8
1
  6
Continuous
100
AcDbCircle
 10
340.872342
 20
174.4250089999999
 30
0.0
 40
5.861699999999999
100
AcDbArc
 50
243.9859999999999
 51
244.772
  0
LINE
  5
A97B
330
A888
100
AcDbEntity
  8
1
  6
Continuous
100
AcDbLine
 10
338.163342
 20
169.379009
 30
0.0
 11
338.163342
 21
171.196009
 31
0.0
  0
LINE
  5
A97C
330
A888
100
AcDbEntity
  8
1
  6
Continuous
100
AcDbLine
 10
338.6563419999998
 20
171.5030089999999
 30
0.0
 11
338.6563419999998
 21
169.073009
 31
0.0
  0
ARC
  5
A97D
330
A888
100
AcDbEntity
  8
1
  6
Continuous
100
AcDbCircle
 10
338.4093419999999
 20
171.196009
 30
0.0
 40
0.24635
100
AcDbArc
 50
116.0144
 51
180.0
  0
ARC
  5
A97E
330
A888
100
AcDbEntity
  8
1
  6
Continuous
100
AcDbCircle
 10
338.6063419999999
 20
171.5030089999999
 30
0.0
 40
0.04927
100
AcDbArc
 50
0.0
 51
112.9439999999999
  0
ARC
  5
A97F
330
A888
100
AcDbEntity
  8
1
  6
Continuous
100
AcDbCircle
 10
340.872342
 20
166.150009
 30
0.0
 40
5.861699999999999
100
AcDbArc
 50
112.9439999999999
 51
116.0144
  0
LINE
  5
A980
330
A888
100
AcDbEntity
  8
1
  6
Continuous
100
AcDbLine
 10
337.670342
 20
171.6390089999999
 30
0.0
 11
337.670342
 21
169.515009
 31
0.0
  0
ARC
  5
A981
330
A888
100
AcDbEntity
  8
1
  6
Continuous
100
AcDbCircle
 10
343.828342
 20
170.2880089999999
 30
0.0
 40
1.269449999999998
100
AcDbArc
 50
305.5379999999999
 51
315.699
  0
LINE
  5
A982
330
A888
100
AcDbEntity
  8
1
  6
Continuous
100
AcDbLine
 10
345.0973419999999
 20
170.2880089999999
 30
0.0
 11
344.0793419999998
 21
170.2880089999999
 31
0.0
  0
ARC
  5
A983
330
A888
100
AcDbEntity
  8
1
  6
Continuous
100
AcDbCircle
 10
343.828342
 20
170.2880089999999
 30
0.0
 40
1.269449999999998
100
AcDbArc
 50
332.25
 51
54.46200000000001
  0
LINE
  5
A984
330
A888
100
AcDbEntity
  8
1
  6
Continuous
100
AcDbLine
 10
343.8323419999999
 20
169.3660089999999
 30
0.0
 11
344.389342
 21
171.442009
 31
0.0
  0
LINE
  5
A985
330
A888
100
AcDbEntity
  8
1
  6
Continuous
100
AcDbLine
 10
342.1043419999999
 20
168.8970089999999
 30
0.0
 11
342.1043419999999
 21
170.2880089999999
 31
0.0
  0
LINE
  5
A986
330
A888
100
AcDbEntity
  8
1
  6
Continuous
100
AcDbLine
 10
343.3353419999999
 20
170.2880089999999
 30
0.0
 11
343.3353419999999
 21
169.106009
 31
0.0
  0
ARC
  5
A987
330
A888
100
AcDbEntity
  8
1
  6
Continuous
100
AcDbCircle
 10
343.3353419999999
 20
170.5340089999999
 30
0.0
 40
0.24635
100
AcDbArc
 50
180.0
 51
0.0
  0
LINE
  5
A988
330
A888
100
AcDbEntity
  8
1
  6
Continuous
100
AcDbLine
 10
342.5963419999998
 20
171.9070089999999
 30
0.0
 11
342.5963419999998
 21
168.823009
 31
0.0
  0
LINE
  5
A989
330
A888
100
AcDbEntity
  8
1
  6
Continuous
100
AcDbLine
 10
342.1043419999999
 20
170.8790089999999
 30
0.0
 11
342.1043419999999
 21
171.678009
 31
0.0
  0
LINE
  5
A98A
330
A888
100
AcDbEntity
  8
1
  6
Continuous
100
AcDbLine
 10
343.0893419999998
 20
171.6750089999999
 30
0.0
 11
343.0893419999998
 21
170.5340089999999
 31
0.0
  0
LINE
  5
A98B
330
A888
100
AcDbEntity
  8
1
  6
Continuous
100
AcDbLine
 10
343.581342
 20
170.5340089999999
 30
0.0
 11
343.581342
 21
171.5860089999999
 31
0.0
  0
LINE
  5
A98C
330
A888
100
AcDbEntity
  8
1
  6
Continuous
100
AcDbLine
 10
349.4001529999999
 20
167.539454
 30
0.0
 11
349.4001529999999
 21
165.039454
 31
0.0
  0
LINE
  5
A98D
330
A888
100
AcDbEntity
  8
1
  6
Continuous
100
AcDbLine
 10
351.1170279999998
 20
167.5582039999999
 30
0.0
 11
351.1170279999998
 21
165.0582039999999
 31
0.0
  0
LINE
  5
A98E
330
A888
100
AcDbEntity
  8
1
  6
Continuous
100
AcDbLine
 10
352.6832779999999
 20
167.5582039999999
 30
0.0
 11
352.6832779999999
 21
165.0582039999999
 31
0.0
  0
LINE
  5
A98F
330
A888
100
AcDbEntity
  8
1
  6
Continuous
100
AcDbLine
 10
354.400153
 20
167.5416409999999
 30
0.0
 11
355.3249319999998
 21
165.041641
 31
0.0
  0
LINE
  5
A990
330
A888
100
AcDbEntity
  8
1
  6
Continuous
100
AcDbLine
 10
354.400153
 20
167.5372659999998
 30
0.0
 11
353.431107
 21
165.041641
 31
0.0
  0
LINE
  5
A991
330
A888
100
AcDbEntity
  8
1
  6
Continuous
100
AcDbLine
 10
351.1170279999998
 20
166.289454
 30
0.0
 11
352.6832779999999
 21
166.289454
 31
0.0
  0
LINE
  5
A992
330
A888
100
AcDbEntity
  8
1
  6
Continuous
100
AcDbLine
 10
353.7307779999999
 20
165.7960159999998
 30
0.0
 11
355.0476529999999
 21
165.7960159999998
 31
0.0
  0
LINE
  5
A993
330
A888
100
AcDbEntity
  8
1
  6
Continuous
100
AcDbLine
 10
348.4201529999999
 20
167.539454
 30
0.0
 11
350.3889029999998
 21
167.539454
 31
0.0
  0
LINE
  5
A994
330
A888
100
AcDbEntity
  8
1
  6
Continuous
100
AcDbLine
 10
356.5085899999999
 20
166.289454
 30
0.0
 11
357.291715
 21
166.289454
 31
0.0
  0
ARC
  5
A995
330
A888
100
AcDbEntity
  8
1
  6
Continuous
100
AcDbCircle
 10
371.8413529999998
 20
166.8345809999999
 30
0.0
 40
0.7056
100
AcDbArc
 50
317.181793
 51
180.0
  0
LINE
  5
A996
330
A888
100
AcDbEntity
  8
1
  6
Continuous
100
AcDbLine
 10
369.0085899999999
 20
166.289454
 30
0.0
 11
369.791715
 21
166.289454
 31
0.0
  0
LINE
  5
A997
330
A888
100
AcDbEntity
  8
1
  6
Continuous
100
AcDbLine
 10
372.3607529999999
 20
166.354381
 30
0.0
 11
371.1749529999999
 21
165.031381
 31
0.0
  0
LINE
  5
A998
330
A888
100
AcDbEntity
  8
1
  6
Continuous
100
AcDbLine
 10
371.1749529999999
 20
165.041181
 30
0.0
 11
372.6253529999998
 21
165.041181
 31
0.0
  0
LINE
  5
A999
330
A888
100
AcDbEntity
  8
4
  6
CENTER
100
AcDbLine
 10
127.917104
 20
52.00734699999999
 30
0.0
 11
127.917104
 21
42.807347
 31
0.0
  0
LINE
  5
A99A
330
A888
100
AcDbEntity
  8
4
  6
CENTER
100
AcDbLine
 10
17.91710399999999
 20
52.00734699999999
 30
0.0
 11
17.91710399999999
 21
42.807347
 31
0.0
  0
LINE
  5
A99B
330
A888
100
AcDbEntity
  8
4
  6
CENTER
100
AcDbLine
 10
127.917104
 20
296.5174239999999
 30
0.0
 11
127.917104
 21
287.317424
 31
0.0
  0
LINE
  5
A99C
330
A888
100
AcDbEntity
  8
4
  6
CENTER
100
AcDbLine
 10
17.91710399999999
 20
296.5174239999999
 30
0.0
 11
17.91710399999999
 21
287.317424
 31
0.0
  0
LINE
  5
A99D
330
A888
100
AcDbEntity
  8
4
  6
CENTER
100
AcDbLine
 10
246.9451579999999
 20
193.289454
 30
0.0
 11
239.345158
 21
193.289454
 31
0.0
  0
LINE
  5
A99E
330
A888
100
AcDbEntity
  8
4
  6
CENTER
100
AcDbLine
 10
246.9451579999999
 20
147.289454
 30
0.0
 11
239.345158
 21
147.289454
 31
0.0
  0
LINE
  5
A99F
330
A888
100
AcDbEntity
  8
1
  6
Continuous
100
AcDbLine
 10
365.552254
 20
169.7822079999999
 30
0.0
 11
366.915479
 21
169.7822079999999
 31
0.0
  0
LINE
  5
A9A0
330
A888
100
AcDbEntity
  8
1
  6
Continuous
100
AcDbLine
 10
366.2451889999999
 20
171.589273
 30
0.0
 11
367.191747
 21
169.030396
 31
0.0
  0
LINE
  5
A9A1
330
A888
100
AcDbEntity
  8
1
  6
Continuous
100
AcDbLine
 10
356.014211
 20
170.3347439999998
 30
0.0
 11
357.6355879999999
 21
170.3347439999998
 31
0.0
  0
LINE
  5
A9A2
330
A888
100
AcDbEntity
  8
1
  6
Continuous
100
AcDbLine
 10
349.130153
 20
171.539454
 30
0.0
 11
349.130153
 21
169.0394539999998
 31
0.0
  0
LINE
  5
A9A3
330
A888
100
AcDbEntity
  8
1
  6
Continuous
100
AcDbLine
 10
348.1156599999998
 20
171.539454
 30
0.0
 11
350.153704
 21
171.539454
 31
0.0
  0
LINE
  5
A9A4
330
A888
100
AcDbEntity
  8
1
  6
Continuous
100
AcDbLine
 10
356.014211
 20
171.6481499999999
 30
0.0
 11
356.014211
 21
169.0213379999998
 31
0.0
  0
LINE
  5
A9A5
330
A888
100
AcDbEntity
  8
1
  6
Continuous
100
AcDbLine
 10
360.561312
 20
170.2079319999998
 30
0.0
 11
361.4399349999998
 21
170.2079319999998
 31
0.0
  0
LINE
  5
A9A6
330
A888
100
AcDbEntity
  8
1
  6
Continuous
100
AcDbLine
 10
357.6355879999999
 20
171.6481499999999
 30
0.0
 11
357.6355879999999
 21
169.0213379999998
 31
0.0
  0
LINE
  5
A9A7
330
A888
100
AcDbEntity
  8
1
  6
Continuous
100
AcDbLine
 10
358.514211
 20
171.6481499999999
 30
0.0
 11
358.514211
 21
169.0213379999998
 31
0.0
  0
LINE
  5
A9A8
330
A888
100
AcDbEntity
  8
1
  6
Continuous
100
AcDbLine
 10
366.2451889999999
 20
171.584744
 30
0.0
 11
365.2533409999999
 21
169.030396
 31
0.0
  0
LINE
  5
A9A9
330
A888
100
AcDbEntity
  8
1
  6
Continuous
100
AcDbLine
 10
363.912762
 20
170.1988739999999
 30
0.0
 11
363.912762
 21
169.0213379999998
 31
0.0
  0
LINE
  5
A9AA
330
A888
100
AcDbEntity
  8
1
  6
Continuous
100
AcDbLine
 10
361.4399349999998
 20
170.2079319999998
 30
0.0
 11
361.4399349999998
 21
169.0394539999998
 31
0.0
  0
LINE
  5
A9AB
330
A888
100
AcDbEntity
  8
1
  6
Continuous
100
AcDbLine
 10
362.164573
 20
171.6481499999999
 30
0.0
 11
362.164573
 21
169.0213379999998
 31
0.0
  0
LINE
  5
A9AC
330
A888
100
AcDbEntity
  8
1
  6
Continuous
100
AcDbLine
 10
363.912762
 20
170.1988739999999
 30
0.0
 11
364.7610409999999
 21
171.668122
 31
0.0
  0
LINE
  5
A9AD
330
A888
100
AcDbEntity
  8
1
  6
Continuous
100
AcDbLine
 10
363.912762
 20
170.203403
 30
0.0
 11
363.070687
 21
171.6664469999998
 31
0.0
  0
LINE
  5
A9AE
330
A888
100
AcDbEntity
  8
1
  6
Continuous
100
AcDbLine
 10
362.516499
 20
166.8477429999998
 30
0.0
 11
362.516499
 21
165.6424819999998
 31
0.0
  0
ARC
  5
A9AF
330
A888
100
AcDbEntity
  8
1
  6
Continuous
100
AcDbCircle
 10
361.841553
 20
165.661766
 30
0.0
 40
0.6363770000000001
100
AcDbArc
 50
180.0
 51
270.0
  0
LINE
  5
A9B0
330
A888
100
AcDbEntity
  8
1
  6
Continuous
100
AcDbLine
 10
359.4001529999999
 20
167.539454
 30
0.0
 11
359.4001529999999
 21
165.039454
 31
0.0
  0
LINE
  5
A9B1
330
A888
100
AcDbEntity
  8
1
  6
Continuous
100
AcDbLine
 10
359.4001529999999
 20
167.539454
 30
0.0
 11
359.124291
 21
167.2722129999999
 31
0.0
  0
LINE
  5
A9B2
330
A888
100
AcDbEntity
  8
1
  6
Continuous
100
AcDbLine
 10
366.900153
 20
165.08411
 30
0.0
 11
366.733441
 21
165.102407
 31
0.0
  0
LINE
  5
A9B3
330
A888
100
AcDbEntity
  8
1
  6
Continuous
100
AcDbLine
 10
366.733441
 20
165.102407
 30
0.0
 11
366.571756
 21
165.156755
 31
0.0
  0
LINE
  5
A9B4
330
A888
100
AcDbEntity
  8
1
  6
Continuous
100
AcDbLine
 10
366.571756
 20
165.156755
 30
0.0
 11
366.4200799999999
 21
165.2455229999999
 31
0.0
  0
LINE
  5
A9B5
330
A888
100
AcDbEntity
  8
1
  6
Continuous
100
AcDbLine
 10
366.4200799999999
 20
165.2455229999999
 30
0.0
 11
366.2829879999999
 21
165.365949
 31
0.0
  0
LINE
  5
A9B6
330
A888
100
AcDbEntity
  8
1
  6
Continuous
100
AcDbLine
 10
366.2829879999999
 20
165.365949
 30
0.0
 11
366.164646
 21
165.514409
 31
0.0
  0
LINE
  5
A9B7
330
A888
100
AcDbEntity
  8
1
  6
Continuous
100
AcDbLine
 10
366.164646
 20
165.514409
 30
0.0
 11
366.0686309999999
 21
165.6864649999999
 31
0.0
  0
LINE
  5
A9B8
330
A888
100
AcDbEntity
  8
1
  6
Continuous
100
AcDbLine
 10
366.0686309999999
 20
165.6864649999999
 30
0.0
 11
365.997934
 21
165.8767729999999
 31
0.0
  0
LINE
  5
A9B9
330
A888
100
AcDbEntity
  8
1
  6
Continuous
100
AcDbLine
 10
365.997934
 20
165.8767729999999
 30
0.0
 11
365.9545909999998
 21
166.0796259999998
 31
0.0
  0
LINE
  5
A9BA
330
A888
100
AcDbEntity
  8
1
  6
Continuous
100
AcDbLine
 10
365.9545909999998
 20
166.0796259999998
 30
0.0
 11
365.9400079999999
 21
166.2888199999999
 31
0.0
  0
LINE
  5
A9BB
330
A888
100
AcDbEntity
  8
1
  6
Continuous
100
AcDbLine
 10
366.900153
 20
167.4947979999998
 30
0.0
 11
366.733441
 21
167.476501
 31
0.0
  0
LINE
  5
A9BC
330
A888
100
AcDbEntity
  8
1
  6
Continuous
100
AcDbLine
 10
366.733441
 20
167.476501
 30
0.0
 11
366.571756
 21
167.422153
 31
0.0
  0
LINE
  5
A9BD
330
A888
100
AcDbEntity
  8
1
  6
Continuous
100
AcDbLine
 10
366.571756
 20
167.422153
 30
0.0
 11
366.4200799999999
 21
167.3333849999999
 31
0.0
  0
LINE
  5
A9BE
330
A888
100
AcDbEntity
  8
1
  6
Continuous
100
AcDbLine
 10
366.4200799999999
 20
167.3333849999999
 30
0.0
 11
366.2829879999999
 21
167.212959
 31
0.0
  0
LINE
  5
A9BF
330
A888
100
AcDbEntity
  8
1
  6
Continuous
100
AcDbLine
 10
366.2829879999999
 20
167.212959
 30
0.0
 11
366.164646
 21
167.064499
 31
0.0
  0
LINE
  5
A9C0
330
A888
100
AcDbEntity
  8
1
  6
Continuous
100
AcDbLine
 10
366.164646
 20
167.064499
 30
0.0
 11
366.0686309999999
 21
166.8924429999998
 31
0.0
  0
LINE
  5
A9C1
330
A888
100
AcDbEntity
  8
1
  6
Continuous
100
AcDbLine
 10
366.0686309999999
 20
166.8924429999998
 30
0.0
 11
365.997934
 21
166.7021349999999
 31
0.0
  0
LINE
  5
A9C2
330
A888
100
AcDbEntity
  8
1
  6
Continuous
100
AcDbLine
 10
365.997934
 20
166.7021349999999
 30
0.0
 11
365.9545909999998
 21
166.4992819999999
 31
0.0
  0
LINE
  5
A9C3
330
A888
100
AcDbEntity
  8
1
  6
Continuous
100
AcDbLine
 10
365.9545909999998
 20
166.4992819999999
 30
0.0
 11
365.9400079999999
 21
166.290088
 31
0.0
  0
LINE
  5
A9C4
330
A888
100
AcDbEntity
  8
1
  6
Continuous
100
AcDbLine
 10
363.791731
 20
167.539454
 30
0.0
 11
363.791731
 21
166.1989839999999
 31
0.0
  0
LINE
  5
A9C5
330
A888
100
AcDbEntity
  8
1
  6
Continuous
100
AcDbLine
 10
363.781947
 20
167.539454
 30
0.0
 11
365.0832789999999
 21
167.539454
 31
0.0
  0
LINE
  5
A9C6
330
A888
100
AcDbEntity
  8
1
  6
Continuous
100
AcDbLine
 10
367.724428
 20
166.8969719999998
 30
0.0
 11
367.711747
 21
167.000776
 31
0.0
  0
LINE
  5
A9C7
330
A888
100
AcDbEntity
  8
1
  6
Continuous
100
AcDbLine
 10
367.711747
 20
167.000776
 30
0.0
 11
367.6741559999999
 21
167.101456
 31
0.0
  0
LINE
  5
A9C8
330
A888
100
AcDbEntity
  8
1
  6
Continuous
100
AcDbLine
 10
367.6741559999999
 20
167.101456
 30
0.0
 11
367.612789
 21
167.195885
 31
0.0
  0
LINE
  5
A9C9
330
A888
100
AcDbEntity
  8
1
  6
Continuous
100
AcDbLine
 10
367.612789
 20
167.195885
 30
0.0
 11
367.5294549999999
 21
167.281256
 31
0.0
  0
LINE
  5
A9CA
330
A888
100
AcDbEntity
  8
1
  6
Continuous
100
AcDbLine
 10
367.5294549999999
 20
167.281256
 30
0.0
 11
367.4267379999998
 21
167.354943
 31
0.0
  0
LINE
  5
A9CB
330
A888
100
AcDbEntity
  8
1
  6
Continuous
100
AcDbLine
 10
367.4267379999998
 20
167.354943
 30
0.0
 11
367.307762
 21
167.41468
 31
0.0
  0
LINE
  5
A9CC
330
A888
100
AcDbEntity
  8
1
  6
Continuous
100
AcDbLine
 10
367.307762
 20
167.41468
 30
0.0
 11
367.176104
 21
167.4587469999998
 31
0.0
  0
LINE
  5
A9CD
330
A888
100
AcDbEntity
  8
1
  6
Continuous
100
AcDbLine
 10
367.176104
 20
167.4587469999998
 30
0.0
 11
367.035796
 21
167.4856949999998
 31
0.0
  0
LINE
  5
A9CE
330
A888
100
AcDbEntity
  8
1
  6
Continuous
100
AcDbLine
 10
367.035796
 20
167.4856949999998
 30
0.0
 11
366.891095
 21
167.4947979999998
 31
0.0
  0
LINE
  5
A9CF
330
A888
100
AcDbEntity
  8
1
  6
Continuous
100
AcDbLine
 10
367.7334859999998
 20
165.681936
 30
0.0
 11
367.7208049999999
 21
165.578131
 31
0.0
  0
LINE
  5
A9D0
330
A888
100
AcDbEntity
  8
1
  6
Continuous
100
AcDbLine
 10
367.7208049999999
 20
165.578131
 30
0.0
 11
367.683214
 21
165.477452
 31
0.0
  0
LINE
  5
A9D1
330
A888
100
AcDbEntity
  8
1
  6
Continuous
100
AcDbLine
 10
367.683214
 20
165.477452
 30
0.0
 11
367.621847
 21
165.383023
 31
0.0
  0
LINE
  5
A9D2
330
A888
100
AcDbEntity
  8
1
  6
Continuous
100
AcDbLine
 10
367.621847
 20
165.383023
 30
0.0
 11
367.5385129999999
 21
165.297651
 31
0.0
  0
LINE
  5
A9D3
330
A888
100
AcDbEntity
  8
1
  6
Continuous
100
AcDbLine
 10
367.5385129999999
 20
165.297651
 30
0.0
 11
367.435796
 21
165.223965
 31
0.0
  0
LINE
  5
A9D4
330
A888
100
AcDbEntity
  8
1
  6
Continuous
100
AcDbLine
 10
367.435796
 20
165.223965
 30
0.0
 11
367.31682
 21
165.164228
 31
0.0
  0
LINE
  5
A9D5
330
A888
100
AcDbEntity
  8
1
  6
Continuous
100
AcDbLine
 10
367.31682
 20
165.164228
 30
0.0
 11
367.1851619999998
 21
165.12016
 31
0.0
  0
LINE
  5
A9D6
330
A888
100
AcDbEntity
  8
1
  6
Continuous
100
AcDbLine
 10
367.1851619999998
 20
165.12016
 30
0.0
 11
367.0448539999999
 21
165.0932129999999
 31
0.0
  0
LINE
  5
A9D7
330
A888
100
AcDbEntity
  8
1
  6
Continuous
100
AcDbLine
 10
367.0448539999999
 20
165.0932129999999
 30
0.0
 11
366.900153
 21
165.08411
 31
0.0
  0
LINE
  5
A9D8
330
A888
100
AcDbEntity
  8
1
  6
Continuous
100
AcDbLine
 10
362.516499
 20
165.6424819999998
 30
0.0
 11
362.5062299999998
 21
165.536998
 31
0.0
  0
LINE
  5
A9D9
330
A888
100
AcDbEntity
  8
1
  6
Continuous
100
AcDbLine
 10
362.5062299999998
 20
165.536998
 30
0.0
 11
362.4758089999998
 21
165.434744
 31
0.0
  0
LINE
  5
A9DA
330
A888
100
AcDbEntity
  8
1
  6
Continuous
100
AcDbLine
 10
362.4758089999998
 20
165.434744
 30
0.0
 11
362.426056
 21
165.3387569999999
 31
0.0
  0
LINE
  5
A9DB
330
A888
100
AcDbEntity
  8
1
  6
Continuous
100
AcDbLine
 10
362.426056
 20
165.3387569999999
 30
0.0
 11
362.35861
 21
165.252026
 31
0.0
  0
LINE
  5
A9DC
330
A888
100
AcDbEntity
  8
1
  6
Continuous
100
AcDbLine
 10
362.35861
 20
165.252026
 30
0.0
 11
362.275399
 21
165.177155
 31
0.0
  0
LINE
  5
A9DD
330
A888
100
AcDbEntity
  8
1
  6
Continuous
100
AcDbLine
 10
362.275399
 20
165.177155
 30
0.0
 11
362.1790259999999
 21
165.11641
 31
0.0
  0
LINE
  5
A9DE
330
A888
100
AcDbEntity
  8
1
  6
Continuous
100
AcDbLine
 10
362.1790259999999
 20
165.11641
 30
0.0
 11
362.072385
 21
165.071671
 31
0.0
  0
LINE
  5
A9DF
330
A888
100
AcDbEntity
  8
1
  6
Continuous
100
AcDbLine
 10
362.072385
 20
165.071671
 30
0.0
 11
361.9587529999998
 21
165.0442389999998
 31
0.0
  0
LINE
  5
A9E0
330
A888
100
AcDbEntity
  8
1
  6
Continuous
100
AcDbLine
 10
361.9587529999998
 20
165.0442389999998
 30
0.0
 11
361.841553
 21
165.035031
 31
0.0
  0
LINE
  5
A9E1
330
A888
100
AcDbEntity
  8
1
  6
Continuous
100
AcDbLine
 10
361.865658
 20
166.124586
 30
0.0
 11
361.7557389999998
 21
166.134759
 31
0.0
  0
LINE
  5
A9E2
330
A888
100
AcDbEntity
  8
1
  6
Continuous
100
AcDbLine
 10
361.7557389999998
 20
166.134759
 30
0.0
 11
361.649001
 21
166.164987
 31
0.0
  0
LINE
  5
A9E3
330
A888
100
AcDbEntity
  8
1
  6
Continuous
100
AcDbLine
 10
361.649001
 20
166.164987
 30
0.0
 11
361.5484819999999
 21
166.214451
 31
0.0
  0
LINE
  5
A9E4
330
A888
100
AcDbEntity
  8
1
  6
Continuous
100
AcDbLine
 10
361.5484819999999
 20
166.214451
 30
0.0
 11
361.4570749999999
 21
166.2816559999999
 31
0.0
  0
LINE
  5
A9E5
330
A888
100
AcDbEntity
  8
1
  6
Continuous
100
AcDbLine
 10
361.4570749999999
 20
166.2816559999999
 30
0.0
 11
361.3773829999999
 21
166.364722
 31
0.0
  0
LINE
  5
A9E6
330
A888
100
AcDbEntity
  8
1
  6
Continuous
100
AcDbLine
 10
361.3773829999999
 20
166.364722
 30
0.0
 11
361.3117209999999
 21
166.46124
 31
0.0
  0
LINE
  5
A9E7
330
A888
100
AcDbEntity
  8
1
  6
Continuous
100
AcDbLine
 10
361.3117209999999
 20
166.46124
 30
0.0
 11
361.2619669999999
 21
166.5684599999999
 31
0.0
  0
LINE
  5
A9E8
330
A888
100
AcDbEntity
  8
1
  6
Continuous
100
AcDbLine
 10
361.2619669999999
 20
166.5684599999999
 30
0.0
 11
361.22957
 21
166.6832489999999
 31
0.0
  0
LINE
  5
A9E9
330
A888
100
AcDbEntity
  8
1
  6
Continuous
100
AcDbLine
 10
361.22957
 20
166.6832489999999
 30
0.0
 11
361.2154439999998
 21
166.802377
 31
0.0
  0
LINE
  5
A9EA
330
A888
100
AcDbEntity
  8
1
  6
Continuous
100
AcDbLine
 10
361.2154439999998
 20
166.802377
 30
0.0
 11
361.2199759999999
 21
166.9223719999999
 31
0.0
  0
LINE
  5
A9EB
330
A888
100
AcDbEntity
  8
1
  6
Continuous
100
AcDbLine
 10
361.2199759999999
 20
166.9223719999999
 30
0.0
 11
361.243069
 21
167.0398129999998
 31
0.0
  0
LINE
  5
A9EC
330
A888
100
AcDbEntity
  8
1
  6
Continuous
100
AcDbLine
 10
361.243069
 20
167.0398129999998
 30
0.0
 11
361.284048
 21
167.1513239999999
 31
0.0
  0
LINE
  5
A9ED
330
A888
100
AcDbEntity
  8
1
  6
Continuous
100
AcDbLine
 10
361.284048
 20
167.1513239999999
 30
0.0
 11
361.341708
 21
167.253722
 31
0.0
  0
LINE
  5
A9EE
330
A888
100
AcDbEntity
  8
1
  6
Continuous
100
AcDbLine
 10
361.341708
 20
167.253722
 30
0.0
 11
361.4144569999999
 21
167.344021
 31
0.0
  0
LINE
  5
A9EF
330
A888
100
AcDbEntity
  8
1
  6
Continuous
100
AcDbLine
 10
361.4144569999999
 20
167.344021
 30
0.0
 11
361.500127
 21
167.4196629999999
 31
0.0
  0
LINE
  5
A9F0
330
A888
100
AcDbEntity
  8
1
  6
Continuous
100
AcDbLine
 10
361.500127
 20
167.4196629999999
 30
0.0
 11
361.5963549999999
 21
167.4784309999998
 31
0.0
  0
LINE
  5
A9F1
330
A888
100
AcDbEntity
  8
1
  6
Continuous
100
AcDbLine
 10
361.5963549999999
 20
167.4784309999998
 30
0.0
 11
361.700248
 21
167.518687
 31
0.0
  0
LINE
  5
A9F2
330
A888
100
AcDbEntity
  8
1
  6
Continuous
100
AcDbLine
 10
361.700248
 20
167.518687
 30
0.0
 11
361.808915
 21
167.539273
 31
0.0
  0
LINE
  5
A9F3
330
A888
100
AcDbEntity
  8
1
  6
Continuous
100
AcDbLine
 10
361.808915
 20
167.539273
 30
0.0
 11
361.9192679999999
 21
167.5395619999999
 31
0.0
  0
LINE
  5
A9F4
330
A888
100
AcDbEntity
  8
1
  6
Continuous
100
AcDbLine
 10
361.9192679999999
 20
167.5395619999999
 30
0.0
 11
362.027983
 21
167.5195549999999
 31
0.0
  0
LINE
  5
A9F5
330
A888
100
AcDbEntity
  8
1
  6
Continuous
100
AcDbLine
 10
362.027983
 20
167.5195549999999
 30
0.0
 11
362.1321169999998
 21
167.479878
 31
0.0
  0
LINE
  5
A9F6
330
A888
100
AcDbEntity
  8
1
  6
Continuous
100
AcDbLine
 10
362.1321169999998
 20
167.479878
 30
0.0
 11
362.228538
 21
167.4215909999998
 31
0.0
  0
LINE
  5
A9F7
330
A888
100
AcDbEntity
  8
1
  6
Continuous
100
AcDbLine
 10
362.228538
 20
167.4215909999998
 30
0.0
 11
362.314594
 21
167.346383
 31
0.0
  0
LINE
  5
A9F8
330
A888
100
AcDbEntity
  8
1
  6
Continuous
100
AcDbLine
 10
362.314594
 20
167.346383
 30
0.0
 11
362.3877289999999
 21
167.25647
 31
0.0
  0
LINE
  5
A9F9
330
A888
100
AcDbEntity
  8
1
  6
Continuous
100
AcDbLine
 10
362.3877289999999
 20
167.25647
 30
0.0
 11
362.445822
 21
167.1544089999999
 31
0.0
  0
LINE
  5
A9FA
330
A888
100
AcDbEntity
  8
1
  6
Continuous
100
AcDbLine
 10
362.445822
 20
167.1544089999999
 30
0.0
 11
362.4873319999999
 21
167.043091
 31
0.0
  0
LINE
  5
A9FB
330
A888
100
AcDbEntity
  8
1
  6
Continuous
100
AcDbLine
 10
362.4873319999999
 20
167.043091
 30
0.0
 11
362.5109059999999
 21
166.9257949999999
 31
0.0
  0
LINE
  5
A9FC
330
A888
100
AcDbEntity
  8
1
  6
Continuous
100
AcDbLine
 10
362.5109059999999
 20
166.9257949999999
 30
0.0
 11
362.516017
 21
166.8058
 31
0.0
  0
LINE
  5
A9FD
330
A888
100
AcDbEntity
  8
1
  6
Continuous
100
AcDbLine
 10
362.516017
 20
166.8058
 30
0.0
 11
362.5024209999998
 21
166.686623
 31
0.0
  0
LINE
  5
A9FE
330
A888
100
AcDbEntity
  8
1
  6
Continuous
100
AcDbLine
 10
362.5024209999998
 20
166.686623
 30
0.0
 11
362.470506
 21
166.571642
 31
0.0
  0
LINE
  5
A9FF
330
A888
100
AcDbEntity
  8
1
  6
Continuous
100
AcDbLine
 10
362.470506
 20
166.571642
 30
0.0
 11
362.421235
 21
166.4641809999999
 31
0.0
  0
LINE
  5
AA00
330
A888
100
AcDbEntity
  8
1
  6
Continuous
100
AcDbLine
 10
362.421235
 20
166.4641809999999
 30
0.0
 11
362.3560059999999
 21
166.3672779999999
 31
0.0
  0
LINE
  5
AA01
330
A888
100
AcDbEntity
  8
1
  6
Continuous
100
AcDbLine
 10
362.3560059999999
 20
166.3672779999999
 30
0.0
 11
362.2767
 21
166.283825
 31
0.0
  0
LINE
  5
AA02
330
A888
100
AcDbEntity
  8
1
  6
Continuous
100
AcDbLine
 10
362.2767
 20
166.283825
 30
0.0
 11
362.185583
 21
166.216138
 31
0.0
  0
LINE
  5
AA03
330
A888
100
AcDbEntity
  8
1
  6
Continuous
100
AcDbLine
 10
362.185583
 20
166.216138
 30
0.0
 11
362.085305
 21
166.166144
 31
0.0
  0
LINE
  5
AA04
330
A888
100
AcDbEntity
  8
1
  6
Continuous
100
AcDbLine
 10
362.085305
 20
166.166144
 30
0.0
 11
361.978663
 21
166.135337
 31
0.0
  0
LINE
  5
AA05
330
A888
100
AcDbEntity
  8
1
  6
Continuous
100
AcDbLine
 10
361.978663
 20
166.135337
 30
0.0
 11
361.865658
 21
166.124586
 31
0.0
  0
LINE
  5
AA06
330
A888
100
AcDbEntity
  8
1
  6
Continuous
100
AcDbLine
 10
361.3004429999999
 20
170.9486929999999
 30
0.0
 11
361.2877619999999
 21
171.0524969999999
 31
0.0
  0
LINE
  5
AA07
330
A888
100
AcDbEntity
  8
1
  6
Continuous
100
AcDbLine
 10
361.2877619999999
 20
171.0524969999999
 30
0.0
 11
361.250171
 21
171.153177
 31
0.0
  0
LINE
  5
AA08
330
A888
100
AcDbEntity
  8
1
  6
Continuous
100
AcDbLine
 10
361.250171
 20
171.153177
 30
0.0
 11
361.188803
 21
171.247606
 31
0.0
  0
LINE
  5
AA09
330
A888
100
AcDbEntity
  8
1
  6
Continuous
100
AcDbLine
 10
361.188803
 20
171.247606
 30
0.0
 11
361.10547
 21
171.332978
 31
0.0
  0
LINE
  5
AA0A
330
A888
100
AcDbEntity
  8
1
  6
Continuous
100
AcDbLine
 10
361.10547
 20
171.332978
 30
0.0
 11
361.002752
 21
171.4066639999998
 31
0.0
  0
LINE
  5
AA0B
330
A888
100
AcDbEntity
  8
1
  6
Continuous
100
AcDbLine
 10
361.002752
 20
171.4066639999998
 30
0.0
 11
360.8837759999998
 21
171.4664009999999
 31
0.0
  0
LINE
  5
AA0C
330
A888
100
AcDbEntity
  8
1
  6
Continuous
100
AcDbLine
 10
360.8837759999998
 20
171.4664009999999
 30
0.0
 11
360.7521179999998
 21
171.510468
 31
0.0
  0
LINE
  5
AA0D
330
A888
100
AcDbEntity
  8
1
  6
Continuous
100
AcDbLine
 10
360.7521179999998
 20
171.510468
 30
0.0
 11
360.6118099999998
 21
171.5374159999998
 31
0.0
  0
LINE
  5
AA0E
330
A888
100
AcDbEntity
  8
1
  6
Continuous
100
AcDbLine
 10
360.6118099999998
 20
171.5374159999998
 30
0.0
 11
360.467109
 21
171.5465189999999
 31
0.0
  0
LINE
  5
AA0F
330
A888
100
AcDbEntity
  8
1
  6
Continuous
100
AcDbLine
 10
360.4761669999998
 20
171.5465189999999
 30
0.0
 11
360.3094549999998
 21
171.5282219999998
 31
0.0
  0
LINE
  5
AA10
330
A888
100
AcDbEntity
  8
1
  6
Continuous
100
AcDbLine
 10
360.3094549999998
 20
171.5282219999998
 30
0.0
 11
360.1477709999999
 21
171.473874
 31
0.0
  0
LINE
  5
AA11
330
A888
100
AcDbEntity
  8
1
  6
Continuous
100
AcDbLine
 10
360.1477709999999
 20
171.473874
 30
0.0
 11
359.996095
 21
171.385106
 31
0.0
  0
LINE
  5
AA12
330
A888
100
AcDbEntity
  8
1
  6
Continuous
100
AcDbLine
 10
359.996095
 20
171.385106
 30
0.0
 11
359.8590019999999
 21
171.2646799999999
 31
0.0
  0
LINE
  5
AA13
330
A888
100
AcDbEntity
  8
1
  6
Continuous
100
AcDbLine
 10
359.8590019999999
 20
171.2646799999999
 30
0.0
 11
359.7406599999998
 21
171.1162199999999
 31
0.0
  0
LINE
  5
AA14
330
A888
100
AcDbEntity
  8
1
  6
Continuous
100
AcDbLine
 10
359.7406599999998
 20
171.1162199999999
 30
0.0
 11
359.644646
 21
170.944164
 31
0.0
  0
LINE
  5
AA15
330
A888
100
AcDbEntity
  8
1
  6
Continuous
100
AcDbLine
 10
359.644646
 20
170.944164
 30
0.0
 11
359.5739479999999
 21
170.753856
 31
0.0
  0
LINE
  5
AA16
330
A888
100
AcDbEntity
  8
1
  6
Continuous
100
AcDbLine
 10
359.5739479999999
 20
170.753856
 30
0.0
 11
359.5306059999999
 21
170.551003
 31
0.0
  0
LINE
  5
AA17
330
A888
100
AcDbEntity
  8
1
  6
Continuous
100
AcDbLine
 10
359.5306059999999
 20
170.551003
 30
0.0
 11
359.516022
 21
170.341809
 31
0.0
  0
LINE
  5
AA18
330
A888
100
AcDbEntity
  8
1
  6
Continuous
100
AcDbLine
 10
360.4761669999998
 20
169.135831
 30
0.0
 11
360.3094549999998
 21
169.1541279999999
 31
0.0
  0
LINE
  5
AA19
330
A888
100
AcDbEntity
  8
1
  6
Continuous
100
AcDbLine
 10
360.3094549999998
 20
169.1541279999999
 30
0.0
 11
360.1477709999999
 21
169.208476
 31
0.0
  0
LINE
  5
AA1A
330
A888
100
AcDbEntity
  8
1
  6
Continuous
100
AcDbLine
 10
360.1477709999999
 20
169.208476
 30
0.0
 11
359.996095
 21
169.297244
 31
0.0
  0
LINE
  5
AA1B
330
A888
100
AcDbEntity
  8
1
  6
Continuous
100
AcDbLine
 10
359.996095
 20
169.297244
 30
0.0
 11
359.8590019999999
 21
169.4176699999998
 31
0.0
  0
LINE
  5
AA1C
330
A888
100
AcDbEntity
  8
1
  6
Continuous
100
AcDbLine
 10
359.8590019999999
 20
169.4176699999998
 30
0.0
 11
359.7406599999998
 21
169.5661299999999
 31
0.0
  0
LINE
  5
AA1D
330
A888
100
AcDbEntity
  8
1
  6
Continuous
100
AcDbLine
 10
359.7406599999998
 20
169.5661299999999
 30
0.0
 11
359.644646
 21
169.738186
 31
0.0
  0
LINE
  5
AA1E
330
A888
100
AcDbEntity
  8
1
  6
Continuous
100
AcDbLine
 10
359.644646
 20
169.738186
 30
0.0
 11
359.5739479999999
 21
169.928494
 31
0.0
  0
LINE
  5
AA1F
330
A888
100
AcDbEntity
  8
1
  6
Continuous
100
AcDbLine
 10
359.5739479999999
 20
169.928494
 30
0.0
 11
359.5306059999999
 21
170.131347
 31
0.0
  0
LINE
  5
AA20
330
A888
100
AcDbEntity
  8
1
  6
Continuous
100
AcDbLine
 10
359.5306059999999
 20
170.131347
 30
0.0
 11
359.516022
 21
170.340541
 31
0.0
  0
LINE
  5
AA21
330
A888
100
AcDbEntity
  8
1
  6
Continuous
100
AcDbLine
 10
361.430877
 20
170.0177149999998
 30
0.0
 11
361.416385
 21
169.8645899999999
 31
0.0
  0
LINE
  5
AA22
330
A888
100
AcDbEntity
  8
1
  6
Continuous
100
AcDbLine
 10
361.416385
 20
169.8645899999999
 30
0.0
 11
361.3733139999998
 21
169.716084
 31
0.0
  0
LINE
  5
AA23
330
A888
100
AcDbEntity
  8
1
  6
Continuous
100
AcDbLine
 10
361.3733139999998
 20
169.716084
 30
0.0
 11
361.302979
 21
169.576773
 31
0.0
  0
LINE
  5
AA24
330
A888
100
AcDbEntity
  8
1
  6
Continuous
100
AcDbLine
 10
361.302979
 20
169.576773
 30
0.0
 11
361.207508
 21
169.4508669999999
 31
0.0
  0
LINE
  5
AA25
330
A888
100
AcDbEntity
  8
1
  6
Continuous
100
AcDbLine
 10
361.207508
 20
169.4508669999999
 30
0.0
 11
361.089845
 21
169.342171
 31
0.0
  0
LINE
  5
AA26
330
A888
100
AcDbEntity
  8
1
  6
Continuous
100
AcDbLine
 10
361.089845
 20
169.342171
 30
0.0
 11
360.953522
 21
169.2539919999999
 31
0.0
  0
LINE
  5
AA27
330
A888
100
AcDbEntity
  8
1
  6
Continuous
100
AcDbLine
 10
360.953522
 20
169.2539919999999
 30
0.0
 11
360.8027069999999
 21
169.1890009999999
 31
0.0
  0
LINE
  5
AA28
330
A888
100
AcDbEntity
  8
1
  6
Continuous
100
AcDbLine
 10
360.8027069999999
 20
169.1890009999999
 30
0.0
 11
360.641973
 21
169.1492369999999
 31
0.0
  0
LINE
  5
AA29
330
A888
100
AcDbEntity
  8
1
  6
Continuous
100
AcDbLine
 10
360.641973
 20
169.1492369999999
 30
0.0
 11
360.4761669999998
 21
169.135831
 31
0.0
  0
LINE
  5
AA2A
330
A888
100
AcDbEntity
  8
1
  6
Continuous
100
AcDbLine
 10
354.9933769999999
 20
170.979128
 30
0.0
 11
354.980696
 21
171.082932
 31
0.0
  0
LINE
  5
AA2B
330
A888
100
AcDbEntity
  8
1
  6
Continuous
100
AcDbLine
 10
354.980696
 20
171.082932
 30
0.0
 11
354.9431059999998
 21
171.183612
 31
0.0
  0
LINE
  5
AA2C
330
A888
100
AcDbEntity
  8
1
  6
Continuous
100
AcDbLine
 10
354.9431059999998
 20
171.183612
 30
0.0
 11
354.881738
 21
171.278041
 31
0.0
  0
LINE
  5
AA2D
330
A888
100
AcDbEntity
  8
1
  6
Continuous
100
AcDbLine
 10
354.881738
 20
171.278041
 30
0.0
 11
354.798405
 21
171.363412
 31
0.0
  0
LINE
  5
AA2E
330
A888
100
AcDbEntity
  8
1
  6
Continuous
100
AcDbLine
 10
354.798405
 20
171.363412
 30
0.0
 11
354.695687
 21
171.4370989999999
 31
0.0
  0
LINE
  5
AA2F
330
A888
100
AcDbEntity
  8
1
  6
Continuous
100
AcDbLine
 10
354.695687
 20
171.4370989999999
 30
0.0
 11
354.5767109999999
 21
171.496836
 31
0.0
  0
LINE
  5
AA30
330
A888
100
AcDbEntity
  8
1
  6
Continuous
100
AcDbLine
 10
354.5767109999999
 20
171.496836
 30
0.0
 11
354.4450529999999
 21
171.540903
 31
0.0
  0
LINE
  5
AA31
330
A888
100
AcDbEntity
  8
1
  6
Continuous
100
AcDbLine
 10
354.4450529999999
 20
171.540903
 30
0.0
 11
354.304745
 21
171.567851
 31
0.0
  0
LINE
  5
AA32
330
A888
100
AcDbEntity
  8
1
  6
Continuous
100
AcDbLine
 10
354.304745
 20
171.567851
 30
0.0
 11
354.1600439999998
 21
171.576954
 31
0.0
  0
LINE
  5
AA33
330
A888
100
AcDbEntity
  8
1
  6
Continuous
100
AcDbLine
 10
354.169102
 20
171.576954
 30
0.0
 11
354.00239
 21
171.558657
 31
0.0
  0
LINE
  5
AA34
330
A888
100
AcDbEntity
  8
1
  6
Continuous
100
AcDbLine
 10
354.00239
 20
171.558657
 30
0.0
 11
353.8407049999999
 21
171.5043089999998
 31
0.0
  0
LINE
  5
AA35
330
A888
100
AcDbEntity
  8
1
  6
Continuous
100
AcDbLine
 10
353.8407049999999
 20
171.5043089999998
 30
0.0
 11
353.68903
 21
171.415541
 31
0.0
  0
LINE
  5
AA36
330
A888
100
AcDbEntity
  8
1
  6
Continuous
100
AcDbLine
 10
353.68903
 20
171.415541
 30
0.0
 11
353.551937
 21
171.2951149999998
 31
0.0
  0
LINE
  5
AA37
330
A888
100
AcDbEntity
  8
1
  6
Continuous
100
AcDbLine
 10
353.551937
 20
171.2951149999998
 30
0.0
 11
353.433595
 21
171.146655
 31
0.0
  0
LINE
  5
AA38
330
A888
100
AcDbEntity
  8
1
  6
Continuous
100
AcDbLine
 10
353.433595
 20
171.146655
 30
0.0
 11
353.3375799999998
 21
170.974599
 31
0.0
  0
LINE
  5
AA39
330
A888
100
AcDbEntity
  8
1
  6
Continuous
100
AcDbLine
 10
353.3375799999998
 20
170.974599
 30
0.0
 11
353.2668829999999
 21
170.784291
 31
0.0
  0
LINE
  5
AA3A
330
A888
100
AcDbEntity
  8
1
  6
Continuous
100
AcDbLine
 10
353.2668829999999
 20
170.784291
 30
0.0
 11
353.223541
 21
170.5814379999999
 31
0.0
  0
LINE
  5
AA3B
330
A888
100
AcDbEntity
  8
1
  6
Continuous
100
AcDbLine
 10
353.223541
 20
170.5814379999999
 30
0.0
 11
353.208957
 21
170.3722439999999
 31
0.0
  0
LINE
  5
AA3C
330
A888
100
AcDbEntity
  8
1
  6
Continuous
100
AcDbLine
 10
355.002435
 20
169.7640919999998
 30
0.0
 11
354.9897539999999
 21
169.660287
 31
0.0
  0
LINE
  5
AA3D
330
A888
100
AcDbEntity
  8
1
  6
Continuous
100
AcDbLine
 10
354.9897539999999
 20
169.660287
 30
0.0
 11
354.952164
 21
169.559608
 31
0.0
  0
LINE
  5
AA3E
330
A888
100
AcDbEntity
  8
1
  6
Continuous
100
AcDbLine
 10
354.952164
 20
169.559608
 30
0.0
 11
354.890796
 21
169.4651789999998
 31
0.0
  0
LINE
  5
AA3F
330
A888
100
AcDbEntity
  8
1
  6
Continuous
100
AcDbLine
 10
354.890796
 20
169.4651789999998
 30
0.0
 11
354.8074629999999
 21
169.3798069999998
 31
0.0
  0
LINE
  5
AA40
330
A888
100
AcDbEntity
  8
1
  6
Continuous
100
AcDbLine
 10
354.8074629999999
 20
169.3798069999998
 30
0.0
 11
354.7047449999998
 21
169.3061209999999
 31
0.0
  0
LINE
  5
AA41
330
A888
100
AcDbEntity
  8
1
  6
Continuous
100
AcDbLine
 10
354.7047449999998
 20
169.3061209999999
 30
0.0
 11
354.5857689999999
 21
169.246383
 31
0.0
  0
LINE
  5
AA42
330
A888
100
AcDbEntity
  8
1
  6
Continuous
100
AcDbLine
 10
354.5857689999999
 20
169.246383
 30
0.0
 11
354.454111
 21
169.2023159999999
 31
0.0
  0
LINE
  5
AA43
330
A888
100
AcDbEntity
  8
1
  6
Continuous
100
AcDbLine
 10
354.454111
 20
169.2023159999999
 30
0.0
 11
354.313803
 21
169.1753689999998
 31
0.0
  0
LINE
  5
AA44
330
A888
100
AcDbEntity
  8
1
  6
Continuous
100
AcDbLine
 10
354.313803
 20
169.1753689999998
 30
0.0
 11
354.169102
 21
169.1662659999998
 31
0.0
  0
LINE
  5
AA45
330
A888
100
AcDbEntity
  8
1
  6
Continuous
100
AcDbLine
 10
354.169102
 20
169.1662659999998
 30
0.0
 11
354.00239
 21
169.1845629999999
 31
0.0
  0
LINE
  5
AA46
330
A888
100
AcDbEntity
  8
1
  6
Continuous
100
AcDbLine
 10
354.00239
 20
169.1845629999999
 30
0.0
 11
353.8407049999999
 21
169.2389099999998
 31
0.0
  0
LINE
  5
AA47
330
A888
100
AcDbEntity
  8
1
  6
Continuous
100
AcDbLine
 10
353.8407049999999
 20
169.2389099999998
 30
0.0
 11
353.68903
 21
169.3276789999999
 31
0.0
  0
LINE
  5
AA48
330
A888
100
AcDbEntity
  8
1
  6
Continuous
100
AcDbLine
 10
353.68903
 20
169.3276789999999
 30
0.0
 11
353.551937
 21
169.448104
 31
0.0
  0
LINE
  5
AA49
330
A888
100
AcDbEntity
  8
1
  6
Continuous
100
AcDbLine
 10
353.551937
 20
169.448104
 30
0.0
 11
353.433595
 21
169.596564
 31
0.0
  0
LINE
  5
AA4A
330
A888
100
AcDbEntity
  8
1
  6
Continuous
100
AcDbLine
 10
353.433595
 20
169.596564
 30
0.0
 11
353.3375799999998
 21
169.768621
 31
0.0
  0
LINE
  5
AA4B
330
A888
100
AcDbEntity
  8
1
  6
Continuous
100
AcDbLine
 10
353.3375799999998
 20
169.768621
 30
0.0
 11
353.2668829999999
 21
169.958929
 31
0.0
  0
LINE
  5
AA4C
330
A888
100
AcDbEntity
  8
1
  6
Continuous
100
AcDbLine
 10
353.2668829999999
 20
169.958929
 30
0.0
 11
353.223541
 21
170.1617819999999
 31
0.0
  0
LINE
  5
AA4D
330
A888
100
AcDbEntity
  8
1
  6
Continuous
100
AcDbLine
 10
353.223541
 20
170.1617819999999
 30
0.0
 11
353.208957
 21
170.370976
 31
0.0
  0
LINE
  5
AA4E
330
A888
100
AcDbEntity
  8
1
  6
Continuous
100
AcDbLine
 10
351.630153
 20
169.139092
 30
0.0
 11
351.4527069999999
 21
169.156483
 31
0.0
  0
LINE
  5
AA4F
330
A888
100
AcDbEntity
  8
1
  6
Continuous
100
AcDbLine
 10
351.4527069999999
 20
169.156483
 30
0.0
 11
351.2803789999999
 21
169.208068
 31
0.0
  0
LINE
  5
AA50
330
A888
100
AcDbEntity
  8
1
  6
Continuous
100
AcDbLine
 10
351.2803789999999
 20
169.208068
 30
0.0
 11
351.11806
 21
169.2924429999998
 31
0.0
  0
LINE
  5
AA51
330
A888
100
AcDbEntity
  8
1
  6
Continuous
100
AcDbLine
 10
351.11806
 20
169.2924429999998
 30
0.0
 11
350.9705059999998
 21
169.4071169999998
 31
0.0
  0
LINE
  5
AA52
330
A888
100
AcDbEntity
  8
1
  6
Continuous
100
AcDbLine
 10
350.9705059999998
 20
169.4071169999998
 30
0.0
 11
350.841838
 21
169.548829
 31
0.0
  0
LINE
  5
AA53
330
A888
100
AcDbEntity
  8
1
  6
Continuous
100
AcDbLine
 10
350.841838
 20
169.548829
 30
0.0
 11
350.7358589999999
 21
169.713503
 31
0.0
  0
LINE
  5
AA54
330
A888
100
AcDbEntity
  8
1
  6
Continuous
100
AcDbLine
 10
350.7358589999999
 20
169.713503
 30
0.0
 11
350.6555599999999
 21
169.896429
 31
0.0
  0
LINE
  5
AA55
330
A888
100
AcDbEntity
  8
1
  6
Continuous
100
AcDbLine
 10
350.6555599999999
 20
169.896429
 30
0.0
 11
350.603251
 21
170.092353
 31
0.0
  0
LINE
  5
AA56
330
A888
100
AcDbEntity
  8
1
  6
Continuous
100
AcDbLine
 10
350.603251
 20
170.092353
 30
0.0
 11
350.580425
 21
170.295613
 31
0.0
  0
LINE
  5
AA57
330
A888
100
AcDbEntity
  8
1
  6
Continuous
100
AcDbLine
 10
350.580425
 20
170.295613
 30
0.0
 11
350.587762
 21
170.500369
 31
0.0
  0
LINE
  5
AA58
330
A888
100
AcDbEntity
  8
1
  6
Continuous
100
AcDbLine
 10
350.587762
 20
170.500369
 30
0.0
 11
350.6250350000001
 21
170.7007759999999
 31
0.0
  0
LINE
  5
AA59
330
A888
100
AcDbEntity
  8
1
  6
Continuous
100
AcDbLine
 10
350.6250350000001
 20
170.7007759999999
 30
0.0
 11
350.691204
 21
170.8910389999998
 31
0.0
  0
LINE
  5
AA5A
330
A888
100
AcDbEntity
  8
1
  6
Continuous
100
AcDbLine
 10
350.691204
 20
170.8910389999998
 30
0.0
 11
350.7843199999999
 21
171.0657219999999
 31
0.0
  0
LINE
  5
AA5B
330
A888
100
AcDbEntity
  8
1
  6
Continuous
100
AcDbLine
 10
350.7843199999999
 20
171.0657219999999
 30
0.0
 11
350.9017109999998
 21
171.219798
 31
0.0
  0
LINE
  5
AA5C
330
A888
100
AcDbEntity
  8
1
  6
Continuous
100
AcDbLine
 10
350.9017109999998
 20
171.219798
 30
0.0
 11
351.040071
 21
171.348874
 31
0.0
  0
LINE
  5
AA5D
330
A888
100
AcDbEntity
  8
1
  6
Continuous
100
AcDbLine
 10
351.040071
 20
171.348874
 30
0.0
 11
351.19537
 21
171.4491909999999
 31
0.0
  0
LINE
  5
AA5E
330
A888
100
AcDbEntity
  8
1
  6
Continuous
100
AcDbLine
 10
351.19537
 20
171.4491909999999
 30
0.0
 11
351.363124
 21
171.517851
 31
0.0
  0
LINE
  5
AA5F
330
A888
100
AcDbEntity
  8
1
  6
Continuous
100
AcDbLine
 10
351.363124
 20
171.517851
 30
0.0
 11
351.5385769999999
 21
171.55295
 31
0.0
  0
LINE
  5
AA60
330
A888
100
AcDbEntity
  8
1
  6
Continuous
100
AcDbLine
 10
351.5385769999999
 20
171.55295
 30
0.0
 11
351.716656
 21
171.553449
 31
0.0
  0
LINE
  5
AA61
330
A888
100
AcDbEntity
  8
1
  6
Continuous
100
AcDbLine
 10
351.716656
 20
171.553449
 30
0.0
 11
351.892245
 21
171.5193449999999
 31
0.0
  0
LINE
  5
AA62
330
A888
100
AcDbEntity
  8
1
  6
Continuous
100
AcDbLine
 10
351.892245
 20
171.5193449999999
 30
0.0
 11
352.060316
 21
171.451592
 31
0.0
  0
LINE
  5
AA63
330
A888
100
AcDbEntity
  8
1
  6
Continuous
100
AcDbLine
 10
352.060316
 20
171.451592
 30
0.0
 11
352.2160219999999
 21
171.352135
 31
0.0
  0
LINE
  5
AA64
330
A888
100
AcDbEntity
  8
1
  6
Continuous
100
AcDbLine
 10
352.2160219999999
 20
171.352135
 30
0.0
 11
352.3548809999998
 21
171.223874
 31
0.0
  0
LINE
  5
AA65
330
A888
100
AcDbEntity
  8
1
  6
Continuous
100
AcDbLine
 10
352.3548809999998
 20
171.223874
 30
0.0
 11
352.472952
 21
171.070432
 31
0.0
  0
LINE
  5
AA66
330
A888
100
AcDbEntity
  8
1
  6
Continuous
100
AcDbLine
 10
352.472952
 20
171.070432
 30
0.0
 11
352.566792
 21
170.896293
 31
0.0
  0
LINE
  5
AA67
330
A888
100
AcDbEntity
  8
1
  6
Continuous
100
AcDbLine
 10
352.566792
 20
170.896293
 30
0.0
 11
352.6337759999998
 21
170.706347
 31
0.0
  0
LINE
  5
AA68
330
A888
100
AcDbEntity
  8
1
  6
Continuous
100
AcDbLine
 10
352.6337759999998
 20
170.706347
 30
0.0
 11
352.6719100000001
 21
170.5061659999998
 31
0.0
  0
LINE
  5
AA69
330
A888
100
AcDbEntity
  8
1
  6
Continuous
100
AcDbLine
 10
352.6719100000001
 20
170.5061659999998
 30
0.0
 11
352.680108
 21
170.3014559999998
 31
0.0
  0
LINE
  5
AA6A
330
A888
100
AcDbEntity
  8
1
  6
Continuous
100
AcDbLine
 10
352.680108
 20
170.3014559999998
 30
0.0
 11
352.6581419999998
 21
170.098059
 31
0.0
  0
LINE
  5
AA6B
330
A888
100
AcDbEntity
  8
1
  6
Continuous
100
AcDbLine
 10
352.6581419999998
 20
170.098059
 30
0.0
 11
352.6066469999999
 21
169.9018629999999
 31
0.0
  0
LINE
  5
AA6C
330
A888
100
AcDbEntity
  8
1
  6
Continuous
100
AcDbLine
 10
352.6066469999999
 20
169.9018629999999
 30
0.0
 11
352.5271179999998
 21
169.7185299999999
 31
0.0
  0
LINE
  5
AA6D
330
A888
100
AcDbEntity
  8
1
  6
Continuous
100
AcDbLine
 10
352.5271179999998
 20
169.7185299999999
 30
0.0
 11
352.42182
 21
169.553222
 31
0.0
  0
LINE
  5
AA6E
330
A888
100
AcDbEntity
  8
1
  6
Continuous
100
AcDbLine
 10
352.42182
 20
169.553222
 30
0.0
 11
352.293785
 21
169.4107849999998
 31
0.0
  0
LINE
  5
AA6F
330
A888
100
AcDbEntity
  8
1
  6
Continuous
100
AcDbLine
 10
352.293785
 20
169.4107849999998
 30
0.0
 11
352.1466839999998
 21
169.295296
 31
0.0
  0
LINE
  5
AA70
330
A888
100
AcDbEntity
  8
1
  6
Continuous
100
AcDbLine
 10
352.1466839999998
 20
169.295296
 30
0.0
 11
351.984727
 21
169.210016
 31
0.0
  0
LINE
  5
AA71
330
A888
100
AcDbEntity
  8
1
  6
Continuous
100
AcDbLine
 10
351.984727
 20
169.210016
 30
0.0
 11
351.8126259999998
 21
169.1574789999999
 31
0.0
  0
LINE
  5
AA72
330
A888
100
AcDbEntity
  8
1
  6
Continuous
100
AcDbLine
 10
351.8126259999998
 20
169.1574789999999
 30
0.0
 11
351.630153
 21
169.139092
 31
0.0
  0
LINE
  5
AA73
330
A888
100
AcDbEntity
  8
1
  6
Continuous
100
AcDbLine
 10
363.801516
 20
166.1989839999999
 30
0.0
 11
363.8111529999998
 21
166.2703129999998
 31
0.0
  0
LINE
  5
AA74
330
A888
100
AcDbEntity
  8
1
  6
Continuous
100
AcDbLine
 10
363.8111529999998
 20
166.2703129999998
 30
0.0
 11
363.839871
 21
166.3395379999998
 31
0.0
  0
LINE
  5
AA75
330
A888
100
AcDbEntity
  8
1
  6
Continuous
100
AcDbLine
 10
363.839871
 20
166.3395379999998
 30
0.0
 11
363.8867379999999
 21
166.404458
 31
0.0
  0
LINE
  5
AA76
330
A888
100
AcDbEntity
  8
1
  6
Continuous
100
AcDbLine
 10
363.8867379999999
 20
166.404458
 30
0.0
 11
363.950288
 21
166.4631159999998
 31
0.0
  0
LINE
  5
AA77
330
A888
100
AcDbEntity
  8
1
  6
Continuous
100
AcDbLine
 10
363.950288
 20
166.4631159999998
 30
0.0
 11
364.028711
 21
166.513799
 31
0.0
  0
LINE
  5
AA78
330
A888
100
AcDbEntity
  8
1
  6
Continuous
100
AcDbLine
 10
364.028711
 20
166.513799
 30
0.0
 11
364.11951
 21
166.5548939999998
 31
0.0
  0
LINE
  5
AA79
330
A888
100
AcDbEntity
  8
1
  6
Continuous
100
AcDbLine
 10
364.11951
 20
166.5548939999998
 30
0.0
 11
364.2199479999999
 21
166.585128
 31
0.0
  0
LINE
  5
AA7A
330
A888
100
AcDbEntity
  8
1
  6
Continuous
100
AcDbLine
 10
364.2199479999999
 20
166.585128
 30
0.0
 11
364.327039
 21
166.603669
 31
0.0
  0
LINE
  5
AA7B
330
A888
100
AcDbEntity
  8
1
  6
Continuous
100
AcDbLine
 10
364.327039
 20
166.603669
 30
0.0
 11
364.4375049999999
 21
166.6099309999999
 31
0.0
  0
LINE
  5
AA7C
330
A888
100
AcDbEntity
  8
1
  6
Continuous
100
AcDbLine
 10
364.4570739999999
 20
165.034635
 30
0.0
 11
364.343232
 21
165.0442729999998
 31
0.0
  0
LINE
  5
AA7D
330
A888
100
AcDbEntity
  8
1
  6
Continuous
100
AcDbLine
 10
364.343232
 20
165.0442729999998
 30
0.0
 11
364.232863
 21
165.0729899999998
 31
0.0
  0
LINE
  5
AA7E
330
A888
100
AcDbEntity
  8
1
  6
Continuous
100
AcDbLine
 10
364.232863
 20
165.0729899999998
 30
0.0
 11
364.129295
 21
165.1198579999999
 31
0.0
  0
LINE
  5
AA7F
330
A888
100
AcDbEntity
  8
1
  6
Continuous
100
AcDbLine
 10
364.129295
 20
165.1198579999999
 30
0.0
 11
364.035707
 21
165.1834079999999
 31
0.0
  0
LINE
  5
AA80
330
A888
100
AcDbEntity
  8
1
  6
Continuous
100
AcDbLine
 10
364.035707
 20
165.1834079999999
 30
0.0
 11
363.954887
 21
165.26183
 31
0.0
  0
LINE
  5
AA81
330
A888
100
AcDbEntity
  8
1
  6
Continuous
100
AcDbLine
 10
363.954887
 20
165.26183
 30
0.0
 11
363.889331
 21
165.35263
 31
0.0
  0
LINE
  5
AA82
330
A888
100
AcDbEntity
  8
1
  6
Continuous
100
AcDbLine
 10
363.889331
 20
165.35263
 30
0.0
 11
363.841045
 21
165.4531159999999
 31
0.0
  0
LINE
  5
AA83
330
A888
100
AcDbEntity
  8
1
  6
Continuous
100
AcDbLine
 10
363.841045
 20
165.4531159999999
 30
0.0
 11
363.8114959999999
 21
165.560158
 31
0.0
  0
LINE
  5
AA84
330
A888
100
AcDbEntity
  8
1
  6
Continuous
100
AcDbLine
 10
363.8114959999999
 20
165.560158
 30
0.0
 11
363.801516
 21
165.670624
 31
0.0
  0
LINE
  5
AA85
330
A888
100
AcDbEntity
  8
1
  6
Continuous
100
AcDbLine
 10
364.436624
 20
166.6099309999999
 30
0.0
 11
364.555701
 21
166.5978959999999
 31
0.0
  0
LINE
  5
AA86
330
A888
100
AcDbEntity
  8
1
  6
Continuous
100
AcDbLine
 10
364.555701
 20
166.5978959999999
 30
0.0
 11
364.6711579999998
 21
166.5621339999999
 31
0.0
  0
LINE
  5
AA87
330
A888
100
AcDbEntity
  8
1
  6
Continuous
100
AcDbLine
 10
364.6711579999998
 20
166.5621339999999
 30
0.0
 11
364.77952
 21
166.50377
 31
0.0
  0
LINE
  5
AA88
330
A888
100
AcDbEntity
  8
1
  6
Continuous
100
AcDbLine
 10
364.77952
 20
166.50377
 30
0.0
 11
364.8774629999999
 21
166.4245159999999
 31
0.0
  0
LINE
  5
AA89
330
A888
100
AcDbEntity
  8
1
  6
Continuous
100
AcDbLine
 10
364.8774629999999
 20
166.4245159999999
 30
0.0
 11
364.9619509999998
 21
166.326818
 31
0.0
  0
LINE
  5
AA8A
330
A888
100
AcDbEntity
  8
1
  6
Continuous
100
AcDbLine
 10
364.9619509999998
 20
166.326818
 30
0.0
 11
365.0305399999999
 21
166.213661
 31
0.0
  0
LINE
  5
AA8B
330
A888
100
AcDbEntity
  8
1
  6
Continuous
100
AcDbLine
 10
365.0305399999999
 20
166.213661
 30
0.0
 11
365.081077
 21
166.088469
 31
0.0
  0
LINE
  5
AA8C
330
A888
100
AcDbEntity
  8
1
  6
Continuous
100
AcDbLine
 10
365.081077
 20
166.088469
 30
0.0
 11
365.1119959999999
 21
165.9550089999999
 31
0.0
  0
LINE
  5
AA8D
330
A888
100
AcDbEntity
  8
1
  6
Continuous
100
AcDbLine
 10
365.1119959999999
 20
165.9550089999999
 30
0.0
 11
365.1224159999999
 21
165.8173909999999
 31
0.0
  0
LINE
  5
AA8E
330
A888
100
AcDbEntity
  8
1
  6
Continuous
100
AcDbLine
 10
365.1224159999999
 20
165.8173909999999
 30
0.0
 11
365.1122889999999
 21
165.681485
 31
0.0
  0
LINE
  5
AA8F
330
A888
100
AcDbEntity
  8
1
  6
Continuous
100
AcDbLine
 10
365.1122889999999
 20
165.681485
 30
0.0
 11
365.0822999999999
 21
165.5496879999998
 31
0.0
  0
LINE
  5
AA90
330
A888
100
AcDbEntity
  8
1
  6
Continuous
100
AcDbLine
 10
365.0822999999999
 20
165.5496879999998
 30
0.0
 11
365.03328
 21
165.4260129999999
 31
0.0
  0
LINE
  5
AA91
330
A888
100
AcDbEntity
  8
1
  6
Continuous
100
AcDbLine
 10
365.03328
 20
165.4260129999999
 30
0.0
 11
364.9667459999998
 21
165.314275
 31
0.0
  0
LINE
  5
AA92
330
A888
100
AcDbEntity
  8
1
  6
Continuous
100
AcDbLine
 10
364.9667459999998
 20
165.314275
 30
0.0
 11
364.8847519999998
 21
165.217751
 31
0.0
  0
LINE
  5
AA93
330
A888
100
AcDbEntity
  8
1
  6
Continuous
100
AcDbLine
 10
364.8847519999998
 20
165.217751
 30
0.0
 11
364.7897449999998
 21
165.139524
 31
0.0
  0
LINE
  5
AA94
330
A888
100
AcDbEntity
  8
1
  6
Continuous
100
AcDbLine
 10
364.7897449999998
 20
165.139524
 30
0.0
 11
364.6846599999999
 21
165.0818449999999
 31
0.0
  0
LINE
  5
AA95
330
A888
100
AcDbEntity
  8
1
  6
Continuous
100
AcDbLine
 10
364.6846599999999
 20
165.0818449999999
 30
0.0
 11
364.5726279999998
 21
165.046523
 31
0.0
  0
LINE
  5
AA96
330
A888
100
AcDbEntity
  8
1
  6
Continuous
100
AcDbLine
 10
364.5726279999998
 20
165.046523
 30
0.0
 11
364.4570739999999
 21
165.034635
 31
0.0
  0
ARC
  5
AA97
330
A888
100
AcDbEntity
  8
1
  6
Continuous
100
AcDbCircle
 10
17.017104
 20
291.9174239999999
 30
0.0
 40
1.6
100
AcDbArc
 50
90.0
 51
180.0
  0
ARC
  5
AA98
330
A888
100
AcDbEntity
  8
1
  6
Continuous
100
AcDbCircle
 10
128.8171039999998
 20
291.9174239999999
 30
0.0
 40
1.6
100
AcDbArc
 50
0.0
 51
90.0
  0
ARC
  5
AA99
330
A888
100
AcDbEntity
  8
1
  6
Continuous
100
AcDbCircle
 10
17.017104
 20
47.40734699999999
 30
0.0
 40
1.6
100
AcDbArc
 50
180.0
 51
270.0
  0
ARC
  5
AA9A
330
A888
100
AcDbEntity
  8
1
  6
Continuous
100
AcDbCircle
 10
128.8171039999998
 20
47.40734699999999
 30
0.0
 40
1.6
100
AcDbArc
 50
270.0
 51
0.0
  0
LINE
  5
AA9B
330
A888
100
AcDbEntity
  8
4
  6
CENTER
100
AcDbLine
 10
216.945158
 20
170.289454
 30
0.0
 11
248.9451579999999
 21
170.289454
 31
0.0
  0
LINE
  5
AA9C
330
A888
100
AcDbEntity
  8
1
  6
Continuous
100
AcDbLine
 10
411.6501529999998
 20
141.289454
 30
0.0
 11
411.6501529999998
 21
139.289454
 31
0.0
  0
LINE
  5
AA9D
330
A888
100
AcDbEntity
  8
1
  6
Continuous
100
AcDbLine
 10
291.650153
 20
141.289454
 30
0.0
 11
291.650153
 21
139.289454
 31
0.0
  0
LINE
  5
AA9E
330
A888
100
AcDbEntity
  8
1
  6
Continuous
100
AcDbLine
 10
132.917104
 20
199.289454
 30
0.0
 11
134.7671039999999
 21
199.289454
 31
0.0
  0
LINE
  5
AA9F
330
A888
100
AcDbEntity
  8
1
  6
Continuous
100
AcDbLine
 10
132.917104
 20
141.289454
 30
0.0
 11
134.7671039999999
 21
141.289454
 31
0.0
  0
ENDSEC
  0
SECTION
  2
OBJECTS
  0
DICTIONARY
  5
A876
330
0
100
AcDbDictionary
281
     1
  3
ACAD_CIP_PREVIOUS_PRODUCT_INFO
350
AB09
  3
ACAD_COLOR
350
AAEB
  3
ACAD_DETAILVIEWSTYLE
350
AB04
  3
ACAD_GROUP
350
A877
  3
ACAD_LAYOUT
350
A883
  3
ACAD_MATERIAL
350
AAB9
  3
ACAD_MLEADERSTYLE
350
AB00
  3
ACAD_MLINESTYLE
350
A880
  3
ACAD_PLOTSETTINGS
350
A882
  3
ACAD_PLOTSTYLENAME
350
AAB7
  3
ACAD_SCALELIST
350
AAEE
  3
ACAD_SECTIONVIEWSTYLE
350
AB02
  3
ACAD_TABLESTYLE
350
AAEC
  3
ACAD_VISUALSTYLE
350
AAD2
  3
ACDB_RECOMPOSE_DATA
350
AB27
  3
AcDbVariableDictionary
350
AB1A
  3
DWGPROPS
350
AB28
  0
DICTIONARY
  5
AB0A
330
A87A
100
AcDbDictionary
280
     1
281
     1
  3
ADSK_XREC_LAYER_RECONCILED
360
AB0B
  0
DICTIONARY
  5
AB0C
330
A890
100
AcDbDictionary
280
     1
281
     1
  3
ADSK_XREC_LAYER_RECONCILED
360
AB0D
  0
DICTIONARY
  5
AB0E
330
A891
100
AcDbDictionary
280
     1
281
     1
  3
ADSK_XREC_LAYER_RECONCILED
360
AB0F
  0
DICTIONARY
  5
AB10
330
A892
100
AcDbDictionary
280
     1
281
     1
  3
ADSK_XREC_LAYER_RECONCILED
360
AB11
  0
DICTIONARY
  5
AB12
330
A893
100
AcDbDictionary
280
     1
281
     1
  3
ADSK_XREC_LAYER_RECONCILED
360
AB13
  0
DICTIONARY
  5
AB14
330
A894
100
AcDbDictionary
280
     1
281
     1
  3
ADSK_XREC_LAYER_RECONCILED
360
AB15
  0
DICTIONARY
  5
AB16
330
A895
100
AcDbDictionary
280
     1
281
     1
  3
ADSK_XREC_LAYER_RECONCILED
360
AB17
  0
DICTIONARY
  5
AB18
330
A896
100
AcDbDictionary
280
     1
281
     1
  3
ADSK_XREC_LAYER_RECONCILED
360
AB19
  0
DICTIONARY
  5
AAB2
330
A888
100
AcDbDictionary
281
     1
  3
ACAD_LAYOUTSELFREF
350
AAB3
  0
DICTIONARY
  5
AAB0
330
A884
100
AcDbDictionary
281
     1
  3
ACAD_LAYOUTSELFREF
350
AAB1
  0
XRECORD
  5
AB09
102
{ACAD_REACTORS
330
A876
102
}
330
A876
100
AcDbXrecord
280
     1
300
ACDLT
300
2014
300
ACDLT_F_S
  0
DICTIONARY
  5
AAEB
102
{ACAD_REACTORS
330
A876
102
}
330
A876
100
AcDbDictionary
281
     1
  0
DICTIONARY
  5
AB04
102
{ACAD_REACTORS
330
A876
102
}
330
A876
100
AcDbDictionary
281
     1
  3
Imperial24
350
AB05
  0
DICTIONARY
  5
A877
102
{ACAD_REACTORS
330
A876
102
}
330
A876
100
AcDbDictionary
281
     1
  0
DICTIONARY
  5
A883
102
{ACAD_REACTORS
330
A876
102
}
330
A876
100
AcDbDictionary
281
     1
  3
Model
350
AB06
  3
レイアウト1
350
AB07
  0
DICTIONARY
  5
AAB9
102
{ACAD_REACTORS
330
A876
102
}
330
A876
100
AcDbDictionary
281
     1
  3
ByBlock
350
AAC2
  3
ByLayer
350
AABA
  3
Global
350
AACA
  0
DICTIONARY
  5
AB00
102
{ACAD_REACTORS
330
A876
102
}
330
A876
100
AcDbDictionary
281
     1
  3
Standard
350
AB01
  0
DICTIONARY
  5
A880
102
{ACAD_REACTORS
330
A876
102
}
330
A876
100
AcDbDictionary
281
     1
  3
STANDARD
350
A881
  0
DICTIONARY
  5
A882
102
{ACAD_REACTORS
330
A876
102
}
330
A876
100
AcDbDictionary
281
     1
  0
ACDBDICTIONARYWDFLT
  5
AAB7
102
{ACAD_REACTORS
330
A876
102
}
330
A876
100
AcDbDictionary
281
     1
  3
Normal
350
AAB8
100
AcDbDictionaryWithDefault
340
AAB8
  0
DICTIONARY
  5
AAEE
102
{ACAD_REACTORS
330
A876
102
}
330
A876
100
AcDbDictionary
281
     1
  3
A0
350
AAEF
  3
A1
350
AAF0
  3
A2
350
AAF1
  3
A3
350
AAF2
  3
A4
350
AAF3
  3
A5
350
AAF4
  3
A6
350
AAF5
  3
A7
350
AAF6
  3
A8
350
AAF7
  3
A9
350
AAF8
  3
B0
350
AAF9
  3
B1
350
AAFA
  3
B2
350
AAFB
  3
B3
350
AAFC
  3
B4
350
AAFD
  3
B5
350
AAFE
  3
B6
350
AAFF
  0
DICTIONARY
  5
AB02
102
{ACAD_REACTORS
330
A876
102
}
330
A876
100
AcDbDictionary
281
     1
  3
Imperial24
350
AB03
  0
DICTIONARY
  5
AAEC
102
{ACAD_REACTORS
330
A876
102
}
330
A876
100
AcDbDictionary
281
     1
  3
Standard
350
AAED
  0
DICTIONARY
  5
AAD2
102
{ACAD_REACTORS
330
A876
102
}
330
A876
100
AcDbDictionary
281
     1
  3
2dWireframe
350
AAD8
  3
Basic
350
AAD7
  3
Brighten
350
AADE
  3
ColorChange
350
AAE2
  3
Conceptual
350
AADB
  3
Dim
350
AADD
  3
EdgeColorOff
350
AAEA
  3
Facepattern
350
AAE1
  3
Flat
350
AAD3
  3
FlatWithEdges
350
AAD4
  3
Gouraud
350
AAD5
  3
GouraudWithEdges
350
AAD6
  3
Hidden
350
AADA
  3
JitterOff
350
AAE8
  3
Linepattern
350
AAE0
  3
OverhangOff
350
AAE9
  3
Realistic
350
AADC
  3
Shaded
350
AAE7
  3
Shaded with edges
350
AAE6
  3
Shades of Gray
350
AAE3
  3
Sketchy
350
AAE4
  3
Thicken
350
AADF
  3
Wireframe
350
AAD9
  3
X-Ray
350
AAE5
  0
XRECORD
  5
AB27
102
{ACAD_REACTORS
330
A876
102
}
330
A876
100
AcDbXrecord
280
     1
 90
        1
330
AAED
  0
DICTIONARY
  5
AB1A
102
{ACAD_REACTORS
330
A876
102
}
330
A876
100
AcDbDictionary
281
     1
  3
CANNOSCALE
350
AB1F
  3
CMLEADERSTYLE
350
AB1C
  3
CTABLESTYLE
350
AB1B
  3
CVIEWDETAILSTYLE
350
AB1D
  3
CVIEWSECTIONSTYLE
350
AB1E
  3
DIMASSOC
350
AB22
  3
INDEXCTL
350
AB21
  3
SORTENTS
350
AB20
  3
XCLIPFRAME
350
AB23
  0
XRECORD
  5
AB28
102
{ACAD_REACTORS
330
A876
102
}
330
A876
100
AcDbXrecord
280
     1
  1
DWGPROPS COOKIE
  2

  3

  4

  6

  7

  8
Yoshitsune
  9

300
=
301
=
302
=
303
=
304
=
305
=
306
=
307
=
308
=
309
=
 40
0.0003107060185185
 41
2450737.682945023
 42
2457192.638457303
  1

 90
        0
  0
XRECORD
  5
AB0B
102
{ACAD_REACTORS
330
AB0A
102
}
330
AB0A
100
AcDbXrecord
280
     1
290
     1
  0
XRECORD
  5
AB0D
102
{ACAD_REACTORS
330
AB0C
102
}
330
AB0C
100
AcDbXrecord
280
     1
290
     1
  0
XRECORD
  5
AB0F
102
{ACAD_REACTORS
330
AB0E
102
}
330
AB0E
100
AcDbXrecord
280
     1
290
     1
  0
XRECORD
  5
AB11
102
{ACAD_REACTORS
330
AB10
102
}
330
AB10
100
AcDbXrecord
280
     1
290
     1
  0
XRECORD
  5
AB13
102
{ACAD_REACTORS
330
AB12
102
}
330
AB12
100
AcDbXrecord
280
     1
290
     1
  0
XRECORD
  5
AB15
102
{ACAD_REACTORS
330
AB14
102
}
330
AB14
100
AcDbXrecord
280
     1
290
     1
  0
XRECORD
  5
AB17
102
{ACAD_REACTORS
330
AB16
102
}
330
AB16
100
AcDbXrecord
280
     1
290
     1
  0
XRECORD
  5
AB19
102
{ACAD_REACTORS
330
AB18
102
}
330
AB18
100
AcDbXrecord
280
     1
290
     1
  0
XRECORD
  5
AAB3
102
{ACAD_REACTORS
330
AAB2
102
}
330
AAB2
100
AcDbXrecord
280
     1
340
A888
  0
XRECORD
  5
AAB1
102
{ACAD_REACTORS
330
AAB0
102
}
330
AAB0
100
AcDbXrecord
280
     1
340
A884
  0
ACDBDETAILVIEWSTYLE
  5
AB05
102
{ACAD_XDICTIONARY
360
AB60
102
}
102
{ACAD_REACTORS
330
AB04
102
}
330
AB04
100
AcDbModelDocViewStyle
 70
     0
  3
Imperial24
290
     0
100
AcDbDetailViewStyle
 70
     0
 71
     0
 90
        3
 71
     1
340
A87B
 40
0.24
340
0
 40
0.24
300

 40
0.36
280
     3
 71
     2
340
A87F
 90
       25
 71
     3
340
A87B
 40
0.24
 90
        1
 40
0.75
 90
        1
300
%<\AcVar ViewType \f "%tc1">% %<\AcVar ViewDetailId>%\PSCALE %<\AcVar ViewScale \f "%sn">%
 71
     4
340
A87F
 90
       25
340
A87F
 90
       25
280
     0
  0
LAYOUT
  5
AB06
102
{ACAD_XDICTIONARY
360
AB62
102
}
102
{ACAD_REACTORS
330
A883
102
}
330
A883
100
AcDbPlotSettings
  1

  2
Canon LBP9100C
  4

  6

 40
0.0
 41
0.0
 42
0.0
 43
0.0
 44
0.0
 45
0.0
 46
0.0
 47
0.0
 48
0.0
 49
0.0
140
0.0
141
0.0
142
1.0
143
1.0
 70
  1712
 72
     0
 73
     0
 74
     0
  7

 75
     0
147
1.0
148
0.0
149
0.0
100
AcDbLayout
  1
Model
 70
     1
 71
     0
 10
0.0
 20
0.0
 11
12.0
 21
9.0
 12
0.0
 22
0.0
 32
0.0
 14
0.0
 24
0.0
 34
0.0
 15
0.0
 25
0.0
 35
0.0
146
0.0
 13
0.0
 23
0.0
 33
0.0
 16
1.0
 26
0.0
 36
0.0
 17
0.0
 27
1.0
 37
0.0
 76
     0
330
A888
331
AAAF
  0
LAYOUT
  5
AB07
102
{ACAD_XDICTIONARY
360
AB64
102
}
102
{ACAD_REACTORS
330
A883
102
}
330
A883
100
AcDbPlotSettings
  1

  2
Canon LBP9100C
  4

  6

 40
0.0
 41
0.0
 42
0.0
 43
0.0
 44
0.0
 45
0.0
 46
0.0
 47
0.0
 48
0.0
 49
0.0
140
0.0
141
0.0
142
1.0
143
1.0
 70
   688
 72
     0
 73
     0
 74
     5
  7

 75
    16
147
1.0
148
0.0
149
0.0
100
AcDbLayout
  1
レイアウト1
 70
     0
 71
     1
 10
0.0
 20
0.0
 11
420.0
 21
297.0
 12
0.0
 22
0.0
 32
0.0
 14
1.000000000000000E+20
 24
1.000000000000000E+20
 34
1.000000000000000E+20
 15
-1.000000000000000E+20
 25
-1.000000000000000E+20
 35
-1.000000000000000E+20
146
0.0
 13
0.0
 23
0.0
 33
0.0
 16
1.0
 26
0.0
 36
0.0
 17
0.0
 27
1.0
 37
0.0
 76
     0
330
A884
  0
MATERIAL
  5
AAC2
102
{ACAD_XDICTIONARY
360
AAC3
102
}
102
{ACAD_REACTORS
330
AAB9
102
}
330
AAB9
100
AcDbMaterial
  1
ByBlock
 72
     0
 43
0.0208333333333333
 43
0.0
 43
0.0
 43
0.0
 43
0.0
 43
0.0208333333333333
 43
0.0
 43
0.0
 43
0.0
 43
0.0
 43
1.0
 43
0.0
 43
0.0
 43
0.0
 43
0.0
 43
1.0
 77
     0
 47
0.0208333333333333
 47
0.0
 47
0.0
 47
0.0
 47
0.0
 47
0.0208333333333333
 47
0.0
 47
0.0
 47
0.0
 47
0.0
 47
1.0
 47
0.0
 47
0.0
 47
0.0
 47
0.0
 47
1.0
171
     0
 49
0.0208333333333333
 49
0.0
 49
0.0
 49
0.0
 49
0.0
 49
0.0208333333333333
 49
0.0
 49
0.0
 49
0.0
 49
0.0
 49
1.0
 49
0.0
 49
0.0
 49
0.0
 49
0.0
 49
1.0
175
     0
142
0.0208333333333333
142
0.0
142
0.0
142
0.0
142
0.0
142
0.0208333333333333
142
0.0
142
0.0
142
0.0
142
0.0
142
1.0
142
0.0
142
0.0
142
0.0
142
0.0
142
1.0
179
     0
144
0.0208333333333333
144
0.0
144
0.0
144
0.0
144
0.0
144
0.0208333333333333
144
0.0
144
0.0
144
0.0
144
0.0
144
1.0
144
0.0
144
0.0
144
0.0
144
0.0
144
1.0
147
0.0208333333333333
147
0.0
147
0.0
147
0.0
147
0.0
147
0.0208333333333333
147
0.0
147
0.0
147
0.0
147
0.0
147
1.0
147
0.0
147
0.0
147
0.0
147
0.0
147
1.0
  0
MATERIAL
  5
AABA
102
{ACAD_XDICTIONARY
360
AABB
102
}
102
{ACAD_REACTORS
330
AAB9
102
}
330
AAB9
100
AcDbMaterial
  1
ByLayer
 72
     0
 43
0.0208333333333333
 43
0.0
 43
0.0
 43
0.0
 43
0.0
 43
0.0208333333333333
 43
0.0
 43
0.0
 43
0.0
 43
0.0
 43
1.0
 43
0.0
 43
0.0
 43
0.0
 43
0.0
 43
1.0
 77
     0
 47
0.0208333333333333
 47
0.0
 47
0.0
 47
0.0
 47
0.0
 47
0.0208333333333333
 47
0.0
 47
0.0
 47
0.0
 47
0.0
 47
1.0
 47
0.0
 47
0.0
 47
0.0
 47
0.0
 47
1.0
171
     0
 49
0.0208333333333333
 49
0.0
 49
0.0
 49
0.0
 49
0.0
 49
0.0208333333333333
 49
0.0
 49
0.0
 49
0.0
 49
0.0
 49
1.0
 49
0.0
 49
0.0
 49
0.0
 49
0.0
 49
1.0
175
     0
142
0.0208333333333333
142
0.0
142
0.0
142
0.0
142
0.0
142
0.0208333333333333
142
0.0
142
0.0
142
0.0
142
0.0
142
1.0
142
0.0
142
0.0
142
0.0
142
0.0
142
1.0
179
     0
144
0.0208333333333333
144
0.0
144
0.0
144
0.0
144
0.0
144
0.0208333333333333
144
0.0
144
0.0
144
0.0
144
0.0
144
1.0
144
0.0
144
0.0
144
0.0
144
0.0
144
1.0
147
0.0208333333333333
147
0.0
147
0.0
147
0.0
147
0.0
147
0.0208333333333333
147
0.0
147
0.0
147
0.0
147
0.0
147
1.0
147
0.0
147
0.0
147
0.0
147
0.0
147
1.0
  0
MATERIAL
  5
AACA
102
{ACAD_XDICTIONARY
360
AACB
102
}
102
{ACAD_REACTORS
330
AAB9
102
}
330
AAB9
100
AcDbMaterial
  1
Global
 72
     0
 43
0.0208333333333333
 43
0.0
 43
0.0
 43
0.0
 43
0.0
 43
0.0208333333333333
 43
0.0
 43
0.0
 43
0.0
 43
0.0
 43
1.0
 43
0.0
 43
0.0
 43
0.0
 43
0.0
 43
1.0
 77
     0
 47
0.0208333333333333
 47
0.0
 47
0.0
 47
0.0
 47
0.0
 47
0.0208333333333333
 47
0.0
 47
0.0
 47
0.0
 47
0.0
 47
1.0
 47
0.0
 47
0.0
 47
0.0
 47
0.0
 47
1.0
171
     0
 49
0.0208333333333333
 49
0.0
 49
0.0
 49
0.0
 49
0.0
 49
0.0208333333333333
 49
0.0
 49
0.0
 49
0.0
 49
0.0
 49
1.0
 49
0.0
 49
0.0
 49
0.0
 49
0.0
 49
1.0
175
     0
142
0.0208333333333333
142
0.0
142
0.0
142
0.0
142
0.0
142
0.0208333333333333
142
0.0
142
0.0
142
0.0
142
0.0
142
1.0
142
0.0
142
0.0
142
0.0
142
0.0
142
1.0
179
     0
144
0.0208333333333333
144
0.0
144
0.0
144
0.0
144
0.0
144
0.0208333333333333
144
0.0
144
0.0
144
0.0
144
0.0
144
1.0
144
0.0
144
0.0
144
0.0
144
0.0
144
1.0
147
0.0208333333333333
147
0.0
147
0.0
147
0.0
147
0.0
147
0.0208333333333333
147
0.0
147
0.0
147
0.0
147
0.0
147
1.0
147
0.0
147
0.0
147
0.0
147
0.0
147
1.0
  0
MLEADERSTYLE
  5
AB01
102
{ACAD_REACTORS
330
AB00
102
}
330
AB00
100
AcDbMLeaderStyle
170
     2
171
     1
172
     0
 90
        2
 40
0.0
 41
0.0
173
     1
 91
-1056964608
340
A87D
 92
       -2
290
     1
 42
0.09
291
     1
 43
0.36
  3
Standard
 44
0.18
300

342
A87B
174
     1
178
     6
175
     1
176
     0
 93
-1056964608
 45
0.18
292
     0
297
     0
 46
0.18
 94
-1056964608
 47
1.0
 49
1.0
140
1.0
293
     1
141
0.0
294
     1
177
     0
142
1.0
295
     0
296
     0
143
0.125
1001
ACAD_MLEADERVER
1070
     2
  0
MLINESTYLE
  5
A881
102
{ACAD_REACTORS
330
A880
102
}
330
A880
100
AcDbMlineStyle
  2
STANDARD
 70
     0
  3

 62
   256
 51
90.0
 52
90.0
 71
     2
 49
0.5
 62
   256
  6
BYLAYER
 49
-0.5
 62
   256
  6
BYLAYER
  0
ACDBPLACEHOLDER
  5
AAB8
102
{ACAD_REACTORS
330
AAB7
102
}
330
AAB7
  0
SCALE
  5
AAEF
102
{ACAD_REACTORS
330
AAEE
102
}
330
AAEE
100
AcDbScale
 70
     0
300
1:1
140
1.0
141
1.0
290
     1
  0
SCALE
  5
AAF0
102
{ACAD_REACTORS
330
AAEE
102
}
330
AAEE
100
AcDbScale
 70
     0
300
1/128" = 1'-0"
140
0.0078125
141
12.0
290
     0
  0
SCALE
  5
AAF1
102
{ACAD_REACTORS
330
AAEE
102
}
330
AAEE
100
AcDbScale
 70
     0
300
1/64" = 1'-0"
140
0.015625
141
12.0
290
     0
  0
SCALE
  5
AAF2
102
{ACAD_REACTORS
330
AAEE
102
}
330
AAEE
100
AcDbScale
 70
     0
300
1/32" = 1'-0"
140
0.03125
141
12.0
290
     0
  0
SCALE
  5
AAF3
102
{ACAD_REACTORS
330
AAEE
102
}
330
AAEE
100
AcDbScale
 70
     0
300
1/16" = 1'-0"
140
0.0625
141
12.0
290
     0
  0
SCALE
  5
AAF4
102
{ACAD_REACTORS
330
AAEE
102
}
330
AAEE
100
AcDbScale
 70
     0
300
3/32" = 1'-0"
140
0.09375
141
12.0
290
     0
  0
SCALE
  5
AAF5
102
{ACAD_REACTORS
330
AAEE
102
}
330
AAEE
100
AcDbScale
 70
     0
300
1/8" = 1'-0"
140
0.125
141
12.0
290
     0
  0
SCALE
  5
AAF6
102
{ACAD_REACTORS
330
AAEE
102
}
330
AAEE
100
AcDbScale
 70
     0
300
3/16" = 1'-0"
140
0.1875
141
12.0
290
     0
  0
SCALE
  5
AAF7
102
{ACAD_REACTORS
330
AAEE
102
}
330
AAEE
100
AcDbScale
 70
     0
300
1/4" = 1'-0"
140
0.25
141
12.0
290
     0
  0
SCALE
  5
AAF8
102
{ACAD_REACTORS
330
AAEE
102
}
330
AAEE
100
AcDbScale
 70
     0
300
3/8" = 1'-0"
140
0.375
141
12.0
290
     0
  0
SCALE
  5
AAF9
102
{ACAD_REACTORS
330
AAEE
102
}
330
AAEE
100
AcDbScale
 70
     0
300
1/2" = 1'-0"
140
0.5
141
12.0
290
     0
  0
SCALE
  5
AAFA
102
{ACAD_REACTORS
330
AAEE
102
}
330
AAEE
100
AcDbScale
 70
     0
300
3/4" = 1'-0"
140
0.75
141
12.0
290
     0
  0
SCALE
  5
AAFB
102
{ACAD_REACTORS
330
AAEE
102
}
330
AAEE
100
AcDbScale
 70
     0
300
1" = 1'-0"
140
1.0
141
12.0
290
     0
  0
SCALE
  5
AAFC
102
{ACAD_REACTORS
330
AAEE
102
}
330
AAEE
100
AcDbScale
 70
     0
300
1-1/2" = 1'-0"
140
1.5
141
12.0
290
     0
  0
SCALE
  5
AAFD
102
{ACAD_REACTORS
330
AAEE
102
}
330
AAEE
100
AcDbScale
 70
     0
300
3" = 1'-0"
140
3.0
141
12.0
290
     0
  0
SCALE
  5
AAFE
102
{ACAD_REACTORS
330
AAEE
102
}
330
AAEE
100
AcDbScale
 70
     0
300
6" = 1'-0"
140
6.0
141
12.0
290
     0
  0
SCALE
  5
AAFF
102
{ACAD_REACTORS
330
AAEE
102
}
330
AAEE
100
AcDbScale
 70
     0
300
1'-0" = 1'-0"
140
12.0
141
12.0
290
     0
  0
ACDBSECTIONVIEWSTYLE
  5
AB03
102
{ACAD_XDICTIONARY
360
AB5E
102
}
102
{ACAD_REACTORS
330
AB02
102
}
330
AB02
100
AcDbModelDocViewStyle
 70
     0
  3
Imperial24
290
     0
100
AcDbSectionViewStyle
 70
     0
 71
     0
 90
       78
 71
     1
340
A87B
 40
0.24
340
0
340
0
 40
0.24
300
I, O, Q, S, X, Z
 40
0.48
 90
        3
 40
0.18
 90
        1
 71
     2
340
A87F
 90
       25
340
A87F
 90
       50
 40
0.24
 40
0.0
 40
0.24
 71
     3
340
A87B
 40
0.24
 90
        1
 40
0.75
 90
        1
300
%<\AcVar ViewType \f "%tc1">% %<\AcVar ViewSectionStartId>%-%<\AcVar ViewSectionEndId>%\PSCALE %<\AcVar ViewScale \f "%sn">%
 71
     4
300
ANSI31
 40
1.0
 90
        0
290
     0
290
     0
 90
        6
 40
0.0
 40
1.570796326794896
 40
0.2617993877991494
 40
1.308996938995747
 40
-0.2617993877991494
 40
1.832595714594046
  0
TABLESTYLE
  5
AAED
102
{ACAD_XDICTIONARY
360
AB25
102
}
102
{ACAD_REACTORS
330
AAEC
102
}
330
AAEC
100
AcDbTableStyle
  3
Standard
 70
     0
 71
     0
 40
0.06
 41
0.06
280
     0
281
     0
  7
STANDARD
140
0.18
170
     2
 62
     0
 63
     7
283
     0
274
    -2
284
     1
 64
     0
275
    -2
285
     1
 65
     0
276
    -2
286
     1
 66
     0
277
    -2
287
     1
 67
     0
278
    -2
288
     1
 68
     0
279
    -2
289
     1
 69
     0
  7
STANDARD
140
0.25
170
     5
 62
     0
 63
     7
283
     0
274
    -2
284
     1
 64
     0
275
    -2
285
     1
 65
     0
276
    -2
286
     1
 66
     0
277
    -2
287
     1
 67
     0
278
    -2
288
     1
 68
     0
279
    -2
289
     1
 69
     0
  7
STANDARD
140
0.18
170
     5
 62
     0
 63
     7
283
     0
274
    -2
284
     1
 64
     0
275
    -2
285
     1
 65
     0
276
    -2
286
     1
 66
     0
277
    -2
287
     1
 67
     0
278
    -2
288
     1
 68
     0
279
    -2
289
     1
 69
     0
  0
VISUALSTYLE
  5
AAD8
102
{ACAD_XDICTIONARY
360
AB36
102
}
102
{ACAD_REACTORS
330
AAD2
102
}
330
AAD2
100
AcDbVisualStyle
  2
2dWireframe
 70
     4
 71
     0
 72
     2
 73
     0
 90
        0
 40
-0.6
 41
-30.0
 62
     5
 63
     7
 74
     1
 91
        4
 64
     7
 65
   257
 75
     1
175
     1
 42
1.0
 92
        0
 66
   257
 43
1.0
 76
     1
 77
     6
 78
     2
 67
     7
 79
     5
170
     0
171
     0
290
     0
174
     0
 93
        1
 44
0.0
173
     0
291
     0
 45
0.0
1001
ACAD
1000
AcDbSavedByObjectVersion
1070
     0
  0
VISUALSTYLE
  5
AAD7
102
{ACAD_XDICTIONARY
360
AB34
102
}
102
{ACAD_REACTORS
330
AAD2
102
}
330
AAD2
100
AcDbVisualStyle
  2
Basic
 70
     7
 71
     1
 72
     0
 73
     1
 90
        0
 40
-0.6
 41
-30.0
 62
     5
 63
     7
 74
     0
 91
        4
 64
     7
 65
   257
 75
     1
175
     1
 42
1.0
 92
        8
 66
     7
 43
1.0
 76
     1
 77
     6
 78
     2
 67
     7
 79
     5
170
     0
171
     0
290
     0
174
     0
 93
        1
 44
0.0
173
     0
291
     1
 45
0.0
1001
ACAD
1000
AcDbSavedByObjectVersion
1070
     0
  0
VISUALSTYLE
  5
AADE
102
{ACAD_XDICTIONARY
360
AB42
102
}
102
{ACAD_REACTORS
330
AAD2
102
}
330
AAD2
100
AcDbVisualStyle
  2
Brighten
 70
    12
 71
     2
 72
     2
 73
     0
 90
        0
 40
-0.6
 41
-30.0
 62
     5
 63
     7
 74
     1
 91
        4
 64
     7
 65
   257
 75
     1
175
     1
 42
1.0
 92
        8
 66
     7
 43
1.0
 76
     1
 77
     6
 78
     2
 67
     7
 79
     5
170
     0
171
     0
290
     0
174
     0
 93
        1
 44
50.0
173
     0
291
     1
 45
0.0
1001
ACAD
1000
AcDbSavedByObjectVersion
1070
     0
  0
VISUALSTYLE
  5
AAE2
102
{ACAD_XDICTIONARY
360
AB4A
102
}
102
{ACAD_REACTORS
330
AAD2
102
}
330
AAD2
100
AcDbVisualStyle
  2
ColorChange
 70
    16
 71
     2
 72
     2
 73
     3
 90
        0
 40
-0.6
 41
-30.0
 62
     5
 63
     8
 74
     1
 91
        4
 64
     7
 65
   257
 75
     1
175
     1
 42
1.0
 92
        8
 66
     8
 43
1.0
 76
     1
 77
     6
 78
     2
 67
     7
 79
     5
170
     0
171
     0
290
     0
174
     0
 93
        1
 44
0.0
173
     0
291
     1
 45
0.0
1001
ACAD
1000
AcDbSavedByObjectVersion
1070
     0
  0
VISUALSTYLE
  5
AADB
102
{ACAD_XDICTIONARY
360
AB3C
102
}
102
{ACAD_REACTORS
330
AAD2
102
}
330
AAD2
100
AcDbVisualStyle
  2
Conceptual
 70
     9
 71
     3
 72
     2
 73
     0
 90
        0
 40
-0.6
 41
-30.0
 62
     5
 63
     7
 74
     2
 91
        2
 64
     7
 65
   257
 75
     1
175
     1
 42
179.0
 92
        8
 66
     7
 43
1.0
 76
     1
 77
     6
 78
     2
 67
     7
 79
     3
170
     0
171
     0
290
     0
174
     0
 93
        1
 44
0.0
173
     0
291
     0
 45
0.0
1001
ACAD
1000
AcDbSavedByObjectVersion
1070
     0
  0
VISUALSTYLE
  5
AADD
102
{ACAD_XDICTIONARY
360
AB40
102
}
102
{ACAD_REACTORS
330
AAD2
102
}
330
AAD2
100
AcDbVisualStyle
  2
Dim
 70
    11
 71
     2
 72
     2
 73
     0
 90
        0
 40
-0.6
 41
-30.0
 62
     5
 63
     7
 74
     1
 91
        4
 64
     7
 65
   257
 75
     1
175
     1
 42
1.0
 92
        8
 66
     7
 43
1.0
 76
     1
 77
     6
 78
     2
 67
     7
 79
     5
170
     0
171
     0
290
     0
174
     0
 93
        1
 44
-50.0
173
     0
291
     1
 45
0.0
1001
ACAD
1000
AcDbSavedByObjectVersion
1070
     0
  0
VISUALSTYLE
  5
AAEA
102
{ACAD_XDICTIONARY
360
AB5A
102
}
102
{ACAD_REACTORS
330
AAD2
102
}
330
AAD2
100
AcDbVisualStyle
  2
EdgeColorOff
 70
    22
 71
     2
 72
     2
 73
     0
 90
        0
 40
-0.6
 41
-30.0
 62
     5
 63
     7
 74
     1
 91
        4
 64
     7
 65
   257
 75
     1
175
     1
 42
1.0
 92
        8
 66
     7
 43
1.0
 76
     1
 77
     6
 78
     2
 67
     7
 79
     5
170
     0
171
     0
290
     0
174
     0
 93
        1
 44
0.0
173
     0
291
     1
 45
0.0
1001
ACAD
1000
AcDbSavedByObjectVersion
1070
     0
  0
VISUALSTYLE
  5
AAE1
102
{ACAD_XDICTIONARY
360
AB48
102
}
102
{ACAD_REACTORS
330
AAD2
102
}
330
AAD2
100
AcDbVisualStyle
  2
Facepattern
 70
    15
 71
     2
 72
     2
 73
     0
 90
        0
 40
-0.6
 41
-30.0
 62
     5
 63
     7
 74
     1
 91
        4
 64
     7
 65
   257
 75
     1
175
     1
 42
1.0
 92
        8
 66
     7
 43
1.0
 76
     1
 77
     6
 78
     2
 67
     7
 79
     5
170
     0
171
     0
290
     0
174
     0
 93
        1
 44
0.0
173
     0
291
     1
 45
0.0
1001
ACAD
1000
AcDbSavedByObjectVersion
1070
     0
  0
VISUALSTYLE
  5
AAD3
102
{ACAD_XDICTIONARY
360
AB2C
102
}
102
{ACAD_REACTORS
330
AAD2
102
}
330
AAD2
100
AcDbVisualStyle
  2
Flat
 70
     0
 71
     2
 72
     1
 73
     1
 90
        2
 40
-0.6
 41
30.0
 62
     5
 63
     7
 74
     0
 91
        0
 64
     7
 65
   257
 75
     1
175
     1
 42
1.0
 92
        8
 66
     7
 43
1.0
 76
     1
 77
     6
 78
     2
 67
     7
 79
     5
170
     0
171
     0
290
     0
174
     0
 93
       13
 44
0.0
173
     0
291
     1
 45
0.0
1001
ACAD
1000
AcDbSavedByObjectVersion
1070
     0
  0
VISUALSTYLE
  5
AAD4
102
{ACAD_XDICTIONARY
360
AB2E
102
}
102
{ACAD_REACTORS
330
AAD2
102
}
330
AAD2
100
AcDbVisualStyle
  2
FlatWithEdges
 70
     1
 71
     2
 72
     1
 73
     1
 90
        2
 40
-0.6
 41
30.0
 62
     5
 63
     7
 74
     1
 91
        0
 64
     7
 65
   257
 75
     1
175
     1
 42
1.0
 92
        0
 66
   257
 43
1.0
 76
     1
 77
     6
 78
     2
 67
     7
 79
     5
170
     0
171
     0
290
     0
174
     0
 93
       13
 44
0.0
173
     0
291
     1
 45
0.0
1001
ACAD
1000
AcDbSavedByObjectVersion
1070
     0
  0
VISUALSTYLE
  5
AAD5
102
{ACAD_XDICTIONARY
360
AB30
102
}
102
{ACAD_REACTORS
330
AAD2
102
}
330
AAD2
100
AcDbVisualStyle
  2
Gouraud
 70
     2
 71
     2
 72
     2
 73
     1
 90
        2
 40
-0.6
 41
30.0
 62
     5
 63
     7
 74
     0
 91
        0
 64
     7
 65
   257
 75
     1
175
     1
 42
1.0
 92
        0
 66
     7
 43
1.0
 76
     1
 77
     6
 78
     2
 67
     7
 79
     5
170
     0
171
     0
290
     0
174
     0
 93
       13
 44
0.0
173
     0
291
     1
 45
0.0
1001
ACAD
1000
AcDbSavedByObjectVersion
1070
     0
  0
VISUALSTYLE
  5
AAD6
102
{ACAD_XDICTIONARY
360
AB32
102
}
102
{ACAD_REACTORS
330
AAD2
102
}
330
AAD2
100
AcDbVisualStyle
  2
GouraudWithEdges
 70
     3
 71
     2
 72
     2
 73
     1
 90
        2
 40
-0.6
 41
30.0
 62
     5
 63
     7
 74
     1
 91
        0
 64
     7
 65
   257
 75
     1
175
     1
 42
1.0
 92
        0
 66
   257
 43
1.0
 76
     1
 77
     6
 78
     2
 67
     7
 79
     5
170
     0
171
     0
290
     0
174
     0
 93
       13
 44
0.0
173
     0
291
     1
 45
0.0
1001
ACAD
1000
AcDbSavedByObjectVersion
1070
     0
  0
VISUALSTYLE
  5
AADA
102
{ACAD_XDICTIONARY
360
AB3A
102
}
102
{ACAD_REACTORS
330
AAD2
102
}
330
AAD2
100
AcDbVisualStyle
  2
Hidden
 70
     6
 71
     1
 72
     2
 73
     2
 90
        0
 40
-0.6
 41
-30.0
 62
     5
 63
     7
 74
     2
 91
        2
 64
     7
 65
   257
 75
     2
175
     1
 42
40.0
 92
        0
 66
   257
 43
1.0
 76
     1
 77
     6
 78
     2
 67
     7
 79
     3
170
     0
171
     0
290
     0
174
     0
 93
        1
 44
0.0
173
     0
291
     0
 45
0.0
1001
ACAD
1000
AcDbSavedByObjectVersion
1070
     0
  0
VISUALSTYLE
  5
AAE8
102
{ACAD_XDICTIONARY
360
AB56
102
}
102
{ACAD_REACTORS
330
AAD2
102
}
330
AAD2
100
AcDbVisualStyle
  2
JitterOff
 70
    20
 71
     2
 72
     2
 73
     0
 90
        0
 40
-0.6
 41
-30.0
 62
     5
 63
     7
 74
     1
 91
        4
 64
     7
 65
   257
 75
     1
175
     1
 42
1.0
 92
       10
 66
     7
 43
1.0
 76
     1
 77
     6
 78
     2
 67
     7
 79
     5
170
     0
171
     0
290
     0
174
     0
 93
        1
 44
0.0
173
     0
291
     1
 45
0.0
1001
ACAD
1000
AcDbSavedByObjectVersion
1070
     0
  0
VISUALSTYLE
  5
AAE0
102
{ACAD_XDICTIONARY
360
AB46
102
}
102
{ACAD_REACTORS
330
AAD2
102
}
330
AAD2
100
AcDbVisualStyle
  2
Linepattern
 70
    14
 71
     2
 72
     2
 73
     0
 90
        0
 40
-0.6
 41
-30.0
 62
     5
 63
     7
 74
     1
 91
        4
 64
     7
 65
   257
 75
     7
175
     7
 42
1.0
 92
        8
 66
     7
 43
1.0
 76
     1
 77
     6
 78
     2
 67
     7
 79
     5
170
     0
171
     0
290
     0
174
     0
 93
        1
 44
0.0
173
     0
291
     1
 45
0.0
1001
ACAD
1000
AcDbSavedByObjectVersion
1070
     0
  0
VISUALSTYLE
  5
AAE9
102
{ACAD_XDICTIONARY
360
AB58
102
}
102
{ACAD_REACTORS
330
AAD2
102
}
330
AAD2
100
AcDbVisualStyle
  2
OverhangOff
 70
    21
 71
     2
 72
     2
 73
     0
 90
        0
 40
-0.6
 41
-30.0
 62
     5
 63
     7
 74
     1
 91
        4
 64
     7
 65
   257
 75
     1
175
     1
 42
1.0
 92
        9
 66
     7
 43
1.0
 76
     1
 77
     6
 78
     2
 67
     7
 79
     5
170
     0
171
     0
290
     0
174
     0
 93
        1
 44
0.0
173
     0
291
     1
 45
0.0
1001
ACAD
1000
AcDbSavedByObjectVersion
1070
     0
  0
VISUALSTYLE
  5
AADC
102
{ACAD_XDICTIONARY
360
AB3E
102
}
102
{ACAD_REACTORS
330
AAD2
102
}
330
AAD2
100
AcDbVisualStyle
  2
Realistic
 70
     8
 71
     2
 72
     3
 73
     0
 90
        2
 40
-0.6
 41
30.0
 62
     5
 63
     7
 74
     0
 91
        0
 64
     7
 65
   257
 75
     1
175
     1
 42
1.0
 92
        8
 66
   257
 43
1.0
 76
     1
 77
     6
 78
     2
 67
     7
 79
     3
170
     0
171
     0
290
     0
174
     0
 93
       13
 44
0.0
173
     0
291
     0
 45
0.0
1001
ACAD
1000
AcDbSavedByObjectVersion
1070
     0
  0
VISUALSTYLE
  5
AAE7
102
{ACAD_XDICTIONARY
360
AB54
102
}
102
{ACAD_REACTORS
330
AAD2
102
}
330
AAD2
100
AcDbVisualStyle
  2
Shaded
 70
    27
 71
     2
 72
     2
 73
     1
 90
        2
 40
-0.6
 41
30.0
 62
     5
 63
     7
 74
     0
 91
        4
 64
     7
 65
   257
 75
     1
175
     1
 42
1.0
 92
        8
 66
   257
 43
1.0
 76
     1
 77
     6
 78
     2
 67
     8
 79
     3
170
     0
171
     0
290
     0
174
     0
 93
        5
 44
0.0
173
     0
291
     0
 45
0.0
1001
ACAD
1000
AcDbSavedByObjectVersion
1070
     0
  0
VISUALSTYLE
  5
AAE6
102
{ACAD_XDICTIONARY
360
AB52
102
}
102
{ACAD_REACTORS
330
AAD2
102
}
330
AAD2
100
AcDbVisualStyle
  2
Shaded with edges
 70
    26
 71
     2
 72
     2
 73
     1
 90
        2
 40
-0.6
 41
30.0
 62
     5
 63
     7
 74
     1
 91
       10
 64
     7
 65
   257
 75
     2
175
     1
 42
1.0
 92
        8
 66
   257
 43
1.0
 76
     1
 77
     6
 78
     2
 67
     7
 79
     3
170
     0
171
     0
290
     0
174
     0
 93
        5
 44
0.0
173
     0
291
     0
 45
0.0
1001
ACAD
1000
AcDbSavedByObjectVersion
1070
     0
  0
VISUALSTYLE
  5
AAE3
102
{ACAD_XDICTIONARY
360
AB4C
102
}
102
{ACAD_REACTORS
330
AAD2
102
}
330
AAD2
100
AcDbVisualStyle
  2
Shades of Gray
 70
    23
 71
     2
 72
     2
 73
     3
 90
        0
 40
-0.6
 41
-30.0
 62
     5
 63
     7
 74
     2
 91
        2
 64
     7
 65
     7
 75
     1
175
     1
 42
40.0
 92
        8
 66
     7
 43
1.0
 76
     1
 77
     6
 78
     2
 67
     7
 79
     3
170
     0
171
     0
290
     0
174
     0
 93
        1
 44
0.0
173
     0
291
     0
 45
0.0
1001
ACAD
1000
AcDbSavedByObjectVersion
1070
     0
  0
VISUALSTYLE
  5
AAE4
102
{ACAD_XDICTIONARY
360
AB4E
102
}
102
{ACAD_REACTORS
330
AAD2
102
}
330
AAD2
100
AcDbVisualStyle
  2
Sketchy
 70
    24
 71
     1
 72
     2
 73
     2
 90
        0
 40
-0.6
 41
-30.0
 62
     5
 63
     7
 74
     2
 91
        2
 64
     7
 65
     7
 75
     1
175
     1
 42
40.0
 92
       11
 66
     7
 43
1.0
 76
     1
 77
     6
 78
     2
 67
     7
 79
     6
170
     0
171
     0
290
     0
174
     0
 93
        1
 44
0.0
173
     0
291
     0
 45
0.0
1001
ACAD
1000
AcDbSavedByObjectVersion
1070
     0
  0
VISUALSTYLE
  5
AADF
102
{ACAD_XDICTIONARY
360
AB44
102
}
102
{ACAD_REACTORS
330
AAD2
102
}
330
AAD2
100
AcDbVisualStyle
  2
Thicken
 70
    13
 71
     2
 72
     2
 73
     0
 90
        0
 40
-0.6
 41
-30.0
 62
     5
 63
     7
 74
     1
 91
        4
 64
     7
 65
   257
 75
     1
175
     1
 42
1.0
 92
       12
 66
     7
 43
1.0
 76
     1
 77
     6
 78
     2
 67
     7
 79
     5
170
     0
171
     0
290
     0
174
     0
 93
        1
 44
0.0
173
     0
291
     1
 45
0.0
1001
ACAD
1000
AcDbSavedByObjectVersion
1070
     0
  0
VISUALSTYLE
  5
AAD9
102
{ACAD_XDICTIONARY
360
AB38
102
}
102
{ACAD_REACTORS
330
AAD2
102
}
330
AAD2
100
AcDbVisualStyle
  2
Wireframe
 70
     5
 71
     0
 72
     2
 73
     0
 90
        0
 40
-0.6
 41
-30.0
 62
     5
 63
     7
 74
     1
 91
        4
 64
     7
 65
   257
 75
     1
175
     1
 42
1.0
 92
        0
 66
   257
 43
1.0
 76
     1
 77
     6
 78
     2
 67
     7
 79
     3
170
     0
171
     0
290
     0
174
     0
 93
        1
 44
0.0
173
     0
291
     0
 45
0.0
1001
ACAD
1000
AcDbSavedByObjectVersion
1070
     0
  0
VISUALSTYLE
  5
AAE5
102
{ACAD_XDICTIONARY
360
AB50
102
}
102
{ACAD_REACTORS
330
AAD2
102
}
330
AAD2
100
AcDbVisualStyle
  2
X-Ray
 70
    25
 71
     2
 72
     2
 73
     1
 90
        1
 40
0.5
 41
-30.0
 62
     5
 63
     7
 74
     1
 91
        0
 64
     7
 65
   257
 75
     1
175
     1
 42
1.0
 92
        8
 66
     7
 43
1.0
 76
     1
 77
     6
 78
     2
 67
     7
 79
     3
170
     0
171
     0
290
     0
174
     0
 93
       13
 44
0.0
173
     0
291
     0
 45
0.0
1001
ACAD
1000
AcDbSavedByObjectVersion
1070
     0
  0
DICTIONARYVAR
  5
AB1F
102
{ACAD_REACTORS
330
AB1A
102
}
330
AB1A
100
DictionaryVariables
280
     0
  1
1:1
  0
DICTIONARYVAR
  5
AB1C
102
{ACAD_REACTORS
330
AB1A
102
}
330
AB1A
100
DictionaryVariables
280
     0
  1
STANDARD
  0
DICTIONARYVAR
  5
AB1B
102
{ACAD_REACTORS
330
AB1A
102
}
330
AB1A
100
DictionaryVariables
280
     0
  1
STANDARD
  0
DICTIONARYVAR
  5
AB1D
102
{ACAD_REACTORS
330
AB1A
102
}
330
AB1A
100
DictionaryVariables
280
     0
  1
Imperial24
  0
DICTIONARYVAR
  5
AB1E
102
{ACAD_REACTORS
330
AB1A
102
}
330
AB1A
100
DictionaryVariables
280
     0
  1
Imperial24
  0
DICTIONARYVAR
  5
AB22
102
{ACAD_REACTORS
330
AB1A
102
}
330
AB1A
100
DictionaryVariables
280
     0
  1
1
  0
DICTIONARYVAR
  5
AB21
102
{ACAD_REACTORS
330
AB1A
102
}
330
AB1A
100
DictionaryVariables
280
     0
  1
0
  0
DICTIONARYVAR
  5
AB20
102
{ACAD_REACTORS
330
AB1A
102
}
330
AB1A
100
DictionaryVariables
280
     0
  1
127
  0
DICTIONARYVAR
  5
AB23
102
{ACAD_REACTORS
330
AB1A
102
}
330
AB1A
100
DictionaryVariables
280
     0
  1
2
  0
DICTIONARY
  5
AB60
330
AB05
100
AcDbDictionary
280
     1
281
     1
  3
ACAD_XREC_ROUNDTRIP
360
AB61
  0
DICTIONARY
  5
AB62
330
AB06
100
AcDbDictionary
280
     1
281
     1
  3
ACAD_XREC_ROUNDTRIP
360
AB63
  0
DICTIONARY
  5
AB64
330
AB07
100
AcDbDictionary
280
     1
281
     1
  3
ACAD_XREC_ROUNDTRIP
360
AB65
  0
DICTIONARY
  5
AAC3
330
AAC2
100
AcDbDictionary
280
     1
281
     1
  3
ACAD_XREC_ROUNDTRIP
360
AB2A
  3
BUMPTILE
360
AAC5
  3
DIFFUSETILE
360
AAC4
  3
OPACITYTILE
360
AAC8
  3
REFLECTIONTILE
360
AAC7
  3
REFRACTIONTILE
360
AAC9
  3
SPECULARTILE
360
AAC6
  0
DICTIONARY
  5
AABB
330
AABA
100
AcDbDictionary
280
     1
281
     1
  3
ACAD_XREC_ROUNDTRIP
360
AB29
  3
BUMPTILE
360
AABD
  3
DIFFUSETILE
360
AABC
  3
OPACITYTILE
360
AAC0
  3
REFLECTIONTILE
360
AABF
  3
REFRACTIONTILE
360
AAC1
  3
SPECULARTILE
360
AABE
  0
DICTIONARY
  5
AACB
330
AACA
100
AcDbDictionary
280
     1
281
     1
  3
ACAD_XREC_ROUNDTRIP
360
AB2B
  3
BUMPTILE
360
AACD
  3
DIFFUSETILE
360
AACC
  3
OPACITYTILE
360
AAD0
  3
REFLECTIONTILE
360
AACF
  3
REFRACTIONTILE
360
AAD1
  3
SPECULARTILE
360
AACE
  0
DICTIONARY
  5
AB5E
330
AB03
100
AcDbDictionary
280
     1
281
     1
  3
ACAD_XREC_ROUNDTRIP
360
AB5F
  0
DICTIONARY
  5
AB25
330
AAED
100
AcDbDictionary
280
     1
281
     1
  3
ACAD_ROUNDTRIP_2008_TABLESTYLE_CELLSTYLEMAP
360
AB26
  3
ACAD_XREC_ROUNDTRIP
360
AB5C
  0
DICTIONARY
  5
AB36
330
AAD8
100
AcDbDictionary
280
     1
281
     1
  3
ACAD_XREC_ROUNDTRIP
360
AB37
  0
DICTIONARY
  5
AB34
330
AAD7
100
AcDbDictionary
280
     1
281
     1
  3
ACAD_XREC_ROUNDTRIP
360
AB35
  0
DICTIONARY
  5
AB42
330
AADE
100
AcDbDictionary
280
     1
281
     1
  3
ACAD_XREC_ROUNDTRIP
360
AB43
  0
DICTIONARY
  5
AB4A
330
AAE2
100
AcDbDictionary
280
     1
281
     1
  3
ACAD_XREC_ROUNDTRIP
360
AB4B
  0
DICTIONARY
  5
AB3C
330
AADB
100
AcDbDictionary
280
     1
281
     1
  3
ACAD_XREC_ROUNDTRIP
360
AB3D
  0
DICTIONARY
  5
AB40
330
AADD
100
AcDbDictionary
280
     1
281
     1
  3
ACAD_XREC_ROUNDTRIP
360
AB41
  0
DICTIONARY
  5
AB5A
330
AAEA
100
AcDbDictionary
280
     1
281
     1
  3
ACAD_XREC_ROUNDTRIP
360
AB5B
  0
DICTIONARY
  5
AB48
330
AAE1
100
AcDbDictionary
280
     1
281
     1
  3
ACAD_XREC_ROUNDTRIP
360
AB49
  0
DICTIONARY
  5
AB2C
330
AAD3
100
AcDbDictionary
280
     1
281
     1
  3
ACAD_XREC_ROUNDTRIP
360
AB2D
  0
DICTIONARY
  5
AB2E
330
AAD4
100
AcDbDictionary
280
     1
281
     1
  3
ACAD_XREC_ROUNDTRIP
360
AB2F
  0
DICTIONARY
  5
AB30
330
AAD5
100
AcDbDictionary
280
     1
281
     1
  3
ACAD_XREC_ROUNDTRIP
360
AB31
  0
DICTIONARY
  5
AB32
330
AAD6
100
AcDbDictionary
280
     1
281
     1
  3
ACAD_XREC_ROUNDTRIP
360
AB33
  0
DICTIONARY
  5
AB3A
330
AADA
100
AcDbDictionary
280
     1
281
     1
  3
ACAD_XREC_ROUNDTRIP
360
AB3B
  0
DICTIONARY
  5
AB56
330
AAE8
100
AcDbDictionary
280
     1
281
     1
  3
ACAD_XREC_ROUNDTRIP
360
AB57
  0
DICTIONARY
  5
AB46
330
AAE0
100
AcDbDictionary
280
     1
281
     1
  3
ACAD_XREC_ROUNDTRIP
360
AB47
  0
DICTIONARY
  5
AB58
330
AAE9
100
AcDbDictionary
280
     1
281
     1
  3
ACAD_XREC_ROUNDTRIP
360
AB59
  0
DICTIONARY
  5
AB3E
330
AADC
100
AcDbDictionary
280
     1
281
     1
  3
ACAD_XREC_ROUNDTRIP
360
AB3F
  0
DICTIONARY
  5
AB54
330
AAE7
100
AcDbDictionary
280
     1
281
     1
  3
ACAD_XREC_ROUNDTRIP
360
AB55
  0
DICTIONARY
  5
AB52
330
AAE6
100
AcDbDictionary
280
     1
281
     1
  3
ACAD_XREC_ROUNDTRIP
360
AB53
  0
DICTIONARY
  5
AB4C
330
AAE3
100
AcDbDictionary
280
     1
281
     1
  3
ACAD_XREC_ROUNDTRIP
360
AB4D
  0
DICTIONARY
  5
AB4E
330
AAE4
100
AcDbDictionary
280
     1
281
     1
  3
ACAD_XREC_ROUNDTRIP
360
AB4F
  0
DICTIONARY
  5
AB44
330
AADF
100
AcDbDictionary
280
     1
281
     1
  3
ACAD_XREC_ROUNDTRIP
360
AB45
  0
DICTIONARY
  5
AB38
330
AAD9
100
AcDbDictionary
280
     1
281
     1
  3
ACAD_XREC_ROUNDTRIP
360
AB39
  0
DICTIONARY
  5
AB50
330
AAE5
100
AcDbDictionary
280
     1
281
     1
  3
ACAD_XREC_ROUNDTRIP
360
AB51
  0
XRECORD
  5
AB61
102
{ACAD_REACTORS
330
AB60
102
}
330
AB60
100
AcDbXrecord
280
     1
102
DISPLAYNAME
  1
Imperial24
102
FLAGS
 90
        0
  0
XRECORD
  5
AB63
102
{ACAD_REACTORS
330
AB62
102
}
330
AB62
100
AcDbXrecord
280
     1
102
SHADEPLOT
 70
     0
102
SHADEPLOTRESLEVEL
 70
     2
102
SHADEPLOTCUSTOMDPI
 70
   300
  0
XRECORD
  5
AB65
102
{ACAD_REACTORS
330
AB64
102
}
330
AB64
100
AcDbXrecord
280
     1
102
SHADEPLOT
 70
     0
102
SHADEPLOTRESLEVEL
 70
     2
102
SHADEPLOTCUSTOMDPI
 70
   300
  0
XRECORD
  5
AB2A
102
{ACAD_REACTORS
330
AAC3
102
}
330
AAC3
100
AcDbXrecord
280
     1
102
MATERIAL
148
0.0
149
0.0
149
0.0
 93
        0
 94
      127
282
     0
 72
     0
 77
     0
171
     0
175
     0
179
     0
273
     0
  0
XRECORD
  5
AAC5
102
{ACAD_REACTORS
330
AAC3
102
}
330
AAC3
100
AcDbXrecord
280
     1
270
     1
271
     1
  0
XRECORD
  5
AAC4
102
{ACAD_REACTORS
330
AAC3
102
}
330
AAC3
100
AcDbXrecord
280
     1
270
     1
271
     1
  0
XRECORD
  5
AAC8
102
{ACAD_REACTORS
330
AAC3
102
}
330
AAC3
100
AcDbXrecord
280
     1
270
     1
271
     1
  0
XRECORD
  5
AAC7
102
{ACAD_REACTORS
330
AAC3
102
}
330
AAC3
100
AcDbXrecord
280
     1
270
     1
271
     1
  0
XRECORD
  5
AAC9
102
{ACAD_REACTORS
330
AAC3
102
}
330
AAC3
100
AcDbXrecord
280
     1
270
     1
271
     1
  0
XRECORD
  5
AAC6
102
{ACAD_REACTORS
330
AAC3
102
}
330
AAC3
100
AcDbXrecord
280
     1
270
     1
271
     1
  0
XRECORD
  5
AB29
102
{ACAD_REACTORS
330
AABB
102
}
330
AABB
100
AcDbXrecord
280
     1
102
MATERIAL
148
0.0
149
0.0
149
0.0
 93
        0
 94
      127
282
     0
 72
     0
 77
     0
171
     0
175
     0
179
     0
273
     0
  0
XRECORD
  5
AABD
102
{ACAD_REACTORS
330
AABB
102
}
330
AABB
100
AcDbXrecord
280
     1
270
     1
271
     1
  0
XRECORD
  5
AABC
102
{ACAD_REACTORS
330
AABB
102
}
330
AABB
100
AcDbXrecord
280
     1
270
     1
271
     1
  0
XRECORD
  5
AAC0
102
{ACAD_REACTORS
330
AABB
102
}
330
AABB
100
AcDbXrecord
280
     1
270
     1
271
     1
  0
XRECORD
  5
AABF
102
{ACAD_REACTORS
330
AABB
102
}
330
AABB
100
AcDbXrecord
280
     1
270
     1
271
     1
  0
XRECORD
  5
AAC1
102
{ACAD_REACTORS
330
AABB
102
}
330
AABB
100
AcDbXrecord
280
     1
270
     1
271
     1
  0
XRECORD
  5
AABE
102
{ACAD_REACTORS
330
AABB
102
}
330
AABB
100
AcDbXrecord
280
     1
270
     1
271
     1
  0
XRECORD
  5
AB2B
102
{ACAD_REACTORS
330
AACB
102
}
330
AACB
100
AcDbXrecord
280
     1
102
MATERIAL
148
0.0
149
0.0
149
0.0
 93
        0
 94
      127
282
     0
 72
     0
 77
     0
171
     0
175
     0
179
     0
273
     0
  0
XRECORD
  5
AACD
102
{ACAD_REACTORS
330
AACB
102
}
330
AACB
100
AcDbXrecord
280
     1
270
     1
271
     1
  0
XRECORD
  5
AACC
102
{ACAD_REACTORS
330
AACB
102
}
330
AACB
100
AcDbXrecord
280
     1
270
     1
271
     1
  0
XRECORD
  5
AAD0
102
{ACAD_REACTORS
330
AACB
102
}
330
AACB
100
AcDbXrecord
280
     1
270
     1
271
     1
  0
XRECORD
  5
AACF
102
{ACAD_REACTORS
330
AACB
102
}
330
AACB
100
AcDbXrecord
280
     1
270
     1
271
     1
  0
XRECORD
  5
AAD1
102
{ACAD_REACTORS
330
AACB
102
}
330
AACB
100
AcDbXrecord
280
     1
270
     1
271
     1
  0
XRECORD
  5
AACE
102
{ACAD_REACTORS
330
AACB
102
}
330
AACB
100
AcDbXrecord
280
     1
270
     1
271
     1
  0
XRECORD
  5
AB5F
102
{ACAD_REACTORS
330
AB5E
102
}
330
AB5E
100
AcDbXrecord
280
     1
102
DISPLAYNAME
  1
Imperial24
102
FLAGS
 90
        0
  0
CELLSTYLEMAP
  5
AB26
102
{ACAD_REACTORS
330
AB25
102
}
330
AB25
100
AcDbCellStyleMap
 90
        3
300
CELLSTYLE
  1
TABLEFORMAT_BEGIN
 90
        5
170
     1
 91
        0
 92
    32768
 62
   257
 93
        1
300
CONTENTFORMAT
  1
CONTENTFORMAT_BEGIN
 90
        0
 91
        0
 92
      512
 93
        0
300

 40
0.0
140
1.0
 94
        5
 62
     0
340
A87B
144
0.25
309
CONTENTFORMAT_END
171
     0
 94
        0
309
TABLEFORMAT_END
  1
CELLSTYLE_BEGIN
 90
        1
 91
        1
300
_TITLE
309
CELLSTYLE_END
300
CELLSTYLE
  1
TABLEFORMAT_BEGIN
 90
        5
170
     1
 91
        0
 92
        0
 62
   257
 93
        1
300
CONTENTFORMAT
  1
CONTENTFORMAT_BEGIN
 90
        0
 91
        0
 92
      512
 93
        0
300

 40
0.0
140
1.0
 94
        5
 62
     0
340
A87B
144
0.18
309
CONTENTFORMAT_END
171
     0
 94
        0
309
TABLEFORMAT_END
  1
CELLSTYLE_BEGIN
 90
        2
 91
        1
300
_HEADER
309
CELLSTYLE_END
300
CELLSTYLE
  1
TABLEFORMAT_BEGIN
 90
        5
170
     1
 91
        0
 92
        0
 62
   257
 93
        1
300
CONTENTFORMAT
  1
CONTENTFORMAT_BEGIN
 90
        0
 91
        0
 92
      512
 93
        0
300

 40
0.0
140
1.0
 94
        2
 62
     0
340
A87B
144
0.18
309
CONTENTFORMAT_END
171
     0
 94
        0
309
TABLEFORMAT_END
  1
CELLSTYLE_BEGIN
 90
        3
 91
        2
300
_DATA
309
CELLSTYLE_END
  0
XRECORD
  5
AB5C
102
{ACAD_REACTORS
330
AB25
102
}
330
AB25
100
AcDbXrecord
280
     1
102
ACAD_ROUNDTRIP_PRE2007_TABLESTYLE
 90
      512
 91
        0
  1

 92
      512
 93
        0
  2

 94
      512
 95
        0
  3

  0
XRECORD
  5
AB37
102
{ACAD_REACTORS
330
AB36
102
}
330
AB36
100
AcDbXrecord
280
     1
102
RTVSPost2010Prop28
280
     1
102
RTVSPost2010PropOp28
 70
     1
102
RTVSPost2010Prop29
280
     1
102
RTVSPost2010PropOp29
 70
     1
102
RTVSPost2010Prop30
280
     0
102
RTVSPost2010PropOp30
 70
     1
102
RTVSPost2010Prop31
280
     0
102
RTVSPost2010PropOp31
 70
     1
102
RTVSPost2010Prop32
280
     0
102
RTVSPost2010PropOp32
 70
     1
102
RTVSPost2010Prop33
280
     0
102
RTVSPost2010PropOp33
 70
     1
102
RTVSPost2010Prop34
280
     0
102
RTVSPost2010PropOp34
 70
     1
102
RTVSPost2010Prop35
280
     0
102
RTVSPost2010PropOp35
 70
     1
102
RTVSPost2010Prop36
280
     0
102
RTVSPost2010PropOp36
 70
     1
102
RTVSPost2010Prop37
 90
       50
102
RTVSPost2010PropOp37
 70
     1
102
RTVSPost2010Prop38
140
0.0
102
RTVSPost2010PropOp38
 70
     1
102
RTVSPost2010Prop39
140
1.0
102
RTVSPost2010PropOp39
 70
     1
102
RTVSPost2010Prop40
 90
        0
102
RTVSPost2010PropOp40
 70
     1
102
RTVSPost2010Prop41ColorIndex
 90
       18
102
RTVSPost2010Prop41ColorRGB
 90
        0
102
RTVSPost2010PropOp41
 70
     1
102
RTVSPost2010Prop42
 90
       50
102
RTVSPost2010PropOp42
 70
     1
102
RTVSPost2010Prop43
 90
        3
102
RTVSPost2010PropOp43
 70
     1
102
RTVSPost2010Prop44ColorIndex
 90
        5
102
RTVSPost2010Prop44ColorRGB
 90
      255
102
RTVSPost2010PropOp44
 70
     1
102
RTVSPost2010Prop45
280
     0
102
RTVSPost2010PropOp45
 70
     1
102
RTVSPost2010Prop46
 90
       50
102
RTVSPost2010PropOp46
 70
     1
102
RTVSPost2010Prop47
 90
       50
102
RTVSPost2010PropOp47
 70
     1
102
RTVSPost2010Prop48
 90
       50
102
RTVSPost2010PropOp48
 70
     1
102
RTVSPost2010Prop49
280
     0
102
RTVSPost2010PropOp49
 70
     1
102
RTVSPost2010Prop50
 90
       50
102
RTVSPost2010PropOp50
 70
     1
102
RTVSPost2010Prop51ColorIndex
 90
      256
102
RTVSPost2010Prop51ColorRGB
 90
-16777216
102
RTVSPost2010PropOp51
 70
     0
102
RTVSPost2010Prop52
140
1.0
102
RTVSPost2010PropOp52
 70
     0
102
RTVSPost2010Prop53
 90
        2
102
RTVSPost2010PropOp53
 70
     1
102
RTVSPost2010Prop54
  1
strokes_ogs.tif
102
RTVSPost2010PropOp54
 70
     1
102
RTVSPost2010Prop55
280
     0
102
RTVSPost2010PropOp55
 70
     1
102
RTVSPost2010Prop56
140
1.0
102
RTVSPost2010PropOp56
 70
     1
102
RTVSPost2010Prop57
140
1.0
102
RTVSPost2010PropOp57
 70
     1
102
RTVSPropertyOp0
 70
     1
102
RTVSPropertyOp1
 70
     1
102
RTVSPropertyOp2
 70
     1
102
RTVSPropertyOp3
 70
     1
102
RTVSPropertyOp4
 70
     1
102
RTVSPropertyOp5
 70
     1
102
RTVSPropertyOp6
 70
     1
102
RTVSPropertyOp7
 70
     1
102
RTVSPropertyOp8
 70
     1
102
RTVSPropertyOp9
 70
     1
102
RTVSPropertyOp10
 70
     1
102
RTVSPropertyOp11
 70
     1
102
RTVSPropertyOp12
 70
     1
102
RTVSPropertyOp13
 70
     1
102
RTVSPropertyOp14
 70
     1
102
RTVSPropertyOp15
 70
     1
102
RTVSPropertyOp16
 70
     1
102
RTVSPropertyOp17
 70
     1
102
RTVSPropertyOp18
 70
     1
102
RTVSPropertyOp19
 70
     1
102
RTVSPropertyOp20
 70
     1
102
RTVSPropertyOp21
 70
     1
102
RTVSPropertyOp22
 70
     1
102
RTVSPropertyOp23
 70
     1
102
RTVSPropertyOp24
 70
     1
102
RTVSPropertyOp25
 70
     1
102
RTVSPropertyOp26
 70
     1
102
RTVSPropertyOp27
 70
     1
102
RTVSPropertyOp28
 70
     1
102
RTVSPropertyOp29
 70
     1
102
RTVSPropertyOp30
 70
     1
102
RTVSPropertyOp31
 70
     1
102
RTVSPropertyOp32
 70
     1
102
RTVSPropertyOp33
 70
     1
102
RTVSPropertyOp34
 70
     1
102
RTVSPropertyOp35
 70
     1
102
RTVSPropertyOp36
 70
     1
102
RTVSPropertyOp37
 70
     1
102
RTVSPropertyOp38
 70
     1
102
RTVSPropertyOp39
 70
     1
102
RTVSPropertyOp40
 70
     1
102
RTVSPropertyOp41
 70
     1
102
RTVSPropertyOp42
 70
     1
102
RTVSPropertyOp43
 70
     1
102
RTVSPropertyOp44
 70
     1
102
RTVSPropertyOp45
 70
     1
102
RTVSPropertyOp46
 70
     1
102
RTVSPropertyOp47
 70
     1
102
RTVSPropertyOp48
 70
     1
102
RTVSPropertyOp49
 70
     1
102
RTVSPropertyOp50
 70
     1
102
RTVSPropertyOp51
 70
     0
102
RTVSPropertyOp52
 70
     0
102
RTVSPropertyOp53
 70
     1
102
RTVSPropertyOp54
 70
     1
102
RTVSPropertyOp55
 70
     1
102
RTVSPropertyOp56
 70
     1
102
RTVSPropertyOp57
 70
     1
102
RTVSPropertyOp58
 70
     1
102
RTVSPropertyOp59
 70
     1
102
RTVSPropertyOp60
 70
     1
102
RTVSPropertyOp61
 70
     1
102
RTVSPropertyOp62
 70
     1
  0
XRECORD
  5
AB35
102
{ACAD_REACTORS
330
AB34
102
}
330
AB34
100
AcDbXrecord
280
     1
102
RTVSPost2010Prop28
280
     0
102
RTVSPost2010PropOp28
 70
     1
102
RTVSPost2010Prop29
280
     1
102
RTVSPost2010PropOp29
 70
     1
102
RTVSPost2010Prop30
280
     1
102
RTVSPost2010PropOp30
 70
     1
102
RTVSPost2010Prop31
280
     0
102
RTVSPost2010PropOp31
 70
     1
102
RTVSPost2010Prop32
280
     0
102
RTVSPost2010PropOp32
 70
     1
102
RTVSPost2010Prop33
280
     0
102
RTVSPost2010PropOp33
 70
     1
102
RTVSPost2010Prop34
280
     0
102
RTVSPost2010PropOp34
 70
     1
102
RTVSPost2010Prop35
280
     0
102
RTVSPost2010PropOp35
 70
     1
102
RTVSPost2010Prop36
280
     0
102
RTVSPost2010PropOp36
 70
     1
102
RTVSPost2010Prop37
 90
       50
102
RTVSPost2010PropOp37
 70
     1
102
RTVSPost2010Prop38
140
0.0
102
RTVSPost2010PropOp38
 70
     1
102
RTVSPost2010Prop39
140
1.0
102
RTVSPost2010PropOp39
 70
     1
102
RTVSPost2010Prop40
 90
        0
102
RTVSPost2010PropOp40
 70
     1
102
RTVSPost2010Prop41ColorIndex
 90
       18
102
RTVSPost2010Prop41ColorRGB
 90
        0
102
RTVSPost2010PropOp41
 70
     1
102
RTVSPost2010Prop42
 90
       50
102
RTVSPost2010PropOp42
 70
     1
102
RTVSPost2010Prop43
 90
        3
102
RTVSPost2010PropOp43
 70
     1
102
RTVSPost2010Prop44ColorIndex
 90
        5
102
RTVSPost2010Prop44ColorRGB
 90
      255
102
RTVSPost2010PropOp44
 70
     1
102
RTVSPost2010Prop45
280
     0
102
RTVSPost2010PropOp45
 70
     1
102
RTVSPost2010Prop46
 90
       50
102
RTVSPost2010PropOp46
 70
     1
102
RTVSPost2010Prop47
 90
       50
102
RTVSPost2010PropOp47
 70
     1
102
RTVSPost2010Prop48
 90
       50
102
RTVSPost2010PropOp48
 70
     1
102
RTVSPost2010Prop49
280
     0
102
RTVSPost2010PropOp49
 70
     1
102
RTVSPost2010Prop50
 90
       50
102
RTVSPost2010PropOp50
 70
     1
102
RTVSPost2010Prop51ColorIndex
 90
      256
102
RTVSPost2010Prop51ColorRGB
 90
-16777216
102
RTVSPost2010PropOp51
 70
     0
102
RTVSPost2010Prop52
140
1.0
102
RTVSPost2010PropOp52
 70
     0
102
RTVSPost2010Prop53
 90
        2
102
RTVSPost2010PropOp53
 70
     1
102
RTVSPost2010Prop54
  1
strokes_ogs.tif
102
RTVSPost2010PropOp54
 70
     1
102
RTVSPost2010Prop55
280
     0
102
RTVSPost2010PropOp55
 70
     1
102
RTVSPost2010Prop56
140
1.0
102
RTVSPost2010PropOp56
 70
     1
102
RTVSPost2010Prop57
140
1.0
102
RTVSPost2010PropOp57
 70
     1
102
RTVSPropertyOp0
 70
     1
102
RTVSPropertyOp1
 70
     1
102
RTVSPropertyOp2
 70
     1
102
RTVSPropertyOp3
 70
     1
102
RTVSPropertyOp4
 70
     1
102
RTVSPropertyOp5
 70
     1
102
RTVSPropertyOp6
 70
     1
102
RTVSPropertyOp7
 70
     1
102
RTVSPropertyOp8
 70
     1
102
RTVSPropertyOp9
 70
     1
102
RTVSPropertyOp10
 70
     1
102
RTVSPropertyOp11
 70
     1
102
RTVSPropertyOp12
 70
     1
102
RTVSPropertyOp13
 70
     1
102
RTVSPropertyOp14
 70
     1
102
RTVSPropertyOp15
 70
     1
102
RTVSPropertyOp16
 70
     1
102
RTVSPropertyOp17
 70
     1
102
RTVSPropertyOp18
 70
     1
102
RTVSPropertyOp19
 70
     1
102
RTVSPropertyOp20
 70
     1
102
RTVSPropertyOp21
 70
     1
102
RTVSPropertyOp22
 70
     1
102
RTVSPropertyOp23
 70
     1
102
RTVSPropertyOp24
 70
     1
102
RTVSPropertyOp25
 70
     1
102
RTVSPropertyOp26
 70
     1
102
RTVSPropertyOp27
 70
     1
102
RTVSPropertyOp28
 70
     1
102
RTVSPropertyOp29
 70
     1
102
RTVSPropertyOp30
 70
     1
102
RTVSPropertyOp31
 70
     1
102
RTVSPropertyOp32
 70
     1
102
RTVSPropertyOp33
 70
     1
102
RTVSPropertyOp34
 70
     1
102
RTVSPropertyOp35
 70
     1
102
RTVSPropertyOp36
 70
     1
102
RTVSPropertyOp37
 70
     1
102
RTVSPropertyOp38
 70
     1
102
RTVSPropertyOp39
 70
     1
102
RTVSPropertyOp40
 70
     1
102
RTVSPropertyOp41
 70
     1
102
RTVSPropertyOp42
 70
     1
102
RTVSPropertyOp43
 70
     1
102
RTVSPropertyOp44
 70
     1
102
RTVSPropertyOp45
 70
     1
102
RTVSPropertyOp46
 70
     1
102
RTVSPropertyOp47
 70
     1
102
RTVSPropertyOp48
 70
     1
102
RTVSPropertyOp49
 70
     1
102
RTVSPropertyOp50
 70
     1
102
RTVSPropertyOp51
 70
     0
102
RTVSPropertyOp52
 70
     0
102
RTVSPropertyOp53
 70
     1
102
RTVSPropertyOp54
 70
     1
102
RTVSPropertyOp55
 70
     1
102
RTVSPropertyOp56
 70
     1
102
RTVSPropertyOp57
 70
     1
102
RTVSPropertyOp58
 70
     1
102
RTVSPropertyOp59
 70
     1
102
RTVSPropertyOp60
 70
     1
102
RTVSPropertyOp61
 70
     1
102
RTVSPropertyOp62
 70
     1
  0
XRECORD
  5
AB43
102
{ACAD_REACTORS
330
AB42
102
}
330
AB42
100
AcDbXrecord
280
     1
102
RTVSPost2010Prop28
280
     0
102
RTVSPost2010PropOp28
 70
     1
102
RTVSPost2010Prop29
280
     1
102
RTVSPost2010PropOp29
 70
     1
102
RTVSPost2010Prop30
280
     1
102
RTVSPost2010PropOp30
 70
     1
102
RTVSPost2010Prop31
280
     0
102
RTVSPost2010PropOp31
 70
     1
102
RTVSPost2010Prop32
280
     0
102
RTVSPost2010PropOp32
 70
     1
102
RTVSPost2010Prop33
280
     0
102
RTVSPost2010PropOp33
 70
     1
102
RTVSPost2010Prop34
280
     0
102
RTVSPost2010PropOp34
 70
     1
102
RTVSPost2010Prop35
280
     0
102
RTVSPost2010PropOp35
 70
     1
102
RTVSPost2010Prop36
280
     0
102
RTVSPost2010PropOp36
 70
     1
102
RTVSPost2010Prop37
 90
       50
102
RTVSPost2010PropOp37
 70
     1
102
RTVSPost2010Prop38
140
0.0
102
RTVSPost2010PropOp38
 70
     1
102
RTVSPost2010Prop39
140
1.0
102
RTVSPost2010PropOp39
 70
     1
102
RTVSPost2010Prop40
 90
        0
102
RTVSPost2010PropOp40
 70
     1
102
RTVSPost2010Prop41ColorIndex
 90
       18
102
RTVSPost2010Prop41ColorRGB
 90
        0
102
RTVSPost2010PropOp41
 70
     1
102
RTVSPost2010Prop42
 90
       50
102
RTVSPost2010PropOp42
 70
     1
102
RTVSPost2010Prop43
 90
        3
102
RTVSPost2010PropOp43
 70
     1
102
RTVSPost2010Prop44ColorIndex
 90
        5
102
RTVSPost2010Prop44ColorRGB
 90
      255
102
RTVSPost2010PropOp44
 70
     1
102
RTVSPost2010Prop45
280
     0
102
RTVSPost2010PropOp45
 70
     1
102
RTVSPost2010Prop46
 90
       50
102
RTVSPost2010PropOp46
 70
     1
102
RTVSPost2010Prop47
 90
       50
102
RTVSPost2010PropOp47
 70
     1
102
RTVSPost2010Prop48
 90
       50
102
RTVSPost2010PropOp48
 70
     1
102
RTVSPost2010Prop49
280
     0
102
RTVSPost2010PropOp49
 70
     1
102
RTVSPost2010Prop50
 90
       50
102
RTVSPost2010PropOp50
 70
     1
102
RTVSPost2010Prop51ColorIndex
 90
      256
102
RTVSPost2010Prop51ColorRGB
 90
-16777216
102
RTVSPost2010PropOp51
 70
     0
102
RTVSPost2010Prop52
140
1.0
102
RTVSPost2010PropOp52
 70
     0
102
RTVSPost2010Prop53
 90
        2
102
RTVSPost2010PropOp53
 70
     1
102
RTVSPost2010Prop54
  1
strokes_ogs.tif
102
RTVSPost2010PropOp54
 70
     1
102
RTVSPost2010Prop55
280
     0
102
RTVSPost2010PropOp55
 70
     1
102
RTVSPost2010Prop56
140
1.0
102
RTVSPost2010PropOp56
 70
     1
102
RTVSPost2010Prop57
140
1.0
102
RTVSPost2010PropOp57
 70
     1
102
RTVSPropertyOp0
 70
     1
102
RTVSPropertyOp1
 70
     1
102
RTVSPropertyOp2
 70
     1
102
RTVSPropertyOp3
 70
     1
102
RTVSPropertyOp4
 70
     1
102
RTVSPropertyOp5
 70
     1
102
RTVSPropertyOp6
 70
     1
102
RTVSPropertyOp7
 70
     1
102
RTVSPropertyOp8
 70
     1
102
RTVSPropertyOp9
 70
     1
102
RTVSPropertyOp10
 70
     1
102
RTVSPropertyOp11
 70
     1
102
RTVSPropertyOp12
 70
     1
102
RTVSPropertyOp13
 70
     1
102
RTVSPropertyOp14
 70
     1
102
RTVSPropertyOp15
 70
     1
102
RTVSPropertyOp16
 70
     1
102
RTVSPropertyOp17
 70
     1
102
RTVSPropertyOp18
 70
     1
102
RTVSPropertyOp19
 70
     1
102
RTVSPropertyOp20
 70
     1
102
RTVSPropertyOp21
 70
     1
102
RTVSPropertyOp22
 70
     1
102
RTVSPropertyOp23
 70
     1
102
RTVSPropertyOp24
 70
     1
102
RTVSPropertyOp25
 70
     1
102
RTVSPropertyOp26
 70
     1
102
RTVSPropertyOp27
 70
     1
102
RTVSPropertyOp28
 70
     1
102
RTVSPropertyOp29
 70
     1
102
RTVSPropertyOp30
 70
     1
102
RTVSPropertyOp31
 70
     1
102
RTVSPropertyOp32
 70
     1
102
RTVSPropertyOp33
 70
     1
102
RTVSPropertyOp34
 70
     1
102
RTVSPropertyOp35
 70
     1
102
RTVSPropertyOp36
 70
     1
102
RTVSPropertyOp37
 70
     1
102
RTVSPropertyOp38
 70
     1
102
RTVSPropertyOp39
 70
     1
102
RTVSPropertyOp40
 70
     1
102
RTVSPropertyOp41
 70
     1
102
RTVSPropertyOp42
 70
     1
102
RTVSPropertyOp43
 70
     1
102
RTVSPropertyOp44
 70
     1
102
RTVSPropertyOp45
 70
     1
102
RTVSPropertyOp46
 70
     1
102
RTVSPropertyOp47
 70
     1
102
RTVSPropertyOp48
 70
     1
102
RTVSPropertyOp49
 70
     1
102
RTVSPropertyOp50
 70
     1
102
RTVSPropertyOp51
 70
     0
102
RTVSPropertyOp52
 70
     0
102
RTVSPropertyOp53
 70
     1
102
RTVSPropertyOp54
 70
     1
102
RTVSPropertyOp55
 70
     1
102
RTVSPropertyOp56
 70
     1
102
RTVSPropertyOp57
 70
     1
102
RTVSPropertyOp58
 70
     1
102
RTVSPropertyOp59
 70
     1
102
RTVSPropertyOp60
 70
     1
102
RTVSPropertyOp61
 70
     1
102
RTVSPropertyOp62
 70
     1
  0
XRECORD
  5
AB4B
102
{ACAD_REACTORS
330
AB4A
102
}
330
AB4A
100
AcDbXrecord
280
     1
102
RTVSPost2010Prop28
280
     0
102
RTVSPost2010PropOp28
 70
     1
102
RTVSPost2010Prop29
280
     1
102
RTVSPost2010PropOp29
 70
     1
102
RTVSPost2010Prop30
280
     1
102
RTVSPost2010PropOp30
 70
     1
102
RTVSPost2010Prop31
280
     0
102
RTVSPost2010PropOp31
 70
     1
102
RTVSPost2010Prop32
280
     0
102
RTVSPost2010PropOp32
 70
     1
102
RTVSPost2010Prop33
280
     0
102
RTVSPost2010PropOp33
 70
     1
102
RTVSPost2010Prop34
280
     0
102
RTVSPost2010PropOp34
 70
     1
102
RTVSPost2010Prop35
280
     0
102
RTVSPost2010PropOp35
 70
     1
102
RTVSPost2010Prop36
280
     0
102
RTVSPost2010PropOp36
 70
     1
102
RTVSPost2010Prop37
 90
       50
102
RTVSPost2010PropOp37
 70
     1
102
RTVSPost2010Prop38
140
0.0
102
RTVSPost2010PropOp38
 70
     1
102
RTVSPost2010Prop39
140
1.0
102
RTVSPost2010PropOp39
 70
     1
102
RTVSPost2010Prop40
 90
        0
102
RTVSPost2010PropOp40
 70
     1
102
RTVSPost2010Prop41ColorIndex
 90
       18
102
RTVSPost2010Prop41ColorRGB
 90
        0
102
RTVSPost2010PropOp41
 70
     1
102
RTVSPost2010Prop42
 90
       50
102
RTVSPost2010PropOp42
 70
     1
102
RTVSPost2010Prop43
 90
        3
102
RTVSPost2010PropOp43
 70
     1
102
RTVSPost2010Prop44ColorIndex
 90
        5
102
RTVSPost2010Prop44ColorRGB
 90
      255
102
RTVSPost2010PropOp44
 70
     1
102
RTVSPost2010Prop45
280
     0
102
RTVSPost2010PropOp45
 70
     1
102
RTVSPost2010Prop46
 90
       50
102
RTVSPost2010PropOp46
 70
     1
102
RTVSPost2010Prop47
 90
       50
102
RTVSPost2010PropOp47
 70
     1
102
RTVSPost2010Prop48
 90
       50
102
RTVSPost2010PropOp48
 70
     1
102
RTVSPost2010Prop49
280
     0
102
RTVSPost2010PropOp49
 70
     1
102
RTVSPost2010Prop50
 90
       50
102
RTVSPost2010PropOp50
 70
     1
102
RTVSPost2010Prop51ColorIndex
 90
      256
102
RTVSPost2010Prop51ColorRGB
 90
-16777216
102
RTVSPost2010PropOp51
 70
     0
102
RTVSPost2010Prop52
140
1.0
102
RTVSPost2010PropOp52
 70
     0
102
RTVSPost2010Prop53
 90
        2
102
RTVSPost2010PropOp53
 70
     1
102
RTVSPost2010Prop54
  1
strokes_ogs.tif
102
RTVSPost2010PropOp54
 70
     1
102
RTVSPost2010Prop55
280
     0
102
RTVSPost2010PropOp55
 70
     1
102
RTVSPost2010Prop56
140
1.0
102
RTVSPost2010PropOp56
 70
     1
102
RTVSPost2010Prop57
140
1.0
102
RTVSPost2010PropOp57
 70
     1
102
RTVSPropertyOp0
 70
     1
102
RTVSPropertyOp1
 70
     1
102
RTVSPropertyOp2
 70
     1
102
RTVSPropertyOp3
 70
     1
102
RTVSPropertyOp4
 70
     1
102
RTVSPropertyOp5
 70
     1
102
RTVSPropertyOp6
 70
     1
102
RTVSPropertyOp7
 70
     1
102
RTVSPropertyOp8
 70
     1
102
RTVSPropertyOp9
 70
     1
102
RTVSPropertyOp10
 70
     1
102
RTVSPropertyOp11
 70
     1
102
RTVSPropertyOp12
 70
     1
102
RTVSPropertyOp13
 70
     1
102
RTVSPropertyOp14
 70
     1
102
RTVSPropertyOp15
 70
     1
102
RTVSPropertyOp16
 70
     1
102
RTVSPropertyOp17
 70
     1
102
RTVSPropertyOp18
 70
     1
102
RTVSPropertyOp19
 70
     1
102
RTVSPropertyOp20
 70
     1
102
RTVSPropertyOp21
 70
     1
102
RTVSPropertyOp22
 70
     1
102
RTVSPropertyOp23
 70
     1
102
RTVSPropertyOp24
 70
     1
102
RTVSPropertyOp25
 70
     1
102
RTVSPropertyOp26
 70
     1
102
RTVSPropertyOp27
 70
     1
102
RTVSPropertyOp28
 70
     1
102
RTVSPropertyOp29
 70
     1
102
RTVSPropertyOp30
 70
     1
102
RTVSPropertyOp31
 70
     1
102
RTVSPropertyOp32
 70
     1
102
RTVSPropertyOp33
 70
     1
102
RTVSPropertyOp34
 70
     1
102
RTVSPropertyOp35
 70
     1
102
RTVSPropertyOp36
 70
     1
102
RTVSPropertyOp37
 70
     1
102
RTVSPropertyOp38
 70
     1
102
RTVSPropertyOp39
 70
     1
102
RTVSPropertyOp40
 70
     1
102
RTVSPropertyOp41
 70
     1
102
RTVSPropertyOp42
 70
     1
102
RTVSPropertyOp43
 70
     1
102
RTVSPropertyOp44
 70
     1
102
RTVSPropertyOp45
 70
     1
102
RTVSPropertyOp46
 70
     1
102
RTVSPropertyOp47
 70
     1
102
RTVSPropertyOp48
 70
     1
102
RTVSPropertyOp49
 70
     1
102
RTVSPropertyOp50
 70
     1
102
RTVSPropertyOp51
 70
     0
102
RTVSPropertyOp52
 70
     0
102
RTVSPropertyOp53
 70
     1
102
RTVSPropertyOp54
 70
     1
102
RTVSPropertyOp55
 70
     1
102
RTVSPropertyOp56
 70
     1
102
RTVSPropertyOp57
 70
     1
102
RTVSPropertyOp58
 70
     1
102
RTVSPropertyOp59
 70
     1
102
RTVSPropertyOp60
 70
     1
102
RTVSPropertyOp61
 70
     1
102
RTVSPropertyOp62
 70
     1
  0
XRECORD
  5
AB3D
102
{ACAD_REACTORS
330
AB3C
102
}
330
AB3C
100
AcDbXrecord
280
     1
102
RTVSPost2010Prop28
280
     0
102
RTVSPost2010PropOp28
 70
     1
102
RTVSPost2010Prop29
280
     1
102
RTVSPost2010PropOp29
 70
     1
102
RTVSPost2010Prop30
280
     1
102
RTVSPost2010PropOp30
 70
     1
102
RTVSPost2010Prop31
280
     0
102
RTVSPost2010PropOp31
 70
     1
102
RTVSPost2010Prop32
280
     0
102
RTVSPost2010PropOp32
 70
     1
102
RTVSPost2010Prop33
280
     0
102
RTVSPost2010PropOp33
 70
     1
102
RTVSPost2010Prop34
280
     0
102
RTVSPost2010PropOp34
 70
     1
102
RTVSPost2010Prop35
280
     0
102
RTVSPost2010PropOp35
 70
     1
102
RTVSPost2010Prop36
280
     0
102
RTVSPost2010PropOp36
 70
     1
102
RTVSPost2010Prop37
 90
       50
102
RTVSPost2010PropOp37
 70
     1
102
RTVSPost2010Prop38
140
0.0
102
RTVSPost2010PropOp38
 70
     1
102
RTVSPost2010Prop39
140
1.0
102
RTVSPost2010PropOp39
 70
     1
102
RTVSPost2010Prop40
 90
        0
102
RTVSPost2010PropOp40
 70
     1
102
RTVSPost2010Prop41ColorIndex
 90
       18
102
RTVSPost2010Prop41ColorRGB
 90
        0
102
RTVSPost2010PropOp41
 70
     1
102
RTVSPost2010Prop42
 90
       50
102
RTVSPost2010PropOp42
 70
     1
102
RTVSPost2010Prop43
 90
        3
102
RTVSPost2010PropOp43
 70
     1
102
RTVSPost2010Prop44ColorIndex
 90
        5
102
RTVSPost2010Prop44ColorRGB
 90
      255
102
RTVSPost2010PropOp44
 70
     1
102
RTVSPost2010Prop45
280
     0
102
RTVSPost2010PropOp45
 70
     1
102
RTVSPost2010Prop46
 90
       50
102
RTVSPost2010PropOp46
 70
     1
102
RTVSPost2010Prop47
 90
       50
102
RTVSPost2010PropOp47
 70
     1
102
RTVSPost2010Prop48
 90
       50
102
RTVSPost2010PropOp48
 70
     1
102
RTVSPost2010Prop49
280
     0
102
RTVSPost2010PropOp49
 70
     1
102
RTVSPost2010Prop50
 90
       50
102
RTVSPost2010PropOp50
 70
     1
102
RTVSPost2010Prop51ColorIndex
 90
      256
102
RTVSPost2010Prop51ColorRGB
 90
-16777216
102
RTVSPost2010PropOp51
 70
     0
102
RTVSPost2010Prop52
140
1.0
102
RTVSPost2010PropOp52
 70
     0
102
RTVSPost2010Prop53
 90
        2
102
RTVSPost2010PropOp53
 70
     1
102
RTVSPost2010Prop54
  1
strokes_ogs.tif
102
RTVSPost2010PropOp54
 70
     1
102
RTVSPost2010Prop55
280
     0
102
RTVSPost2010PropOp55
 70
     1
102
RTVSPost2010Prop56
140
1.0
102
RTVSPost2010PropOp56
 70
     1
102
RTVSPost2010Prop57
140
1.0
102
RTVSPost2010PropOp57
 70
     1
102
RTVSPropertyOp0
 70
     1
102
RTVSPropertyOp1
 70
     1
102
RTVSPropertyOp2
 70
     1
102
RTVSPropertyOp3
 70
     1
102
RTVSPropertyOp4
 70
     1
102
RTVSPropertyOp5
 70
     1
102
RTVSPropertyOp6
 70
     1
102
RTVSPropertyOp7
 70
     1
102
RTVSPropertyOp8
 70
     1
102
RTVSPropertyOp9
 70
     1
102
RTVSPropertyOp10
 70
     1
102
RTVSPropertyOp11
 70
     1
102
RTVSPropertyOp12
 70
     1
102
RTVSPropertyOp13
 70
     1
102
RTVSPropertyOp14
 70
     1
102
RTVSPropertyOp15
 70
     1
102
RTVSPropertyOp16
 70
     1
102
RTVSPropertyOp17
 70
     1
102
RTVSPropertyOp18
 70
     1
102
RTVSPropertyOp19
 70
     1
102
RTVSPropertyOp20
 70
     1
102
RTVSPropertyOp21
 70
     1
102
RTVSPropertyOp22
 70
     1
102
RTVSPropertyOp23
 70
     1
102
RTVSPropertyOp24
 70
     1
102
RTVSPropertyOp25
 70
     1
102
RTVSPropertyOp26
 70
     1
102
RTVSPropertyOp27
 70
     1
102
RTVSPropertyOp28
 70
     1
102
RTVSPropertyOp29
 70
     1
102
RTVSPropertyOp30
 70
     1
102
RTVSPropertyOp31
 70
     1
102
RTVSPropertyOp32
 70
     1
102
RTVSPropertyOp33
 70
     1
102
RTVSPropertyOp34
 70
     1
102
RTVSPropertyOp35
 70
     1
102
RTVSPropertyOp36
 70
     1
102
RTVSPropertyOp37
 70
     1
102
RTVSPropertyOp38
 70
     1
102
RTVSPropertyOp39
 70
     1
102
RTVSPropertyOp40
 70
     1
102
RTVSPropertyOp41
 70
     1
102
RTVSPropertyOp42
 70
     1
102
RTVSPropertyOp43
 70
     1
102
RTVSPropertyOp44
 70
     1
102
RTVSPropertyOp45
 70
     1
102
RTVSPropertyOp46
 70
     1
102
RTVSPropertyOp47
 70
     1
102
RTVSPropertyOp48
 70
     1
102
RTVSPropertyOp49
 70
     1
102
RTVSPropertyOp50
 70
     1
102
RTVSPropertyOp51
 70
     0
102
RTVSPropertyOp52
 70
     0
102
RTVSPropertyOp53
 70
     1
102
RTVSPropertyOp54
 70
     1
102
RTVSPropertyOp55
 70
     1
102
RTVSPropertyOp56
 70
     1
102
RTVSPropertyOp57
 70
     1
102
RTVSPropertyOp58
 70
     1
102
RTVSPropertyOp59
 70
     1
102
RTVSPropertyOp60
 70
     1
102
RTVSPropertyOp61
 70
     1
102
RTVSPropertyOp62
 70
     1
  0
XRECORD
  5
AB41
102
{ACAD_REACTORS
330
AB40
102
}
330
AB40
100
AcDbXrecord
280
     1
102
RTVSPost2010Prop28
280
     0
102
RTVSPost2010PropOp28
 70
     1
102
RTVSPost2010Prop29
280
     1
102
RTVSPost2010PropOp29
 70
     1
102
RTVSPost2010Prop30
280
     1
102
RTVSPost2010PropOp30
 70
     1
102
RTVSPost2010Prop31
280
     0
102
RTVSPost2010PropOp31
 70
     1
102
RTVSPost2010Prop32
280
     0
102
RTVSPost2010PropOp32
 70
     1
102
RTVSPost2010Prop33
280
     0
102
RTVSPost2010PropOp33
 70
     1
102
RTVSPost2010Prop34
280
     0
102
RTVSPost2010PropOp34
 70
     1
102
RTVSPost2010Prop35
280
     0
102
RTVSPost2010PropOp35
 70
     1
102
RTVSPost2010Prop36
280
     0
102
RTVSPost2010PropOp36
 70
     1
102
RTVSPost2010Prop37
 90
       50
102
RTVSPost2010PropOp37
 70
     1
102
RTVSPost2010Prop38
140
0.0
102
RTVSPost2010PropOp38
 70
     1
102
RTVSPost2010Prop39
140
1.0
102
RTVSPost2010PropOp39
 70
     1
102
RTVSPost2010Prop40
 90
        0
102
RTVSPost2010PropOp40
 70
     1
102
RTVSPost2010Prop41ColorIndex
 90
       18
102
RTVSPost2010Prop41ColorRGB
 90
        0
102
RTVSPost2010PropOp41
 70
     1
102
RTVSPost2010Prop42
 90
       50
102
RTVSPost2010PropOp42
 70
     1
102
RTVSPost2010Prop43
 90
        3
102
RTVSPost2010PropOp43
 70
     1
102
RTVSPost2010Prop44ColorIndex
 90
        5
102
RTVSPost2010Prop44ColorRGB
 90
      255
102
RTVSPost2010PropOp44
 70
     1
102
RTVSPost2010Prop45
280
     0
102
RTVSPost2010PropOp45
 70
     1
102
RTVSPost2010Prop46
 90
       50
102
RTVSPost2010PropOp46
 70
     1
102
RTVSPost2010Prop47
 90
       50
102
RTVSPost2010PropOp47
 70
     1
102
RTVSPost2010Prop48
 90
       50
102
RTVSPost2010PropOp48
 70
     1
102
RTVSPost2010Prop49
280
     0
102
RTVSPost2010PropOp49
 70
     1
102
RTVSPost2010Prop50
 90
       50
102
RTVSPost2010PropOp50
 70
     1
102
RTVSPost2010Prop51ColorIndex
 90
      256
102
RTVSPost2010Prop51ColorRGB
 90
-16777216
102
RTVSPost2010PropOp51
 70
     0
102
RTVSPost2010Prop52
140
1.0
102
RTVSPost2010PropOp52
 70
     0
102
RTVSPost2010Prop53
 90
        2
102
RTVSPost2010PropOp53
 70
     1
102
RTVSPost2010Prop54
  1
strokes_ogs.tif
102
RTVSPost2010PropOp54
 70
     1
102
RTVSPost2010Prop55
280
     0
102
RTVSPost2010PropOp55
 70
     1
102
RTVSPost2010Prop56
140
1.0
102
RTVSPost2010PropOp56
 70
     1
102
RTVSPost2010Prop57
140
1.0
102
RTVSPost2010PropOp57
 70
     1
102
RTVSPropertyOp0
 70
     1
102
RTVSPropertyOp1
 70
     1
102
RTVSPropertyOp2
 70
     1
102
RTVSPropertyOp3
 70
     1
102
RTVSPropertyOp4
 70
     1
102
RTVSPropertyOp5
 70
     1
102
RTVSPropertyOp6
 70
     1
102
RTVSPropertyOp7
 70
     1
102
RTVSPropertyOp8
 70
     1
102
RTVSPropertyOp9
 70
     1
102
RTVSPropertyOp10
 70
     1
102
RTVSPropertyOp11
 70
     1
102
RTVSPropertyOp12
 70
     1
102
RTVSPropertyOp13
 70
     1
102
RTVSPropertyOp14
 70
     1
102
RTVSPropertyOp15
 70
     1
102
RTVSPropertyOp16
 70
     1
102
RTVSPropertyOp17
 70
     1
102
RTVSPropertyOp18
 70
     1
102
RTVSPropertyOp19
 70
     1
102
RTVSPropertyOp20
 70
     1
102
RTVSPropertyOp21
 70
     1
102
RTVSPropertyOp22
 70
     1
102
RTVSPropertyOp23
 70
     1
102
RTVSPropertyOp24
 70
     1
102
RTVSPropertyOp25
 70
     1
102
RTVSPropertyOp26
 70
     1
102
RTVSPropertyOp27
 70
     1
102
RTVSPropertyOp28
 70
     1
102
RTVSPropertyOp29
 70
     1
102
RTVSPropertyOp30
 70
     1
102
RTVSPropertyOp31
 70
     1
102
RTVSPropertyOp32
 70
     1
102
RTVSPropertyOp33
 70
     1
102
RTVSPropertyOp34
 70
     1
102
RTVSPropertyOp35
 70
     1
102
RTVSPropertyOp36
 70
     1
102
RTVSPropertyOp37
 70
     1
102
RTVSPropertyOp38
 70
     1
102
RTVSPropertyOp39
 70
     1
102
RTVSPropertyOp40
 70
     1
102
RTVSPropertyOp41
 70
     1
102
RTVSPropertyOp42
 70
     1
102
RTVSPropertyOp43
 70
     1
102
RTVSPropertyOp44
 70
     1
102
RTVSPropertyOp45
 70
     1
102
RTVSPropertyOp46
 70
     1
102
RTVSPropertyOp47
 70
     1
102
RTVSPropertyOp48
 70
     1
102
RTVSPropertyOp49
 70
     1
102
RTVSPropertyOp50
 70
     1
102
RTVSPropertyOp51
 70
     0
102
RTVSPropertyOp52
 70
     0
102
RTVSPropertyOp53
 70
     1
102
RTVSPropertyOp54
 70
     1
102
RTVSPropertyOp55
 70
     1
102
RTVSPropertyOp56
 70
     1
102
RTVSPropertyOp57
 70
     1
102
RTVSPropertyOp58
 70
     1
102
RTVSPropertyOp59
 70
     1
102
RTVSPropertyOp60
 70
     1
102
RTVSPropertyOp61
 70
     1
102
RTVSPropertyOp62
 70
     1
  0
XRECORD
  5
AB5B
102
{ACAD_REACTORS
330
AB5A
102
}
330
AB5A
100
AcDbXrecord
280
     1
102
RTVSPost2010Prop28
280
     0
102
RTVSPost2010PropOp28
 70
     1
102
RTVSPost2010Prop29
280
     1
102
RTVSPost2010PropOp29
 70
     1
102
RTVSPost2010Prop30
280
     1
102
RTVSPost2010PropOp30
 70
     1
102
RTVSPost2010Prop31
280
     0
102
RTVSPost2010PropOp31
 70
     1
102
RTVSPost2010Prop32
280
     0
102
RTVSPost2010PropOp32
 70
     1
102
RTVSPost2010Prop33
280
     0
102
RTVSPost2010PropOp33
 70
     1
102
RTVSPost2010Prop34
280
     0
102
RTVSPost2010PropOp34
 70
     1
102
RTVSPost2010Prop35
280
     0
102
RTVSPost2010PropOp35
 70
     1
102
RTVSPost2010Prop36
280
     0
102
RTVSPost2010PropOp36
 70
     1
102
RTVSPost2010Prop37
 90
       50
102
RTVSPost2010PropOp37
 70
     0
102
RTVSPost2010Prop38
140
0.0
102
RTVSPost2010PropOp38
 70
     0
102
RTVSPost2010Prop39
140
1.0
102
RTVSPost2010PropOp39
 70
     0
102
RTVSPost2010Prop40
 90
        0
102
RTVSPost2010PropOp40
 70
     0
102
RTVSPost2010Prop41ColorIndex
 90
       18
102
RTVSPost2010Prop41ColorRGB
 90
        0
102
RTVSPost2010PropOp41
 70
     0
102
RTVSPost2010Prop42
 90
       50
102
RTVSPost2010PropOp42
 70
     0
102
RTVSPost2010Prop43
 90
        3
102
RTVSPost2010PropOp43
 70
     0
102
RTVSPost2010Prop44ColorIndex
 90
        5
102
RTVSPost2010Prop44ColorRGB
 90
      255
102
RTVSPost2010PropOp44
 70
     0
102
RTVSPost2010Prop45
280
     0
102
RTVSPost2010PropOp45
 70
     1
102
RTVSPost2010Prop46
 90
       50
102
RTVSPost2010PropOp46
 70
     0
102
RTVSPost2010Prop47
 90
       50
102
RTVSPost2010PropOp47
 70
     0
102
RTVSPost2010Prop48
 90
       50
102
RTVSPost2010PropOp48
 70
     0
102
RTVSPost2010Prop49
280
     0
102
RTVSPost2010PropOp49
 70
     1
102
RTVSPost2010Prop50
 90
       50
102
RTVSPost2010PropOp50
 70
     0
102
RTVSPost2010Prop51ColorIndex
 90
      256
102
RTVSPost2010Prop51ColorRGB
 90
-16777216
102
RTVSPost2010PropOp51
 70
     0
102
RTVSPost2010Prop52
140
1.0
102
RTVSPost2010PropOp52
 70
     0
102
RTVSPost2010Prop53
 90
        2
102
RTVSPost2010PropOp53
 70
     0
102
RTVSPost2010Prop54
  1
strokes_ogs.tif
102
RTVSPost2010PropOp54
 70
     0
102
RTVSPost2010Prop55
280
     0
102
RTVSPost2010PropOp55
 70
     1
102
RTVSPost2010Prop56
140
1.0
102
RTVSPost2010PropOp56
 70
     0
102
RTVSPost2010Prop57
140
1.0
102
RTVSPost2010PropOp57
 70
     0
102
RTVSPropertyOp0
 70
     0
102
RTVSPropertyOp1
 70
     0
102
RTVSPropertyOp2
 70
     0
102
RTVSPropertyOp3
 70
     0
102
RTVSPropertyOp4
 70
     0
102
RTVSPropertyOp5
 70
     0
102
RTVSPropertyOp6
 70
     0
102
RTVSPropertyOp7
 70
     0
102
RTVSPropertyOp8
 70
     0
102
RTVSPropertyOp9
 70
     0
102
RTVSPropertyOp10
 70
     0
102
RTVSPropertyOp11
 70
     0
102
RTVSPropertyOp12
 70
     0
102
RTVSPropertyOp13
 70
     0
102
RTVSPropertyOp14
 70
     2
102
RTVSPropertyOp15
 70
     0
102
RTVSPropertyOp16
 70
     0
102
RTVSPropertyOp17
 70
     0
102
RTVSPropertyOp18
 70
     0
102
RTVSPropertyOp19
 70
     0
102
RTVSPropertyOp20
 70
     0
102
RTVSPropertyOp21
 70
     0
102
RTVSPropertyOp22
 70
     0
102
RTVSPropertyOp23
 70
     0
102
RTVSPropertyOp24
 70
     0
102
RTVSPropertyOp25
 70
     0
102
RTVSPropertyOp26
 70
     0
102
RTVSPropertyOp27
 70
     0
102
RTVSPropertyOp28
 70
     1
102
RTVSPropertyOp29
 70
     1
102
RTVSPropertyOp30
 70
     1
102
RTVSPropertyOp31
 70
     1
102
RTVSPropertyOp32
 70
     1
102
RTVSPropertyOp33
 70
     1
102
RTVSPropertyOp34
 70
     1
102
RTVSPropertyOp35
 70
     1
102
RTVSPropertyOp36
 70
     1
102
RTVSPropertyOp37
 70
     0
102
RTVSPropertyOp38
 70
     0
102
RTVSPropertyOp39
 70
     0
102
RTVSPropertyOp40
 70
     0
102
RTVSPropertyOp41
 70
     0
102
RTVSPropertyOp42
 70
     0
102
RTVSPropertyOp43
 70
     0
102
RTVSPropertyOp44
 70
     0
102
RTVSPropertyOp45
 70
     1
102
RTVSPropertyOp46
 70
     0
102
RTVSPropertyOp47
 70
     0
102
RTVSPropertyOp48
 70
     0
102
RTVSPropertyOp49
 70
     1
102
RTVSPropertyOp50
 70
     0
102
RTVSPropertyOp51
 70
     0
102
RTVSPropertyOp52
 70
     0
102
RTVSPropertyOp53
 70
     0
102
RTVSPropertyOp54
 70
     0
102
RTVSPropertyOp55
 70
     1
102
RTVSPropertyOp56
 70
     0
102
RTVSPropertyOp57
 70
     0
102
RTVSPropertyOp58
 70
     0
102
RTVSPropertyOp59
 70
     0
102
RTVSPropertyOp60
 70
     0
102
RTVSPropertyOp61
 70
     0
102
RTVSPropertyOp62
 70
     0
  0
XRECORD
  5
AB49
102
{ACAD_REACTORS
330
AB48
102
}
330
AB48
100
AcDbXrecord
280
     1
102
RTVSPost2010Prop28
280
     0
102
RTVSPost2010PropOp28
 70
     1
102
RTVSPost2010Prop29
280
     1
102
RTVSPost2010PropOp29
 70
     1
102
RTVSPost2010Prop30
280
     1
102
RTVSPost2010PropOp30
 70
     1
102
RTVSPost2010Prop31
280
     0
102
RTVSPost2010PropOp31
 70
     1
102
RTVSPost2010Prop32
280
     0
102
RTVSPost2010PropOp32
 70
     1
102
RTVSPost2010Prop33
280
     0
102
RTVSPost2010PropOp33
 70
     1
102
RTVSPost2010Prop34
280
     0
102
RTVSPost2010PropOp34
 70
     1
102
RTVSPost2010Prop35
280
     0
102
RTVSPost2010PropOp35
 70
     1
102
RTVSPost2010Prop36
280
     0
102
RTVSPost2010PropOp36
 70
     1
102
RTVSPost2010Prop37
 90
       50
102
RTVSPost2010PropOp37
 70
     1
102
RTVSPost2010Prop38
140
0.0
102
RTVSPost2010PropOp38
 70
     1
102
RTVSPost2010Prop39
140
1.0
102
RTVSPost2010PropOp39
 70
     1
102
RTVSPost2010Prop40
 90
        0
102
RTVSPost2010PropOp40
 70
     1
102
RTVSPost2010Prop41ColorIndex
 90
       18
102
RTVSPost2010Prop41ColorRGB
 90
        0
102
RTVSPost2010PropOp41
 70
     1
102
RTVSPost2010Prop42
 90
       50
102
RTVSPost2010PropOp42
 70
     1
102
RTVSPost2010Prop43
 90
        3
102
RTVSPost2010PropOp43
 70
     1
102
RTVSPost2010Prop44ColorIndex
 90
        5
102
RTVSPost2010Prop44ColorRGB
 90
      255
102
RTVSPost2010PropOp44
 70
     1
102
RTVSPost2010Prop45
280
     0
102
RTVSPost2010PropOp45
 70
     1
102
RTVSPost2010Prop46
 90
       50
102
RTVSPost2010PropOp46
 70
     1
102
RTVSPost2010Prop47
 90
       50
102
RTVSPost2010PropOp47
 70
     1
102
RTVSPost2010Prop48
 90
       50
102
RTVSPost2010PropOp48
 70
     1
102
RTVSPost2010Prop49
280
     0
102
RTVSPost2010PropOp49
 70
     1
102
RTVSPost2010Prop50
 90
       50
102
RTVSPost2010PropOp50
 70
     1
102
RTVSPost2010Prop51ColorIndex
 90
      256
102
RTVSPost2010Prop51ColorRGB
 90
-16777216
102
RTVSPost2010PropOp51
 70
     0
102
RTVSPost2010Prop52
140
1.0
102
RTVSPost2010PropOp52
 70
     0
102
RTVSPost2010Prop53
 90
        2
102
RTVSPost2010PropOp53
 70
     1
102
RTVSPost2010Prop54
  1
strokes_ogs.tif
102
RTVSPost2010PropOp54
 70
     1
102
RTVSPost2010Prop55
280
     0
102
RTVSPost2010PropOp55
 70
     1
102
RTVSPost2010Prop56
140
1.0
102
RTVSPost2010PropOp56
 70
     1
102
RTVSPost2010Prop57
140
1.0
102
RTVSPost2010PropOp57
 70
     1
102
RTVSPropertyOp0
 70
     1
102
RTVSPropertyOp1
 70
     1
102
RTVSPropertyOp2
 70
     1
102
RTVSPropertyOp3
 70
     1
102
RTVSPropertyOp4
 70
     1
102
RTVSPropertyOp5
 70
     1
102
RTVSPropertyOp6
 70
     1
102
RTVSPropertyOp7
 70
     1
102
RTVSPropertyOp8
 70
     1
102
RTVSPropertyOp9
 70
     1
102
RTVSPropertyOp10
 70
     1
102
RTVSPropertyOp11
 70
     1
102
RTVSPropertyOp12
 70
     1
102
RTVSPropertyOp13
 70
     1
102
RTVSPropertyOp14
 70
     1
102
RTVSPropertyOp15
 70
     1
102
RTVSPropertyOp16
 70
     1
102
RTVSPropertyOp17
 70
     1
102
RTVSPropertyOp18
 70
     1
102
RTVSPropertyOp19
 70
     1
102
RTVSPropertyOp20
 70
     1
102
RTVSPropertyOp21
 70
     1
102
RTVSPropertyOp22
 70
     1
102
RTVSPropertyOp23
 70
     1
102
RTVSPropertyOp24
 70
     1
102
RTVSPropertyOp25
 70
     1
102
RTVSPropertyOp26
 70
     1
102
RTVSPropertyOp27
 70
     1
102
RTVSPropertyOp28
 70
     1
102
RTVSPropertyOp29
 70
     1
102
RTVSPropertyOp30
 70
     1
102
RTVSPropertyOp31
 70
     1
102
RTVSPropertyOp32
 70
     1
102
RTVSPropertyOp33
 70
     1
102
RTVSPropertyOp34
 70
     1
102
RTVSPropertyOp35
 70
     1
102
RTVSPropertyOp36
 70
     1
102
RTVSPropertyOp37
 70
     1
102
RTVSPropertyOp38
 70
     1
102
RTVSPropertyOp39
 70
     1
102
RTVSPropertyOp40
 70
     1
102
RTVSPropertyOp41
 70
     1
102
RTVSPropertyOp42
 70
     1
102
RTVSPropertyOp43
 70
     1
102
RTVSPropertyOp44
 70
     1
102
RTVSPropertyOp45
 70
     1
102
RTVSPropertyOp46
 70
     1
102
RTVSPropertyOp47
 70
     1
102
RTVSPropertyOp48
 70
     1
102
RTVSPropertyOp49
 70
     1
102
RTVSPropertyOp50
 70
     1
102
RTVSPropertyOp51
 70
     0
102
RTVSPropertyOp52
 70
     0
102
RTVSPropertyOp53
 70
     1
102
RTVSPropertyOp54
 70
     1
102
RTVSPropertyOp55
 70
     1
102
RTVSPropertyOp56
 70
     1
102
RTVSPropertyOp57
 70
     1
102
RTVSPropertyOp58
 70
     1
102
RTVSPropertyOp59
 70
     1
102
RTVSPropertyOp60
 70
     1
102
RTVSPropertyOp61
 70
     1
102
RTVSPropertyOp62
 70
     1
  0
XRECORD
  5
AB2D
102
{ACAD_REACTORS
330
AB2C
102
}
330
AB2C
100
AcDbXrecord
280
     1
102
RTVSPost2010Prop28
280
     0
102
RTVSPost2010PropOp28
 70
     1
102
RTVSPost2010Prop29
280
     1
102
RTVSPost2010PropOp29
 70
     1
102
RTVSPost2010Prop30
280
     1
102
RTVSPost2010PropOp30
 70
     1
102
RTVSPost2010Prop31
280
     0
102
RTVSPost2010PropOp31
 70
     1
102
RTVSPost2010Prop32
280
     0
102
RTVSPost2010PropOp32
 70
     1
102
RTVSPost2010Prop33
280
     0
102
RTVSPost2010PropOp33
 70
     1
102
RTVSPost2010Prop34
280
     0
102
RTVSPost2010PropOp34
 70
     1
102
RTVSPost2010Prop35
280
     0
102
RTVSPost2010PropOp35
 70
     1
102
RTVSPost2010Prop36
280
     0
102
RTVSPost2010PropOp36
 70
     1
102
RTVSPost2010Prop37
 90
       50
102
RTVSPost2010PropOp37
 70
     1
102
RTVSPost2010Prop38
140
0.0
102
RTVSPost2010PropOp38
 70
     1
102
RTVSPost2010Prop39
140
1.0
102
RTVSPost2010PropOp39
 70
     1
102
RTVSPost2010Prop40
 90
        0
102
RTVSPost2010PropOp40
 70
     1
102
RTVSPost2010Prop41ColorIndex
 90
       18
102
RTVSPost2010Prop41ColorRGB
 90
        0
102
RTVSPost2010PropOp41
 70
     1
102
RTVSPost2010Prop42
 90
       50
102
RTVSPost2010PropOp42
 70
     1
102
RTVSPost2010Prop43
 90
        3
102
RTVSPost2010PropOp43
 70
     1
102
RTVSPost2010Prop44ColorIndex
 90
        5
102
RTVSPost2010Prop44ColorRGB
 90
      255
102
RTVSPost2010PropOp44
 70
     1
102
RTVSPost2010Prop45
280
     0
102
RTVSPost2010PropOp45
 70
     1
102
RTVSPost2010Prop46
 90
       50
102
RTVSPost2010PropOp46
 70
     1
102
RTVSPost2010Prop47
 90
       50
102
RTVSPost2010PropOp47
 70
     1
102
RTVSPost2010Prop48
 90
       50
102
RTVSPost2010PropOp48
 70
     1
102
RTVSPost2010Prop49
280
     0
102
RTVSPost2010PropOp49
 70
     1
102
RTVSPost2010Prop50
 90
       50
102
RTVSPost2010PropOp50
 70
     1
102
RTVSPost2010Prop51ColorIndex
 90
      256
102
RTVSPost2010Prop51ColorRGB
 90
-16777216
102
RTVSPost2010PropOp51
 70
     0
102
RTVSPost2010Prop52
140
1.0
102
RTVSPost2010PropOp52
 70
     0
102
RTVSPost2010Prop53
 90
        2
102
RTVSPost2010PropOp53
 70
     1
102
RTVSPost2010Prop54
  1
strokes_ogs.tif
102
RTVSPost2010PropOp54
 70
     1
102
RTVSPost2010Prop55
280
     0
102
RTVSPost2010PropOp55
 70
     1
102
RTVSPost2010Prop56
140
1.0
102
RTVSPost2010PropOp56
 70
     1
102
RTVSPost2010Prop57
140
1.0
102
RTVSPost2010PropOp57
 70
     1
102
RTVSPropertyOp0
 70
     1
102
RTVSPropertyOp1
 70
     1
102
RTVSPropertyOp2
 70
     1
102
RTVSPropertyOp3
 70
     1
102
RTVSPropertyOp4
 70
     1
102
RTVSPropertyOp5
 70
     1
102
RTVSPropertyOp6
 70
     1
102
RTVSPropertyOp7
 70
     1
102
RTVSPropertyOp8
 70
     1
102
RTVSPropertyOp9
 70
     1
102
RTVSPropertyOp10
 70
     1
102
RTVSPropertyOp11
 70
     1
102
RTVSPropertyOp12
 70
     1
102
RTVSPropertyOp13
 70
     1
102
RTVSPropertyOp14
 70
     1
102
RTVSPropertyOp15
 70
     1
102
RTVSPropertyOp16
 70
     1
102
RTVSPropertyOp17
 70
     1
102
RTVSPropertyOp18
 70
     1
102
RTVSPropertyOp19
 70
     1
102
RTVSPropertyOp20
 70
     1
102
RTVSPropertyOp21
 70
     1
102
RTVSPropertyOp22
 70
     1
102
RTVSPropertyOp23
 70
     1
102
RTVSPropertyOp24
 70
     1
102
RTVSPropertyOp25
 70
     1
102
RTVSPropertyOp26
 70
     1
102
RTVSPropertyOp27
 70
     1
102
RTVSPropertyOp28
 70
     1
102
RTVSPropertyOp29
 70
     1
102
RTVSPropertyOp30
 70
     1
102
RTVSPropertyOp31
 70
     1
102
RTVSPropertyOp32
 70
     1
102
RTVSPropertyOp33
 70
     1
102
RTVSPropertyOp34
 70
     1
102
RTVSPropertyOp35
 70
     1
102
RTVSPropertyOp36
 70
     1
102
RTVSPropertyOp37
 70
     1
102
RTVSPropertyOp38
 70
     1
102
RTVSPropertyOp39
 70
     1
102
RTVSPropertyOp40
 70
     1
102
RTVSPropertyOp41
 70
     1
102
RTVSPropertyOp42
 70
     1
102
RTVSPropertyOp43
 70
     1
102
RTVSPropertyOp44
 70
     1
102
RTVSPropertyOp45
 70
     1
102
RTVSPropertyOp46
 70
     1
102
RTVSPropertyOp47
 70
     1
102
RTVSPropertyOp48
 70
     1
102
RTVSPropertyOp49
 70
     1
102
RTVSPropertyOp50
 70
     1
102
RTVSPropertyOp51
 70
     0
102
RTVSPropertyOp52
 70
     0
102
RTVSPropertyOp53
 70
     1
102
RTVSPropertyOp54
 70
     1
102
RTVSPropertyOp55
 70
     1
102
RTVSPropertyOp56
 70
     1
102
RTVSPropertyOp57
 70
     1
102
RTVSPropertyOp58
 70
     1
102
RTVSPropertyOp59
 70
     1
102
RTVSPropertyOp60
 70
     1
102
RTVSPropertyOp61
 70
     1
102
RTVSPropertyOp62
 70
     1
  0
XRECORD
  5
AB2F
102
{ACAD_REACTORS
330
AB2E
102
}
330
AB2E
100
AcDbXrecord
280
     1
102
RTVSPost2010Prop28
280
     0
102
RTVSPost2010PropOp28
 70
     1
102
RTVSPost2010Prop29
280
     1
102
RTVSPost2010PropOp29
 70
     1
102
RTVSPost2010Prop30
280
     1
102
RTVSPost2010PropOp30
 70
     1
102
RTVSPost2010Prop31
280
     0
102
RTVSPost2010PropOp31
 70
     1
102
RTVSPost2010Prop32
280
     0
102
RTVSPost2010PropOp32
 70
     1
102
RTVSPost2010Prop33
280
     0
102
RTVSPost2010PropOp33
 70
     1
102
RTVSPost2010Prop34
280
     0
102
RTVSPost2010PropOp34
 70
     1
102
RTVSPost2010Prop35
280
     0
102
RTVSPost2010PropOp35
 70
     1
102
RTVSPost2010Prop36
280
     0
102
RTVSPost2010PropOp36
 70
     1
102
RTVSPost2010Prop37
 90
       50
102
RTVSPost2010PropOp37
 70
     1
102
RTVSPost2010Prop38
140
0.0
102
RTVSPost2010PropOp38
 70
     1
102
RTVSPost2010Prop39
140
1.0
102
RTVSPost2010PropOp39
 70
     1
102
RTVSPost2010Prop40
 90
        0
102
RTVSPost2010PropOp40
 70
     1
102
RTVSPost2010Prop41ColorIndex
 90
       18
102
RTVSPost2010Prop41ColorRGB
 90
        0
102
RTVSPost2010PropOp41
 70
     1
102
RTVSPost2010Prop42
 90
       50
102
RTVSPost2010PropOp42
 70
     1
102
RTVSPost2010Prop43
 90
        3
102
RTVSPost2010PropOp43
 70
     1
102
RTVSPost2010Prop44ColorIndex
 90
        5
102
RTVSPost2010Prop44ColorRGB
 90
      255
102
RTVSPost2010PropOp44
 70
     1
102
RTVSPost2010Prop45
280
     0
102
RTVSPost2010PropOp45
 70
     1
102
RTVSPost2010Prop46
 90
       50
102
RTVSPost2010PropOp46
 70
     1
102
RTVSPost2010Prop47
 90
       50
102
RTVSPost2010PropOp47
 70
     1
102
RTVSPost2010Prop48
 90
       50
102
RTVSPost2010PropOp48
 70
     1
102
RTVSPost2010Prop49
280
     0
102
RTVSPost2010PropOp49
 70
     1
102
RTVSPost2010Prop50
 90
       50
102
RTVSPost2010PropOp50
 70
     1
102
RTVSPost2010Prop51ColorIndex
 90
      256
102
RTVSPost2010Prop51ColorRGB
 90
-16777216
102
RTVSPost2010PropOp51
 70
     0
102
RTVSPost2010Prop52
140
1.0
102
RTVSPost2010PropOp52
 70
     0
102
RTVSPost2010Prop53
 90
        2
102
RTVSPost2010PropOp53
 70
     1
102
RTVSPost2010Prop54
  1
strokes_ogs.tif
102
RTVSPost2010PropOp54
 70
     1
102
RTVSPost2010Prop55
280
     0
102
RTVSPost2010PropOp55
 70
     1
102
RTVSPost2010Prop56
140
1.0
102
RTVSPost2010PropOp56
 70
     1
102
RTVSPost2010Prop57
140
1.0
102
RTVSPost2010PropOp57
 70
     1
102
RTVSPropertyOp0
 70
     1
102
RTVSPropertyOp1
 70
     1
102
RTVSPropertyOp2
 70
     1
102
RTVSPropertyOp3
 70
     1
102
RTVSPropertyOp4
 70
     1
102
RTVSPropertyOp5
 70
     1
102
RTVSPropertyOp6
 70
     1
102
RTVSPropertyOp7
 70
     1
102
RTVSPropertyOp8
 70
     1
102
RTVSPropertyOp9
 70
     1
102
RTVSPropertyOp10
 70
     1
102
RTVSPropertyOp11
 70
     1
102
RTVSPropertyOp12
 70
     1
102
RTVSPropertyOp13
 70
     1
102
RTVSPropertyOp14
 70
     1
102
RTVSPropertyOp15
 70
     1
102
RTVSPropertyOp16
 70
     1
102
RTVSPropertyOp17
 70
     1
102
RTVSPropertyOp18
 70
     1
102
RTVSPropertyOp19
 70
     1
102
RTVSPropertyOp20
 70
     1
102
RTVSPropertyOp21
 70
     1
102
RTVSPropertyOp22
 70
     1
102
RTVSPropertyOp23
 70
     1
102
RTVSPropertyOp24
 70
     1
102
RTVSPropertyOp25
 70
     1
102
RTVSPropertyOp26
 70
     1
102
RTVSPropertyOp27
 70
     1
102
RTVSPropertyOp28
 70
     1
102
RTVSPropertyOp29
 70
     1
102
RTVSPropertyOp30
 70
     1
102
RTVSPropertyOp31
 70
     1
102
RTVSPropertyOp32
 70
     1
102
RTVSPropertyOp33
 70
     1
102
RTVSPropertyOp34
 70
     1
102
RTVSPropertyOp35
 70
     1
102
RTVSPropertyOp36
 70
     1
102
RTVSPropertyOp37
 70
     1
102
RTVSPropertyOp38
 70
     1
102
RTVSPropertyOp39
 70
     1
102
RTVSPropertyOp40
 70
     1
102
RTVSPropertyOp41
 70
     1
102
RTVSPropertyOp42
 70
     1
102
RTVSPropertyOp43
 70
     1
102
RTVSPropertyOp44
 70
     1
102
RTVSPropertyOp45
 70
     1
102
RTVSPropertyOp46
 70
     1
102
RTVSPropertyOp47
 70
     1
102
RTVSPropertyOp48
 70
     1
102
RTVSPropertyOp49
 70
     1
102
RTVSPropertyOp50
 70
     1
102
RTVSPropertyOp51
 70
     0
102
RTVSPropertyOp52
 70
     0
102
RTVSPropertyOp53
 70
     1
102
RTVSPropertyOp54
 70
     1
102
RTVSPropertyOp55
 70
     1
102
RTVSPropertyOp56
 70
     1
102
RTVSPropertyOp57
 70
     1
102
RTVSPropertyOp58
 70
     1
102
RTVSPropertyOp59
 70
     1
102
RTVSPropertyOp60
 70
     1
102
RTVSPropertyOp61
 70
     1
102
RTVSPropertyOp62
 70
     1
  0
XRECORD
  5
AB31
102
{ACAD_REACTORS
330
AB30
102
}
330
AB30
100
AcDbXrecord
280
     1
102
RTVSPost2010Prop28
280
     0
102
RTVSPost2010PropOp28
 70
     1
102
RTVSPost2010Prop29
280
     1
102
RTVSPost2010PropOp29
 70
     1
102
RTVSPost2010Prop30
280
     1
102
RTVSPost2010PropOp30
 70
     1
102
RTVSPost2010Prop31
280
     0
102
RTVSPost2010PropOp31
 70
     1
102
RTVSPost2010Prop32
280
     0
102
RTVSPost2010PropOp32
 70
     1
102
RTVSPost2010Prop33
280
     0
102
RTVSPost2010PropOp33
 70
     1
102
RTVSPost2010Prop34
280
     0
102
RTVSPost2010PropOp34
 70
     1
102
RTVSPost2010Prop35
280
     0
102
RTVSPost2010PropOp35
 70
     1
102
RTVSPost2010Prop36
280
     0
102
RTVSPost2010PropOp36
 70
     1
102
RTVSPost2010Prop37
 90
       50
102
RTVSPost2010PropOp37
 70
     1
102
RTVSPost2010Prop38
140
0.0
102
RTVSPost2010PropOp38
 70
     1
102
RTVSPost2010Prop39
140
1.0
102
RTVSPost2010PropOp39
 70
     1
102
RTVSPost2010Prop40
 90
        0
102
RTVSPost2010PropOp40
 70
     1
102
RTVSPost2010Prop41ColorIndex
 90
       18
102
RTVSPost2010Prop41ColorRGB
 90
        0
102
RTVSPost2010PropOp41
 70
     1
102
RTVSPost2010Prop42
 90
       50
102
RTVSPost2010PropOp42
 70
     1
102
RTVSPost2010Prop43
 90
        3
102
RTVSPost2010PropOp43
 70
     1
102
RTVSPost2010Prop44ColorIndex
 90
        5
102
RTVSPost2010Prop44ColorRGB
 90
      255
102
RTVSPost2010PropOp44
 70
     1
102
RTVSPost2010Prop45
280
     0
102
RTVSPost2010PropOp45
 70
     1
102
RTVSPost2010Prop46
 90
       50
102
RTVSPost2010PropOp46
 70
     1
102
RTVSPost2010Prop47
 90
       50
102
RTVSPost2010PropOp47
 70
     1
102
RTVSPost2010Prop48
 90
       50
102
RTVSPost2010PropOp48
 70
     1
102
RTVSPost2010Prop49
280
     0
102
RTVSPost2010PropOp49
 70
     1
102
RTVSPost2010Prop50
 90
       50
102
RTVSPost2010PropOp50
 70
     1
102
RTVSPost2010Prop51ColorIndex
 90
      256
102
RTVSPost2010Prop51ColorRGB
 90
-16777216
102
RTVSPost2010PropOp51
 70
     0
102
RTVSPost2010Prop52
140
1.0
102
RTVSPost2010PropOp52
 70
     0
102
RTVSPost2010Prop53
 90
        2
102
RTVSPost2010PropOp53
 70
     1
102
RTVSPost2010Prop54
  1
strokes_ogs.tif
102
RTVSPost2010PropOp54
 70
     1
102
RTVSPost2010Prop55
280
     0
102
RTVSPost2010PropOp55
 70
     1
102
RTVSPost2010Prop56
140
1.0
102
RTVSPost2010PropOp56
 70
     1
102
RTVSPost2010Prop57
140
1.0
102
RTVSPost2010PropOp57
 70
     1
102
RTVSPropertyOp0
 70
     1
102
RTVSPropertyOp1
 70
     1
102
RTVSPropertyOp2
 70
     1
102
RTVSPropertyOp3
 70
     1
102
RTVSPropertyOp4
 70
     1
102
RTVSPropertyOp5
 70
     1
102
RTVSPropertyOp6
 70
     1
102
RTVSPropertyOp7
 70
     1
102
RTVSPropertyOp8
 70
     1
102
RTVSPropertyOp9
 70
     1
102
RTVSPropertyOp10
 70
     1
102
RTVSPropertyOp11
 70
     1
102
RTVSPropertyOp12
 70
     1
102
RTVSPropertyOp13
 70
     1
102
RTVSPropertyOp14
 70
     1
102
RTVSPropertyOp15
 70
     1
102
RTVSPropertyOp16
 70
     1
102
RTVSPropertyOp17
 70
     1
102
RTVSPropertyOp18
 70
     1
102
RTVSPropertyOp19
 70
     1
102
RTVSPropertyOp20
 70
     1
102
RTVSPropertyOp21
 70
     1
102
RTVSPropertyOp22
 70
     1
102
RTVSPropertyOp23
 70
     1
102
RTVSPropertyOp24
 70
     1
102
RTVSPropertyOp25
 70
     1
102
RTVSPropertyOp26
 70
     1
102
RTVSPropertyOp27
 70
     1
102
RTVSPropertyOp28
 70
     1
102
RTVSPropertyOp29
 70
     1
102
RTVSPropertyOp30
 70
     1
102
RTVSPropertyOp31
 70
     1
102
RTVSPropertyOp32
 70
     1
102
RTVSPropertyOp33
 70
     1
102
RTVSPropertyOp34
 70
     1
102
RTVSPropertyOp35
 70
     1
102
RTVSPropertyOp36
 70
     1
102
RTVSPropertyOp37
 70
     1
102
RTVSPropertyOp38
 70
     1
102
RTVSPropertyOp39
 70
     1
102
RTVSPropertyOp40
 70
     1
102
RTVSPropertyOp41
 70
     1
102
RTVSPropertyOp42
 70
     1
102
RTVSPropertyOp43
 70
     1
102
RTVSPropertyOp44
 70
     1
102
RTVSPropertyOp45
 70
     1
102
RTVSPropertyOp46
 70
     1
102
RTVSPropertyOp47
 70
     1
102
RTVSPropertyOp48
 70
     1
102
RTVSPropertyOp49
 70
     1
102
RTVSPropertyOp50
 70
     1
102
RTVSPropertyOp51
 70
     0
102
RTVSPropertyOp52
 70
     0
102
RTVSPropertyOp53
 70
     1
102
RTVSPropertyOp54
 70
     1
102
RTVSPropertyOp55
 70
     1
102
RTVSPropertyOp56
 70
     1
102
RTVSPropertyOp57
 70
     1
102
RTVSPropertyOp58
 70
     1
102
RTVSPropertyOp59
 70
     1
102
RTVSPropertyOp60
 70
     1
102
RTVSPropertyOp61
 70
     1
102
RTVSPropertyOp62
 70
     1
  0
XRECORD
  5
AB33
102
{ACAD_REACTORS
330
AB32
102
}
330
AB32
100
AcDbXrecord
280
     1
102
RTVSPost2010Prop28
280
     0
102
RTVSPost2010PropOp28
 70
     1
102
RTVSPost2010Prop29
280
     1
102
RTVSPost2010PropOp29
 70
     1
102
RTVSPost2010Prop30
280
     1
102
RTVSPost2010PropOp30
 70
     1
102
RTVSPost2010Prop31
280
     0
102
RTVSPost2010PropOp31
 70
     1
102
RTVSPost2010Prop32
280
     0
102
RTVSPost2010PropOp32
 70
     1
102
RTVSPost2010Prop33
280
     0
102
RTVSPost2010PropOp33
 70
     1
102
RTVSPost2010Prop34
280
     0
102
RTVSPost2010PropOp34
 70
     1
102
RTVSPost2010Prop35
280
     0
102
RTVSPost2010PropOp35
 70
     1
102
RTVSPost2010Prop36
280
     0
102
RTVSPost2010PropOp36
 70
     1
102
RTVSPost2010Prop37
 90
       50
102
RTVSPost2010PropOp37
 70
     1
102
RTVSPost2010Prop38
140
0.0
102
RTVSPost2010PropOp38
 70
     1
102
RTVSPost2010Prop39
140
1.0
102
RTVSPost2010PropOp39
 70
     1
102
RTVSPost2010Prop40
 90
        0
102
RTVSPost2010PropOp40
 70
     1
102
RTVSPost2010Prop41ColorIndex
 90
       18
102
RTVSPost2010Prop41ColorRGB
 90
        0
102
RTVSPost2010PropOp41
 70
     1
102
RTVSPost2010Prop42
 90
       50
102
RTVSPost2010PropOp42
 70
     1
102
RTVSPost2010Prop43
 90
        3
102
RTVSPost2010PropOp43
 70
     1
102
RTVSPost2010Prop44ColorIndex
 90
        5
102
RTVSPost2010Prop44ColorRGB
 90
      255
102
RTVSPost2010PropOp44
 70
     1
102
RTVSPost2010Prop45
280
     0
102
RTVSPost2010PropOp45
 70
     1
102
RTVSPost2010Prop46
 90
       50
102
RTVSPost2010PropOp46
 70
     1
102
RTVSPost2010Prop47
 90
       50
102
RTVSPost2010PropOp47
 70
     1
102
RTVSPost2010Prop48
 90
       50
102
RTVSPost2010PropOp48
 70
     1
102
RTVSPost2010Prop49
280
     0
102
RTVSPost2010PropOp49
 70
     1
102
RTVSPost2010Prop50
 90
       50
102
RTVSPost2010PropOp50
 70
     1
102
RTVSPost2010Prop51ColorIndex
 90
      256
102
RTVSPost2010Prop51ColorRGB
 90
-16777216
102
RTVSPost2010PropOp51
 70
     0
102
RTVSPost2010Prop52
140
1.0
102
RTVSPost2010PropOp52
 70
     0
102
RTVSPost2010Prop53
 90
        2
102
RTVSPost2010PropOp53
 70
     1
102
RTVSPost2010Prop54
  1
strokes_ogs.tif
102
RTVSPost2010PropOp54
 70
     1
102
RTVSPost2010Prop55
280
     0
102
RTVSPost2010PropOp55
 70
     1
102
RTVSPost2010Prop56
140
1.0
102
RTVSPost2010PropOp56
 70
     1
102
RTVSPost2010Prop57
140
1.0
102
RTVSPost2010PropOp57
 70
     1
102
RTVSPropertyOp0
 70
     1
102
RTVSPropertyOp1
 70
     1
102
RTVSPropertyOp2
 70
     1
102
RTVSPropertyOp3
 70
     1
102
RTVSPropertyOp4
 70
     1
102
RTVSPropertyOp5
 70
     1
102
RTVSPropertyOp6
 70
     1
102
RTVSPropertyOp7
 70
     1
102
RTVSPropertyOp8
 70
     1
102
RTVSPropertyOp9
 70
     1
102
RTVSPropertyOp10
 70
     1
102
RTVSPropertyOp11
 70
     1
102
RTVSPropertyOp12
 70
     1
102
RTVSPropertyOp13
 70
     1
102
RTVSPropertyOp14
 70
     1
102
RTVSPropertyOp15
 70
     1
102
RTVSPropertyOp16
 70
     1
102
RTVSPropertyOp17
 70
     1
102
RTVSPropertyOp18
 70
     1
102
RTVSPropertyOp19
 70
     1
102
RTVSPropertyOp20
 70
     1
102
RTVSPropertyOp21
 70
     1
102
RTVSPropertyOp22
 70
     1
102
RTVSPropertyOp23
 70
     1
102
RTVSPropertyOp24
 70
     1
102
RTVSPropertyOp25
 70
     1
102
RTVSPropertyOp26
 70
     1
102
RTVSPropertyOp27
 70
     1
102
RTVSPropertyOp28
 70
     1
102
RTVSPropertyOp29
 70
     1
102
RTVSPropertyOp30
 70
     1
102
RTVSPropertyOp31
 70
     1
102
RTVSPropertyOp32
 70
     1
102
RTVSPropertyOp33
 70
     1
102
RTVSPropertyOp34
 70
     1
102
RTVSPropertyOp35
 70
     1
102
RTVSPropertyOp36
 70
     1
102
RTVSPropertyOp37
 70
     1
102
RTVSPropertyOp38
 70
     1
102
RTVSPropertyOp39
 70
     1
102
RTVSPropertyOp40
 70
     1
102
RTVSPropertyOp41
 70
     1
102
RTVSPropertyOp42
 70
     1
102
RTVSPropertyOp43
 70
     1
102
RTVSPropertyOp44
 70
     1
102
RTVSPropertyOp45
 70
     1
102
RTVSPropertyOp46
 70
     1
102
RTVSPropertyOp47
 70
     1
102
RTVSPropertyOp48
 70
     1
102
RTVSPropertyOp49
 70
     1
102
RTVSPropertyOp50
 70
     1
102
RTVSPropertyOp51
 70
     0
102
RTVSPropertyOp52
 70
     0
102
RTVSPropertyOp53
 70
     1
102
RTVSPropertyOp54
 70
     1
102
RTVSPropertyOp55
 70
     1
102
RTVSPropertyOp56
 70
     1
102
RTVSPropertyOp57
 70
     1
102
RTVSPropertyOp58
 70
     1
102
RTVSPropertyOp59
 70
     1
102
RTVSPropertyOp60
 70
     1
102
RTVSPropertyOp61
 70
     1
102
RTVSPropertyOp62
 70
     1
  0
XRECORD
  5
AB3B
102
{ACAD_REACTORS
330
AB3A
102
}
330
AB3A
100
AcDbXrecord
280
     1
102
RTVSPost2010Prop28
280
     0
102
RTVSPost2010PropOp28
 70
     1
102
RTVSPost2010Prop29
280
     1
102
RTVSPost2010PropOp29
 70
     1
102
RTVSPost2010Prop30
280
     1
102
RTVSPost2010PropOp30
 70
     1
102
RTVSPost2010Prop31
280
     0
102
RTVSPost2010PropOp31
 70
     1
102
RTVSPost2010Prop32
280
     0
102
RTVSPost2010PropOp32
 70
     1
102
RTVSPost2010Prop33
280
     0
102
RTVSPost2010PropOp33
 70
     1
102
RTVSPost2010Prop34
280
     0
102
RTVSPost2010PropOp34
 70
     1
102
RTVSPost2010Prop35
280
     0
102
RTVSPost2010PropOp35
 70
     1
102
RTVSPost2010Prop36
280
     0
102
RTVSPost2010PropOp36
 70
     1
102
RTVSPost2010Prop37
 90
       50
102
RTVSPost2010PropOp37
 70
     1
102
RTVSPost2010Prop38
140
0.0
102
RTVSPost2010PropOp38
 70
     1
102
RTVSPost2010Prop39
140
1.0
102
RTVSPost2010PropOp39
 70
     1
102
RTVSPost2010Prop40
 90
        0
102
RTVSPost2010PropOp40
 70
     1
102
RTVSPost2010Prop41ColorIndex
 90
       18
102
RTVSPost2010Prop41ColorRGB
 90
        0
102
RTVSPost2010PropOp41
 70
     1
102
RTVSPost2010Prop42
 90
       50
102
RTVSPost2010PropOp42
 70
     1
102
RTVSPost2010Prop43
 90
        3
102
RTVSPost2010PropOp43
 70
     1
102
RTVSPost2010Prop44ColorIndex
 90
        5
102
RTVSPost2010Prop44ColorRGB
 90
      255
102
RTVSPost2010PropOp44
 70
     1
102
RTVSPost2010Prop45
280
     0
102
RTVSPost2010PropOp45
 70
     1
102
RTVSPost2010Prop46
 90
       50
102
RTVSPost2010PropOp46
 70
     1
102
RTVSPost2010Prop47
 90
       50
102
RTVSPost2010PropOp47
 70
     1
102
RTVSPost2010Prop48
 90
       50
102
RTVSPost2010PropOp48
 70
     1
102
RTVSPost2010Prop49
280
     0
102
RTVSPost2010PropOp49
 70
     1
102
RTVSPost2010Prop50
 90
       50
102
RTVSPost2010PropOp50
 70
     1
102
RTVSPost2010Prop51ColorIndex
 90
      256
102
RTVSPost2010Prop51ColorRGB
 90
-16777216
102
RTVSPost2010PropOp51
 70
     0
102
RTVSPost2010Prop52
140
1.0
102
RTVSPost2010PropOp52
 70
     0
102
RTVSPost2010Prop53
 90
        2
102
RTVSPost2010PropOp53
 70
     1
102
RTVSPost2010Prop54
  1
strokes_ogs.tif
102
RTVSPost2010PropOp54
 70
     1
102
RTVSPost2010Prop55
280
     0
102
RTVSPost2010PropOp55
 70
     1
102
RTVSPost2010Prop56
140
1.0
102
RTVSPost2010PropOp56
 70
     1
102
RTVSPost2010Prop57
140
1.0
102
RTVSPost2010PropOp57
 70
     1
102
RTVSPropertyOp0
 70
     1
102
RTVSPropertyOp1
 70
     1
102
RTVSPropertyOp2
 70
     1
102
RTVSPropertyOp3
 70
     1
102
RTVSPropertyOp4
 70
     1
102
RTVSPropertyOp5
 70
     1
102
RTVSPropertyOp6
 70
     1
102
RTVSPropertyOp7
 70
     1
102
RTVSPropertyOp8
 70
     1
102
RTVSPropertyOp9
 70
     1
102
RTVSPropertyOp10
 70
     1
102
RTVSPropertyOp11
 70
     1
102
RTVSPropertyOp12
 70
     1
102
RTVSPropertyOp13
 70
     1
102
RTVSPropertyOp14
 70
     1
102
RTVSPropertyOp15
 70
     1
102
RTVSPropertyOp16
 70
     1
102
RTVSPropertyOp17
 70
     1
102
RTVSPropertyOp18
 70
     1
102
RTVSPropertyOp19
 70
     1
102
RTVSPropertyOp20
 70
     1
102
RTVSPropertyOp21
 70
     1
102
RTVSPropertyOp22
 70
     1
102
RTVSPropertyOp23
 70
     1
102
RTVSPropertyOp24
 70
     1
102
RTVSPropertyOp25
 70
     1
102
RTVSPropertyOp26
 70
     1
102
RTVSPropertyOp27
 70
     1
102
RTVSPropertyOp28
 70
     1
102
RTVSPropertyOp29
 70
     1
102
RTVSPropertyOp30
 70
     1
102
RTVSPropertyOp31
 70
     1
102
RTVSPropertyOp32
 70
     1
102
RTVSPropertyOp33
 70
     1
102
RTVSPropertyOp34
 70
     1
102
RTVSPropertyOp35
 70
     1
102
RTVSPropertyOp36
 70
     1
102
RTVSPropertyOp37
 70
     1
102
RTVSPropertyOp38
 70
     1
102
RTVSPropertyOp39
 70
     1
102
RTVSPropertyOp40
 70
     1
102
RTVSPropertyOp41
 70
     1
102
RTVSPropertyOp42
 70
     1
102
RTVSPropertyOp43
 70
     1
102
RTVSPropertyOp44
 70
     1
102
RTVSPropertyOp45
 70
     1
102
RTVSPropertyOp46
 70
     1
102
RTVSPropertyOp47
 70
     1
102
RTVSPropertyOp48
 70
     1
102
RTVSPropertyOp49
 70
     1
102
RTVSPropertyOp50
 70
     1
102
RTVSPropertyOp51
 70
     0
102
RTVSPropertyOp52
 70
     0
102
RTVSPropertyOp53
 70
     1
102
RTVSPropertyOp54
 70
     1
102
RTVSPropertyOp55
 70
     1
102
RTVSPropertyOp56
 70
     1
102
RTVSPropertyOp57
 70
     1
102
RTVSPropertyOp58
 70
     1
102
RTVSPropertyOp59
 70
     1
102
RTVSPropertyOp60
 70
     1
102
RTVSPropertyOp61
 70
     1
102
RTVSPropertyOp62
 70
     1
  0
XRECORD
  5
AB57
102
{ACAD_REACTORS
330
AB56
102
}
330
AB56
100
AcDbXrecord
280
     1
102
RTVSPost2010Prop28
280
     0
102
RTVSPost2010PropOp28
 70
     1
102
RTVSPost2010Prop29
280
     1
102
RTVSPost2010PropOp29
 70
     1
102
RTVSPost2010Prop30
280
     1
102
RTVSPost2010PropOp30
 70
     1
102
RTVSPost2010Prop31
280
     0
102
RTVSPost2010PropOp31
 70
     1
102
RTVSPost2010Prop32
280
     0
102
RTVSPost2010PropOp32
 70
     1
102
RTVSPost2010Prop33
280
     0
102
RTVSPost2010PropOp33
 70
     1
102
RTVSPost2010Prop34
280
     0
102
RTVSPost2010PropOp34
 70
     1
102
RTVSPost2010Prop35
280
     0
102
RTVSPost2010PropOp35
 70
     1
102
RTVSPost2010Prop36
280
     0
102
RTVSPost2010PropOp36
 70
     1
102
RTVSPost2010Prop37
 90
       50
102
RTVSPost2010PropOp37
 70
     0
102
RTVSPost2010Prop38
140
0.0
102
RTVSPost2010PropOp38
 70
     0
102
RTVSPost2010Prop39
140
1.0
102
RTVSPost2010PropOp39
 70
     0
102
RTVSPost2010Prop40
 90
        0
102
RTVSPost2010PropOp40
 70
     0
102
RTVSPost2010Prop41ColorIndex
 90
       18
102
RTVSPost2010Prop41ColorRGB
 90
        0
102
RTVSPost2010PropOp41
 70
     0
102
RTVSPost2010Prop42
 90
       50
102
RTVSPost2010PropOp42
 70
     0
102
RTVSPost2010Prop43
 90
        3
102
RTVSPost2010PropOp43
 70
     0
102
RTVSPost2010Prop44ColorIndex
 90
        5
102
RTVSPost2010Prop44ColorRGB
 90
      255
102
RTVSPost2010PropOp44
 70
     0
102
RTVSPost2010Prop45
280
     0
102
RTVSPost2010PropOp45
 70
     1
102
RTVSPost2010Prop46
 90
       50
102
RTVSPost2010PropOp46
 70
     0
102
RTVSPost2010Prop47
 90
       50
102
RTVSPost2010PropOp47
 70
     0
102
RTVSPost2010Prop48
 90
       50
102
RTVSPost2010PropOp48
 70
     0
102
RTVSPost2010Prop49
280
     0
102
RTVSPost2010PropOp49
 70
     1
102
RTVSPost2010Prop50
 90
       50
102
RTVSPost2010PropOp50
 70
     0
102
RTVSPost2010Prop51ColorIndex
 90
      256
102
RTVSPost2010Prop51ColorRGB
 90
-16777216
102
RTVSPost2010PropOp51
 70
     0
102
RTVSPost2010Prop52
140
1.0
102
RTVSPost2010PropOp52
 70
     0
102
RTVSPost2010Prop53
 90
        2
102
RTVSPost2010PropOp53
 70
     0
102
RTVSPost2010Prop54
  1
strokes_ogs.tif
102
RTVSPost2010PropOp54
 70
     0
102
RTVSPost2010Prop55
280
     0
102
RTVSPost2010PropOp55
 70
     1
102
RTVSPost2010Prop56
140
1.0
102
RTVSPost2010PropOp56
 70
     0
102
RTVSPost2010Prop57
140
1.0
102
RTVSPost2010PropOp57
 70
     0
102
RTVSPropertyOp0
 70
     0
102
RTVSPropertyOp1
 70
     0
102
RTVSPropertyOp2
 70
     0
102
RTVSPropertyOp3
 70
     0
102
RTVSPropertyOp4
 70
     0
102
RTVSPropertyOp5
 70
     0
102
RTVSPropertyOp6
 70
     0
102
RTVSPropertyOp7
 70
     0
102
RTVSPropertyOp8
 70
     0
102
RTVSPropertyOp9
 70
     0
102
RTVSPropertyOp10
 70
     0
102
RTVSPropertyOp11
 70
     0
102
RTVSPropertyOp12
 70
     0
102
RTVSPropertyOp13
 70
     0
102
RTVSPropertyOp14
 70
     2
102
RTVSPropertyOp15
 70
     0
102
RTVSPropertyOp16
 70
     0
102
RTVSPropertyOp17
 70
     0
102
RTVSPropertyOp18
 70
     0
102
RTVSPropertyOp19
 70
     0
102
RTVSPropertyOp20
 70
     0
102
RTVSPropertyOp21
 70
     0
102
RTVSPropertyOp22
 70
     0
102
RTVSPropertyOp23
 70
     0
102
RTVSPropertyOp24
 70
     0
102
RTVSPropertyOp25
 70
     0
102
RTVSPropertyOp26
 70
     0
102
RTVSPropertyOp27
 70
     0
102
RTVSPropertyOp28
 70
     1
102
RTVSPropertyOp29
 70
     1
102
RTVSPropertyOp30
 70
     1
102
RTVSPropertyOp31
 70
     1
102
RTVSPropertyOp32
 70
     1
102
RTVSPropertyOp33
 70
     1
102
RTVSPropertyOp34
 70
     1
102
RTVSPropertyOp35
 70
     1
102
RTVSPropertyOp36
 70
     1
102
RTVSPropertyOp37
 70
     0
102
RTVSPropertyOp38
 70
     0
102
RTVSPropertyOp39
 70
     0
102
RTVSPropertyOp40
 70
     0
102
RTVSPropertyOp41
 70
     0
102
RTVSPropertyOp42
 70
     0
102
RTVSPropertyOp43
 70
     0
102
RTVSPropertyOp44
 70
     0
102
RTVSPropertyOp45
 70
     1
102
RTVSPropertyOp46
 70
     0
102
RTVSPropertyOp47
 70
     0
102
RTVSPropertyOp48
 70
     0
102
RTVSPropertyOp49
 70
     1
102
RTVSPropertyOp50
 70
     0
102
RTVSPropertyOp51
 70
     0
102
RTVSPropertyOp52
 70
     0
102
RTVSPropertyOp53
 70
     0
102
RTVSPropertyOp54
 70
     0
102
RTVSPropertyOp55
 70
     1
102
RTVSPropertyOp56
 70
     0
102
RTVSPropertyOp57
 70
     0
102
RTVSPropertyOp58
 70
     0
102
RTVSPropertyOp59
 70
     0
102
RTVSPropertyOp60
 70
     0
102
RTVSPropertyOp61
 70
     0
102
RTVSPropertyOp62
 70
     0
  0
XRECORD
  5
AB47
102
{ACAD_REACTORS
330
AB46
102
}
330
AB46
100
AcDbXrecord
280
     1
102
RTVSPost2010Prop28
280
     0
102
RTVSPost2010PropOp28
 70
     1
102
RTVSPost2010Prop29
280
     1
102
RTVSPost2010PropOp29
 70
     1
102
RTVSPost2010Prop30
280
     1
102
RTVSPost2010PropOp30
 70
     1
102
RTVSPost2010Prop31
280
     0
102
RTVSPost2010PropOp31
 70
     1
102
RTVSPost2010Prop32
280
     0
102
RTVSPost2010PropOp32
 70
     1
102
RTVSPost2010Prop33
280
     0
102
RTVSPost2010PropOp33
 70
     1
102
RTVSPost2010Prop34
280
     0
102
RTVSPost2010PropOp34
 70
     1
102
RTVSPost2010Prop35
280
     0
102
RTVSPost2010PropOp35
 70
     1
102
RTVSPost2010Prop36
280
     0
102
RTVSPost2010PropOp36
 70
     1
102
RTVSPost2010Prop37
 90
       50
102
RTVSPost2010PropOp37
 70
     1
102
RTVSPost2010Prop38
140
0.0
102
RTVSPost2010PropOp38
 70
     1
102
RTVSPost2010Prop39
140
1.0
102
RTVSPost2010PropOp39
 70
     1
102
RTVSPost2010Prop40
 90
        0
102
RTVSPost2010PropOp40
 70
     1
102
RTVSPost2010Prop41ColorIndex
 90
       18
102
RTVSPost2010Prop41ColorRGB
 90
        0
102
RTVSPost2010PropOp41
 70
     1
102
RTVSPost2010Prop42
 90
       50
102
RTVSPost2010PropOp42
 70
     1
102
RTVSPost2010Prop43
 90
        3
102
RTVSPost2010PropOp43
 70
     1
102
RTVSPost2010Prop44ColorIndex
 90
        5
102
RTVSPost2010Prop44ColorRGB
 90
      255
102
RTVSPost2010PropOp44
 70
     1
102
RTVSPost2010Prop45
280
     0
102
RTVSPost2010PropOp45
 70
     1
102
RTVSPost2010Prop46
 90
       50
102
RTVSPost2010PropOp46
 70
     1
102
RTVSPost2010Prop47
 90
       50
102
RTVSPost2010PropOp47
 70
     1
102
RTVSPost2010Prop48
 90
       50
102
RTVSPost2010PropOp48
 70
     1
102
RTVSPost2010Prop49
280
     0
102
RTVSPost2010PropOp49
 70
     1
102
RTVSPost2010Prop50
 90
       50
102
RTVSPost2010PropOp50
 70
     1
102
RTVSPost2010Prop51ColorIndex
 90
      256
102
RTVSPost2010Prop51ColorRGB
 90
-16777216
102
RTVSPost2010PropOp51
 70
     0
102
RTVSPost2010Prop52
140
1.0
102
RTVSPost2010PropOp52
 70
     0
102
RTVSPost2010Prop53
 90
        2
102
RTVSPost2010PropOp53
 70
     1
102
RTVSPost2010Prop54
  1
strokes_ogs.tif
102
RTVSPost2010PropOp54
 70
     1
102
RTVSPost2010Prop55
280
     0
102
RTVSPost2010PropOp55
 70
     1
102
RTVSPost2010Prop56
140
1.0
102
RTVSPost2010PropOp56
 70
     1
102
RTVSPost2010Prop57
140
1.0
102
RTVSPost2010PropOp57
 70
     1
102
RTVSPropertyOp0
 70
     1
102
RTVSPropertyOp1
 70
     1
102
RTVSPropertyOp2
 70
     1
102
RTVSPropertyOp3
 70
     1
102
RTVSPropertyOp4
 70
     1
102
RTVSPropertyOp5
 70
     1
102
RTVSPropertyOp6
 70
     1
102
RTVSPropertyOp7
 70
     1
102
RTVSPropertyOp8
 70
     1
102
RTVSPropertyOp9
 70
     1
102
RTVSPropertyOp10
 70
     1
102
RTVSPropertyOp11
 70
     1
102
RTVSPropertyOp12
 70
     1
102
RTVSPropertyOp13
 70
     1
102
RTVSPropertyOp14
 70
     1
102
RTVSPropertyOp15
 70
     1
102
RTVSPropertyOp16
 70
     1
102
RTVSPropertyOp17
 70
     1
102
RTVSPropertyOp18
 70
     1
102
RTVSPropertyOp19
 70
     1
102
RTVSPropertyOp20
 70
     1
102
RTVSPropertyOp21
 70
     1
102
RTVSPropertyOp22
 70
     1
102
RTVSPropertyOp23
 70
     1
102
RTVSPropertyOp24
 70
     1
102
RTVSPropertyOp25
 70
     1
102
RTVSPropertyOp26
 70
     1
102
RTVSPropertyOp27
 70
     1
102
RTVSPropertyOp28
 70
     1
102
RTVSPropertyOp29
 70
     1
102
RTVSPropertyOp30
 70
     1
102
RTVSPropertyOp31
 70
     1
102
RTVSPropertyOp32
 70
     1
102
RTVSPropertyOp33
 70
     1
102
RTVSPropertyOp34
 70
     1
102
RTVSPropertyOp35
 70
     1
102
RTVSPropertyOp36
 70
     1
102
RTVSPropertyOp37
 70
     1
102
RTVSPropertyOp38
 70
     1
102
RTVSPropertyOp39
 70
     1
102
RTVSPropertyOp40
 70
     1
102
RTVSPropertyOp41
 70
     1
102
RTVSPropertyOp42
 70
     1
102
RTVSPropertyOp43
 70
     1
102
RTVSPropertyOp44
 70
     1
102
RTVSPropertyOp45
 70
     1
102
RTVSPropertyOp46
 70
     1
102
RTVSPropertyOp47
 70
     1
102
RTVSPropertyOp48
 70
     1
102
RTVSPropertyOp49
 70
     1
102
RTVSPropertyOp50
 70
     1
102
RTVSPropertyOp51
 70
     0
102
RTVSPropertyOp52
 70
     0
102
RTVSPropertyOp53
 70
     1
102
RTVSPropertyOp54
 70
     1
102
RTVSPropertyOp55
 70
     1
102
RTVSPropertyOp56
 70
     1
102
RTVSPropertyOp57
 70
     1
102
RTVSPropertyOp58
 70
     1
102
RTVSPropertyOp59
 70
     1
102
RTVSPropertyOp60
 70
     1
102
RTVSPropertyOp61
 70
     1
102
RTVSPropertyOp62
 70
     1
  0
XRECORD
  5
AB59
102
{ACAD_REACTORS
330
AB58
102
}
330
AB58
100
AcDbXrecord
280
     1
102
RTVSPost2010Prop28
280
     0
102
RTVSPost2010PropOp28
 70
     1
102
RTVSPost2010Prop29
280
     1
102
RTVSPost2010PropOp29
 70
     1
102
RTVSPost2010Prop30
280
     1
102
RTVSPost2010PropOp30
 70
     1
102
RTVSPost2010Prop31
280
     0
102
RTVSPost2010PropOp31
 70
     1
102
RTVSPost2010Prop32
280
     0
102
RTVSPost2010PropOp32
 70
     1
102
RTVSPost2010Prop33
280
     0
102
RTVSPost2010PropOp33
 70
     1
102
RTVSPost2010Prop34
280
     0
102
RTVSPost2010PropOp34
 70
     1
102
RTVSPost2010Prop35
280
     0
102
RTVSPost2010PropOp35
 70
     1
102
RTVSPost2010Prop36
280
     0
102
RTVSPost2010PropOp36
 70
     1
102
RTVSPost2010Prop37
 90
       50
102
RTVSPost2010PropOp37
 70
     0
102
RTVSPost2010Prop38
140
0.0
102
RTVSPost2010PropOp38
 70
     0
102
RTVSPost2010Prop39
140
1.0
102
RTVSPost2010PropOp39
 70
     0
102
RTVSPost2010Prop40
 90
        0
102
RTVSPost2010PropOp40
 70
     0
102
RTVSPost2010Prop41ColorIndex
 90
       18
102
RTVSPost2010Prop41ColorRGB
 90
        0
102
RTVSPost2010PropOp41
 70
     0
102
RTVSPost2010Prop42
 90
       50
102
RTVSPost2010PropOp42
 70
     0
102
RTVSPost2010Prop43
 90
        3
102
RTVSPost2010PropOp43
 70
     0
102
RTVSPost2010Prop44ColorIndex
 90
        5
102
RTVSPost2010Prop44ColorRGB
 90
      255
102
RTVSPost2010PropOp44
 70
     0
102
RTVSPost2010Prop45
280
     0
102
RTVSPost2010PropOp45
 70
     1
102
RTVSPost2010Prop46
 90
       50
102
RTVSPost2010PropOp46
 70
     0
102
RTVSPost2010Prop47
 90
       50
102
RTVSPost2010PropOp47
 70
     0
102
RTVSPost2010Prop48
 90
       50
102
RTVSPost2010PropOp48
 70
     0
102
RTVSPost2010Prop49
280
     0
102
RTVSPost2010PropOp49
 70
     1
102
RTVSPost2010Prop50
 90
       50
102
RTVSPost2010PropOp50
 70
     0
102
RTVSPost2010Prop51ColorIndex
 90
      256
102
RTVSPost2010Prop51ColorRGB
 90
-16777216
102
RTVSPost2010PropOp51
 70
     0
102
RTVSPost2010Prop52
140
1.0
102
RTVSPost2010PropOp52
 70
     0
102
RTVSPost2010Prop53
 90
        2
102
RTVSPost2010PropOp53
 70
     0
102
RTVSPost2010Prop54
  1
strokes_ogs.tif
102
RTVSPost2010PropOp54
 70
     0
102
RTVSPost2010Prop55
280
     0
102
RTVSPost2010PropOp55
 70
     1
102
RTVSPost2010Prop56
140
1.0
102
RTVSPost2010PropOp56
 70
     0
102
RTVSPost2010Prop57
140
1.0
102
RTVSPost2010PropOp57
 70
     0
102
RTVSPropertyOp0
 70
     0
102
RTVSPropertyOp1
 70
     0
102
RTVSPropertyOp2
 70
     0
102
RTVSPropertyOp3
 70
     0
102
RTVSPropertyOp4
 70
     0
102
RTVSPropertyOp5
 70
     0
102
RTVSPropertyOp6
 70
     0
102
RTVSPropertyOp7
 70
     0
102
RTVSPropertyOp8
 70
     0
102
RTVSPropertyOp9
 70
     0
102
RTVSPropertyOp10
 70
     0
102
RTVSPropertyOp11
 70
     0
102
RTVSPropertyOp12
 70
     0
102
RTVSPropertyOp13
 70
     0
102
RTVSPropertyOp14
 70
     2
102
RTVSPropertyOp15
 70
     0
102
RTVSPropertyOp16
 70
     0
102
RTVSPropertyOp17
 70
     0
102
RTVSPropertyOp18
 70
     0
102
RTVSPropertyOp19
 70
     0
102
RTVSPropertyOp20
 70
     0
102
RTVSPropertyOp21
 70
     0
102
RTVSPropertyOp22
 70
     0
102
RTVSPropertyOp23
 70
     0
102
RTVSPropertyOp24
 70
     0
102
RTVSPropertyOp25
 70
     0
102
RTVSPropertyOp26
 70
     0
102
RTVSPropertyOp27
 70
     0
102
RTVSPropertyOp28
 70
     1
102
RTVSPropertyOp29
 70
     1
102
RTVSPropertyOp30
 70
     1
102
RTVSPropertyOp31
 70
     1
102
RTVSPropertyOp32
 70
     1
102
RTVSPropertyOp33
 70
     1
102
RTVSPropertyOp34
 70
     1
102
RTVSPropertyOp35
 70
     1
102
RTVSPropertyOp36
 70
     1
102
RTVSPropertyOp37
 70
     0
102
RTVSPropertyOp38
 70
     0
102
RTVSPropertyOp39
 70
     0
102
RTVSPropertyOp40
 70
     0
102
RTVSPropertyOp41
 70
     0
102
RTVSPropertyOp42
 70
     0
102
RTVSPropertyOp43
 70
     0
102
RTVSPropertyOp44
 70
     0
102
RTVSPropertyOp45
 70
     1
102
RTVSPropertyOp46
 70
     0
102
RTVSPropertyOp47
 70
     0
102
RTVSPropertyOp48
 70
     0
102
RTVSPropertyOp49
 70
     1
102
RTVSPropertyOp50
 70
     0
102
RTVSPropertyOp51
 70
     0
102
RTVSPropertyOp52
 70
     0
102
RTVSPropertyOp53
 70
     0
102
RTVSPropertyOp54
 70
     0
102
RTVSPropertyOp55
 70
     1
102
RTVSPropertyOp56
 70
     0
102
RTVSPropertyOp57
 70
     0
102
RTVSPropertyOp58
 70
     0
102
RTVSPropertyOp59
 70
     0
102
RTVSPropertyOp60
 70
     0
102
RTVSPropertyOp61
 70
     0
102
RTVSPropertyOp62
 70
     0
  0
XRECORD
  5
AB3F
102
{ACAD_REACTORS
330
AB3E
102
}
330
AB3E
100
AcDbXrecord
280
     1
102
RTVSPost2010Prop28
280
     0
102
RTVSPost2010PropOp28
 70
     1
102
RTVSPost2010Prop29
280
     1
102
RTVSPost2010PropOp29
 70
     1
102
RTVSPost2010Prop30
280
     1
102
RTVSPost2010PropOp30
 70
     1
102
RTVSPost2010Prop31
280
     0
102
RTVSPost2010PropOp31
 70
     1
102
RTVSPost2010Prop32
280
     0
102
RTVSPost2010PropOp32
 70
     1
102
RTVSPost2010Prop33
280
     0
102
RTVSPost2010PropOp33
 70
     1
102
RTVSPost2010Prop34
280
     0
102
RTVSPost2010PropOp34
 70
     1
102
RTVSPost2010Prop35
280
     0
102
RTVSPost2010PropOp35
 70
     1
102
RTVSPost2010Prop36
280
     0
102
RTVSPost2010PropOp36
 70
     1
102
RTVSPost2010Prop37
 90
       50
102
RTVSPost2010PropOp37
 70
     1
102
RTVSPost2010Prop38
140
0.0
102
RTVSPost2010PropOp38
 70
     1
102
RTVSPost2010Prop39
140
1.0
102
RTVSPost2010PropOp39
 70
     1
102
RTVSPost2010Prop40
 90
        0
102
RTVSPost2010PropOp40
 70
     1
102
RTVSPost2010Prop41ColorIndex
 90
       18
102
RTVSPost2010Prop41ColorRGB
 90
        0
102
RTVSPost2010PropOp41
 70
     1
102
RTVSPost2010Prop42
 90
       50
102
RTVSPost2010PropOp42
 70
     1
102
RTVSPost2010Prop43
 90
        3
102
RTVSPost2010PropOp43
 70
     1
102
RTVSPost2010Prop44ColorIndex
 90
        5
102
RTVSPost2010Prop44ColorRGB
 90
      255
102
RTVSPost2010PropOp44
 70
     1
102
RTVSPost2010Prop45
280
     0
102
RTVSPost2010PropOp45
 70
     1
102
RTVSPost2010Prop46
 90
       50
102
RTVSPost2010PropOp46
 70
     1
102
RTVSPost2010Prop47
 90
       50
102
RTVSPost2010PropOp47
 70
     1
102
RTVSPost2010Prop48
 90
       50
102
RTVSPost2010PropOp48
 70
     1
102
RTVSPost2010Prop49
280
     0
102
RTVSPost2010PropOp49
 70
     1
102
RTVSPost2010Prop50
 90
       50
102
RTVSPost2010PropOp50
 70
     1
102
RTVSPost2010Prop51ColorIndex
 90
      256
102
RTVSPost2010Prop51ColorRGB
 90
-16777216
102
RTVSPost2010PropOp51
 70
     0
102
RTVSPost2010Prop52
140
1.0
102
RTVSPost2010PropOp52
 70
     0
102
RTVSPost2010Prop53
 90
        2
102
RTVSPost2010PropOp53
 70
     1
102
RTVSPost2010Prop54
  1
strokes_ogs.tif
102
RTVSPost2010PropOp54
 70
     1
102
RTVSPost2010Prop55
280
     0
102
RTVSPost2010PropOp55
 70
     1
102
RTVSPost2010Prop56
140
1.0
102
RTVSPost2010PropOp56
 70
     1
102
RTVSPost2010Prop57
140
1.0
102
RTVSPost2010PropOp57
 70
     1
102
RTVSPropertyOp0
 70
     1
102
RTVSPropertyOp1
 70
     1
102
RTVSPropertyOp2
 70
     1
102
RTVSPropertyOp3
 70
     1
102
RTVSPropertyOp4
 70
     1
102
RTVSPropertyOp5
 70
     1
102
RTVSPropertyOp6
 70
     1
102
RTVSPropertyOp7
 70
     1
102
RTVSPropertyOp8
 70
     1
102
RTVSPropertyOp9
 70
     1
102
RTVSPropertyOp10
 70
     1
102
RTVSPropertyOp11
 70
     1
102
RTVSPropertyOp12
 70
     1
102
RTVSPropertyOp13
 70
     1
102
RTVSPropertyOp14
 70
     1
102
RTVSPropertyOp15
 70
     1
102
RTVSPropertyOp16
 70
     1
102
RTVSPropertyOp17
 70
     1
102
RTVSPropertyOp18
 70
     1
102
RTVSPropertyOp19
 70
     1
102
RTVSPropertyOp20
 70
     1
102
RTVSPropertyOp21
 70
     1
102
RTVSPropertyOp22
 70
     1
102
RTVSPropertyOp23
 70
     1
102
RTVSPropertyOp24
 70
     1
102
RTVSPropertyOp25
 70
     1
102
RTVSPropertyOp26
 70
     1
102
RTVSPropertyOp27
 70
     1
102
RTVSPropertyOp28
 70
     1
102
RTVSPropertyOp29
 70
     1
102
RTVSPropertyOp30
 70
     1
102
RTVSPropertyOp31
 70
     1
102
RTVSPropertyOp32
 70
     1
102
RTVSPropertyOp33
 70
     1
102
RTVSPropertyOp34
 70
     1
102
RTVSPropertyOp35
 70
     1
102
RTVSPropertyOp36
 70
     1
102
RTVSPropertyOp37
 70
     1
102
RTVSPropertyOp38
 70
     1
102
RTVSPropertyOp39
 70
     1
102
RTVSPropertyOp40
 70
     1
102
RTVSPropertyOp41
 70
     1
102
RTVSPropertyOp42
 70
     1
102
RTVSPropertyOp43
 70
     1
102
RTVSPropertyOp44
 70
     1
102
RTVSPropertyOp45
 70
     1
102
RTVSPropertyOp46
 70
     1
102
RTVSPropertyOp47
 70
     1
102
RTVSPropertyOp48
 70
     1
102
RTVSPropertyOp49
 70
     1
102
RTVSPropertyOp50
 70
     1
102
RTVSPropertyOp51
 70
     0
102
RTVSPropertyOp52
 70
     0
102
RTVSPropertyOp53
 70
     1
102
RTVSPropertyOp54
 70
     1
102
RTVSPropertyOp55
 70
     1
102
RTVSPropertyOp56
 70
     1
102
RTVSPropertyOp57
 70
     1
102
RTVSPropertyOp58
 70
     1
102
RTVSPropertyOp59
 70
     1
102
RTVSPropertyOp60
 70
     1
102
RTVSPropertyOp61
 70
     1
102
RTVSPropertyOp62
 70
     1
  0
XRECORD
  5
AB55
102
{ACAD_REACTORS
330
AB54
102
}
330
AB54
100
AcDbXrecord
280
     1
102
RTVSPost2010Prop28
280
     0
102
RTVSPost2010PropOp28
 70
     1
102
RTVSPost2010Prop29
280
     1
102
RTVSPost2010PropOp29
 70
     1
102
RTVSPost2010Prop30
280
     1
102
RTVSPost2010PropOp30
 70
     1
102
RTVSPost2010Prop31
280
     0
102
RTVSPost2010PropOp31
 70
     1
102
RTVSPost2010Prop32
280
     0
102
RTVSPost2010PropOp32
 70
     1
102
RTVSPost2010Prop33
280
     0
102
RTVSPost2010PropOp33
 70
     1
102
RTVSPost2010Prop34
280
     0
102
RTVSPost2010PropOp34
 70
     1
102
RTVSPost2010Prop35
280
     0
102
RTVSPost2010PropOp35
 70
     1
102
RTVSPost2010Prop36
280
     0
102
RTVSPost2010PropOp36
 70
     1
102
RTVSPost2010Prop37
 90
       50
102
RTVSPost2010PropOp37
 70
     1
102
RTVSPost2010Prop38
140
0.0
102
RTVSPost2010PropOp38
 70
     1
102
RTVSPost2010Prop39
140
1.0
102
RTVSPost2010PropOp39
 70
     1
102
RTVSPost2010Prop40
 90
        0
102
RTVSPost2010PropOp40
 70
     1
102
RTVSPost2010Prop41ColorIndex
 90
       18
102
RTVSPost2010Prop41ColorRGB
 90
        0
102
RTVSPost2010PropOp41
 70
     1
102
RTVSPost2010Prop42
 90
       50
102
RTVSPost2010PropOp42
 70
     1
102
RTVSPost2010Prop43
 90
        3
102
RTVSPost2010PropOp43
 70
     1
102
RTVSPost2010Prop44ColorIndex
 90
        5
102
RTVSPost2010Prop44ColorRGB
 90
      255
102
RTVSPost2010PropOp44
 70
     1
102
RTVSPost2010Prop45
280
     0
102
RTVSPost2010PropOp45
 70
     1
102
RTVSPost2010Prop46
 90
       50
102
RTVSPost2010PropOp46
 70
     1
102
RTVSPost2010Prop47
 90
       50
102
RTVSPost2010PropOp47
 70
     1
102
RTVSPost2010Prop48
 90
       50
102
RTVSPost2010PropOp48
 70
     1
102
RTVSPost2010Prop49
280
     0
102
RTVSPost2010PropOp49
 70
     1
102
RTVSPost2010Prop50
 90
       50
102
RTVSPost2010PropOp50
 70
     1
102
RTVSPost2010Prop51ColorIndex
 90
      256
102
RTVSPost2010Prop51ColorRGB
 90
-16777216
102
RTVSPost2010PropOp51
 70
     0
102
RTVSPost2010Prop52
140
1.0
102
RTVSPost2010PropOp52
 70
     0
102
RTVSPost2010Prop53
 90
        2
102
RTVSPost2010PropOp53
 70
     1
102
RTVSPost2010Prop54
  1
strokes_ogs.tif
102
RTVSPost2010PropOp54
 70
     1
102
RTVSPost2010Prop55
280
     0
102
RTVSPost2010PropOp55
 70
     1
102
RTVSPost2010Prop56
140
1.0
102
RTVSPost2010PropOp56
 70
     1
102
RTVSPost2010Prop57
140
1.0
102
RTVSPost2010PropOp57
 70
     1
102
RTVSPropertyOp0
 70
     1
102
RTVSPropertyOp1
 70
     1
102
RTVSPropertyOp2
 70
     1
102
RTVSPropertyOp3
 70
     1
102
RTVSPropertyOp4
 70
     1
102
RTVSPropertyOp5
 70
     1
102
RTVSPropertyOp6
 70
     1
102
RTVSPropertyOp7
 70
     1
102
RTVSPropertyOp8
 70
     1
102
RTVSPropertyOp9
 70
     1
102
RTVSPropertyOp10
 70
     1
102
RTVSPropertyOp11
 70
     1
102
RTVSPropertyOp12
 70
     1
102
RTVSPropertyOp13
 70
     1
102
RTVSPropertyOp14
 70
     1
102
RTVSPropertyOp15
 70
     1
102
RTVSPropertyOp16
 70
     1
102
RTVSPropertyOp17
 70
     1
102
RTVSPropertyOp18
 70
     1
102
RTVSPropertyOp19
 70
     1
102
RTVSPropertyOp20
 70
     1
102
RTVSPropertyOp21
 70
     1
102
RTVSPropertyOp22
 70
     1
102
RTVSPropertyOp23
 70
     1
102
RTVSPropertyOp24
 70
     1
102
RTVSPropertyOp25
 70
     1
102
RTVSPropertyOp26
 70
     1
102
RTVSPropertyOp27
 70
     1
102
RTVSPropertyOp28
 70
     1
102
RTVSPropertyOp29
 70
     1
102
RTVSPropertyOp30
 70
     1
102
RTVSPropertyOp31
 70
     1
102
RTVSPropertyOp32
 70
     1
102
RTVSPropertyOp33
 70
     1
102
RTVSPropertyOp34
 70
     1
102
RTVSPropertyOp35
 70
     1
102
RTVSPropertyOp36
 70
     1
102
RTVSPropertyOp37
 70
     1
102
RTVSPropertyOp38
 70
     1
102
RTVSPropertyOp39
 70
     1
102
RTVSPropertyOp40
 70
     1
102
RTVSPropertyOp41
 70
     1
102
RTVSPropertyOp42
 70
     1
102
RTVSPropertyOp43
 70
     1
102
RTVSPropertyOp44
 70
     1
102
RTVSPropertyOp45
 70
     1
102
RTVSPropertyOp46
 70
     1
102
RTVSPropertyOp47
 70
     1
102
RTVSPropertyOp48
 70
     1
102
RTVSPropertyOp49
 70
     1
102
RTVSPropertyOp50
 70
     1
102
RTVSPropertyOp51
 70
     0
102
RTVSPropertyOp52
 70
     0
102
RTVSPropertyOp53
 70
     1
102
RTVSPropertyOp54
 70
     1
102
RTVSPropertyOp55
 70
     1
102
RTVSPropertyOp56
 70
     1
102
RTVSPropertyOp57
 70
     1
102
RTVSPropertyOp58
 70
     1
102
RTVSPropertyOp59
 70
     1
102
RTVSPropertyOp60
 70
     1
102
RTVSPropertyOp61
 70
     1
102
RTVSPropertyOp62
 70
     1
  0
XRECORD
  5
AB53
102
{ACAD_REACTORS
330
AB52
102
}
330
AB52
100
AcDbXrecord
280
     1
102
RTVSPost2010Prop28
280
     0
102
RTVSPost2010PropOp28
 70
     1
102
RTVSPost2010Prop29
280
     1
102
RTVSPost2010PropOp29
 70
     1
102
RTVSPost2010Prop30
280
     1
102
RTVSPost2010PropOp30
 70
     1
102
RTVSPost2010Prop31
280
     0
102
RTVSPost2010PropOp31
 70
     1
102
RTVSPost2010Prop32
280
     0
102
RTVSPost2010PropOp32
 70
     1
102
RTVSPost2010Prop33
280
     0
102
RTVSPost2010PropOp33
 70
     1
102
RTVSPost2010Prop34
280
     0
102
RTVSPost2010PropOp34
 70
     1
102
RTVSPost2010Prop35
280
     0
102
RTVSPost2010PropOp35
 70
     1
102
RTVSPost2010Prop36
280
     0
102
RTVSPost2010PropOp36
 70
     1
102
RTVSPost2010Prop37
 90
       50
102
RTVSPost2010PropOp37
 70
     1
102
RTVSPost2010Prop38
140
0.0
102
RTVSPost2010PropOp38
 70
     1
102
RTVSPost2010Prop39
140
1.0
102
RTVSPost2010PropOp39
 70
     1
102
RTVSPost2010Prop40
 90
        0
102
RTVSPost2010PropOp40
 70
     1
102
RTVSPost2010Prop41ColorIndex
 90
       18
102
RTVSPost2010Prop41ColorRGB
 90
        0
102
RTVSPost2010PropOp41
 70
     1
102
RTVSPost2010Prop42
 90
       50
102
RTVSPost2010PropOp42
 70
     1
102
RTVSPost2010Prop43
 90
        3
102
RTVSPost2010PropOp43
 70
     1
102
RTVSPost2010Prop44ColorIndex
 90
        5
102
RTVSPost2010Prop44ColorRGB
 90
      255
102
RTVSPost2010PropOp44
 70
     1
102
RTVSPost2010Prop45
280
     0
102
RTVSPost2010PropOp45
 70
     1
102
RTVSPost2010Prop46
 90
       50
102
RTVSPost2010PropOp46
 70
     1
102
RTVSPost2010Prop47
 90
       50
102
RTVSPost2010PropOp47
 70
     1
102
RTVSPost2010Prop48
 90
       50
102
RTVSPost2010PropOp48
 70
     1
102
RTVSPost2010Prop49
280
     0
102
RTVSPost2010PropOp49
 70
     1
102
RTVSPost2010Prop50
 90
       50
102
RTVSPost2010PropOp50
 70
     1
102
RTVSPost2010Prop51ColorIndex
 90
      256
102
RTVSPost2010Prop51ColorRGB
 90
-16777216
102
RTVSPost2010PropOp51
 70
     0
102
RTVSPost2010Prop52
140
1.0
102
RTVSPost2010PropOp52
 70
     0
102
RTVSPost2010Prop53
 90
        2
102
RTVSPost2010PropOp53
 70
     1
102
RTVSPost2010Prop54
  1
strokes_ogs.tif
102
RTVSPost2010PropOp54
 70
     1
102
RTVSPost2010Prop55
280
     0
102
RTVSPost2010PropOp55
 70
     1
102
RTVSPost2010Prop56
140
1.0
102
RTVSPost2010PropOp56
 70
     1
102
RTVSPost2010Prop57
140
1.0
102
RTVSPost2010PropOp57
 70
     1
102
RTVSPropertyOp0
 70
     1
102
RTVSPropertyOp1
 70
     1
102
RTVSPropertyOp2
 70
     1
102
RTVSPropertyOp3
 70
     1
102
RTVSPropertyOp4
 70
     1
102
RTVSPropertyOp5
 70
     1
102
RTVSPropertyOp6
 70
     1
102
RTVSPropertyOp7
 70
     1
102
RTVSPropertyOp8
 70
     1
102
RTVSPropertyOp9
 70
     1
102
RTVSPropertyOp10
 70
     1
102
RTVSPropertyOp11
 70
     1
102
RTVSPropertyOp12
 70
     1
102
RTVSPropertyOp13
 70
     1
102
RTVSPropertyOp14
 70
     1
102
RTVSPropertyOp15
 70
     1
102
RTVSPropertyOp16
 70
     1
102
RTVSPropertyOp17
 70
     1
102
RTVSPropertyOp18
 70
     1
102
RTVSPropertyOp19
 70
     1
102
RTVSPropertyOp20
 70
     1
102
RTVSPropertyOp21
 70
     1
102
RTVSPropertyOp22
 70
     1
102
RTVSPropertyOp23
 70
     1
102
RTVSPropertyOp24
 70
     1
102
RTVSPropertyOp25
 70
     1
102
RTVSPropertyOp26
 70
     1
102
RTVSPropertyOp27
 70
     1
102
RTVSPropertyOp28
 70
     1
102
RTVSPropertyOp29
 70
     1
102
RTVSPropertyOp30
 70
     1
102
RTVSPropertyOp31
 70
     1
102
RTVSPropertyOp32
 70
     1
102
RTVSPropertyOp33
 70
     1
102
RTVSPropertyOp34
 70
     1
102
RTVSPropertyOp35
 70
     1
102
RTVSPropertyOp36
 70
     1
102
RTVSPropertyOp37
 70
     1
102
RTVSPropertyOp38
 70
     1
102
RTVSPropertyOp39
 70
     1
102
RTVSPropertyOp40
 70
     1
102
RTVSPropertyOp41
 70
     1
102
RTVSPropertyOp42
 70
     1
102
RTVSPropertyOp43
 70
     1
102
RTVSPropertyOp44
 70
     1
102
RTVSPropertyOp45
 70
     1
102
RTVSPropertyOp46
 70
     1
102
RTVSPropertyOp47
 70
     1
102
RTVSPropertyOp48
 70
     1
102
RTVSPropertyOp49
 70
     1
102
RTVSPropertyOp50
 70
     1
102
RTVSPropertyOp51
 70
     0
102
RTVSPropertyOp52
 70
     0
102
RTVSPropertyOp53
 70
     1
102
RTVSPropertyOp54
 70
     1
102
RTVSPropertyOp55
 70
     1
102
RTVSPropertyOp56
 70
     1
102
RTVSPropertyOp57
 70
     1
102
RTVSPropertyOp58
 70
     1
102
RTVSPropertyOp59
 70
     1
102
RTVSPropertyOp60
 70
     1
102
RTVSPropertyOp61
 70
     1
102
RTVSPropertyOp62
 70
     1
  0
XRECORD
  5
AB4D
102
{ACAD_REACTORS
330
AB4C
102
}
330
AB4C
100
AcDbXrecord
280
     1
102
RTVSPost2010Prop28
280
     0
102
RTVSPost2010PropOp28
 70
     1
102
RTVSPost2010Prop29
280
     1
102
RTVSPost2010PropOp29
 70
     1
102
RTVSPost2010Prop30
280
     1
102
RTVSPost2010PropOp30
 70
     1
102
RTVSPost2010Prop31
280
     0
102
RTVSPost2010PropOp31
 70
     1
102
RTVSPost2010Prop32
280
     0
102
RTVSPost2010PropOp32
 70
     1
102
RTVSPost2010Prop33
280
     0
102
RTVSPost2010PropOp33
 70
     1
102
RTVSPost2010Prop34
280
     0
102
RTVSPost2010PropOp34
 70
     1
102
RTVSPost2010Prop35
280
     0
102
RTVSPost2010PropOp35
 70
     1
102
RTVSPost2010Prop36
280
     0
102
RTVSPost2010PropOp36
 70
     1
102
RTVSPost2010Prop37
 90
       50
102
RTVSPost2010PropOp37
 70
     1
102
RTVSPost2010Prop38
140
0.0
102
RTVSPost2010PropOp38
 70
     1
102
RTVSPost2010Prop39
140
1.0
102
RTVSPost2010PropOp39
 70
     1
102
RTVSPost2010Prop40
 90
        0
102
RTVSPost2010PropOp40
 70
     1
102
RTVSPost2010Prop41ColorIndex
 90
       18
102
RTVSPost2010Prop41ColorRGB
 90
        0
102
RTVSPost2010PropOp41
 70
     1
102
RTVSPost2010Prop42
 90
       50
102
RTVSPost2010PropOp42
 70
     1
102
RTVSPost2010Prop43
 90
        3
102
RTVSPost2010PropOp43
 70
     1
102
RTVSPost2010Prop44ColorIndex
 90
        5
102
RTVSPost2010Prop44ColorRGB
 90
      255
102
RTVSPost2010PropOp44
 70
     1
102
RTVSPost2010Prop45
280
     0
102
RTVSPost2010PropOp45
 70
     1
102
RTVSPost2010Prop46
 90
       50
102
RTVSPost2010PropOp46
 70
     1
102
RTVSPost2010Prop47
 90
       50
102
RTVSPost2010PropOp47
 70
     1
102
RTVSPost2010Prop48
 90
       50
102
RTVSPost2010PropOp48
 70
     1
102
RTVSPost2010Prop49
280
     0
102
RTVSPost2010PropOp49
 70
     1
102
RTVSPost2010Prop50
 90
       50
102
RTVSPost2010PropOp50
 70
     1
102
RTVSPost2010Prop51ColorIndex
 90
      256
102
RTVSPost2010Prop51ColorRGB
 90
-16777216
102
RTVSPost2010PropOp51
 70
     0
102
RTVSPost2010Prop52
140
1.0
102
RTVSPost2010PropOp52
 70
     0
102
RTVSPost2010Prop53
 90
        2
102
RTVSPost2010PropOp53
 70
     1
102
RTVSPost2010Prop54
  1
strokes_ogs.tif
102
RTVSPost2010PropOp54
 70
     1
102
RTVSPost2010Prop55
280
     0
102
RTVSPost2010PropOp55
 70
     1
102
RTVSPost2010Prop56
140
1.0
102
RTVSPost2010PropOp56
 70
     1
102
RTVSPost2010Prop57
140
1.0
102
RTVSPost2010PropOp57
 70
     1
102
RTVSPropertyOp0
 70
     1
102
RTVSPropertyOp1
 70
     1
102
RTVSPropertyOp2
 70
     1
102
RTVSPropertyOp3
 70
     1
102
RTVSPropertyOp4
 70
     1
102
RTVSPropertyOp5
 70
     1
102
RTVSPropertyOp6
 70
     1
102
RTVSPropertyOp7
 70
     1
102
RTVSPropertyOp8
 70
     1
102
RTVSPropertyOp9
 70
     1
102
RTVSPropertyOp10
 70
     1
102
RTVSPropertyOp11
 70
     1
102
RTVSPropertyOp12
 70
     1
102
RTVSPropertyOp13
 70
     1
102
RTVSPropertyOp14
 70
     1
102
RTVSPropertyOp15
 70
     1
102
RTVSPropertyOp16
 70
     1
102
RTVSPropertyOp17
 70
     1
102
RTVSPropertyOp18
 70
     1
102
RTVSPropertyOp19
 70
     1
102
RTVSPropertyOp20
 70
     1
102
RTVSPropertyOp21
 70
     1
102
RTVSPropertyOp22
 70
     1
102
RTVSPropertyOp23
 70
     1
102
RTVSPropertyOp24
 70
     1
102
RTVSPropertyOp25
 70
     1
102
RTVSPropertyOp26
 70
     1
102
RTVSPropertyOp27
 70
     1
102
RTVSPropertyOp28
 70
     1
102
RTVSPropertyOp29
 70
     1
102
RTVSPropertyOp30
 70
     1
102
RTVSPropertyOp31
 70
     1
102
RTVSPropertyOp32
 70
     1
102
RTVSPropertyOp33
 70
     1
102
RTVSPropertyOp34
 70
     1
102
RTVSPropertyOp35
 70
     1
102
RTVSPropertyOp36
 70
     1
102
RTVSPropertyOp37
 70
     1
102
RTVSPropertyOp38
 70
     1
102
RTVSPropertyOp39
 70
     1
102
RTVSPropertyOp40
 70
     1
102
RTVSPropertyOp41
 70
     1
102
RTVSPropertyOp42
 70
     1
102
RTVSPropertyOp43
 70
     1
102
RTVSPropertyOp44
 70
     1
102
RTVSPropertyOp45
 70
     1
102
RTVSPropertyOp46
 70
     1
102
RTVSPropertyOp47
 70
     1
102
RTVSPropertyOp48
 70
     1
102
RTVSPropertyOp49
 70
     1
102
RTVSPropertyOp50
 70
     1
102
RTVSPropertyOp51
 70
     0
102
RTVSPropertyOp52
 70
     0
102
RTVSPropertyOp53
 70
     1
102
RTVSPropertyOp54
 70
     1
102
RTVSPropertyOp55
 70
     1
102
RTVSPropertyOp56
 70
     1
102
RTVSPropertyOp57
 70
     1
102
RTVSPropertyOp58
 70
     1
102
RTVSPropertyOp59
 70
     1
102
RTVSPropertyOp60
 70
     1
102
RTVSPropertyOp61
 70
     1
102
RTVSPropertyOp62
 70
     1
  0
XRECORD
  5
AB4F
102
{ACAD_REACTORS
330
AB4E
102
}
330
AB4E
100
AcDbXrecord
280
     1
102
RTVSPost2010Prop28
280
     0
102
RTVSPost2010PropOp28
 70
     1
102
RTVSPost2010Prop29
280
     1
102
RTVSPost2010PropOp29
 70
     1
102
RTVSPost2010Prop30
280
     1
102
RTVSPost2010PropOp30
 70
     1
102
RTVSPost2010Prop31
280
     0
102
RTVSPost2010PropOp31
 70
     1
102
RTVSPost2010Prop32
280
     0
102
RTVSPost2010PropOp32
 70
     1
102
RTVSPost2010Prop33
280
     0
102
RTVSPost2010PropOp33
 70
     1
102
RTVSPost2010Prop34
280
     0
102
RTVSPost2010PropOp34
 70
     1
102
RTVSPost2010Prop35
280
     0
102
RTVSPost2010PropOp35
 70
     1
102
RTVSPost2010Prop36
280
     0
102
RTVSPost2010PropOp36
 70
     1
102
RTVSPost2010Prop37
 90
       50
102
RTVSPost2010PropOp37
 70
     1
102
RTVSPost2010Prop38
140
0.0
102
RTVSPost2010PropOp38
 70
     1
102
RTVSPost2010Prop39
140
1.0
102
RTVSPost2010PropOp39
 70
     1
102
RTVSPost2010Prop40
 90
        0
102
RTVSPost2010PropOp40
 70
     1
102
RTVSPost2010Prop41ColorIndex
 90
       18
102
RTVSPost2010Prop41ColorRGB
 90
        0
102
RTVSPost2010PropOp41
 70
     1
102
RTVSPost2010Prop42
 90
       50
102
RTVSPost2010PropOp42
 70
     1
102
RTVSPost2010Prop43
 90
        3
102
RTVSPost2010PropOp43
 70
     1
102
RTVSPost2010Prop44ColorIndex
 90
        5
102
RTVSPost2010Prop44ColorRGB
 90
      255
102
RTVSPost2010PropOp44
 70
     1
102
RTVSPost2010Prop45
280
     0
102
RTVSPost2010PropOp45
 70
     1
102
RTVSPost2010Prop46
 90
       50
102
RTVSPost2010PropOp46
 70
     1
102
RTVSPost2010Prop47
 90
       50
102
RTVSPost2010PropOp47
 70
     1
102
RTVSPost2010Prop48
 90
       50
102
RTVSPost2010PropOp48
 70
     1
102
RTVSPost2010Prop49
280
     0
102
RTVSPost2010PropOp49
 70
     1
102
RTVSPost2010Prop50
 90
       50
102
RTVSPost2010PropOp50
 70
     1
102
RTVSPost2010Prop51ColorIndex
 90
      256
102
RTVSPost2010Prop51ColorRGB
 90
-16777216
102
RTVSPost2010PropOp51
 70
     0
102
RTVSPost2010Prop52
140
1.0
102
RTVSPost2010PropOp52
 70
     0
102
RTVSPost2010Prop53
 90
        2
102
RTVSPost2010PropOp53
 70
     1
102
RTVSPost2010Prop54
  1
strokes_ogs.tif
102
RTVSPost2010PropOp54
 70
     1
102
RTVSPost2010Prop55
280
     0
102
RTVSPost2010PropOp55
 70
     1
102
RTVSPost2010Prop56
140
1.0
102
RTVSPost2010PropOp56
 70
     1
102
RTVSPost2010Prop57
140
1.0
102
RTVSPost2010PropOp57
 70
     1
102
RTVSPropertyOp0
 70
     1
102
RTVSPropertyOp1
 70
     1
102
RTVSPropertyOp2
 70
     1
102
RTVSPropertyOp3
 70
     1
102
RTVSPropertyOp4
 70
     1
102
RTVSPropertyOp5
 70
     1
102
RTVSPropertyOp6
 70
     1
102
RTVSPropertyOp7
 70
     1
102
RTVSPropertyOp8
 70
     1
102
RTVSPropertyOp9
 70
     1
102
RTVSPropertyOp10
 70
     1
102
RTVSPropertyOp11
 70
     1
102
RTVSPropertyOp12
 70
     1
102
RTVSPropertyOp13
 70
     1
102
RTVSPropertyOp14
 70
     1
102
RTVSPropertyOp15
 70
     1
102
RTVSPropertyOp16
 70
     1
102
RTVSPropertyOp17
 70
     1
102
RTVSPropertyOp18
 70
     1
102
RTVSPropertyOp19
 70
     1
102
RTVSPropertyOp20
 70
     1
102
RTVSPropertyOp21
 70
     1
102
RTVSPropertyOp22
 70
     1
102
RTVSPropertyOp23
 70
     1
102
RTVSPropertyOp24
 70
     1
102
RTVSPropertyOp25
 70
     1
102
RTVSPropertyOp26
 70
     1
102
RTVSPropertyOp27
 70
     1
102
RTVSPropertyOp28
 70
     1
102
RTVSPropertyOp29
 70
     1
102
RTVSPropertyOp30
 70
     1
102
RTVSPropertyOp31
 70
     1
102
RTVSPropertyOp32
 70
     1
102
RTVSPropertyOp33
 70
     1
102
RTVSPropertyOp34
 70
     1
102
RTVSPropertyOp35
 70
     1
102
RTVSPropertyOp36
 70
     1
102
RTVSPropertyOp37
 70
     1
102
RTVSPropertyOp38
 70
     1
102
RTVSPropertyOp39
 70
     1
102
RTVSPropertyOp40
 70
     1
102
RTVSPropertyOp41
 70
     1
102
RTVSPropertyOp42
 70
     1
102
RTVSPropertyOp43
 70
     1
102
RTVSPropertyOp44
 70
     1
102
RTVSPropertyOp45
 70
     1
102
RTVSPropertyOp46
 70
     1
102
RTVSPropertyOp47
 70
     1
102
RTVSPropertyOp48
 70
     1
102
RTVSPropertyOp49
 70
     1
102
RTVSPropertyOp50
 70
     1
102
RTVSPropertyOp51
 70
     0
102
RTVSPropertyOp52
 70
     0
102
RTVSPropertyOp53
 70
     1
102
RTVSPropertyOp54
 70
     1
102
RTVSPropertyOp55
 70
     1
102
RTVSPropertyOp56
 70
     1
102
RTVSPropertyOp57
 70
     1
102
RTVSPropertyOp58
 70
     1
102
RTVSPropertyOp59
 70
     1
102
RTVSPropertyOp60
 70
     1
102
RTVSPropertyOp61
 70
     1
102
RTVSPropertyOp62
 70
     1
  0
XRECORD
  5
AB45
102
{ACAD_REACTORS
330
AB44
102
}
330
AB44
100
AcDbXrecord
280
     1
102
RTVSPost2010Prop28
280
     0
102
RTVSPost2010PropOp28
 70
     1
102
RTVSPost2010Prop29
280
     1
102
RTVSPost2010PropOp29
 70
     1
102
RTVSPost2010Prop30
280
     1
102
RTVSPost2010PropOp30
 70
     1
102
RTVSPost2010Prop31
280
     0
102
RTVSPost2010PropOp31
 70
     1
102
RTVSPost2010Prop32
280
     0
102
RTVSPost2010PropOp32
 70
     1
102
RTVSPost2010Prop33
280
     0
102
RTVSPost2010PropOp33
 70
     1
102
RTVSPost2010Prop34
280
     0
102
RTVSPost2010PropOp34
 70
     1
102
RTVSPost2010Prop35
280
     0
102
RTVSPost2010PropOp35
 70
     1
102
RTVSPost2010Prop36
280
     0
102
RTVSPost2010PropOp36
 70
     1
102
RTVSPost2010Prop37
 90
       50
102
RTVSPost2010PropOp37
 70
     1
102
RTVSPost2010Prop38
140
0.0
102
RTVSPost2010PropOp38
 70
     1
102
RTVSPost2010Prop39
140
1.0
102
RTVSPost2010PropOp39
 70
     1
102
RTVSPost2010Prop40
 90
        0
102
RTVSPost2010PropOp40
 70
     1
102
RTVSPost2010Prop41ColorIndex
 90
       18
102
RTVSPost2010Prop41ColorRGB
 90
        0
102
RTVSPost2010PropOp41
 70
     1
102
RTVSPost2010Prop42
 90
       50
102
RTVSPost2010PropOp42
 70
     1
102
RTVSPost2010Prop43
 90
        3
102
RTVSPost2010PropOp43
 70
     1
102
RTVSPost2010Prop44ColorIndex
 90
        5
102
RTVSPost2010Prop44ColorRGB
 90
      255
102
RTVSPost2010PropOp44
 70
     1
102
RTVSPost2010Prop45
280
     0
102
RTVSPost2010PropOp45
 70
     1
102
RTVSPost2010Prop46
 90
       50
102
RTVSPost2010PropOp46
 70
     1
102
RTVSPost2010Prop47
 90
       50
102
RTVSPost2010PropOp47
 70
     1
102
RTVSPost2010Prop48
 90
       50
102
RTVSPost2010PropOp48
 70
     1
102
RTVSPost2010Prop49
280
     0
102
RTVSPost2010PropOp49
 70
     1
102
RTVSPost2010Prop50
 90
       50
102
RTVSPost2010PropOp50
 70
     1
102
RTVSPost2010Prop51ColorIndex
 90
      256
102
RTVSPost2010Prop51ColorRGB
 90
-16777216
102
RTVSPost2010PropOp51
 70
     0
102
RTVSPost2010Prop52
140
1.0
102
RTVSPost2010PropOp52
 70
     0
102
RTVSPost2010Prop53
 90
        2
102
RTVSPost2010PropOp53
 70
     1
102
RTVSPost2010Prop54
  1
strokes_ogs.tif
102
RTVSPost2010PropOp54
 70
     1
102
RTVSPost2010Prop55
280
     0
102
RTVSPost2010PropOp55
 70
     1
102
RTVSPost2010Prop56
140
1.0
102
RTVSPost2010PropOp56
 70
     1
102
RTVSPost2010Prop57
140
1.0
102
RTVSPost2010PropOp57
 70
     1
102
RTVSPropertyOp0
 70
     1
102
RTVSPropertyOp1
 70
     1
102
RTVSPropertyOp2
 70
     1
102
RTVSPropertyOp3
 70
     1
102
RTVSPropertyOp4
 70
     1
102
RTVSPropertyOp5
 70
     1
102
RTVSPropertyOp6
 70
     1
102
RTVSPropertyOp7
 70
     1
102
RTVSPropertyOp8
 70
     1
102
RTVSPropertyOp9
 70
     1
102
RTVSPropertyOp10
 70
     1
102
RTVSPropertyOp11
 70
     1
102
RTVSPropertyOp12
 70
     1
102
RTVSPropertyOp13
 70
     1
102
RTVSPropertyOp14
 70
     1
102
RTVSPropertyOp15
 70
     1
102
RTVSPropertyOp16
 70
     1
102
RTVSPropertyOp17
 70
     1
102
RTVSPropertyOp18
 70
     1
102
RTVSPropertyOp19
 70
     1
102
RTVSPropertyOp20
 70
     1
102
RTVSPropertyOp21
 70
     1
102
RTVSPropertyOp22
 70
     1
102
RTVSPropertyOp23
 70
     1
102
RTVSPropertyOp24
 70
     1
102
RTVSPropertyOp25
 70
     1
102
RTVSPropertyOp26
 70
     1
102
RTVSPropertyOp27
 70
     1
102
RTVSPropertyOp28
 70
     1
102
RTVSPropertyOp29
 70
     1
102
RTVSPropertyOp30
 70
     1
102
RTVSPropertyOp31
 70
     1
102
RTVSPropertyOp32
 70
     1
102
RTVSPropertyOp33
 70
     1
102
RTVSPropertyOp34
 70
     1
102
RTVSPropertyOp35
 70
     1
102
RTVSPropertyOp36
 70
     1
102
RTVSPropertyOp37
 70
     1
102
RTVSPropertyOp38
 70
     1
102
RTVSPropertyOp39
 70
     1
102
RTVSPropertyOp40
 70
     1
102
RTVSPropertyOp41
 70
     1
102
RTVSPropertyOp42
 70
     1
102
RTVSPropertyOp43
 70
     1
102
RTVSPropertyOp44
 70
     1
102
RTVSPropertyOp45
 70
     1
102
RTVSPropertyOp46
 70
     1
102
RTVSPropertyOp47
 70
     1
102
RTVSPropertyOp48
 70
     1
102
RTVSPropertyOp49
 70
     1
102
RTVSPropertyOp50
 70
     1
102
RTVSPropertyOp51
 70
     0
102
RTVSPropertyOp52
 70
     0
102
RTVSPropertyOp53
 70
     1
102
RTVSPropertyOp54
 70
     1
102
RTVSPropertyOp55
 70
     1
102
RTVSPropertyOp56
 70
     1
102
RTVSPropertyOp57
 70
     1
102
RTVSPropertyOp58
 70
     1
102
RTVSPropertyOp59
 70
     1
102
RTVSPropertyOp60
 70
     1
102
RTVSPropertyOp61
 70
     1
102
RTVSPropertyOp62
 70
     1
  0
XRECORD
  5
AB39
102
{ACAD_REACTORS
330
AB38
102
}
330
AB38
100
AcDbXrecord
280
     1
102
RTVSPost2010Prop28
280
     0
102
RTVSPost2010PropOp28
 70
     1
102
RTVSPost2010Prop29
280
     1
102
RTVSPost2010PropOp29
 70
     1
102
RTVSPost2010Prop30
280
     1
102
RTVSPost2010PropOp30
 70
     1
102
RTVSPost2010Prop31
280
     0
102
RTVSPost2010PropOp31
 70
     1
102
RTVSPost2010Prop32
280
     0
102
RTVSPost2010PropOp32
 70
     1
102
RTVSPost2010Prop33
280
     0
102
RTVSPost2010PropOp33
 70
     1
102
RTVSPost2010Prop34
280
     0
102
RTVSPost2010PropOp34
 70
     1
102
RTVSPost2010Prop35
280
     0
102
RTVSPost2010PropOp35
 70
     1
102
RTVSPost2010Prop36
280
     0
102
RTVSPost2010PropOp36
 70
     1
102
RTVSPost2010Prop37
 90
       50
102
RTVSPost2010PropOp37
 70
     1
102
RTVSPost2010Prop38
140
0.0
102
RTVSPost2010PropOp38
 70
     1
102
RTVSPost2010Prop39
140
1.0
102
RTVSPost2010PropOp39
 70
     1
102
RTVSPost2010Prop40
 90
        0
102
RTVSPost2010PropOp40
 70
     1
102
RTVSPost2010Prop41ColorIndex
 90
       18
102
RTVSPost2010Prop41ColorRGB
 90
        0
102
RTVSPost2010PropOp41
 70
     1
102
RTVSPost2010Prop42
 90
       50
102
RTVSPost2010PropOp42
 70
     1
102
RTVSPost2010Prop43
 90
        3
102
RTVSPost2010PropOp43
 70
     1
102
RTVSPost2010Prop44ColorIndex
 90
        5
102
RTVSPost2010Prop44ColorRGB
 90
      255
102
RTVSPost2010PropOp44
 70
     1
102
RTVSPost2010Prop45
280
     0
102
RTVSPost2010PropOp45
 70
     1
102
RTVSPost2010Prop46
 90
       50
102
RTVSPost2010PropOp46
 70
     1
102
RTVSPost2010Prop47
 90
       50
102
RTVSPost2010PropOp47
 70
     1
102
RTVSPost2010Prop48
 90
       50
102
RTVSPost2010PropOp48
 70
     1
102
RTVSPost2010Prop49
280
     0
102
RTVSPost2010PropOp49
 70
     1
102
RTVSPost2010Prop50
 90
       50
102
RTVSPost2010PropOp50
 70
     1
102
RTVSPost2010Prop51ColorIndex
 90
      256
102
RTVSPost2010Prop51ColorRGB
 90
-16777216
102
RTVSPost2010PropOp51
 70
     0
102
RTVSPost2010Prop52
140
1.0
102
RTVSPost2010PropOp52
 70
     0
102
RTVSPost2010Prop53
 90
        2
102
RTVSPost2010PropOp53
 70
     1
102
RTVSPost2010Prop54
  1
strokes_ogs.tif
102
RTVSPost2010PropOp54
 70
     1
102
RTVSPost2010Prop55
280
     0
102
RTVSPost2010PropOp55
 70
     1
102
RTVSPost2010Prop56
140
1.0
102
RTVSPost2010PropOp56
 70
     1
102
RTVSPost2010Prop57
140
1.0
102
RTVSPost2010PropOp57
 70
     1
102
RTVSPropertyOp0
 70
     1
102
RTVSPropertyOp1
 70
     1
102
RTVSPropertyOp2
 70
     1
102
RTVSPropertyOp3
 70
     1
102
RTVSPropertyOp4
 70
     1
102
RTVSPropertyOp5
 70
     1
102
RTVSPropertyOp6
 70
     1
102
RTVSPropertyOp7
 70
     1
102
RTVSPropertyOp8
 70
     1
102
RTVSPropertyOp9
 70
     1
102
RTVSPropertyOp10
 70
     1
102
RTVSPropertyOp11
 70
     1
102
RTVSPropertyOp12
 70
     1
102
RTVSPropertyOp13
 70
     1
102
RTVSPropertyOp14
 70
     1
102
RTVSPropertyOp15
 70
     1
102
RTVSPropertyOp16
 70
     1
102
RTVSPropertyOp17
 70
     1
102
RTVSPropertyOp18
 70
     1
102
RTVSPropertyOp19
 70
     1
102
RTVSPropertyOp20
 70
     1
102
RTVSPropertyOp21
 70
     1
102
RTVSPropertyOp22
 70
     1
102
RTVSPropertyOp23
 70
     1
102
RTVSPropertyOp24
 70
     1
102
RTVSPropertyOp25
 70
     1
102
RTVSPropertyOp26
 70
     1
102
RTVSPropertyOp27
 70
     1
102
RTVSPropertyOp28
 70
     1
102
RTVSPropertyOp29
 70
     1
102
RTVSPropertyOp30
 70
     1
102
RTVSPropertyOp31
 70
     1
102
RTVSPropertyOp32
 70
     1
102
RTVSPropertyOp33
 70
     1
102
RTVSPropertyOp34
 70
     1
102
RTVSPropertyOp35
 70
     1
102
RTVSPropertyOp36
 70
     1
102
RTVSPropertyOp37
 70
     1
102
RTVSPropertyOp38
 70
     1
102
RTVSPropertyOp39
 70
     1
102
RTVSPropertyOp40
 70
     1
102
RTVSPropertyOp41
 70
     1
102
RTVSPropertyOp42
 70
     1
102
RTVSPropertyOp43
 70
     1
102
RTVSPropertyOp44
 70
     1
102
RTVSPropertyOp45
 70
     1
102
RTVSPropertyOp46
 70
     1
102
RTVSPropertyOp47
 70
     1
102
RTVSPropertyOp48
 70
     1
102
RTVSPropertyOp49
 70
     1
102
RTVSPropertyOp50
 70
     1
102
RTVSPropertyOp51
 70
     0
102
RTVSPropertyOp52
 70
     0
102
RTVSPropertyOp53
 70
     1
102
RTVSPropertyOp54
 70
     1
102
RTVSPropertyOp55
 70
     1
102
RTVSPropertyOp56
 70
     1
102
RTVSPropertyOp57
 70
     1
102
RTVSPropertyOp58
 70
     1
102
RTVSPropertyOp59
 70
     1
102
RTVSPropertyOp60
 70
     1
102
RTVSPropertyOp61
 70
     1
102
RTVSPropertyOp62
 70
     1
  0
XRECORD
  5
AB51
102
{ACAD_REACTORS
330
AB50
102
}
330
AB50
100
AcDbXrecord
280
     1
102
RTVSPost2010Prop28
280
     0
102
RTVSPost2010PropOp28
 70
     1
102
RTVSPost2010Prop29
280
     1
102
RTVSPost2010PropOp29
 70
     1
102
RTVSPost2010Prop30
280
     1
102
RTVSPost2010PropOp30
 70
     1
102
RTVSPost2010Prop31
280
     0
102
RTVSPost2010PropOp31
 70
     1
102
RTVSPost2010Prop32
280
     0
102
RTVSPost2010PropOp32
 70
     1
102
RTVSPost2010Prop33
280
     0
102
RTVSPost2010PropOp33
 70
     1
102
RTVSPost2010Prop34
280
     0
102
RTVSPost2010PropOp34
 70
     1
102
RTVSPost2010Prop35
280
     0
102
RTVSPost2010PropOp35
 70
     1
102
RTVSPost2010Prop36
280
     0
102
RTVSPost2010PropOp36
 70
     1
102
RTVSPost2010Prop37
 90
       50
102
RTVSPost2010PropOp37
 70
     1
102
RTVSPost2010Prop38
140
0.0
102
RTVSPost2010PropOp38
 70
     1
102
RTVSPost2010Prop39
140
1.0
102
RTVSPost2010PropOp39
 70
     1
102
RTVSPost2010Prop40
 90
        0
102
RTVSPost2010PropOp40
 70
     1
102
RTVSPost2010Prop41ColorIndex
 90
       18
102
RTVSPost2010Prop41ColorRGB
 90
        0
102
RTVSPost2010PropOp41
 70
     1
102
RTVSPost2010Prop42
 90
       50
102
RTVSPost2010PropOp42
 70
     1
102
RTVSPost2010Prop43
 90
        3
102
RTVSPost2010PropOp43
 70
     1
102
RTVSPost2010Prop44ColorIndex
 90
        5
102
RTVSPost2010Prop44ColorRGB
 90
      255
102
RTVSPost2010PropOp44
 70
     1
102
RTVSPost2010Prop45
280
     0
102
RTVSPost2010PropOp45
 70
     1
102
RTVSPost2010Prop46
 90
       50
102
RTVSPost2010PropOp46
 70
     1
102
RTVSPost2010Prop47
 90
       50
102
RTVSPost2010PropOp47
 70
     1
102
RTVSPost2010Prop48
 90
       50
102
RTVSPost2010PropOp48
 70
     1
102
RTVSPost2010Prop49
280
     0
102
RTVSPost2010PropOp49
 70
     1
102
RTVSPost2010Prop50
 90
       50
102
RTVSPost2010PropOp50
 70
     1
102
RTVSPost2010Prop51ColorIndex
 90
      256
102
RTVSPost2010Prop51ColorRGB
 90
-16777216
102
RTVSPost2010PropOp51
 70
     0
102
RTVSPost2010Prop52
140
1.0
102
RTVSPost2010PropOp52
 70
     0
102
RTVSPost2010Prop53
 90
        2
102
RTVSPost2010PropOp53
 70
     1
102
RTVSPost2010Prop54
  1
strokes_ogs.tif
102
RTVSPost2010PropOp54
 70
     1
102
RTVSPost2010Prop55
280
     0
102
RTVSPost2010PropOp55
 70
     1
102
RTVSPost2010Prop56
140
1.0
102
RTVSPost2010PropOp56
 70
     1
102
RTVSPost2010Prop57
140
1.0
102
RTVSPost2010PropOp57
 70
     1
102
RTVSPropertyOp0
 70
     1
102
RTVSPropertyOp1
 70
     1
102
RTVSPropertyOp2
 70
     1
102
RTVSPropertyOp3
 70
     1
102
RTVSPropertyOp4
 70
     1
102
RTVSPropertyOp5
 70
     1
102
RTVSPropertyOp6
 70
     1
102
RTVSPropertyOp7
 70
     1
102
RTVSPropertyOp8
 70
     1
102
RTVSPropertyOp9
 70
     1
102
RTVSPropertyOp10
 70
     1
102
RTVSPropertyOp11
 70
     1
102
RTVSPropertyOp12
 70
     1
102
RTVSPropertyOp13
 70
     1
102
RTVSPropertyOp14
 70
     1
102
RTVSPropertyOp15
 70
     1
102
RTVSPropertyOp16
 70
     1
102
RTVSPropertyOp17
 70
     1
102
RTVSPropertyOp18
 70
     1
102
RTVSPropertyOp19
 70
     1
102
RTVSPropertyOp20
 70
     1
102
RTVSPropertyOp21
 70
     1
102
RTVSPropertyOp22
 70
     1
102
RTVSPropertyOp23
 70
     1
102
RTVSPropertyOp24
 70
     1
102
RTVSPropertyOp25
 70
     1
102
RTVSPropertyOp26
 70
     1
102
RTVSPropertyOp27
 70
     1
102
RTVSPropertyOp28
 70
     1
102
RTVSPropertyOp29
 70
     1
102
RTVSPropertyOp30
 70
     1
102
RTVSPropertyOp31
 70
     1
102
RTVSPropertyOp32
 70
     1
102
RTVSPropertyOp33
 70
     1
102
RTVSPropertyOp34
 70
     1
102
RTVSPropertyOp35
 70
     1
102
RTVSPropertyOp36
 70
     1
102
RTVSPropertyOp37
 70
     1
102
RTVSPropertyOp38
 70
     1
102
RTVSPropertyOp39
 70
     1
102
RTVSPropertyOp40
 70
     1
102
RTVSPropertyOp41
 70
     1
102
RTVSPropertyOp42
 70
     1
102
RTVSPropertyOp43
 70
     1
102
RTVSPropertyOp44
 70
     1
102
RTVSPropertyOp45
 70
     1
102
RTVSPropertyOp46
 70
     1
102
RTVSPropertyOp47
 70
     1
102
RTVSPropertyOp48
 70
     1
102
RTVSPropertyOp49
 70
     1
102
RTVSPropertyOp50
 70
     1
102
RTVSPropertyOp51
 70
     0
102
RTVSPropertyOp52
 70
     0
102
RTVSPropertyOp53
 70
     1
102
RTVSPropertyOp54
 70
     1
102
RTVSPropertyOp55
 70
     1
102
RTVSPropertyOp56
 70
     1
102
RTVSPropertyOp57
 70
     1
102
RTVSPropertyOp58
 70
     1
102
RTVSPropertyOp59
 70
     1
102
RTVSPropertyOp60
 70
     1
102
RTVSPropertyOp61
 70
     1
102
RTVSPropertyOp62
 70
     1
  0
ENDSEC
  0
EOF
