ISO-10303-21;
HEADER;
/****************************************************************
 * Generated by software with PDE/Lib inside                    *
 * PDElib Version 4.4.1-0003, patched  Thursday August 19 11:58 *
 * International Technegroup Inc. (www.iti-oh.com)              *
 ****************************************************************/
FILE_DESCRIPTION((''),'2;1');
FILE_NAME('','2005-10-07T12:32:37',(''),(''),'','CADfix','');
FILE_SCHEMA(('AUTOMOTIVE_DESIGN'));
ENDSEC;
DATA;
#5=APPLICATION_CONTEXT('automotive design');
#6=APPLICATION_PROTOCOL_DEFINITION('Draft International Standard','automotive_design',1998,#5);
#7=PRODUCT_CONTEXT('None',#5,'mechanical');
#8=PRODUCT('cam','','None',(#7));
#9=PRODUCT_RELATED_PRODUCT_CATEGORY('part','description',(#8));
#10=PRODUCT_DEFINITION_FORMATION('None','None',#8);
#11=PRODUCT_DEFINITION_CONTEXT('part definition',#5,'design');
#12=PRODUCT_DEFINITION('None','None',#10,#11);
#18=(NAMED_UNIT(*)PLANE_ANGLE_UNIT()SI_UNIT($,.RADIAN.));
#19=DIMENSIONAL_EXPONENTS(0.0,0.0,0.0,0.0,0.0,0.0,0.0);
#20=PLANE_ANGLE_MEASURE_WITH_UNIT(PLANE_ANGLE_MEASURE(0.017453292500000),#18);
#24=(CONVERSION_BASED_UNIT('DEGREE',#20)NAMED_UNIT(#19)PLANE_ANGLE_UNIT());
#28=(NAMED_UNIT(*)SI_UNIT($,.STERADIAN.)SOLID_ANGLE_UNIT());
#32=(LENGTH_UNIT()NAMED_UNIT(*)SI_UNIT(.MILLI.,.METRE.));
#34=UNCERTAINTY_MEASURE_WITH_UNIT(LENGTH_MEASURE(0.001000000000000),#32,'DISTANCE_ACCURACY_VALUE','');
#36=(GEOMETRIC_REPRESENTATION_CONTEXT(3)GLOBAL_UNCERTAINTY_ASSIGNED_CONTEXT((#34))GLOBAL_UNIT_ASSIGNED_CONTEXT((#24,#28,#32))REPRESENTATION_CONTEXT('None','None'));
#37=AXIS2_PLACEMENT_3D('',#38,#39,#40);
#38=CARTESIAN_POINT('',(0.0,0.0,0.0));
#39=DIRECTION('',(0.0,0.0,1.0));
#40=DIRECTION('',(1.0,0.0,0.0));
#41=ADVANCED_BREP_SHAPE_REPRESENTATION('',(#37,#395),#36);
#42=PRODUCT_DEFINITION_SHAPE('','',#12);
#43=SHAPE_DEFINITION_REPRESENTATION(#42,#41);
#44=CARTESIAN_POINT('',(-23.845169445440838,0.0,14.298689959607350));
#45=CARTESIAN_POINT('',(82.845565109185088,0.0,14.298689959607350));
#46=CARTESIAN_POINT('',(-23.845169445440838,0.0,-14.298490656976320));
#47=CARTESIAN_POINT('',(82.845565109185088,0.0,-14.298490656976320));
#48=B_SPLINE_SURFACE_WITH_KNOTS('',1,1,((#44,#46),(#45,#47)),.UNSPECIFIED.,.F.,.F.,.U.,(2,2),(2,2),(0.0,106.690734554625910),(0.0,28.597180616583671),.UNSPECIFIED.);
#49=CARTESIAN_POINT('',(78.000399999999999,0.0,10.0));
#50=VERTEX_POINT('',#49);
#51=CARTESIAN_POINT('',(55.0,0.0,-12.999800000000000));
#52=VERTEX_POINT('',#51);
#53=CARTESIAN_POINT('',(78.000399999999999,0.0,10.0));
#54=CARTESIAN_POINT('',(55.0,0.0,-12.999800000000000));
#55=QUASI_UNIFORM_CURVE('',1,(#53,#54),.UNSPECIFIED.,.F.,.U.);
#56=EDGE_CURVE('',#50,#52,#55,.T.);
#57=ORIENTED_EDGE('',*,*,#56,.T.);
#58=CARTESIAN_POINT('',(-14.0,0.0,-12.999800000000000));
#59=VERTEX_POINT('',#58);
#60=CARTESIAN_POINT('',(55.0,0.0,-12.999800000000000));
#61=CARTESIAN_POINT('',(-14.0,0.0,-12.999800000000000));
#62=QUASI_UNIFORM_CURVE('',1,(#60,#61),.UNSPECIFIED.,.F.,.U.);
#63=EDGE_CURVE('',#52,#59,#62,.T.);
#64=ORIENTED_EDGE('',*,*,#63,.T.);
#65=CARTESIAN_POINT('',(-19.0,0.0,-8.0));
#66=VERTEX_POINT('',#65);
#67=CARTESIAN_POINT('',(-14.0,0.0,-12.999800000000000));
#68=CARTESIAN_POINT('',(-19.0,0.0,-8.0));
#69=QUASI_UNIFORM_CURVE('',1,(#67,#68),.UNSPECIFIED.,.F.,.U.);
#70=EDGE_CURVE('',#59,#66,#69,.T.);
#71=ORIENTED_EDGE('',*,*,#70,.T.);
#72=CARTESIAN_POINT('',(-19.0,0.0,7.999999999999900));
#73=VERTEX_POINT('',#72);
#74=CARTESIAN_POINT('',(-19.0,0.0,-8.0));
#75=CARTESIAN_POINT('',(-19.0,0.0,7.999999999999900));
#76=QUASI_UNIFORM_CURVE('',1,(#74,#75),.UNSPECIFIED.,.F.,.U.);
#77=EDGE_CURVE('',#66,#73,#76,.T.);
#78=ORIENTED_EDGE('',*,*,#77,.T.);
#79=CARTESIAN_POINT('',(-14.0,0.0,13.0));
#80=VERTEX_POINT('',#79);
#81=CARTESIAN_POINT('',(-19.0,0.0,7.999999999999900));
#82=CARTESIAN_POINT('',(-14.0,0.0,13.0));
#83=QUASI_UNIFORM_CURVE('',1,(#81,#82),.UNSPECIFIED.,.F.,.U.);
#84=EDGE_CURVE('',#73,#80,#83,.T.);
#85=ORIENTED_EDGE('',*,*,#84,.T.);
#86=CARTESIAN_POINT('',(78.000399999999999,0.0,13.0));
#87=VERTEX_POINT('',#86);
#88=CARTESIAN_POINT('',(-14.0,0.0,13.0));
#89=CARTESIAN_POINT('',(78.000399999999999,0.0,13.0));
#90=QUASI_UNIFORM_CURVE('',1,(#88,#89),.UNSPECIFIED.,.F.,.U.);
#91=EDGE_CURVE('',#80,#87,#90,.T.);
#92=ORIENTED_EDGE('',*,*,#91,.T.);
#93=CARTESIAN_POINT('',(78.000399999999999,0.0,13.0));
#94=CARTESIAN_POINT('',(78.000399999999999,0.0,10.0));
#95=QUASI_UNIFORM_CURVE('',1,(#93,#94),.UNSPECIFIED.,.F.,.U.);
#96=EDGE_CURVE('',#87,#50,#95,.T.);
#97=ORIENTED_EDGE('',*,*,#96,.T.);
#98=EDGE_LOOP('',(#57,#64,#71,#78,#85,#92,#97));
#99=FACE_OUTER_BOUND('',#98,.T.);
#100=CARTESIAN_POINT('',(5.799000000000000,0.0,0.0));
#101=VERTEX_POINT('',#100);
#102=CARTESIAN_POINT('',(0.0,0.0,5.798199999999900));
#103=VERTEX_POINT('',#102);
#104=CARTESIAN_POINT('',(5.799000000000000,0.0,0.0));
#105=CARTESIAN_POINT('',(0.0,0.0,5.798199999999900));
#106=QUASI_UNIFORM_CURVE('',1,(#104,#105),.UNSPECIFIED.,.F.,.U.);
#107=EDGE_CURVE('',#101,#103,#106,.T.);
#108=ORIENTED_EDGE('',*,*,#107,.T.);
#109=CARTESIAN_POINT('',(-5.798000000000000,0.0,0.0));
#110=VERTEX_POINT('',#109);
#111=CARTESIAN_POINT('',(0.0,0.0,5.798199999999900));
#112=CARTESIAN_POINT('',(-5.798000000000000,0.0,0.0));
#113=QUASI_UNIFORM_CURVE('',1,(#111,#112),.UNSPECIFIED.,.F.,.U.);
#114=EDGE_CURVE('',#103,#110,#113,.T.);
#115=ORIENTED_EDGE('',*,*,#114,.T.);
#116=CARTESIAN_POINT('',(0.0,0.0,-5.798300000000000));
#117=VERTEX_POINT('',#116);
#118=CARTESIAN_POINT('',(-5.798000000000000,0.0,0.0));
#119=CARTESIAN_POINT('',(0.0,0.0,-5.798300000000000));
#120=QUASI_UNIFORM_CURVE('',1,(#118,#119),.UNSPECIFIED.,.F.,.U.);
#121=EDGE_CURVE('',#110,#117,#120,.T.);
#122=ORIENTED_EDGE('',*,*,#121,.T.);
#123=CARTESIAN_POINT('',(0.0,0.0,-5.798300000000000));
#124=CARTESIAN_POINT('',(5.799000000000000,0.0,0.0));
#125=QUASI_UNIFORM_CURVE('',1,(#123,#124),.UNSPECIFIED.,.F.,.U.);
#126=EDGE_CURVE('',#117,#101,#125,.T.);
#127=ORIENTED_EDGE('',*,*,#126,.T.);
#128=EDGE_LOOP('',(#108,#115,#122,#127));
#129=FACE_BOUND('',#128,.T.);
#130=ADVANCED_FACE('',(#99,#129),#48,.T.);
#131=CARTESIAN_POINT('',(-23.845169445440838,-3.200000000000190,14.298689959607350));
#132=CARTESIAN_POINT('',(82.845565109185088,-3.200000000000190,14.298689959607350));
#133=CARTESIAN_POINT('',(-23.845169445440838,-3.200000000000190,-14.298490656976320));
#134=CARTESIAN_POINT('',(82.845565109185088,-3.200000000000190,-14.298490656976320));
#135=B_SPLINE_SURFACE_WITH_KNOTS('',1,1,((#131,#133),(#132,#134)),.UNSPECIFIED.,.F.,.F.,.U.,(2,2),(2,2),(0.0,106.690734554625910),(0.0,28.597180616583671),.UNSPECIFIED.);
#136=CARTESIAN_POINT('',(78.000399999999999,-3.200000000000205,10.0));
#137=VERTEX_POINT('',#136);
#138=CARTESIAN_POINT('',(55.0,-3.200000000000205,-12.999800000000000));
#139=VERTEX_POINT('',#138);
#140=CARTESIAN_POINT('',(78.000399999999999,-3.200000000000205,10.0));
#141=CARTESIAN_POINT('',(55.0,-3.200000000000205,-12.999800000000000));
#142=QUASI_UNIFORM_CURVE('',1,(#140,#141),.UNSPECIFIED.,.F.,.U.);
#143=EDGE_CURVE('',#137,#139,#142,.T.);
#144=ORIENTED_EDGE('',*,*,#143,.F.);
#145=CARTESIAN_POINT('',(78.000399999999999,-3.200000000000205,13.0));
#146=VERTEX_POINT('',#145);
#147=CARTESIAN_POINT('',(78.000399999999999,-3.200000000000205,13.0));
#148=CARTESIAN_POINT('',(78.000399999999999,-3.200000000000205,10.0));
#149=QUASI_UNIFORM_CURVE('',1,(#147,#148),.UNSPECIFIED.,.F.,.U.);
#150=EDGE_CURVE('',#146,#137,#149,.T.);
#151=ORIENTED_EDGE('',*,*,#150,.F.);
#152=CARTESIAN_POINT('',(-14.0,-3.200000000000205,13.0));
#153=VERTEX_POINT('',#152);
#154=CARTESIAN_POINT('',(-14.0,-3.200000000000205,13.0));
#155=CARTESIAN_POINT('',(78.000399999999999,-3.200000000000205,13.0));
#156=QUASI_UNIFORM_CURVE('',1,(#154,#155),.UNSPECIFIED.,.F.,.U.);
#157=EDGE_CURVE('',#153,#146,#156,.T.);
#158=ORIENTED_EDGE('',*,*,#157,.F.);
#159=CARTESIAN_POINT('',(-19.0,-3.200000000000205,7.999999999999900));
#160=VERTEX_POINT('',#159);
#161=CARTESIAN_POINT('',(-19.0,-3.200000000000205,7.999999999999900));
#162=CARTESIAN_POINT('',(-14.0,-3.200000000000205,13.0));
#163=QUASI_UNIFORM_CURVE('',1,(#161,#162),.UNSPECIFIED.,.F.,.U.);
#164=EDGE_CURVE('',#160,#153,#163,.T.);
#165=ORIENTED_EDGE('',*,*,#164,.F.);
#166=CARTESIAN_POINT('',(-19.0,-3.200000000000205,-8.0));
#167=VERTEX_POINT('',#166);
#168=CARTESIAN_POINT('',(-19.0,-3.200000000000205,-8.0));
#169=CARTESIAN_POINT('',(-19.0,-3.200000000000205,7.999999999999900));
#170=QUASI_UNIFORM_CURVE('',1,(#168,#169),.UNSPECIFIED.,.F.,.U.);
#171=EDGE_CURVE('',#167,#160,#170,.T.);
#172=ORIENTED_EDGE('',*,*,#171,.F.);
#173=CARTESIAN_POINT('',(-14.0,-3.200000000000205,-12.999800000000000));
#174=VERTEX_POINT('',#173);
#175=CARTESIAN_POINT('',(-14.0,-3.200000000000205,-12.999800000000000));
#176=CARTESIAN_POINT('',(-19.0,-3.200000000000205,-8.0));
#177=QUASI_UNIFORM_CURVE('',1,(#175,#176),.UNSPECIFIED.,.F.,.U.);
#178=EDGE_CURVE('',#174,#167,#177,.T.);
#179=ORIENTED_EDGE('',*,*,#178,.F.);
#180=CARTESIAN_POINT('',(55.0,-3.200000000000205,-12.999800000000000));
#181=CARTESIAN_POINT('',(-14.0,-3.200000000000205,-12.999800000000000));
#182=QUASI_UNIFORM_CURVE('',1,(#180,#181),.UNSPECIFIED.,.F.,.U.);
#183=EDGE_CURVE('',#139,#174,#182,.T.);
#184=ORIENTED_EDGE('',*,*,#183,.F.);
#185=EDGE_LOOP('',(#144,#151,#158,#165,#172,#179,#184));
#186=FACE_OUTER_BOUND('',#185,.T.);
#187=CARTESIAN_POINT('',(5.799000000000000,-3.200000000000205,0.0));
#188=VERTEX_POINT('',#187);
#189=CARTESIAN_POINT('',(0.0,-3.200000000000205,5.798199999999900));
#190=VERTEX_POINT('',#189);
#191=CARTESIAN_POINT('',(5.799000000000000,-3.200000000000205,0.0));
#192=CARTESIAN_POINT('',(0.0,-3.200000000000205,5.798199999999900));
#193=QUASI_UNIFORM_CURVE('',1,(#191,#192),.UNSPECIFIED.,.F.,.U.);
#194=EDGE_CURVE('',#188,#190,#193,.T.);
#195=ORIENTED_EDGE('',*,*,#194,.F.);
#196=CARTESIAN_POINT('',(0.0,-3.200000000000205,-5.798300000000000));
#197=VERTEX_POINT('',#196);
#198=CARTESIAN_POINT('',(0.0,-3.200000000000205,-5.798300000000000));
#199=CARTESIAN_POINT('',(5.799000000000000,-3.200000000000205,0.0));
#200=QUASI_UNIFORM_CURVE('',1,(#198,#199),.UNSPECIFIED.,.F.,.U.);
#201=EDGE_CURVE('',#197,#188,#200,.T.);
#202=ORIENTED_EDGE('',*,*,#201,.F.);
#203=CARTESIAN_POINT('',(-5.798000000000000,-3.200000000000205,0.0));
#204=VERTEX_POINT('',#203);
#205=CARTESIAN_POINT('',(-5.798000000000000,-3.200000000000205,0.0));
#206=CARTESIAN_POINT('',(0.0,-3.200000000000205,-5.798300000000000));
#207=QUASI_UNIFORM_CURVE('',1,(#205,#206),.UNSPECIFIED.,.F.,.U.);
#208=EDGE_CURVE('',#204,#197,#207,.T.);
#209=ORIENTED_EDGE('',*,*,#208,.F.);
#210=CARTESIAN_POINT('',(0.0,-3.200000000000205,5.798199999999900));
#211=CARTESIAN_POINT('',(-5.798000000000000,-3.200000000000205,0.0));
#212=QUASI_UNIFORM_CURVE('',1,(#210,#211),.UNSPECIFIED.,.F.,.U.);
#213=EDGE_CURVE('',#190,#204,#212,.T.);
#214=ORIENTED_EDGE('',*,*,#213,.F.);
#215=EDGE_LOOP('',(#195,#202,#209,#214));
#216=FACE_BOUND('',#215,.T.);
#217=ADVANCED_FACE('',(#186,#216),#135,.F.);
#218=CARTESIAN_POINT('',(-0.289659909168586,-3.359840053876616,-6.087924944185585));
#219=CARTESIAN_POINT('',(6.088659753627280,-3.359840053876616,0.289624788663068));
#220=CARTESIAN_POINT('',(-0.289659909168586,0.159840082486640,-6.087924944185585));
#221=CARTESIAN_POINT('',(6.088659753627280,0.159840082486640,0.289624788663068));
#222=B_SPLINE_SURFACE_WITH_KNOTS('',1,1,((#218,#220),(#219,#221)),.UNSPECIFIED.,.F.,.F.,.U.,(2,2),(2,2),(0.0,9.019761766020558),(0.0,3.519680136363256),.UNSPECIFIED.);
#223=ORIENTED_EDGE('',*,*,#126,.F.);
#224=CARTESIAN_POINT('',(0.0,-3.200000000000205,-5.798300000000000));
#225=CARTESIAN_POINT('',(0.0,0.0,-5.798300000000000));
#226=QUASI_UNIFORM_CURVE('',1,(#224,#225),.UNSPECIFIED.,.F.,.U.);
#227=EDGE_CURVE('',#197,#117,#226,.T.);
#228=ORIENTED_EDGE('',*,*,#227,.F.);
#229=ORIENTED_EDGE('',*,*,#201,.T.);
#230=CARTESIAN_POINT('',(5.799000000000000,-3.200000000000205,0.0));
#231=CARTESIAN_POINT('',(5.799000000000000,0.0,0.0));
#232=QUASI_UNIFORM_CURVE('',1,(#230,#231),.UNSPECIFIED.,.F.,.U.);
#233=EDGE_CURVE('',#188,#101,#232,.T.);
#234=ORIENTED_EDGE('',*,*,#233,.T.);
#235=EDGE_LOOP('',(#223,#228,#229,#234));
#236=FACE_OUTER_BOUND('',#235,.T.);
#237=ADVANCED_FACE('',(#236),#222,.T.);
#238=CARTESIAN_POINT('',(78.000399999999999,-3.359840053876616,13.149849994185420));
#239=CARTESIAN_POINT('',(78.000399999999999,-3.359840053876616,9.850149925348312));
#240=CARTESIAN_POINT('',(78.000399999999999,0.159840082486639,13.149849994185420));
#241=CARTESIAN_POINT('',(78.000399999999999,0.159840082486639,9.850149925348312));
#242=B_SPLINE_SURFACE_WITH_KNOTS('',1,1,((#238,#240),(#239,#241)),.UNSPECIFIED.,.F.,.F.,.U.,(2,2),(2,2),(0.0,3.299700068837108),(0.0,3.519680136363255),.UNSPECIFIED.);
#243=ORIENTED_EDGE('',*,*,#96,.F.);
#244=CARTESIAN_POINT('',(78.000399999999999,-3.200000000000205,13.0));
#245=CARTESIAN_POINT('',(78.000399999999999,0.0,13.0));
#246=QUASI_UNIFORM_CURVE('',1,(#244,#245),.UNSPECIFIED.,.F.,.U.);
#247=EDGE_CURVE('',#146,#87,#246,.T.);
#248=ORIENTED_EDGE('',*,*,#247,.F.);
#249=ORIENTED_EDGE('',*,*,#150,.T.);
#250=CARTESIAN_POINT('',(78.000399999999999,-3.200000000000205,10.0));
#251=CARTESIAN_POINT('',(78.000399999999999,0.0,10.0));
#252=QUASI_UNIFORM_CURVE('',1,(#250,#251),.UNSPECIFIED.,.F.,.U.);
#253=EDGE_CURVE('',#137,#50,#252,.T.);
#254=ORIENTED_EDGE('',*,*,#253,.T.);
#255=EDGE_LOOP('',(#243,#248,#249,#254));
#256=FACE_OUTER_BOUND('',#255,.T.);
#257=ADVANCED_FACE('',(#256),#242,.T.);
#258=CARTESIAN_POINT('',(-18.595419472995321,-3.359840053876616,13.0));
#259=CARTESIAN_POINT('',(82.595815360256978,-3.359840053876616,13.0));
#260=CARTESIAN_POINT('',(-18.595419472995321,0.159840082486640,13.0));
#261=CARTESIAN_POINT('',(82.595815360256978,0.159840082486640,13.0));
#262=B_SPLINE_SURFACE_WITH_KNOTS('',1,1,((#258,#260),(#259,#261)),.UNSPECIFIED.,.F.,.F.,.U.,(2,2),(2,2),(0.0,101.191234833252300),(0.0,3.519680136363255),.UNSPECIFIED.);
#263=ORIENTED_EDGE('',*,*,#91,.F.);
#264=CARTESIAN_POINT('',(-14.0,-3.200000000000205,13.0));
#265=CARTESIAN_POINT('',(-14.0,0.0,13.0));
#266=QUASI_UNIFORM_CURVE('',1,(#264,#265),.UNSPECIFIED.,.F.,.U.);
#267=EDGE_CURVE('',#153,#80,#266,.T.);
#268=ORIENTED_EDGE('',*,*,#267,.F.);
#269=ORIENTED_EDGE('',*,*,#157,.T.);
#270=ORIENTED_EDGE('',*,*,#247,.T.);
#271=EDGE_LOOP('',(#263,#268,#269,#270));
#272=FACE_OUTER_BOUND('',#271,.T.);
#273=ADVANCED_FACE('',(#272),#262,.T.);
#274=CARTESIAN_POINT('',(-19.249749990309031,-3.359840053876616,7.750250009690862));
#275=CARTESIAN_POINT('',(-13.750249875580460,-3.359840053876616,13.249750124419430));
#276=CARTESIAN_POINT('',(-19.249749990309031,0.159840082486640,7.750250009690862));
#277=CARTESIAN_POINT('',(-13.750249875580460,0.159840082486640,13.249750124419430));
#278=B_SPLINE_SURFACE_WITH_KNOTS('',1,1,((#274,#276),(#275,#277)),.UNSPECIFIED.,.F.,.F.,.U.,(2,2),(2,2),(0.0,7.777467648521531),(0.0,3.519680136363256),.UNSPECIFIED.);
#279=ORIENTED_EDGE('',*,*,#84,.F.);
#280=CARTESIAN_POINT('',(-19.0,-3.200000000000205,7.999999999999900));
#281=CARTESIAN_POINT('',(-19.0,0.0,7.999999999999900));
#282=QUASI_UNIFORM_CURVE('',1,(#280,#281),.UNSPECIFIED.,.F.,.U.);
#283=EDGE_CURVE('',#160,#73,#282,.T.);
#284=ORIENTED_EDGE('',*,*,#283,.F.);
#285=ORIENTED_EDGE('',*,*,#164,.T.);
#286=ORIENTED_EDGE('',*,*,#267,.T.);
#287=EDGE_LOOP('',(#279,#284,#285,#286));
#288=FACE_OUTER_BOUND('',#287,.T.);
#289=ADVANCED_FACE('',(#288),#278,.T.);
#290=CARTESIAN_POINT('',(-19.0,-3.359840053876616,-8.799199968988887));
#291=CARTESIAN_POINT('',(-19.0,-3.359840053876616,8.799200398142235));
#292=CARTESIAN_POINT('',(-19.0,0.159840082486640,-8.799199968988887));
#293=CARTESIAN_POINT('',(-19.0,0.159840082486640,8.799200398142235));
#294=B_SPLINE_SURFACE_WITH_KNOTS('',1,1,((#290,#292),(#291,#293)),.UNSPECIFIED.,.F.,.F.,.U.,(2,2),(2,2),(0.0,17.598400367131120),(0.0,3.519680136363255),.UNSPECIFIED.);
#295=ORIENTED_EDGE('',*,*,#77,.F.);
#296=CARTESIAN_POINT('',(-19.0,-3.200000000000205,-8.0));
#297=CARTESIAN_POINT('',(-19.0,0.0,-8.0));
#298=QUASI_UNIFORM_CURVE('',1,(#296,#297),.UNSPECIFIED.,.F.,.U.);
#299=EDGE_CURVE('',#167,#66,#298,.T.);
#300=ORIENTED_EDGE('',*,*,#299,.F.);
#301=ORIENTED_EDGE('',*,*,#171,.T.);
#302=ORIENTED_EDGE('',*,*,#283,.T.);
#303=EDGE_LOOP('',(#295,#300,#301,#302));
#304=FACE_OUTER_BOUND('',#303,.T.);
#305=ADVANCED_FACE('',(#304),#294,.T.);
#306=CARTESIAN_POINT('',(-13.750250150500239,-3.359840053876616,-13.249539859505790));
#307=CARTESIAN_POINT('',(-19.249750117720659,-3.359840053876616,-7.750259872284040));
#308=CARTESIAN_POINT('',(-13.750250150500239,0.159840082486639,-13.249539859505790));
#309=CARTESIAN_POINT('',(-19.249750117720659,0.159840082486639,-7.750259872284040));
#310=B_SPLINE_SURFACE_WITH_KNOTS('',1,1,((#306,#308),(#307,#309)),.UNSPECIFIED.,.F.,.F.,.U.,(2,2),(2,2),(0.0,7.777311892120245),(0.0,3.519680136363255),.UNSPECIFIED.);
#311=ORIENTED_EDGE('',*,*,#70,.F.);
#312=CARTESIAN_POINT('',(-14.0,-3.200000000000205,-12.999800000000000));
#313=CARTESIAN_POINT('',(-14.0,0.0,-12.999800000000000));
#314=QUASI_UNIFORM_CURVE('',1,(#312,#313),.UNSPECIFIED.,.F.,.U.);
#315=EDGE_CURVE('',#174,#59,#314,.T.);
#316=ORIENTED_EDGE('',*,*,#315,.F.);
#317=ORIENTED_EDGE('',*,*,#178,.T.);
#318=ORIENTED_EDGE('',*,*,#299,.T.);
#319=EDGE_LOOP('',(#311,#316,#317,#318));
#320=FACE_OUTER_BOUND('',#319,.T.);
#321=ADVANCED_FACE('',(#320),#310,.T.);
#322=CARTESIAN_POINT('',(58.446549866264611,-3.359840053876616,-12.999800000000000));
#323=CARTESIAN_POINT('',(-17.446551716988829,-3.359840053876616,-12.999800000000000));
#324=CARTESIAN_POINT('',(58.446549866264611,0.159840082486640,-12.999800000000000));
#325=CARTESIAN_POINT('',(-17.446551716988829,0.159840082486640,-12.999800000000000));
#326=B_SPLINE_SURFACE_WITH_KNOTS('',1,1,((#322,#324),(#323,#325)),.UNSPECIFIED.,.F.,.F.,.U.,(2,2),(2,2),(0.0,75.893101583253440),(0.0,3.519680136363256),.UNSPECIFIED.);
#327=ORIENTED_EDGE('',*,*,#63,.F.);
#328=CARTESIAN_POINT('',(55.0,-3.200000000000205,-12.999800000000000));
#329=CARTESIAN_POINT('',(55.0,0.0,-12.999800000000000));
#330=QUASI_UNIFORM_CURVE('',1,(#328,#329),.UNSPECIFIED.,.F.,.U.);
#331=EDGE_CURVE('',#139,#52,#330,.T.);
#332=ORIENTED_EDGE('',*,*,#331,.F.);
#333=ORIENTED_EDGE('',*,*,#183,.T.);
#334=ORIENTED_EDGE('',*,*,#315,.T.);
#335=EDGE_LOOP('',(#327,#332,#333,#334));
#336=FACE_OUTER_BOUND('',#335,.T.);
#337=ADVANCED_FACE('',(#336),#326,.T.);
#338=CARTESIAN_POINT('',(79.149268208130380,-3.359840053876616,11.148838238176589));
#339=CARTESIAN_POINT('',(53.851129529833933,-3.359840053876616,-14.148640500153100));
#340=CARTESIAN_POINT('',(79.149268208130380,0.159840082486640,11.148838238176589));
#341=CARTESIAN_POINT('',(53.851129529833933,0.159840082486640,-14.148640500153100));
#342=B_SPLINE_SURFACE_WITH_KNOTS('',1,1,((#338,#340),(#339,#341)),.UNSPECIFIED.,.F.,.F.,.U.,(2,2),(2,2),(0.0,35.776504176659877),(0.0,3.519680136363255),.UNSPECIFIED.);
#343=ORIENTED_EDGE('',*,*,#56,.F.);
#344=ORIENTED_EDGE('',*,*,#253,.F.);
#345=ORIENTED_EDGE('',*,*,#143,.T.);
#346=ORIENTED_EDGE('',*,*,#331,.T.);
#347=EDGE_LOOP('',(#343,#344,#345,#346));
#348=FACE_OUTER_BOUND('',#347,.T.);
#349=ADVANCED_FACE('',(#348),#342,.T.);
#350=CARTESIAN_POINT('',(-6.087610013620348,-3.359840053876616,0.289624998615877));
#351=CARTESIAN_POINT('',(0.289609806267716,-3.359840053876616,-6.087924791252503));
#352=CARTESIAN_POINT('',(-6.087610013620348,0.159840082486640,0.289624998615877));
#353=CARTESIAN_POINT('',(0.289609806267717,0.159840082486640,-6.087924791252503));
#354=B_SPLINE_SURFACE_WITH_KNOTS('',1,1,((#350,#352),(#351,#353)),.UNSPECIFIED.,.F.,.F.,.U.,(2,2),(2,2),(0.0,9.018984086548960),(0.0,3.519680136363255),.UNSPECIFIED.);
#355=ORIENTED_EDGE('',*,*,#121,.F.);
#356=CARTESIAN_POINT('',(-5.798000000000000,-3.200000000000205,0.0));
#357=CARTESIAN_POINT('',(-5.798000000000000,0.0,0.0));
#358=QUASI_UNIFORM_CURVE('',1,(#356,#357),.UNSPECIFIED.,.F.,.U.);
#359=EDGE_CURVE('',#204,#110,#358,.T.);
#360=ORIENTED_EDGE('',*,*,#359,.F.);
#361=ORIENTED_EDGE('',*,*,#208,.T.);
#362=ORIENTED_EDGE('',*,*,#227,.T.);
#363=EDGE_LOOP('',(#355,#360,#361,#362));
#364=FACE_OUTER_BOUND('',#363,.T.);
#365=ADVANCED_FACE('',(#364),#354,.T.);
#366=CARTESIAN_POINT('',(0.289610176902774,-3.359840053876616,6.087820166905321));
#367=CARTESIAN_POINT('',(-6.087609814035671,-3.359840053876616,-0.289619804025772));
#368=CARTESIAN_POINT('',(0.289610176902774,0.159840082486640,6.087820166905321));
#369=CARTESIAN_POINT('',(-6.087609814035671,0.159840082486640,-0.289619804025772));
#370=B_SPLINE_SURFACE_WITH_KNOTS('',1,1,((#366,#368),(#367,#369)),.UNSPECIFIED.,.F.,.F.,.U.,(2,2),(2,2),(0.0,9.018906552107882),(0.0,3.519680136363255),.UNSPECIFIED.);
#371=ORIENTED_EDGE('',*,*,#114,.F.);
#372=CARTESIAN_POINT('',(0.0,-3.200000000000205,5.798199999999900));
#373=CARTESIAN_POINT('',(0.0,0.0,5.798199999999900));
#374=QUASI_UNIFORM_CURVE('',1,(#372,#373),.UNSPECIFIED.,.F.,.U.);
#375=EDGE_CURVE('',#190,#103,#374,.T.);
#376=ORIENTED_EDGE('',*,*,#375,.F.);
#377=ORIENTED_EDGE('',*,*,#213,.T.);
#378=ORIENTED_EDGE('',*,*,#359,.T.);
#379=EDGE_LOOP('',(#371,#376,#377,#378));
#380=FACE_OUTER_BOUND('',#379,.T.);
#381=ADVANCED_FACE('',(#380),#370,.T.);
#382=CARTESIAN_POINT('',(6.088659929886687,-3.359840053876616,-0.289619969903253));
#383=CARTESIAN_POINT('',(-0.289660189122186,-3.359840053876616,6.087820229102895));
#384=CARTESIAN_POINT('',(6.088659929886687,0.159840082486640,-0.289619969903253));
#385=CARTESIAN_POINT('',(-0.289660189122186,0.159840082486640,6.087820229102895));
#386=B_SPLINE_SURFACE_WITH_KNOTS('',1,1,((#382,#384),(#383,#385)),.UNSPECIFIED.,.F.,.F.,.U.,(2,2),(2,2),(0.0,9.019684641518955),(0.0,3.519680136363256),.UNSPECIFIED.);
#387=ORIENTED_EDGE('',*,*,#107,.F.);
#388=ORIENTED_EDGE('',*,*,#233,.F.);
#389=ORIENTED_EDGE('',*,*,#194,.T.);
#390=ORIENTED_EDGE('',*,*,#375,.T.);
#391=EDGE_LOOP('',(#387,#388,#389,#390));
#392=FACE_OUTER_BOUND('',#391,.T.);
#393=ADVANCED_FACE('',(#392),#386,.T.);
#394=CLOSED_SHELL('',(#130,#217,#237,#257,#273,#289,#305,#321,#337,#349,#365,#381,#393));
#395=MANIFOLD_SOLID_BREP('cam',#394);
#401=(NAMED_UNIT(*)PLANE_ANGLE_UNIT()SI_UNIT($,.RADIAN.));
#402=DIMENSIONAL_EXPONENTS(0.0,0.0,0.0,0.0,0.0,0.0,0.0);
#403=PLANE_ANGLE_MEASURE_WITH_UNIT(PLANE_ANGLE_MEASURE(0.017453292500000),#401);
#407=(CONVERSION_BASED_UNIT('DEGREE',#403)NAMED_UNIT(#402)PLANE_ANGLE_UNIT());
#411=(NAMED_UNIT(*)SI_UNIT($,.STERADIAN.)SOLID_ANGLE_UNIT());
#415=(LENGTH_UNIT()NAMED_UNIT(*)SI_UNIT(.MILLI.,.METRE.));
#417=UNCERTAINTY_MEASURE_WITH_UNIT(LENGTH_MEASURE(0.001000000000000),#415,'DISTANCE_ACCURACY_VALUE','');
#419=(GEOMETRIC_REPRESENTATION_CONTEXT(3)GLOBAL_UNCERTAINTY_ASSIGNED_CONTEXT((#417))GLOBAL_UNIT_ASSIGNED_CONTEXT((#407,#411,#415))REPRESENTATION_CONTEXT('','3D'));
ENDSEC;
END-ISO-10303-21;
