ISO-10303-21;
HEADER;
/****************************************************************
 * Generated by software with PDE/Lib inside                    *
 * PDElib Version 4.4.1-0003, patched  Thursday August 19 11:58 *
 * International Technegroup Inc. (www.iti-oh.com)              *
 ****************************************************************/
FILE_DESCRIPTION((''),'2;1');
FILE_NAME('','2005-10-12T14:09:40',(''),(''),'','CADfix','');
FILE_SCHEMA(('AUTOMOTIVE_DESIGN'));
ENDSEC;
DATA;
#5=APPLICATION_CONTEXT('automotive design');
#6=APPLICATION_PROTOCOL_DEFINITION('Draft International Standard','automotive_design',1998,#5);
#7=PRODUCT_CONTEXT('None',#5,'mechanical');
#8=PRODUCT('cam','','None',(#7));
#9=PRODUCT_RELATED_PRODUCT_CATEGORY('part','description',(#8));
#10=PRODUCT_DEFINITION_FORMATION('None','None',#8);
#11=PRODUCT_DEFINITION_CONTEXT('part definition',#5,'design');
#12=PRODUCT_DEFINITION('None','None',#10,#11);
#18=(NAMED_UNIT(*)PLANE_ANGLE_UNIT()SI_UNIT($,.RADIAN.));
#19=DIMENSIONAL_EXPONENTS(0.0,0.0,0.0,0.0,0.0,0.0,0.0);
#20=PLANE_ANGLE_MEASURE_WITH_UNIT(PLANE_ANGLE_MEASURE(0.017453292500000),#18);
#24=(CONVERSION_BASED_UNIT('DEGREE',#20)NAMED_UNIT(#19)PLANE_ANGLE_UNIT());
#28=(NAMED_UNIT(*)SI_UNIT($,.STERADIAN.)SOLID_ANGLE_UNIT());
#32=(LENGTH_UNIT()NAMED_UNIT(*)SI_UNIT(.MILLI.,.METRE.));
#34=UNCERTAINTY_MEASURE_WITH_UNIT(LENGTH_MEASURE(0.001000000000000),#32,'DISTANCE_ACCURACY_VALUE','');
#36=(GEOMETRIC_REPRESENTATION_CONTEXT(3)GLOBAL_UNCERTAINTY_ASSIGNED_CONTEXT((#34))GLOBAL_UNIT_ASSIGNED_CONTEXT((#24,#28,#32))REPRESENTATION_CONTEXT('None','None'));
#37=AXIS2_PLACEMENT_3D('',#38,#39,#40);
#38=CARTESIAN_POINT('',(0.0,0.0,0.0));
#39=DIRECTION('',(0.0,0.0,1.0));
#40=DIRECTION('',(1.0,0.0,0.0));
#41=ADVANCED_BREP_SHAPE_REPRESENTATION('',(#37,#457),#36);
#42=PRODUCT_DEFINITION_SHAPE('','',#12);
#43=SHAPE_DEFINITION_REPRESENTATION(#42,#41);
#44=CARTESIAN_POINT('',(-59.895359368467503,0.0,18.494088099654149));
#45=CARTESIAN_POINT('',(25.896066713540510,0.0,18.494088099654149));
#46=CARTESIAN_POINT('',(-59.895359368467503,0.0,-15.545510307139210));
#47=CARTESIAN_POINT('',(25.896066713540510,0.0,-15.545510307139210));
#48=B_SPLINE_SURFACE_WITH_KNOTS('',1,1,((#44,#46),(#45,#47)),.UNSPECIFIED.,.F.,.F.,.U.,(2,2),(2,2),(0.0,85.791426082008016),(0.0,34.039598406793360),.UNSPECIFIED.);
#49=CARTESIAN_POINT('',(21.494414386315299,0.0,16.948240165019349));
#50=VERTEX_POINT('',#49);
#51=CARTESIAN_POINT('',(-46.984047206318500,0.0,9.951464771365911));
#52=VERTEX_POINT('',#51);
#53=CARTESIAN_POINT('',(21.494414386315299,0.0,16.948240165019349));
#54=CARTESIAN_POINT('',(-46.984047206318500,0.0,9.951464771365911));
#55=QUASI_UNIFORM_CURVE('',1,(#53,#54),.UNSPECIFIED.,.F.,.U.);
#56=EDGE_CURVE('',#50,#52,#55,.T.);
#57=ORIENTED_EDGE('',*,*,#56,.F.);
#58=CARTESIAN_POINT('',(22.0,0.0,12.0));
#59=VERTEX_POINT('',#58);
#60=CARTESIAN_POINT('',(22.0,0.0,12.0));
#61=CARTESIAN_POINT('',(21.494414386315299,0.0,16.948240165019349));
#62=QUASI_UNIFORM_CURVE('',1,(#60,#61),.UNSPECIFIED.,.F.,.U.);
#63=EDGE_CURVE('',#59,#50,#62,.T.);
#64=ORIENTED_EDGE('',*,*,#63,.F.);
#65=CARTESIAN_POINT('',(16.0,0.0,12.0));
#66=VERTEX_POINT('',#65);
#67=CARTESIAN_POINT('',(16.0,0.0,12.0));
#68=CARTESIAN_POINT('',(22.0,0.0,12.0));
#69=QUASI_UNIFORM_CURVE('',1,(#67,#68),.UNSPECIFIED.,.F.,.U.);
#70=EDGE_CURVE('',#66,#59,#69,.T.);
#71=ORIENTED_EDGE('',*,*,#70,.F.);
#72=CARTESIAN_POINT('',(16.0,0.0,-6.0));
#73=VERTEX_POINT('',#72);
#74=CARTESIAN_POINT('',(16.0,0.0,-6.0));
#75=CARTESIAN_POINT('',(16.0,0.0,12.0));
#76=QUASI_UNIFORM_CURVE('',1,(#74,#75),.UNSPECIFIED.,.F.,.U.);
#77=EDGE_CURVE('',#73,#66,#76,.T.);
#78=ORIENTED_EDGE('',*,*,#77,.F.);
#79=CARTESIAN_POINT('',(7.490982973324590,0.0,-13.983789931264120));
#80=VERTEX_POINT('',#79);
#81=CARTESIAN_POINT('',(7.490982973324588,0.0,-13.983789931264131));
#82=CARTESIAN_POINT('',(10.947864064427970,0.0,-14.204187931426103));
#83=CARTESIAN_POINT('',(13.473932032213989,0.0,-11.834043889679069));
#84=CARTESIAN_POINT('',(16.000000000000007,0.0,-9.463899847932032));
#85=CARTESIAN_POINT('',(16.0,0.0,-6.0));
#93=(BOUNDED_CURVE()B_SPLINE_CURVE(2,(#81,#82,#83,#84,#85),.UNSPECIFIED.,.F.,.U.)B_SPLINE_CURVE_WITH_KNOTS((3,2,3),(0.0,0.500000000000000,1.0),.UNSPECIFIED.)CURVE()GEOMETRIC_REPRESENTATION_ITEM()RATIONAL_B_SPLINE_CURVE((1.0,0.917671374737915,1.0,0.917671374737915,1.0))REPRESENTATION_ITEM(''));
#94=EDGE_CURVE('',#80,#73,#93,.T.);
#95=ORIENTED_EDGE('',*,*,#94,.F.);
#96=CARTESIAN_POINT('',(-46.747180922763597,0.0,-9.972046964824131));
#97=VERTEX_POINT('',#96);
#98=CARTESIAN_POINT('',(-46.747180922763597,0.0,-9.972046964824131));
#99=CARTESIAN_POINT('',(7.490982973324590,0.0,-13.983789931264120));
#100=QUASI_UNIFORM_CURVE('',1,(#98,#99),.UNSPECIFIED.,.F.,.U.);
#101=EDGE_CURVE('',#97,#80,#100,.T.);
#102=ORIENTED_EDGE('',*,*,#101,.F.);
#103=CARTESIAN_POINT('',(-46.984047206318500,0.0,9.951464771365911));
#104=CARTESIAN_POINT('',(-56.108290857512280,0.0,9.049217043919638));
#105=CARTESIAN_POINT('',(-55.999293359245783,0.0,-0.118879416818749));
#106=CARTESIAN_POINT('',(-55.890295860979300,0.0,-9.286975877557136));
#107=CARTESIAN_POINT('',(-46.747180922763597,0.0,-9.972046964824131));
#115=(BOUNDED_CURVE()B_SPLINE_CURVE(2,(#103,#104,#105,#106,#107),.UNSPECIFIED.,.F.,.U.)B_SPLINE_CURVE_WITH_KNOTS((3,2,3),(0.0,0.500000000000000,1.0),.UNSPECIFIED.)CURVE()GEOMETRIC_REPRESENTATION_ITEM()RATIONAL_B_SPLINE_CURVE((1.0,0.737077853305920,1.0,0.737077853305920,1.0))REPRESENTATION_ITEM(''));
#116=EDGE_CURVE('',#52,#97,#115,.T.);
#117=ORIENTED_EDGE('',*,*,#116,.F.);
#118=EDGE_LOOP('',(#57,#64,#71,#78,#95,#102,#117));
#119=FACE_OUTER_BOUND('',#118,.T.);
#120=CARTESIAN_POINT('',(-1.421085E-014,0.0,-5.798300000000000));
#121=VERTEX_POINT('',#120);
#122=CARTESIAN_POINT('',(-5.798000000000120,0.0,0.0));
#123=VERTEX_POINT('',#122);
#124=CARTESIAN_POINT('',(-1.421085E-014,0.0,-5.798300000000000));
#125=CARTESIAN_POINT('',(-5.798000000000120,0.0,0.0));
#126=QUASI_UNIFORM_CURVE('',1,(#124,#125),.UNSPECIFIED.,.F.,.U.);
#127=EDGE_CURVE('',#121,#123,#126,.T.);
#128=ORIENTED_EDGE('',*,*,#127,.F.);
#129=CARTESIAN_POINT('',(5.799000000000000,0.0,0.0));
#130=VERTEX_POINT('',#129);
#131=CARTESIAN_POINT('',(5.799000000000000,0.0,0.0));
#132=CARTESIAN_POINT('',(-1.421085E-014,0.0,-5.798300000000000));
#133=QUASI_UNIFORM_CURVE('',1,(#131,#132),.UNSPECIFIED.,.F.,.U.);
#134=EDGE_CURVE('',#130,#121,#133,.T.);
#135=ORIENTED_EDGE('',*,*,#134,.F.);
#136=CARTESIAN_POINT('',(-1.421085E-014,0.0,5.798199999999900));
#137=VERTEX_POINT('',#136);
#138=CARTESIAN_POINT('',(-1.421085E-014,0.0,5.798199999999900));
#139=CARTESIAN_POINT('',(5.799000000000000,0.0,0.0));
#140=QUASI_UNIFORM_CURVE('',1,(#138,#139),.UNSPECIFIED.,.F.,.U.);
#141=EDGE_CURVE('',#137,#130,#140,.T.);
#142=ORIENTED_EDGE('',*,*,#141,.F.);
#143=CARTESIAN_POINT('',(-5.798000000000120,0.0,0.0));
#144=CARTESIAN_POINT('',(-1.421085E-014,0.0,5.798199999999900));
#145=QUASI_UNIFORM_CURVE('',1,(#143,#144),.UNSPECIFIED.,.F.,.U.);
#146=EDGE_CURVE('',#123,#137,#145,.T.);
#147=ORIENTED_EDGE('',*,*,#146,.F.);
#148=EDGE_LOOP('',(#128,#135,#142,#147));
#149=FACE_BOUND('',#148,.T.);
#150=ADVANCED_FACE('',(#119,#149),#48,.T.);
#151=CARTESIAN_POINT('',(-59.895359368467503,-2.000000000000085,18.494088099654149));
#152=CARTESIAN_POINT('',(25.896066713540510,-2.000000000000085,18.494088099654149));
#153=CARTESIAN_POINT('',(-59.895359368467503,-2.000000000000085,-15.545510307139210));
#154=CARTESIAN_POINT('',(25.896066713540510,-2.000000000000085,-15.545510307139210));
#155=B_SPLINE_SURFACE_WITH_KNOTS('',1,1,((#151,#153),(#152,#154)),.UNSPECIFIED.,.F.,.F.,.U.,(2,2),(2,2),(0.0,85.791426082008016),(0.0,34.039598406793360),.UNSPECIFIED.);
#156=CARTESIAN_POINT('',(21.494414386315299,-2.000000000000115,16.948240165019349));
#157=VERTEX_POINT('',#156);
#158=CARTESIAN_POINT('',(-46.984047206318500,-2.000000000000115,9.951464771365911));
#159=VERTEX_POINT('',#158);
#160=CARTESIAN_POINT('',(21.494414386315299,-2.000000000000115,16.948240165019349));
#161=CARTESIAN_POINT('',(-46.984047206318500,-2.000000000000115,9.951464771365911));
#162=QUASI_UNIFORM_CURVE('',1,(#160,#161),.UNSPECIFIED.,.F.,.U.);
#163=EDGE_CURVE('',#157,#159,#162,.T.);
#164=ORIENTED_EDGE('',*,*,#163,.T.);
#165=CARTESIAN_POINT('',(-46.747180922763597,-2.000000000000115,-9.972046964824131));
#166=VERTEX_POINT('',#165);
#167=CARTESIAN_POINT('',(-46.984047206318500,-2.000000000000115,9.951464771365911));
#168=CARTESIAN_POINT('',(-56.108290857512280,-2.000000000000116,9.049217043919638));
#169=CARTESIAN_POINT('',(-55.999293359245783,-2.000000000000115,-0.118879416818749));
#170=CARTESIAN_POINT('',(-55.890295860979300,-2.000000000000116,-9.286975877557136));
#171=CARTESIAN_POINT('',(-46.747180922763597,-2.000000000000115,-9.972046964824131));
#179=(BOUNDED_CURVE()B_SPLINE_CURVE(2,(#167,#168,#169,#170,#171),.UNSPECIFIED.,.F.,.U.)B_SPLINE_CURVE_WITH_KNOTS((3,2,3),(0.0,0.500000000000000,1.0),.UNSPECIFIED.)CURVE()GEOMETRIC_REPRESENTATION_ITEM()RATIONAL_B_SPLINE_CURVE((1.0,0.737077853305920,1.0,0.737077853305920,1.0))REPRESENTATION_ITEM(''));
#180=EDGE_CURVE('',#159,#166,#179,.T.);
#181=ORIENTED_EDGE('',*,*,#180,.T.);
#182=CARTESIAN_POINT('',(7.490982973324590,-2.000000000000115,-13.983789931264120));
#183=VERTEX_POINT('',#182);
#184=CARTESIAN_POINT('',(-46.747180922763597,-2.000000000000115,-9.972046964824131));
#185=CARTESIAN_POINT('',(7.490982973324590,-2.000000000000115,-13.983789931264120));
#186=QUASI_UNIFORM_CURVE('',1,(#184,#185),.UNSPECIFIED.,.F.,.U.);
#187=EDGE_CURVE('',#166,#183,#186,.T.);
#188=ORIENTED_EDGE('',*,*,#187,.T.);
#189=CARTESIAN_POINT('',(16.0,-2.000000000000115,-6.0));
#190=VERTEX_POINT('',#189);
#191=CARTESIAN_POINT('',(7.490982973324588,-2.000000000000115,-13.983789931264131));
#192=CARTESIAN_POINT('',(10.947864064427970,-2.000000000000115,-14.204187931426103));
#193=CARTESIAN_POINT('',(13.473932032213989,-2.000000000000115,-11.834043889679069));
#194=CARTESIAN_POINT('',(16.000000000000007,-2.000000000000115,-9.463899847932032));
#195=CARTESIAN_POINT('',(16.0,-2.000000000000115,-6.0));
#203=(BOUNDED_CURVE()B_SPLINE_CURVE(2,(#191,#192,#193,#194,#195),.UNSPECIFIED.,.F.,.U.)B_SPLINE_CURVE_WITH_KNOTS((3,2,3),(0.0,0.500000000000000,1.0),.UNSPECIFIED.)CURVE()GEOMETRIC_REPRESENTATION_ITEM()RATIONAL_B_SPLINE_CURVE((1.0,0.917671374737915,1.0,0.917671374737915,1.0))REPRESENTATION_ITEM(''));
#204=EDGE_CURVE('',#183,#190,#203,.T.);
#205=ORIENTED_EDGE('',*,*,#204,.T.);
#206=CARTESIAN_POINT('',(16.0,-2.000000000000115,12.0));
#207=VERTEX_POINT('',#206);
#208=CARTESIAN_POINT('',(16.0,-2.000000000000115,-6.0));
#209=CARTESIAN_POINT('',(16.0,-2.000000000000115,12.0));
#210=QUASI_UNIFORM_CURVE('',1,(#208,#209),.UNSPECIFIED.,.F.,.U.);
#211=EDGE_CURVE('',#190,#207,#210,.T.);
#212=ORIENTED_EDGE('',*,*,#211,.T.);
#213=CARTESIAN_POINT('',(22.0,-2.000000000000115,12.0));
#214=VERTEX_POINT('',#213);
#215=CARTESIAN_POINT('',(16.0,-2.000000000000115,12.0));
#216=CARTESIAN_POINT('',(22.0,-2.000000000000115,12.0));
#217=QUASI_UNIFORM_CURVE('',1,(#215,#216),.UNSPECIFIED.,.F.,.U.);
#218=EDGE_CURVE('',#207,#214,#217,.T.);
#219=ORIENTED_EDGE('',*,*,#218,.T.);
#220=CARTESIAN_POINT('',(22.0,-2.000000000000115,12.0));
#221=CARTESIAN_POINT('',(21.494414386315299,-2.000000000000115,16.948240165019349));
#222=QUASI_UNIFORM_CURVE('',1,(#220,#221),.UNSPECIFIED.,.F.,.U.);
#223=EDGE_CURVE('',#214,#157,#222,.T.);
#224=ORIENTED_EDGE('',*,*,#223,.T.);
#225=EDGE_LOOP('',(#164,#181,#188,#205,#212,#219,#224));
#226=FACE_OUTER_BOUND('',#225,.T.);
#227=CARTESIAN_POINT('',(-1.421085E-014,-2.000000000000115,-5.798300000000000));
#228=VERTEX_POINT('',#227);
#229=CARTESIAN_POINT('',(-5.798000000000120,-2.000000000000115,0.0));
#230=VERTEX_POINT('',#229);
#231=CARTESIAN_POINT('',(-1.421085E-014,-2.000000000000115,-5.798300000000000));
#232=CARTESIAN_POINT('',(-5.798000000000120,-2.000000000000115,0.0));
#233=QUASI_UNIFORM_CURVE('',1,(#231,#232),.UNSPECIFIED.,.F.,.U.);
#234=EDGE_CURVE('',#228,#230,#233,.T.);
#235=ORIENTED_EDGE('',*,*,#234,.T.);
#236=CARTESIAN_POINT('',(-1.421085E-014,-2.000000000000115,5.798199999999900));
#237=VERTEX_POINT('',#236);
#238=CARTESIAN_POINT('',(-5.798000000000120,-2.000000000000115,0.0));
#239=CARTESIAN_POINT('',(-1.421085E-014,-2.000000000000115,5.798199999999900));
#240=QUASI_UNIFORM_CURVE('',1,(#238,#239),.UNSPECIFIED.,.F.,.U.);
#241=EDGE_CURVE('',#230,#237,#240,.T.);
#242=ORIENTED_EDGE('',*,*,#241,.T.);
#243=CARTESIAN_POINT('',(5.799000000000000,-2.000000000000115,0.0));
#244=VERTEX_POINT('',#243);
#245=CARTESIAN_POINT('',(-1.421085E-014,-2.000000000000115,5.798199999999900));
#246=CARTESIAN_POINT('',(5.799000000000000,-2.000000000000115,0.0));
#247=QUASI_UNIFORM_CURVE('',1,(#245,#246),.UNSPECIFIED.,.F.,.U.);
#248=EDGE_CURVE('',#237,#244,#247,.T.);
#249=ORIENTED_EDGE('',*,*,#248,.T.);
#250=CARTESIAN_POINT('',(5.799000000000000,-2.000000000000115,0.0));
#251=CARTESIAN_POINT('',(-1.421085E-014,-2.000000000000115,-5.798300000000000));
#252=QUASI_UNIFORM_CURVE('',1,(#250,#251),.UNSPECIFIED.,.F.,.U.);
#253=EDGE_CURVE('',#244,#228,#252,.T.);
#254=ORIENTED_EDGE('',*,*,#253,.T.);
#255=EDGE_LOOP('',(#235,#242,#249,#254));
#256=FACE_BOUND('',#255,.T.);
#257=ADVANCED_FACE('',(#226,#256),#155,.F.);
#258=CARTESIAN_POINT('',(6.088659909168587,-2.099899996123733,0.289624944185586));
#259=CARTESIAN_POINT('',(-0.289659753627295,-2.099899996123733,-6.087924788663067));
#260=CARTESIAN_POINT('',(6.088659909168587,0.099900049767798,0.289624944185586));
#261=CARTESIAN_POINT('',(-0.289659753627295,0.099900049767798,-6.087924788663067));
#262=B_SPLINE_SURFACE_WITH_KNOTS('',1,1,((#258,#260),(#259,#261)),.UNSPECIFIED.,.F.,.F.,.U.,(2,2),(2,2),(0.0,9.019761766020570),(0.0,2.199800045891530),.UNSPECIFIED.);
#263=ORIENTED_EDGE('',*,*,#134,.T.);
#264=CARTESIAN_POINT('',(-1.421085E-014,-2.000000000000115,-5.798300000000000));
#265=CARTESIAN_POINT('',(-1.421085E-014,0.0,-5.798300000000000));
#266=QUASI_UNIFORM_CURVE('',1,(#264,#265),.UNSPECIFIED.,.F.,.U.);
#267=EDGE_CURVE('',#228,#121,#266,.T.);
#268=ORIENTED_EDGE('',*,*,#267,.F.);
#269=ORIENTED_EDGE('',*,*,#253,.F.);
#270=CARTESIAN_POINT('',(5.799000000000000,-2.000000000000115,0.0));
#271=CARTESIAN_POINT('',(5.799000000000000,0.0,0.0));
#272=QUASI_UNIFORM_CURVE('',1,(#270,#271),.UNSPECIFIED.,.F.,.U.);
#273=EDGE_CURVE('',#244,#130,#272,.T.);
#274=ORIENTED_EDGE('',*,*,#273,.T.);
#275=EDGE_LOOP('',(#263,#268,#269,#274));
#276=FACE_OUTER_BOUND('',#275,.T.);
#277=ADVANCED_FACE('',(#276),#262,.F.);
#278=CARTESIAN_POINT('',(22.025254000423629,-2.099899996123733,11.752835413347929));
#279=CARTESIAN_POINT('',(21.469160372330830,-2.099899996123733,17.195404884393561));
#280=CARTESIAN_POINT('',(22.025254000423629,0.099900049767798,11.752835413347929));
#281=CARTESIAN_POINT('',(21.469160372330830,0.099900049767798,17.195404884393561));
#282=B_SPLINE_SURFACE_WITH_KNOTS('',1,1,((#278,#280),(#279,#281)),.UNSPECIFIED.,.F.,.F.,.U.,(2,2),(2,2),(0.0,5.470905096084496),(0.0,2.199800045891530),.UNSPECIFIED.);
#283=ORIENTED_EDGE('',*,*,#63,.T.);
#284=CARTESIAN_POINT('',(21.494414386315299,-2.000000000000115,16.948240165019349));
#285=CARTESIAN_POINT('',(21.494414386315299,0.0,16.948240165019349));
#286=QUASI_UNIFORM_CURVE('',1,(#284,#285),.UNSPECIFIED.,.F.,.U.);
#287=EDGE_CURVE('',#157,#50,#286,.T.);
#288=ORIENTED_EDGE('',*,*,#287,.F.);
#289=ORIENTED_EDGE('',*,*,#223,.F.);
#290=CARTESIAN_POINT('',(22.0,-2.000000000000115,12.0));
#291=CARTESIAN_POINT('',(22.0,0.0,12.0));
#292=QUASI_UNIFORM_CURVE('',1,(#290,#291),.UNSPECIFIED.,.F.,.U.);
#293=EDGE_CURVE('',#214,#59,#292,.T.);
#294=ORIENTED_EDGE('',*,*,#293,.T.);
#295=EDGE_LOOP('',(#283,#288,#289,#294));
#296=FACE_OUTER_BOUND('',#295,.T.);
#297=ADVANCED_FACE('',(#296),#282,.F.);
#298=CARTESIAN_POINT('',(15.700300011629160,-2.099899996123733,12.0));
#299=CARTESIAN_POINT('',(22.299700149303380,-2.099899996123733,12.0));
#300=CARTESIAN_POINT('',(15.700300011629160,0.099900049767798,12.0));
#301=CARTESIAN_POINT('',(22.299700149303380,0.099900049767798,12.0));
#302=B_SPLINE_SURFACE_WITH_KNOTS('',1,1,((#298,#300),(#299,#301)),.UNSPECIFIED.,.F.,.F.,.U.,(2,2),(2,2),(0.0,6.599400137674216),(0.0,2.199800045891530),.UNSPECIFIED.);
#303=ORIENTED_EDGE('',*,*,#70,.T.);
#304=ORIENTED_EDGE('',*,*,#293,.F.);
#305=ORIENTED_EDGE('',*,*,#218,.F.);
#306=CARTESIAN_POINT('',(16.0,-2.000000000000115,12.0));
#307=CARTESIAN_POINT('',(16.0,0.0,12.0));
#308=QUASI_UNIFORM_CURVE('',1,(#306,#307),.UNSPECIFIED.,.F.,.U.);
#309=EDGE_CURVE('',#207,#66,#308,.T.);
#310=ORIENTED_EDGE('',*,*,#309,.T.);
#311=EDGE_LOOP('',(#303,#304,#305,#310));
#312=FACE_OUTER_BOUND('',#311,.T.);
#313=ADVANCED_FACE('',(#312),#302,.F.);
#314=CARTESIAN_POINT('',(16.0,-2.099899996123733,-6.899099965112506));
#315=CARTESIAN_POINT('',(16.0,-2.099899996123733,12.899100447910129));
#316=CARTESIAN_POINT('',(16.0,0.099900049767798,-6.899099965112506));
#317=CARTESIAN_POINT('',(16.0,0.099900049767798,12.899100447910129));
#318=B_SPLINE_SURFACE_WITH_KNOTS('',1,1,((#314,#316),(#315,#317)),.UNSPECIFIED.,.F.,.F.,.U.,(2,2),(2,2),(0.0,19.798200413022641),(0.0,2.199800045891530),.UNSPECIFIED.);
#319=ORIENTED_EDGE('',*,*,#77,.T.);
#320=ORIENTED_EDGE('',*,*,#309,.F.);
#321=ORIENTED_EDGE('',*,*,#211,.F.);
#322=CARTESIAN_POINT('',(16.0,-2.000000000000115,-6.0));
#323=CARTESIAN_POINT('',(16.0,0.0,-6.0));
#324=QUASI_UNIFORM_CURVE('',1,(#322,#323),.UNSPECIFIED.,.F.,.U.);
#325=EDGE_CURVE('',#190,#73,#324,.T.);
#326=ORIENTED_EDGE('',*,*,#325,.T.);
#327=EDGE_LOOP('',(#319,#320,#321,#326));
#328=FACE_OUTER_BOUND('',#327,.T.);
#329=ADVANCED_FACE('',(#328),#318,.F.);
#330=CARTESIAN_POINT('',(7.282166144415016,-2.050000000000118,-13.967729573459181));
#331=CARTESIAN_POINT('',(7.282166144415016,0.051250000000003,-13.967729573459181));
#332=CARTESIAN_POINT('',(16.447990523002993,-2.050000000000118,-14.793502962557792));
#333=CARTESIAN_POINT('',(16.447990523002993,0.051250000000003,-14.793502962557792));
#334=CARTESIAN_POINT('',(15.990091340620401,-2.050000000000118,-5.601954313497926));
#335=CARTESIAN_POINT('',(15.990091340620401,0.051250000000003,-5.601954313497926));
#343=(BOUNDED_SURFACE()B_SPLINE_SURFACE(1,2,((#330,#332,#334),(#331,#333,#335)),.UNSPECIFIED.,.F.,.F.,.U.)B_SPLINE_SURFACE_WITH_KNOTS((2,2),(3,3),(0.0,2.101250000000121),(0.0,14.583240177042709),.UNSPECIFIED.)GEOMETRIC_REPRESENTATION_ITEM()RATIONAL_B_SPLINE_SURFACE(((1.0,0.656059028990507,1.0),(1.0,0.656059028990507,1.0)))REPRESENTATION_ITEM('')SURFACE());
#344=ORIENTED_EDGE('',*,*,#94,.T.);
#345=ORIENTED_EDGE('',*,*,#325,.F.);
#346=ORIENTED_EDGE('',*,*,#204,.F.);
#347=CARTESIAN_POINT('',(7.490982973324590,-2.000000000000115,-13.983789931264120));
#348=CARTESIAN_POINT('',(7.490982973324590,0.0,-13.983789931264120));
#349=QUASI_UNIFORM_CURVE('',1,(#347,#348),.UNSPECIFIED.,.F.,.U.);
#350=EDGE_CURVE('',#183,#80,#349,.T.);
#351=ORIENTED_EDGE('',*,*,#350,.T.);
#352=EDGE_LOOP('',(#344,#345,#346,#351));
#353=FACE_OUTER_BOUND('',#352,.T.);
#354=ADVANCED_FACE('',(#353),#343,.T.);
#355=CARTESIAN_POINT('',(-49.456377104249121,-2.099899996123733,-9.771660411425989));
#356=CARTESIAN_POINT('',(10.200180609591030,-2.099899996123733,-14.184176592265610));
#357=CARTESIAN_POINT('',(-49.456377104249121,0.099900049767798,-9.771660411425989));
#358=CARTESIAN_POINT('',(10.200180609591030,0.099900049767798,-14.184176592265610));
#359=B_SPLINE_SURFACE_WITH_KNOTS('',1,1,((#355,#357),(#356,#358)),.UNSPECIFIED.,.F.,.F.,.U.,(2,2),(2,2),(0.0,59.819521707473648),(0.0,2.199800045891530),.UNSPECIFIED.);
#360=ORIENTED_EDGE('',*,*,#101,.T.);
#361=ORIENTED_EDGE('',*,*,#350,.F.);
#362=ORIENTED_EDGE('',*,*,#187,.F.);
#363=CARTESIAN_POINT('',(-46.747180922763597,-2.000000000000115,-9.972046964824131));
#364=CARTESIAN_POINT('',(-46.747180922763597,0.0,-9.972046964824131));
#365=QUASI_UNIFORM_CURVE('',1,(#363,#364),.UNSPECIFIED.,.F.,.U.);
#366=EDGE_CURVE('',#166,#97,#365,.T.);
#367=ORIENTED_EDGE('',*,*,#366,.T.);
#368=EDGE_LOOP('',(#360,#361,#362,#367));
#369=FACE_OUTER_BOUND('',#368,.T.);
#370=ADVANCED_FACE('',(#369),#359,.F.);
#371=CARTESIAN_POINT('',(-46.723211019010343,-2.050000000000118,9.973814005784446));
#372=CARTESIAN_POINT('',(-46.723211019010343,0.051250000000003,9.973814005784446));
#373=CARTESIAN_POINT('',(-56.271060805533139,-2.050000000000119,9.281490069378162));
#374=CARTESIAN_POINT('',(-56.271060805533139,0.051250000000003,9.281490069378162));
#375=CARTESIAN_POINT('',(-55.995867166452257,-2.050000000000118,-0.287471025742558));
#376=CARTESIAN_POINT('',(-55.995867166452257,0.051250000000003,-0.287471025742558));
#377=CARTESIAN_POINT('',(-55.720673527371389,-2.050000000000119,-9.856432120863280));
#378=CARTESIAN_POINT('',(-55.720673527371389,0.051250000000003,-9.856432120863280));
#379=CARTESIAN_POINT('',(-46.148816184961511,-2.050000000000118,-9.998892625840799));
#380=CARTESIAN_POINT('',(-46.148816184961511,0.051250000000003,-9.998892625840799));
#388=(BOUNDED_SURFACE()B_SPLINE_SURFACE(1,2,((#371,#373,#375,#377,#379),(#372,#374,#376,#378,#380)),.UNSPECIFIED.,.F.,.F.,.U.)B_SPLINE_SURFACE_WITH_KNOTS((2,2),(3,2,3),(0.0,2.101250000000122),(0.0,16.059626676240871,32.119253352481742),.UNSPECIFIED.)GEOMETRIC_REPRESENTATION_ITEM()RATIONAL_B_SPLINE_SURFACE(((1.0,0.722363962059756,1.0,0.722363962059756,1.0),(1.0,0.722363962059756,1.0,0.722363962059756,1.0)))REPRESENTATION_ITEM('')SURFACE());
#389=ORIENTED_EDGE('',*,*,#116,.T.);
#390=ORIENTED_EDGE('',*,*,#366,.F.);
#391=ORIENTED_EDGE('',*,*,#180,.F.);
#392=CARTESIAN_POINT('',(-46.984047206318500,-2.000000000000115,9.951464771365911));
#393=CARTESIAN_POINT('',(-46.984047206318500,0.0,9.951464771365911));
#394=QUASI_UNIFORM_CURVE('',1,(#392,#393),.UNSPECIFIED.,.F.,.U.);
#395=EDGE_CURVE('',#159,#52,#394,.T.);
#396=ORIENTED_EDGE('',*,*,#395,.T.);
#397=EDGE_LOOP('',(#389,#390,#391,#396));
#398=FACE_OUTER_BOUND('',#397,.T.);
#399=ADVANCED_FACE('',(#398),#388,.T.);
#400=CARTESIAN_POINT('',(24.914914695796419,-2.099899996123733,17.297729213732669));
#401=CARTESIAN_POINT('',(-50.404548128044773,-2.099899996123733,9.601975660096544));
#402=CARTESIAN_POINT('',(24.914914695796419,0.099900049767798,17.297729213732669));
#403=CARTESIAN_POINT('',(-50.404548128044773,0.099900049767798,9.601975660096544));
#404=B_SPLINE_SURFACE_WITH_KNOTS('',1,1,((#400,#402),(#401,#403)),.UNSPECIFIED.,.F.,.F.,.U.,(2,2),(2,2),(0.0,75.711598205494894),(0.0,2.199800045891530),.UNSPECIFIED.);
#405=ORIENTED_EDGE('',*,*,#56,.T.);
#406=ORIENTED_EDGE('',*,*,#395,.F.);
#407=ORIENTED_EDGE('',*,*,#163,.F.);
#408=ORIENTED_EDGE('',*,*,#287,.T.);
#409=EDGE_LOOP('',(#405,#406,#407,#408));
#410=FACE_OUTER_BOUND('',#409,.T.);
#411=ADVANCED_FACE('',(#410),#404,.F.);
#412=CARTESIAN_POINT('',(-0.289660126916052,-2.099899996123733,6.087820166905321));
#413=CARTESIAN_POINT('',(6.088659763986335,-2.099899996123733,-0.289619804025788));
#414=CARTESIAN_POINT('',(-0.289660126916052,0.099900049767798,6.087820166905322));
#415=CARTESIAN_POINT('',(6.088659763986335,0.099900049767798,-0.289619804025788));
#416=B_SPLINE_SURFACE_WITH_KNOTS('',1,1,((#412,#414),(#413,#415)),.UNSPECIFIED.,.F.,.F.,.U.,(2,2),(2,2),(0.0,9.019684318949906),(0.0,2.199800045891530),.UNSPECIFIED.);
#417=ORIENTED_EDGE('',*,*,#141,.T.);
#418=ORIENTED_EDGE('',*,*,#273,.F.);
#419=ORIENTED_EDGE('',*,*,#248,.F.);
#420=CARTESIAN_POINT('',(-1.421085E-014,-2.000000000000115,5.798199999999900));
#421=CARTESIAN_POINT('',(-1.421085E-014,0.0,5.798199999999900));
#422=QUASI_UNIFORM_CURVE('',1,(#420,#421),.UNSPECIFIED.,.F.,.U.);
#423=EDGE_CURVE('',#237,#137,#422,.T.);
#424=ORIENTED_EDGE('',*,*,#423,.T.);
#425=EDGE_LOOP('',(#417,#418,#419,#424));
#426=FACE_OUTER_BOUND('',#425,.T.);
#427=ADVANCED_FACE('',(#426),#416,.F.);
#428=CARTESIAN_POINT('',(-6.087610034335002,-2.099899996123733,-0.289620024332605));
#429=CARTESIAN_POINT('',(0.289610241687507,-2.099899996123733,6.087820231692293));
#430=CARTESIAN_POINT('',(-6.087610034335002,0.099900049767798,-0.289620024332605));
#431=CARTESIAN_POINT('',(0.289610241687507,0.099900049767798,6.087820231692293));
#432=B_SPLINE_SURFACE_WITH_KNOTS('',1,1,((#428,#430),(#429,#431)),.UNSPECIFIED.,.F.,.F.,.U.,(2,2),(2,2),(0.0,9.018906955284523),(0.0,2.199800045891530),.UNSPECIFIED.);
#433=ORIENTED_EDGE('',*,*,#146,.T.);
#434=ORIENTED_EDGE('',*,*,#423,.F.);
#435=ORIENTED_EDGE('',*,*,#241,.F.);
#436=CARTESIAN_POINT('',(-5.798000000000120,-2.000000000000115,0.0));
#437=CARTESIAN_POINT('',(-5.798000000000120,0.0,0.0));
#438=QUASI_UNIFORM_CURVE('',1,(#436,#437),.UNSPECIFIED.,.F.,.U.);
#439=EDGE_CURVE('',#230,#123,#438,.T.);
#440=ORIENTED_EDGE('',*,*,#439,.T.);
#441=EDGE_LOOP('',(#433,#434,#435,#440));
#442=FACE_OUTER_BOUND('',#441,.T.);
#443=ADVANCED_FACE('',(#442),#432,.F.);
#444=CARTESIAN_POINT('',(0.289609959192864,-2.099899996123733,-6.087924944185587));
#445=CARTESIAN_POINT('',(-6.087609803678519,-2.099899996123733,0.289624788663062));
#446=CARTESIAN_POINT('',(0.289609959192864,0.099900049767798,-6.087924944185587));
#447=CARTESIAN_POINT('',(-6.087609803678519,0.099900049767798,0.289624788663062));
#448=B_SPLINE_SURFACE_WITH_KNOTS('',1,1,((#444,#446),(#445,#447)),.UNSPECIFIED.,.F.,.F.,.U.,(2,2),(2,2),(0.0,9.018984005913039),(0.0,2.199800045891530),.UNSPECIFIED.);
#449=ORIENTED_EDGE('',*,*,#127,.T.);
#450=ORIENTED_EDGE('',*,*,#439,.F.);
#451=ORIENTED_EDGE('',*,*,#234,.F.);
#452=ORIENTED_EDGE('',*,*,#267,.T.);
#453=EDGE_LOOP('',(#449,#450,#451,#452));
#454=FACE_OUTER_BOUND('',#453,.T.);
#455=ADVANCED_FACE('',(#454),#448,.F.);
#456=CLOSED_SHELL('',(#150,#257,#277,#297,#313,#329,#354,#370,#399,#411,#427,#443,#455));
#457=MANIFOLD_SOLID_BREP('cam',#456);
#463=(NAMED_UNIT(*)PLANE_ANGLE_UNIT()SI_UNIT($,.RADIAN.));
#464=DIMENSIONAL_EXPONENTS(0.0,0.0,0.0,0.0,0.0,0.0,0.0);
#465=PLANE_ANGLE_MEASURE_WITH_UNIT(PLANE_ANGLE_MEASURE(0.017453292500000),#463);
#469=(CONVERSION_BASED_UNIT('DEGREE',#465)NAMED_UNIT(#464)PLANE_ANGLE_UNIT());
#473=(NAMED_UNIT(*)SI_UNIT($,.STERADIAN.)SOLID_ANGLE_UNIT());
#477=(LENGTH_UNIT()NAMED_UNIT(*)SI_UNIT(.MILLI.,.METRE.));
#479=UNCERTAINTY_MEASURE_WITH_UNIT(LENGTH_MEASURE(0.001000000000000),#477,'DISTANCE_ACCURACY_VALUE','');
#481=(GEOMETRIC_REPRESENTATION_CONTEXT(3)GLOBAL_UNCERTAINTY_ASSIGNED_CONTEXT((#479))GLOBAL_UNIT_ASSIGNED_CONTEXT((#469,#473,#477))REPRESENTATION_CONTEXT('','3D'));
ENDSEC;
END-ISO-10303-21;
