ISO-10303-21;
HEADER;
/****************************************************************
 * Generated by software with PDE/Lib inside                    *
 * PDElib Version 4.4.1-0003, patched  Thursday August 19 11:58 *
 * International Technegroup Inc. (www.iti-oh.com)              *
 ****************************************************************/
FILE_DESCRIPTION((''),'2;1');
FILE_NAME('','2005-10-12T14:09:50',(''),(''),'','CADfix','');
FILE_SCHEMA(('AUTOMOTIVE_DESIGN'));
ENDSEC;
DATA;
#5=APPLICATION_CONTEXT('automotive design');
#6=APPLICATION_PROTOCOL_DEFINITION('Draft International Standard','automotive_design',1998,#5);
#7=PRODUCT_CONTEXT('None',#5,'mechanical');
#8=PRODUCT('cam','','None',(#7));
#9=PRODUCT_RELATED_PRODUCT_CATEGORY('part','description',(#8));
#10=PRODUCT_DEFINITION_FORMATION('None','None',#8);
#11=PRODUCT_DEFINITION_CONTEXT('part definition',#5,'design');
#12=PRODUCT_DEFINITION('None','None',#10,#11);
#18=(NAMED_UNIT(*)PLANE_ANGLE_UNIT()SI_UNIT($,.RADIAN.));
#19=DIMENSIONAL_EXPONENTS(0.0,0.0,0.0,0.0,0.0,0.0,0.0);
#20=PLANE_ANGLE_MEASURE_WITH_UNIT(PLANE_ANGLE_MEASURE(0.017453292500000),#18);
#24=(CONVERSION_BASED_UNIT('DEGREE',#20)NAMED_UNIT(#19)PLANE_ANGLE_UNIT());
#28=(NAMED_UNIT(*)SI_UNIT($,.STERADIAN.)SOLID_ANGLE_UNIT());
#32=(LENGTH_UNIT()NAMED_UNIT(*)SI_UNIT(.MILLI.,.METRE.));
#34=UNCERTAINTY_MEASURE_WITH_UNIT(LENGTH_MEASURE(0.001000000000000),#32,'DISTANCE_ACCURACY_VALUE','');
#36=(GEOMETRIC_REPRESENTATION_CONTEXT(3)GLOBAL_UNCERTAINTY_ASSIGNED_CONTEXT((#34))GLOBAL_UNIT_ASSIGNED_CONTEXT((#24,#28,#32))REPRESENTATION_CONTEXT('None','None'));
#37=AXIS2_PLACEMENT_3D('',#38,#39,#40);
#38=CARTESIAN_POINT('',(0.0,0.0,0.0));
#39=DIRECTION('',(0.0,0.0,1.0));
#40=DIRECTION('',(1.0,0.0,0.0));
#41=ADVANCED_BREP_SHAPE_REPRESENTATION('',(#37,#457),#36);
#42=PRODUCT_DEFINITION_SHAPE('','',#12);
#43=SHAPE_DEFINITION_REPRESENTATION(#42,#41);
#44=CARTESIAN_POINT('',(-47.246437526149613,0.0,14.176639653197990));
#45=CARTESIAN_POINT('',(24.246736757903989,0.0,14.176639653197990));
#46=CARTESIAN_POINT('',(-47.246437526149613,0.0,-13.245108396015620));
#47=CARTESIAN_POINT('',(24.246736757903989,0.0,-13.245108396015620));
#48=B_SPLINE_SURFACE_WITH_KNOTS('',1,1,((#44,#46),(#45,#47)),.UNSPECIFIED.,.F.,.F.,.U.,(2,2),(2,2),(0.0,71.493174284053595),(0.0,27.421748049213608),.UNSPECIFIED.);
#49=CARTESIAN_POINT('',(20.418401572050250,0.0,12.931329421718800));
#50=VERTEX_POINT('',#49);
#51=CARTESIAN_POINT('',(-38.669954207853813,0.0,5.962479464063490));
#52=VERTEX_POINT('',#51);
#53=CARTESIAN_POINT('',(20.418401572050250,0.0,12.931329421718800));
#54=CARTESIAN_POINT('',(-38.669954207853813,0.0,5.962479464063490));
#55=QUASI_UNIFORM_CURVE('',1,(#53,#54),.UNSPECIFIED.,.F.,.U.);
#56=EDGE_CURVE('',#50,#52,#55,.T.);
#57=ORIENTED_EDGE('',*,*,#56,.F.);
#58=CARTESIAN_POINT('',(21.0,0.0,8.0));
#59=VERTEX_POINT('',#58);
#60=CARTESIAN_POINT('',(21.0,0.0,8.0));
#61=CARTESIAN_POINT('',(20.418401572050250,0.0,12.931329421718800));
#62=QUASI_UNIFORM_CURVE('',1,(#60,#61),.UNSPECIFIED.,.F.,.U.);
#63=EDGE_CURVE('',#59,#50,#62,.T.);
#64=ORIENTED_EDGE('',*,*,#63,.F.);
#65=CARTESIAN_POINT('',(15.0,0.0,8.0));
#66=VERTEX_POINT('',#65);
#67=CARTESIAN_POINT('',(15.0,0.0,8.0));
#68=CARTESIAN_POINT('',(21.0,0.0,8.0));
#69=QUASI_UNIFORM_CURVE('',1,(#67,#68),.UNSPECIFIED.,.F.,.U.);
#70=EDGE_CURVE('',#66,#59,#69,.T.);
#71=ORIENTED_EDGE('',*,*,#70,.F.);
#72=CARTESIAN_POINT('',(15.0,0.0,-5.0));
#73=VERTEX_POINT('',#72);
#74=CARTESIAN_POINT('',(15.0,0.0,-5.0));
#75=CARTESIAN_POINT('',(15.0,0.0,8.0));
#76=QUASI_UNIFORM_CURVE('',1,(#74,#75),.UNSPECIFIED.,.F.,.U.);
#77=EDGE_CURVE('',#73,#66,#76,.T.);
#78=ORIENTED_EDGE('',*,*,#77,.F.);
#79=CARTESIAN_POINT('',(7.159676180916921,0.0,-11.949378092972200));
#80=VERTEX_POINT('',#79);
#81=CARTESIAN_POINT('',(7.159676180916923,0.0,-11.949378092972189));
#82=CARTESIAN_POINT('',(10.286305321969360,0.0,-12.327452347317681));
#83=CARTESIAN_POINT('',(12.643152660984629,0.0,-10.238428520729331));
#84=CARTESIAN_POINT('',(14.999999999999899,0.0,-8.149404694140973));
#85=CARTESIAN_POINT('',(15.0,0.0,-5.0));
#93=(BOUNDED_CURVE()B_SPLINE_CURVE(2,(#81,#82,#83,#84,#85),.UNSPECIFIED.,.F.,.U.)B_SPLINE_CURVE_WITH_KNOTS((3,2,3),(0.0,0.500000000000000,1.0),.UNSPECIFIED.)CURVE()GEOMETRIC_REPRESENTATION_ITEM()RATIONAL_B_SPLINE_CURVE((1.0,0.911950525795621,1.0,0.911950525795621,1.0))REPRESENTATION_ITEM(''));
#94=EDGE_CURVE('',#80,#73,#93,.T.);
#95=ORIENTED_EDGE('',*,*,#94,.F.);
#96=CARTESIAN_POINT('',(-38.776999881794708,0.0,-5.949500015439019));
#97=VERTEX_POINT('',#96);
#98=CARTESIAN_POINT('',(-38.776999881794708,0.0,-5.949500015439019));
#99=CARTESIAN_POINT('',(7.159676180916921,0.0,-11.949378092972200));
#100=QUASI_UNIFORM_CURVE('',1,(#98,#99),.UNSPECIFIED.,.F.,.U.);
#101=EDGE_CURVE('',#97,#80,#100,.T.);
#102=ORIENTED_EDGE('',*,*,#101,.F.);
#103=CARTESIAN_POINT('',(-38.669954207853813,0.0,5.962479464063491));
#104=CARTESIAN_POINT('',(-43.951941432424391,0.0,5.368922114854494));
#105=CARTESIAN_POINT('',(-43.999704249873993,0.0,0.053903951141767));
#106=CARTESIAN_POINT('',(-44.047467067323581,0.0,-5.261114212570960));
#107=CARTESIAN_POINT('',(-38.776999881794708,0.0,-5.949500015439023));
#115=(BOUNDED_CURVE()B_SPLINE_CURVE(2,(#103,#104,#105,#106,#107),.UNSPECIFIED.,.F.,.U.)B_SPLINE_CURVE_WITH_KNOTS((3,2,3),(0.0,0.500000000000000,1.0),.UNSPECIFIED.)CURVE()GEOMETRIC_REPRESENTATION_ITEM()RATIONAL_B_SPLINE_CURVE((1.0,0.748530663903328,1.0,0.748530663903328,1.0))REPRESENTATION_ITEM(''));
#116=EDGE_CURVE('',#52,#97,#115,.T.);
#117=ORIENTED_EDGE('',*,*,#116,.F.);
#118=EDGE_LOOP('',(#57,#64,#71,#78,#95,#102,#117));
#119=FACE_OUTER_BOUND('',#118,.T.);
#120=CARTESIAN_POINT('',(0.0,0.0,-5.798300000000000));
#121=VERTEX_POINT('',#120);
#122=CARTESIAN_POINT('',(5.799000000000000,0.0,0.0));
#123=VERTEX_POINT('',#122);
#124=CARTESIAN_POINT('',(0.0,0.0,-5.798300000000000));
#125=CARTESIAN_POINT('',(5.799000000000000,0.0,0.0));
#126=QUASI_UNIFORM_CURVE('',1,(#124,#125),.UNSPECIFIED.,.F.,.U.);
#127=EDGE_CURVE('',#121,#123,#126,.T.);
#128=ORIENTED_EDGE('',*,*,#127,.T.);
#129=CARTESIAN_POINT('',(0.0,0.0,5.798199999999910));
#130=VERTEX_POINT('',#129);
#131=CARTESIAN_POINT('',(5.799000000000000,0.0,0.0));
#132=CARTESIAN_POINT('',(0.0,0.0,5.798199999999910));
#133=QUASI_UNIFORM_CURVE('',1,(#131,#132),.UNSPECIFIED.,.F.,.U.);
#134=EDGE_CURVE('',#123,#130,#133,.T.);
#135=ORIENTED_EDGE('',*,*,#134,.T.);
#136=CARTESIAN_POINT('',(-5.798000000000000,0.0,0.0));
#137=VERTEX_POINT('',#136);
#138=CARTESIAN_POINT('',(0.0,0.0,5.798199999999910));
#139=CARTESIAN_POINT('',(-5.798000000000000,0.0,0.0));
#140=QUASI_UNIFORM_CURVE('',1,(#138,#139),.UNSPECIFIED.,.F.,.U.);
#141=EDGE_CURVE('',#130,#137,#140,.T.);
#142=ORIENTED_EDGE('',*,*,#141,.T.);
#143=CARTESIAN_POINT('',(-5.798000000000000,0.0,0.0));
#144=CARTESIAN_POINT('',(0.0,0.0,-5.798300000000000));
#145=QUASI_UNIFORM_CURVE('',1,(#143,#144),.UNSPECIFIED.,.F.,.U.);
#146=EDGE_CURVE('',#137,#121,#145,.T.);
#147=ORIENTED_EDGE('',*,*,#146,.T.);
#148=EDGE_LOOP('',(#128,#135,#142,#147));
#149=FACE_BOUND('',#148,.T.);
#150=ADVANCED_FACE('',(#119,#149),#48,.T.);
#151=CARTESIAN_POINT('',(-47.246437526149613,-2.0,14.176639653197990));
#152=CARTESIAN_POINT('',(24.246736757903989,-2.0,14.176639653197990));
#153=CARTESIAN_POINT('',(-47.246437526149613,-2.0,-13.245108396015620));
#154=CARTESIAN_POINT('',(24.246736757903989,-2.0,-13.245108396015620));
#155=B_SPLINE_SURFACE_WITH_KNOTS('',1,1,((#151,#153),(#152,#154)),.UNSPECIFIED.,.F.,.F.,.U.,(2,2),(2,2),(0.0,71.493174284053595),(0.0,27.421748049213608),.UNSPECIFIED.);
#156=CARTESIAN_POINT('',(20.418401572050250,-2.0,12.931329421718800));
#157=VERTEX_POINT('',#156);
#158=CARTESIAN_POINT('',(-38.669954207853813,-2.0,5.962479464063490));
#159=VERTEX_POINT('',#158);
#160=CARTESIAN_POINT('',(20.418401572050250,-2.0,12.931329421718800));
#161=CARTESIAN_POINT('',(-38.669954207853813,-2.0,5.962479464063490));
#162=QUASI_UNIFORM_CURVE('',1,(#160,#161),.UNSPECIFIED.,.F.,.U.);
#163=EDGE_CURVE('',#157,#159,#162,.T.);
#164=ORIENTED_EDGE('',*,*,#163,.T.);
#165=CARTESIAN_POINT('',(-38.776999881794708,-2.0,-5.949500015439019));
#166=VERTEX_POINT('',#165);
#167=CARTESIAN_POINT('',(-38.669954207853813,-2.0,5.962479464063491));
#168=CARTESIAN_POINT('',(-43.951941432424391,-1.999999999999999,5.368922114854494));
#169=CARTESIAN_POINT('',(-43.999704249873993,-2.0,0.053903951141767));
#170=CARTESIAN_POINT('',(-44.047467067323581,-1.999999999999999,-5.261114212570960));
#171=CARTESIAN_POINT('',(-38.776999881794708,-2.0,-5.949500015439023));
#179=(BOUNDED_CURVE()B_SPLINE_CURVE(2,(#167,#168,#169,#170,#171),.UNSPECIFIED.,.F.,.U.)B_SPLINE_CURVE_WITH_KNOTS((3,2,3),(0.0,0.500000000000000,1.0),.UNSPECIFIED.)CURVE()GEOMETRIC_REPRESENTATION_ITEM()RATIONAL_B_SPLINE_CURVE((1.0,0.748530663903328,1.0,0.748530663903328,1.0))REPRESENTATION_ITEM(''));
#180=EDGE_CURVE('',#159,#166,#179,.T.);
#181=ORIENTED_EDGE('',*,*,#180,.T.);
#182=CARTESIAN_POINT('',(7.159676180916921,-2.0,-11.949378092972200));
#183=VERTEX_POINT('',#182);
#184=CARTESIAN_POINT('',(-38.776999881794708,-2.0,-5.949500015439019));
#185=CARTESIAN_POINT('',(7.159676180916921,-2.0,-11.949378092972200));
#186=QUASI_UNIFORM_CURVE('',1,(#184,#185),.UNSPECIFIED.,.F.,.U.);
#187=EDGE_CURVE('',#166,#183,#186,.T.);
#188=ORIENTED_EDGE('',*,*,#187,.T.);
#189=CARTESIAN_POINT('',(15.0,-2.0,-5.0));
#190=VERTEX_POINT('',#189);
#191=CARTESIAN_POINT('',(7.159676180916923,-2.0,-11.949378092972189));
#192=CARTESIAN_POINT('',(10.286305321969360,-2.000000000000000,-12.327452347317681));
#193=CARTESIAN_POINT('',(12.643152660984629,-2.0,-10.238428520729331));
#194=CARTESIAN_POINT('',(14.999999999999899,-2.000000000000000,-8.149404694140973));
#195=CARTESIAN_POINT('',(15.0,-2.0,-5.0));
#203=(BOUNDED_CURVE()B_SPLINE_CURVE(2,(#191,#192,#193,#194,#195),.UNSPECIFIED.,.F.,.U.)B_SPLINE_CURVE_WITH_KNOTS((3,2,3),(0.0,0.500000000000000,1.0),.UNSPECIFIED.)CURVE()GEOMETRIC_REPRESENTATION_ITEM()RATIONAL_B_SPLINE_CURVE((1.0,0.911950525795621,1.0,0.911950525795621,1.0))REPRESENTATION_ITEM(''));
#204=EDGE_CURVE('',#183,#190,#203,.T.);
#205=ORIENTED_EDGE('',*,*,#204,.T.);
#206=CARTESIAN_POINT('',(15.0,-2.0,8.0));
#207=VERTEX_POINT('',#206);
#208=CARTESIAN_POINT('',(15.0,-2.0,-5.0));
#209=CARTESIAN_POINT('',(15.0,-2.0,8.0));
#210=QUASI_UNIFORM_CURVE('',1,(#208,#209),.UNSPECIFIED.,.F.,.U.);
#211=EDGE_CURVE('',#190,#207,#210,.T.);
#212=ORIENTED_EDGE('',*,*,#211,.T.);
#213=CARTESIAN_POINT('',(21.0,-2.0,8.0));
#214=VERTEX_POINT('',#213);
#215=CARTESIAN_POINT('',(15.0,-2.0,8.0));
#216=CARTESIAN_POINT('',(21.0,-2.0,8.0));
#217=QUASI_UNIFORM_CURVE('',1,(#215,#216),.UNSPECIFIED.,.F.,.U.);
#218=EDGE_CURVE('',#207,#214,#217,.T.);
#219=ORIENTED_EDGE('',*,*,#218,.T.);
#220=CARTESIAN_POINT('',(21.0,-2.0,8.0));
#221=CARTESIAN_POINT('',(20.418401572050250,-2.0,12.931329421718800));
#222=QUASI_UNIFORM_CURVE('',1,(#220,#221),.UNSPECIFIED.,.F.,.U.);
#223=EDGE_CURVE('',#214,#157,#222,.T.);
#224=ORIENTED_EDGE('',*,*,#223,.T.);
#225=EDGE_LOOP('',(#164,#181,#188,#205,#212,#219,#224));
#226=FACE_OUTER_BOUND('',#225,.T.);
#227=CARTESIAN_POINT('',(0.0,-2.0,-5.798300000000000));
#228=VERTEX_POINT('',#227);
#229=CARTESIAN_POINT('',(5.799000000000000,-2.0,0.0));
#230=VERTEX_POINT('',#229);
#231=CARTESIAN_POINT('',(0.0,-2.0,-5.798300000000000));
#232=CARTESIAN_POINT('',(5.799000000000000,-2.0,0.0));
#233=QUASI_UNIFORM_CURVE('',1,(#231,#232),.UNSPECIFIED.,.F.,.U.);
#234=EDGE_CURVE('',#228,#230,#233,.T.);
#235=ORIENTED_EDGE('',*,*,#234,.F.);
#236=CARTESIAN_POINT('',(-5.798000000000000,-2.0,0.0));
#237=VERTEX_POINT('',#236);
#238=CARTESIAN_POINT('',(-5.798000000000000,-2.0,0.0));
#239=CARTESIAN_POINT('',(0.0,-2.0,-5.798300000000000));
#240=QUASI_UNIFORM_CURVE('',1,(#238,#239),.UNSPECIFIED.,.F.,.U.);
#241=EDGE_CURVE('',#237,#228,#240,.T.);
#242=ORIENTED_EDGE('',*,*,#241,.F.);
#243=CARTESIAN_POINT('',(0.0,-2.0,5.798199999999910));
#244=VERTEX_POINT('',#243);
#245=CARTESIAN_POINT('',(0.0,-2.0,5.798199999999910));
#246=CARTESIAN_POINT('',(-5.798000000000000,-2.0,0.0));
#247=QUASI_UNIFORM_CURVE('',1,(#245,#246),.UNSPECIFIED.,.F.,.U.);
#248=EDGE_CURVE('',#244,#237,#247,.T.);
#249=ORIENTED_EDGE('',*,*,#248,.F.);
#250=CARTESIAN_POINT('',(5.799000000000000,-2.0,0.0));
#251=CARTESIAN_POINT('',(0.0,-2.0,5.798199999999910));
#252=QUASI_UNIFORM_CURVE('',1,(#250,#251),.UNSPECIFIED.,.F.,.U.);
#253=EDGE_CURVE('',#230,#244,#252,.T.);
#254=ORIENTED_EDGE('',*,*,#253,.F.);
#255=EDGE_LOOP('',(#235,#242,#249,#254));
#256=FACE_BOUND('',#255,.T.);
#257=ADVANCED_FACE('',(#226,#256),#155,.F.);
#258=CARTESIAN_POINT('',(21.029050840348852,-2.099899996123612,7.753680104943017));
#259=CARTESIAN_POINT('',(20.389350716101699,-2.099899996123612,13.177649449044340));
#260=CARTESIAN_POINT('',(21.029050840348852,0.099900049767792,7.753680104943017));
#261=CARTESIAN_POINT('',(20.389350716101699,0.099900049767792,13.177649449044340));
#262=B_SPLINE_SURFACE_WITH_KNOTS('',1,1,((#258,#260),(#259,#261)),.UNSPECIFIED.,.F.,.F.,.U.,(2,2),(2,2),(0.0,5.461562019670996),(0.0,2.199800045891404),.UNSPECIFIED.);
#263=ORIENTED_EDGE('',*,*,#63,.T.);
#264=CARTESIAN_POINT('',(20.418401572050250,-2.0,12.931329421718800));
#265=CARTESIAN_POINT('',(20.418401572050250,0.0,12.931329421718800));
#266=QUASI_UNIFORM_CURVE('',1,(#264,#265),.UNSPECIFIED.,.F.,.U.);
#267=EDGE_CURVE('',#157,#50,#266,.T.);
#268=ORIENTED_EDGE('',*,*,#267,.F.);
#269=ORIENTED_EDGE('',*,*,#223,.F.);
#270=CARTESIAN_POINT('',(21.0,-2.0,8.0));
#271=CARTESIAN_POINT('',(21.0,0.0,8.0));
#272=QUASI_UNIFORM_CURVE('',1,(#270,#271),.UNSPECIFIED.,.F.,.U.);
#273=EDGE_CURVE('',#214,#59,#272,.T.);
#274=ORIENTED_EDGE('',*,*,#273,.T.);
#275=EDGE_LOOP('',(#263,#268,#269,#274));
#276=FACE_OUTER_BOUND('',#275,.T.);
#277=ADVANCED_FACE('',(#276),#262,.F.);
#278=CARTESIAN_POINT('',(6.088659929886688,-2.099899996123612,-0.289619969903253));
#279=CARTESIAN_POINT('',(-0.289660189122192,-2.099899996123612,6.087820229102898));
#280=CARTESIAN_POINT('',(6.088659929886688,0.099900049767792,-0.289619969903253));
#281=CARTESIAN_POINT('',(-0.289660189122192,0.099900049767792,6.087820229102898));
#282=B_SPLINE_SURFACE_WITH_KNOTS('',1,1,((#278,#280),(#279,#281)),.UNSPECIFIED.,.F.,.F.,.U.,(2,2),(2,2),(0.0,9.019684641518964),(0.0,2.199800045891404),.UNSPECIFIED.);
#283=ORIENTED_EDGE('',*,*,#134,.F.);
#284=CARTESIAN_POINT('',(5.799000000000000,-2.0,0.0));
#285=CARTESIAN_POINT('',(5.799000000000000,0.0,0.0));
#286=QUASI_UNIFORM_CURVE('',1,(#284,#285),.UNSPECIFIED.,.F.,.U.);
#287=EDGE_CURVE('',#230,#123,#286,.T.);
#288=ORIENTED_EDGE('',*,*,#287,.F.);
#289=ORIENTED_EDGE('',*,*,#253,.T.);
#290=CARTESIAN_POINT('',(0.0,-2.0,5.798199999999910));
#291=CARTESIAN_POINT('',(0.0,0.0,5.798199999999910));
#292=QUASI_UNIFORM_CURVE('',1,(#290,#291),.UNSPECIFIED.,.F.,.U.);
#293=EDGE_CURVE('',#244,#130,#292,.T.);
#294=ORIENTED_EDGE('',*,*,#293,.T.);
#295=EDGE_LOOP('',(#283,#288,#289,#294));
#296=FACE_OUTER_BOUND('',#295,.T.);
#297=ADVANCED_FACE('',(#296),#282,.T.);
#298=CARTESIAN_POINT('',(0.289610176902774,-2.099899996123611,6.087820166905333));
#299=CARTESIAN_POINT('',(-6.087609814035659,-2.099899996123611,-0.289619804025785));
#300=CARTESIAN_POINT('',(0.289610176902774,0.099900049767792,6.087820166905333));
#301=CARTESIAN_POINT('',(-6.087609814035659,0.099900049767792,-0.289619804025785));
#302=B_SPLINE_SURFACE_WITH_KNOTS('',1,1,((#298,#300),(#299,#301)),.UNSPECIFIED.,.F.,.F.,.U.,(2,2),(2,2),(0.0,9.018906552107893),(0.0,2.199800045891403),.UNSPECIFIED.);
#303=ORIENTED_EDGE('',*,*,#141,.F.);
#304=ORIENTED_EDGE('',*,*,#293,.F.);
#305=ORIENTED_EDGE('',*,*,#248,.T.);
#306=CARTESIAN_POINT('',(-5.798000000000000,-2.0,0.0));
#307=CARTESIAN_POINT('',(-5.798000000000000,0.0,0.0));
#308=QUASI_UNIFORM_CURVE('',1,(#306,#307),.UNSPECIFIED.,.F.,.U.);
#309=EDGE_CURVE('',#237,#137,#308,.T.);
#310=ORIENTED_EDGE('',*,*,#309,.T.);
#311=EDGE_LOOP('',(#303,#304,#305,#310));
#312=FACE_OUTER_BOUND('',#311,.T.);
#313=ADVANCED_FACE('',(#312),#302,.T.);
#314=CARTESIAN_POINT('',(-6.087610013620347,-2.099899996123612,0.289624998615878));
#315=CARTESIAN_POINT('',(0.289609806267712,-2.099899996123612,-6.087924791252508));
#316=CARTESIAN_POINT('',(-6.087610013620347,0.099900049767792,0.289624998615878));
#317=CARTESIAN_POINT('',(0.289609806267712,0.099900049767792,-6.087924791252508));
#318=B_SPLINE_SURFACE_WITH_KNOTS('',1,1,((#314,#316),(#315,#317)),.UNSPECIFIED.,.F.,.F.,.U.,(2,2),(2,2),(0.0,9.018984086548961),(0.0,2.199800045891404),.UNSPECIFIED.);
#319=ORIENTED_EDGE('',*,*,#146,.F.);
#320=ORIENTED_EDGE('',*,*,#309,.F.);
#321=ORIENTED_EDGE('',*,*,#241,.T.);
#322=CARTESIAN_POINT('',(0.0,-2.0,-5.798300000000000));
#323=CARTESIAN_POINT('',(0.0,0.0,-5.798300000000000));
#324=QUASI_UNIFORM_CURVE('',1,(#322,#323),.UNSPECIFIED.,.F.,.U.);
#325=EDGE_CURVE('',#228,#121,#324,.T.);
#326=ORIENTED_EDGE('',*,*,#325,.T.);
#327=EDGE_LOOP('',(#319,#320,#321,#326));
#328=FACE_OUTER_BOUND('',#327,.T.);
#329=ADVANCED_FACE('',(#328),#318,.T.);
#330=CARTESIAN_POINT('',(-0.289659909168587,-2.099899996123612,-6.087924944185586));
#331=CARTESIAN_POINT('',(6.088659753627289,-2.099899996123612,0.289624788663059));
#332=CARTESIAN_POINT('',(-0.289659909168587,0.099900049767792,-6.087924944185586));
#333=CARTESIAN_POINT('',(6.088659753627289,0.099900049767792,0.289624788663059));
#334=B_SPLINE_SURFACE_WITH_KNOTS('',1,1,((#330,#332),(#331,#333)),.UNSPECIFIED.,.F.,.F.,.U.,(2,2),(2,2),(0.0,9.019761766020560),(0.0,2.199800045891404),.UNSPECIFIED.);
#335=ORIENTED_EDGE('',*,*,#127,.F.);
#336=ORIENTED_EDGE('',*,*,#325,.F.);
#337=ORIENTED_EDGE('',*,*,#234,.T.);
#338=ORIENTED_EDGE('',*,*,#287,.T.);
#339=EDGE_LOOP('',(#335,#336,#337,#338));
#340=FACE_OUTER_BOUND('',#339,.T.);
#341=ADVANCED_FACE('',(#340),#334,.T.);
#342=CARTESIAN_POINT('',(14.700300011629160,-2.099899996123612,8.0));
#343=CARTESIAN_POINT('',(21.299700149303380,-2.099899996123612,8.0));
#344=CARTESIAN_POINT('',(14.700300011629160,0.099900049767792,8.0));
#345=CARTESIAN_POINT('',(21.299700149303380,0.099900049767792,8.0));
#346=B_SPLINE_SURFACE_WITH_KNOTS('',1,1,((#342,#344),(#343,#345)),.UNSPECIFIED.,.F.,.F.,.U.,(2,2),(2,2),(0.0,6.599400137674214),(0.0,2.199800045891404),.UNSPECIFIED.);
#347=ORIENTED_EDGE('',*,*,#70,.T.);
#348=ORIENTED_EDGE('',*,*,#273,.F.);
#349=ORIENTED_EDGE('',*,*,#218,.F.);
#350=CARTESIAN_POINT('',(15.0,-2.0,8.0));
#351=CARTESIAN_POINT('',(15.0,0.0,8.0));
#352=QUASI_UNIFORM_CURVE('',1,(#350,#351),.UNSPECIFIED.,.F.,.U.);
#353=EDGE_CURVE('',#207,#66,#352,.T.);
#354=ORIENTED_EDGE('',*,*,#353,.T.);
#355=EDGE_LOOP('',(#347,#348,#349,#354));
#356=FACE_OUTER_BOUND('',#355,.T.);
#357=ADVANCED_FACE('',(#356),#346,.F.);
#358=CARTESIAN_POINT('',(15.0,-2.099899996123612,-5.649349974803478));
#359=CARTESIAN_POINT('',(15.0,-2.099899996123612,8.649350323490650));
#360=CARTESIAN_POINT('',(15.0,0.099900049767792,-5.649349974803478));
#361=CARTESIAN_POINT('',(15.0,0.099900049767792,8.649350323490650));
#362=B_SPLINE_SURFACE_WITH_KNOTS('',1,1,((#358,#360),(#359,#361)),.UNSPECIFIED.,.F.,.F.,.U.,(2,2),(2,2),(0.0,14.298700298294129),(0.0,2.199800045891404),.UNSPECIFIED.);
#363=ORIENTED_EDGE('',*,*,#77,.T.);
#364=ORIENTED_EDGE('',*,*,#353,.F.);
#365=ORIENTED_EDGE('',*,*,#211,.F.);
#366=CARTESIAN_POINT('',(15.0,-2.0,-5.0));
#367=CARTESIAN_POINT('',(15.0,0.0,-5.0));
#368=QUASI_UNIFORM_CURVE('',1,(#366,#367),.UNSPECIFIED.,.F.,.U.);
#369=EDGE_CURVE('',#190,#73,#368,.T.);
#370=ORIENTED_EDGE('',*,*,#369,.T.);
#371=EDGE_LOOP('',(#363,#364,#365,#370));
#372=FACE_OUTER_BOUND('',#371,.T.);
#373=ADVANCED_FACE('',(#372),#362,.F.);
#374=CARTESIAN_POINT('',(6.857348368006652,-2.050000000000000,-11.906109414706890));
#375=CARTESIAN_POINT('',(6.857348368006652,0.051250000000000,-11.906109414706890));
#376=CARTESIAN_POINT('',(15.385683246948133,-2.049999999999999,-13.317166665965487));
#377=CARTESIAN_POINT('',(15.385683246948133,0.051250000000000,-13.317166665965487));
#378=CARTESIAN_POINT('',(14.992764987223980,-2.050000000000000,-4.681821066924610));
#379=CARTESIAN_POINT('',(14.992764987223980,0.051250000000000,-4.681821066924610));
#387=(BOUNDED_SURFACE()B_SPLINE_SURFACE(1,2,((#374,#376,#378),(#375,#377,#379)),.UNSPECIFIED.,.F.,.F.,.U.)B_SPLINE_SURFACE_WITH_KNOTS((2,2),(3,3),(0.0,2.101250000000000),(0.0,13.355314915548480),.UNSPECIFIED.)GEOMETRIC_REPRESENTATION_ITEM()RATIONAL_B_SPLINE_SURFACE(((1.0,0.629320391049838,1.0),(1.0,0.629320391049838,1.0)))REPRESENTATION_ITEM('')SURFACE());
#388=ORIENTED_EDGE('',*,*,#94,.T.);
#389=ORIENTED_EDGE('',*,*,#369,.F.);
#390=ORIENTED_EDGE('',*,*,#204,.F.);
#391=CARTESIAN_POINT('',(7.159676180916921,-2.0,-11.949378092972200));
#392=CARTESIAN_POINT('',(7.159676180916921,0.0,-11.949378092972200));
#393=QUASI_UNIFORM_CURVE('',1,(#391,#392),.UNSPECIFIED.,.F.,.U.);
#394=EDGE_CURVE('',#183,#80,#393,.T.);
#395=ORIENTED_EDGE('',*,*,#394,.T.);
#396=EDGE_LOOP('',(#388,#389,#390,#395));
#397=FACE_OUTER_BOUND('',#396,.T.);
#398=ADVANCED_FACE('',(#397),#387,.T.);
#399=CARTESIAN_POINT('',(-41.071537624534258,-2.099899996123611,-5.649806004450041));
#400=CARTESIAN_POINT('',(9.454214334362357,-2.099899996123611,-12.249072157604260));
#401=CARTESIAN_POINT('',(-41.071537624534258,0.099900049767792,-5.649806004450041));
#402=CARTESIAN_POINT('',(9.454214334362357,0.099900049767792,-12.249072157604260));
#403=B_SPLINE_SURFACE_WITH_KNOTS('',1,1,((#399,#401),(#400,#402)),.UNSPECIFIED.,.F.,.F.,.U.,(2,2),(2,2),(0.0,50.954900890612201),(0.0,2.199800045891403),.UNSPECIFIED.);
#404=ORIENTED_EDGE('',*,*,#101,.T.);
#405=ORIENTED_EDGE('',*,*,#394,.F.);
#406=ORIENTED_EDGE('',*,*,#187,.F.);
#407=CARTESIAN_POINT('',(-38.776999881794708,-2.0,-5.949500015439019));
#408=CARTESIAN_POINT('',(-38.776999881794708,0.0,-5.949500015439019));
#409=QUASI_UNIFORM_CURVE('',1,(#407,#408),.UNSPECIFIED.,.F.,.U.);
#410=EDGE_CURVE('',#166,#97,#409,.T.);
#411=ORIENTED_EDGE('',*,*,#410,.T.);
#412=EDGE_LOOP('',(#404,#405,#406,#411));
#413=FACE_OUTER_BOUND('',#412,.T.);
#414=ADVANCED_FACE('',(#413),#403,.F.);
#415=CARTESIAN_POINT('',(-38.617896798431673,-2.050000000000000,5.968099456284937));
#416=CARTESIAN_POINT('',(-38.617896798431673,0.051250000000000,5.968099456284937));
#417=CARTESIAN_POINT('',(-44.086663730555429,-2.050000000000001,5.401833475514587));
#418=CARTESIAN_POINT('',(-44.086663730555429,0.051250000000000,5.401833475514587));
#419=CARTESIAN_POINT('',(-43.999187006685361,-2.050000000000000,-0.095476479513337));
#420=CARTESIAN_POINT('',(-43.999187006685361,0.051250000000000,-0.095476479513337));
#421=CARTESIAN_POINT('',(-43.911710282815292,-2.050000000000001,-5.592786434541259));
#422=CARTESIAN_POINT('',(-43.911710282815292,0.051250000000000,-5.592786434541259));
#423=CARTESIAN_POINT('',(-38.427695153007477,-2.050000000000000,-5.984764718260021));
#424=CARTESIAN_POINT('',(-38.427695153007477,0.051250000000000,-5.984764718260021));
#432=(BOUNDED_SURFACE()B_SPLINE_SURFACE(1,2,((#415,#417,#419,#421,#423),(#416,#418,#420,#422,#424)),.UNSPECIFIED.,.F.,.F.,.U.)B_SPLINE_SURFACE_WITH_KNOTS((2,2),(3,2,3),(0.0,2.101250000000000),(0.0,9.333121579784979,18.666243159569959),.UNSPECIFIED.)GEOMETRIC_REPRESENTATION_ITEM()RATIONAL_B_SPLINE_SURFACE(((1.0,0.737277336810124,1.0,0.737277336810124,1.0),(1.0,0.737277336810124,1.0,0.737277336810124,1.0)))REPRESENTATION_ITEM('')SURFACE());
#433=ORIENTED_EDGE('',*,*,#116,.T.);
#434=ORIENTED_EDGE('',*,*,#410,.F.);
#435=ORIENTED_EDGE('',*,*,#180,.F.);
#436=CARTESIAN_POINT('',(-38.669954207853813,-2.0,5.962479464063490));
#437=CARTESIAN_POINT('',(-38.669954207853813,0.0,5.962479464063490));
#438=QUASI_UNIFORM_CURVE('',1,(#436,#437),.UNSPECIFIED.,.F.,.U.);
#439=EDGE_CURVE('',#159,#52,#438,.T.);
#440=ORIENTED_EDGE('',*,*,#439,.T.);
#441=EDGE_LOOP('',(#433,#434,#435,#440));
#442=FACE_OUTER_BOUND('',#441,.T.);
#443=ADVANCED_FACE('',(#442),#432,.T.);
#444=CARTESIAN_POINT('',(23.369865172305861,-2.099899996123612,13.279423504117650));
#445=CARTESIAN_POINT('',(-41.621414638362999,-2.099899996123612,5.614385755502906));
#446=CARTESIAN_POINT('',(23.369865172305861,0.099900049767792,13.279423504117650));
#447=CARTESIAN_POINT('',(-41.621414638362999,0.099900049767792,5.614385755502906));
#448=B_SPLINE_SURFACE_WITH_KNOTS('',1,1,((#444,#446),(#445,#447)),.UNSPECIFIED.,.F.,.F.,.U.,(2,2),(2,2),(0.0,65.441724114790432),(0.0,2.199800045891404),.UNSPECIFIED.);
#449=ORIENTED_EDGE('',*,*,#56,.T.);
#450=ORIENTED_EDGE('',*,*,#439,.F.);
#451=ORIENTED_EDGE('',*,*,#163,.F.);
#452=ORIENTED_EDGE('',*,*,#267,.T.);
#453=EDGE_LOOP('',(#449,#450,#451,#452));
#454=FACE_OUTER_BOUND('',#453,.T.);
#455=ADVANCED_FACE('',(#454),#448,.F.);
#456=CLOSED_SHELL('',(#150,#257,#277,#297,#313,#329,#341,#357,#373,#398,#414,#443,#455));
#457=MANIFOLD_SOLID_BREP('cam',#456);
#463=(NAMED_UNIT(*)PLANE_ANGLE_UNIT()SI_UNIT($,.RADIAN.));
#464=DIMENSIONAL_EXPONENTS(0.0,0.0,0.0,0.0,0.0,0.0,0.0);
#465=PLANE_ANGLE_MEASURE_WITH_UNIT(PLANE_ANGLE_MEASURE(0.017453292500000),#463);
#469=(CONVERSION_BASED_UNIT('DEGREE',#465)NAMED_UNIT(#464)PLANE_ANGLE_UNIT());
#473=(NAMED_UNIT(*)SI_UNIT($,.STERADIAN.)SOLID_ANGLE_UNIT());
#477=(LENGTH_UNIT()NAMED_UNIT(*)SI_UNIT(.MILLI.,.METRE.));
#479=UNCERTAINTY_MEASURE_WITH_UNIT(LENGTH_MEASURE(0.001000000000000),#477,'DISTANCE_ACCURACY_VALUE','');
#481=(GEOMETRIC_REPRESENTATION_CONTEXT(3)GLOBAL_UNCERTAINTY_ASSIGNED_CONTEXT((#479))GLOBAL_UNIT_ASSIGNED_CONTEXT((#469,#473,#477))REPRESENTATION_CONTEXT('','3D'));
ENDSEC;
END-ISO-10303-21;
