  0
SECTION
  2
HEADER
  9
$ACADVER
  1
AC1015
  9
$ACADMAINTVER
 70
    20
  9
$DWGCODEPAGE
  3
ANSI_932
  9
$INSBASE
 10
0.0
 20
0.0
 30
0.0
  9
$EXTMIN
 10
10.0
 20
9.999999999999998
 30
0.0
  9
$EXTMAX
 10
476.545455
 20
256.173219
 30
0.0
  9
$LIMMIN
 10
0.0
 20
0.0
  9
$LIMMAX
 10
495.0
 20
341.25
  9
$ORTHOMODE
 70
     1
  9
$REGENMODE
 70
     1
  9
$FILLMODE
 70
     1
  9
$QTEXTMODE
 70
     0
  9
$MIRRTEXT
 70
     1
  9
$LTSCALE
 40
20.0
  9
$ATTMODE
 70
     1
  9
$TEXTSIZE
 40
5.0
  9
$TRACEWID
 40
1.0
  9
$TEXTSTYLE
  7
STANDARD
  9
$CLAYER
  8
0
  9
$CELTYPE
  6
BYLAYER
  9
$CECOLOR
 62
   256
  9
$CELTSCALE
 40
1.0
  9
$DISPSILH
 70
     0
  9
$DIMSCALE
 40
1.0
  9
$DIMASZ
 40
3.0
  9
$DIMEXO
 40
1.0
  9
$DIMDLI
 40
10.0
  9
$DIMRND
 40
0.0
  9
$DIMDLE
 40
0.0
  9
$DIMEXE
 40
1.0
  9
$DIMTP
 40
0.0
  9
$DIMTM
 40
0.0
  9
$DIMTXT
 40
3.2
  9
$DIMCEN
 40
0.0
  9
$DIMTSZ
 40
0.0
  9
$DIMTOL
 70
     0
  9
$DIMLIM
 70
     0
  9
$DIMTIH
 70
     0
  9
$DIMTOH
 70
     0
  9
$DIMSE1
 70
     0
  9
$DIMSE2
 70
     0
  9
$DIMTAD
 70
     3
  9
$DIMZIN
 70
     8
  9
$DIMBLK
  1

  9
$DIMASO
 70
     1
  9
$DIMSHO
 70
     1
  9
$DIMPOST
  1

  9
$DIMAPOST
  1

  9
$DIMALT
 70
     0
  9
$DIMALTD
 70
     2
  9
$DIMALTF
 40
25.4
  9
$DIMLFAC
 40
1.0
  9
$DIMTOFL
 70
     1
  9
$DIMTVP
 40
0.0
  9
$DIMTIX
 70
     0
  9
$DIMSOXD
 70
     0
  9
$DIMSAH
 70
     1
  9
$DIMBLK1
  1

  9
$DIMBLK2
  1

  9
$DIMSTYLE
  2
STANDARD
  9
$DIMCLRD
 70
     0
  9
$DIMCLRE
 70
     0
  9
$DIMCLRT
 70
     0
  9
$DIMTFAC
 40
1.0
  9
$DIMGAP
 40
1.0
  9
$DIMJUST
 70
     0
  9
$DIMSD1
 70
     0
  9
$DIMSD2
 70
     0
  9
$DIMTOLJ
 70
     1
  9
$DIMTZIN
 70
     0
  9
$DIMALTZ
 70
     0
  9
$DIMALTTZ
 70
     0
  9
$DIMUPT
 70
     0
  9
$DIMDEC
 70
     4
  9
$DIMTDEC
 70
     4
  9
$DIMALTU
 70
     2
  9
$DIMALTTD
 70
     2
  9
$DIMTXSTY
  7
STANDARD
  9
$DIMAUNIT
 70
     0
  9
$DIMADEC
 70
     0
  9
$DIMALTRND
 40
0.0
  9
$DIMAZIN
 70
     0
  9
$DIMDSEP
 70
    46
  9
$DIMATFIT
 70
     3
  9
$DIMFRAC
 70
     0
  9
$DIMLDRBLK
  1

  9
$DIMLUNIT
 70
     2
  9
$DIMLWD
 70
    -2
  9
$DIMLWE
 70
    -2
  9
$DIMTMOVE
 70
     0
  9
$LUNITS
 70
     2
  9
$LUPREC
 70
     4
  9
$SKETCHINC
 40
1.0
  9
$FILLETRAD
 40
0.0
  9
$AUNITS
 70
     0
  9
$AUPREC
 70
     2
  9
$MENU
  1
.
  9
$ELEVATION
 40
0.0
  9
$PELEVATION
 40
0.0
  9
$THICKNESS
 40
0.0
  9
$LIMCHECK
 70
     0
  9
$CHAMFERA
 40
10.0
  9
$CHAMFERB
 40
10.0
  9
$CHAMFERC
 40
0.0
  9
$CHAMFERD
 40
0.0
  9
$SKPOLY
 70
     0
  9
$TDCREATE
 40
2450737.745274653
  9
$TDUCREATE
 40
2450737.370274653
  9
$TDUPDATE
 40
2457192.639128553
  9
$TDUUPDATE
 40
2457192.264128553
  9
$TDINDWG
 40
0.0000147106
  9
$TDUSRTIMER
 40
0.0000144097
  9
$USRTIMER
 70
     1
  9
$ANGBASE
 50
0.0
  9
$ANGDIR
 70
     0
  9
$PDMODE
 70
     0
  9
$PDSIZE
 40
0.0
  9
$PLINEWID
 40
0.0
  9
$SPLFRAME
 70
     0
  9
$SPLINETYPE
 70
     6
  9
$SPLINESEGS
 70
     8
  9
$HANDSEED
  5
98A1
  9
$SURFTAB1
 70
     6
  9
$SURFTAB2
 70
     6
  9
$SURFTYPE
 70
     6
  9
$SURFU
 70
     6
  9
$SURFV
 70
     6
  9
$UCSBASE
  2

  9
$UCSNAME
  2

  9
$UCSORG
 10
0.0
 20
0.0
 30
0.0
  9
$UCSXDIR
 10
1.0
 20
0.0
 30
0.0
  9
$UCSYDIR
 10
0.0
 20
1.0
 30
0.0
  9
$UCSORTHOREF
  2

  9
$UCSORTHOVIEW
 70
     0
  9
$UCSORGTOP
 10
0.0
 20
0.0
 30
0.0
  9
$UCSORGBOTTOM
 10
0.0
 20
0.0
 30
0.0
  9
$UCSORGLEFT
 10
0.0
 20
0.0
 30
0.0
  9
$UCSORGRIGHT
 10
0.0
 20
0.0
 30
0.0
  9
$UCSORGFRONT
 10
0.0
 20
0.0
 30
0.0
  9
$UCSORGBACK
 10
0.0
 20
0.0
 30
0.0
  9
$PUCSBASE
  2

  9
$PUCSNAME
  2

  9
$PUCSORG
 10
0.0
 20
0.0
 30
0.0
  9
$PUCSXDIR
 10
1.0
 20
0.0
 30
0.0
  9
$PUCSYDIR
 10
0.0
 20
1.0
 30
0.0
  9
$PUCSORTHOREF
  2

  9
$PUCSORTHOVIEW
 70
     0
  9
$PUCSORGTOP
 10
0.0
 20
0.0
 30
0.0
  9
$PUCSORGBOTTOM
 10
0.0
 20
0.0
 30
0.0
  9
$PUCSORGLEFT
 10
0.0
 20
0.0
 30
0.0
  9
$PUCSORGRIGHT
 10
0.0
 20
0.0
 30
0.0
  9
$PUCSORGFRONT
 10
0.0
 20
0.0
 30
0.0
  9
$PUCSORGBACK
 10
0.0
 20
0.0
 30
0.0
  9
$USERI1
 70
     0
  9
$USERI2
 70
     0
  9
$USERI3
 70
     0
  9
$USERI4
 70
     0
  9
$USERI5
 70
     0
  9
$USERR1
 40
0.0
  9
$USERR2
 40
0.0
  9
$USERR3
 40
0.0
  9
$USERR4
 40
0.0
  9
$USERR5
 40
0.0
  9
$WORLDVIEW
 70
     1
  9
$SHADEDGE
 70
     3
  9
$SHADEDIF
 70
    70
  9
$TILEMODE
 70
     1
  9
$MAXACTVP
 70
    16
  9
$PINSBASE
 10
0.0
 20
0.0
 30
0.0
  9
$PLIMCHECK
 70
     0
  9
$PEXTMIN
 10
1.000000000000000E+20
 20
1.000000000000000E+20
 30
1.000000000000000E+20
  9
$PEXTMAX
 10
-1.000000000000000E+20
 20
-1.000000000000000E+20
 30
-1.000000000000000E+20
  9
$PLIMMIN
 10
0.0
 20
0.0
  9
$PLIMMAX
 10
420.0
 20
297.0
  9
$UNITMODE
 70
     0
  9
$VISRETAIN
 70
     0
  9
$PLINEGEN
 70
     0
  9
$PSLTSCALE
 70
     0
  9
$TREEDEPTH
 70
  3020
  9
$CMLSTYLE
  2
STANDARD
  9
$CMLJUST
 70
     0
  9
$CMLSCALE
 40
1.0
  9
$PROXYGRAPHICS
 70
     1
  9
$MEASUREMENT
 70
     0
  9
$CELWEIGHT
370
    -1
  9
$ENDCAPS
280
     0
  9
$JOINSTYLE
280
     0
  9
$LWDISPLAY
290
     0
  9
$INSUNITS
 70
     0
  9
$HYPERLINKBASE
  1

  9
$STYLESHEET
  1

  9
$XEDIT
290
     1
  9
$CEPSNTYPE
380
     0
  9
$PSTYLEMODE
290
     1
  9
$FINGERPRINTGUID
  2
{21B9416A-AE2E-4B74-99BE-70BC95F4CAE3}
  9
$VERSIONGUID
  2
{571D2416-82C8-461E-BB3C-3AA28F6C92B8}
  9
$EXTNAMES
290
     1
  9
$PSVPSCALE
 40
0.0
  9
$OLESTARTUP
290
     0
  0
ENDSEC
  0
SECTION
  2
CLASSES
  0
CLASS
  1
ACDBDICTIONARYWDFLT
  2
AcDbDictionaryWithDefault
  3
ObjectDBX Classes
 90
        0
280
     0
281
     0
  0
CLASS
  1
ACDBPLACEHOLDER
  2
AcDbPlaceHolder
  3
ObjectDBX Classes
 90
        0
280
     0
281
     0
  0
CLASS
  1
LAYOUT
  2
AcDbLayout
  3
ObjectDBX Classes
 90
        0
280
     0
281
     0
  0
CLASS
  1
DICTIONARYVAR
  2
AcDbDictionaryVar
  3
ObjectDBX Classes
 90
        0
280
     0
281
     0
  0
CLASS
  1
MATERIAL
  2
AcDbMaterial
  3
ObjectDBX Classes
 90
     1153
280
     0
281
     0
  0
CLASS
  1
VISUALSTYLE
  2
AcDbVisualStyle
  3
ObjectDBX Classes
 90
     4095
280
     0
281
     0
  0
CLASS
  1
TABLESTYLE
  2
AcDbTableStyle
  3
ObjectDBX Classes
 90
     4095
280
     0
281
     0
  0
CLASS
  1
SCALE
  2
AcDbScale
  3
ObjectDBX Classes
 90
     1153
280
     0
281
     0
  0
CLASS
  1
MLEADERSTYLE
  2
AcDbMLeaderStyle
  3
ACDB_MLEADERSTYLE_CLASS
 90
     4095
280
     0
281
     0
  0
CLASS
  1
ACDBSECTIONVIEWSTYLE
  2
AcDbSectionViewStyle
  3
ObjectDBX Classes
 90
     1025
280
     0
281
     0
  0
CLASS
  1
ACDBDETAILVIEWSTYLE
  2
AcDbDetailViewStyle
  3
ObjectDBX Classes
 90
     1025
280
     0
281
     0
  0
CLASS
  1
CELLSTYLEMAP
  2
AcDbCellStyleMap
  3
ObjectDBX Classes
 90
     1152
280
     0
281
     0
  0
ENDSEC
  0
SECTION
  2
TABLES
  0
TABLE
  2
VPORT
  5
95A3
330
0
100
AcDbSymbolTable
 70
     1
  0
VPORT
  5
97EA
330
95A3
100
AcDbSymbolTableRecord
100
AcDbViewportTableRecord
  2
*ACTIVE
 70
     0
 10
0.0
 20
0.0
 11
1.0
 21
1.0
 12
323.5986365867357
 22
133.0820854065905
 13
0.0
 23
0.0
 14
10.0
 24
10.0
 15
10.0
 25
10.0
 16
0.0
 26
0.0
 36
1.0
 17
0.0
 27
0.0
 37
0.0
 40
268.1797191098452
 41
1.899603698811096
 42
50.0
 43
0.0
 44
0.0
 50
0.0
 51
0.0
 71
     0
 72
   100
 73
     1
 74
     0
 75
     0
 76
     0
 77
     0
 78
     0
281
     0
 65
     1
110
0.0
120
0.0
130
0.0
111
1.0
121
0.0
131
0.0
112
0.0
122
1.0
132
0.0
 79
     0
146
0.0
1001
ACAD_NAV_VCDISPLAY
1070
     3
  0
ENDTAB
  0
TABLE
  2
LTYPE
  5
95A0
330
0
100
AcDbSymbolTable
 70
     4
  0
LTYPE
  5
95AE
330
95A0
100
AcDbSymbolTableRecord
100
AcDbLinetypeTableRecord
  2
BYBLOCK
 70
     0
  3

 72
    65
 73
     0
 40
0.0
  0
LTYPE
  5
95AF
330
95A0
100
AcDbSymbolTableRecord
100
AcDbLinetypeTableRecord
  2
BYLAYER
 70
     0
  3

 72
    65
 73
     0
 40
0.0
  0
LTYPE
  5
95B0
330
95A0
100
AcDbSymbolTableRecord
100
AcDbLinetypeTableRecord
  2
CONTINUOUS
 70
     0
  3
Solid line
 72
    65
 73
     0
 40
0.0
  0
LTYPE
  5
95BE
330
95A0
100
AcDbSymbolTableRecord
100
AcDbLinetypeTableRecord
  2
DASHED
 70
     0
  3
__ __ __ __ __ __ __ __ __ __ __ __ __ __ __ __
 72
    65
 73
     2
 40
0.75
 49
0.5
 74
     0
 49
-0.25
 74
     0
  0
LTYPE
  5
95BF
330
95A0
100
AcDbSymbolTableRecord
100
AcDbLinetypeTableRecord
  2
CENTER
 70
     0
  3
____ _ ____ _ ____ _ ____ _ ____ _ ____ _ ____ 
 72
    65
 73
     4
 40
2.0
 49
1.25
 74
     0
 49
-0.25
 74
     0
 49
0.25
 74
     0
 49
-0.25
 74
     0
  0
LTYPE
  5
95C0
330
95A0
100
AcDbSymbolTableRecord
100
AcDbLinetypeTableRecord
  2
PHANTOM
 70
     0
  3
______  __  __  ______  __  __  ______  __  __ 
 72
    65
 73
     6
 40
2.5
 49
1.25
 74
     0
 49
-0.25
 74
     0
 49
0.25
 74
     0
 49
-0.25
 74
     0
 49
0.25
 74
     0
 49
-0.25
 74
     0
  0
ENDTAB
  0
TABLE
  2
LAYER
  5
959D
330
0
100
AcDbSymbolTable
 70
     8
  0
LAYER
  5
95AB
102
{ACAD_XDICTIONARY
360
9845
102
}
330
959D
100
AcDbSymbolTableRecord
100
AcDbLayerTableRecord
  2
0
 70
     0
 62
     7
  6
CONTINUOUS
370
    -3
390
97F3
  0
LAYER
  5
95C1
102
{ACAD_XDICTIONARY
360
9847
102
}
330
959D
100
AcDbSymbolTableRecord
100
AcDbLayerTableRecord
  2
4
 70
     0
 62
     1
  6
CENTER
370
    -3
390
97F3
  0
LAYER
  5
95C2
102
{ACAD_XDICTIONARY
360
9849
102
}
330
959D
100
AcDbSymbolTableRecord
100
AcDbLayerTableRecord
  2
5
 70
     0
 62
     6
  6
PHANTOM
370
    -3
390
97F3
  0
LAYER
  5
95C3
102
{ACAD_XDICTIONARY
360
984B
102
}
330
959D
100
AcDbSymbolTableRecord
100
AcDbLayerTableRecord
  2
1
 70
     0
 62
     7
  6
CONTINUOUS
370
    -3
390
97F3
  0
LAYER
  5
95C4
102
{ACAD_XDICTIONARY
360
984D
102
}
330
959D
100
AcDbSymbolTableRecord
100
AcDbLayerTableRecord
  2
2
 70
     0
 62
     4
  6
CONTINUOUS
370
    -3
390
97F3
  0
LAYER
  5
95C5
102
{ACAD_XDICTIONARY
360
984F
102
}
330
959D
100
AcDbSymbolTableRecord
100
AcDbLayerTableRecord
  2
3
 70
     0
 62
     2
  6
DASHED
370
    -3
390
97F3
  0
LAYER
  5
95C6
102
{ACAD_XDICTIONARY
360
9851
102
}
330
959D
100
AcDbSymbolTableRecord
100
AcDbLayerTableRecord
  2
6
 70
     0
 62
     5
  6
CONTINUOUS
370
    -3
390
97F3
  0
LAYER
  5
95C7
102
{ACAD_XDICTIONARY
360
9853
102
}
330
959D
100
AcDbSymbolTableRecord
100
AcDbLayerTableRecord
  2
7
 70
     0
 62
     3
  6
CONTINUOUS
370
    -3
390
97F3
  0
ENDTAB
  0
TABLE
  2
STYLE
  5
959E
330
0
100
AcDbSymbolTable
 70
     1
  0
STYLE
  5
95AC
330
959E
100
AcDbSymbolTableRecord
100
AcDbTextStyleTableRecord
  2
STANDARD
 70
     0
 40
0.0
 41
1.0
 50
0.0
 71
     0
 42
5.0
  3
txt
  4

  0
ENDTAB
  0
TABLE
  2
VIEW
  5
95A1
330
0
100
AcDbSymbolTable
 70
     0
  0
ENDTAB
  0
TABLE
  2
UCS
  5
95A2
330
0
100
AcDbSymbolTable
 70
     0
  0
ENDTAB
  0
TABLE
  2
APPID
  5
95A4
330
0
100
AcDbSymbolTable
 70
     3
  0
APPID
  5
95AD
330
95A4
100
AcDbSymbolTableRecord
100
AcDbRegAppTableRecord
  2
ACAD
 70
     0
  0
APPID
  5
985F
330
95A4
100
AcDbSymbolTableRecord
100
AcDbRegAppTableRecord
  2
ACAD_NAV_VCDISPLAY
 70
     0
  0
APPID
  5
9898
330
95A4
100
AcDbSymbolTableRecord
100
AcDbRegAppTableRecord
  2
ACAD_MLEADERVER
 70
     0
  0
ENDTAB
  0
TABLE
  2
DIMSTYLE
  5
95A5
330
0
100
AcDbSymbolTable
 70
     1
100
AcDbDimStyleTable
 71
     0
  0
DIMSTYLE
105
95C9
330
95A5
100
AcDbSymbolTableRecord
100
AcDbDimStyleTableRecord
  2
STANDARD
 70
     0
 41
3.0
 42
1.0
 43
10.0
 44
1.0
 73
     0
 74
     0
 77
     3
 78
     8
140
3.2
141
0.0
147
1.0
172
     1
173
     1
284
     8
285
     8
286
     8
340
95AC
  0
ENDTAB
  0
TABLE
  2
BLOCK_RECORD
  5
959C
330
0
100
AcDbSymbolTable
 70
     0
  0
BLOCK_RECORD
  5
95B9
102
{ACAD_XDICTIONARY
360
97ED
102
}
330
959C
100
AcDbSymbolTableRecord
100
AcDbBlockTableRecord
  2
*MODEL_SPACE
340
9841
  0
BLOCK_RECORD
  5
95B5
102
{ACAD_XDICTIONARY
360
97EB
102
}
330
959C
100
AcDbSymbolTableRecord
100
AcDbBlockTableRecord
  2
*PAPER_SPACE
340
9842
  0
ENDTAB
  0
ENDSEC
  0
SECTION
  2
BLOCKS
  0
BLOCK
  5
95BA
330
95B9
100
AcDbEntity
  8
0
100
AcDbBlockBegin
  2
*MODEL_SPACE
 70
     0
 10
0.0
 20
0.0
 30
0.0
  3
*MODEL_SPACE
  1

  0
ENDBLK
  5
95BB
330
95B9
100
AcDbEntity
  8
0
100
AcDbBlockEnd
  0
BLOCK
  5
95B6
330
95B5
100
AcDbEntity
 67
     1
  8
0
100
AcDbBlockBegin
  2
*PAPER_SPACE
 70
     0
 10
0.0
 20
0.0
 30
0.0
  3
*PAPER_SPACE
  1

  0
ENDBLK
  5
95B7
330
95B5
100
AcDbEntity
 67
     1
  8
0
100
AcDbBlockEnd
  0
ENDSEC
  0
SECTION
  2
ENTITIES
  0
TEXT
  5
95D1
330
95B9
100
AcDbEntity
  8
7
  6
Continuous
100
AcDbText
 10
10.0
 20
18.0
 30
0.0
 40
3.0
  1
TYPE No.THA-23-1
100
AcDbText
  0
TEXT
  5
95D2
330
95B9
100
AcDbEntity
  8
7
  6
Continuous
100
AcDbText
 10
10.0
 20
26.0
 30
0.0
 40
3.0
  1
CODE No.3042
100
AcDbText
  0
TEXT
  5
95D3
330
95B9
100
AcDbEntity
  8
1
  6
Continuous
100
AcDbText
 10
10.0
 20
10.0
 30
0.0
 40
1.399999999999999
  1
LAYER
100
AcDbText
  0
TEXT
  5
95D4
330
95B9
100
AcDbEntity
  8
1
  6
Continuous
100
AcDbText
 10
17.97951099999998
 20
10.04873699999998
 30
0.0
 40
1.399999999999999
  1
1
100
AcDbText
  0
TEXT
  5
95D5
330
95B9
100
AcDbEntity
  8
7
  6
Continuous
100
AcDbText
 10
29.97951099999999
 20
10.04873699999998
 30
0.0
 40
1.399999999999999
  1
7
100
AcDbText
  0
TEXT
  5
95D6
330
95B9
100
AcDbEntity
  8
4
  6
CENTER
100
AcDbText
 10
23.97951099999999
 20
10.04873699999998
 30
0.0
 40
1.399999999999999
  1
4
100
AcDbText
  0
TEXT
  5
95D7
330
95B9
100
AcDbEntity
  8
3
  6
DASHED
100
AcDbText
 10
21.979511
 20
10.04873699999998
 30
0.0
 40
1.399999999999999
  1
3
100
AcDbText
  0
TEXT
  5
95D8
330
95B9
100
AcDbEntity
  8
2
  6
Continuous
100
AcDbText
 10
19.97951099999999
 20
10.04873699999998
 30
0.0
 40
1.399999999999999
  1
2
100
AcDbText
  0
TEXT
  5
95D9
330
95B9
100
AcDbEntity
  8
6
  6
Continuous
100
AcDbText
 10
27.979511
 20
10.04873699999998
 30
0.0
 40
1.399999999999999
  1
6
100
AcDbText
  0
TEXT
  5
95DA
330
95B9
100
AcDbEntity
  8
5
  6
PHANTOM
100
AcDbText
 10
25.97951099999999
 20
10.04873699999998
 30
0.0
 40
1.399999999999999
  1
5
100
AcDbText
  0
ARC
  5
95DB
330
95B9
100
AcDbEntity
  8
1
  6
Continuous
100
AcDbCircle
 10
343.078507
 20
150.6121189999998
 30
0.0
 40
34.3258
100
AcDbArc
 50
145.9489999999999
 51
180.0
  0
ARC
  5
95DC
330
95B9
100
AcDbEntity
  8
1
  6
Continuous
100
AcDbCircle
 10
312.1525069999999
 20
171.5121189999998
 30
0.0
 40
3.0
100
AcDbArc
 50
325.9489999999999
 51
90.0
  0
ARC
  5
95DD
330
95B9
100
AcDbEntity
  8
1
  6
Continuous
100
AcDbCircle
 10
343.078507
 20
150.6121189999998
 30
0.0
 40
33.52579999999999
100
AcDbArc
 50
145.9489999999999
 51
180.0
  0
ARC
  5
95DE
330
95B9
100
AcDbEntity
  8
1
  6
Continuous
100
AcDbCircle
 10
312.1525069999999
 20
171.5121189999998
 30
0.0
 40
3.799999999999998
100
AcDbArc
 50
325.9489999999999
 51
90.0
  0
LINE
  5
95DF
330
95B9
100
AcDbEntity
  8
4
  6
CENTER
100
AcDbLine
 10
318.7385069999999
 20
146.8120989999999
 30
0.0
 11
302.0535069999999
 21
146.8120989999999
 31
0.0
  0
LINE
  5
95E0
330
95B9
100
AcDbEntity
  8
1
  6
Continuous
100
AcDbLine
 10
313.4405069999999
 20
144.791379
 30
0.0
 11
310.552507
 21
144.791379
 31
0.0
  0
LINE
  5
95E1
330
95B9
100
AcDbEntity
  8
1
  6
Continuous
100
AcDbLine
 10
313.4405069999999
 20
148.832819
 30
0.0
 11
310.552507
 21
148.832819
 31
0.0
  0
LINE
  5
95E2
330
95B9
100
AcDbEntity
  8
1
  6
Continuous
100
AcDbLine
 10
313.4405069999999
 20
150.853519
 30
0.0
 11
310.552507
 21
150.853519
 31
0.0
  0
LINE
  5
95E3
330
95B9
100
AcDbEntity
  8
1
  6
Continuous
100
AcDbLine
 10
313.4405069999999
 20
142.7706589999999
 30
0.0
 11
310.552507
 21
142.7706589999999
 31
0.0
  0
ARC
  5
95E4
330
95B9
100
AcDbEntity
  8
1
  6
Continuous
100
AcDbCircle
 10
166.092226
 20
300.8122189999999
 30
0.0
 40
187.0
100
AcDbArc
 50
256.3509999999999
 51
283.8029999999998
  0
ARC
  5
95E5
330
95B9
100
AcDbEntity
  8
1
  6
Continuous
100
AcDbCircle
 10
166.092226
 20
300.8122189999999
 30
0.0
 40
190.0
100
AcDbArc
 50
255.332
 51
284.605
  0
ARC
  5
95E6
330
95B9
100
AcDbEntity
  8
1
  6
Continuous
100
AcDbCircle
 10
165.994226
 20
-231.8577809999999
 30
0.0
 40
360.17
100
AcDbArc
 50
84.76510000000002
 51
95.2349
  0
ARC
  5
95E7
330
95B9
100
AcDbEntity
  8
1
  6
Continuous
100
AcDbCircle
 10
165.994226
 20
373.5622189999999
 30
0.0
 40
258.25
100
AcDbArc
 50
259.473
 51
280.5269999999998
  0
LINE
  5
95E8
330
95B9
100
AcDbEntity
  8
1
  6
Continuous
100
AcDbLine
 10
120.733226
 20
46.451419
 30
0.0
 11
211.2562259999999
 21
46.451419
 31
0.0
  0
LINE
  5
95E9
330
95B9
100
AcDbEntity
  8
1
  6
Continuous
100
AcDbLine
 10
104.9942259999999
 20
61.45141899999998
 30
0.0
 11
226.9942259999999
 21
61.45141899999998
 31
0.0
  0
LINE
  5
95EA
330
95B9
100
AcDbEntity
  8
1
  6
Continuous
100
AcDbLine
 10
104.9942259999999
 20
63.95141899999998
 30
0.0
 11
226.9942259999999
 21
63.95141899999998
 31
0.0
  0
LINE
  5
95EB
330
95B9
100
AcDbEntity
  8
4
  6
CENTER
100
AcDbLine
 10
205.994226
 20
172.312119
 30
0.0
 11
125.994226
 21
172.312119
 31
0.0
  0
LINE
  5
95EC
330
95B9
100
AcDbEntity
  8
1
  6
Continuous
100
AcDbLine
 10
143.994226
 20
160.812119
 30
0.0
 11
187.9942259999999
 21
160.812119
 31
0.0
  0
LINE
  5
95ED
330
95B9
100
AcDbEntity
  8
4
  6
CENTER
100
AcDbLine
 10
236.9942259999999
 20
144.8120989999999
 30
0.0
 11
94.994226
 21
144.8120989999999
 31
0.0
  0
LINE
  5
95EE
330
95B9
100
AcDbEntity
  8
1
  6
Continuous
100
AcDbLine
 10
221.9942259999999
 20
190.8121189999999
 30
0.0
 11
109.9942259999999
 21
190.8121189999999
 31
0.0
  0
LINE
  5
95EF
330
95B9
100
AcDbEntity
  8
1
  6
Continuous
100
AcDbLine
 10
221.9942259999999
 20
98.812119
 30
0.0
 11
109.9942259999999
 21
98.812119
 31
0.0
  0
LINE
  5
95F0
330
95B9
100
AcDbEntity
  8
1
  6
Continuous
100
AcDbLine
 10
144.994226
 20
163.8121189999999
 30
0.0
 11
186.994226
 21
163.8121189999999
 31
0.0
  0
LINE
  5
95F1
330
95B9
100
AcDbEntity
  8
1
  6
Continuous
100
AcDbLine
 10
38.444124
 20
110.3121189999999
 30
0.0
 11
29.072124
 21
112.1866189999998
 31
0.0
  0
LINE
  5
95F2
330
95B9
100
AcDbEntity
  8
1
  6
Continuous
100
AcDbLine
 10
38.444124
 20
98.812119
 30
0.0
 11
38.444124
 21
190.8121189999999
 31
0.0
  0
LINE
  5
95F3
330
95B9
100
AcDbEntity
  8
1
  6
Continuous
100
AcDbLine
 10
40.944124
 20
98.812119
 30
0.0
 11
40.944124
 21
190.8121189999999
 31
0.0
  0
LINE
  5
95F4
330
95B9
100
AcDbEntity
  8
4
  6
CENTER
100
AcDbLine
 10
110.9942259999999
 20
98.812119
 30
0.0
 11
110.9942259999999
 21
110.812119
 31
0.0
  0
LINE
  5
95F5
330
95B9
100
AcDbEntity
  8
1
  6
Continuous
100
AcDbLine
 10
104.9942259999999
 20
103.812119
 30
0.0
 11
104.9942259999999
 21
185.812119
 31
0.0
  0
LINE
  5
95F6
330
95B9
100
AcDbEntity
  8
1
  6
Continuous
100
AcDbLine
 10
40.944124
 20
98.812119
 30
0.0
 11
38.444124
 21
98.812119
 31
0.0
  0
LINE
  5
95F7
330
95B9
100
AcDbEntity
  8
1
  6
Continuous
100
AcDbLine
 10
113.869226
 20
52.07861900000001
 30
0.0
 11
111.9942259999999
 21
61.45141899999998
 31
0.0
  0
ARC
  5
95F8
330
95B9
100
AcDbEntity
  8
1
  6
Continuous
100
AcDbCircle
 10
120.733226
 20
53.45141899999998
 30
0.0
 40
7.0
100
AcDbArc
 50
191.3099999999998
 51
270.0
  0
ARC
  5
95F9
330
95B9
100
AcDbEntity
  8
1
  6
Continuous
100
AcDbCircle
 10
137.744226
 20
45.70601899999998
 30
0.0
 40
5.05463
100
AcDbArc
 50
249.744
 51
290.2559999999999
  0
LINE
  5
95FA
330
95B9
100
AcDbEntity
  8
1
  6
Continuous
100
AcDbLine
 10
135.6942259999999
 20
43.85141899999999
 30
0.0
 11
143.294226
 21
43.85141899999999
 31
0.0
  0
LINE
  5
95FB
330
95B9
100
AcDbEntity
  8
1
  6
Continuous
100
AcDbLine
 10
135.9942259999999
 20
40.65141899999999
 30
0.0
 11
142.9942259999999
 21
40.65141899999999
 31
0.0
  0
LINE
  5
95FC
330
95B9
100
AcDbEntity
  8
1
  6
Continuous
100
AcDbLine
 10
143.994226
 20
44.851419
 30
0.0
 11
134.9942259999999
 21
44.851419
 31
0.0
  0
LINE
  5
95FD
330
95B9
100
AcDbEntity
  8
1
  6
Continuous
100
AcDbLine
 10
134.9942259999999
 20
38.451419
 30
0.0
 11
143.994226
 21
38.451419
 31
0.0
  0
LINE
  5
95FE
330
95B9
100
AcDbEntity
  8
1
  6
Continuous
100
AcDbLine
 10
143.994226
 20
45.65141899999999
 30
0.0
 11
134.9942259999999
 21
45.65141899999999
 31
0.0
  0
LINE
  5
95FF
330
95B9
100
AcDbEntity
  8
1
  6
Continuous
100
AcDbLine
 10
135.9942259999999
 20
43.85141899999999
 30
0.0
 11
135.9942259999999
 21
40.65141899999999
 31
0.0
  0
LINE
  5
9600
330
95B9
100
AcDbEntity
  8
1
  6
Continuous
100
AcDbLine
 10
134.9942259999999
 20
38.451419
 30
0.0
 11
134.9942259999999
 21
46.451419
 31
0.0
  0
LINE
  5
9601
330
95B9
100
AcDbEntity
  8
1
  6
Continuous
100
AcDbLine
 10
135.6942259999999
 20
44.851419
 30
0.0
 11
135.6942259999999
 21
43.85141899999999
 31
0.0
  0
LINE
  5
9602
330
95B9
100
AcDbEntity
  8
1
  6
Continuous
100
AcDbLine
 10
139.494226
 20
43.85141899999999
 30
0.0
 11
139.494226
 21
40.964019
 31
0.0
  0
LINE
  5
9603
330
95B9
100
AcDbEntity
  8
1
  6
Continuous
100
AcDbLine
 10
142.9942259999999
 20
43.85141899999999
 30
0.0
 11
142.9942259999999
 21
40.65141899999999
 31
0.0
  0
LINE
  5
9604
330
95B9
100
AcDbEntity
  8
1
  6
Continuous
100
AcDbLine
 10
143.994226
 20
38.451419
 30
0.0
 11
143.994226
 21
46.451419
 31
0.0
  0
LINE
  5
9605
330
95B9
100
AcDbEntity
  8
4
  6
CENTER
100
AcDbLine
 10
139.494226
 20
33.451219
 30
0.0
 11
139.494226
 21
51.451419
 31
0.0
  0
ARC
  5
9606
330
95B9
100
AcDbEntity
  8
1
  6
Continuous
100
AcDbCircle
 10
141.2442259999999
 20
45.70601899999998
 30
0.0
 40
5.05463
100
AcDbArc
 50
249.744
 51
290.2559999999999
  0
LINE
  5
9607
330
95B9
100
AcDbEntity
  8
1
  6
Continuous
100
AcDbLine
 10
137.494226
 20
39.451419
 30
0.0
 11
141.4942259999999
 21
39.451419
 31
0.0
  0
LINE
  5
9608
330
95B9
100
AcDbEntity
  8
2
  6
Continuous
100
AcDbLine
 10
141.115226
 20
40.65141899999999
 30
0.0
 11
141.115226
 21
39.451419
 31
0.0
  0
LINE
  5
9609
330
95B9
100
AcDbEntity
  8
2
  6
Continuous
100
AcDbLine
 10
137.8732259999999
 20
40.65141899999999
 30
0.0
 11
137.8732259999999
 21
39.451419
 31
0.0
  0
LINE
  5
960A
330
95B9
100
AcDbEntity
  8
1
  6
Continuous
100
AcDbLine
 10
137.494226
 20
40.65141899999999
 30
0.0
 11
137.494226
 21
39.451419
 31
0.0
  0
LINE
  5
960B
330
95B9
100
AcDbEntity
  8
1
  6
Continuous
100
AcDbLine
 10
141.4942259999999
 20
40.65141899999999
 30
0.0
 11
141.4942259999999
 21
39.451419
 31
0.0
  0
LINE
  5
960C
330
95B9
100
AcDbEntity
  8
1
  6
Continuous
100
AcDbLine
 10
139.0102259999999
 20
44.851419
 30
0.0
 11
139.2782259999999
 21
43.85141899999999
 31
0.0
  0
LINE
  5
960D
330
95B9
100
AcDbEntity
  8
1
  6
Continuous
100
AcDbLine
 10
139.710226
 20
44.851419
 30
0.0
 11
139.978226
 21
43.85141899999999
 31
0.0
  0
LINE
  5
960E
330
95B9
100
AcDbEntity
  8
1
  6
Continuous
100
AcDbLine
 10
143.294226
 20
44.851419
 30
0.0
 11
143.294226
 21
43.85141899999999
 31
0.0
  0
LINE
  5
960F
330
95B9
100
AcDbEntity
  8
1
  6
Continuous
100
AcDbLine
 10
104.9942259999999
 20
61.45141899999998
 30
0.0
 11
104.9942259999999
 21
63.95141899999998
 31
0.0
  0
ARC
  5
9610
330
95B9
100
AcDbEntity
  8
1
  6
Continuous
100
AcDbCircle
 10
109.9942259999999
 20
103.812119
 30
0.0
 40
5.0
100
AcDbArc
 50
180.0
 51
270.0
  0
LINE
  5
9611
330
95B9
100
AcDbEntity
  8
4
  6
CENTER
100
AcDbLine
 10
104.9942259999999
 20
104.812119
 30
0.0
 11
116.994226
 21
104.812119
 31
0.0
  0
CIRCLE
  5
9612
330
95B9
100
AcDbEntity
  8
1
  6
Continuous
100
AcDbCircle
 10
110.9942259999999
 20
104.812119
 30
0.0
 40
2.25
  0
LINE
  5
9613
330
95B9
100
AcDbEntity
  8
5
  6
PHANTOM
100
AcDbLine
 10
83.82912399999998
 20
177.812119
 30
0.0
 11
40.944124
 21
177.812119
 31
0.0
  0
LINE
  5
9614
330
95B9
100
AcDbEntity
  8
5
  6
PHANTOM
100
AcDbLine
 10
83.82912399999998
 20
167.3121189999999
 30
0.0
 11
45.95912399999998
 21
167.3121189999999
 31
0.0
  0
ARC
  5
9615
330
95B9
100
AcDbEntity
  8
1
  6
Continuous
100
AcDbCircle
 10
20.35712399999999
 20
165.0121189999999
 30
0.0
 40
0.8
100
AcDbArc
 50
90.0
 51
204.2019999999999
  0
ARC
  5
9616
330
95B9
100
AcDbEntity
  8
1
  6
Continuous
100
AcDbCircle
 10
-11.680876
 20
150.6121189999998
 30
0.0
 40
34.3258
100
AcDbArc
 50
0.0
 51
34.05129999999999
  0
ARC
  5
9617
330
95B9
100
AcDbEntity
  8
1
  6
Continuous
100
AcDbCircle
 10
-11.680876
 20
150.6121189999998
 30
0.0
 40
33.52579999999999
100
AcDbArc
 50
0.0
 51
34.05129999999999
  0
ARC
  5
9618
330
95B9
100
AcDbEntity
  8
1
  6
Continuous
100
AcDbCircle
 10
30.444124
 20
161.1336189999998
 30
0.0
 40
7.0
100
AcDbArc
 50
101.689
 51
180.0
  0
LINE
  5
9619
330
95B9
100
AcDbEntity
  8
1
  6
Continuous
100
AcDbLine
 10
23.94412399999999
 20
164.8121189999999
 30
0.0
 11
23.94412399999999
 21
181.8787189999999
 31
0.0
  0
LINE
  5
961A
330
95B9
100
AcDbEntity
  8
1
  6
Continuous
100
AcDbLine
 10
23.44412399999999
 20
119.0507189999999
 30
0.0
 11
23.44412399999999
 21
164.8121189999999
 31
0.0
  0
ARC
  5
961B
330
95B9
100
AcDbEntity
  8
1
  6
Continuous
100
AcDbCircle
 10
30.444124
 20
119.0507189999999
 30
0.0
 40
7.0
100
AcDbArc
 50
180.0
 51
258.6899999999999
  0
LINE
  5
961C
330
95B9
100
AcDbEntity
  8
1
  6
Continuous
100
AcDbLine
 10
19.94412399999999
 20
117.4121189999999
 30
0.0
 11
23.63912399999999
 21
117.4121189999999
 31
0.0
  0
LINE
  5
961D
330
95B9
100
AcDbEntity
  8
1
  6
Continuous
100
AcDbLine
 10
19.94412399999999
 20
122.2121189999999
 30
0.0
 11
23.44412399999999
 21
122.2121189999999
 31
0.0
  0
LINE
  5
961E
330
95B9
100
AcDbEntity
  8
1
  6
Continuous
100
AcDbLine
 10
19.94412399999999
 20
117.4121189999999
 30
0.0
 11
19.94412399999999
 21
122.2121189999999
 31
0.0
  0
LINE
  5
961F
330
95B9
100
AcDbEntity
  8
4
  6
CENTER
100
AcDbLine
 10
11.226124
 20
146.8120989999999
 30
0.0
 11
29.203124
 21
146.8120989999999
 31
0.0
  0
LINE
  5
9620
330
95B9
100
AcDbEntity
  8
1
  6
Continuous
100
AcDbLine
 10
17.957124
 20
148.832819
 30
0.0
 11
20.844124
 21
148.832819
 31
0.0
  0
LINE
  5
9621
330
95B9
100
AcDbEntity
  8
1
  6
Continuous
100
AcDbLine
 10
17.957124
 20
144.791379
 30
0.0
 11
20.844124
 21
144.791379
 31
0.0
  0
LINE
  5
9622
330
95B9
100
AcDbEntity
  8
1
  6
Continuous
100
AcDbLine
 10
17.957124
 20
150.853519
 30
0.0
 11
20.844124
 21
150.853519
 31
0.0
  0
LINE
  5
9623
330
95B9
100
AcDbEntity
  8
1
  6
Continuous
100
AcDbLine
 10
17.957124
 20
142.7706589999999
 30
0.0
 11
20.844124
 21
142.7706589999999
 31
0.0
  0
ARC
  5
9624
330
95B9
100
AcDbEntity
  8
1
  6
Continuous
100
AcDbCircle
 10
19.43312399999999
 20
149.843219
 30
0.0
 40
1.78908
100
AcDbArc
 50
145.616
 51
214.3839999999999
  0
ARC
  5
9625
330
95B9
100
AcDbEntity
  8
1
  6
Continuous
100
AcDbCircle
 10
24.332124
 20
146.8120989999999
 30
0.0
 40
6.687409999999998
100
AcDbArc
 50
162.412
 51
197.588
  0
ARC
  5
9626
330
95B9
100
AcDbEntity
  8
1
  6
Continuous
100
AcDbCircle
 10
19.43312399999999
 20
143.781009
 30
0.0
 40
1.789069999999999
100
AcDbArc
 50
145.616
 51
214.3839999999999
  0
LINE
  5
9627
330
95B9
100
AcDbEntity
  8
1
  6
Continuous
100
AcDbLine
 10
17.64412399999998
 20
143.312119
 30
0.0
 11
17.957124
 21
142.7706689999999
 31
0.0
  0
LINE
  5
9628
330
95B9
100
AcDbEntity
  8
1
  6
Continuous
100
AcDbLine
 10
17.64412399999998
 20
150.3121189999999
 30
0.0
 11
17.957124
 21
150.853519
 31
0.0
  0
LINE
  5
9629
330
95B9
100
AcDbEntity
  8
1
  6
Continuous
100
AcDbLine
 10
17.64412399999998
 20
143.3120989999999
 30
0.0
 11
17.64412399999998
 21
150.3121189999999
 31
0.0
  0
LINE
  5
962A
330
95B9
100
AcDbEntity
  8
1
  6
Continuous
100
AcDbLine
 10
16.444124
 20
144.8120989999999
 30
0.0
 11
16.444124
 21
148.812119
 31
0.0
  0
LINE
  5
962B
330
95B9
100
AcDbEntity
  8
2
  6
Continuous
100
AcDbLine
 10
17.64412399999998
 20
148.4331189999998
 30
0.0
 11
16.444124
 21
148.4331189999998
 31
0.0
  0
LINE
  5
962C
330
95B9
100
AcDbEntity
  8
2
  6
Continuous
100
AcDbLine
 10
17.64412399999998
 20
145.191099
 30
0.0
 11
16.444124
 21
145.191099
 31
0.0
  0
LINE
  5
962D
330
95B9
100
AcDbEntity
  8
1
  6
Continuous
100
AcDbLine
 10
17.64412399999998
 20
144.8120989999999
 30
0.0
 11
16.444124
 21
144.8120989999999
 31
0.0
  0
LINE
  5
962E
330
95B9
100
AcDbEntity
  8
1
  6
Continuous
100
AcDbLine
 10
17.64412399999998
 20
148.812119
 30
0.0
 11
16.444124
 21
148.812119
 31
0.0
  0
ARC
  5
962F
330
95B9
100
AcDbEntity
  8
1
  6
Continuous
100
AcDbCircle
 10
-11.680876
 20
150.6121189999998
 30
0.0
 40
35.12579999999999
100
AcDbArc
 50
0.0
 51
24.202
  0
LINE
  5
9630
330
95B9
100
AcDbEntity
  8
1
  6
Continuous
100
AcDbLine
 10
22.64412399999998
 20
150.6121189999998
 30
0.0
 11
22.64412399999998
 21
138.8120989999999
 31
0.0
  0
LINE
  5
9631
330
95B9
100
AcDbEntity
  8
1
  6
Continuous
100
AcDbLine
 10
21.844124
 20
138.8120989999999
 30
0.0
 11
23.44412399999999
 21
138.8120989999999
 31
0.0
  0
LINE
  5
9632
330
95B9
100
AcDbEntity
  8
1
  6
Continuous
100
AcDbLine
 10
21.844124
 20
138.8120989999999
 30
0.0
 11
21.844124
 21
150.6121189999998
 31
0.0
  0
LINE
  5
9633
330
95B9
100
AcDbEntity
  8
1
  6
Continuous
100
AcDbLine
 10
20.844124
 20
142.7706589999999
 30
0.0
 11
20.844124
 21
150.853519
 31
0.0
  0
LINE
  5
9634
330
95B9
100
AcDbEntity
  8
1
  6
Continuous
100
AcDbLine
 10
21.844124
 20
147.296119
 30
0.0
 11
20.844124
 21
147.0281489999998
 31
0.0
  0
LINE
  5
9635
330
95B9
100
AcDbEntity
  8
1
  6
Continuous
100
AcDbLine
 10
21.844124
 20
146.5961289999999
 30
0.0
 11
20.844124
 21
146.328179
 31
0.0
  0
LINE
  5
9636
330
95B9
100
AcDbEntity
  8
1
  6
Continuous
100
AcDbLine
 10
21.844124
 20
150.6121189999998
 30
0.0
 11
20.844124
 21
150.6121189999998
 31
0.0
  0
LINE
  5
9637
330
95B9
100
AcDbEntity
  8
1
  6
Continuous
100
AcDbLine
 10
21.844124
 20
143.0121189999999
 30
0.0
 11
20.844124
 21
143.0121189999999
 31
0.0
  0
LINE
  5
9638
330
95B9
100
AcDbEntity
  8
1
  6
Continuous
100
AcDbLine
 10
20.35712399999999
 20
165.0121189999999
 30
0.0
 11
23.94412399999999
 21
165.0121189999999
 31
0.0
  0
LINE
  5
9639
330
95B9
100
AcDbEntity
  8
1
  6
Continuous
100
AcDbLine
 10
23.94412399999999
 20
164.8121189999999
 30
0.0
 11
23.44412399999999
 21
164.8121189999999
 31
0.0
  0
LINE
  5
963A
330
95B9
100
AcDbEntity
  8
4
  6
CENTER
100
AcDbLine
 10
39.444124
 20
172.312119
 30
0.0
 11
29.444124
 21
172.312119
 31
0.0
  0
LINE
  5
963B
330
95B9
100
AcDbEntity
  8
1
  6
Continuous
100
AcDbLine
 10
40.944124
 20
190.8121189999999
 30
0.0
 11
38.444124
 21
190.8121189999999
 31
0.0
  0
LINE
  5
963C
330
95B9
100
AcDbEntity
  8
1
  6
Continuous
100
AcDbLine
 10
19.24412399999998
 20
174.5121189999999
 30
0.0
 11
23.94412399999999
 21
174.5121189999999
 31
0.0
  0
LINE
  5
963D
330
95B9
100
AcDbEntity
  8
1
  6
Continuous
100
AcDbLine
 10
19.24412399999998
 20
175.3121189999999
 30
0.0
 11
23.94412399999999
 21
175.3121189999999
 31
0.0
  0
ARC
  5
963E
330
95B9
100
AcDbEntity
  8
1
  6
Continuous
100
AcDbCircle
 10
19.24412399999998
 20
171.5121189999998
 30
0.0
 40
3.0
100
AcDbArc
 50
90.0
 51
214.051
  0
ARC
  5
963F
330
95B9
100
AcDbEntity
  8
1
  6
Continuous
100
AcDbCircle
 10
19.24412399999998
 20
171.5121189999998
 30
0.0
 40
3.799999999999998
100
AcDbArc
 50
90.0
 51
214.051
  0
LINE
  5
9640
330
95B9
100
AcDbEntity
  8
1
  6
Continuous
100
AcDbLine
 10
38.444124
 20
169.9371189999999
 30
0.0
 11
29.026124
 21
167.988519
 31
0.0
  0
LINE
  5
9641
330
95B9
100
AcDbEntity
  8
1
  6
Continuous
100
AcDbLine
 10
20.35712399999999
 20
165.8121189999999
 30
0.0
 11
23.94412399999999
 21
165.8121189999999
 31
0.0
  0
ARC
  5
9642
330
95B9
100
AcDbEntity
  8
1
  6
Continuous
100
AcDbCircle
 10
34.444124
 20
172.5681189999999
 30
0.0
 40
2.0
100
AcDbArc
 50
8.814399999999997
 51
171.1859999999998
  0
ARC
  5
9643
330
95B9
100
AcDbEntity
  8
1
  6
Continuous
100
AcDbCircle
 10
34.444124
 20
172.0561189999999
 30
0.0
 40
2.0
100
AcDbArc
 50
188.8139999999999
 51
351.1859999999999
  0
ARC
  5
9644
330
95B9
100
AcDbEntity
  8
1
  6
Continuous
100
AcDbCircle
 10
34.444124
 20
172.312119
 30
0.0
 40
2.0
100
AcDbArc
 50
351.3729999999998
 51
8.626929999999997
  0
ARC
  5
9645
330
95B9
100
AcDbEntity
  8
1
  6
Continuous
100
AcDbCircle
 10
34.444124
 20
172.312119
 30
0.0
 40
2.0
100
AcDbArc
 50
171.3729999999999
 51
188.6269999999999
  0
LINE
  5
9646
330
95B9
100
AcDbEntity
  8
1
  6
Continuous
100
AcDbLine
 10
36.421124
 20
172.8745189999999
 30
0.0
 11
36.422124
 21
172.612119
 31
0.0
  0
LINE
  5
9647
330
95B9
100
AcDbEntity
  8
1
  6
Continuous
100
AcDbLine
 10
36.422124
 20
172.0121189999999
 30
0.0
 11
36.421124
 21
171.749619
 31
0.0
  0
LINE
  5
9648
330
95B9
100
AcDbEntity
  8
1
  6
Continuous
100
AcDbLine
 10
32.46712399999999
 20
172.0121189999999
 30
0.0
 11
32.46812399999999
 21
171.749619
 31
0.0
  0
LINE
  5
9649
330
95B9
100
AcDbEntity
  8
1
  6
Continuous
100
AcDbLine
 10
32.46812399999999
 20
172.8745189999999
 30
0.0
 11
32.46712399999999
 21
172.612119
 31
0.0
  0
LINE
  5
964A
330
95B9
100
AcDbEntity
  8
1
  6
Continuous
100
AcDbLine
 10
32.46712399999999
 20
172.0121189999999
 30
0.0
 11
36.422124
 21
172.0121189999999
 31
0.0
  0
LINE
  5
964B
330
95B9
100
AcDbEntity
  8
1
  6
Continuous
100
AcDbLine
 10
32.46712399999999
 20
172.612119
 30
0.0
 11
36.422124
 21
172.612119
 31
0.0
  0
LINE
  5
964C
330
95B9
100
AcDbEntity
  8
1
  6
Continuous
100
AcDbLine
 10
32.46812399999999
 20
172.8745189999999
 30
0.0
 11
36.421124
 21
172.8745189999999
 31
0.0
  0
LINE
  5
964D
330
95B9
100
AcDbEntity
  8
1
  6
Continuous
100
AcDbLine
 10
32.46812399999999
 20
171.749619
 30
0.0
 11
36.421124
 21
171.749619
 31
0.0
  0
LINE
  5
964E
330
95B9
100
AcDbEntity
  8
4
  6
CENTER
100
AcDbLine
 10
34.444124
 20
167.3121189999999
 30
0.0
 11
34.444124
 21
177.3121189999999
 31
0.0
  0
LINE
  5
964F
330
95B9
100
AcDbEntity
  8
1
  6
Continuous
100
AcDbLine
 10
38.444124
 20
183.812119
 30
0.0
 11
24.876124
 21
182.876319
 31
0.0
  0
ARC
  5
9650
330
95B9
100
AcDbEntity
  8
1
  6
Continuous
100
AcDbCircle
 10
24.94412399999999
 20
181.8787189999999
 30
0.0
 40
1.0
100
AcDbArc
 50
93.94519999999999
 51
180.0
  0
ARC
  5
9651
330
95B9
100
AcDbEntity
  8
5
  6
PHANTOM
100
AcDbCircle
 10
48.45912399999999
 20
176.812119
 30
0.0
 40
1.0
100
AcDbArc
 50
90.0
 51
180.0
  0
ARC
  5
9652
330
95B9
100
AcDbEntity
  8
5
  6
PHANTOM
100
AcDbCircle
 10
48.45912399999999
 20
168.312119
 30
0.0
 40
1.0
100
AcDbArc
 50
180.0
 51
270.0
  0
ARC
  5
9653
330
95B9
100
AcDbEntity
  8
5
  6
PHANTOM
100
AcDbCircle
 10
45.95912399999998
 20
167.3121189999999
 30
0.0
 40
1.0
100
AcDbArc
 50
270.0
 51
0.000003
  0
LINE
  5
9654
330
95B9
100
AcDbEntity
  8
5
  6
PHANTOM
100
AcDbLine
 10
47.45912399999999
 20
176.812119
 30
0.0
 11
47.45912399999999
 21
168.312119
 31
0.0
  0
LINE
  5
9655
330
95B9
100
AcDbEntity
  8
5
  6
PHANTOM
100
AcDbLine
 10
45.95912399999998
 20
166.312119
 30
0.0
 11
40.944124
 21
166.312119
 31
0.0
  0
LINE
  5
9656
330
95B9
100
AcDbEntity
  8
5
  6
PHANTOM
100
AcDbLine
 10
54.459124
 20
176.812119
 30
0.0
 11
54.459124
 21
168.312119
 31
0.0
  0
LINE
  5
9657
330
95B9
100
AcDbEntity
  8
1
  6
Continuous
100
AcDbLine
 10
143.994226
 20
155.746419
 30
0.0
 11
143.994226
 21
176.3121189999999
 31
0.0
  0
LINE
  5
9658
330
95B9
100
AcDbEntity
  8
1
  6
Continuous
100
AcDbLine
 10
134.9942259999999
 20
159.4818189999998
 30
0.0
 11
134.9942259999999
 21
176.3121189999999
 31
0.0
  0
LINE
  5
9659
330
95B9
100
AcDbEntity
  8
1
  6
Continuous
100
AcDbLine
 10
133.9942259999999
 20
178.3121189999999
 30
0.0
 11
133.9942259999999
 21
160.812119
 31
0.0
  0
LINE
  5
965A
330
95B9
100
AcDbEntity
  8
1
  6
Continuous
100
AcDbLine
 10
144.994226
 20
178.3121189999999
 30
0.0
 11
144.994226
 21
160.812119
 31
0.0
  0
ARC
  5
965B
330
95B9
100
AcDbEntity
  8
1
  6
Continuous
100
AcDbCircle
 10
118.994226
 20
120.873819
 30
0.0
 40
4.0
100
AcDbArc
 50
180.0
 51
255.332
  0
LINE
  5
965C
330
95B9
100
AcDbEntity
  8
1
  6
Continuous
100
AcDbLine
 10
132.9942259999999
 20
163.8121189999999
 30
0.0
 11
117.456226
 21
157.3377189999999
 31
0.0
  0
LINE
  5
965D
330
95B9
100
AcDbEntity
  8
1
  6
Continuous
100
AcDbLine
 10
114.9942259999999
 20
153.645419
 30
0.0
 11
114.9942259999999
 21
120.873819
 31
0.0
  0
ARC
  5
965E
330
95B9
100
AcDbEntity
  8
1
  6
Continuous
100
AcDbCircle
 10
118.994226
 20
153.645419
 30
0.0
 40
4.0
100
AcDbArc
 50
112.62
 51
180.0
  0
LINE
  5
965F
330
95B9
100
AcDbEntity
  8
1
  6
Continuous
100
AcDbLine
 10
125.4942259999999
 20
126.0278189999998
 30
0.0
 11
125.4942259999999
 21
146.1197089999998
 31
0.0
  0
LINE
  5
9660
330
95B9
100
AcDbEntity
  8
1
  6
Continuous
100
AcDbLine
 10
117.994226
 20
120.642019
 30
0.0
 11
117.994226
 21
153.645419
 31
0.0
  0
ARC
  5
9661
330
95B9
100
AcDbEntity
  8
1
  6
Continuous
100
AcDbCircle
 10
118.994226
 20
120.642019
 30
0.0
 40
1.0
100
AcDbArc
 50
180.0
 51
259.473
  0
ARC
  5
9662
330
95B9
100
AcDbEntity
  8
1
  6
Continuous
100
AcDbCircle
 10
132.494226
 20
133.7806689999998
 30
0.0
 40
7.0
100
AcDbArc
 50
180.0
 51
275.235
  0
CIRCLE
  5
9663
330
95B9
100
AcDbEntity
  8
1
  6
Continuous
100
AcDbCircle
 10
138.9942259999999
 20
146.8120989999999
 30
0.0
 40
4.0
  0
LINE
  5
9664
330
95B9
100
AcDbEntity
  8
4
  6
CENTER
100
AcDbLine
 10
132.9942259999999
 20
146.8120989999999
 30
0.0
 11
144.994226
 21
146.8120989999999
 31
0.0
  0
LINE
  5
9665
330
95B9
100
AcDbEntity
  8
1
  6
Continuous
100
AcDbLine
 10
126.1142259999999
 20
147.044389
 30
0.0
 11
142.756226
 21
153.8971189999998
 31
0.0
  0
ARC
  5
9666
330
95B9
100
AcDbEntity
  8
1
  6
Continuous
100
AcDbCircle
 10
119.994226
 20
150.4727189999998
 30
0.0
 40
2.0
100
AcDbArc
 50
112.3799999999999
 51
180.0
  0
ARC
  5
9667
330
95B9
100
AcDbEntity
  8
1
  6
Continuous
100
AcDbCircle
 10
126.4942259999999
 20
146.1197089999998
 30
0.0
 40
1.0
100
AcDbArc
 50
112.3799999999999
 51
180.0
  0
LINE
  5
9668
330
95B9
100
AcDbEntity
  8
1
  6
Continuous
100
AcDbLine
 10
119.233226
 20
152.3221189999999
 30
0.0
 11
134.375226
 21
158.557119
 31
0.0
  0
LINE
  5
9669
330
95B9
100
AcDbEntity
  8
1
  6
Continuous
100
AcDbLine
 10
133.9942259999999
 20
160.9787189999998
 30
0.0
 11
118.6102259999999
 21
154.5685189999999
 31
0.0
  0
ARC
  5
966A
330
95B9
100
AcDbEntity
  8
1
  6
Continuous
100
AcDbCircle
 10
118.994226
 20
153.645419
 30
0.0
 40
1.0
100
AcDbArc
 50
112.62
 51
180.0
  0
ARC
  5
966B
330
95B9
100
AcDbEntity
  8
1
  6
Continuous
100
AcDbCircle
 10
133.9942259999999
 20
159.4818189999998
 30
0.0
 40
1.0
100
AcDbArc
 50
292.3799999999999
 51
0.0
  0
LINE
  5
966C
330
95B9
100
AcDbEntity
  8
1
  6
Continuous
100
AcDbLine
 10
132.9942259999999
 20
163.8121189999999
 30
0.0
 11
133.9942259999999
 21
160.9787189999998
 31
0.0
  0
LINE
  5
966D
330
95B9
100
AcDbEntity
  8
1
  6
Continuous
100
AcDbLine
 10
133.9942259999999
 20
160.812119
 30
0.0
 11
134.9942259999999
 21
160.812119
 31
0.0
  0
LINE
  5
966E
330
95B9
100
AcDbEntity
  8
1
  6
Continuous
100
AcDbLine
 10
132.9942259999999
 20
163.8121189999999
 30
0.0
 11
133.9942259999999
 21
163.8121189999999
 31
0.0
  0
LINE
  5
966F
330
95B9
100
AcDbEntity
  8
4
  6
CENTER
100
AcDbLine
 10
138.9942259999999
 20
140.812099
 30
0.0
 11
138.9942259999999
 21
152.812119
 31
0.0
  0
ARC
  5
9670
330
95B9
100
AcDbEntity
  8
1
  6
Continuous
100
AcDbCircle
 10
138.9942259999999
 20
146.8120989999999
 30
0.0
 40
2.35
100
AcDbArc
 50
124.7049999999999
 51
145.2949999999999
  0
ARC
  5
9671
330
95B9
100
AcDbEntity
  8
1
  6
Continuous
100
AcDbCircle
 10
138.9942259999999
 20
146.8120989999999
 30
0.0
 40
2.35
100
AcDbArc
 50
34.7046
 51
55.2954
  0
ARC
  5
9672
330
95B9
100
AcDbEntity
  8
1
  6
Continuous
100
AcDbCircle
 10
138.9942259999999
 20
146.8120989999999
 30
0.0
 40
2.35
100
AcDbArc
 50
304.705
 51
325.295
  0
ARC
  5
9673
330
95B9
100
AcDbEntity
  8
1
  6
Continuous
100
AcDbCircle
 10
138.9942259999999
 20
146.8120989999999
 30
0.0
 40
2.35
100
AcDbArc
 50
214.705
 51
235.2949999999999
  0
LINE
  5
9674
330
95B9
100
AcDbEntity
  8
1
  6
Continuous
100
AcDbLine
 10
137.776226
 20
147.4111189999999
 30
0.0
 11
137.062226
 21
148.150019
 31
0.0
  0
LINE
  5
9675
330
95B9
100
AcDbEntity
  8
1
  6
Continuous
100
AcDbLine
 10
137.9942259999999
 20
146.8121089999999
 30
0.0
 11
137.776226
 21
147.4111189999999
 31
0.0
  0
LINE
  5
9676
330
95B9
100
AcDbEntity
  8
1
  6
Continuous
100
AcDbLine
 10
138.9942259999999
 20
147.812419
 30
0.0
 11
138.395226
 21
148.030419
 31
0.0
  0
LINE
  5
9677
330
95B9
100
AcDbEntity
  8
1
  6
Continuous
100
AcDbLine
 10
138.395226
 20
148.030419
 30
0.0
 11
137.656226
 21
148.7440189999998
 31
0.0
  0
LINE
  5
9678
330
95B9
100
AcDbEntity
  8
1
  6
Continuous
100
AcDbLine
 10
139.5932259999999
 20
148.030419
 30
0.0
 11
140.3322259999999
 21
148.7440189999998
 31
0.0
  0
LINE
  5
9679
330
95B9
100
AcDbEntity
  8
1
  6
Continuous
100
AcDbLine
 10
138.9942259999999
 20
147.812419
 30
0.0
 11
139.5932259999999
 21
148.030419
 31
0.0
  0
LINE
  5
967A
330
95B9
100
AcDbEntity
  8
1
  6
Continuous
100
AcDbLine
 10
139.995226
 20
146.8120989999999
 30
0.0
 11
140.2132259999999
 21
147.4111189999999
 31
0.0
  0
LINE
  5
967B
330
95B9
100
AcDbEntity
  8
1
  6
Continuous
100
AcDbLine
 10
140.2132259999999
 20
147.4111189999999
 30
0.0
 11
140.926226
 21
148.150019
 31
0.0
  0
LINE
  5
967C
330
95B9
100
AcDbEntity
  8
1
  6
Continuous
100
AcDbLine
 10
140.2132259999999
 20
146.2130689999999
 30
0.0
 11
140.926226
 21
145.474129
 31
0.0
  0
LINE
  5
967D
330
95B9
100
AcDbEntity
  8
1
  6
Continuous
100
AcDbLine
 10
139.995226
 20
146.8120989999999
 30
0.0
 11
140.2132259999999
 21
146.213089
 31
0.0
  0
LINE
  5
967E
330
95B9
100
AcDbEntity
  8
1
  6
Continuous
100
AcDbLine
 10
138.9942259999999
 20
145.8117889999998
 30
0.0
 11
139.5932259999999
 21
145.5937689999998
 31
0.0
  0
LINE
  5
967F
330
95B9
100
AcDbEntity
  8
1
  6
Continuous
100
AcDbLine
 10
139.5932259999999
 20
145.593779
 30
0.0
 11
140.3322259999999
 21
144.880189
 31
0.0
  0
LINE
  5
9680
330
95B9
100
AcDbEntity
  8
1
  6
Continuous
100
AcDbLine
 10
138.9942259999999
 20
145.8117689999999
 30
0.0
 11
138.395226
 21
145.593739
 31
0.0
  0
LINE
  5
9681
330
95B9
100
AcDbEntity
  8
1
  6
Continuous
100
AcDbLine
 10
138.395226
 20
145.593759
 30
0.0
 11
137.656226
 21
144.8801689999999
 31
0.0
  0
LINE
  5
9682
330
95B9
100
AcDbEntity
  8
1
  6
Continuous
100
AcDbLine
 10
137.776226
 20
146.2131089999998
 30
0.0
 11
137.062226
 21
145.4741689999998
 31
0.0
  0
LINE
  5
9683
330
95B9
100
AcDbEntity
  8
1
  6
Continuous
100
AcDbLine
 10
137.9942259999999
 20
146.8121189999999
 30
0.0
 11
137.776226
 21
146.2130789999999
 31
0.0
  0
ARC
  5
9684
330
95B9
100
AcDbEntity
  8
1
  6
Continuous
100
AcDbCircle
 10
141.994226
 20
155.746419
 30
0.0
 40
2.0
100
AcDbArc
 50
292.3799999999999
 51
0.0
  0
ARC
  5
9685
330
95B9
100
AcDbEntity
  8
5
  6
PHANTOM
100
AcDbCircle
 10
84.459124
 20
173.927019
 30
0.0
 40
7.114889999999999
100
AcDbArc
 50
248.3919999999999
 51
311.4959999999999
  0
ARC
  5
9686
330
95B9
100
AcDbEntity
  8
5
  6
PHANTOM
100
AcDbCircle
 10
84.459124
 20
171.197219
 30
0.0
 40
7.114889999999999
100
AcDbArc
 50
48.5035
 51
111.6079999999999
  0
ARC
  5
9687
330
95B9
100
AcDbEntity
  8
5
  6
PHANTOM
100
AcDbCircle
 10
83.82912399999998
 20
169.130719
 30
0.0
 40
1.81857
100
AcDbArc
 50
270.0
 51
333.3909999999999
  0
ARC
  5
9688
330
95B9
100
AcDbEntity
  8
5
  6
PHANTOM
100
AcDbCircle
 10
83.82912399999998
 20
175.993519
 30
0.0
 40
1.81857
100
AcDbArc
 50
26.6087
 51
90.0
  0
ARC
  5
9689
330
95B9
100
AcDbEntity
  8
5
  6
PHANTOM
100
AcDbCircle
 10
76.97912399999998
 20
172.562119
 30
0.0
 40
9.47981
100
AcDbArc
 50
333.3909999999999
 51
26.6087
  0
ARC
  5
968A
330
95B9
100
AcDbEntity
  8
5
  6
PHANTOM
100
AcDbCircle
 10
85.66612399999998
 20
172.562119
 30
0.0
 40
5.2926
100
AcDbArc
 50
311.4959999999999
 51
48.5035
  0
LINE
  5
968B
330
95B9
100
AcDbEntity
  8
4
  6
CENTER
100
AcDbLine
 10
110.9942259999999
 20
178.812119
 30
0.0
 11
110.9942259999999
 21
190.8121189999999
 31
0.0
  0
ARC
  5
968C
330
95B9
100
AcDbEntity
  8
1
  6
Continuous
100
AcDbCircle
 10
109.9942259999999
 20
185.812119
 30
0.0
 40
5.0
100
AcDbArc
 50
90.0
 51
180.0
  0
LINE
  5
968D
330
95B9
100
AcDbEntity
  8
4
  6
CENTER
100
AcDbLine
 10
104.9942259999999
 20
184.812119
 30
0.0
 11
116.994226
 21
184.812119
 31
0.0
  0
CIRCLE
  5
968E
330
95B9
100
AcDbEntity
  8
1
  6
Continuous
100
AcDbCircle
 10
110.9942259999999
 20
184.812119
 30
0.0
 40
2.25
  0
LINE
  5
968F
330
95B9
100
AcDbEntity
  8
1
  6
Continuous
100
AcDbLine
 10
142.9942259999999
 20
177.3121189999999
 30
0.0
 11
135.9942259999999
 21
177.3121189999999
 31
0.0
  0
LINE
  5
9690
330
95B9
100
AcDbEntity
  8
1
  6
Continuous
100
AcDbLine
 10
133.9942259999999
 20
178.3121189999999
 30
0.0
 11
144.994226
 21
178.3121189999999
 31
0.0
  0
ARC
  5
9691
330
95B9
100
AcDbEntity
  8
1
  6
Continuous
100
AcDbCircle
 10
135.9942259999999
 20
176.3121189999999
 30
0.0
 40
1.0
100
AcDbArc
 50
90.0
 51
180.0
  0
LINE
  5
9692
330
95B9
100
AcDbEntity
  8
1
  6
Continuous
100
AcDbLine
 10
134.9942259999999
 20
170.312119
 30
0.0
 11
133.9942259999999
 21
170.312119
 31
0.0
  0
LINE
  5
9693
330
95B9
100
AcDbEntity
  8
1
  6
Continuous
100
AcDbLine
 10
134.9942259999999
 20
174.312119
 30
0.0
 11
133.9942259999999
 21
174.312119
 31
0.0
  0
ARC
  5
9694
330
95B9
100
AcDbEntity
  8
1
  6
Continuous
100
AcDbCircle
 10
142.9942259999999
 20
176.3121189999999
 30
0.0
 40
1.0
100
AcDbArc
 50
0.0
 51
90.0
  0
LINE
  5
9695
330
95B9
100
AcDbEntity
  8
1
  6
Continuous
100
AcDbLine
 10
144.994226
 20
170.312119
 30
0.0
 11
143.994226
 21
170.312119
 31
0.0
  0
LINE
  5
9696
330
95B9
100
AcDbEntity
  8
1
  6
Continuous
100
AcDbLine
 10
144.994226
 20
174.312119
 30
0.0
 11
143.994226
 21
174.312119
 31
0.0
  0
LINE
  5
9697
330
95B9
100
AcDbEntity
  8
1
  6
Continuous
100
AcDbLine
 10
292.952507
 20
110.3121189999999
 30
0.0
 11
302.3255069999998
 21
112.1866189999998
 31
0.0
  0
LINE
  5
9698
330
95B9
100
AcDbEntity
  8
1
  6
Continuous
100
AcDbLine
 10
292.952507
 20
98.812119
 30
0.0
 11
292.952507
 21
190.8121189999999
 31
0.0
  0
LINE
  5
9699
330
95B9
100
AcDbEntity
  8
1
  6
Continuous
100
AcDbLine
 10
290.4525069999999
 20
98.812119
 30
0.0
 11
290.4525069999999
 21
190.8121189999999
 31
0.0
  0
LINE
  5
969A
330
95B9
100
AcDbEntity
  8
4
  6
CENTER
100
AcDbLine
 10
220.9942259999999
 20
98.812119
 30
0.0
 11
220.9942259999999
 21
110.812119
 31
0.0
  0
LINE
  5
969B
330
95B9
100
AcDbEntity
  8
4
  6
CENTER
100
AcDbLine
 10
165.994226
 20
88.81211899999998
 30
0.0
 11
165.994226
 21
200.8121189999999
 31
0.0
  0
LINE
  5
969C
330
95B9
100
AcDbEntity
  8
1
  6
Continuous
100
AcDbLine
 10
226.9942259999999
 20
103.812119
 30
0.0
 11
226.9942259999999
 21
185.812119
 31
0.0
  0
LINE
  5
969D
330
95B9
100
AcDbEntity
  8
1
  6
Continuous
100
AcDbLine
 10
218.1202259999998
 20
52.07861900000001
 30
0.0
 11
219.9942259999999
 21
61.45141899999998
 31
0.0
  0
LINE
  5
969E
330
95B9
100
AcDbEntity
  8
4
  6
CENTER
100
AcDbLine
 10
165.994226
 20
38.996519
 30
0.0
 11
165.994226
 21
68.68061899999999
 31
0.0
  0
ARC
  5
969F
330
95B9
100
AcDbEntity
  8
1
  6
Continuous
100
AcDbCircle
 10
194.2442259999999
 20
45.70601899999998
 30
0.0
 40
5.05463
100
AcDbArc
 50
249.744
 51
290.2559999999999
  0
LINE
  5
96A0
330
95B9
100
AcDbEntity
  8
1
  6
Continuous
100
AcDbLine
 10
188.6942259999999
 20
43.85141899999999
 30
0.0
 11
196.294226
 21
43.85141899999999
 31
0.0
  0
LINE
  5
96A1
330
95B9
100
AcDbEntity
  8
1
  6
Continuous
100
AcDbLine
 10
188.9942259999999
 20
40.65141899999999
 30
0.0
 11
195.994226
 21
40.65141899999999
 31
0.0
  0
LINE
  5
96A2
330
95B9
100
AcDbEntity
  8
1
  6
Continuous
100
AcDbLine
 10
196.994226
 20
44.851419
 30
0.0
 11
187.9942259999999
 21
44.851419
 31
0.0
  0
LINE
  5
96A3
330
95B9
100
AcDbEntity
  8
1
  6
Continuous
100
AcDbLine
 10
187.9942259999999
 20
38.451419
 30
0.0
 11
196.994226
 21
38.451419
 31
0.0
  0
LINE
  5
96A4
330
95B9
100
AcDbEntity
  8
1
  6
Continuous
100
AcDbLine
 10
196.994226
 20
45.65141899999999
 30
0.0
 11
187.9942259999999
 21
45.65141899999999
 31
0.0
  0
LINE
  5
96A5
330
95B9
100
AcDbEntity
  8
1
  6
Continuous
100
AcDbLine
 10
163.594226
 20
42.95141899999999
 30
0.0
 11
168.394226
 21
42.95141899999999
 31
0.0
  0
LINE
  5
96A6
330
95B9
100
AcDbEntity
  8
1
  6
Continuous
100
AcDbLine
 10
163.594226
 20
42.95141899999999
 30
0.0
 11
163.594226
 21
46.451419
 31
0.0
  0
LINE
  5
96A7
330
95B9
100
AcDbEntity
  8
1
  6
Continuous
100
AcDbLine
 10
168.394226
 20
42.95141899999999
 30
0.0
 11
168.394226
 21
46.451419
 31
0.0
  0
LINE
  5
96A8
330
95B9
100
AcDbEntity
  8
1
  6
Continuous
100
AcDbLine
 10
192.494226
 20
43.85141899999999
 30
0.0
 11
192.494226
 21
40.964019
 31
0.0
  0
LINE
  5
96A9
330
95B9
100
AcDbEntity
  8
1
  6
Continuous
100
AcDbLine
 10
188.9942259999999
 20
43.85141899999999
 30
0.0
 11
188.9942259999999
 21
40.65141899999999
 31
0.0
  0
LINE
  5
96AA
330
95B9
100
AcDbEntity
  8
1
  6
Continuous
100
AcDbLine
 10
187.9942259999999
 20
38.451419
 30
0.0
 11
187.9942259999999
 21
46.451419
 31
0.0
  0
LINE
  5
96AB
330
95B9
100
AcDbEntity
  8
4
  6
CENTER
100
AcDbLine
 10
192.494226
 20
33.451219
 30
0.0
 11
192.494226
 21
51.451419
 31
0.0
  0
ARC
  5
96AC
330
95B9
100
AcDbEntity
  8
1
  6
Continuous
100
AcDbCircle
 10
190.744226
 20
45.70601899999998
 30
0.0
 40
5.05463
100
AcDbArc
 50
249.744
 51
290.2559999999999
  0
LINE
  5
96AD
330
95B9
100
AcDbEntity
  8
1
  6
Continuous
100
AcDbLine
 10
190.494226
 20
39.451419
 30
0.0
 11
194.4942259999999
 21
39.451419
 31
0.0
  0
LINE
  5
96AE
330
95B9
100
AcDbEntity
  8
2
  6
Continuous
100
AcDbLine
 10
194.115226
 20
40.65141899999999
 30
0.0
 11
194.115226
 21
39.451419
 31
0.0
  0
LINE
  5
96AF
330
95B9
100
AcDbEntity
  8
2
  6
Continuous
100
AcDbLine
 10
190.8732259999999
 20
40.65141899999999
 30
0.0
 11
190.8732259999999
 21
39.451419
 31
0.0
  0
LINE
  5
96B0
330
95B9
100
AcDbEntity
  8
1
  6
Continuous
100
AcDbLine
 10
190.494226
 20
40.65141899999999
 30
0.0
 11
190.494226
 21
39.451419
 31
0.0
  0
LINE
  5
96B1
330
95B9
100
AcDbEntity
  8
1
  6
Continuous
100
AcDbLine
 10
194.4942259999999
 20
40.65141899999999
 30
0.0
 11
194.4942259999999
 21
39.451419
 31
0.0
  0
LINE
  5
96B2
330
95B9
100
AcDbEntity
  8
1
  6
Continuous
100
AcDbLine
 10
192.0102259999999
 20
44.851419
 30
0.0
 11
192.2782259999999
 21
43.85141899999999
 31
0.0
  0
LINE
  5
96B3
330
95B9
100
AcDbEntity
  8
1
  6
Continuous
100
AcDbLine
 10
192.710226
 20
44.851419
 30
0.0
 11
192.9782259999998
 21
43.85141899999999
 31
0.0
  0
LINE
  5
96B4
330
95B9
100
AcDbEntity
  8
1
  6
Continuous
100
AcDbLine
 10
188.6942259999999
 20
44.851419
 30
0.0
 11
188.6942259999999
 21
43.85141899999999
 31
0.0
  0
ARC
  5
96B5
330
95B9
100
AcDbEntity
  8
1
  6
Continuous
100
AcDbCircle
 10
211.2562259999999
 20
53.45141899999998
 30
0.0
 40
7.0
100
AcDbArc
 50
270.0
 51
348.6899999999999
  0
LINE
  5
96B6
330
95B9
100
AcDbEntity
  8
1
  6
Continuous
100
AcDbLine
 10
195.994226
 20
43.85141899999999
 30
0.0
 11
195.994226
 21
40.65141899999999
 31
0.0
  0
LINE
  5
96B7
330
95B9
100
AcDbEntity
  8
1
  6
Continuous
100
AcDbLine
 10
196.994226
 20
38.451419
 30
0.0
 11
196.994226
 21
46.451419
 31
0.0
  0
LINE
  5
96B8
330
95B9
100
AcDbEntity
  8
1
  6
Continuous
100
AcDbLine
 10
196.294226
 20
44.851419
 30
0.0
 11
196.294226
 21
43.85141899999999
 31
0.0
  0
LINE
  5
96B9
330
95B9
100
AcDbEntity
  8
1
  6
Continuous
100
AcDbLine
 10
226.9942259999999
 20
61.45141899999998
 30
0.0
 11
226.9942259999999
 21
63.95141899999998
 31
0.0
  0
LINE
  5
96BA
330
95B9
100
AcDbEntity
  8
4
  6
CENTER
100
AcDbLine
 10
214.9942259999999
 20
104.812119
 30
0.0
 11
226.9942259999999
 21
104.812119
 31
0.0
  0
ARC
  5
96BB
330
95B9
100
AcDbEntity
  8
1
  6
Continuous
100
AcDbCircle
 10
221.9942259999999
 20
103.812119
 30
0.0
 40
5.0
100
AcDbArc
 50
270.0
 51
0.0
  0
CIRCLE
  5
96BC
330
95B9
100
AcDbEntity
  8
1
  6
Continuous
100
AcDbCircle
 10
220.9942259999999
 20
104.812119
 30
0.0
 40
2.25
  0
LINE
  5
96BD
330
95B9
100
AcDbEntity
  8
1
  6
Continuous
100
AcDbLine
 10
290.4525069999999
 20
98.812119
 30
0.0
 11
292.952507
 21
98.812119
 31
0.0
  0
LINE
  5
96BE
330
95B9
100
AcDbEntity
  8
1
  6
Continuous
100
AcDbLine
 10
187.9942259999999
 20
155.746419
 30
0.0
 11
187.9942259999999
 21
176.3121189999999
 31
0.0
  0
LINE
  5
96BF
330
95B9
100
AcDbEntity
  8
1
  6
Continuous
100
AcDbLine
 10
196.994226
 20
159.4818189999998
 30
0.0
 11
196.994226
 21
176.3121189999999
 31
0.0
  0
LINE
  5
96C0
330
95B9
100
AcDbEntity
  8
1
  6
Continuous
100
AcDbLine
 10
197.9942259999999
 20
178.3121189999999
 30
0.0
 11
197.9942259999999
 21
160.812119
 31
0.0
  0
LINE
  5
96C1
330
95B9
100
AcDbEntity
  8
1
  6
Continuous
100
AcDbLine
 10
186.994226
 20
178.3121189999999
 30
0.0
 11
186.994226
 21
160.812119
 31
0.0
  0
CIRCLE
  5
96C2
330
95B9
100
AcDbEntity
  8
1
  6
Continuous
100
AcDbCircle
 10
192.9942259999999
 20
146.8120989999999
 30
0.0
 40
4.0
  0
LINE
  5
96C3
330
95B9
100
AcDbEntity
  8
4
  6
CENTER
100
AcDbLine
 10
186.994226
 20
146.8120989999999
 30
0.0
 11
198.994226
 21
146.8120989999999
 31
0.0
  0
LINE
  5
96C4
330
95B9
100
AcDbEntity
  8
1
  6
Continuous
100
AcDbLine
 10
205.8752259999999
 20
147.044389
 30
0.0
 11
189.233226
 21
153.8971189999998
 31
0.0
  0
LINE
  5
96C5
330
95B9
100
AcDbEntity
  8
4
  6
CENTER
100
AcDbLine
 10
192.9942259999999
 20
140.812099
 30
0.0
 11
192.9942259999999
 21
152.812119
 31
0.0
  0
ARC
  5
96C6
330
95B9
100
AcDbEntity
  8
1
  6
Continuous
100
AcDbCircle
 10
192.9942259999999
 20
146.8120989999999
 30
0.0
 40
2.35
100
AcDbArc
 50
34.7046
 51
55.2954
  0
ARC
  5
96C7
330
95B9
100
AcDbEntity
  8
1
  6
Continuous
100
AcDbCircle
 10
192.9942259999999
 20
146.8120989999999
 30
0.0
 40
2.35
100
AcDbArc
 50
124.7049999999999
 51
145.2949999999999
  0
ARC
  5
96C8
330
95B9
100
AcDbEntity
  8
1
  6
Continuous
100
AcDbCircle
 10
192.9942259999999
 20
146.8120989999999
 30
0.0
 40
2.35
100
AcDbArc
 50
214.705
 51
235.2949999999999
  0
ARC
  5
96C9
330
95B9
100
AcDbEntity
  8
1
  6
Continuous
100
AcDbCircle
 10
192.9942259999999
 20
146.8120989999999
 30
0.0
 40
2.35
100
AcDbArc
 50
304.705
 51
325.295
  0
LINE
  5
96CA
330
95B9
100
AcDbEntity
  8
1
  6
Continuous
100
AcDbLine
 10
194.2132259999999
 20
146.2130589999999
 30
0.0
 11
194.926226
 21
145.4741089999999
 31
0.0
  0
LINE
  5
96CB
330
95B9
100
AcDbEntity
  8
1
  6
Continuous
100
AcDbLine
 10
193.995226
 20
146.8121089999999
 30
0.0
 11
194.2132259999999
 21
146.213099
 31
0.0
  0
LINE
  5
96CC
330
95B9
100
AcDbEntity
  8
1
  6
Continuous
100
AcDbLine
 10
194.2132259999999
 20
147.4111189999999
 30
0.0
 11
194.926226
 21
148.1501189999999
 31
0.0
  0
LINE
  5
96CD
330
95B9
100
AcDbEntity
  8
1
  6
Continuous
100
AcDbLine
 10
193.995226
 20
146.8121189999999
 30
0.0
 11
194.2132259999999
 21
147.4111189999999
 31
0.0
  0
LINE
  5
96CE
330
95B9
100
AcDbEntity
  8
1
  6
Continuous
100
AcDbLine
 10
193.5932259999999
 20
148.030419
 30
0.0
 11
194.332226
 21
148.7440189999998
 31
0.0
  0
LINE
  5
96CF
330
95B9
100
AcDbEntity
  8
1
  6
Continuous
100
AcDbLine
 10
192.9942259999999
 20
147.812419
 30
0.0
 11
193.5932259999999
 21
148.030419
 31
0.0
  0
LINE
  5
96D0
330
95B9
100
AcDbEntity
  8
1
  6
Continuous
100
AcDbLine
 10
192.9942259999999
 20
147.812419
 30
0.0
 11
192.395226
 21
148.0305189999999
 31
0.0
  0
LINE
  5
96D1
330
95B9
100
AcDbEntity
  8
1
  6
Continuous
100
AcDbLine
 10
192.395226
 20
148.030419
 30
0.0
 11
191.656226
 21
148.7440189999998
 31
0.0
  0
LINE
  5
96D2
330
95B9
100
AcDbEntity
  8
1
  6
Continuous
100
AcDbLine
 10
191.776226
 20
147.4111189999999
 30
0.0
 11
191.062226
 21
148.150019
 31
0.0
  0
LINE
  5
96D3
330
95B9
100
AcDbEntity
  8
1
  6
Continuous
100
AcDbLine
 10
191.994226
 20
146.8121089999999
 30
0.0
 11
191.776226
 21
147.4111189999999
 31
0.0
  0
LINE
  5
96D4
330
95B9
100
AcDbEntity
  8
1
  6
Continuous
100
AcDbLine
 10
191.994226
 20
146.8121089999999
 30
0.0
 11
191.776226
 21
146.213099
 31
0.0
  0
LINE
  5
96D5
330
95B9
100
AcDbEntity
  8
1
  6
Continuous
100
AcDbLine
 10
191.776226
 20
146.213099
 30
0.0
 11
191.062226
 21
145.4741589999999
 31
0.0
  0
LINE
  5
96D6
330
95B9
100
AcDbEntity
  8
1
  6
Continuous
100
AcDbLine
 10
192.395226
 20
145.5937689999998
 30
0.0
 11
191.656226
 21
144.8801589999999
 31
0.0
  0
LINE
  5
96D7
330
95B9
100
AcDbEntity
  8
1
  6
Continuous
100
AcDbLine
 10
192.9942259999999
 20
145.811779
 30
0.0
 11
192.395226
 21
145.593759
 31
0.0
  0
LINE
  5
96D8
330
95B9
100
AcDbEntity
  8
1
  6
Continuous
100
AcDbLine
 10
192.9942259999999
 20
145.811779
 30
0.0
 11
193.5932259999999
 21
145.593759
 31
0.0
  0
LINE
  5
96D9
330
95B9
100
AcDbEntity
  8
1
  6
Continuous
100
AcDbLine
 10
193.5932259999999
 20
145.5937889999999
 30
0.0
 11
194.332226
 21
144.8801989999998
 31
0.0
  0
ARC
  5
96DA
330
95B9
100
AcDbEntity
  8
1
  6
Continuous
100
AcDbCircle
 10
189.9942259999999
 20
155.746419
 30
0.0
 40
2.0
100
AcDbArc
 50
180.0
 51
247.6199999999999
  0
LINE
  5
96DB
330
95B9
100
AcDbEntity
  8
1
  6
Continuous
100
AcDbLine
 10
206.494226
 20
126.0278189999998
 30
0.0
 11
206.494226
 21
146.1197089999998
 31
0.0
  0
LINE
  5
96DC
330
95B9
100
AcDbEntity
  8
1
  6
Continuous
100
AcDbLine
 10
213.9942259999999
 20
120.642019
 30
0.0
 11
213.9942259999999
 21
153.645419
 31
0.0
  0
LINE
  5
96DD
330
95B9
100
AcDbEntity
  8
1
  6
Continuous
100
AcDbLine
 10
216.9942259999999
 20
153.645419
 30
0.0
 11
216.9942259999999
 21
120.8226189999999
 31
0.0
  0
ARC
  5
96DE
330
95B9
100
AcDbEntity
  8
1
  6
Continuous
100
AcDbCircle
 10
212.9942259999999
 20
120.8226189999999
 30
0.0
 40
4.0
100
AcDbArc
 50
284.605
 51
0.0
  0
ARC
  5
96DF
330
95B9
100
AcDbEntity
  8
1
  6
Continuous
100
AcDbCircle
 10
212.9942259999999
 20
120.642019
 30
0.0
 40
1.0
100
AcDbArc
 50
280.5269999999998
 51
0.0
  0
ARC
  5
96E0
330
95B9
100
AcDbEntity
  8
1
  6
Continuous
100
AcDbCircle
 10
199.494226
 20
133.7806689999998
 30
0.0
 40
7.0
100
AcDbArc
 50
264.765
 51
0.0
  0
ARC
  5
96E1
330
95B9
100
AcDbEntity
  8
1
  6
Continuous
100
AcDbCircle
 10
212.9942259999999
 20
153.645419
 30
0.0
 40
4.0
100
AcDbArc
 50
0.0
 51
67.3801
  0
ARC
  5
96E2
330
95B9
100
AcDbEntity
  8
1
  6
Continuous
100
AcDbCircle
 10
211.9942259999999
 20
150.4727189999998
 30
0.0
 40
2.0
100
AcDbArc
 50
0.0
 51
67.6199
  0
ARC
  5
96E3
330
95B9
100
AcDbEntity
  8
1
  6
Continuous
100
AcDbCircle
 10
205.4942259999999
 20
146.1197089999998
 30
0.0
 40
1.0
100
AcDbArc
 50
0.0
 51
67.6199
  0
LINE
  5
96E4
330
95B9
100
AcDbEntity
  8
1
  6
Continuous
100
AcDbLine
 10
212.7562259999999
 20
152.3220189999999
 30
0.0
 11
197.6142259999998
 21
158.557119
 31
0.0
  0
LINE
  5
96E5
330
95B9
100
AcDbEntity
  8
1
  6
Continuous
100
AcDbLine
 10
197.9942259999999
 20
160.9787189999998
 30
0.0
 11
213.3792259999999
 21
154.5685189999999
 31
0.0
  0
LINE
  5
96E6
330
95B9
100
AcDbEntity
  8
1
  6
Continuous
100
AcDbLine
 10
198.994226
 20
163.8121189999999
 30
0.0
 11
214.5332259999999
 21
157.3377189999999
 31
0.0
  0
ARC
  5
96E7
330
95B9
100
AcDbEntity
  8
1
  6
Continuous
100
AcDbCircle
 10
197.9942259999999
 20
159.4818189999998
 30
0.0
 40
1.0
100
AcDbArc
 50
180.0
 51
247.6199999999999
  0
LINE
  5
96E8
330
95B9
100
AcDbEntity
  8
1
  6
Continuous
100
AcDbLine
 10
196.994226
 20
160.812119
 30
0.0
 11
197.9942259999999
 21
160.812119
 31
0.0
  0
LINE
  5
96E9
330
95B9
100
AcDbEntity
  8
1
  6
Continuous
100
AcDbLine
 10
198.994226
 20
163.8121189999999
 30
0.0
 11
197.9942259999999
 21
160.9787189999998
 31
0.0
  0
LINE
  5
96EA
330
95B9
100
AcDbEntity
  8
1
  6
Continuous
100
AcDbLine
 10
197.9942259999999
 20
163.8121189999999
 30
0.0
 11
198.994226
 21
163.8121189999999
 31
0.0
  0
ARC
  5
96EB
330
95B9
100
AcDbEntity
  8
1
  6
Continuous
100
AcDbCircle
 10
212.9942259999999
 20
153.645419
 30
0.0
 40
1.0
100
AcDbArc
 50
0.0
 51
67.3801
  0
LINE
  5
96EC
330
95B9
100
AcDbEntity
  8
1
  6
Continuous
100
AcDbLine
 10
195.994226
 20
177.3121189999999
 30
0.0
 11
188.9942259999999
 21
177.3121189999999
 31
0.0
  0
LINE
  5
96ED
330
95B9
100
AcDbEntity
  8
1
  6
Continuous
100
AcDbLine
 10
186.994226
 20
178.3121189999999
 30
0.0
 11
197.9942259999999
 21
178.3121189999999
 31
0.0
  0
ARC
  5
96EE
330
95B9
100
AcDbEntity
  8
1
  6
Continuous
100
AcDbCircle
 10
188.9942259999999
 20
176.3121189999999
 30
0.0
 40
1.0
100
AcDbArc
 50
90.0
 51
180.0
  0
LINE
  5
96EF
330
95B9
100
AcDbEntity
  8
1
  6
Continuous
100
AcDbLine
 10
187.9942259999999
 20
170.312119
 30
0.0
 11
186.994226
 21
170.312119
 31
0.0
  0
LINE
  5
96F0
330
95B9
100
AcDbEntity
  8
1
  6
Continuous
100
AcDbLine
 10
187.9942259999999
 20
174.312119
 30
0.0
 11
186.994226
 21
174.312119
 31
0.0
  0
LINE
  5
96F1
330
95B9
100
AcDbEntity
  8
4
  6
CENTER
100
AcDbLine
 10
214.9942259999999
 20
184.812119
 30
0.0
 11
226.9942259999999
 21
184.812119
 31
0.0
  0
ARC
  5
96F2
330
95B9
100
AcDbEntity
  8
1
  6
Continuous
100
AcDbCircle
 10
195.994226
 20
176.3121189999999
 30
0.0
 40
1.0
100
AcDbArc
 50
0.0
 51
90.0
  0
LINE
  5
96F3
330
95B9
100
AcDbEntity
  8
1
  6
Continuous
100
AcDbLine
 10
197.9942259999999
 20
174.312119
 30
0.0
 11
196.994226
 21
174.312119
 31
0.0
  0
LINE
  5
96F4
330
95B9
100
AcDbEntity
  8
1
  6
Continuous
100
AcDbLine
 10
197.9942259999999
 20
170.312119
 30
0.0
 11
196.994226
 21
170.312119
 31
0.0
  0
LINE
  5
96F5
330
95B9
100
AcDbEntity
  8
4
  6
CENTER
100
AcDbLine
 10
220.9942259999999
 20
178.812119
 30
0.0
 11
220.9942259999999
 21
190.8121189999999
 31
0.0
  0
ARC
  5
96F6
330
95B9
100
AcDbEntity
  8
1
  6
Continuous
100
AcDbCircle
 10
221.9942259999999
 20
185.812119
 30
0.0
 40
5.0
100
AcDbArc
 50
0.0
 51
90.0
  0
CIRCLE
  5
96F7
330
95B9
100
AcDbEntity
  8
1
  6
Continuous
100
AcDbCircle
 10
220.9942259999999
 20
184.812119
 30
0.0
 40
2.25
  0
ARC
  5
96F8
330
95B9
100
AcDbEntity
  8
1
  6
Continuous
100
AcDbCircle
 10
311.040507
 20
165.0121189999999
 30
0.0
 40
0.8
100
AcDbArc
 50
335.7979999999999
 51
90.0
  0
ARC
  5
96F9
330
95B9
100
AcDbEntity
  8
1
  6
Continuous
100
AcDbCircle
 10
300.9525069999999
 20
161.1336189999998
 30
0.0
 40
7.0
100
AcDbArc
 50
0.0
 51
78.31059999999998
  0
LINE
  5
96FA
330
95B9
100
AcDbEntity
  8
1
  6
Continuous
100
AcDbLine
 10
307.4525069999999
 20
164.8121189999999
 30
0.0
 11
307.4525069999999
 21
181.8787189999999
 31
0.0
  0
LINE
  5
96FB
330
95B9
100
AcDbEntity
  8
1
  6
Continuous
100
AcDbLine
 10
307.9525069999998
 20
119.0507189999999
 30
0.0
 11
307.9525069999998
 21
164.8121189999999
 31
0.0
  0
ARC
  5
96FC
330
95B9
100
AcDbEntity
  8
1
  6
Continuous
100
AcDbCircle
 10
300.9525069999999
 20
119.0507189999999
 30
0.0
 40
7.0
100
AcDbArc
 50
281.31
 51
0.0
  0
LINE
  5
96FD
330
95B9
100
AcDbEntity
  8
1
  6
Continuous
100
AcDbLine
 10
311.4525069999999
 20
122.2121189999999
 30
0.0
 11
307.9525069999998
 21
122.2121189999999
 31
0.0
  0
LINE
  5
96FE
330
95B9
100
AcDbEntity
  8
1
  6
Continuous
100
AcDbLine
 10
311.4525069999999
 20
117.4121189999999
 30
0.0
 11
307.758507
 21
117.4121189999999
 31
0.0
  0
LINE
  5
96FF
330
95B9
100
AcDbEntity
  8
1
  6
Continuous
100
AcDbLine
 10
311.4525069999999
 20
117.4121189999999
 30
0.0
 11
311.4525069999999
 21
122.2121189999999
 31
0.0
  0
ARC
  5
9700
330
95B9
100
AcDbEntity
  8
1
  6
Continuous
100
AcDbCircle
 10
343.078507
 20
150.6121189999998
 30
0.0
 40
35.12579999999999
100
AcDbArc
 50
155.798
 51
180.0
  0
LINE
  5
9701
330
95B9
100
AcDbEntity
  8
1
  6
Continuous
100
AcDbLine
 10
310.552507
 20
142.7706589999999
 30
0.0
 11
310.552507
 21
150.853519
 31
0.0
  0
LINE
  5
9702
330
95B9
100
AcDbEntity
  8
1
  6
Continuous
100
AcDbLine
 10
309.5525069999998
 20
150.6121189999998
 30
0.0
 11
310.552507
 21
150.6121189999998
 31
0.0
  0
LINE
  5
9703
330
95B9
100
AcDbEntity
  8
1
  6
Continuous
100
AcDbLine
 10
309.5525069999998
 20
146.328109
 30
0.0
 11
310.552507
 21
146.596049
 31
0.0
  0
LINE
  5
9704
330
95B9
100
AcDbEntity
  8
1
  6
Continuous
100
AcDbLine
 10
309.5525069999998
 20
147.0280789999999
 30
0.0
 11
310.552507
 21
147.296019
 31
0.0
  0
LINE
  5
9705
330
95B9
100
AcDbEntity
  8
1
  6
Continuous
100
AcDbLine
 10
309.5525069999998
 20
143.0121189999999
 30
0.0
 11
310.552507
 21
143.0121189999999
 31
0.0
  0
LINE
  5
9706
330
95B9
100
AcDbEntity
  8
1
  6
Continuous
100
AcDbLine
 10
309.5525069999998
 20
138.8120989999999
 30
0.0
 11
309.5525069999998
 21
150.6121189999998
 31
0.0
  0
LINE
  5
9707
330
95B9
100
AcDbEntity
  8
1
  6
Continuous
100
AcDbLine
 10
308.7525069999998
 20
150.6121189999998
 30
0.0
 11
308.7525069999998
 21
138.8120989999999
 31
0.0
  0
LINE
  5
9708
330
95B9
100
AcDbEntity
  8
1
  6
Continuous
100
AcDbLine
 10
309.5525069999998
 20
138.8120989999999
 30
0.0
 11
307.9525069999998
 21
138.8120989999999
 31
0.0
  0
LINE
  5
9709
330
95B9
100
AcDbEntity
  8
1
  6
Continuous
100
AcDbLine
 10
311.040507
 20
165.0121189999999
 30
0.0
 11
307.4525069999999
 21
165.0121189999999
 31
0.0
  0
LINE
  5
970A
330
95B9
100
AcDbEntity
  8
1
  6
Continuous
100
AcDbLine
 10
307.4525069999999
 20
164.8121189999999
 30
0.0
 11
307.9525069999998
 21
164.8121189999999
 31
0.0
  0
LINE
  5
970B
330
95B9
100
AcDbEntity
  8
5
  6
PHANTOM
100
AcDbLine
 10
247.5825069999999
 20
177.812119
 30
0.0
 11
290.4525069999999
 21
177.812119
 31
0.0
  0
LINE
  5
970C
330
95B9
100
AcDbEntity
  8
5
  6
PHANTOM
100
AcDbLine
 10
247.5825069999999
 20
167.3121189999999
 30
0.0
 11
285.4525069999999
 21
167.3121189999999
 31
0.0
  0
ARC
  5
970D
330
95B9
100
AcDbEntity
  8
5
  6
PHANTOM
100
AcDbCircle
 10
246.9525069999999
 20
173.927019
 30
0.0
 40
7.114889999999999
100
AcDbArc
 50
228.504
 51
291.608
  0
ARC
  5
970E
330
95B9
100
AcDbEntity
  8
5
  6
PHANTOM
100
AcDbCircle
 10
246.9525069999999
 20
171.197219
 30
0.0
 40
7.114889999999999
100
AcDbArc
 50
68.39199999999999
 51
131.496
  0
ARC
  5
970F
330
95B9
100
AcDbEntity
  8
5
  6
PHANTOM
100
AcDbCircle
 10
245.7455069999999
 20
172.562119
 30
0.0
 40
5.2926
100
AcDbArc
 50
131.496
 51
228.503
  0
ARC
  5
9710
330
95B9
100
AcDbEntity
  8
5
  6
PHANTOM
100
AcDbCircle
 10
247.5825069999999
 20
175.993519
 30
0.0
 40
1.81857
100
AcDbArc
 50
90.0
 51
153.3909999999998
  0
ARC
  5
9711
330
95B9
100
AcDbEntity
  8
5
  6
PHANTOM
100
AcDbCircle
 10
254.4325069999999
 20
172.562119
 30
0.0
 40
9.47981
100
AcDbArc
 50
153.3909999999998
 51
206.6089999999999
  0
ARC
  5
9712
330
95B9
100
AcDbEntity
  8
5
  6
PHANTOM
100
AcDbCircle
 10
247.5825069999999
 20
169.130719
 30
0.0
 40
1.81857
100
AcDbArc
 50
206.6089999999999
 51
270.0
  0
LINE
  5
9713
330
95B9
100
AcDbEntity
  8
1
  6
Continuous
100
AcDbLine
 10
292.952507
 20
169.9371189999999
 30
0.0
 11
302.3705069999999
 21
167.988519
 31
0.0
  0
LINE
  5
9714
330
95B9
100
AcDbEntity
  8
4
  6
CENTER
100
AcDbLine
 10
291.9525069999999
 20
172.312119
 30
0.0
 11
301.9525069999999
 21
172.312119
 31
0.0
  0
LINE
  5
9715
330
95B9
100
AcDbEntity
  8
1
  6
Continuous
100
AcDbLine
 10
292.952507
 20
183.812119
 30
0.0
 11
306.5215069999998
 21
182.876319
 31
0.0
  0
ARC
  5
9716
330
95B9
100
AcDbEntity
  8
5
  6
PHANTOM
100
AcDbCircle
 10
282.9525069999998
 20
176.812119
 30
0.0
 40
1.0
100
AcDbArc
 50
0.0
 51
90.0
  0
ARC
  5
9717
330
95B9
100
AcDbEntity
  8
5
  6
PHANTOM
100
AcDbCircle
 10
282.9525069999998
 20
168.312119
 30
0.0
 40
1.0
100
AcDbArc
 50
270.0
 51
0.000003
  0
LINE
  5
9718
330
95B9
100
AcDbEntity
  8
5
  6
PHANTOM
100
AcDbLine
 10
276.9525069999999
 20
176.812119
 30
0.0
 11
276.9525069999999
 21
168.312119
 31
0.0
  0
ARC
  5
9719
330
95B9
100
AcDbEntity
  8
5
  6
PHANTOM
100
AcDbCircle
 10
285.4525069999999
 20
167.3121189999999
 30
0.0
 40
1.0
100
AcDbArc
 50
180.0
 51
270.0
  0
LINE
  5
971A
330
95B9
100
AcDbEntity
  8
5
  6
PHANTOM
100
AcDbLine
 10
285.4525069999999
 20
166.312119
 30
0.0
 11
290.4525069999999
 21
166.312119
 31
0.0
  0
LINE
  5
971B
330
95B9
100
AcDbEntity
  8
5
  6
PHANTOM
100
AcDbLine
 10
283.9525069999999
 20
176.812119
 30
0.0
 11
283.9525069999999
 21
168.312119
 31
0.0
  0
LINE
  5
971C
330
95B9
100
AcDbEntity
  8
1
  6
Continuous
100
AcDbLine
 10
290.4525069999999
 20
190.8121189999999
 30
0.0
 11
292.952507
 21
190.8121189999999
 31
0.0
  0
CIRCLE
  5
971D
330
95B9
100
AcDbEntity
  8
1
  6
Continuous
100
AcDbCircle
 10
296.9525069999999
 20
172.312119
 30
0.0
 40
3.25
  0
LINE
  5
971E
330
95B9
100
AcDbEntity
  8
4
  6
CENTER
100
AcDbLine
 10
296.9525069999999
 20
167.3121189999999
 30
0.0
 11
296.9525069999999
 21
177.3121189999999
 31
0.0
  0
LINE
  5
971F
330
95B9
100
AcDbEntity
  8
1
  6
Continuous
100
AcDbLine
 10
311.040507
 20
165.8121189999999
 30
0.0
 11
307.4525069999999
 21
165.8121189999999
 31
0.0
  0
LINE
  5
9720
330
95B9
100
AcDbEntity
  8
1
  6
Continuous
100
AcDbLine
 10
312.1525069999999
 20
174.5121189999999
 30
0.0
 11
307.4525069999999
 21
174.5121189999999
 31
0.0
  0
LINE
  5
9721
330
95B9
100
AcDbEntity
  8
1
  6
Continuous
100
AcDbLine
 10
312.1525069999999
 20
175.3121189999999
 30
0.0
 11
307.4525069999999
 21
175.3121189999999
 31
0.0
  0
ARC
  5
9722
330
95B9
100
AcDbEntity
  8
1
  6
Continuous
100
AcDbCircle
 10
306.4525069999999
 20
181.8787189999999
 30
0.0
 40
1.0
100
AcDbArc
 50
0.0
 51
86.0548
  0
LINE
  5
9723
330
95B9
100
AcDbEntity
  8
1
  6
Continuous
100
AcDbLine
 10
143.994226
 20
243.1732189999999
 30
0.0
 11
187.9942259999999
 21
243.1732189999999
 31
0.0
  0
LINE
  5
9724
330
95B9
100
AcDbEntity
  8
1
  6
Continuous
100
AcDbLine
 10
182.6322259999998
 20
230.172719
 30
0.0
 11
149.356226
 21
230.172719
 31
0.0
  0
LINE
  5
9725
330
95B9
100
AcDbEntity
  8
1
  6
Continuous
100
AcDbLine
 10
182.908226
 20
234.1727189999998
 30
0.0
 11
149.081226
 21
234.1727189999998
 31
0.0
  0
LINE
  5
9726
330
95B9
100
AcDbEntity
  8
4
  6
CENTER
100
AcDbLine
 10
211.2152259999998
 20
232.172719
 30
0.0
 11
117.8852259999999
 21
232.172719
 31
0.0
  0
LINE
  5
9727
330
95B9
100
AcDbEntity
  8
1
  6
Continuous
100
AcDbLine
 10
104.9942259999999
 20
228.172719
 30
0.0
 11
226.9942259999999
 21
228.172719
 31
0.0
  0
LINE
  5
9728
330
95B9
100
AcDbEntity
  8
1
  6
Continuous
100
AcDbLine
 10
104.9942259999999
 20
225.6727189999998
 30
0.0
 11
226.9942259999999
 21
225.6727189999998
 31
0.0
  0
ARC
  5
9729
330
95B9
100
AcDbEntity
  8
1
  6
Continuous
100
AcDbCircle
 10
120.733226
 20
236.1727189999998
 30
0.0
 40
7.0
100
AcDbArc
 50
90.0
 51
168.69
  0
LINE
  5
972A
330
95B9
100
AcDbEntity
  8
1
  6
Continuous
100
AcDbLine
 10
113.869226
 20
237.545219
 30
0.0
 11
111.9942259999999
 21
228.172719
 31
0.0
  0
LINE
  5
972B
330
95B9
100
AcDbEntity
  8
1
  6
Continuous
100
AcDbLine
 10
104.9942259999999
 20
228.172719
 30
0.0
 11
104.9942259999999
 21
225.6727189999998
 31
0.0
  0
LINE
  5
972C
330
95B9
100
AcDbEntity
  8
4
  6
CENTER
100
AcDbLine
 10
139.494226
 20
256.173219
 30
0.0
 11
139.494226
 21
238.173219
 31
0.0
  0
LINE
  5
972D
330
95B9
100
AcDbEntity
  8
1
  6
Continuous
100
AcDbLine
 10
143.994226
 20
251.173219
 30
0.0
 11
143.994226
 21
242.673219
 31
0.0
  0
LINE
  5
972E
330
95B9
100
AcDbEntity
  8
1
  6
Continuous
100
AcDbLine
 10
134.9942259999999
 20
251.173219
 30
0.0
 11
134.9942259999999
 21
242.673219
 31
0.0
  0
LINE
  5
972F
330
95B9
100
AcDbEntity
  8
1
  6
Continuous
100
AcDbLine
 10
131.4282259999999
 20
242.673219
 30
0.0
 11
147.561226
 21
242.673219
 31
0.0
  0
LINE
  5
9730
330
95B9
100
AcDbEntity
  8
1
  6
Continuous
100
AcDbLine
 10
129.494226
 20
228.172719
 30
0.0
 11
130.5292259999999
 21
243.1732189999999
 31
0.0
  0
LINE
  5
9731
330
95B9
100
AcDbEntity
  8
1
  6
Continuous
100
AcDbLine
 10
129.6322259999998
 20
230.172719
 30
0.0
 11
122.994226
 21
230.172719
 31
0.0
  0
LINE
  5
9732
330
95B9
100
AcDbEntity
  8
1
  6
Continuous
100
AcDbLine
 10
129.908226
 20
234.1727189999998
 30
0.0
 11
122.994226
 21
234.1727189999998
 31
0.0
  0
LINE
  5
9733
330
95B9
100
AcDbEntity
  8
1
  6
Continuous
100
AcDbLine
 10
120.733226
 20
243.1732189999999
 30
0.0
 11
134.9942259999999
 21
243.1732189999999
 31
0.0
  0
ARC
  5
9734
330
95B9
100
AcDbEntity
  8
1
  6
Continuous
100
AcDbCircle
 10
131.4282259999999
 20
241.6732189999999
 30
0.0
 40
1.0
100
AcDbArc
 50
90.0
 51
176.055
  0
LINE
  5
9735
330
95B9
100
AcDbEntity
  8
1
  6
Continuous
100
AcDbLine
 10
133.9942259999999
 20
242.673219
 30
0.0
 11
133.9942259999999
 21
243.1732189999999
 31
0.0
  0
LINE
  5
9736
330
95B9
100
AcDbEntity
  8
1
  6
Continuous
100
AcDbLine
 10
149.494226
 20
228.172719
 30
0.0
 11
148.460226
 21
243.1732189999999
 31
0.0
  0
LINE
  5
9737
330
95B9
100
AcDbEntity
  8
1
  6
Continuous
100
AcDbLine
 10
144.994226
 20
242.673219
 30
0.0
 11
144.994226
 21
243.1732189999999
 31
0.0
  0
ARC
  5
9738
330
95B9
100
AcDbEntity
  8
1
  6
Continuous
100
AcDbCircle
 10
147.561226
 20
241.6732189999999
 30
0.0
 40
1.0
100
AcDbArc
 50
3.94519
 51
90.0
  0
LINE
  5
9739
330
95B9
100
AcDbEntity
  8
1
  6
Continuous
100
AcDbLine
 10
134.9942259999999
 20
251.173219
 30
0.0
 11
143.994226
 21
251.173219
 31
0.0
  0
LINE
  5
973A
330
95B9
100
AcDbEntity
  8
1
  6
Continuous
100
AcDbLine
 10
187.9942259999999
 20
251.173219
 30
0.0
 11
196.994226
 21
251.173219
 31
0.0
  0
LINE
  5
973B
330
95B9
100
AcDbEntity
  8
1
  6
Continuous
100
AcDbLine
 10
184.4282259999999
 20
242.673219
 30
0.0
 11
200.5612259999999
 21
242.673219
 31
0.0
  0
LINE
  5
973C
330
95B9
100
AcDbEntity
  8
4
  6
CENTER
100
AcDbLine
 10
192.494226
 20
256.173219
 30
0.0
 11
192.494226
 21
238.173219
 31
0.0
  0
LINE
  5
973D
330
95B9
100
AcDbEntity
  8
1
  6
Continuous
100
AcDbLine
 10
187.9942259999999
 20
251.173219
 30
0.0
 11
187.9942259999999
 21
242.673219
 31
0.0
  0
LINE
  5
973E
330
95B9
100
AcDbEntity
  8
4
  6
CENTER
100
AcDbLine
 10
165.994226
 20
250.627219
 30
0.0
 11
165.994226
 21
220.9436189999999
 31
0.0
  0
LINE
  5
973F
330
95B9
100
AcDbEntity
  8
1
  6
Continuous
100
AcDbLine
 10
163.594226
 20
246.673219
 30
0.0
 11
168.394226
 21
246.673219
 31
0.0
  0
LINE
  5
9740
330
95B9
100
AcDbEntity
  8
1
  6
Continuous
100
AcDbLine
 10
163.594226
 20
246.673219
 30
0.0
 11
163.594226
 21
243.1732189999999
 31
0.0
  0
LINE
  5
9741
330
95B9
100
AcDbEntity
  8
1
  6
Continuous
100
AcDbLine
 10
168.394226
 20
246.673219
 30
0.0
 11
168.394226
 21
243.1732189999999
 31
0.0
  0
LINE
  5
9742
330
95B9
100
AcDbEntity
  8
1
  6
Continuous
100
AcDbLine
 10
182.494226
 20
228.172719
 30
0.0
 11
183.5292259999999
 21
243.1732189999999
 31
0.0
  0
ARC
  5
9743
330
95B9
100
AcDbEntity
  8
1
  6
Continuous
100
AcDbCircle
 10
184.4282259999999
 20
241.6732189999999
 30
0.0
 40
1.0
100
AcDbArc
 50
90.0
 51
176.055
  0
LINE
  5
9744
330
95B9
100
AcDbEntity
  8
1
  6
Continuous
100
AcDbLine
 10
186.994226
 20
242.673219
 30
0.0
 11
186.994226
 21
243.1732189999999
 31
0.0
  0
LINE
  5
9745
330
95B9
100
AcDbEntity
  8
1
  6
Continuous
100
AcDbLine
 10
196.994226
 20
251.173219
 30
0.0
 11
196.994226
 21
242.673219
 31
0.0
  0
ARC
  5
9746
330
95B9
100
AcDbEntity
  8
1
  6
Continuous
100
AcDbCircle
 10
211.2562259999999
 20
236.1727189999998
 30
0.0
 40
7.0
100
AcDbArc
 50
11.3099
 51
90.0
  0
LINE
  5
9747
330
95B9
100
AcDbEntity
  8
1
  6
Continuous
100
AcDbLine
 10
202.4942259999999
 20
228.172719
 30
0.0
 11
201.460226
 21
243.1732189999999
 31
0.0
  0
LINE
  5
9748
330
95B9
100
AcDbEntity
  8
1
  6
Continuous
100
AcDbLine
 10
202.9942259999998
 20
235.422719
 30
0.0
 11
202.9942259999998
 21
228.922719
 31
0.0
  0
LINE
  5
9749
330
95B9
100
AcDbEntity
  8
1
  6
Continuous
100
AcDbLine
 10
205.994226
 20
235.422719
 30
0.0
 11
205.994226
 21
228.922719
 31
0.0
  0
LINE
  5
974A
330
95B9
100
AcDbEntity
  8
1
  6
Continuous
100
AcDbLine
 10
205.994226
 20
228.922719
 30
0.0
 11
202.9942259999998
 21
228.922719
 31
0.0
  0
LINE
  5
974B
330
95B9
100
AcDbEntity
  8
1
  6
Continuous
100
AcDbLine
 10
202.9942259999998
 20
230.172719
 30
0.0
 11
202.3562259999999
 21
230.172719
 31
0.0
  0
LINE
  5
974C
330
95B9
100
AcDbEntity
  8
1
  6
Continuous
100
AcDbLine
 10
196.994226
 20
243.1732189999999
 30
0.0
 11
211.2562259999999
 21
243.1732189999999
 31
0.0
  0
LINE
  5
974D
330
95B9
100
AcDbEntity
  8
1
  6
Continuous
100
AcDbLine
 10
205.994226
 20
235.422719
 30
0.0
 11
202.9942259999998
 21
235.422719
 31
0.0
  0
ARC
  5
974E
330
95B9
100
AcDbEntity
  8
1
  6
Continuous
100
AcDbCircle
 10
200.5612259999999
 20
241.6732189999999
 30
0.0
 40
1.0
100
AcDbArc
 50
3.94519
 51
90.0
  0
LINE
  5
974F
330
95B9
100
AcDbEntity
  8
1
  6
Continuous
100
AcDbLine
 10
197.9942259999999
 20
242.673219
 30
0.0
 11
197.9942259999999
 21
243.1732189999999
 31
0.0
  0
LINE
  5
9750
330
95B9
100
AcDbEntity
  8
1
  6
Continuous
100
AcDbLine
 10
202.9942259999998
 20
234.1727189999998
 30
0.0
 11
202.081226
 21
234.1727189999998
 31
0.0
  0
LINE
  5
9751
330
95B9
100
AcDbEntity
  8
1
  6
Continuous
100
AcDbLine
 10
218.1202259999998
 20
237.545219
 30
0.0
 11
219.9942259999999
 21
228.172719
 31
0.0
  0
LINE
  5
9752
330
95B9
100
AcDbEntity
  8
1
  6
Continuous
100
AcDbLine
 10
226.9942259999999
 20
228.172719
 30
0.0
 11
226.9942259999999
 21
225.6727189999998
 31
0.0
  0
LINE
  5
9753
330
95B9
100
AcDbEntity
  8
4
  6
CENTER
100
AcDbLine
 10
334.5458549999999
 20
144.8120989999999
 30
0.0
 11
476.545455
 21
144.8120989999999
 31
0.0
  0
ARC
  5
9754
330
95B9
100
AcDbEntity
  8
1
  6
Continuous
100
AcDbCircle
 10
405.545455
 20
300.0982189999998
 30
0.0
 40
189.7859999999998
100
AcDbArc
 50
255.1
 51
284.8999999999999
  0
LINE
  5
9755
330
95B9
100
AcDbEntity
  8
4
  6
CENTER
100
AcDbLine
 10
460.545455
 20
98.812119
 30
0.0
 11
460.545455
 21
110.812119
 31
0.0
  0
LINE
  5
9756
330
95B9
100
AcDbEntity
  8
4
  6
CENTER
100
AcDbLine
 10
350.545455
 20
98.812119
 30
0.0
 11
350.545455
 21
110.812119
 31
0.0
  0
LINE
  5
9757
330
95B9
100
AcDbEntity
  8
4
  6
CENTER
100
AcDbLine
 10
405.545455
 20
88.81211899999998
 30
0.0
 11
405.545455
 21
200.8121189999999
 31
0.0
  0
LINE
  5
9758
330
95B9
100
AcDbEntity
  8
1
  6
Continuous
100
AcDbLine
 10
466.5454549999998
 20
103.812119
 30
0.0
 11
466.5454549999998
 21
185.812119
 31
0.0
  0
LINE
  5
9759
330
95B9
100
AcDbEntity
  8
1
  6
Continuous
100
AcDbLine
 10
344.5458549999998
 20
103.812119
 30
0.0
 11
344.5458549999998
 21
185.812119
 31
0.0
  0
LINE
  5
975A
330
95B9
100
AcDbEntity
  8
1
  6
Continuous
100
AcDbLine
 10
349.5458549999999
 20
98.812119
 30
0.0
 11
461.5454549999998
 21
98.812119
 31
0.0
  0
CIRCLE
  5
975B
330
95B9
100
AcDbEntity
  8
1
  6
Continuous
100
AcDbCircle
 10
350.545455
 20
104.812119
 30
0.0
 40
2.25
  0
LINE
  5
975C
330
95B9
100
AcDbEntity
  8
4
  6
CENTER
100
AcDbLine
 10
356.545455
 20
104.812119
 30
0.0
 11
344.5458549999998
 21
104.812119
 31
0.0
  0
ARC
  5
975D
330
95B9
100
AcDbEntity
  8
1
  6
Continuous
100
AcDbCircle
 10
349.5458549999999
 20
103.812119
 30
0.0
 40
5.0
100
AcDbArc
 50
180.0
 51
270.0
  0
CIRCLE
  5
975E
330
95B9
100
AcDbEntity
  8
1
  6
Continuous
100
AcDbCircle
 10
460.545455
 20
104.812119
 30
0.0
 40
2.25
  0
LINE
  5
975F
330
95B9
100
AcDbEntity
  8
4
  6
CENTER
100
AcDbLine
 10
466.5454549999998
 20
104.812119
 30
0.0
 11
454.5454649999999
 21
104.812119
 31
0.0
  0
ARC
  5
9760
330
95B9
100
AcDbEntity
  8
1
  6
Continuous
100
AcDbCircle
 10
461.5454549999998
 20
103.812119
 30
0.0
 40
5.0
100
AcDbArc
 50
270.0
 51
0.0
  0
LINE
  5
9761
330
95B9
100
AcDbEntity
  8
1
  6
Continuous
100
AcDbLine
 10
388.545455
 20
169.9371189999999
 30
0.0
 11
422.545455
 21
169.9371189999999
 31
0.0
  0
LINE
  5
9762
330
95B9
100
AcDbEntity
  8
4
  6
CENTER
100
AcDbLine
 10
360.7867549999999
 20
172.312119
 30
0.0
 11
453.287015
 21
172.312119
 31
0.0
  0
LINE
  5
9763
330
95B9
100
AcDbEntity
  8
1
  6
Continuous
100
AcDbLine
 10
387.925455
 20
170.312119
 30
0.0
 11
423.165455
 21
170.312119
 31
0.0
  0
LINE
  5
9764
330
95B9
100
AcDbEntity
  8
1
  6
Continuous
100
AcDbLine
 10
387.925455
 20
174.312119
 30
0.0
 11
423.165455
 21
174.312119
 31
0.0
  0
LINE
  5
9765
330
95B9
100
AcDbEntity
  8
1
  6
Continuous
100
AcDbLine
 10
349.5458549999999
 20
190.8121189999999
 30
0.0
 11
461.5454549999998
 21
190.8121189999999
 31
0.0
  0
LINE
  5
9766
330
95B9
100
AcDbEntity
  8
1
  6
Continuous
100
AcDbLine
 10
387.545455
 20
162.645419
 30
0.0
 11
387.545455
 21
182.812119
 31
0.0
  0
LINE
  5
9767
330
95B9
100
AcDbEntity
  8
1
  6
Continuous
100
AcDbLine
 10
369.545455
 20
162.645419
 30
0.0
 11
369.545455
 21
182.812119
 31
0.0
  0
LINE
  5
9768
330
95B9
100
AcDbEntity
  8
1
  6
Continuous
100
AcDbLine
 10
373.045455
 20
162.645419
 30
0.0
 11
373.045455
 21
178.812119
 31
0.0
  0
LINE
  5
9769
330
95B9
100
AcDbEntity
  8
1
  6
Continuous
100
AcDbLine
 10
374.0454549999999
 20
138.8120989999999
 30
0.0
 11
374.0454549999999
 21
178.812119
 31
0.0
  0
LINE
  5
976A
330
95B9
100
AcDbEntity
  8
1
  6
Continuous
100
AcDbLine
 10
384.045455
 20
162.645419
 30
0.0
 11
384.045455
 21
178.812119
 31
0.0
  0
LINE
  5
976B
330
95B9
100
AcDbEntity
  8
1
  6
Continuous
100
AcDbLine
 10
383.045455
 20
138.8120989999999
 30
0.0
 11
383.045455
 21
178.812119
 31
0.0
  0
LINE
  5
976C
330
95B9
100
AcDbEntity
  8
1
  6
Continuous
100
AcDbLine
 10
366.9454549999999
 20
169.0621189999999
 30
0.0
 11
355.8531549999998
 21
164.440319
 31
0.0
  0
ARC
  5
976D
330
95B9
100
AcDbEntity
  8
1
  6
Continuous
100
AcDbCircle
 10
358.545455
 20
157.9787189999999
 30
0.0
 40
7.0
100
AcDbArc
 50
112.62
 51
180.0
  0
ARC
  5
976E
330
95B9
100
AcDbEntity
  8
1
  6
Continuous
100
AcDbCircle
 10
358.545455
 20
123.4580189999998
 30
0.0
 40
7.0
100
AcDbArc
 50
180.0
 51
255.1
  0
LINE
  5
976F
330
95B9
100
AcDbEntity
  8
1
  6
Continuous
100
AcDbLine
 10
351.545455
 20
157.9787189999999
 30
0.0
 11
351.545455
 21
123.4580189999998
 31
0.0
  0
ARC
  5
9770
330
95B9
100
AcDbEntity
  8
1
  6
Continuous
100
AcDbCircle
 10
311.963507
 20
149.843219
 30
0.0
 40
1.78908
100
AcDbArc
 50
325.6159999999998
 51
34.3843
  0
ARC
  5
9771
330
95B9
100
AcDbEntity
  8
1
  6
Continuous
100
AcDbCircle
 10
311.963507
 20
143.781009
 30
0.0
 40
1.789069999999999
100
AcDbArc
 50
325.6159999999998
 51
34.3843
  0
ARC
  5
9772
330
95B9
100
AcDbEntity
  8
1
  6
Continuous
100
AcDbCircle
 10
307.0655069999999
 20
146.8120989999999
 30
0.0
 40
6.687409999999998
100
AcDbArc
 50
342.4119999999998
 51
17.5879
  0
LINE
  5
9773
330
95B9
100
AcDbEntity
  8
1
  6
Continuous
100
AcDbLine
 10
314.9525069999999
 20
144.8120989999999
 30
0.0
 11
314.9525069999999
 21
148.812119
 31
0.0
  0
LINE
  5
9774
330
95B9
100
AcDbEntity
  8
1
  6
Continuous
100
AcDbLine
 10
313.7525069999999
 20
144.8120989999999
 30
0.0
 11
314.9525069999999
 21
144.8120989999999
 31
0.0
  0
LINE
  5
9775
330
95B9
100
AcDbEntity
  8
1
  6
Continuous
100
AcDbLine
 10
313.7525069999999
 20
145.191099
 30
0.0
 11
314.9525069999999
 21
145.191099
 31
0.0
  0
LINE
  5
9776
330
95B9
100
AcDbEntity
  8
1
  6
Continuous
100
AcDbLine
 10
313.7525069999999
 20
148.4331189999998
 30
0.0
 11
314.9525069999999
 21
148.4331189999998
 31
0.0
  0
LINE
  5
9777
330
95B9
100
AcDbEntity
  8
1
  6
Continuous
100
AcDbLine
 10
313.7525069999999
 20
148.812119
 30
0.0
 11
314.9525069999999
 21
148.812119
 31
0.0
  0
LINE
  5
9778
330
95B9
100
AcDbEntity
  8
1
  6
Continuous
100
AcDbLine
 10
313.7525069999999
 20
150.3121189999999
 30
0.0
 11
313.4405069999999
 21
150.853519
 31
0.0
  0
LINE
  5
9779
330
95B9
100
AcDbEntity
  8
1
  6
Continuous
100
AcDbLine
 10
313.7525069999999
 20
143.3120989999999
 30
0.0
 11
313.7525069999999
 21
150.3121189999999
 31
0.0
  0
LINE
  5
977A
330
95B9
100
AcDbEntity
  8
1
  6
Continuous
100
AcDbLine
 10
313.7525069999999
 20
143.312109
 30
0.0
 11
313.4405069999999
 21
142.7706589999999
 31
0.0
  0
LINE
  5
977B
330
95B9
100
AcDbEntity
  8
4
  6
CENTER
100
AcDbLine
 10
378.545455
 20
140.812099
 30
0.0
 11
378.545455
 21
152.812119
 31
0.0
  0
CIRCLE
  5
977C
330
95B9
100
AcDbEntity
  8
1
  6
Continuous
100
AcDbCircle
 10
378.545455
 20
146.8120989999999
 30
0.0
 40
3.5
  0
LINE
  5
977D
330
95B9
100
AcDbEntity
  8
1
  6
Continuous
100
AcDbLine
 10
382.045455
 20
144.791369
 30
0.0
 11
378.545455
 21
142.770649
 31
0.0
  0
LINE
  5
977E
330
95B9
100
AcDbEntity
  8
1
  6
Continuous
100
AcDbLine
 10
378.545455
 20
150.853519
 30
0.0
 11
382.045455
 21
148.832819
 31
0.0
  0
LINE
  5
977F
330
95B9
100
AcDbEntity
  8
1
  6
Continuous
100
AcDbLine
 10
374.0454549999999
 20
138.8120989999999
 30
0.0
 11
383.045455
 21
138.8120989999999
 31
0.0
  0
LINE
  5
9780
330
95B9
100
AcDbEntity
  8
4
  6
CENTER
100
AcDbLine
 10
372.545455
 20
146.8120989999999
 30
0.0
 11
384.5454549999999
 21
146.8120989999999
 31
0.0
  0
CIRCLE
  5
9781
330
95B9
100
AcDbEntity
  8
1
  6
Continuous
100
AcDbCircle
 10
378.545455
 20
146.8120989999999
 30
0.0
 40
2.0
  0
CIRCLE
  5
9782
330
95B9
100
AcDbEntity
  8
2
  6
Continuous
100
AcDbCircle
 10
378.545455
 20
146.8120989999999
 30
0.0
 40
1.620999999999999
  0
LINE
  5
9783
330
95B9
100
AcDbEntity
  8
1
  6
Continuous
100
AcDbLine
 10
378.545455
 20
142.770649
 30
0.0
 11
375.045455
 21
144.791379
 31
0.0
  0
LINE
  5
9784
330
95B9
100
AcDbEntity
  8
1
  6
Continuous
100
AcDbLine
 10
375.045455
 20
148.832819
 30
0.0
 11
378.545455
 21
150.853519
 31
0.0
  0
LINE
  5
9785
330
95B9
100
AcDbEntity
  8
1
  6
Continuous
100
AcDbLine
 10
375.045455
 20
144.791369
 30
0.0
 11
375.045455
 21
148.832819
 31
0.0
  0
LINE
  5
9786
330
95B9
100
AcDbEntity
  8
1
  6
Continuous
100
AcDbLine
 10
382.045455
 20
148.832819
 30
0.0
 11
382.045455
 21
144.791369
 31
0.0
  0
CIRCLE
  5
9787
330
95B9
100
AcDbEntity
  8
1
  6
Continuous
100
AcDbCircle
 10
350.545455
 20
184.812119
 30
0.0
 40
2.25
  0
LINE
  5
9788
330
95B9
100
AcDbEntity
  8
4
  6
CENTER
100
AcDbLine
 10
356.545455
 20
184.812119
 30
0.0
 11
344.5458549999998
 21
184.812119
 31
0.0
  0
LINE
  5
9789
330
95B9
100
AcDbEntity
  8
4
  6
CENTER
100
AcDbLine
 10
350.545455
 20
178.812119
 30
0.0
 11
350.545455
 21
190.8121189999999
 31
0.0
  0
ARC
  5
978A
330
95B9
100
AcDbEntity
  8
1
  6
Continuous
100
AcDbCircle
 10
349.5458549999999
 20
185.812119
 30
0.0
 40
5.0
100
AcDbArc
 50
90.0
 51
180.0
  0
LINE
  5
978B
330
95B9
100
AcDbEntity
  8
1
  6
Continuous
100
AcDbLine
 10
369.545455
 20
183.812119
 30
0.0
 11
387.545455
 21
183.812119
 31
0.0
  0
LINE
  5
978C
330
95B9
100
AcDbEntity
  8
1
  6
Continuous
100
AcDbLine
 10
369.545455
 20
182.812119
 30
0.0
 11
387.545455
 21
182.812119
 31
0.0
  0
LINE
  5
978D
330
95B9
100
AcDbEntity
  8
1
  6
Continuous
100
AcDbLine
 10
368.545455
 20
169.0621189999999
 30
0.0
 11
368.545455
 21
182.812119
 31
0.0
  0
LINE
  5
978E
330
95B9
100
AcDbEntity
  8
1
  6
Continuous
100
AcDbLine
 10
368.545455
 20
170.312119
 30
0.0
 11
369.1654549999999
 21
170.312119
 31
0.0
  0
LINE
  5
978F
330
95B9
100
AcDbEntity
  8
1
  6
Continuous
100
AcDbLine
 10
368.545455
 20
174.312119
 30
0.0
 11
369.1654549999999
 21
174.312119
 31
0.0
  0
LINE
  5
9790
330
95B9
100
AcDbEntity
  8
1
  6
Continuous
100
AcDbLine
 10
369.1654549999999
 20
170.312119
 30
0.0
 11
369.1654549999999
 21
174.312119
 31
0.0
  0
LINE
  5
9791
330
95B9
100
AcDbEntity
  8
1
  6
Continuous
100
AcDbLine
 10
365.5454549999998
 20
175.562119
 30
0.0
 11
365.5454549999998
 21
169.0621189999999
 31
0.0
  0
LINE
  5
9792
330
95B9
100
AcDbEntity
  8
1
  6
Continuous
100
AcDbLine
 10
365.5454549999998
 20
169.0621189999999
 30
0.0
 11
368.545455
 21
169.0621189999999
 31
0.0
  0
LINE
  5
9793
330
95B9
100
AcDbEntity
  8
1
  6
Continuous
100
AcDbLine
 10
365.5454549999998
 20
175.562119
 30
0.0
 11
368.545455
 21
175.562119
 31
0.0
  0
ARC
  5
9794
330
95B9
100
AcDbEntity
  8
1
  6
Continuous
100
AcDbCircle
 10
369.545455
 20
182.812119
 30
0.0
 40
1.0
100
AcDbArc
 50
90.0
 51
180.0
  0
LINE
  5
9795
330
95B9
100
AcDbEntity
  8
1
  6
Continuous
100
AcDbLine
 10
388.545455
 20
169.9371189999999
 30
0.0
 11
388.545455
 21
170.312119
 31
0.0
  0
LINE
  5
9796
330
95B9
100
AcDbEntity
  8
1
  6
Continuous
100
AcDbLine
 10
373.045455
 20
178.812119
 30
0.0
 11
384.045455
 21
178.812119
 31
0.0
  0
LINE
  5
9797
330
95B9
100
AcDbEntity
  8
1
  6
Continuous
100
AcDbLine
 10
374.0454549999999
 20
175.3121189999999
 30
0.0
 11
383.045455
 21
175.3121189999999
 31
0.0
  0
LINE
  5
9798
330
95B9
100
AcDbEntity
  8
1
  6
Continuous
100
AcDbLine
 10
373.045455
 20
170.312119
 30
0.0
 11
374.0454549999999
 21
170.312119
 31
0.0
  0
LINE
  5
9799
330
95B9
100
AcDbEntity
  8
1
  6
Continuous
100
AcDbLine
 10
373.045455
 20
174.312119
 30
0.0
 11
374.0454549999999
 21
174.312119
 31
0.0
  0
LINE
  5
979A
330
95B9
100
AcDbEntity
  8
1
  6
Continuous
100
AcDbLine
 10
383.045455
 20
170.312119
 30
0.0
 11
384.045455
 21
170.312119
 31
0.0
  0
LINE
  5
979B
330
95B9
100
AcDbEntity
  8
1
  6
Continuous
100
AcDbLine
 10
383.045455
 20
174.312119
 30
0.0
 11
384.045455
 21
174.312119
 31
0.0
  0
LINE
  5
979C
330
95B9
100
AcDbEntity
  8
1
  6
Continuous
100
AcDbLine
 10
387.925455
 20
170.312119
 30
0.0
 11
387.925455
 21
174.312119
 31
0.0
  0
ARC
  5
979D
330
95B9
100
AcDbEntity
  8
1
  6
Continuous
100
AcDbCircle
 10
387.545455
 20
182.812119
 30
0.0
 40
1.0
100
AcDbArc
 50
0.0
 51
90.0
  0
LINE
  5
979E
330
95B9
100
AcDbEntity
  8
1
  6
Continuous
100
AcDbLine
 10
423.545455
 20
162.645419
 30
0.0
 11
423.545455
 21
182.812119
 31
0.0
  0
LINE
  5
979F
330
95B9
100
AcDbEntity
  8
1
  6
Continuous
100
AcDbLine
 10
441.545465
 20
162.645419
 30
0.0
 11
441.545465
 21
182.812119
 31
0.0
  0
LINE
  5
97A0
330
95B9
100
AcDbEntity
  8
1
  6
Continuous
100
AcDbLine
 10
438.045455
 20
162.645419
 30
0.0
 11
438.045455
 21
178.812119
 31
0.0
  0
LINE
  5
97A1
330
95B9
100
AcDbEntity
  8
1
  6
Continuous
100
AcDbLine
 10
427.045455
 20
162.645419
 30
0.0
 11
427.045455
 21
178.812119
 31
0.0
  0
LINE
  5
97A2
330
95B9
100
AcDbEntity
  8
1
  6
Continuous
100
AcDbLine
 10
437.0454549999998
 20
138.8120989999999
 30
0.0
 11
437.0454549999998
 21
178.812119
 31
0.0
  0
LINE
  5
97A3
330
95B9
100
AcDbEntity
  8
1
  6
Continuous
100
AcDbLine
 10
428.0454549999998
 20
138.8120989999999
 30
0.0
 11
428.0454549999998
 21
178.812119
 31
0.0
  0
LINE
  5
97A4
330
95B9
100
AcDbEntity
  8
1
  6
Continuous
100
AcDbLine
 10
442.5454649999998
 20
169.7287189999999
 30
0.0
 11
455.237765
 21
164.440319
 31
0.0
  0
CIRCLE
  5
97A5
330
95B9
100
AcDbEntity
  8
1
  6
Continuous
100
AcDbCircle
 10
432.5454549999998
 20
146.8120989999999
 30
0.0
 40
3.5
  0
LINE
  5
97A6
330
95B9
100
AcDbEntity
  8
1
  6
Continuous
100
AcDbLine
 10
432.5454549999998
 20
142.770649
 30
0.0
 11
429.0454549999998
 21
144.791369
 31
0.0
  0
LINE
  5
97A7
330
95B9
100
AcDbEntity
  8
1
  6
Continuous
100
AcDbLine
 10
429.0454549999998
 20
148.832819
 30
0.0
 11
432.5454549999998
 21
150.853519
 31
0.0
  0
LINE
  5
97A8
330
95B9
100
AcDbEntity
  8
1
  6
Continuous
100
AcDbLine
 10
428.0454549999998
 20
138.8120989999999
 30
0.0
 11
437.0454549999998
 21
138.8120989999999
 31
0.0
  0
LINE
  5
97A9
330
95B9
100
AcDbEntity
  8
4
  6
CENTER
100
AcDbLine
 10
426.545455
 20
146.8120989999999
 30
0.0
 11
438.545455
 21
146.8120989999999
 31
0.0
  0
CIRCLE
  5
97AA
330
95B9
100
AcDbEntity
  8
1
  6
Continuous
100
AcDbCircle
 10
405.545455
 20
119.8121189999999
 30
0.0
 40
2.399999999999999
  0
LINE
  5
97AB
330
95B9
100
AcDbEntity
  8
1
  6
Continuous
100
AcDbLine
 10
429.0454549999998
 20
144.791369
 30
0.0
 11
429.0454549999998
 21
148.832819
 31
0.0
  0
LINE
  5
97AC
330
95B9
100
AcDbEntity
  8
1
  6
Continuous
100
AcDbLine
 10
459.5454649999998
 20
157.9787189999999
 30
0.0
 11
459.5454649999998
 21
123.4580189999998
 31
0.0
  0
ARC
  5
97AD
330
95B9
100
AcDbEntity
  8
1
  6
Continuous
100
AcDbCircle
 10
452.5454649999998
 20
123.4580189999998
 30
0.0
 40
7.0
100
AcDbArc
 50
284.8999999999999
 51
0.0
  0
LINE
  5
97AE
330
95B9
100
AcDbEntity
  8
4
  6
CENTER
100
AcDbLine
 10
432.5454549999998
 20
140.812099
 30
0.0
 11
432.5454549999998
 21
152.812119
 31
0.0
  0
CIRCLE
  5
97AF
330
95B9
100
AcDbEntity
  8
2
  6
Continuous
100
AcDbCircle
 10
432.5454549999998
 20
146.8120989999999
 30
0.0
 40
1.620999999999999
  0
CIRCLE
  5
97B0
330
95B9
100
AcDbEntity
  8
1
  6
Continuous
100
AcDbCircle
 10
432.5454549999998
 20
146.8120989999999
 30
0.0
 40
2.0
  0
LINE
  5
97B1
330
95B9
100
AcDbEntity
  8
1
  6
Continuous
100
AcDbLine
 10
436.045455
 20
144.791379
 30
0.0
 11
432.5454549999998
 21
142.770649
 31
0.0
  0
LINE
  5
97B2
330
95B9
100
AcDbEntity
  8
1
  6
Continuous
100
AcDbLine
 10
432.5454549999998
 20
150.853519
 30
0.0
 11
436.045455
 21
148.832819
 31
0.0
  0
LINE
  5
97B3
330
95B9
100
AcDbEntity
  8
1
  6
Continuous
100
AcDbLine
 10
436.045455
 20
148.832819
 30
0.0
 11
436.045455
 21
144.791369
 31
0.0
  0
ARC
  5
97B4
330
95B9
100
AcDbEntity
  8
1
  6
Continuous
100
AcDbCircle
 10
452.5454649999998
 20
157.9787189999999
 30
0.0
 40
7.0
100
AcDbArc
 50
0.0
 51
67.3801
  0
LINE
  5
97B5
330
95B9
100
AcDbEntity
  8
1
  6
Continuous
100
AcDbLine
 10
428.0454549999998
 20
175.3121189999999
 30
0.0
 11
437.0454549999998
 21
175.3121189999999
 31
0.0
  0
LINE
  5
97B6
330
95B9
100
AcDbEntity
  8
1
  6
Continuous
100
AcDbLine
 10
427.045455
 20
178.812119
 30
0.0
 11
438.045455
 21
178.812119
 31
0.0
  0
LINE
  5
97B7
330
95B9
100
AcDbEntity
  8
1
  6
Continuous
100
AcDbLine
 10
423.545455
 20
183.812119
 30
0.0
 11
441.545465
 21
183.812119
 31
0.0
  0
LINE
  5
97B8
330
95B9
100
AcDbEntity
  8
1
  6
Continuous
100
AcDbLine
 10
423.545455
 20
182.812119
 30
0.0
 11
441.545465
 21
182.812119
 31
0.0
  0
LINE
  5
97B9
330
95B9
100
AcDbEntity
  8
1
  6
Continuous
100
AcDbLine
 10
422.545455
 20
174.312119
 30
0.0
 11
422.545455
 21
182.812119
 31
0.0
  0
LINE
  5
97BA
330
95B9
100
AcDbEntity
  8
1
  6
Continuous
100
AcDbLine
 10
423.165455
 20
170.312119
 30
0.0
 11
423.165455
 21
174.312119
 31
0.0
  0
LINE
  5
97BB
330
95B9
100
AcDbEntity
  8
1
  6
Continuous
100
AcDbLine
 10
427.045455
 20
170.312119
 30
0.0
 11
428.0454549999998
 21
170.312119
 31
0.0
  0
LINE
  5
97BC
330
95B9
100
AcDbEntity
  8
1
  6
Continuous
100
AcDbLine
 10
427.045455
 20
174.312119
 30
0.0
 11
428.0454549999998
 21
174.312119
 31
0.0
  0
LINE
  5
97BD
330
95B9
100
AcDbEntity
  8
1
  6
Continuous
100
AcDbLine
 10
422.545455
 20
169.9371189999999
 30
0.0
 11
422.545455
 21
170.312119
 31
0.0
  0
ARC
  5
97BE
330
95B9
100
AcDbEntity
  8
1
  6
Continuous
100
AcDbCircle
 10
423.545455
 20
182.812119
 30
0.0
 40
1.0
100
AcDbArc
 50
90.0
 51
180.0
  0
LINE
  5
97BF
330
95B9
100
AcDbEntity
  8
1
  6
Continuous
100
AcDbLine
 10
442.5454649999998
 20
174.2934229999999
 30
0.0
 11
442.5454649999998
 21
182.812119
 31
0.0
  0
LINE
  5
97C0
330
95B9
100
AcDbEntity
  8
1
  6
Continuous
100
AcDbLine
 10
437.0454549999998
 20
170.312119
 30
0.0
 11
438.045455
 21
170.312119
 31
0.0
  0
LINE
  5
97C1
330
95B9
100
AcDbEntity
  8
1
  6
Continuous
100
AcDbLine
 10
437.0454549999998
 20
174.312119
 30
0.0
 11
438.045455
 21
174.312119
 31
0.0
  0
LINE
  5
97C2
330
95B9
100
AcDbEntity
  8
1
  6
Continuous
100
AcDbLine
 10
441.925465
 20
170.3598189999999
 30
0.0
 11
441.925465
 21
174.264319
 31
0.0
  0
LINE
  5
97C3
330
95B9
100
AcDbEntity
  8
1
  6
Continuous
100
AcDbLine
 10
448.3972849999998
 20
170.0561189999999
 30
0.0
 11
448.545455
 21
171.749619
 31
0.0
  0
LINE
  5
97C4
330
95B9
100
AcDbEntity
  8
1
  6
Continuous
100
AcDbLine
 10
441.925465
 20
172.0121189999999
 30
0.0
 11
442.5454649999998
 21
172.0121189999999
 31
0.0
  0
LINE
  5
97C5
330
95B9
100
AcDbEntity
  8
1
  6
Continuous
100
AcDbLine
 10
441.925465
 20
172.612119
 30
0.0
 11
442.5454649999998
 21
172.612119
 31
0.0
  0
LINE
  5
97C6
330
95B9
100
AcDbEntity
  8
1
  6
Continuous
100
AcDbLine
 10
448.3972849999998
 20
174.5681189999999
 30
0.0
 11
448.545455
 21
172.8745189999999
 31
0.0
  0
LINE
  5
97C7
330
95B9
100
AcDbEntity
  8
1
  6
Continuous
100
AcDbLine
 10
442.5454649999998
 20
169.7287189999999
 30
0.0
 11
442.5454649999998
 21
170.3307249999998
 31
0.0
  0
ARC
  5
97C8
330
95B9
100
AcDbEntity
  8
1
  6
Continuous
100
AcDbCircle
 10
441.545465
 20
182.812119
 30
0.0
 40
1.0
100
AcDbArc
 50
0.0
 51
90.0
  0
LINE
  5
97C9
330
95B9
100
AcDbEntity
  8
4
  6
CENTER
100
AcDbLine
 10
460.545455
 20
178.812119
 30
0.0
 11
460.545455
 21
190.8121189999999
 31
0.0
  0
CIRCLE
  5
97CA
330
95B9
100
AcDbEntity
  8
1
  6
Continuous
100
AcDbCircle
 10
460.545455
 20
184.812119
 30
0.0
 40
2.25
  0
LINE
  5
97CB
330
95B9
100
AcDbEntity
  8
4
  6
CENTER
100
AcDbLine
 10
466.5454549999998
 20
184.812119
 30
0.0
 11
454.5454649999999
 21
184.812119
 31
0.0
  0
ARC
  5
97CC
330
95B9
100
AcDbEntity
  8
1
  6
Continuous
100
AcDbCircle
 10
461.5454549999998
 20
185.812119
 30
0.0
 40
5.0
100
AcDbArc
 50
0.0
 51
90.0
  0
CIRCLE
  5
97CD
330
95B9
100
AcDbEntity
  8
1
  6
Continuous
100
AcDbCircle
 10
110.9942259999999
 20
184.812119
 30
0.0
 40
4.299999999999998
  0
CIRCLE
  5
97CE
330
95B9
100
AcDbEntity
  8
1
  6
Continuous
100
AcDbCircle
 10
110.9942259999999
 20
104.812119
 30
0.0
 40
4.299999999999998
  0
CIRCLE
  5
97CF
330
95B9
100
AcDbEntity
  8
1
  6
Continuous
100
AcDbCircle
 10
220.9942259999999
 20
104.812119
 30
0.0
 40
4.299999999999998
  0
CIRCLE
  5
97D0
330
95B9
100
AcDbEntity
  8
1
  6
Continuous
100
AcDbCircle
 10
220.9942259999999
 20
184.812119
 30
0.0
 40
4.299999999999998
  0
LINE
  5
97D1
330
95B9
100
AcDbEntity
  8
1
  6
Continuous
100
AcDbLine
 10
388.545455
 20
174.312119
 30
0.0
 11
388.545455
 21
182.812119
 31
0.0
  0
LINE
  5
97D2
330
95B9
100
AcDbEntity
  8
1
  6
Continuous
100
AcDbLine
 10
441.925465
 20
174.264319
 30
0.0
 11
448.3972849999998
 21
174.5681189999999
 31
0.0
  0
LINE
  5
97D3
330
95B9
100
AcDbEntity
  8
1
  6
Continuous
100
AcDbLine
 10
441.925465
 20
170.3598189999999
 30
0.0
 11
448.3972849999998
 21
170.0561189999999
 31
0.0
  0
LINE
  5
97D4
330
95B9
100
AcDbEntity
  8
1
  6
Continuous
100
AcDbLine
 10
442.5454649999998
 20
172.612119
 30
0.0
 11
448.545455
 21
172.8745189999999
 31
0.0
  0
LINE
  5
97D5
330
95B9
100
AcDbEntity
  8
1
  6
Continuous
100
AcDbLine
 10
442.5454649999998
 20
172.0121189999999
 30
0.0
 11
448.545455
 21
171.749619
 31
0.0
  0
LINE
  5
97D6
330
95B9
100
AcDbEntity
  8
1
  6
Continuous
100
AcDbLine
 10
122.994226
 20
234.1727189999998
 30
0.0
 11
122.994226
 21
230.172719
 31
0.0
  0
LINE
  5
97D7
330
95B9
100
AcDbEntity
  8
4
  6
CENTER
100
AcDbLine
 10
220.9942259999999
 20
220.4540479999999
 30
0.0
 11
220.9942259999999
 21
232.454048
 31
0.0
  0
LINE
  5
97D8
330
95B9
100
AcDbEntity
  8
4
  6
CENTER
100
AcDbLine
 10
110.9942259999999
 20
220.4540479999999
 30
0.0
 11
110.9942259999999
 21
232.454048
 31
0.0
  0
LINE
  5
97D9
330
95B9
100
AcDbEntity
  8
4
  6
CENTER
100
AcDbLine
 10
285.719263
 20
184.812119
 30
0.0
 11
297.719263
 21
184.812119
 31
0.0
  0
LINE
  5
97DA
330
95B9
100
AcDbEntity
  8
4
  6
CENTER
100
AcDbLine
 10
285.719263
 20
104.812119
 30
0.0
 11
297.719263
 21
104.812119
 31
0.0
  0
LINE
  5
97DB
330
95B9
100
AcDbEntity
  8
4
  6
CENTER
100
AcDbLine
 10
110.9942259999999
 20
55.997177
 30
0.0
 11
110.9942259999999
 21
67.99717700000001
 31
0.0
  0
LINE
  5
97DC
330
95B9
100
AcDbEntity
  8
4
  6
CENTER
100
AcDbLine
 10
220.9942259999999
 20
55.997177
 30
0.0
 11
220.9942259999999
 21
67.99717700000001
 31
0.0
  0
LINE
  5
97DD
330
95B9
100
AcDbEntity
  8
4
  6
CENTER
100
AcDbLine
 10
33.68226299999999
 20
104.812119
 30
0.0
 11
45.682263
 21
104.812119
 31
0.0
  0
LINE
  5
97DE
330
95B9
100
AcDbEntity
  8
4
  6
CENTER
100
AcDbLine
 10
33.68226299999999
 20
184.812119
 30
0.0
 11
45.682263
 21
184.812119
 31
0.0
  0
ENDSEC
  0
SECTION
  2
OBJECTS
  0
DICTIONARY
  5
95A7
330
0
100
AcDbDictionary
281
     1
  3
ACAD_CIP_PREVIOUS_PRODUCT_INFO
350
9844
  3
ACAD_COLOR
350
9826
  3
ACAD_DETAILVIEWSTYLE
350
983F
  3
ACAD_GROUP
350
95A8
  3
ACAD_LAYOUT
350
95B4
  3
ACAD_MATERIAL
350
97F4
  3
ACAD_MLEADERSTYLE
350
983B
  3
ACAD_MLINESTYLE
350
95B1
  3
ACAD_PLOTSETTINGS
350
95B3
  3
ACAD_PLOTSTYLENAME
350
97F2
  3
ACAD_SCALELIST
350
9829
  3
ACAD_SECTIONVIEWSTYLE
350
983D
  3
ACAD_TABLESTYLE
350
9827
  3
ACAD_VISUALSTYLE
350
980D
  3
ACDB_RECOMPOSE_DATA
350
9862
  3
AcDbVariableDictionary
350
9855
  3
DWGPROPS
350
9863
  0
DICTIONARY
  5
9845
330
95AB
100
AcDbDictionary
280
     1
281
     1
  3
ADSK_XREC_LAYER_RECONCILED
360
9846
  0
DICTIONARY
  5
9847
330
95C1
100
AcDbDictionary
280
     1
281
     1
  3
ADSK_XREC_LAYER_RECONCILED
360
9848
  0
DICTIONARY
  5
9849
330
95C2
100
AcDbDictionary
280
     1
281
     1
  3
ADSK_XREC_LAYER_RECONCILED
360
984A
  0
DICTIONARY
  5
984B
330
95C3
100
AcDbDictionary
280
     1
281
     1
  3
ADSK_XREC_LAYER_RECONCILED
360
984C
  0
DICTIONARY
  5
984D
330
95C4
100
AcDbDictionary
280
     1
281
     1
  3
ADSK_XREC_LAYER_RECONCILED
360
984E
  0
DICTIONARY
  5
984F
330
95C5
100
AcDbDictionary
280
     1
281
     1
  3
ADSK_XREC_LAYER_RECONCILED
360
9850
  0
DICTIONARY
  5
9851
330
95C6
100
AcDbDictionary
280
     1
281
     1
  3
ADSK_XREC_LAYER_RECONCILED
360
9852
  0
DICTIONARY
  5
9853
330
95C7
100
AcDbDictionary
280
     1
281
     1
  3
ADSK_XREC_LAYER_RECONCILED
360
9854
  0
DICTIONARY
  5
97ED
330
95B9
100
AcDbDictionary
281
     1
  3
ACAD_LAYOUTSELFREF
350
97EE
  0
DICTIONARY
  5
97EB
330
95B5
100
AcDbDictionary
281
     1
  3
ACAD_LAYOUTSELFREF
350
97EC
  0
XRECORD
  5
9844
102
{ACAD_REACTORS
330
95A7
102
}
330
95A7
100
AcDbXrecord
280
     1
300
ACDLT
300
2014
300
ACDLT_F_S
  0
DICTIONARY
  5
9826
102
{ACAD_REACTORS
330
95A7
102
}
330
95A7
100
AcDbDictionary
281
     1
  0
DICTIONARY
  5
983F
102
{ACAD_REACTORS
330
95A7
102
}
330
95A7
100
AcDbDictionary
281
     1
  3
Imperial24
350
9840
  0
DICTIONARY
  5
95A8
102
{ACAD_REACTORS
330
95A7
102
}
330
95A7
100
AcDbDictionary
281
     1
  0
DICTIONARY
  5
95B4
102
{ACAD_REACTORS
330
95A7
102
}
330
95A7
100
AcDbDictionary
281
     1
  3
Model
350
9841
  3
レイアウト1
350
9842
  0
DICTIONARY
  5
97F4
102
{ACAD_REACTORS
330
95A7
102
}
330
95A7
100
AcDbDictionary
281
     1
  3
ByBlock
350
97FD
  3
ByLayer
350
97F5
  3
Global
350
9805
  0
DICTIONARY
  5
983B
102
{ACAD_REACTORS
330
95A7
102
}
330
95A7
100
AcDbDictionary
281
     1
  3
Standard
350
983C
  0
DICTIONARY
  5
95B1
102
{ACAD_REACTORS
330
95A7
102
}
330
95A7
100
AcDbDictionary
281
     1
  3
STANDARD
350
95B2
  0
DICTIONARY
  5
95B3
102
{ACAD_REACTORS
330
95A7
102
}
330
95A7
100
AcDbDictionary
281
     1
  0
ACDBDICTIONARYWDFLT
  5
97F2
102
{ACAD_REACTORS
330
95A7
102
}
330
95A7
100
AcDbDictionary
281
     1
  3
Normal
350
97F3
100
AcDbDictionaryWithDefault
340
97F3
  0
DICTIONARY
  5
9829
102
{ACAD_REACTORS
330
95A7
102
}
330
95A7
100
AcDbDictionary
281
     1
  3
A0
350
982A
  3
A1
350
982B
  3
A2
350
982C
  3
A3
350
982D
  3
A4
350
982E
  3
A5
350
982F
  3
A6
350
9830
  3
A7
350
9831
  3
A8
350
9832
  3
A9
350
9833
  3
B0
350
9834
  3
B1
350
9835
  3
B2
350
9836
  3
B3
350
9837
  3
B4
350
9838
  3
B5
350
9839
  3
B6
350
983A
  0
DICTIONARY
  5
983D
102
{ACAD_REACTORS
330
95A7
102
}
330
95A7
100
AcDbDictionary
281
     1
  3
Imperial24
350
983E
  0
DICTIONARY
  5
9827
102
{ACAD_REACTORS
330
95A7
102
}
330
95A7
100
AcDbDictionary
281
     1
  3
Standard
350
9828
  0
DICTIONARY
  5
980D
102
{ACAD_REACTORS
330
95A7
102
}
330
95A7
100
AcDbDictionary
281
     1
  3
2dWireframe
350
9813
  3
Basic
350
9812
  3
Brighten
350
9819
  3
ColorChange
350
981D
  3
Conceptual
350
9816
  3
Dim
350
9818
  3
EdgeColorOff
350
9825
  3
Facepattern
350
981C
  3
Flat
350
980E
  3
FlatWithEdges
350
980F
  3
Gouraud
350
9810
  3
GouraudWithEdges
350
9811
  3
Hidden
350
9815
  3
JitterOff
350
9823
  3
Linepattern
350
981B
  3
OverhangOff
350
9824
  3
Realistic
350
9817
  3
Shaded
350
9822
  3
Shaded with edges
350
9821
  3
Shades of Gray
350
981E
  3
Sketchy
350
981F
  3
Thicken
350
981A
  3
Wireframe
350
9814
  3
X-Ray
350
9820
  0
XRECORD
  5
9862
102
{ACAD_REACTORS
330
95A7
102
}
330
95A7
100
AcDbXrecord
280
     1
 90
        1
330
9828
  0
DICTIONARY
  5
9855
102
{ACAD_REACTORS
330
95A7
102
}
330
95A7
100
AcDbDictionary
281
     1
  3
CANNOSCALE
350
985A
  3
CMLEADERSTYLE
350
9857
  3
CTABLESTYLE
350
9856
  3
CVIEWDETAILSTYLE
350
9858
  3
CVIEWSECTIONSTYLE
350
9859
  3
DIMASSOC
350
985D
  3
INDEXCTL
350
985C
  3
SORTENTS
350
985B
  3
XCLIPFRAME
350
985E
  0
XRECORD
  5
9863
102
{ACAD_REACTORS
330
95A7
102
}
330
95A7
100
AcDbXrecord
280
     1
  1
DWGPROPS COOKIE
  2

  3

  4

  6

  7

  8
Yoshitsune
  9

300
=
301
=
302
=
303
=
304
=
305
=
306
=
307
=
308
=
309
=
 40
0.0000140509259259
 41
2450737.745274653
 42
2457192.639128553
  1

 90
        0
  0
XRECORD
  5
9846
102
{ACAD_REACTORS
330
9845
102
}
330
9845
100
AcDbXrecord
280
     1
290
     1
  0
XRECORD
  5
9848
102
{ACAD_REACTORS
330
9847
102
}
330
9847
100
AcDbXrecord
280
     1
290
     1
  0
XRECORD
  5
984A
102
{ACAD_REACTORS
330
9849
102
}
330
9849
100
AcDbXrecord
280
     1
290
     1
  0
XRECORD
  5
984C
102
{ACAD_REACTORS
330
984B
102
}
330
984B
100
AcDbXrecord
280
     1
290
     1
  0
XRECORD
  5
984E
102
{ACAD_REACTORS
330
984D
102
}
330
984D
100
AcDbXrecord
280
     1
290
     1
  0
XRECORD
  5
9850
102
{ACAD_REACTORS
330
984F
102
}
330
984F
100
AcDbXrecord
280
     1
290
     1
  0
XRECORD
  5
9852
102
{ACAD_REACTORS
330
9851
102
}
330
9851
100
AcDbXrecord
280
     1
290
     1
  0
XRECORD
  5
9854
102
{ACAD_REACTORS
330
9853
102
}
330
9853
100
AcDbXrecord
280
     1
290
     1
  0
XRECORD
  5
97EE
102
{ACAD_REACTORS
330
97ED
102
}
330
97ED
100
AcDbXrecord
280
     1
340
95B9
  0
XRECORD
  5
97EC
102
{ACAD_REACTORS
330
97EB
102
}
330
97EB
100
AcDbXrecord
280
     1
340
95B5
  0
ACDBDETAILVIEWSTYLE
  5
9840
102
{ACAD_XDICTIONARY
360
989B
102
}
102
{ACAD_REACTORS
330
983F
102
}
330
983F
100
AcDbModelDocViewStyle
 70
     0
  3
Imperial24
290
     0
100
AcDbDetailViewStyle
 70
     0
 71
     0
 90
        3
 71
     1
340
95AC
 40
0.24
340
0
 40
0.24
300

 40
0.36
280
     3
 71
     2
340
95B0
 90
       25
 71
     3
340
95AC
 40
0.24
 90
        1
 40
0.75
 90
        1
300
%<\AcVar ViewType \f "%tc1">% %<\AcVar ViewDetailId>%\PSCALE %<\AcVar ViewScale \f "%sn">%
 71
     4
340
95B0
 90
       25
340
95B0
 90
       25
280
     0
  0
LAYOUT
  5
9841
102
{ACAD_XDICTIONARY
360
989D
102
}
102
{ACAD_REACTORS
330
95B4
102
}
330
95B4
100
AcDbPlotSettings
  1

  2
Canon LBP9100C
  4

  6

 40
0.0
 41
0.0
 42
0.0
 43
0.0
 44
0.0
 45
0.0
 46
0.0
 47
0.0
 48
0.0
 49
0.0
140
0.0
141
0.0
142
1.0
143
1.0
 70
  1712
 72
     0
 73
     0
 74
     0
  7

 75
     0
147
1.0
148
0.0
149
0.0
100
AcDbLayout
  1
Model
 70
     1
 71
     0
 10
0.0
 20
0.0
 11
12.0
 21
9.0
 12
0.0
 22
0.0
 32
0.0
 14
0.0
 24
0.0
 34
0.0
 15
0.0
 25
0.0
 35
0.0
146
0.0
 13
0.0
 23
0.0
 33
0.0
 16
1.0
 26
0.0
 36
0.0
 17
0.0
 27
1.0
 37
0.0
 76
     0
330
95B9
331
97EA
  0
LAYOUT
  5
9842
102
{ACAD_XDICTIONARY
360
989F
102
}
102
{ACAD_REACTORS
330
95B4
102
}
330
95B4
100
AcDbPlotSettings
  1

  2
Canon LBP9100C
  4

  6

 40
0.0
 41
0.0
 42
0.0
 43
0.0
 44
0.0
 45
0.0
 46
0.0
 47
0.0
 48
0.0
 49
0.0
140
0.0
141
0.0
142
1.0
143
1.0
 70
   688
 72
     0
 73
     0
 74
     5
  7

 75
    16
147
1.0
148
0.0
149
0.0
100
AcDbLayout
  1
レイアウト1
 70
     0
 71
     1
 10
0.0
 20
0.0
 11
420.0
 21
297.0
 12
0.0
 22
0.0
 32
0.0
 14
1.000000000000000E+20
 24
1.000000000000000E+20
 34
1.000000000000000E+20
 15
-1.000000000000000E+20
 25
-1.000000000000000E+20
 35
-1.000000000000000E+20
146
0.0
 13
0.0
 23
0.0
 33
0.0
 16
1.0
 26
0.0
 36
0.0
 17
0.0
 27
1.0
 37
0.0
 76
     0
330
95B5
  0
MATERIAL
  5
97FD
102
{ACAD_XDICTIONARY
360
97FE
102
}
102
{ACAD_REACTORS
330
97F4
102
}
330
97F4
100
AcDbMaterial
  1
ByBlock
 72
     0
 43
0.0208333333333333
 43
0.0
 43
0.0
 43
0.0
 43
0.0
 43
0.0208333333333333
 43
0.0
 43
0.0
 43
0.0
 43
0.0
 43
1.0
 43
0.0
 43
0.0
 43
0.0
 43
0.0
 43
1.0
 77
     0
 47
0.0208333333333333
 47
0.0
 47
0.0
 47
0.0
 47
0.0
 47
0.0208333333333333
 47
0.0
 47
0.0
 47
0.0
 47
0.0
 47
1.0
 47
0.0
 47
0.0
 47
0.0
 47
0.0
 47
1.0
171
     0
 49
0.0208333333333333
 49
0.0
 49
0.0
 49
0.0
 49
0.0
 49
0.0208333333333333
 49
0.0
 49
0.0
 49
0.0
 49
0.0
 49
1.0
 49
0.0
 49
0.0
 49
0.0
 49
0.0
 49
1.0
175
     0
142
0.0208333333333333
142
0.0
142
0.0
142
0.0
142
0.0
142
0.0208333333333333
142
0.0
142
0.0
142
0.0
142
0.0
142
1.0
142
0.0
142
0.0
142
0.0
142
0.0
142
1.0
179
     0
144
0.0208333333333333
144
0.0
144
0.0
144
0.0
144
0.0
144
0.0208333333333333
144
0.0
144
0.0
144
0.0
144
0.0
144
1.0
144
0.0
144
0.0
144
0.0
144
0.0
144
1.0
147
0.0208333333333333
147
0.0
147
0.0
147
0.0
147
0.0
147
0.0208333333333333
147
0.0
147
0.0
147
0.0
147
0.0
147
1.0
147
0.0
147
0.0
147
0.0
147
0.0
147
1.0
  0
MATERIAL
  5
97F5
102
{ACAD_XDICTIONARY
360
97F6
102
}
102
{ACAD_REACTORS
330
97F4
102
}
330
97F4
100
AcDbMaterial
  1
ByLayer
 72
     0
 43
0.0208333333333333
 43
0.0
 43
0.0
 43
0.0
 43
0.0
 43
0.0208333333333333
 43
0.0
 43
0.0
 43
0.0
 43
0.0
 43
1.0
 43
0.0
 43
0.0
 43
0.0
 43
0.0
 43
1.0
 77
     0
 47
0.0208333333333333
 47
0.0
 47
0.0
 47
0.0
 47
0.0
 47
0.0208333333333333
 47
0.0
 47
0.0
 47
0.0
 47
0.0
 47
1.0
 47
0.0
 47
0.0
 47
0.0
 47
0.0
 47
1.0
171
     0
 49
0.0208333333333333
 49
0.0
 49
0.0
 49
0.0
 49
0.0
 49
0.0208333333333333
 49
0.0
 49
0.0
 49
0.0
 49
0.0
 49
1.0
 49
0.0
 49
0.0
 49
0.0
 49
0.0
 49
1.0
175
     0
142
0.0208333333333333
142
0.0
142
0.0
142
0.0
142
0.0
142
0.0208333333333333
142
0.0
142
0.0
142
0.0
142
0.0
142
1.0
142
0.0
142
0.0
142
0.0
142
0.0
142
1.0
179
     0
144
0.0208333333333333
144
0.0
144
0.0
144
0.0
144
0.0
144
0.0208333333333333
144
0.0
144
0.0
144
0.0
144
0.0
144
1.0
144
0.0
144
0.0
144
0.0
144
0.0
144
1.0
147
0.0208333333333333
147
0.0
147
0.0
147
0.0
147
0.0
147
0.0208333333333333
147
0.0
147
0.0
147
0.0
147
0.0
147
1.0
147
0.0
147
0.0
147
0.0
147
0.0
147
1.0
  0
MATERIAL
  5
9805
102
{ACAD_XDICTIONARY
360
9806
102
}
102
{ACAD_REACTORS
330
97F4
102
}
330
97F4
100
AcDbMaterial
  1
Global
 72
     0
 43
0.0208333333333333
 43
0.0
 43
0.0
 43
0.0
 43
0.0
 43
0.0208333333333333
 43
0.0
 43
0.0
 43
0.0
 43
0.0
 43
1.0
 43
0.0
 43
0.0
 43
0.0
 43
0.0
 43
1.0
 77
     0
 47
0.0208333333333333
 47
0.0
 47
0.0
 47
0.0
 47
0.0
 47
0.0208333333333333
 47
0.0
 47
0.0
 47
0.0
 47
0.0
 47
1.0
 47
0.0
 47
0.0
 47
0.0
 47
0.0
 47
1.0
171
     0
 49
0.0208333333333333
 49
0.0
 49
0.0
 49
0.0
 49
0.0
 49
0.0208333333333333
 49
0.0
 49
0.0
 49
0.0
 49
0.0
 49
1.0
 49
0.0
 49
0.0
 49
0.0
 49
0.0
 49
1.0
175
     0
142
0.0208333333333333
142
0.0
142
0.0
142
0.0
142
0.0
142
0.0208333333333333
142
0.0
142
0.0
142
0.0
142
0.0
142
1.0
142
0.0
142
0.0
142
0.0
142
0.0
142
1.0
179
     0
144
0.0208333333333333
144
0.0
144
0.0
144
0.0
144
0.0
144
0.0208333333333333
144
0.0
144
0.0
144
0.0
144
0.0
144
1.0
144
0.0
144
0.0
144
0.0
144
0.0
144
1.0
147
0.0208333333333333
147
0.0
147
0.0
147
0.0
147
0.0
147
0.0208333333333333
147
0.0
147
0.0
147
0.0
147
0.0
147
1.0
147
0.0
147
0.0
147
0.0
147
0.0
147
1.0
  0
MLEADERSTYLE
  5
983C
102
{ACAD_REACTORS
330
983B
102
}
330
983B
100
AcDbMLeaderStyle
170
     2
171
     1
172
     0
 90
        2
 40
0.0
 41
0.0
173
     1
 91
-1056964608
340
95AE
 92
       -2
290
     1
 42
0.09
291
     1
 43
0.36
  3
Standard
 44
0.18
300

342
95AC
174
     1
178
     6
175
     1
176
     0
 93
-1056964608
 45
0.18
292
     0
297
     0
 46
0.18
 94
-1056964608
 47
1.0
 49
1.0
140
1.0
293
     1
141
0.0
294
     1
177
     0
142
1.0
295
     0
296
     0
143
0.125
1001
ACAD_MLEADERVER
1070
     2
  0
MLINESTYLE
  5
95B2
102
{ACAD_REACTORS
330
95B1
102
}
330
95B1
100
AcDbMlineStyle
  2
STANDARD
 70
     0
  3

 62
   256
 51
90.0
 52
90.0
 71
     2
 49
0.5
 62
   256
  6
BYLAYER
 49
-0.5
 62
   256
  6
BYLAYER
  0
ACDBPLACEHOLDER
  5
97F3
102
{ACAD_REACTORS
330
97F2
102
}
330
97F2
  0
SCALE
  5
982A
102
{ACAD_REACTORS
330
9829
102
}
330
9829
100
AcDbScale
 70
     0
300
1:1
140
1.0
141
1.0
290
     1
  0
SCALE
  5
982B
102
{ACAD_REACTORS
330
9829
102
}
330
9829
100
AcDbScale
 70
     0
300
1/128" = 1'-0"
140
0.0078125
141
12.0
290
     0
  0
SCALE
  5
982C
102
{ACAD_REACTORS
330
9829
102
}
330
9829
100
AcDbScale
 70
     0
300
1/64" = 1'-0"
140
0.015625
141
12.0
290
     0
  0
SCALE
  5
982D
102
{ACAD_REACTORS
330
9829
102
}
330
9829
100
AcDbScale
 70
     0
300
1/32" = 1'-0"
140
0.03125
141
12.0
290
     0
  0
SCALE
  5
982E
102
{ACAD_REACTORS
330
9829
102
}
330
9829
100
AcDbScale
 70
     0
300
1/16" = 1'-0"
140
0.0625
141
12.0
290
     0
  0
SCALE
  5
982F
102
{ACAD_REACTORS
330
9829
102
}
330
9829
100
AcDbScale
 70
     0
300
3/32" = 1'-0"
140
0.09375
141
12.0
290
     0
  0
SCALE
  5
9830
102
{ACAD_REACTORS
330
9829
102
}
330
9829
100
AcDbScale
 70
     0
300
1/8" = 1'-0"
140
0.125
141
12.0
290
     0
  0
SCALE
  5
9831
102
{ACAD_REACTORS
330
9829
102
}
330
9829
100
AcDbScale
 70
     0
300
3/16" = 1'-0"
140
0.1875
141
12.0
290
     0
  0
SCALE
  5
9832
102
{ACAD_REACTORS
330
9829
102
}
330
9829
100
AcDbScale
 70
     0
300
1/4" = 1'-0"
140
0.25
141
12.0
290
     0
  0
SCALE
  5
9833
102
{ACAD_REACTORS
330
9829
102
}
330
9829
100
AcDbScale
 70
     0
300
3/8" = 1'-0"
140
0.375
141
12.0
290
     0
  0
SCALE
  5
9834
102
{ACAD_REACTORS
330
9829
102
}
330
9829
100
AcDbScale
 70
     0
300
1/2" = 1'-0"
140
0.5
141
12.0
290
     0
  0
SCALE
  5
9835
102
{ACAD_REACTORS
330
9829
102
}
330
9829
100
AcDbScale
 70
     0
300
3/4" = 1'-0"
140
0.75
141
12.0
290
     0
  0
SCALE
  5
9836
102
{ACAD_REACTORS
330
9829
102
}
330
9829
100
AcDbScale
 70
     0
300
1" = 1'-0"
140
1.0
141
12.0
290
     0
  0
SCALE
  5
9837
102
{ACAD_REACTORS
330
9829
102
}
330
9829
100
AcDbScale
 70
     0
300
1-1/2" = 1'-0"
140
1.5
141
12.0
290
     0
  0
SCALE
  5
9838
102
{ACAD_REACTORS
330
9829
102
}
330
9829
100
AcDbScale
 70
     0
300
3" = 1'-0"
140
3.0
141
12.0
290
     0
  0
SCALE
  5
9839
102
{ACAD_REACTORS
330
9829
102
}
330
9829
100
AcDbScale
 70
     0
300
6" = 1'-0"
140
6.0
141
12.0
290
     0
  0
SCALE
  5
983A
102
{ACAD_REACTORS
330
9829
102
}
330
9829
100
AcDbScale
 70
     0
300
1'-0" = 1'-0"
140
12.0
141
12.0
290
     0
  0
ACDBSECTIONVIEWSTYLE
  5
983E
102
{ACAD_XDICTIONARY
360
9899
102
}
102
{ACAD_REACTORS
330
983D
102
}
330
983D
100
AcDbModelDocViewStyle
 70
     0
  3
Imperial24
290
     0
100
AcDbSectionViewStyle
 70
     0
 71
     0
 90
       78
 71
     1
340
95AC
 40
0.24
340
0
340
0
 40
0.24
300
I, O, Q, S, X, Z
 40
0.48
 90
        3
 40
0.18
 90
        1
 71
     2
340
95B0
 90
       25
340
95B0
 90
       50
 40
0.24
 40
0.0
 40
0.24
 71
     3
340
95AC
 40
0.24
 90
        1
 40
0.75
 90
        1
300
%<\AcVar ViewType \f "%tc1">% %<\AcVar ViewSectionStartId>%-%<\AcVar ViewSectionEndId>%\PSCALE %<\AcVar ViewScale \f "%sn">%
 71
     4
300
ANSI31
 40
1.0
 90
        0
290
     0
290
     0
 90
        6
 40
0.0
 40
1.570796326794896
 40
0.2617993877991494
 40
1.308996938995747
 40
-0.2617993877991494
 40
1.832595714594046
  0
TABLESTYLE
  5
9828
102
{ACAD_XDICTIONARY
360
9860
102
}
102
{ACAD_REACTORS
330
9827
102
}
330
9827
100
AcDbTableStyle
  3
Standard
 70
     0
 71
     0
 40
0.06
 41
0.06
280
     0
281
     0
  7
STANDARD
140
0.18
170
     2
 62
     0
 63
     7
283
     0
274
    -2
284
     1
 64
     0
275
    -2
285
     1
 65
     0
276
    -2
286
     1
 66
     0
277
    -2
287
     1
 67
     0
278
    -2
288
     1
 68
     0
279
    -2
289
     1
 69
     0
  7
STANDARD
140
0.25
170
     5
 62
     0
 63
     7
283
     0
274
    -2
284
     1
 64
     0
275
    -2
285
     1
 65
     0
276
    -2
286
     1
 66
     0
277
    -2
287
     1
 67
     0
278
    -2
288
     1
 68
     0
279
    -2
289
     1
 69
     0
  7
STANDARD
140
0.18
170
     5
 62
     0
 63
     7
283
     0
274
    -2
284
     1
 64
     0
275
    -2
285
     1
 65
     0
276
    -2
286
     1
 66
     0
277
    -2
287
     1
 67
     0
278
    -2
288
     1
 68
     0
279
    -2
289
     1
 69
     0
  0
VISUALSTYLE
  5
9813
102
{ACAD_XDICTIONARY
360
9871
102
}
102
{ACAD_REACTORS
330
980D
102
}
330
980D
100
AcDbVisualStyle
  2
2dWireframe
 70
     4
 71
     0
 72
     2
 73
     0
 90
        0
 40
-0.6
 41
-30.0
 62
     5
 63
     7
 74
     1
 91
        4
 64
     7
 65
   257
 75
     1
175
     1
 42
1.0
 92
        0
 66
   257
 43
1.0
 76
     1
 77
     6
 78
     2
 67
     7
 79
     5
170
     0
171
     0
290
     0
174
     0
 93
        1
 44
0.0
173
     0
291
     0
 45
0.0
1001
ACAD
1000
AcDbSavedByObjectVersion
1070
     0
  0
VISUALSTYLE
  5
9812
102
{ACAD_XDICTIONARY
360
986F
102
}
102
{ACAD_REACTORS
330
980D
102
}
330
980D
100
AcDbVisualStyle
  2
Basic
 70
     7
 71
     1
 72
     0
 73
     1
 90
        0
 40
-0.6
 41
-30.0
 62
     5
 63
     7
 74
     0
 91
        4
 64
     7
 65
   257
 75
     1
175
     1
 42
1.0
 92
        8
 66
     7
 43
1.0
 76
     1
 77
     6
 78
     2
 67
     7
 79
     5
170
     0
171
     0
290
     0
174
     0
 93
        1
 44
0.0
173
     0
291
     1
 45
0.0
1001
ACAD
1000
AcDbSavedByObjectVersion
1070
     0
  0
VISUALSTYLE
  5
9819
102
{ACAD_XDICTIONARY
360
987D
102
}
102
{ACAD_REACTORS
330
980D
102
}
330
980D
100
AcDbVisualStyle
  2
Brighten
 70
    12
 71
     2
 72
     2
 73
     0
 90
        0
 40
-0.6
 41
-30.0
 62
     5
 63
     7
 74
     1
 91
        4
 64
     7
 65
   257
 75
     1
175
     1
 42
1.0
 92
        8
 66
     7
 43
1.0
 76
     1
 77
     6
 78
     2
 67
     7
 79
     5
170
     0
171
     0
290
     0
174
     0
 93
        1
 44
50.0
173
     0
291
     1
 45
0.0
1001
ACAD
1000
AcDbSavedByObjectVersion
1070
     0
  0
VISUALSTYLE
  5
981D
102
{ACAD_XDICTIONARY
360
9885
102
}
102
{ACAD_REACTORS
330
980D
102
}
330
980D
100
AcDbVisualStyle
  2
ColorChange
 70
    16
 71
     2
 72
     2
 73
     3
 90
        0
 40
-0.6
 41
-30.0
 62
     5
 63
     8
 74
     1
 91
        4
 64
     7
 65
   257
 75
     1
175
     1
 42
1.0
 92
        8
 66
     8
 43
1.0
 76
     1
 77
     6
 78
     2
 67
     7
 79
     5
170
     0
171
     0
290
     0
174
     0
 93
        1
 44
0.0
173
     0
291
     1
 45
0.0
1001
ACAD
1000
AcDbSavedByObjectVersion
1070
     0
  0
VISUALSTYLE
  5
9816
102
{ACAD_XDICTIONARY
360
9877
102
}
102
{ACAD_REACTORS
330
980D
102
}
330
980D
100
AcDbVisualStyle
  2
Conceptual
 70
     9
 71
     3
 72
     2
 73
     0
 90
        0
 40
-0.6
 41
-30.0
 62
     5
 63
     7
 74
     2
 91
        2
 64
     7
 65
   257
 75
     1
175
     1
 42
179.0
 92
        8
 66
     7
 43
1.0
 76
     1
 77
     6
 78
     2
 67
     7
 79
     3
170
     0
171
     0
290
     0
174
     0
 93
        1
 44
0.0
173
     0
291
     0
 45
0.0
1001
ACAD
1000
AcDbSavedByObjectVersion
1070
     0
  0
VISUALSTYLE
  5
9818
102
{ACAD_XDICTIONARY
360
987B
102
}
102
{ACAD_REACTORS
330
980D
102
}
330
980D
100
AcDbVisualStyle
  2
Dim
 70
    11
 71
     2
 72
     2
 73
     0
 90
        0
 40
-0.6
 41
-30.0
 62
     5
 63
     7
 74
     1
 91
        4
 64
     7
 65
   257
 75
     1
175
     1
 42
1.0
 92
        8
 66
     7
 43
1.0
 76
     1
 77
     6
 78
     2
 67
     7
 79
     5
170
     0
171
     0
290
     0
174
     0
 93
        1
 44
-50.0
173
     0
291
     1
 45
0.0
1001
ACAD
1000
AcDbSavedByObjectVersion
1070
     0
  0
VISUALSTYLE
  5
9825
102
{ACAD_XDICTIONARY
360
9895
102
}
102
{ACAD_REACTORS
330
980D
102
}
330
980D
100
AcDbVisualStyle
  2
EdgeColorOff
 70
    22
 71
     2
 72
     2
 73
     0
 90
        0
 40
-0.6
 41
-30.0
 62
     5
 63
     7
 74
     1
 91
        4
 64
     7
 65
   257
 75
     1
175
     1
 42
1.0
 92
        8
 66
     7
 43
1.0
 76
     1
 77
     6
 78
     2
 67
     7
 79
     5
170
     0
171
     0
290
     0
174
     0
 93
        1
 44
0.0
173
     0
291
     1
 45
0.0
1001
ACAD
1000
AcDbSavedByObjectVersion
1070
     0
  0
VISUALSTYLE
  5
981C
102
{ACAD_XDICTIONARY
360
9883
102
}
102
{ACAD_REACTORS
330
980D
102
}
330
980D
100
AcDbVisualStyle
  2
Facepattern
 70
    15
 71
     2
 72
     2
 73
     0
 90
        0
 40
-0.6
 41
-30.0
 62
     5
 63
     7
 74
     1
 91
        4
 64
     7
 65
   257
 75
     1
175
     1
 42
1.0
 92
        8
 66
     7
 43
1.0
 76
     1
 77
     6
 78
     2
 67
     7
 79
     5
170
     0
171
     0
290
     0
174
     0
 93
        1
 44
0.0
173
     0
291
     1
 45
0.0
1001
ACAD
1000
AcDbSavedByObjectVersion
1070
     0
  0
VISUALSTYLE
  5
980E
102
{ACAD_XDICTIONARY
360
9867
102
}
102
{ACAD_REACTORS
330
980D
102
}
330
980D
100
AcDbVisualStyle
  2
Flat
 70
     0
 71
     2
 72
     1
 73
     1
 90
        2
 40
-0.6
 41
30.0
 62
     5
 63
     7
 74
     0
 91
        0
 64
     7
 65
   257
 75
     1
175
     1
 42
1.0
 92
        8
 66
     7
 43
1.0
 76
     1
 77
     6
 78
     2
 67
     7
 79
     5
170
     0
171
     0
290
     0
174
     0
 93
       13
 44
0.0
173
     0
291
     1
 45
0.0
1001
ACAD
1000
AcDbSavedByObjectVersion
1070
     0
  0
VISUALSTYLE
  5
980F
102
{ACAD_XDICTIONARY
360
9869
102
}
102
{ACAD_REACTORS
330
980D
102
}
330
980D
100
AcDbVisualStyle
  2
FlatWithEdges
 70
     1
 71
     2
 72
     1
 73
     1
 90
        2
 40
-0.6
 41
30.0
 62
     5
 63
     7
 74
     1
 91
        0
 64
     7
 65
   257
 75
     1
175
     1
 42
1.0
 92
        0
 66
   257
 43
1.0
 76
     1
 77
     6
 78
     2
 67
     7
 79
     5
170
     0
171
     0
290
     0
174
     0
 93
       13
 44
0.0
173
     0
291
     1
 45
0.0
1001
ACAD
1000
AcDbSavedByObjectVersion
1070
     0
  0
VISUALSTYLE
  5
9810
102
{ACAD_XDICTIONARY
360
986B
102
}
102
{ACAD_REACTORS
330
980D
102
}
330
980D
100
AcDbVisualStyle
  2
Gouraud
 70
     2
 71
     2
 72
     2
 73
     1
 90
        2
 40
-0.6
 41
30.0
 62
     5
 63
     7
 74
     0
 91
        0
 64
     7
 65
   257
 75
     1
175
     1
 42
1.0
 92
        0
 66
     7
 43
1.0
 76
     1
 77
     6
 78
     2
 67
     7
 79
     5
170
     0
171
     0
290
     0
174
     0
 93
       13
 44
0.0
173
     0
291
     1
 45
0.0
1001
ACAD
1000
AcDbSavedByObjectVersion
1070
     0
  0
VISUALSTYLE
  5
9811
102
{ACAD_XDICTIONARY
360
986D
102
}
102
{ACAD_REACTORS
330
980D
102
}
330
980D
100
AcDbVisualStyle
  2
GouraudWithEdges
 70
     3
 71
     2
 72
     2
 73
     1
 90
        2
 40
-0.6
 41
30.0
 62
     5
 63
     7
 74
     1
 91
        0
 64
     7
 65
   257
 75
     1
175
     1
 42
1.0
 92
        0
 66
   257
 43
1.0
 76
     1
 77
     6
 78
     2
 67
     7
 79
     5
170
     0
171
     0
290
     0
174
     0
 93
       13
 44
0.0
173
     0
291
     1
 45
0.0
1001
ACAD
1000
AcDbSavedByObjectVersion
1070
     0
  0
VISUALSTYLE
  5
9815
102
{ACAD_XDICTIONARY
360
9875
102
}
102
{ACAD_REACTORS
330
980D
102
}
330
980D
100
AcDbVisualStyle
  2
Hidden
 70
     6
 71
     1
 72
     2
 73
     2
 90
        0
 40
-0.6
 41
-30.0
 62
     5
 63
     7
 74
     2
 91
        2
 64
     7
 65
   257
 75
     2
175
     1
 42
40.0
 92
        0
 66
   257
 43
1.0
 76
     1
 77
     6
 78
     2
 67
     7
 79
     3
170
     0
171
     0
290
     0
174
     0
 93
        1
 44
0.0
173
     0
291
     0
 45
0.0
1001
ACAD
1000
AcDbSavedByObjectVersion
1070
     0
  0
VISUALSTYLE
  5
9823
102
{ACAD_XDICTIONARY
360
9891
102
}
102
{ACAD_REACTORS
330
980D
102
}
330
980D
100
AcDbVisualStyle
  2
JitterOff
 70
    20
 71
     2
 72
     2
 73
     0
 90
        0
 40
-0.6
 41
-30.0
 62
     5
 63
     7
 74
     1
 91
        4
 64
     7
 65
   257
 75
     1
175
     1
 42
1.0
 92
       10
 66
     7
 43
1.0
 76
     1
 77
     6
 78
     2
 67
     7
 79
     5
170
     0
171
     0
290
     0
174
     0
 93
        1
 44
0.0
173
     0
291
     1
 45
0.0
1001
ACAD
1000
AcDbSavedByObjectVersion
1070
     0
  0
VISUALSTYLE
  5
981B
102
{ACAD_XDICTIONARY
360
9881
102
}
102
{ACAD_REACTORS
330
980D
102
}
330
980D
100
AcDbVisualStyle
  2
Linepattern
 70
    14
 71
     2
 72
     2
 73
     0
 90
        0
 40
-0.6
 41
-30.0
 62
     5
 63
     7
 74
     1
 91
        4
 64
     7
 65
   257
 75
     7
175
     7
 42
1.0
 92
        8
 66
     7
 43
1.0
 76
     1
 77
     6
 78
     2
 67
     7
 79
     5
170
     0
171
     0
290
     0
174
     0
 93
        1
 44
0.0
173
     0
291
     1
 45
0.0
1001
ACAD
1000
AcDbSavedByObjectVersion
1070
     0
  0
VISUALSTYLE
  5
9824
102
{ACAD_XDICTIONARY
360
9893
102
}
102
{ACAD_REACTORS
330
980D
102
}
330
980D
100
AcDbVisualStyle
  2
OverhangOff
 70
    21
 71
     2
 72
     2
 73
     0
 90
        0
 40
-0.6
 41
-30.0
 62
     5
 63
     7
 74
     1
 91
        4
 64
     7
 65
   257
 75
     1
175
     1
 42
1.0
 92
        9
 66
     7
 43
1.0
 76
     1
 77
     6
 78
     2
 67
     7
 79
     5
170
     0
171
     0
290
     0
174
     0
 93
        1
 44
0.0
173
     0
291
     1
 45
0.0
1001
ACAD
1000
AcDbSavedByObjectVersion
1070
     0
  0
VISUALSTYLE
  5
9817
102
{ACAD_XDICTIONARY
360
9879
102
}
102
{ACAD_REACTORS
330
980D
102
}
330
980D
100
AcDbVisualStyle
  2
Realistic
 70
     8
 71
     2
 72
     3
 73
     0
 90
        2
 40
-0.6
 41
30.0
 62
     5
 63
     7
 74
     0
 91
        0
 64
     7
 65
   257
 75
     1
175
     1
 42
1.0
 92
        8
 66
   257
 43
1.0
 76
     1
 77
     6
 78
     2
 67
     7
 79
     3
170
     0
171
     0
290
     0
174
     0
 93
       13
 44
0.0
173
     0
291
     0
 45
0.0
1001
ACAD
1000
AcDbSavedByObjectVersion
1070
     0
  0
VISUALSTYLE
  5
9822
102
{ACAD_XDICTIONARY
360
988F
102
}
102
{ACAD_REACTORS
330
980D
102
}
330
980D
100
AcDbVisualStyle
  2
Shaded
 70
    27
 71
     2
 72
     2
 73
     1
 90
        2
 40
-0.6
 41
30.0
 62
     5
 63
     7
 74
     0
 91
        4
 64
     7
 65
   257
 75
     1
175
     1
 42
1.0
 92
        8
 66
   257
 43
1.0
 76
     1
 77
     6
 78
     2
 67
     8
 79
     3
170
     0
171
     0
290
     0
174
     0
 93
        5
 44
0.0
173
     0
291
     0
 45
0.0
1001
ACAD
1000
AcDbSavedByObjectVersion
1070
     0
  0
VISUALSTYLE
  5
9821
102
{ACAD_XDICTIONARY
360
988D
102
}
102
{ACAD_REACTORS
330
980D
102
}
330
980D
100
AcDbVisualStyle
  2
Shaded with edges
 70
    26
 71
     2
 72
     2
 73
     1
 90
        2
 40
-0.6
 41
30.0
 62
     5
 63
     7
 74
     1
 91
       10
 64
     7
 65
   257
 75
     2
175
     1
 42
1.0
 92
        8
 66
   257
 43
1.0
 76
     1
 77
     6
 78
     2
 67
     7
 79
     3
170
     0
171
     0
290
     0
174
     0
 93
        5
 44
0.0
173
     0
291
     0
 45
0.0
1001
ACAD
1000
AcDbSavedByObjectVersion
1070
     0
  0
VISUALSTYLE
  5
981E
102
{ACAD_XDICTIONARY
360
9887
102
}
102
{ACAD_REACTORS
330
980D
102
}
330
980D
100
AcDbVisualStyle
  2
Shades of Gray
 70
    23
 71
     2
 72
     2
 73
     3
 90
        0
 40
-0.6
 41
-30.0
 62
     5
 63
     7
 74
     2
 91
        2
 64
     7
 65
     7
 75
     1
175
     1
 42
40.0
 92
        8
 66
     7
 43
1.0
 76
     1
 77
     6
 78
     2
 67
     7
 79
     3
170
     0
171
     0
290
     0
174
     0
 93
        1
 44
0.0
173
     0
291
     0
 45
0.0
1001
ACAD
1000
AcDbSavedByObjectVersion
1070
     0
  0
VISUALSTYLE
  5
981F
102
{ACAD_XDICTIONARY
360
9889
102
}
102
{ACAD_REACTORS
330
980D
102
}
330
980D
100
AcDbVisualStyle
  2
Sketchy
 70
    24
 71
     1
 72
     2
 73
     2
 90
        0
 40
-0.6
 41
-30.0
 62
     5
 63
     7
 74
     2
 91
        2
 64
     7
 65
     7
 75
     1
175
     1
 42
40.0
 92
       11
 66
     7
 43
1.0
 76
     1
 77
     6
 78
     2
 67
     7
 79
     6
170
     0
171
     0
290
     0
174
     0
 93
        1
 44
0.0
173
     0
291
     0
 45
0.0
1001
ACAD
1000
AcDbSavedByObjectVersion
1070
     0
  0
VISUALSTYLE
  5
981A
102
{ACAD_XDICTIONARY
360
987F
102
}
102
{ACAD_REACTORS
330
980D
102
}
330
980D
100
AcDbVisualStyle
  2
Thicken
 70
    13
 71
     2
 72
     2
 73
     0
 90
        0
 40
-0.6
 41
-30.0
 62
     5
 63
     7
 74
     1
 91
        4
 64
     7
 65
   257
 75
     1
175
     1
 42
1.0
 92
       12
 66
     7
 43
1.0
 76
     1
 77
     6
 78
     2
 67
     7
 79
     5
170
     0
171
     0
290
     0
174
     0
 93
        1
 44
0.0
173
     0
291
     1
 45
0.0
1001
ACAD
1000
AcDbSavedByObjectVersion
1070
     0
  0
VISUALSTYLE
  5
9814
102
{ACAD_XDICTIONARY
360
9873
102
}
102
{ACAD_REACTORS
330
980D
102
}
330
980D
100
AcDbVisualStyle
  2
Wireframe
 70
     5
 71
     0
 72
     2
 73
     0
 90
        0
 40
-0.6
 41
-30.0
 62
     5
 63
     7
 74
     1
 91
        4
 64
     7
 65
   257
 75
     1
175
     1
 42
1.0
 92
        0
 66
   257
 43
1.0
 76
     1
 77
     6
 78
     2
 67
     7
 79
     3
170
     0
171
     0
290
     0
174
     0
 93
        1
 44
0.0
173
     0
291
     0
 45
0.0
1001
ACAD
1000
AcDbSavedByObjectVersion
1070
     0
  0
VISUALSTYLE
  5
9820
102
{ACAD_XDICTIONARY
360
988B
102
}
102
{ACAD_REACTORS
330
980D
102
}
330
980D
100
AcDbVisualStyle
  2
X-Ray
 70
    25
 71
     2
 72
     2
 73
     1
 90
        1
 40
0.5
 41
-30.0
 62
     5
 63
     7
 74
     1
 91
        0
 64
     7
 65
   257
 75
     1
175
     1
 42
1.0
 92
        8
 66
     7
 43
1.0
 76
     1
 77
     6
 78
     2
 67
     7
 79
     3
170
     0
171
     0
290
     0
174
     0
 93
       13
 44
0.0
173
     0
291
     0
 45
0.0
1001
ACAD
1000
AcDbSavedByObjectVersion
1070
     0
  0
DICTIONARYVAR
  5
985A
102
{ACAD_REACTORS
330
9855
102
}
330
9855
100
DictionaryVariables
280
     0
  1
1:1
  0
DICTIONARYVAR
  5
9857
102
{ACAD_REACTORS
330
9855
102
}
330
9855
100
DictionaryVariables
280
     0
  1
STANDARD
  0
DICTIONARYVAR
  5
9856
102
{ACAD_REACTORS
330
9855
102
}
330
9855
100
DictionaryVariables
280
     0
  1
STANDARD
  0
DICTIONARYVAR
  5
9858
102
{ACAD_REACTORS
330
9855
102
}
330
9855
100
DictionaryVariables
280
     0
  1
Imperial24
  0
DICTIONARYVAR
  5
9859
102
{ACAD_REACTORS
330
9855
102
}
330
9855
100
DictionaryVariables
280
     0
  1
Imperial24
  0
DICTIONARYVAR
  5
985D
102
{ACAD_REACTORS
330
9855
102
}
330
9855
100
DictionaryVariables
280
     0
  1
1
  0
DICTIONARYVAR
  5
985C
102
{ACAD_REACTORS
330
9855
102
}
330
9855
100
DictionaryVariables
280
     0
  1
0
  0
DICTIONARYVAR
  5
985B
102
{ACAD_REACTORS
330
9855
102
}
330
9855
100
DictionaryVariables
280
     0
  1
127
  0
DICTIONARYVAR
  5
985E
102
{ACAD_REACTORS
330
9855
102
}
330
9855
100
DictionaryVariables
280
     0
  1
2
  0
DICTIONARY
  5
989B
330
9840
100
AcDbDictionary
280
     1
281
     1
  3
ACAD_XREC_ROUNDTRIP
360
989C
  0
DICTIONARY
  5
989D
330
9841
100
AcDbDictionary
280
     1
281
     1
  3
ACAD_XREC_ROUNDTRIP
360
989E
  0
DICTIONARY
  5
989F
330
9842
100
AcDbDictionary
280
     1
281
     1
  3
ACAD_XREC_ROUNDTRIP
360
98A0
  0
DICTIONARY
  5
97FE
330
97FD
100
AcDbDictionary
280
     1
281
     1
  3
ACAD_XREC_ROUNDTRIP
360
9865
  3
BUMPTILE
360
9800
  3
DIFFUSETILE
360
97FF
  3
OPACITYTILE
360
9803
  3
REFLECTIONTILE
360
9802
  3
REFRACTIONTILE
360
9804
  3
SPECULARTILE
360
9801
  0
DICTIONARY
  5
97F6
330
97F5
100
AcDbDictionary
280
     1
281
     1
  3
ACAD_XREC_ROUNDTRIP
360
9864
  3
BUMPTILE
360
97F8
  3
DIFFUSETILE
360
97F7
  3
OPACITYTILE
360
97FB
  3
REFLECTIONTILE
360
97FA
  3
REFRACTIONTILE
360
97FC
  3
SPECULARTILE
360
97F9
  0
DICTIONARY
  5
9806
330
9805
100
AcDbDictionary
280
     1
281
     1
  3
ACAD_XREC_ROUNDTRIP
360
9866
  3
BUMPTILE
360
9808
  3
DIFFUSETILE
360
9807
  3
OPACITYTILE
360
980B
  3
REFLECTIONTILE
360
980A
  3
REFRACTIONTILE
360
980C
  3
SPECULARTILE
360
9809
  0
DICTIONARY
  5
9899
330
983E
100
AcDbDictionary
280
     1
281
     1
  3
ACAD_XREC_ROUNDTRIP
360
989A
  0
DICTIONARY
  5
9860
330
9828
100
AcDbDictionary
280
     1
281
     1
  3
ACAD_ROUNDTRIP_2008_TABLESTYLE_CELLSTYLEMAP
360
9861
  3
ACAD_XREC_ROUNDTRIP
360
9897
  0
DICTIONARY
  5
9871
330
9813
100
AcDbDictionary
280
     1
281
     1
  3
ACAD_XREC_ROUNDTRIP
360
9872
  0
DICTIONARY
  5
986F
330
9812
100
AcDbDictionary
280
     1
281
     1
  3
ACAD_XREC_ROUNDTRIP
360
9870
  0
DICTIONARY
  5
987D
330
9819
100
AcDbDictionary
280
     1
281
     1
  3
ACAD_XREC_ROUNDTRIP
360
987E
  0
DICTIONARY
  5
9885
330
981D
100
AcDbDictionary
280
     1
281
     1
  3
ACAD_XREC_ROUNDTRIP
360
9886
  0
DICTIONARY
  5
9877
330
9816
100
AcDbDictionary
280
     1
281
     1
  3
ACAD_XREC_ROUNDTRIP
360
9878
  0
DICTIONARY
  5
987B
330
9818
100
AcDbDictionary
280
     1
281
     1
  3
ACAD_XREC_ROUNDTRIP
360
987C
  0
DICTIONARY
  5
9895
330
9825
100
AcDbDictionary
280
     1
281
     1
  3
ACAD_XREC_ROUNDTRIP
360
9896
  0
DICTIONARY
  5
9883
330
981C
100
AcDbDictionary
280
     1
281
     1
  3
ACAD_XREC_ROUNDTRIP
360
9884
  0
DICTIONARY
  5
9867
330
980E
100
AcDbDictionary
280
     1
281
     1
  3
ACAD_XREC_ROUNDTRIP
360
9868
  0
DICTIONARY
  5
9869
330
980F
100
AcDbDictionary
280
     1
281
     1
  3
ACAD_XREC_ROUNDTRIP
360
986A
  0
DICTIONARY
  5
986B
330
9810
100
AcDbDictionary
280
     1
281
     1
  3
ACAD_XREC_ROUNDTRIP
360
986C
  0
DICTIONARY
  5
986D
330
9811
100
AcDbDictionary
280
     1
281
     1
  3
ACAD_XREC_ROUNDTRIP
360
986E
  0
DICTIONARY
  5
9875
330
9815
100
AcDbDictionary
280
     1
281
     1
  3
ACAD_XREC_ROUNDTRIP
360
9876
  0
DICTIONARY
  5
9891
330
9823
100
AcDbDictionary
280
     1
281
     1
  3
ACAD_XREC_ROUNDTRIP
360
9892
  0
DICTIONARY
  5
9881
330
981B
100
AcDbDictionary
280
     1
281
     1
  3
ACAD_XREC_ROUNDTRIP
360
9882
  0
DICTIONARY
  5
9893
330
9824
100
AcDbDictionary
280
     1
281
     1
  3
ACAD_XREC_ROUNDTRIP
360
9894
  0
DICTIONARY
  5
9879
330
9817
100
AcDbDictionary
280
     1
281
     1
  3
ACAD_XREC_ROUNDTRIP
360
987A
  0
DICTIONARY
  5
988F
330
9822
100
AcDbDictionary
280
     1
281
     1
  3
ACAD_XREC_ROUNDTRIP
360
9890
  0
DICTIONARY
  5
988D
330
9821
100
AcDbDictionary
280
     1
281
     1
  3
ACAD_XREC_ROUNDTRIP
360
988E
  0
DICTIONARY
  5
9887
330
981E
100
AcDbDictionary
280
     1
281
     1
  3
ACAD_XREC_ROUNDTRIP
360
9888
  0
DICTIONARY
  5
9889
330
981F
100
AcDbDictionary
280
     1
281
     1
  3
ACAD_XREC_ROUNDTRIP
360
988A
  0
DICTIONARY
  5
987F
330
981A
100
AcDbDictionary
280
     1
281
     1
  3
ACAD_XREC_ROUNDTRIP
360
9880
  0
DICTIONARY
  5
9873
330
9814
100
AcDbDictionary
280
     1
281
     1
  3
ACAD_XREC_ROUNDTRIP
360
9874
  0
DICTIONARY
  5
988B
330
9820
100
AcDbDictionary
280
     1
281
     1
  3
ACAD_XREC_ROUNDTRIP
360
988C
  0
XRECORD
  5
989C
102
{ACAD_REACTORS
330
989B
102
}
330
989B
100
AcDbXrecord
280
     1
102
DISPLAYNAME
  1
Imperial24
102
FLAGS
 90
        0
  0
XRECORD
  5
989E
102
{ACAD_REACTORS
330
989D
102
}
330
989D
100
AcDbXrecord
280
     1
102
SHADEPLOT
 70
     0
102
SHADEPLOTRESLEVEL
 70
     2
102
SHADEPLOTCUSTOMDPI
 70
   300
  0
XRECORD
  5
98A0
102
{ACAD_REACTORS
330
989F
102
}
330
989F
100
AcDbXrecord
280
     1
102
SHADEPLOT
 70
     0
102
SHADEPLOTRESLEVEL
 70
     2
102
SHADEPLOTCUSTOMDPI
 70
   300
  0
XRECORD
  5
9865
102
{ACAD_REACTORS
330
97FE
102
}
330
97FE
100
AcDbXrecord
280
     1
102
MATERIAL
148
0.0
149
0.0
149
0.0
 93
        0
 94
      127
282
     0
 72
     0
 77
     0
171
     0
175
     0
179
     0
273
     0
  0
XRECORD
  5
9800
102
{ACAD_REACTORS
330
97FE
102
}
330
97FE
100
AcDbXrecord
280
     1
270
     1
271
     1
  0
XRECORD
  5
97FF
102
{ACAD_REACTORS
330
97FE
102
}
330
97FE
100
AcDbXrecord
280
     1
270
     1
271
     1
  0
XRECORD
  5
9803
102
{ACAD_REACTORS
330
97FE
102
}
330
97FE
100
AcDbXrecord
280
     1
270
     1
271
     1
  0
XRECORD
  5
9802
102
{ACAD_REACTORS
330
97FE
102
}
330
97FE
100
AcDbXrecord
280
     1
270
     1
271
     1
  0
XRECORD
  5
9804
102
{ACAD_REACTORS
330
97FE
102
}
330
97FE
100
AcDbXrecord
280
     1
270
     1
271
     1
  0
XRECORD
  5
9801
102
{ACAD_REACTORS
330
97FE
102
}
330
97FE
100
AcDbXrecord
280
     1
270
     1
271
     1
  0
XRECORD
  5
9864
102
{ACAD_REACTORS
330
97F6
102
}
330
97F6
100
AcDbXrecord
280
     1
102
MATERIAL
148
0.0
149
0.0
149
0.0
 93
        0
 94
      127
282
     0
 72
     0
 77
     0
171
     0
175
     0
179
     0
273
     0
  0
XRECORD
  5
97F8
102
{ACAD_REACTORS
330
97F6
102
}
330
97F6
100
AcDbXrecord
280
     1
270
     1
271
     1
  0
XRECORD
  5
97F7
102
{ACAD_REACTORS
330
97F6
102
}
330
97F6
100
AcDbXrecord
280
     1
270
     1
271
     1
  0
XRECORD
  5
97FB
102
{ACAD_REACTORS
330
97F6
102
}
330
97F6
100
AcDbXrecord
280
     1
270
     1
271
     1
  0
XRECORD
  5
97FA
102
{ACAD_REACTORS
330
97F6
102
}
330
97F6
100
AcDbXrecord
280
     1
270
     1
271
     1
  0
XRECORD
  5
97FC
102
{ACAD_REACTORS
330
97F6
102
}
330
97F6
100
AcDbXrecord
280
     1
270
     1
271
     1
  0
XRECORD
  5
97F9
102
{ACAD_REACTORS
330
97F6
102
}
330
97F6
100
AcDbXrecord
280
     1
270
     1
271
     1
  0
XRECORD
  5
9866
102
{ACAD_REACTORS
330
9806
102
}
330
9806
100
AcDbXrecord
280
     1
102
MATERIAL
148
0.0
149
0.0
149
0.0
 93
        0
 94
      127
282
     0
 72
     0
 77
     0
171
     0
175
     0
179
     0
273
     0
  0
XRECORD
  5
9808
102
{ACAD_REACTORS
330
9806
102
}
330
9806
100
AcDbXrecord
280
     1
270
     1
271
     1
  0
XRECORD
  5
9807
102
{ACAD_REACTORS
330
9806
102
}
330
9806
100
AcDbXrecord
280
     1
270
     1
271
     1
  0
XRECORD
  5
980B
102
{ACAD_REACTORS
330
9806
102
}
330
9806
100
AcDbXrecord
280
     1
270
     1
271
     1
  0
XRECORD
  5
980A
102
{ACAD_REACTORS
330
9806
102
}
330
9806
100
AcDbXrecord
280
     1
270
     1
271
     1
  0
XRECORD
  5
980C
102
{ACAD_REACTORS
330
9806
102
}
330
9806
100
AcDbXrecord
280
     1
270
     1
271
     1
  0
XRECORD
  5
9809
102
{ACAD_REACTORS
330
9806
102
}
330
9806
100
AcDbXrecord
280
     1
270
     1
271
     1
  0
XRECORD
  5
989A
102
{ACAD_REACTORS
330
9899
102
}
330
9899
100
AcDbXrecord
280
     1
102
DISPLAYNAME
  1
Imperial24
102
FLAGS
 90
        0
  0
CELLSTYLEMAP
  5
9861
102
{ACAD_REACTORS
330
9860
102
}
330
9860
100
AcDbCellStyleMap
 90
        3
300
CELLSTYLE
  1
TABLEFORMAT_BEGIN
 90
        5
170
     1
 91
        0
 92
    32768
 62
   257
 93
        1
300
CONTENTFORMAT
  1
CONTENTFORMAT_BEGIN
 90
        0
 91
        0
 92
      512
 93
        0
300

 40
0.0
140
1.0
 94
        5
 62
     0
340
95AC
144
0.25
309
CONTENTFORMAT_END
171
     0
 94
        0
309
TABLEFORMAT_END
  1
CELLSTYLE_BEGIN
 90
        1
 91
        1
300
_TITLE
309
CELLSTYLE_END
300
CELLSTYLE
  1
TABLEFORMAT_BEGIN
 90
        5
170
     1
 91
        0
 92
        0
 62
   257
 93
        1
300
CONTENTFORMAT
  1
CONTENTFORMAT_BEGIN
 90
        0
 91
        0
 92
      512
 93
        0
300

 40
0.0
140
1.0
 94
        5
 62
     0
340
95AC
144
0.18
309
CONTENTFORMAT_END
171
     0
 94
        0
309
TABLEFORMAT_END
  1
CELLSTYLE_BEGIN
 90
        2
 91
        1
300
_HEADER
309
CELLSTYLE_END
300
CELLSTYLE
  1
TABLEFORMAT_BEGIN
 90
        5
170
     1
 91
        0
 92
        0
 62
   257
 93
        1
300
CONTENTFORMAT
  1
CONTENTFORMAT_BEGIN
 90
        0
 91
        0
 92
      512
 93
        0
300

 40
0.0
140
1.0
 94
        2
 62
     0
340
95AC
144
0.18
309
CONTENTFORMAT_END
171
     0
 94
        0
309
TABLEFORMAT_END
  1
CELLSTYLE_BEGIN
 90
        3
 91
        2
300
_DATA
309
CELLSTYLE_END
  0
XRECORD
  5
9897
102
{ACAD_REACTORS
330
9860
102
}
330
9860
100
AcDbXrecord
280
     1
102
ACAD_ROUNDTRIP_PRE2007_TABLESTYLE
 90
      512
 91
        0
  1

 92
      512
 93
        0
  2

 94
      512
 95
        0
  3

  0
XRECORD
  5
9872
102
{ACAD_REACTORS
330
9871
102
}
330
9871
100
AcDbXrecord
280
     1
102
RTVSPost2010Prop28
280
     1
102
RTVSPost2010PropOp28
 70
     1
102
RTVSPost2010Prop29
280
     1
102
RTVSPost2010PropOp29
 70
     1
102
RTVSPost2010Prop30
280
     0
102
RTVSPost2010PropOp30
 70
     1
102
RTVSPost2010Prop31
280
     0
102
RTVSPost2010PropOp31
 70
     1
102
RTVSPost2010Prop32
280
     0
102
RTVSPost2010PropOp32
 70
     1
102
RTVSPost2010Prop33
280
     0
102
RTVSPost2010PropOp33
 70
     1
102
RTVSPost2010Prop34
280
     0
102
RTVSPost2010PropOp34
 70
     1
102
RTVSPost2010Prop35
280
     0
102
RTVSPost2010PropOp35
 70
     1
102
RTVSPost2010Prop36
280
     0
102
RTVSPost2010PropOp36
 70
     1
102
RTVSPost2010Prop37
 90
       50
102
RTVSPost2010PropOp37
 70
     1
102
RTVSPost2010Prop38
140
0.0
102
RTVSPost2010PropOp38
 70
     1
102
RTVSPost2010Prop39
140
1.0
102
RTVSPost2010PropOp39
 70
     1
102
RTVSPost2010Prop40
 90
        0
102
RTVSPost2010PropOp40
 70
     1
102
RTVSPost2010Prop41ColorIndex
 90
       18
102
RTVSPost2010Prop41ColorRGB
 90
        0
102
RTVSPost2010PropOp41
 70
     1
102
RTVSPost2010Prop42
 90
       50
102
RTVSPost2010PropOp42
 70
     1
102
RTVSPost2010Prop43
 90
        3
102
RTVSPost2010PropOp43
 70
     1
102
RTVSPost2010Prop44ColorIndex
 90
        5
102
RTVSPost2010Prop44ColorRGB
 90
      255
102
RTVSPost2010PropOp44
 70
     1
102
RTVSPost2010Prop45
280
     0
102
RTVSPost2010PropOp45
 70
     1
102
RTVSPost2010Prop46
 90
       50
102
RTVSPost2010PropOp46
 70
     1
102
RTVSPost2010Prop47
 90
       50
102
RTVSPost2010PropOp47
 70
     1
102
RTVSPost2010Prop48
 90
       50
102
RTVSPost2010PropOp48
 70
     1
102
RTVSPost2010Prop49
280
     0
102
RTVSPost2010PropOp49
 70
     1
102
RTVSPost2010Prop50
 90
       50
102
RTVSPost2010PropOp50
 70
     1
102
RTVSPost2010Prop51ColorIndex
 90
      256
102
RTVSPost2010Prop51ColorRGB
 90
-16777216
102
RTVSPost2010PropOp51
 70
     0
102
RTVSPost2010Prop52
140
1.0
102
RTVSPost2010PropOp52
 70
     0
102
RTVSPost2010Prop53
 90
        2
102
RTVSPost2010PropOp53
 70
     1
102
RTVSPost2010Prop54
  1
strokes_ogs.tif
102
RTVSPost2010PropOp54
 70
     1
102
RTVSPost2010Prop55
280
     0
102
RTVSPost2010PropOp55
 70
     1
102
RTVSPost2010Prop56
140
1.0
102
RTVSPost2010PropOp56
 70
     1
102
RTVSPost2010Prop57
140
1.0
102
RTVSPost2010PropOp57
 70
     1
102
RTVSPropertyOp0
 70
     1
102
RTVSPropertyOp1
 70
     1
102
RTVSPropertyOp2
 70
     1
102
RTVSPropertyOp3
 70
     1
102
RTVSPropertyOp4
 70
     1
102
RTVSPropertyOp5
 70
     1
102
RTVSPropertyOp6
 70
     1
102
RTVSPropertyOp7
 70
     1
102
RTVSPropertyOp8
 70
     1
102
RTVSPropertyOp9
 70
     1
102
RTVSPropertyOp10
 70
     1
102
RTVSPropertyOp11
 70
     1
102
RTVSPropertyOp12
 70
     1
102
RTVSPropertyOp13
 70
     1
102
RTVSPropertyOp14
 70
     1
102
RTVSPropertyOp15
 70
     1
102
RTVSPropertyOp16
 70
     1
102
RTVSPropertyOp17
 70
     1
102
RTVSPropertyOp18
 70
     1
102
RTVSPropertyOp19
 70
     1
102
RTVSPropertyOp20
 70
     1
102
RTVSPropertyOp21
 70
     1
102
RTVSPropertyOp22
 70
     1
102
RTVSPropertyOp23
 70
     1
102
RTVSPropertyOp24
 70
     1
102
RTVSPropertyOp25
 70
     1
102
RTVSPropertyOp26
 70
     1
102
RTVSPropertyOp27
 70
     1
102
RTVSPropertyOp28
 70
     1
102
RTVSPropertyOp29
 70
     1
102
RTVSPropertyOp30
 70
     1
102
RTVSPropertyOp31
 70
     1
102
RTVSPropertyOp32
 70
     1
102
RTVSPropertyOp33
 70
     1
102
RTVSPropertyOp34
 70
     1
102
RTVSPropertyOp35
 70
     1
102
RTVSPropertyOp36
 70
     1
102
RTVSPropertyOp37
 70
     1
102
RTVSPropertyOp38
 70
     1
102
RTVSPropertyOp39
 70
     1
102
RTVSPropertyOp40
 70
     1
102
RTVSPropertyOp41
 70
     1
102
RTVSPropertyOp42
 70
     1
102
RTVSPropertyOp43
 70
     1
102
RTVSPropertyOp44
 70
     1
102
RTVSPropertyOp45
 70
     1
102
RTVSPropertyOp46
 70
     1
102
RTVSPropertyOp47
 70
     1
102
RTVSPropertyOp48
 70
     1
102
RTVSPropertyOp49
 70
     1
102
RTVSPropertyOp50
 70
     1
102
RTVSPropertyOp51
 70
     0
102
RTVSPropertyOp52
 70
     0
102
RTVSPropertyOp53
 70
     1
102
RTVSPropertyOp54
 70
     1
102
RTVSPropertyOp55
 70
     1
102
RTVSPropertyOp56
 70
     1
102
RTVSPropertyOp57
 70
     1
102
RTVSPropertyOp58
 70
     1
102
RTVSPropertyOp59
 70
     1
102
RTVSPropertyOp60
 70
     1
102
RTVSPropertyOp61
 70
     1
102
RTVSPropertyOp62
 70
     1
  0
XRECORD
  5
9870
102
{ACAD_REACTORS
330
986F
102
}
330
986F
100
AcDbXrecord
280
     1
102
RTVSPost2010Prop28
280
     0
102
RTVSPost2010PropOp28
 70
     1
102
RTVSPost2010Prop29
280
     1
102
RTVSPost2010PropOp29
 70
     1
102
RTVSPost2010Prop30
280
     1
102
RTVSPost2010PropOp30
 70
     1
102
RTVSPost2010Prop31
280
     0
102
RTVSPost2010PropOp31
 70
     1
102
RTVSPost2010Prop32
280
     0
102
RTVSPost2010PropOp32
 70
     1
102
RTVSPost2010Prop33
280
     0
102
RTVSPost2010PropOp33
 70
     1
102
RTVSPost2010Prop34
280
     0
102
RTVSPost2010PropOp34
 70
     1
102
RTVSPost2010Prop35
280
     0
102
RTVSPost2010PropOp35
 70
     1
102
RTVSPost2010Prop36
280
     0
102
RTVSPost2010PropOp36
 70
     1
102
RTVSPost2010Prop37
 90
       50
102
RTVSPost2010PropOp37
 70
     1
102
RTVSPost2010Prop38
140
0.0
102
RTVSPost2010PropOp38
 70
     1
102
RTVSPost2010Prop39
140
1.0
102
RTVSPost2010PropOp39
 70
     1
102
RTVSPost2010Prop40
 90
        0
102
RTVSPost2010PropOp40
 70
     1
102
RTVSPost2010Prop41ColorIndex
 90
       18
102
RTVSPost2010Prop41ColorRGB
 90
        0
102
RTVSPost2010PropOp41
 70
     1
102
RTVSPost2010Prop42
 90
       50
102
RTVSPost2010PropOp42
 70
     1
102
RTVSPost2010Prop43
 90
        3
102
RTVSPost2010PropOp43
 70
     1
102
RTVSPost2010Prop44ColorIndex
 90
        5
102
RTVSPost2010Prop44ColorRGB
 90
      255
102
RTVSPost2010PropOp44
 70
     1
102
RTVSPost2010Prop45
280
     0
102
RTVSPost2010PropOp45
 70
     1
102
RTVSPost2010Prop46
 90
       50
102
RTVSPost2010PropOp46
 70
     1
102
RTVSPost2010Prop47
 90
       50
102
RTVSPost2010PropOp47
 70
     1
102
RTVSPost2010Prop48
 90
       50
102
RTVSPost2010PropOp48
 70
     1
102
RTVSPost2010Prop49
280
     0
102
RTVSPost2010PropOp49
 70
     1
102
RTVSPost2010Prop50
 90
       50
102
RTVSPost2010PropOp50
 70
     1
102
RTVSPost2010Prop51ColorIndex
 90
      256
102
RTVSPost2010Prop51ColorRGB
 90
-16777216
102
RTVSPost2010PropOp51
 70
     0
102
RTVSPost2010Prop52
140
1.0
102
RTVSPost2010PropOp52
 70
     0
102
RTVSPost2010Prop53
 90
        2
102
RTVSPost2010PropOp53
 70
     1
102
RTVSPost2010Prop54
  1
strokes_ogs.tif
102
RTVSPost2010PropOp54
 70
     1
102
RTVSPost2010Prop55
280
     0
102
RTVSPost2010PropOp55
 70
     1
102
RTVSPost2010Prop56
140
1.0
102
RTVSPost2010PropOp56
 70
     1
102
RTVSPost2010Prop57
140
1.0
102
RTVSPost2010PropOp57
 70
     1
102
RTVSPropertyOp0
 70
     1
102
RTVSPropertyOp1
 70
     1
102
RTVSPropertyOp2
 70
     1
102
RTVSPropertyOp3
 70
     1
102
RTVSPropertyOp4
 70
     1
102
RTVSPropertyOp5
 70
     1
102
RTVSPropertyOp6
 70
     1
102
RTVSPropertyOp7
 70
     1
102
RTVSPropertyOp8
 70
     1
102
RTVSPropertyOp9
 70
     1
102
RTVSPropertyOp10
 70
     1
102
RTVSPropertyOp11
 70
     1
102
RTVSPropertyOp12
 70
     1
102
RTVSPropertyOp13
 70
     1
102
RTVSPropertyOp14
 70
     1
102
RTVSPropertyOp15
 70
     1
102
RTVSPropertyOp16
 70
     1
102
RTVSPropertyOp17
 70
     1
102
RTVSPropertyOp18
 70
     1
102
RTVSPropertyOp19
 70
     1
102
RTVSPropertyOp20
 70
     1
102
RTVSPropertyOp21
 70
     1
102
RTVSPropertyOp22
 70
     1
102
RTVSPropertyOp23
 70
     1
102
RTVSPropertyOp24
 70
     1
102
RTVSPropertyOp25
 70
     1
102
RTVSPropertyOp26
 70
     1
102
RTVSPropertyOp27
 70
     1
102
RTVSPropertyOp28
 70
     1
102
RTVSPropertyOp29
 70
     1
102
RTVSPropertyOp30
 70
     1
102
RTVSPropertyOp31
 70
     1
102
RTVSPropertyOp32
 70
     1
102
RTVSPropertyOp33
 70
     1
102
RTVSPropertyOp34
 70
     1
102
RTVSPropertyOp35
 70
     1
102
RTVSPropertyOp36
 70
     1
102
RTVSPropertyOp37
 70
     1
102
RTVSPropertyOp38
 70
     1
102
RTVSPropertyOp39
 70
     1
102
RTVSPropertyOp40
 70
     1
102
RTVSPropertyOp41
 70
     1
102
RTVSPropertyOp42
 70
     1
102
RTVSPropertyOp43
 70
     1
102
RTVSPropertyOp44
 70
     1
102
RTVSPropertyOp45
 70
     1
102
RTVSPropertyOp46
 70
     1
102
RTVSPropertyOp47
 70
     1
102
RTVSPropertyOp48
 70
     1
102
RTVSPropertyOp49
 70
     1
102
RTVSPropertyOp50
 70
     1
102
RTVSPropertyOp51
 70
     0
102
RTVSPropertyOp52
 70
     0
102
RTVSPropertyOp53
 70
     1
102
RTVSPropertyOp54
 70
     1
102
RTVSPropertyOp55
 70
     1
102
RTVSPropertyOp56
 70
     1
102
RTVSPropertyOp57
 70
     1
102
RTVSPropertyOp58
 70
     1
102
RTVSPropertyOp59
 70
     1
102
RTVSPropertyOp60
 70
     1
102
RTVSPropertyOp61
 70
     1
102
RTVSPropertyOp62
 70
     1
  0
XRECORD
  5
987E
102
{ACAD_REACTORS
330
987D
102
}
330
987D
100
AcDbXrecord
280
     1
102
RTVSPost2010Prop28
280
     0
102
RTVSPost2010PropOp28
 70
     1
102
RTVSPost2010Prop29
280
     1
102
RTVSPost2010PropOp29
 70
     1
102
RTVSPost2010Prop30
280
     1
102
RTVSPost2010PropOp30
 70
     1
102
RTVSPost2010Prop31
280
     0
102
RTVSPost2010PropOp31
 70
     1
102
RTVSPost2010Prop32
280
     0
102
RTVSPost2010PropOp32
 70
     1
102
RTVSPost2010Prop33
280
     0
102
RTVSPost2010PropOp33
 70
     1
102
RTVSPost2010Prop34
280
     0
102
RTVSPost2010PropOp34
 70
     1
102
RTVSPost2010Prop35
280
     0
102
RTVSPost2010PropOp35
 70
     1
102
RTVSPost2010Prop36
280
     0
102
RTVSPost2010PropOp36
 70
     1
102
RTVSPost2010Prop37
 90
       50
102
RTVSPost2010PropOp37
 70
     1
102
RTVSPost2010Prop38
140
0.0
102
RTVSPost2010PropOp38
 70
     1
102
RTVSPost2010Prop39
140
1.0
102
RTVSPost2010PropOp39
 70
     1
102
RTVSPost2010Prop40
 90
        0
102
RTVSPost2010PropOp40
 70
     1
102
RTVSPost2010Prop41ColorIndex
 90
       18
102
RTVSPost2010Prop41ColorRGB
 90
        0
102
RTVSPost2010PropOp41
 70
     1
102
RTVSPost2010Prop42
 90
       50
102
RTVSPost2010PropOp42
 70
     1
102
RTVSPost2010Prop43
 90
        3
102
RTVSPost2010PropOp43
 70
     1
102
RTVSPost2010Prop44ColorIndex
 90
        5
102
RTVSPost2010Prop44ColorRGB
 90
      255
102
RTVSPost2010PropOp44
 70
     1
102
RTVSPost2010Prop45
280
     0
102
RTVSPost2010PropOp45
 70
     1
102
RTVSPost2010Prop46
 90
       50
102
RTVSPost2010PropOp46
 70
     1
102
RTVSPost2010Prop47
 90
       50
102
RTVSPost2010PropOp47
 70
     1
102
RTVSPost2010Prop48
 90
       50
102
RTVSPost2010PropOp48
 70
     1
102
RTVSPost2010Prop49
280
     0
102
RTVSPost2010PropOp49
 70
     1
102
RTVSPost2010Prop50
 90
       50
102
RTVSPost2010PropOp50
 70
     1
102
RTVSPost2010Prop51ColorIndex
 90
      256
102
RTVSPost2010Prop51ColorRGB
 90
-16777216
102
RTVSPost2010PropOp51
 70
     0
102
RTVSPost2010Prop52
140
1.0
102
RTVSPost2010PropOp52
 70
     0
102
RTVSPost2010Prop53
 90
        2
102
RTVSPost2010PropOp53
 70
     1
102
RTVSPost2010Prop54
  1
strokes_ogs.tif
102
RTVSPost2010PropOp54
 70
     1
102
RTVSPost2010Prop55
280
     0
102
RTVSPost2010PropOp55
 70
     1
102
RTVSPost2010Prop56
140
1.0
102
RTVSPost2010PropOp56
 70
     1
102
RTVSPost2010Prop57
140
1.0
102
RTVSPost2010PropOp57
 70
     1
102
RTVSPropertyOp0
 70
     1
102
RTVSPropertyOp1
 70
     1
102
RTVSPropertyOp2
 70
     1
102
RTVSPropertyOp3
 70
     1
102
RTVSPropertyOp4
 70
     1
102
RTVSPropertyOp5
 70
     1
102
RTVSPropertyOp6
 70
     1
102
RTVSPropertyOp7
 70
     1
102
RTVSPropertyOp8
 70
     1
102
RTVSPropertyOp9
 70
     1
102
RTVSPropertyOp10
 70
     1
102
RTVSPropertyOp11
 70
     1
102
RTVSPropertyOp12
 70
     1
102
RTVSPropertyOp13
 70
     1
102
RTVSPropertyOp14
 70
     1
102
RTVSPropertyOp15
 70
     1
102
RTVSPropertyOp16
 70
     1
102
RTVSPropertyOp17
 70
     1
102
RTVSPropertyOp18
 70
     1
102
RTVSPropertyOp19
 70
     1
102
RTVSPropertyOp20
 70
     1
102
RTVSPropertyOp21
 70
     1
102
RTVSPropertyOp22
 70
     1
102
RTVSPropertyOp23
 70
     1
102
RTVSPropertyOp24
 70
     1
102
RTVSPropertyOp25
 70
     1
102
RTVSPropertyOp26
 70
     1
102
RTVSPropertyOp27
 70
     1
102
RTVSPropertyOp28
 70
     1
102
RTVSPropertyOp29
 70
     1
102
RTVSPropertyOp30
 70
     1
102
RTVSPropertyOp31
 70
     1
102
RTVSPropertyOp32
 70
     1
102
RTVSPropertyOp33
 70
     1
102
RTVSPropertyOp34
 70
     1
102
RTVSPropertyOp35
 70
     1
102
RTVSPropertyOp36
 70
     1
102
RTVSPropertyOp37
 70
     1
102
RTVSPropertyOp38
 70
     1
102
RTVSPropertyOp39
 70
     1
102
RTVSPropertyOp40
 70
     1
102
RTVSPropertyOp41
 70
     1
102
RTVSPropertyOp42
 70
     1
102
RTVSPropertyOp43
 70
     1
102
RTVSPropertyOp44
 70
     1
102
RTVSPropertyOp45
 70
     1
102
RTVSPropertyOp46
 70
     1
102
RTVSPropertyOp47
 70
     1
102
RTVSPropertyOp48
 70
     1
102
RTVSPropertyOp49
 70
     1
102
RTVSPropertyOp50
 70
     1
102
RTVSPropertyOp51
 70
     0
102
RTVSPropertyOp52
 70
     0
102
RTVSPropertyOp53
 70
     1
102
RTVSPropertyOp54
 70
     1
102
RTVSPropertyOp55
 70
     1
102
RTVSPropertyOp56
 70
     1
102
RTVSPropertyOp57
 70
     1
102
RTVSPropertyOp58
 70
     1
102
RTVSPropertyOp59
 70
     1
102
RTVSPropertyOp60
 70
     1
102
RTVSPropertyOp61
 70
     1
102
RTVSPropertyOp62
 70
     1
  0
XRECORD
  5
9886
102
{ACAD_REACTORS
330
9885
102
}
330
9885
100
AcDbXrecord
280
     1
102
RTVSPost2010Prop28
280
     0
102
RTVSPost2010PropOp28
 70
     1
102
RTVSPost2010Prop29
280
     1
102
RTVSPost2010PropOp29
 70
     1
102
RTVSPost2010Prop30
280
     1
102
RTVSPost2010PropOp30
 70
     1
102
RTVSPost2010Prop31
280
     0
102
RTVSPost2010PropOp31
 70
     1
102
RTVSPost2010Prop32
280
     0
102
RTVSPost2010PropOp32
 70
     1
102
RTVSPost2010Prop33
280
     0
102
RTVSPost2010PropOp33
 70
     1
102
RTVSPost2010Prop34
280
     0
102
RTVSPost2010PropOp34
 70
     1
102
RTVSPost2010Prop35
280
     0
102
RTVSPost2010PropOp35
 70
     1
102
RTVSPost2010Prop36
280
     0
102
RTVSPost2010PropOp36
 70
     1
102
RTVSPost2010Prop37
 90
       50
102
RTVSPost2010PropOp37
 70
     1
102
RTVSPost2010Prop38
140
0.0
102
RTVSPost2010PropOp38
 70
     1
102
RTVSPost2010Prop39
140
1.0
102
RTVSPost2010PropOp39
 70
     1
102
RTVSPost2010Prop40
 90
        0
102
RTVSPost2010PropOp40
 70
     1
102
RTVSPost2010Prop41ColorIndex
 90
       18
102
RTVSPost2010Prop41ColorRGB
 90
        0
102
RTVSPost2010PropOp41
 70
     1
102
RTVSPost2010Prop42
 90
       50
102
RTVSPost2010PropOp42
 70
     1
102
RTVSPost2010Prop43
 90
        3
102
RTVSPost2010PropOp43
 70
     1
102
RTVSPost2010Prop44ColorIndex
 90
        5
102
RTVSPost2010Prop44ColorRGB
 90
      255
102
RTVSPost2010PropOp44
 70
     1
102
RTVSPost2010Prop45
280
     0
102
RTVSPost2010PropOp45
 70
     1
102
RTVSPost2010Prop46
 90
       50
102
RTVSPost2010PropOp46
 70
     1
102
RTVSPost2010Prop47
 90
       50
102
RTVSPost2010PropOp47
 70
     1
102
RTVSPost2010Prop48
 90
       50
102
RTVSPost2010PropOp48
 70
     1
102
RTVSPost2010Prop49
280
     0
102
RTVSPost2010PropOp49
 70
     1
102
RTVSPost2010Prop50
 90
       50
102
RTVSPost2010PropOp50
 70
     1
102
RTVSPost2010Prop51ColorIndex
 90
      256
102
RTVSPost2010Prop51ColorRGB
 90
-16777216
102
RTVSPost2010PropOp51
 70
     0
102
RTVSPost2010Prop52
140
1.0
102
RTVSPost2010PropOp52
 70
     0
102
RTVSPost2010Prop53
 90
        2
102
RTVSPost2010PropOp53
 70
     1
102
RTVSPost2010Prop54
  1
strokes_ogs.tif
102
RTVSPost2010PropOp54
 70
     1
102
RTVSPost2010Prop55
280
     0
102
RTVSPost2010PropOp55
 70
     1
102
RTVSPost2010Prop56
140
1.0
102
RTVSPost2010PropOp56
 70
     1
102
RTVSPost2010Prop57
140
1.0
102
RTVSPost2010PropOp57
 70
     1
102
RTVSPropertyOp0
 70
     1
102
RTVSPropertyOp1
 70
     1
102
RTVSPropertyOp2
 70
     1
102
RTVSPropertyOp3
 70
     1
102
RTVSPropertyOp4
 70
     1
102
RTVSPropertyOp5
 70
     1
102
RTVSPropertyOp6
 70
     1
102
RTVSPropertyOp7
 70
     1
102
RTVSPropertyOp8
 70
     1
102
RTVSPropertyOp9
 70
     1
102
RTVSPropertyOp10
 70
     1
102
RTVSPropertyOp11
 70
     1
102
RTVSPropertyOp12
 70
     1
102
RTVSPropertyOp13
 70
     1
102
RTVSPropertyOp14
 70
     1
102
RTVSPropertyOp15
 70
     1
102
RTVSPropertyOp16
 70
     1
102
RTVSPropertyOp17
 70
     1
102
RTVSPropertyOp18
 70
     1
102
RTVSPropertyOp19
 70
     1
102
RTVSPropertyOp20
 70
     1
102
RTVSPropertyOp21
 70
     1
102
RTVSPropertyOp22
 70
     1
102
RTVSPropertyOp23
 70
     1
102
RTVSPropertyOp24
 70
     1
102
RTVSPropertyOp25
 70
     1
102
RTVSPropertyOp26
 70
     1
102
RTVSPropertyOp27
 70
     1
102
RTVSPropertyOp28
 70
     1
102
RTVSPropertyOp29
 70
     1
102
RTVSPropertyOp30
 70
     1
102
RTVSPropertyOp31
 70
     1
102
RTVSPropertyOp32
 70
     1
102
RTVSPropertyOp33
 70
     1
102
RTVSPropertyOp34
 70
     1
102
RTVSPropertyOp35
 70
     1
102
RTVSPropertyOp36
 70
     1
102
RTVSPropertyOp37
 70
     1
102
RTVSPropertyOp38
 70
     1
102
RTVSPropertyOp39
 70
     1
102
RTVSPropertyOp40
 70
     1
102
RTVSPropertyOp41
 70
     1
102
RTVSPropertyOp42
 70
     1
102
RTVSPropertyOp43
 70
     1
102
RTVSPropertyOp44
 70
     1
102
RTVSPropertyOp45
 70
     1
102
RTVSPropertyOp46
 70
     1
102
RTVSPropertyOp47
 70
     1
102
RTVSPropertyOp48
 70
     1
102
RTVSPropertyOp49
 70
     1
102
RTVSPropertyOp50
 70
     1
102
RTVSPropertyOp51
 70
     0
102
RTVSPropertyOp52
 70
     0
102
RTVSPropertyOp53
 70
     1
102
RTVSPropertyOp54
 70
     1
102
RTVSPropertyOp55
 70
     1
102
RTVSPropertyOp56
 70
     1
102
RTVSPropertyOp57
 70
     1
102
RTVSPropertyOp58
 70
     1
102
RTVSPropertyOp59
 70
     1
102
RTVSPropertyOp60
 70
     1
102
RTVSPropertyOp61
 70
     1
102
RTVSPropertyOp62
 70
     1
  0
XRECORD
  5
9878
102
{ACAD_REACTORS
330
9877
102
}
330
9877
100
AcDbXrecord
280
     1
102
RTVSPost2010Prop28
280
     0
102
RTVSPost2010PropOp28
 70
     1
102
RTVSPost2010Prop29
280
     1
102
RTVSPost2010PropOp29
 70
     1
102
RTVSPost2010Prop30
280
     1
102
RTVSPost2010PropOp30
 70
     1
102
RTVSPost2010Prop31
280
     0
102
RTVSPost2010PropOp31
 70
     1
102
RTVSPost2010Prop32
280
     0
102
RTVSPost2010PropOp32
 70
     1
102
RTVSPost2010Prop33
280
     0
102
RTVSPost2010PropOp33
 70
     1
102
RTVSPost2010Prop34
280
     0
102
RTVSPost2010PropOp34
 70
     1
102
RTVSPost2010Prop35
280
     0
102
RTVSPost2010PropOp35
 70
     1
102
RTVSPost2010Prop36
280
     0
102
RTVSPost2010PropOp36
 70
     1
102
RTVSPost2010Prop37
 90
       50
102
RTVSPost2010PropOp37
 70
     1
102
RTVSPost2010Prop38
140
0.0
102
RTVSPost2010PropOp38
 70
     1
102
RTVSPost2010Prop39
140
1.0
102
RTVSPost2010PropOp39
 70
     1
102
RTVSPost2010Prop40
 90
        0
102
RTVSPost2010PropOp40
 70
     1
102
RTVSPost2010Prop41ColorIndex
 90
       18
102
RTVSPost2010Prop41ColorRGB
 90
        0
102
RTVSPost2010PropOp41
 70
     1
102
RTVSPost2010Prop42
 90
       50
102
RTVSPost2010PropOp42
 70
     1
102
RTVSPost2010Prop43
 90
        3
102
RTVSPost2010PropOp43
 70
     1
102
RTVSPost2010Prop44ColorIndex
 90
        5
102
RTVSPost2010Prop44ColorRGB
 90
      255
102
RTVSPost2010PropOp44
 70
     1
102
RTVSPost2010Prop45
280
     0
102
RTVSPost2010PropOp45
 70
     1
102
RTVSPost2010Prop46
 90
       50
102
RTVSPost2010PropOp46
 70
     1
102
RTVSPost2010Prop47
 90
       50
102
RTVSPost2010PropOp47
 70
     1
102
RTVSPost2010Prop48
 90
       50
102
RTVSPost2010PropOp48
 70
     1
102
RTVSPost2010Prop49
280
     0
102
RTVSPost2010PropOp49
 70
     1
102
RTVSPost2010Prop50
 90
       50
102
RTVSPost2010PropOp50
 70
     1
102
RTVSPost2010Prop51ColorIndex
 90
      256
102
RTVSPost2010Prop51ColorRGB
 90
-16777216
102
RTVSPost2010PropOp51
 70
     0
102
RTVSPost2010Prop52
140
1.0
102
RTVSPost2010PropOp52
 70
     0
102
RTVSPost2010Prop53
 90
        2
102
RTVSPost2010PropOp53
 70
     1
102
RTVSPost2010Prop54
  1
strokes_ogs.tif
102
RTVSPost2010PropOp54
 70
     1
102
RTVSPost2010Prop55
280
     0
102
RTVSPost2010PropOp55
 70
     1
102
RTVSPost2010Prop56
140
1.0
102
RTVSPost2010PropOp56
 70
     1
102
RTVSPost2010Prop57
140
1.0
102
RTVSPost2010PropOp57
 70
     1
102
RTVSPropertyOp0
 70
     1
102
RTVSPropertyOp1
 70
     1
102
RTVSPropertyOp2
 70
     1
102
RTVSPropertyOp3
 70
     1
102
RTVSPropertyOp4
 70
     1
102
RTVSPropertyOp5
 70
     1
102
RTVSPropertyOp6
 70
     1
102
RTVSPropertyOp7
 70
     1
102
RTVSPropertyOp8
 70
     1
102
RTVSPropertyOp9
 70
     1
102
RTVSPropertyOp10
 70
     1
102
RTVSPropertyOp11
 70
     1
102
RTVSPropertyOp12
 70
     1
102
RTVSPropertyOp13
 70
     1
102
RTVSPropertyOp14
 70
     1
102
RTVSPropertyOp15
 70
     1
102
RTVSPropertyOp16
 70
     1
102
RTVSPropertyOp17
 70
     1
102
RTVSPropertyOp18
 70
     1
102
RTVSPropertyOp19
 70
     1
102
RTVSPropertyOp20
 70
     1
102
RTVSPropertyOp21
 70
     1
102
RTVSPropertyOp22
 70
     1
102
RTVSPropertyOp23
 70
     1
102
RTVSPropertyOp24
 70
     1
102
RTVSPropertyOp25
 70
     1
102
RTVSPropertyOp26
 70
     1
102
RTVSPropertyOp27
 70
     1
102
RTVSPropertyOp28
 70
     1
102
RTVSPropertyOp29
 70
     1
102
RTVSPropertyOp30
 70
     1
102
RTVSPropertyOp31
 70
     1
102
RTVSPropertyOp32
 70
     1
102
RTVSPropertyOp33
 70
     1
102
RTVSPropertyOp34
 70
     1
102
RTVSPropertyOp35
 70
     1
102
RTVSPropertyOp36
 70
     1
102
RTVSPropertyOp37
 70
     1
102
RTVSPropertyOp38
 70
     1
102
RTVSPropertyOp39
 70
     1
102
RTVSPropertyOp40
 70
     1
102
RTVSPropertyOp41
 70
     1
102
RTVSPropertyOp42
 70
     1
102
RTVSPropertyOp43
 70
     1
102
RTVSPropertyOp44
 70
     1
102
RTVSPropertyOp45
 70
     1
102
RTVSPropertyOp46
 70
     1
102
RTVSPropertyOp47
 70
     1
102
RTVSPropertyOp48
 70
     1
102
RTVSPropertyOp49
 70
     1
102
RTVSPropertyOp50
 70
     1
102
RTVSPropertyOp51
 70
     0
102
RTVSPropertyOp52
 70
     0
102
RTVSPropertyOp53
 70
     1
102
RTVSPropertyOp54
 70
     1
102
RTVSPropertyOp55
 70
     1
102
RTVSPropertyOp56
 70
     1
102
RTVSPropertyOp57
 70
     1
102
RTVSPropertyOp58
 70
     1
102
RTVSPropertyOp59
 70
     1
102
RTVSPropertyOp60
 70
     1
102
RTVSPropertyOp61
 70
     1
102
RTVSPropertyOp62
 70
     1
  0
XRECORD
  5
987C
102
{ACAD_REACTORS
330
987B
102
}
330
987B
100
AcDbXrecord
280
     1
102
RTVSPost2010Prop28
280
     0
102
RTVSPost2010PropOp28
 70
     1
102
RTVSPost2010Prop29
280
     1
102
RTVSPost2010PropOp29
 70
     1
102
RTVSPost2010Prop30
280
     1
102
RTVSPost2010PropOp30
 70
     1
102
RTVSPost2010Prop31
280
     0
102
RTVSPost2010PropOp31
 70
     1
102
RTVSPost2010Prop32
280
     0
102
RTVSPost2010PropOp32
 70
     1
102
RTVSPost2010Prop33
280
     0
102
RTVSPost2010PropOp33
 70
     1
102
RTVSPost2010Prop34
280
     0
102
RTVSPost2010PropOp34
 70
     1
102
RTVSPost2010Prop35
280
     0
102
RTVSPost2010PropOp35
 70
     1
102
RTVSPost2010Prop36
280
     0
102
RTVSPost2010PropOp36
 70
     1
102
RTVSPost2010Prop37
 90
       50
102
RTVSPost2010PropOp37
 70
     1
102
RTVSPost2010Prop38
140
0.0
102
RTVSPost2010PropOp38
 70
     1
102
RTVSPost2010Prop39
140
1.0
102
RTVSPost2010PropOp39
 70
     1
102
RTVSPost2010Prop40
 90
        0
102
RTVSPost2010PropOp40
 70
     1
102
RTVSPost2010Prop41ColorIndex
 90
       18
102
RTVSPost2010Prop41ColorRGB
 90
        0
102
RTVSPost2010PropOp41
 70
     1
102
RTVSPost2010Prop42
 90
       50
102
RTVSPost2010PropOp42
 70
     1
102
RTVSPost2010Prop43
 90
        3
102
RTVSPost2010PropOp43
 70
     1
102
RTVSPost2010Prop44ColorIndex
 90
        5
102
RTVSPost2010Prop44ColorRGB
 90
      255
102
RTVSPost2010PropOp44
 70
     1
102
RTVSPost2010Prop45
280
     0
102
RTVSPost2010PropOp45
 70
     1
102
RTVSPost2010Prop46
 90
       50
102
RTVSPost2010PropOp46
 70
     1
102
RTVSPost2010Prop47
 90
       50
102
RTVSPost2010PropOp47
 70
     1
102
RTVSPost2010Prop48
 90
       50
102
RTVSPost2010PropOp48
 70
     1
102
RTVSPost2010Prop49
280
     0
102
RTVSPost2010PropOp49
 70
     1
102
RTVSPost2010Prop50
 90
       50
102
RTVSPost2010PropOp50
 70
     1
102
RTVSPost2010Prop51ColorIndex
 90
      256
102
RTVSPost2010Prop51ColorRGB
 90
-16777216
102
RTVSPost2010PropOp51
 70
     0
102
RTVSPost2010Prop52
140
1.0
102
RTVSPost2010PropOp52
 70
     0
102
RTVSPost2010Prop53
 90
        2
102
RTVSPost2010PropOp53
 70
     1
102
RTVSPost2010Prop54
  1
strokes_ogs.tif
102
RTVSPost2010PropOp54
 70
     1
102
RTVSPost2010Prop55
280
     0
102
RTVSPost2010PropOp55
 70
     1
102
RTVSPost2010Prop56
140
1.0
102
RTVSPost2010PropOp56
 70
     1
102
RTVSPost2010Prop57
140
1.0
102
RTVSPost2010PropOp57
 70
     1
102
RTVSPropertyOp0
 70
     1
102
RTVSPropertyOp1
 70
     1
102
RTVSPropertyOp2
 70
     1
102
RTVSPropertyOp3
 70
     1
102
RTVSPropertyOp4
 70
     1
102
RTVSPropertyOp5
 70
     1
102
RTVSPropertyOp6
 70
     1
102
RTVSPropertyOp7
 70
     1
102
RTVSPropertyOp8
 70
     1
102
RTVSPropertyOp9
 70
     1
102
RTVSPropertyOp10
 70
     1
102
RTVSPropertyOp11
 70
     1
102
RTVSPropertyOp12
 70
     1
102
RTVSPropertyOp13
 70
     1
102
RTVSPropertyOp14
 70
     1
102
RTVSPropertyOp15
 70
     1
102
RTVSPropertyOp16
 70
     1
102
RTVSPropertyOp17
 70
     1
102
RTVSPropertyOp18
 70
     1
102
RTVSPropertyOp19
 70
     1
102
RTVSPropertyOp20
 70
     1
102
RTVSPropertyOp21
 70
     1
102
RTVSPropertyOp22
 70
     1
102
RTVSPropertyOp23
 70
     1
102
RTVSPropertyOp24
 70
     1
102
RTVSPropertyOp25
 70
     1
102
RTVSPropertyOp26
 70
     1
102
RTVSPropertyOp27
 70
     1
102
RTVSPropertyOp28
 70
     1
102
RTVSPropertyOp29
 70
     1
102
RTVSPropertyOp30
 70
     1
102
RTVSPropertyOp31
 70
     1
102
RTVSPropertyOp32
 70
     1
102
RTVSPropertyOp33
 70
     1
102
RTVSPropertyOp34
 70
     1
102
RTVSPropertyOp35
 70
     1
102
RTVSPropertyOp36
 70
     1
102
RTVSPropertyOp37
 70
     1
102
RTVSPropertyOp38
 70
     1
102
RTVSPropertyOp39
 70
     1
102
RTVSPropertyOp40
 70
     1
102
RTVSPropertyOp41
 70
     1
102
RTVSPropertyOp42
 70
     1
102
RTVSPropertyOp43
 70
     1
102
RTVSPropertyOp44
 70
     1
102
RTVSPropertyOp45
 70
     1
102
RTVSPropertyOp46
 70
     1
102
RTVSPropertyOp47
 70
     1
102
RTVSPropertyOp48
 70
     1
102
RTVSPropertyOp49
 70
     1
102
RTVSPropertyOp50
 70
     1
102
RTVSPropertyOp51
 70
     0
102
RTVSPropertyOp52
 70
     0
102
RTVSPropertyOp53
 70
     1
102
RTVSPropertyOp54
 70
     1
102
RTVSPropertyOp55
 70
     1
102
RTVSPropertyOp56
 70
     1
102
RTVSPropertyOp57
 70
     1
102
RTVSPropertyOp58
 70
     1
102
RTVSPropertyOp59
 70
     1
102
RTVSPropertyOp60
 70
     1
102
RTVSPropertyOp61
 70
     1
102
RTVSPropertyOp62
 70
     1
  0
XRECORD
  5
9896
102
{ACAD_REACTORS
330
9895
102
}
330
9895
100
AcDbXrecord
280
     1
102
RTVSPost2010Prop28
280
     0
102
RTVSPost2010PropOp28
 70
     1
102
RTVSPost2010Prop29
280
     1
102
RTVSPost2010PropOp29
 70
     1
102
RTVSPost2010Prop30
280
     1
102
RTVSPost2010PropOp30
 70
     1
102
RTVSPost2010Prop31
280
     0
102
RTVSPost2010PropOp31
 70
     1
102
RTVSPost2010Prop32
280
     0
102
RTVSPost2010PropOp32
 70
     1
102
RTVSPost2010Prop33
280
     0
102
RTVSPost2010PropOp33
 70
     1
102
RTVSPost2010Prop34
280
     0
102
RTVSPost2010PropOp34
 70
     1
102
RTVSPost2010Prop35
280
     0
102
RTVSPost2010PropOp35
 70
     1
102
RTVSPost2010Prop36
280
     0
102
RTVSPost2010PropOp36
 70
     1
102
RTVSPost2010Prop37
 90
       50
102
RTVSPost2010PropOp37
 70
     0
102
RTVSPost2010Prop38
140
0.0
102
RTVSPost2010PropOp38
 70
     0
102
RTVSPost2010Prop39
140
1.0
102
RTVSPost2010PropOp39
 70
     0
102
RTVSPost2010Prop40
 90
        0
102
RTVSPost2010PropOp40
 70
     0
102
RTVSPost2010Prop41ColorIndex
 90
       18
102
RTVSPost2010Prop41ColorRGB
 90
        0
102
RTVSPost2010PropOp41
 70
     0
102
RTVSPost2010Prop42
 90
       50
102
RTVSPost2010PropOp42
 70
     0
102
RTVSPost2010Prop43
 90
        3
102
RTVSPost2010PropOp43
 70
     0
102
RTVSPost2010Prop44ColorIndex
 90
        5
102
RTVSPost2010Prop44ColorRGB
 90
      255
102
RTVSPost2010PropOp44
 70
     0
102
RTVSPost2010Prop45
280
     0
102
RTVSPost2010PropOp45
 70
     1
102
RTVSPost2010Prop46
 90
       50
102
RTVSPost2010PropOp46
 70
     0
102
RTVSPost2010Prop47
 90
       50
102
RTVSPost2010PropOp47
 70
     0
102
RTVSPost2010Prop48
 90
       50
102
RTVSPost2010PropOp48
 70
     0
102
RTVSPost2010Prop49
280
     0
102
RTVSPost2010PropOp49
 70
     1
102
RTVSPost2010Prop50
 90
       50
102
RTVSPost2010PropOp50
 70
     0
102
RTVSPost2010Prop51ColorIndex
 90
      256
102
RTVSPost2010Prop51ColorRGB
 90
-16777216
102
RTVSPost2010PropOp51
 70
     0
102
RTVSPost2010Prop52
140
1.0
102
RTVSPost2010PropOp52
 70
     0
102
RTVSPost2010Prop53
 90
        2
102
RTVSPost2010PropOp53
 70
     0
102
RTVSPost2010Prop54
  1
strokes_ogs.tif
102
RTVSPost2010PropOp54
 70
     0
102
RTVSPost2010Prop55
280
     0
102
RTVSPost2010PropOp55
 70
     1
102
RTVSPost2010Prop56
140
1.0
102
RTVSPost2010PropOp56
 70
     0
102
RTVSPost2010Prop57
140
1.0
102
RTVSPost2010PropOp57
 70
     0
102
RTVSPropertyOp0
 70
     0
102
RTVSPropertyOp1
 70
     0
102
RTVSPropertyOp2
 70
     0
102
RTVSPropertyOp3
 70
     0
102
RTVSPropertyOp4
 70
     0
102
RTVSPropertyOp5
 70
     0
102
RTVSPropertyOp6
 70
     0
102
RTVSPropertyOp7
 70
     0
102
RTVSPropertyOp8
 70
     0
102
RTVSPropertyOp9
 70
     0
102
RTVSPropertyOp10
 70
     0
102
RTVSPropertyOp11
 70
     0
102
RTVSPropertyOp12
 70
     0
102
RTVSPropertyOp13
 70
     0
102
RTVSPropertyOp14
 70
     2
102
RTVSPropertyOp15
 70
     0
102
RTVSPropertyOp16
 70
     0
102
RTVSPropertyOp17
 70
     0
102
RTVSPropertyOp18
 70
     0
102
RTVSPropertyOp19
 70
     0
102
RTVSPropertyOp20
 70
     0
102
RTVSPropertyOp21
 70
     0
102
RTVSPropertyOp22
 70
     0
102
RTVSPropertyOp23
 70
     0
102
RTVSPropertyOp24
 70
     0
102
RTVSPropertyOp25
 70
     0
102
RTVSPropertyOp26
 70
     0
102
RTVSPropertyOp27
 70
     0
102
RTVSPropertyOp28
 70
     1
102
RTVSPropertyOp29
 70
     1
102
RTVSPropertyOp30
 70
     1
102
RTVSPropertyOp31
 70
     1
102
RTVSPropertyOp32
 70
     1
102
RTVSPropertyOp33
 70
     1
102
RTVSPropertyOp34
 70
     1
102
RTVSPropertyOp35
 70
     1
102
RTVSPropertyOp36
 70
     1
102
RTVSPropertyOp37
 70
     0
102
RTVSPropertyOp38
 70
     0
102
RTVSPropertyOp39
 70
     0
102
RTVSPropertyOp40
 70
     0
102
RTVSPropertyOp41
 70
     0
102
RTVSPropertyOp42
 70
     0
102
RTVSPropertyOp43
 70
     0
102
RTVSPropertyOp44
 70
     0
102
RTVSPropertyOp45
 70
     1
102
RTVSPropertyOp46
 70
     0
102
RTVSPropertyOp47
 70
     0
102
RTVSPropertyOp48
 70
     0
102
RTVSPropertyOp49
 70
     1
102
RTVSPropertyOp50
 70
     0
102
RTVSPropertyOp51
 70
     0
102
RTVSPropertyOp52
 70
     0
102
RTVSPropertyOp53
 70
     0
102
RTVSPropertyOp54
 70
     0
102
RTVSPropertyOp55
 70
     1
102
RTVSPropertyOp56
 70
     0
102
RTVSPropertyOp57
 70
     0
102
RTVSPropertyOp58
 70
     0
102
RTVSPropertyOp59
 70
     0
102
RTVSPropertyOp60
 70
     0
102
RTVSPropertyOp61
 70
     0
102
RTVSPropertyOp62
 70
     0
  0
XRECORD
  5
9884
102
{ACAD_REACTORS
330
9883
102
}
330
9883
100
AcDbXrecord
280
     1
102
RTVSPost2010Prop28
280
     0
102
RTVSPost2010PropOp28
 70
     1
102
RTVSPost2010Prop29
280
     1
102
RTVSPost2010PropOp29
 70
     1
102
RTVSPost2010Prop30
280
     1
102
RTVSPost2010PropOp30
 70
     1
102
RTVSPost2010Prop31
280
     0
102
RTVSPost2010PropOp31
 70
     1
102
RTVSPost2010Prop32
280
     0
102
RTVSPost2010PropOp32
 70
     1
102
RTVSPost2010Prop33
280
     0
102
RTVSPost2010PropOp33
 70
     1
102
RTVSPost2010Prop34
280
     0
102
RTVSPost2010PropOp34
 70
     1
102
RTVSPost2010Prop35
280
     0
102
RTVSPost2010PropOp35
 70
     1
102
RTVSPost2010Prop36
280
     0
102
RTVSPost2010PropOp36
 70
     1
102
RTVSPost2010Prop37
 90
       50
102
RTVSPost2010PropOp37
 70
     1
102
RTVSPost2010Prop38
140
0.0
102
RTVSPost2010PropOp38
 70
     1
102
RTVSPost2010Prop39
140
1.0
102
RTVSPost2010PropOp39
 70
     1
102
RTVSPost2010Prop40
 90
        0
102
RTVSPost2010PropOp40
 70
     1
102
RTVSPost2010Prop41ColorIndex
 90
       18
102
RTVSPost2010Prop41ColorRGB
 90
        0
102
RTVSPost2010PropOp41
 70
     1
102
RTVSPost2010Prop42
 90
       50
102
RTVSPost2010PropOp42
 70
     1
102
RTVSPost2010Prop43
 90
        3
102
RTVSPost2010PropOp43
 70
     1
102
RTVSPost2010Prop44ColorIndex
 90
        5
102
RTVSPost2010Prop44ColorRGB
 90
      255
102
RTVSPost2010PropOp44
 70
     1
102
RTVSPost2010Prop45
280
     0
102
RTVSPost2010PropOp45
 70
     1
102
RTVSPost2010Prop46
 90
       50
102
RTVSPost2010PropOp46
 70
     1
102
RTVSPost2010Prop47
 90
       50
102
RTVSPost2010PropOp47
 70
     1
102
RTVSPost2010Prop48
 90
       50
102
RTVSPost2010PropOp48
 70
     1
102
RTVSPost2010Prop49
280
     0
102
RTVSPost2010PropOp49
 70
     1
102
RTVSPost2010Prop50
 90
       50
102
RTVSPost2010PropOp50
 70
     1
102
RTVSPost2010Prop51ColorIndex
 90
      256
102
RTVSPost2010Prop51ColorRGB
 90
-16777216
102
RTVSPost2010PropOp51
 70
     0
102
RTVSPost2010Prop52
140
1.0
102
RTVSPost2010PropOp52
 70
     0
102
RTVSPost2010Prop53
 90
        2
102
RTVSPost2010PropOp53
 70
     1
102
RTVSPost2010Prop54
  1
strokes_ogs.tif
102
RTVSPost2010PropOp54
 70
     1
102
RTVSPost2010Prop55
280
     0
102
RTVSPost2010PropOp55
 70
     1
102
RTVSPost2010Prop56
140
1.0
102
RTVSPost2010PropOp56
 70
     1
102
RTVSPost2010Prop57
140
1.0
102
RTVSPost2010PropOp57
 70
     1
102
RTVSPropertyOp0
 70
     1
102
RTVSPropertyOp1
 70
     1
102
RTVSPropertyOp2
 70
     1
102
RTVSPropertyOp3
 70
     1
102
RTVSPropertyOp4
 70
     1
102
RTVSPropertyOp5
 70
     1
102
RTVSPropertyOp6
 70
     1
102
RTVSPropertyOp7
 70
     1
102
RTVSPropertyOp8
 70
     1
102
RTVSPropertyOp9
 70
     1
102
RTVSPropertyOp10
 70
     1
102
RTVSPropertyOp11
 70
     1
102
RTVSPropertyOp12
 70
     1
102
RTVSPropertyOp13
 70
     1
102
RTVSPropertyOp14
 70
     1
102
RTVSPropertyOp15
 70
     1
102
RTVSPropertyOp16
 70
     1
102
RTVSPropertyOp17
 70
     1
102
RTVSPropertyOp18
 70
     1
102
RTVSPropertyOp19
 70
     1
102
RTVSPropertyOp20
 70
     1
102
RTVSPropertyOp21
 70
     1
102
RTVSPropertyOp22
 70
     1
102
RTVSPropertyOp23
 70
     1
102
RTVSPropertyOp24
 70
     1
102
RTVSPropertyOp25
 70
     1
102
RTVSPropertyOp26
 70
     1
102
RTVSPropertyOp27
 70
     1
102
RTVSPropertyOp28
 70
     1
102
RTVSPropertyOp29
 70
     1
102
RTVSPropertyOp30
 70
     1
102
RTVSPropertyOp31
 70
     1
102
RTVSPropertyOp32
 70
     1
102
RTVSPropertyOp33
 70
     1
102
RTVSPropertyOp34
 70
     1
102
RTVSPropertyOp35
 70
     1
102
RTVSPropertyOp36
 70
     1
102
RTVSPropertyOp37
 70
     1
102
RTVSPropertyOp38
 70
     1
102
RTVSPropertyOp39
 70
     1
102
RTVSPropertyOp40
 70
     1
102
RTVSPropertyOp41
 70
     1
102
RTVSPropertyOp42
 70
     1
102
RTVSPropertyOp43
 70
     1
102
RTVSPropertyOp44
 70
     1
102
RTVSPropertyOp45
 70
     1
102
RTVSPropertyOp46
 70
     1
102
RTVSPropertyOp47
 70
     1
102
RTVSPropertyOp48
 70
     1
102
RTVSPropertyOp49
 70
     1
102
RTVSPropertyOp50
 70
     1
102
RTVSPropertyOp51
 70
     0
102
RTVSPropertyOp52
 70
     0
102
RTVSPropertyOp53
 70
     1
102
RTVSPropertyOp54
 70
     1
102
RTVSPropertyOp55
 70
     1
102
RTVSPropertyOp56
 70
     1
102
RTVSPropertyOp57
 70
     1
102
RTVSPropertyOp58
 70
     1
102
RTVSPropertyOp59
 70
     1
102
RTVSPropertyOp60
 70
     1
102
RTVSPropertyOp61
 70
     1
102
RTVSPropertyOp62
 70
     1
  0
XRECORD
  5
9868
102
{ACAD_REACTORS
330
9867
102
}
330
9867
100
AcDbXrecord
280
     1
102
RTVSPost2010Prop28
280
     0
102
RTVSPost2010PropOp28
 70
     1
102
RTVSPost2010Prop29
280
     1
102
RTVSPost2010PropOp29
 70
     1
102
RTVSPost2010Prop30
280
     1
102
RTVSPost2010PropOp30
 70
     1
102
RTVSPost2010Prop31
280
     0
102
RTVSPost2010PropOp31
 70
     1
102
RTVSPost2010Prop32
280
     0
102
RTVSPost2010PropOp32
 70
     1
102
RTVSPost2010Prop33
280
     0
102
RTVSPost2010PropOp33
 70
     1
102
RTVSPost2010Prop34
280
     0
102
RTVSPost2010PropOp34
 70
     1
102
RTVSPost2010Prop35
280
     0
102
RTVSPost2010PropOp35
 70
     1
102
RTVSPost2010Prop36
280
     0
102
RTVSPost2010PropOp36
 70
     1
102
RTVSPost2010Prop37
 90
       50
102
RTVSPost2010PropOp37
 70
     1
102
RTVSPost2010Prop38
140
0.0
102
RTVSPost2010PropOp38
 70
     1
102
RTVSPost2010Prop39
140
1.0
102
RTVSPost2010PropOp39
 70
     1
102
RTVSPost2010Prop40
 90
        0
102
RTVSPost2010PropOp40
 70
     1
102
RTVSPost2010Prop41ColorIndex
 90
       18
102
RTVSPost2010Prop41ColorRGB
 90
        0
102
RTVSPost2010PropOp41
 70
     1
102
RTVSPost2010Prop42
 90
       50
102
RTVSPost2010PropOp42
 70
     1
102
RTVSPost2010Prop43
 90
        3
102
RTVSPost2010PropOp43
 70
     1
102
RTVSPost2010Prop44ColorIndex
 90
        5
102
RTVSPost2010Prop44ColorRGB
 90
      255
102
RTVSPost2010PropOp44
 70
     1
102
RTVSPost2010Prop45
280
     0
102
RTVSPost2010PropOp45
 70
     1
102
RTVSPost2010Prop46
 90
       50
102
RTVSPost2010PropOp46
 70
     1
102
RTVSPost2010Prop47
 90
       50
102
RTVSPost2010PropOp47
 70
     1
102
RTVSPost2010Prop48
 90
       50
102
RTVSPost2010PropOp48
 70
     1
102
RTVSPost2010Prop49
280
     0
102
RTVSPost2010PropOp49
 70
     1
102
RTVSPost2010Prop50
 90
       50
102
RTVSPost2010PropOp50
 70
     1
102
RTVSPost2010Prop51ColorIndex
 90
      256
102
RTVSPost2010Prop51ColorRGB
 90
-16777216
102
RTVSPost2010PropOp51
 70
     0
102
RTVSPost2010Prop52
140
1.0
102
RTVSPost2010PropOp52
 70
     0
102
RTVSPost2010Prop53
 90
        2
102
RTVSPost2010PropOp53
 70
     1
102
RTVSPost2010Prop54
  1
strokes_ogs.tif
102
RTVSPost2010PropOp54
 70
     1
102
RTVSPost2010Prop55
280
     0
102
RTVSPost2010PropOp55
 70
     1
102
RTVSPost2010Prop56
140
1.0
102
RTVSPost2010PropOp56
 70
     1
102
RTVSPost2010Prop57
140
1.0
102
RTVSPost2010PropOp57
 70
     1
102
RTVSPropertyOp0
 70
     1
102
RTVSPropertyOp1
 70
     1
102
RTVSPropertyOp2
 70
     1
102
RTVSPropertyOp3
 70
     1
102
RTVSPropertyOp4
 70
     1
102
RTVSPropertyOp5
 70
     1
102
RTVSPropertyOp6
 70
     1
102
RTVSPropertyOp7
 70
     1
102
RTVSPropertyOp8
 70
     1
102
RTVSPropertyOp9
 70
     1
102
RTVSPropertyOp10
 70
     1
102
RTVSPropertyOp11
 70
     1
102
RTVSPropertyOp12
 70
     1
102
RTVSPropertyOp13
 70
     1
102
RTVSPropertyOp14
 70
     1
102
RTVSPropertyOp15
 70
     1
102
RTVSPropertyOp16
 70
     1
102
RTVSPropertyOp17
 70
     1
102
RTVSPropertyOp18
 70
     1
102
RTVSPropertyOp19
 70
     1
102
RTVSPropertyOp20
 70
     1
102
RTVSPropertyOp21
 70
     1
102
RTVSPropertyOp22
 70
     1
102
RTVSPropertyOp23
 70
     1
102
RTVSPropertyOp24
 70
     1
102
RTVSPropertyOp25
 70
     1
102
RTVSPropertyOp26
 70
     1
102
RTVSPropertyOp27
 70
     1
102
RTVSPropertyOp28
 70
     1
102
RTVSPropertyOp29
 70
     1
102
RTVSPropertyOp30
 70
     1
102
RTVSPropertyOp31
 70
     1
102
RTVSPropertyOp32
 70
     1
102
RTVSPropertyOp33
 70
     1
102
RTVSPropertyOp34
 70
     1
102
RTVSPropertyOp35
 70
     1
102
RTVSPropertyOp36
 70
     1
102
RTVSPropertyOp37
 70
     1
102
RTVSPropertyOp38
 70
     1
102
RTVSPropertyOp39
 70
     1
102
RTVSPropertyOp40
 70
     1
102
RTVSPropertyOp41
 70
     1
102
RTVSPropertyOp42
 70
     1
102
RTVSPropertyOp43
 70
     1
102
RTVSPropertyOp44
 70
     1
102
RTVSPropertyOp45
 70
     1
102
RTVSPropertyOp46
 70
     1
102
RTVSPropertyOp47
 70
     1
102
RTVSPropertyOp48
 70
     1
102
RTVSPropertyOp49
 70
     1
102
RTVSPropertyOp50
 70
     1
102
RTVSPropertyOp51
 70
     0
102
RTVSPropertyOp52
 70
     0
102
RTVSPropertyOp53
 70
     1
102
RTVSPropertyOp54
 70
     1
102
RTVSPropertyOp55
 70
     1
102
RTVSPropertyOp56
 70
     1
102
RTVSPropertyOp57
 70
     1
102
RTVSPropertyOp58
 70
     1
102
RTVSPropertyOp59
 70
     1
102
RTVSPropertyOp60
 70
     1
102
RTVSPropertyOp61
 70
     1
102
RTVSPropertyOp62
 70
     1
  0
XRECORD
  5
986A
102
{ACAD_REACTORS
330
9869
102
}
330
9869
100
AcDbXrecord
280
     1
102
RTVSPost2010Prop28
280
     0
102
RTVSPost2010PropOp28
 70
     1
102
RTVSPost2010Prop29
280
     1
102
RTVSPost2010PropOp29
 70
     1
102
RTVSPost2010Prop30
280
     1
102
RTVSPost2010PropOp30
 70
     1
102
RTVSPost2010Prop31
280
     0
102
RTVSPost2010PropOp31
 70
     1
102
RTVSPost2010Prop32
280
     0
102
RTVSPost2010PropOp32
 70
     1
102
RTVSPost2010Prop33
280
     0
102
RTVSPost2010PropOp33
 70
     1
102
RTVSPost2010Prop34
280
     0
102
RTVSPost2010PropOp34
 70
     1
102
RTVSPost2010Prop35
280
     0
102
RTVSPost2010PropOp35
 70
     1
102
RTVSPost2010Prop36
280
     0
102
RTVSPost2010PropOp36
 70
     1
102
RTVSPost2010Prop37
 90
       50
102
RTVSPost2010PropOp37
 70
     1
102
RTVSPost2010Prop38
140
0.0
102
RTVSPost2010PropOp38
 70
     1
102
RTVSPost2010Prop39
140
1.0
102
RTVSPost2010PropOp39
 70
     1
102
RTVSPost2010Prop40
 90
        0
102
RTVSPost2010PropOp40
 70
     1
102
RTVSPost2010Prop41ColorIndex
 90
       18
102
RTVSPost2010Prop41ColorRGB
 90
        0
102
RTVSPost2010PropOp41
 70
     1
102
RTVSPost2010Prop42
 90
       50
102
RTVSPost2010PropOp42
 70
     1
102
RTVSPost2010Prop43
 90
        3
102
RTVSPost2010PropOp43
 70
     1
102
RTVSPost2010Prop44ColorIndex
 90
        5
102
RTVSPost2010Prop44ColorRGB
 90
      255
102
RTVSPost2010PropOp44
 70
     1
102
RTVSPost2010Prop45
280
     0
102
RTVSPost2010PropOp45
 70
     1
102
RTVSPost2010Prop46
 90
       50
102
RTVSPost2010PropOp46
 70
     1
102
RTVSPost2010Prop47
 90
       50
102
RTVSPost2010PropOp47
 70
     1
102
RTVSPost2010Prop48
 90
       50
102
RTVSPost2010PropOp48
 70
     1
102
RTVSPost2010Prop49
280
     0
102
RTVSPost2010PropOp49
 70
     1
102
RTVSPost2010Prop50
 90
       50
102
RTVSPost2010PropOp50
 70
     1
102
RTVSPost2010Prop51ColorIndex
 90
      256
102
RTVSPost2010Prop51ColorRGB
 90
-16777216
102
RTVSPost2010PropOp51
 70
     0
102
RTVSPost2010Prop52
140
1.0
102
RTVSPost2010PropOp52
 70
     0
102
RTVSPost2010Prop53
 90
        2
102
RTVSPost2010PropOp53
 70
     1
102
RTVSPost2010Prop54
  1
strokes_ogs.tif
102
RTVSPost2010PropOp54
 70
     1
102
RTVSPost2010Prop55
280
     0
102
RTVSPost2010PropOp55
 70
     1
102
RTVSPost2010Prop56
140
1.0
102
RTVSPost2010PropOp56
 70
     1
102
RTVSPost2010Prop57
140
1.0
102
RTVSPost2010PropOp57
 70
     1
102
RTVSPropertyOp0
 70
     1
102
RTVSPropertyOp1
 70
     1
102
RTVSPropertyOp2
 70
     1
102
RTVSPropertyOp3
 70
     1
102
RTVSPropertyOp4
 70
     1
102
RTVSPropertyOp5
 70
     1
102
RTVSPropertyOp6
 70
     1
102
RTVSPropertyOp7
 70
     1
102
RTVSPropertyOp8
 70
     1
102
RTVSPropertyOp9
 70
     1
102
RTVSPropertyOp10
 70
     1
102
RTVSPropertyOp11
 70
     1
102
RTVSPropertyOp12
 70
     1
102
RTVSPropertyOp13
 70
     1
102
RTVSPropertyOp14
 70
     1
102
RTVSPropertyOp15
 70
     1
102
RTVSPropertyOp16
 70
     1
102
RTVSPropertyOp17
 70
     1
102
RTVSPropertyOp18
 70
     1
102
RTVSPropertyOp19
 70
     1
102
RTVSPropertyOp20
 70
     1
102
RTVSPropertyOp21
 70
     1
102
RTVSPropertyOp22
 70
     1
102
RTVSPropertyOp23
 70
     1
102
RTVSPropertyOp24
 70
     1
102
RTVSPropertyOp25
 70
     1
102
RTVSPropertyOp26
 70
     1
102
RTVSPropertyOp27
 70
     1
102
RTVSPropertyOp28
 70
     1
102
RTVSPropertyOp29
 70
     1
102
RTVSPropertyOp30
 70
     1
102
RTVSPropertyOp31
 70
     1
102
RTVSPropertyOp32
 70
     1
102
RTVSPropertyOp33
 70
     1
102
RTVSPropertyOp34
 70
     1
102
RTVSPropertyOp35
 70
     1
102
RTVSPropertyOp36
 70
     1
102
RTVSPropertyOp37
 70
     1
102
RTVSPropertyOp38
 70
     1
102
RTVSPropertyOp39
 70
     1
102
RTVSPropertyOp40
 70
     1
102
RTVSPropertyOp41
 70
     1
102
RTVSPropertyOp42
 70
     1
102
RTVSPropertyOp43
 70
     1
102
RTVSPropertyOp44
 70
     1
102
RTVSPropertyOp45
 70
     1
102
RTVSPropertyOp46
 70
     1
102
RTVSPropertyOp47
 70
     1
102
RTVSPropertyOp48
 70
     1
102
RTVSPropertyOp49
 70
     1
102
RTVSPropertyOp50
 70
     1
102
RTVSPropertyOp51
 70
     0
102
RTVSPropertyOp52
 70
     0
102
RTVSPropertyOp53
 70
     1
102
RTVSPropertyOp54
 70
     1
102
RTVSPropertyOp55
 70
     1
102
RTVSPropertyOp56
 70
     1
102
RTVSPropertyOp57
 70
     1
102
RTVSPropertyOp58
 70
     1
102
RTVSPropertyOp59
 70
     1
102
RTVSPropertyOp60
 70
     1
102
RTVSPropertyOp61
 70
     1
102
RTVSPropertyOp62
 70
     1
  0
XRECORD
  5
986C
102
{ACAD_REACTORS
330
986B
102
}
330
986B
100
AcDbXrecord
280
     1
102
RTVSPost2010Prop28
280
     0
102
RTVSPost2010PropOp28
 70
     1
102
RTVSPost2010Prop29
280
     1
102
RTVSPost2010PropOp29
 70
     1
102
RTVSPost2010Prop30
280
     1
102
RTVSPost2010PropOp30
 70
     1
102
RTVSPost2010Prop31
280
     0
102
RTVSPost2010PropOp31
 70
     1
102
RTVSPost2010Prop32
280
     0
102
RTVSPost2010PropOp32
 70
     1
102
RTVSPost2010Prop33
280
     0
102
RTVSPost2010PropOp33
 70
     1
102
RTVSPost2010Prop34
280
     0
102
RTVSPost2010PropOp34
 70
     1
102
RTVSPost2010Prop35
280
     0
102
RTVSPost2010PropOp35
 70
     1
102
RTVSPost2010Prop36
280
     0
102
RTVSPost2010PropOp36
 70
     1
102
RTVSPost2010Prop37
 90
       50
102
RTVSPost2010PropOp37
 70
     1
102
RTVSPost2010Prop38
140
0.0
102
RTVSPost2010PropOp38
 70
     1
102
RTVSPost2010Prop39
140
1.0
102
RTVSPost2010PropOp39
 70
     1
102
RTVSPost2010Prop40
 90
        0
102
RTVSPost2010PropOp40
 70
     1
102
RTVSPost2010Prop41ColorIndex
 90
       18
102
RTVSPost2010Prop41ColorRGB
 90
        0
102
RTVSPost2010PropOp41
 70
     1
102
RTVSPost2010Prop42
 90
       50
102
RTVSPost2010PropOp42
 70
     1
102
RTVSPost2010Prop43
 90
        3
102
RTVSPost2010PropOp43
 70
     1
102
RTVSPost2010Prop44ColorIndex
 90
        5
102
RTVSPost2010Prop44ColorRGB
 90
      255
102
RTVSPost2010PropOp44
 70
     1
102
RTVSPost2010Prop45
280
     0
102
RTVSPost2010PropOp45
 70
     1
102
RTVSPost2010Prop46
 90
       50
102
RTVSPost2010PropOp46
 70
     1
102
RTVSPost2010Prop47
 90
       50
102
RTVSPost2010PropOp47
 70
     1
102
RTVSPost2010Prop48
 90
       50
102
RTVSPost2010PropOp48
 70
     1
102
RTVSPost2010Prop49
280
     0
102
RTVSPost2010PropOp49
 70
     1
102
RTVSPost2010Prop50
 90
       50
102
RTVSPost2010PropOp50
 70
     1
102
RTVSPost2010Prop51ColorIndex
 90
      256
102
RTVSPost2010Prop51ColorRGB
 90
-16777216
102
RTVSPost2010PropOp51
 70
     0
102
RTVSPost2010Prop52
140
1.0
102
RTVSPost2010PropOp52
 70
     0
102
RTVSPost2010Prop53
 90
        2
102
RTVSPost2010PropOp53
 70
     1
102
RTVSPost2010Prop54
  1
strokes_ogs.tif
102
RTVSPost2010PropOp54
 70
     1
102
RTVSPost2010Prop55
280
     0
102
RTVSPost2010PropOp55
 70
     1
102
RTVSPost2010Prop56
140
1.0
102
RTVSPost2010PropOp56
 70
     1
102
RTVSPost2010Prop57
140
1.0
102
RTVSPost2010PropOp57
 70
     1
102
RTVSPropertyOp0
 70
     1
102
RTVSPropertyOp1
 70
     1
102
RTVSPropertyOp2
 70
     1
102
RTVSPropertyOp3
 70
     1
102
RTVSPropertyOp4
 70
     1
102
RTVSPropertyOp5
 70
     1
102
RTVSPropertyOp6
 70
     1
102
RTVSPropertyOp7
 70
     1
102
RTVSPropertyOp8
 70
     1
102
RTVSPropertyOp9
 70
     1
102
RTVSPropertyOp10
 70
     1
102
RTVSPropertyOp11
 70
     1
102
RTVSPropertyOp12
 70
     1
102
RTVSPropertyOp13
 70
     1
102
RTVSPropertyOp14
 70
     1
102
RTVSPropertyOp15
 70
     1
102
RTVSPropertyOp16
 70
     1
102
RTVSPropertyOp17
 70
     1
102
RTVSPropertyOp18
 70
     1
102
RTVSPropertyOp19
 70
     1
102
RTVSPropertyOp20
 70
     1
102
RTVSPropertyOp21
 70
     1
102
RTVSPropertyOp22
 70
     1
102
RTVSPropertyOp23
 70
     1
102
RTVSPropertyOp24
 70
     1
102
RTVSPropertyOp25
 70
     1
102
RTVSPropertyOp26
 70
     1
102
RTVSPropertyOp27
 70
     1
102
RTVSPropertyOp28
 70
     1
102
RTVSPropertyOp29
 70
     1
102
RTVSPropertyOp30
 70
     1
102
RTVSPropertyOp31
 70
     1
102
RTVSPropertyOp32
 70
     1
102
RTVSPropertyOp33
 70
     1
102
RTVSPropertyOp34
 70
     1
102
RTVSPropertyOp35
 70
     1
102
RTVSPropertyOp36
 70
     1
102
RTVSPropertyOp37
 70
     1
102
RTVSPropertyOp38
 70
     1
102
RTVSPropertyOp39
 70
     1
102
RTVSPropertyOp40
 70
     1
102
RTVSPropertyOp41
 70
     1
102
RTVSPropertyOp42
 70
     1
102
RTVSPropertyOp43
 70
     1
102
RTVSPropertyOp44
 70
     1
102
RTVSPropertyOp45
 70
     1
102
RTVSPropertyOp46
 70
     1
102
RTVSPropertyOp47
 70
     1
102
RTVSPropertyOp48
 70
     1
102
RTVSPropertyOp49
 70
     1
102
RTVSPropertyOp50
 70
     1
102
RTVSPropertyOp51
 70
     0
102
RTVSPropertyOp52
 70
     0
102
RTVSPropertyOp53
 70
     1
102
RTVSPropertyOp54
 70
     1
102
RTVSPropertyOp55
 70
     1
102
RTVSPropertyOp56
 70
     1
102
RTVSPropertyOp57
 70
     1
102
RTVSPropertyOp58
 70
     1
102
RTVSPropertyOp59
 70
     1
102
RTVSPropertyOp60
 70
     1
102
RTVSPropertyOp61
 70
     1
102
RTVSPropertyOp62
 70
     1
  0
XRECORD
  5
986E
102
{ACAD_REACTORS
330
986D
102
}
330
986D
100
AcDbXrecord
280
     1
102
RTVSPost2010Prop28
280
     0
102
RTVSPost2010PropOp28
 70
     1
102
RTVSPost2010Prop29
280
     1
102
RTVSPost2010PropOp29
 70
     1
102
RTVSPost2010Prop30
280
     1
102
RTVSPost2010PropOp30
 70
     1
102
RTVSPost2010Prop31
280
     0
102
RTVSPost2010PropOp31
 70
     1
102
RTVSPost2010Prop32
280
     0
102
RTVSPost2010PropOp32
 70
     1
102
RTVSPost2010Prop33
280
     0
102
RTVSPost2010PropOp33
 70
     1
102
RTVSPost2010Prop34
280
     0
102
RTVSPost2010PropOp34
 70
     1
102
RTVSPost2010Prop35
280
     0
102
RTVSPost2010PropOp35
 70
     1
102
RTVSPost2010Prop36
280
     0
102
RTVSPost2010PropOp36
 70
     1
102
RTVSPost2010Prop37
 90
       50
102
RTVSPost2010PropOp37
 70
     1
102
RTVSPost2010Prop38
140
0.0
102
RTVSPost2010PropOp38
 70
     1
102
RTVSPost2010Prop39
140
1.0
102
RTVSPost2010PropOp39
 70
     1
102
RTVSPost2010Prop40
 90
        0
102
RTVSPost2010PropOp40
 70
     1
102
RTVSPost2010Prop41ColorIndex
 90
       18
102
RTVSPost2010Prop41ColorRGB
 90
        0
102
RTVSPost2010PropOp41
 70
     1
102
RTVSPost2010Prop42
 90
       50
102
RTVSPost2010PropOp42
 70
     1
102
RTVSPost2010Prop43
 90
        3
102
RTVSPost2010PropOp43
 70
     1
102
RTVSPost2010Prop44ColorIndex
 90
        5
102
RTVSPost2010Prop44ColorRGB
 90
      255
102
RTVSPost2010PropOp44
 70
     1
102
RTVSPost2010Prop45
280
     0
102
RTVSPost2010PropOp45
 70
     1
102
RTVSPost2010Prop46
 90
       50
102
RTVSPost2010PropOp46
 70
     1
102
RTVSPost2010Prop47
 90
       50
102
RTVSPost2010PropOp47
 70
     1
102
RTVSPost2010Prop48
 90
       50
102
RTVSPost2010PropOp48
 70
     1
102
RTVSPost2010Prop49
280
     0
102
RTVSPost2010PropOp49
 70
     1
102
RTVSPost2010Prop50
 90
       50
102
RTVSPost2010PropOp50
 70
     1
102
RTVSPost2010Prop51ColorIndex
 90
      256
102
RTVSPost2010Prop51ColorRGB
 90
-16777216
102
RTVSPost2010PropOp51
 70
     0
102
RTVSPost2010Prop52
140
1.0
102
RTVSPost2010PropOp52
 70
     0
102
RTVSPost2010Prop53
 90
        2
102
RTVSPost2010PropOp53
 70
     1
102
RTVSPost2010Prop54
  1
strokes_ogs.tif
102
RTVSPost2010PropOp54
 70
     1
102
RTVSPost2010Prop55
280
     0
102
RTVSPost2010PropOp55
 70
     1
102
RTVSPost2010Prop56
140
1.0
102
RTVSPost2010PropOp56
 70
     1
102
RTVSPost2010Prop57
140
1.0
102
RTVSPost2010PropOp57
 70
     1
102
RTVSPropertyOp0
 70
     1
102
RTVSPropertyOp1
 70
     1
102
RTVSPropertyOp2
 70
     1
102
RTVSPropertyOp3
 70
     1
102
RTVSPropertyOp4
 70
     1
102
RTVSPropertyOp5
 70
     1
102
RTVSPropertyOp6
 70
     1
102
RTVSPropertyOp7
 70
     1
102
RTVSPropertyOp8
 70
     1
102
RTVSPropertyOp9
 70
     1
102
RTVSPropertyOp10
 70
     1
102
RTVSPropertyOp11
 70
     1
102
RTVSPropertyOp12
 70
     1
102
RTVSPropertyOp13
 70
     1
102
RTVSPropertyOp14
 70
     1
102
RTVSPropertyOp15
 70
     1
102
RTVSPropertyOp16
 70
     1
102
RTVSPropertyOp17
 70
     1
102
RTVSPropertyOp18
 70
     1
102
RTVSPropertyOp19
 70
     1
102
RTVSPropertyOp20
 70
     1
102
RTVSPropertyOp21
 70
     1
102
RTVSPropertyOp22
 70
     1
102
RTVSPropertyOp23
 70
     1
102
RTVSPropertyOp24
 70
     1
102
RTVSPropertyOp25
 70
     1
102
RTVSPropertyOp26
 70
     1
102
RTVSPropertyOp27
 70
     1
102
RTVSPropertyOp28
 70
     1
102
RTVSPropertyOp29
 70
     1
102
RTVSPropertyOp30
 70
     1
102
RTVSPropertyOp31
 70
     1
102
RTVSPropertyOp32
 70
     1
102
RTVSPropertyOp33
 70
     1
102
RTVSPropertyOp34
 70
     1
102
RTVSPropertyOp35
 70
     1
102
RTVSPropertyOp36
 70
     1
102
RTVSPropertyOp37
 70
     1
102
RTVSPropertyOp38
 70
     1
102
RTVSPropertyOp39
 70
     1
102
RTVSPropertyOp40
 70
     1
102
RTVSPropertyOp41
 70
     1
102
RTVSPropertyOp42
 70
     1
102
RTVSPropertyOp43
 70
     1
102
RTVSPropertyOp44
 70
     1
102
RTVSPropertyOp45
 70
     1
102
RTVSPropertyOp46
 70
     1
102
RTVSPropertyOp47
 70
     1
102
RTVSPropertyOp48
 70
     1
102
RTVSPropertyOp49
 70
     1
102
RTVSPropertyOp50
 70
     1
102
RTVSPropertyOp51
 70
     0
102
RTVSPropertyOp52
 70
     0
102
RTVSPropertyOp53
 70
     1
102
RTVSPropertyOp54
 70
     1
102
RTVSPropertyOp55
 70
     1
102
RTVSPropertyOp56
 70
     1
102
RTVSPropertyOp57
 70
     1
102
RTVSPropertyOp58
 70
     1
102
RTVSPropertyOp59
 70
     1
102
RTVSPropertyOp60
 70
     1
102
RTVSPropertyOp61
 70
     1
102
RTVSPropertyOp62
 70
     1
  0
XRECORD
  5
9876
102
{ACAD_REACTORS
330
9875
102
}
330
9875
100
AcDbXrecord
280
     1
102
RTVSPost2010Prop28
280
     0
102
RTVSPost2010PropOp28
 70
     1
102
RTVSPost2010Prop29
280
     1
102
RTVSPost2010PropOp29
 70
     1
102
RTVSPost2010Prop30
280
     1
102
RTVSPost2010PropOp30
 70
     1
102
RTVSPost2010Prop31
280
     0
102
RTVSPost2010PropOp31
 70
     1
102
RTVSPost2010Prop32
280
     0
102
RTVSPost2010PropOp32
 70
     1
102
RTVSPost2010Prop33
280
     0
102
RTVSPost2010PropOp33
 70
     1
102
RTVSPost2010Prop34
280
     0
102
RTVSPost2010PropOp34
 70
     1
102
RTVSPost2010Prop35
280
     0
102
RTVSPost2010PropOp35
 70
     1
102
RTVSPost2010Prop36
280
     0
102
RTVSPost2010PropOp36
 70
     1
102
RTVSPost2010Prop37
 90
       50
102
RTVSPost2010PropOp37
 70
     1
102
RTVSPost2010Prop38
140
0.0
102
RTVSPost2010PropOp38
 70
     1
102
RTVSPost2010Prop39
140
1.0
102
RTVSPost2010PropOp39
 70
     1
102
RTVSPost2010Prop40
 90
        0
102
RTVSPost2010PropOp40
 70
     1
102
RTVSPost2010Prop41ColorIndex
 90
       18
102
RTVSPost2010Prop41ColorRGB
 90
        0
102
RTVSPost2010PropOp41
 70
     1
102
RTVSPost2010Prop42
 90
       50
102
RTVSPost2010PropOp42
 70
     1
102
RTVSPost2010Prop43
 90
        3
102
RTVSPost2010PropOp43
 70
     1
102
RTVSPost2010Prop44ColorIndex
 90
        5
102
RTVSPost2010Prop44ColorRGB
 90
      255
102
RTVSPost2010PropOp44
 70
     1
102
RTVSPost2010Prop45
280
     0
102
RTVSPost2010PropOp45
 70
     1
102
RTVSPost2010Prop46
 90
       50
102
RTVSPost2010PropOp46
 70
     1
102
RTVSPost2010Prop47
 90
       50
102
RTVSPost2010PropOp47
 70
     1
102
RTVSPost2010Prop48
 90
       50
102
RTVSPost2010PropOp48
 70
     1
102
RTVSPost2010Prop49
280
     0
102
RTVSPost2010PropOp49
 70
     1
102
RTVSPost2010Prop50
 90
       50
102
RTVSPost2010PropOp50
 70
     1
102
RTVSPost2010Prop51ColorIndex
 90
      256
102
RTVSPost2010Prop51ColorRGB
 90
-16777216
102
RTVSPost2010PropOp51
 70
     0
102
RTVSPost2010Prop52
140
1.0
102
RTVSPost2010PropOp52
 70
     0
102
RTVSPost2010Prop53
 90
        2
102
RTVSPost2010PropOp53
 70
     1
102
RTVSPost2010Prop54
  1
strokes_ogs.tif
102
RTVSPost2010PropOp54
 70
     1
102
RTVSPost2010Prop55
280
     0
102
RTVSPost2010PropOp55
 70
     1
102
RTVSPost2010Prop56
140
1.0
102
RTVSPost2010PropOp56
 70
     1
102
RTVSPost2010Prop57
140
1.0
102
RTVSPost2010PropOp57
 70
     1
102
RTVSPropertyOp0
 70
     1
102
RTVSPropertyOp1
 70
     1
102
RTVSPropertyOp2
 70
     1
102
RTVSPropertyOp3
 70
     1
102
RTVSPropertyOp4
 70
     1
102
RTVSPropertyOp5
 70
     1
102
RTVSPropertyOp6
 70
     1
102
RTVSPropertyOp7
 70
     1
102
RTVSPropertyOp8
 70
     1
102
RTVSPropertyOp9
 70
     1
102
RTVSPropertyOp10
 70
     1
102
RTVSPropertyOp11
 70
     1
102
RTVSPropertyOp12
 70
     1
102
RTVSPropertyOp13
 70
     1
102
RTVSPropertyOp14
 70
     1
102
RTVSPropertyOp15
 70
     1
102
RTVSPropertyOp16
 70
     1
102
RTVSPropertyOp17
 70
     1
102
RTVSPropertyOp18
 70
     1
102
RTVSPropertyOp19
 70
     1
102
RTVSPropertyOp20
 70
     1
102
RTVSPropertyOp21
 70
     1
102
RTVSPropertyOp22
 70
     1
102
RTVSPropertyOp23
 70
     1
102
RTVSPropertyOp24
 70
     1
102
RTVSPropertyOp25
 70
     1
102
RTVSPropertyOp26
 70
     1
102
RTVSPropertyOp27
 70
     1
102
RTVSPropertyOp28
 70
     1
102
RTVSPropertyOp29
 70
     1
102
RTVSPropertyOp30
 70
     1
102
RTVSPropertyOp31
 70
     1
102
RTVSPropertyOp32
 70
     1
102
RTVSPropertyOp33
 70
     1
102
RTVSPropertyOp34
 70
     1
102
RTVSPropertyOp35
 70
     1
102
RTVSPropertyOp36
 70
     1
102
RTVSPropertyOp37
 70
     1
102
RTVSPropertyOp38
 70
     1
102
RTVSPropertyOp39
 70
     1
102
RTVSPropertyOp40
 70
     1
102
RTVSPropertyOp41
 70
     1
102
RTVSPropertyOp42
 70
     1
102
RTVSPropertyOp43
 70
     1
102
RTVSPropertyOp44
 70
     1
102
RTVSPropertyOp45
 70
     1
102
RTVSPropertyOp46
 70
     1
102
RTVSPropertyOp47
 70
     1
102
RTVSPropertyOp48
 70
     1
102
RTVSPropertyOp49
 70
     1
102
RTVSPropertyOp50
 70
     1
102
RTVSPropertyOp51
 70
     0
102
RTVSPropertyOp52
 70
     0
102
RTVSPropertyOp53
 70
     1
102
RTVSPropertyOp54
 70
     1
102
RTVSPropertyOp55
 70
     1
102
RTVSPropertyOp56
 70
     1
102
RTVSPropertyOp57
 70
     1
102
RTVSPropertyOp58
 70
     1
102
RTVSPropertyOp59
 70
     1
102
RTVSPropertyOp60
 70
     1
102
RTVSPropertyOp61
 70
     1
102
RTVSPropertyOp62
 70
     1
  0
XRECORD
  5
9892
102
{ACAD_REACTORS
330
9891
102
}
330
9891
100
AcDbXrecord
280
     1
102
RTVSPost2010Prop28
280
     0
102
RTVSPost2010PropOp28
 70
     1
102
RTVSPost2010Prop29
280
     1
102
RTVSPost2010PropOp29
 70
     1
102
RTVSPost2010Prop30
280
     1
102
RTVSPost2010PropOp30
 70
     1
102
RTVSPost2010Prop31
280
     0
102
RTVSPost2010PropOp31
 70
     1
102
RTVSPost2010Prop32
280
     0
102
RTVSPost2010PropOp32
 70
     1
102
RTVSPost2010Prop33
280
     0
102
RTVSPost2010PropOp33
 70
     1
102
RTVSPost2010Prop34
280
     0
102
RTVSPost2010PropOp34
 70
     1
102
RTVSPost2010Prop35
280
     0
102
RTVSPost2010PropOp35
 70
     1
102
RTVSPost2010Prop36
280
     0
102
RTVSPost2010PropOp36
 70
     1
102
RTVSPost2010Prop37
 90
       50
102
RTVSPost2010PropOp37
 70
     0
102
RTVSPost2010Prop38
140
0.0
102
RTVSPost2010PropOp38
 70
     0
102
RTVSPost2010Prop39
140
1.0
102
RTVSPost2010PropOp39
 70
     0
102
RTVSPost2010Prop40
 90
        0
102
RTVSPost2010PropOp40
 70
     0
102
RTVSPost2010Prop41ColorIndex
 90
       18
102
RTVSPost2010Prop41ColorRGB
 90
        0
102
RTVSPost2010PropOp41
 70
     0
102
RTVSPost2010Prop42
 90
       50
102
RTVSPost2010PropOp42
 70
     0
102
RTVSPost2010Prop43
 90
        3
102
RTVSPost2010PropOp43
 70
     0
102
RTVSPost2010Prop44ColorIndex
 90
        5
102
RTVSPost2010Prop44ColorRGB
 90
      255
102
RTVSPost2010PropOp44
 70
     0
102
RTVSPost2010Prop45
280
     0
102
RTVSPost2010PropOp45
 70
     1
102
RTVSPost2010Prop46
 90
       50
102
RTVSPost2010PropOp46
 70
     0
102
RTVSPost2010Prop47
 90
       50
102
RTVSPost2010PropOp47
 70
     0
102
RTVSPost2010Prop48
 90
       50
102
RTVSPost2010PropOp48
 70
     0
102
RTVSPost2010Prop49
280
     0
102
RTVSPost2010PropOp49
 70
     1
102
RTVSPost2010Prop50
 90
       50
102
RTVSPost2010PropOp50
 70
     0
102
RTVSPost2010Prop51ColorIndex
 90
      256
102
RTVSPost2010Prop51ColorRGB
 90
-16777216
102
RTVSPost2010PropOp51
 70
     0
102
RTVSPost2010Prop52
140
1.0
102
RTVSPost2010PropOp52
 70
     0
102
RTVSPost2010Prop53
 90
        2
102
RTVSPost2010PropOp53
 70
     0
102
RTVSPost2010Prop54
  1
strokes_ogs.tif
102
RTVSPost2010PropOp54
 70
     0
102
RTVSPost2010Prop55
280
     0
102
RTVSPost2010PropOp55
 70
     1
102
RTVSPost2010Prop56
140
1.0
102
RTVSPost2010PropOp56
 70
     0
102
RTVSPost2010Prop57
140
1.0
102
RTVSPost2010PropOp57
 70
     0
102
RTVSPropertyOp0
 70
     0
102
RTVSPropertyOp1
 70
     0
102
RTVSPropertyOp2
 70
     0
102
RTVSPropertyOp3
 70
     0
102
RTVSPropertyOp4
 70
     0
102
RTVSPropertyOp5
 70
     0
102
RTVSPropertyOp6
 70
     0
102
RTVSPropertyOp7
 70
     0
102
RTVSPropertyOp8
 70
     0
102
RTVSPropertyOp9
 70
     0
102
RTVSPropertyOp10
 70
     0
102
RTVSPropertyOp11
 70
     0
102
RTVSPropertyOp12
 70
     0
102
RTVSPropertyOp13
 70
     0
102
RTVSPropertyOp14
 70
     2
102
RTVSPropertyOp15
 70
     0
102
RTVSPropertyOp16
 70
     0
102
RTVSPropertyOp17
 70
     0
102
RTVSPropertyOp18
 70
     0
102
RTVSPropertyOp19
 70
     0
102
RTVSPropertyOp20
 70
     0
102
RTVSPropertyOp21
 70
     0
102
RTVSPropertyOp22
 70
     0
102
RTVSPropertyOp23
 70
     0
102
RTVSPropertyOp24
 70
     0
102
RTVSPropertyOp25
 70
     0
102
RTVSPropertyOp26
 70
     0
102
RTVSPropertyOp27
 70
     0
102
RTVSPropertyOp28
 70
     1
102
RTVSPropertyOp29
 70
     1
102
RTVSPropertyOp30
 70
     1
102
RTVSPropertyOp31
 70
     1
102
RTVSPropertyOp32
 70
     1
102
RTVSPropertyOp33
 70
     1
102
RTVSPropertyOp34
 70
     1
102
RTVSPropertyOp35
 70
     1
102
RTVSPropertyOp36
 70
     1
102
RTVSPropertyOp37
 70
     0
102
RTVSPropertyOp38
 70
     0
102
RTVSPropertyOp39
 70
     0
102
RTVSPropertyOp40
 70
     0
102
RTVSPropertyOp41
 70
     0
102
RTVSPropertyOp42
 70
     0
102
RTVSPropertyOp43
 70
     0
102
RTVSPropertyOp44
 70
     0
102
RTVSPropertyOp45
 70
     1
102
RTVSPropertyOp46
 70
     0
102
RTVSPropertyOp47
 70
     0
102
RTVSPropertyOp48
 70
     0
102
RTVSPropertyOp49
 70
     1
102
RTVSPropertyOp50
 70
     0
102
RTVSPropertyOp51
 70
     0
102
RTVSPropertyOp52
 70
     0
102
RTVSPropertyOp53
 70
     0
102
RTVSPropertyOp54
 70
     0
102
RTVSPropertyOp55
 70
     1
102
RTVSPropertyOp56
 70
     0
102
RTVSPropertyOp57
 70
     0
102
RTVSPropertyOp58
 70
     0
102
RTVSPropertyOp59
 70
     0
102
RTVSPropertyOp60
 70
     0
102
RTVSPropertyOp61
 70
     0
102
RTVSPropertyOp62
 70
     0
  0
XRECORD
  5
9882
102
{ACAD_REACTORS
330
9881
102
}
330
9881
100
AcDbXrecord
280
     1
102
RTVSPost2010Prop28
280
     0
102
RTVSPost2010PropOp28
 70
     1
102
RTVSPost2010Prop29
280
     1
102
RTVSPost2010PropOp29
 70
     1
102
RTVSPost2010Prop30
280
     1
102
RTVSPost2010PropOp30
 70
     1
102
RTVSPost2010Prop31
280
     0
102
RTVSPost2010PropOp31
 70
     1
102
RTVSPost2010Prop32
280
     0
102
RTVSPost2010PropOp32
 70
     1
102
RTVSPost2010Prop33
280
     0
102
RTVSPost2010PropOp33
 70
     1
102
RTVSPost2010Prop34
280
     0
102
RTVSPost2010PropOp34
 70
     1
102
RTVSPost2010Prop35
280
     0
102
RTVSPost2010PropOp35
 70
     1
102
RTVSPost2010Prop36
280
     0
102
RTVSPost2010PropOp36
 70
     1
102
RTVSPost2010Prop37
 90
       50
102
RTVSPost2010PropOp37
 70
     1
102
RTVSPost2010Prop38
140
0.0
102
RTVSPost2010PropOp38
 70
     1
102
RTVSPost2010Prop39
140
1.0
102
RTVSPost2010PropOp39
 70
     1
102
RTVSPost2010Prop40
 90
        0
102
RTVSPost2010PropOp40
 70
     1
102
RTVSPost2010Prop41ColorIndex
 90
       18
102
RTVSPost2010Prop41ColorRGB
 90
        0
102
RTVSPost2010PropOp41
 70
     1
102
RTVSPost2010Prop42
 90
       50
102
RTVSPost2010PropOp42
 70
     1
102
RTVSPost2010Prop43
 90
        3
102
RTVSPost2010PropOp43
 70
     1
102
RTVSPost2010Prop44ColorIndex
 90
        5
102
RTVSPost2010Prop44ColorRGB
 90
      255
102
RTVSPost2010PropOp44
 70
     1
102
RTVSPost2010Prop45
280
     0
102
RTVSPost2010PropOp45
 70
     1
102
RTVSPost2010Prop46
 90
       50
102
RTVSPost2010PropOp46
 70
     1
102
RTVSPost2010Prop47
 90
       50
102
RTVSPost2010PropOp47
 70
     1
102
RTVSPost2010Prop48
 90
       50
102
RTVSPost2010PropOp48
 70
     1
102
RTVSPost2010Prop49
280
     0
102
RTVSPost2010PropOp49
 70
     1
102
RTVSPost2010Prop50
 90
       50
102
RTVSPost2010PropOp50
 70
     1
102
RTVSPost2010Prop51ColorIndex
 90
      256
102
RTVSPost2010Prop51ColorRGB
 90
-16777216
102
RTVSPost2010PropOp51
 70
     0
102
RTVSPost2010Prop52
140
1.0
102
RTVSPost2010PropOp52
 70
     0
102
RTVSPost2010Prop53
 90
        2
102
RTVSPost2010PropOp53
 70
     1
102
RTVSPost2010Prop54
  1
strokes_ogs.tif
102
RTVSPost2010PropOp54
 70
     1
102
RTVSPost2010Prop55
280
     0
102
RTVSPost2010PropOp55
 70
     1
102
RTVSPost2010Prop56
140
1.0
102
RTVSPost2010PropOp56
 70
     1
102
RTVSPost2010Prop57
140
1.0
102
RTVSPost2010PropOp57
 70
     1
102
RTVSPropertyOp0
 70
     1
102
RTVSPropertyOp1
 70
     1
102
RTVSPropertyOp2
 70
     1
102
RTVSPropertyOp3
 70
     1
102
RTVSPropertyOp4
 70
     1
102
RTVSPropertyOp5
 70
     1
102
RTVSPropertyOp6
 70
     1
102
RTVSPropertyOp7
 70
     1
102
RTVSPropertyOp8
 70
     1
102
RTVSPropertyOp9
 70
     1
102
RTVSPropertyOp10
 70
     1
102
RTVSPropertyOp11
 70
     1
102
RTVSPropertyOp12
 70
     1
102
RTVSPropertyOp13
 70
     1
102
RTVSPropertyOp14
 70
     1
102
RTVSPropertyOp15
 70
     1
102
RTVSPropertyOp16
 70
     1
102
RTVSPropertyOp17
 70
     1
102
RTVSPropertyOp18
 70
     1
102
RTVSPropertyOp19
 70
     1
102
RTVSPropertyOp20
 70
     1
102
RTVSPropertyOp21
 70
     1
102
RTVSPropertyOp22
 70
     1
102
RTVSPropertyOp23
 70
     1
102
RTVSPropertyOp24
 70
     1
102
RTVSPropertyOp25
 70
     1
102
RTVSPropertyOp26
 70
     1
102
RTVSPropertyOp27
 70
     1
102
RTVSPropertyOp28
 70
     1
102
RTVSPropertyOp29
 70
     1
102
RTVSPropertyOp30
 70
     1
102
RTVSPropertyOp31
 70
     1
102
RTVSPropertyOp32
 70
     1
102
RTVSPropertyOp33
 70
     1
102
RTVSPropertyOp34
 70
     1
102
RTVSPropertyOp35
 70
     1
102
RTVSPropertyOp36
 70
     1
102
RTVSPropertyOp37
 70
     1
102
RTVSPropertyOp38
 70
     1
102
RTVSPropertyOp39
 70
     1
102
RTVSPropertyOp40
 70
     1
102
RTVSPropertyOp41
 70
     1
102
RTVSPropertyOp42
 70
     1
102
RTVSPropertyOp43
 70
     1
102
RTVSPropertyOp44
 70
     1
102
RTVSPropertyOp45
 70
     1
102
RTVSPropertyOp46
 70
     1
102
RTVSPropertyOp47
 70
     1
102
RTVSPropertyOp48
 70
     1
102
RTVSPropertyOp49
 70
     1
102
RTVSPropertyOp50
 70
     1
102
RTVSPropertyOp51
 70
     0
102
RTVSPropertyOp52
 70
     0
102
RTVSPropertyOp53
 70
     1
102
RTVSPropertyOp54
 70
     1
102
RTVSPropertyOp55
 70
     1
102
RTVSPropertyOp56
 70
     1
102
RTVSPropertyOp57
 70
     1
102
RTVSPropertyOp58
 70
     1
102
RTVSPropertyOp59
 70
     1
102
RTVSPropertyOp60
 70
     1
102
RTVSPropertyOp61
 70
     1
102
RTVSPropertyOp62
 70
     1
  0
XRECORD
  5
9894
102
{ACAD_REACTORS
330
9893
102
}
330
9893
100
AcDbXrecord
280
     1
102
RTVSPost2010Prop28
280
     0
102
RTVSPost2010PropOp28
 70
     1
102
RTVSPost2010Prop29
280
     1
102
RTVSPost2010PropOp29
 70
     1
102
RTVSPost2010Prop30
280
     1
102
RTVSPost2010PropOp30
 70
     1
102
RTVSPost2010Prop31
280
     0
102
RTVSPost2010PropOp31
 70
     1
102
RTVSPost2010Prop32
280
     0
102
RTVSPost2010PropOp32
 70
     1
102
RTVSPost2010Prop33
280
     0
102
RTVSPost2010PropOp33
 70
     1
102
RTVSPost2010Prop34
280
     0
102
RTVSPost2010PropOp34
 70
     1
102
RTVSPost2010Prop35
280
     0
102
RTVSPost2010PropOp35
 70
     1
102
RTVSPost2010Prop36
280
     0
102
RTVSPost2010PropOp36
 70
     1
102
RTVSPost2010Prop37
 90
       50
102
RTVSPost2010PropOp37
 70
     0
102
RTVSPost2010Prop38
140
0.0
102
RTVSPost2010PropOp38
 70
     0
102
RTVSPost2010Prop39
140
1.0
102
RTVSPost2010PropOp39
 70
     0
102
RTVSPost2010Prop40
 90
        0
102
RTVSPost2010PropOp40
 70
     0
102
RTVSPost2010Prop41ColorIndex
 90
       18
102
RTVSPost2010Prop41ColorRGB
 90
        0
102
RTVSPost2010PropOp41
 70
     0
102
RTVSPost2010Prop42
 90
       50
102
RTVSPost2010PropOp42
 70
     0
102
RTVSPost2010Prop43
 90
        3
102
RTVSPost2010PropOp43
 70
     0
102
RTVSPost2010Prop44ColorIndex
 90
        5
102
RTVSPost2010Prop44ColorRGB
 90
      255
102
RTVSPost2010PropOp44
 70
     0
102
RTVSPost2010Prop45
280
     0
102
RTVSPost2010PropOp45
 70
     1
102
RTVSPost2010Prop46
 90
       50
102
RTVSPost2010PropOp46
 70
     0
102
RTVSPost2010Prop47
 90
       50
102
RTVSPost2010PropOp47
 70
     0
102
RTVSPost2010Prop48
 90
       50
102
RTVSPost2010PropOp48
 70
     0
102
RTVSPost2010Prop49
280
     0
102
RTVSPost2010PropOp49
 70
     1
102
RTVSPost2010Prop50
 90
       50
102
RTVSPost2010PropOp50
 70
     0
102
RTVSPost2010Prop51ColorIndex
 90
      256
102
RTVSPost2010Prop51ColorRGB
 90
-16777216
102
RTVSPost2010PropOp51
 70
     0
102
RTVSPost2010Prop52
140
1.0
102
RTVSPost2010PropOp52
 70
     0
102
RTVSPost2010Prop53
 90
        2
102
RTVSPost2010PropOp53
 70
     0
102
RTVSPost2010Prop54
  1
strokes_ogs.tif
102
RTVSPost2010PropOp54
 70
     0
102
RTVSPost2010Prop55
280
     0
102
RTVSPost2010PropOp55
 70
     1
102
RTVSPost2010Prop56
140
1.0
102
RTVSPost2010PropOp56
 70
     0
102
RTVSPost2010Prop57
140
1.0
102
RTVSPost2010PropOp57
 70
     0
102
RTVSPropertyOp0
 70
     0
102
RTVSPropertyOp1
 70
     0
102
RTVSPropertyOp2
 70
     0
102
RTVSPropertyOp3
 70
     0
102
RTVSPropertyOp4
 70
     0
102
RTVSPropertyOp5
 70
     0
102
RTVSPropertyOp6
 70
     0
102
RTVSPropertyOp7
 70
     0
102
RTVSPropertyOp8
 70
     0
102
RTVSPropertyOp9
 70
     0
102
RTVSPropertyOp10
 70
     0
102
RTVSPropertyOp11
 70
     0
102
RTVSPropertyOp12
 70
     0
102
RTVSPropertyOp13
 70
     0
102
RTVSPropertyOp14
 70
     2
102
RTVSPropertyOp15
 70
     0
102
RTVSPropertyOp16
 70
     0
102
RTVSPropertyOp17
 70
     0
102
RTVSPropertyOp18
 70
     0
102
RTVSPropertyOp19
 70
     0
102
RTVSPropertyOp20
 70
     0
102
RTVSPropertyOp21
 70
     0
102
RTVSPropertyOp22
 70
     0
102
RTVSPropertyOp23
 70
     0
102
RTVSPropertyOp24
 70
     0
102
RTVSPropertyOp25
 70
     0
102
RTVSPropertyOp26
 70
     0
102
RTVSPropertyOp27
 70
     0
102
RTVSPropertyOp28
 70
     1
102
RTVSPropertyOp29
 70
     1
102
RTVSPropertyOp30
 70
     1
102
RTVSPropertyOp31
 70
     1
102
RTVSPropertyOp32
 70
     1
102
RTVSPropertyOp33
 70
     1
102
RTVSPropertyOp34
 70
     1
102
RTVSPropertyOp35
 70
     1
102
RTVSPropertyOp36
 70
     1
102
RTVSPropertyOp37
 70
     0
102
RTVSPropertyOp38
 70
     0
102
RTVSPropertyOp39
 70
     0
102
RTVSPropertyOp40
 70
     0
102
RTVSPropertyOp41
 70
     0
102
RTVSPropertyOp42
 70
     0
102
RTVSPropertyOp43
 70
     0
102
RTVSPropertyOp44
 70
     0
102
RTVSPropertyOp45
 70
     1
102
RTVSPropertyOp46
 70
     0
102
RTVSPropertyOp47
 70
     0
102
RTVSPropertyOp48
 70
     0
102
RTVSPropertyOp49
 70
     1
102
RTVSPropertyOp50
 70
     0
102
RTVSPropertyOp51
 70
     0
102
RTVSPropertyOp52
 70
     0
102
RTVSPropertyOp53
 70
     0
102
RTVSPropertyOp54
 70
     0
102
RTVSPropertyOp55
 70
     1
102
RTVSPropertyOp56
 70
     0
102
RTVSPropertyOp57
 70
     0
102
RTVSPropertyOp58
 70
     0
102
RTVSPropertyOp59
 70
     0
102
RTVSPropertyOp60
 70
     0
102
RTVSPropertyOp61
 70
     0
102
RTVSPropertyOp62
 70
     0
  0
XRECORD
  5
987A
102
{ACAD_REACTORS
330
9879
102
}
330
9879
100
AcDbXrecord
280
     1
102
RTVSPost2010Prop28
280
     0
102
RTVSPost2010PropOp28
 70
     1
102
RTVSPost2010Prop29
280
     1
102
RTVSPost2010PropOp29
 70
     1
102
RTVSPost2010Prop30
280
     1
102
RTVSPost2010PropOp30
 70
     1
102
RTVSPost2010Prop31
280
     0
102
RTVSPost2010PropOp31
 70
     1
102
RTVSPost2010Prop32
280
     0
102
RTVSPost2010PropOp32
 70
     1
102
RTVSPost2010Prop33
280
     0
102
RTVSPost2010PropOp33
 70
     1
102
RTVSPost2010Prop34
280
     0
102
RTVSPost2010PropOp34
 70
     1
102
RTVSPost2010Prop35
280
     0
102
RTVSPost2010PropOp35
 70
     1
102
RTVSPost2010Prop36
280
     0
102
RTVSPost2010PropOp36
 70
     1
102
RTVSPost2010Prop37
 90
       50
102
RTVSPost2010PropOp37
 70
     1
102
RTVSPost2010Prop38
140
0.0
102
RTVSPost2010PropOp38
 70
     1
102
RTVSPost2010Prop39
140
1.0
102
RTVSPost2010PropOp39
 70
     1
102
RTVSPost2010Prop40
 90
        0
102
RTVSPost2010PropOp40
 70
     1
102
RTVSPost2010Prop41ColorIndex
 90
       18
102
RTVSPost2010Prop41ColorRGB
 90
        0
102
RTVSPost2010PropOp41
 70
     1
102
RTVSPost2010Prop42
 90
       50
102
RTVSPost2010PropOp42
 70
     1
102
RTVSPost2010Prop43
 90
        3
102
RTVSPost2010PropOp43
 70
     1
102
RTVSPost2010Prop44ColorIndex
 90
        5
102
RTVSPost2010Prop44ColorRGB
 90
      255
102
RTVSPost2010PropOp44
 70
     1
102
RTVSPost2010Prop45
280
     0
102
RTVSPost2010PropOp45
 70
     1
102
RTVSPost2010Prop46
 90
       50
102
RTVSPost2010PropOp46
 70
     1
102
RTVSPost2010Prop47
 90
       50
102
RTVSPost2010PropOp47
 70
     1
102
RTVSPost2010Prop48
 90
       50
102
RTVSPost2010PropOp48
 70
     1
102
RTVSPost2010Prop49
280
     0
102
RTVSPost2010PropOp49
 70
     1
102
RTVSPost2010Prop50
 90
       50
102
RTVSPost2010PropOp50
 70
     1
102
RTVSPost2010Prop51ColorIndex
 90
      256
102
RTVSPost2010Prop51ColorRGB
 90
-16777216
102
RTVSPost2010PropOp51
 70
     0
102
RTVSPost2010Prop52
140
1.0
102
RTVSPost2010PropOp52
 70
     0
102
RTVSPost2010Prop53
 90
        2
102
RTVSPost2010PropOp53
 70
     1
102
RTVSPost2010Prop54
  1
strokes_ogs.tif
102
RTVSPost2010PropOp54
 70
     1
102
RTVSPost2010Prop55
280
     0
102
RTVSPost2010PropOp55
 70
     1
102
RTVSPost2010Prop56
140
1.0
102
RTVSPost2010PropOp56
 70
     1
102
RTVSPost2010Prop57
140
1.0
102
RTVSPost2010PropOp57
 70
     1
102
RTVSPropertyOp0
 70
     1
102
RTVSPropertyOp1
 70
     1
102
RTVSPropertyOp2
 70
     1
102
RTVSPropertyOp3
 70
     1
102
RTVSPropertyOp4
 70
     1
102
RTVSPropertyOp5
 70
     1
102
RTVSPropertyOp6
 70
     1
102
RTVSPropertyOp7
 70
     1
102
RTVSPropertyOp8
 70
     1
102
RTVSPropertyOp9
 70
     1
102
RTVSPropertyOp10
 70
     1
102
RTVSPropertyOp11
 70
     1
102
RTVSPropertyOp12
 70
     1
102
RTVSPropertyOp13
 70
     1
102
RTVSPropertyOp14
 70
     1
102
RTVSPropertyOp15
 70
     1
102
RTVSPropertyOp16
 70
     1
102
RTVSPropertyOp17
 70
     1
102
RTVSPropertyOp18
 70
     1
102
RTVSPropertyOp19
 70
     1
102
RTVSPropertyOp20
 70
     1
102
RTVSPropertyOp21
 70
     1
102
RTVSPropertyOp22
 70
     1
102
RTVSPropertyOp23
 70
     1
102
RTVSPropertyOp24
 70
     1
102
RTVSPropertyOp25
 70
     1
102
RTVSPropertyOp26
 70
     1
102
RTVSPropertyOp27
 70
     1
102
RTVSPropertyOp28
 70
     1
102
RTVSPropertyOp29
 70
     1
102
RTVSPropertyOp30
 70
     1
102
RTVSPropertyOp31
 70
     1
102
RTVSPropertyOp32
 70
     1
102
RTVSPropertyOp33
 70
     1
102
RTVSPropertyOp34
 70
     1
102
RTVSPropertyOp35
 70
     1
102
RTVSPropertyOp36
 70
     1
102
RTVSPropertyOp37
 70
     1
102
RTVSPropertyOp38
 70
     1
102
RTVSPropertyOp39
 70
     1
102
RTVSPropertyOp40
 70
     1
102
RTVSPropertyOp41
 70
     1
102
RTVSPropertyOp42
 70
     1
102
RTVSPropertyOp43
 70
     1
102
RTVSPropertyOp44
 70
     1
102
RTVSPropertyOp45
 70
     1
102
RTVSPropertyOp46
 70
     1
102
RTVSPropertyOp47
 70
     1
102
RTVSPropertyOp48
 70
     1
102
RTVSPropertyOp49
 70
     1
102
RTVSPropertyOp50
 70
     1
102
RTVSPropertyOp51
 70
     0
102
RTVSPropertyOp52
 70
     0
102
RTVSPropertyOp53
 70
     1
102
RTVSPropertyOp54
 70
     1
102
RTVSPropertyOp55
 70
     1
102
RTVSPropertyOp56
 70
     1
102
RTVSPropertyOp57
 70
     1
102
RTVSPropertyOp58
 70
     1
102
RTVSPropertyOp59
 70
     1
102
RTVSPropertyOp60
 70
     1
102
RTVSPropertyOp61
 70
     1
102
RTVSPropertyOp62
 70
     1
  0
XRECORD
  5
9890
102
{ACAD_REACTORS
330
988F
102
}
330
988F
100
AcDbXrecord
280
     1
102
RTVSPost2010Prop28
280
     0
102
RTVSPost2010PropOp28
 70
     1
102
RTVSPost2010Prop29
280
     1
102
RTVSPost2010PropOp29
 70
     1
102
RTVSPost2010Prop30
280
     1
102
RTVSPost2010PropOp30
 70
     1
102
RTVSPost2010Prop31
280
     0
102
RTVSPost2010PropOp31
 70
     1
102
RTVSPost2010Prop32
280
     0
102
RTVSPost2010PropOp32
 70
     1
102
RTVSPost2010Prop33
280
     0
102
RTVSPost2010PropOp33
 70
     1
102
RTVSPost2010Prop34
280
     0
102
RTVSPost2010PropOp34
 70
     1
102
RTVSPost2010Prop35
280
     0
102
RTVSPost2010PropOp35
 70
     1
102
RTVSPost2010Prop36
280
     0
102
RTVSPost2010PropOp36
 70
     1
102
RTVSPost2010Prop37
 90
       50
102
RTVSPost2010PropOp37
 70
     1
102
RTVSPost2010Prop38
140
0.0
102
RTVSPost2010PropOp38
 70
     1
102
RTVSPost2010Prop39
140
1.0
102
RTVSPost2010PropOp39
 70
     1
102
RTVSPost2010Prop40
 90
        0
102
RTVSPost2010PropOp40
 70
     1
102
RTVSPost2010Prop41ColorIndex
 90
       18
102
RTVSPost2010Prop41ColorRGB
 90
        0
102
RTVSPost2010PropOp41
 70
     1
102
RTVSPost2010Prop42
 90
       50
102
RTVSPost2010PropOp42
 70
     1
102
RTVSPost2010Prop43
 90
        3
102
RTVSPost2010PropOp43
 70
     1
102
RTVSPost2010Prop44ColorIndex
 90
        5
102
RTVSPost2010Prop44ColorRGB
 90
      255
102
RTVSPost2010PropOp44
 70
     1
102
RTVSPost2010Prop45
280
     0
102
RTVSPost2010PropOp45
 70
     1
102
RTVSPost2010Prop46
 90
       50
102
RTVSPost2010PropOp46
 70
     1
102
RTVSPost2010Prop47
 90
       50
102
RTVSPost2010PropOp47
 70
     1
102
RTVSPost2010Prop48
 90
       50
102
RTVSPost2010PropOp48
 70
     1
102
RTVSPost2010Prop49
280
     0
102
RTVSPost2010PropOp49
 70
     1
102
RTVSPost2010Prop50
 90
       50
102
RTVSPost2010PropOp50
 70
     1
102
RTVSPost2010Prop51ColorIndex
 90
      256
102
RTVSPost2010Prop51ColorRGB
 90
-16777216
102
RTVSPost2010PropOp51
 70
     0
102
RTVSPost2010Prop52
140
1.0
102
RTVSPost2010PropOp52
 70
     0
102
RTVSPost2010Prop53
 90
        2
102
RTVSPost2010PropOp53
 70
     1
102
RTVSPost2010Prop54
  1
strokes_ogs.tif
102
RTVSPost2010PropOp54
 70
     1
102
RTVSPost2010Prop55
280
     0
102
RTVSPost2010PropOp55
 70
     1
102
RTVSPost2010Prop56
140
1.0
102
RTVSPost2010PropOp56
 70
     1
102
RTVSPost2010Prop57
140
1.0
102
RTVSPost2010PropOp57
 70
     1
102
RTVSPropertyOp0
 70
     1
102
RTVSPropertyOp1
 70
     1
102
RTVSPropertyOp2
 70
     1
102
RTVSPropertyOp3
 70
     1
102
RTVSPropertyOp4
 70
     1
102
RTVSPropertyOp5
 70
     1
102
RTVSPropertyOp6
 70
     1
102
RTVSPropertyOp7
 70
     1
102
RTVSPropertyOp8
 70
     1
102
RTVSPropertyOp9
 70
     1
102
RTVSPropertyOp10
 70
     1
102
RTVSPropertyOp11
 70
     1
102
RTVSPropertyOp12
 70
     1
102
RTVSPropertyOp13
 70
     1
102
RTVSPropertyOp14
 70
     1
102
RTVSPropertyOp15
 70
     1
102
RTVSPropertyOp16
 70
     1
102
RTVSPropertyOp17
 70
     1
102
RTVSPropertyOp18
 70
     1
102
RTVSPropertyOp19
 70
     1
102
RTVSPropertyOp20
 70
     1
102
RTVSPropertyOp21
 70
     1
102
RTVSPropertyOp22
 70
     1
102
RTVSPropertyOp23
 70
     1
102
RTVSPropertyOp24
 70
     1
102
RTVSPropertyOp25
 70
     1
102
RTVSPropertyOp26
 70
     1
102
RTVSPropertyOp27
 70
     1
102
RTVSPropertyOp28
 70
     1
102
RTVSPropertyOp29
 70
     1
102
RTVSPropertyOp30
 70
     1
102
RTVSPropertyOp31
 70
     1
102
RTVSPropertyOp32
 70
     1
102
RTVSPropertyOp33
 70
     1
102
RTVSPropertyOp34
 70
     1
102
RTVSPropertyOp35
 70
     1
102
RTVSPropertyOp36
 70
     1
102
RTVSPropertyOp37
 70
     1
102
RTVSPropertyOp38
 70
     1
102
RTVSPropertyOp39
 70
     1
102
RTVSPropertyOp40
 70
     1
102
RTVSPropertyOp41
 70
     1
102
RTVSPropertyOp42
 70
     1
102
RTVSPropertyOp43
 70
     1
102
RTVSPropertyOp44
 70
     1
102
RTVSPropertyOp45
 70
     1
102
RTVSPropertyOp46
 70
     1
102
RTVSPropertyOp47
 70
     1
102
RTVSPropertyOp48
 70
     1
102
RTVSPropertyOp49
 70
     1
102
RTVSPropertyOp50
 70
     1
102
RTVSPropertyOp51
 70
     0
102
RTVSPropertyOp52
 70
     0
102
RTVSPropertyOp53
 70
     1
102
RTVSPropertyOp54
 70
     1
102
RTVSPropertyOp55
 70
     1
102
RTVSPropertyOp56
 70
     1
102
RTVSPropertyOp57
 70
     1
102
RTVSPropertyOp58
 70
     1
102
RTVSPropertyOp59
 70
     1
102
RTVSPropertyOp60
 70
     1
102
RTVSPropertyOp61
 70
     1
102
RTVSPropertyOp62
 70
     1
  0
XRECORD
  5
988E
102
{ACAD_REACTORS
330
988D
102
}
330
988D
100
AcDbXrecord
280
     1
102
RTVSPost2010Prop28
280
     0
102
RTVSPost2010PropOp28
 70
     1
102
RTVSPost2010Prop29
280
     1
102
RTVSPost2010PropOp29
 70
     1
102
RTVSPost2010Prop30
280
     1
102
RTVSPost2010PropOp30
 70
     1
102
RTVSPost2010Prop31
280
     0
102
RTVSPost2010PropOp31
 70
     1
102
RTVSPost2010Prop32
280
     0
102
RTVSPost2010PropOp32
 70
     1
102
RTVSPost2010Prop33
280
     0
102
RTVSPost2010PropOp33
 70
     1
102
RTVSPost2010Prop34
280
     0
102
RTVSPost2010PropOp34
 70
     1
102
RTVSPost2010Prop35
280
     0
102
RTVSPost2010PropOp35
 70
     1
102
RTVSPost2010Prop36
280
     0
102
RTVSPost2010PropOp36
 70
     1
102
RTVSPost2010Prop37
 90
       50
102
RTVSPost2010PropOp37
 70
     1
102
RTVSPost2010Prop38
140
0.0
102
RTVSPost2010PropOp38
 70
     1
102
RTVSPost2010Prop39
140
1.0
102
RTVSPost2010PropOp39
 70
     1
102
RTVSPost2010Prop40
 90
        0
102
RTVSPost2010PropOp40
 70
     1
102
RTVSPost2010Prop41ColorIndex
 90
       18
102
RTVSPost2010Prop41ColorRGB
 90
        0
102
RTVSPost2010PropOp41
 70
     1
102
RTVSPost2010Prop42
 90
       50
102
RTVSPost2010PropOp42
 70
     1
102
RTVSPost2010Prop43
 90
        3
102
RTVSPost2010PropOp43
 70
     1
102
RTVSPost2010Prop44ColorIndex
 90
        5
102
RTVSPost2010Prop44ColorRGB
 90
      255
102
RTVSPost2010PropOp44
 70
     1
102
RTVSPost2010Prop45
280
     0
102
RTVSPost2010PropOp45
 70
     1
102
RTVSPost2010Prop46
 90
       50
102
RTVSPost2010PropOp46
 70
     1
102
RTVSPost2010Prop47
 90
       50
102
RTVSPost2010PropOp47
 70
     1
102
RTVSPost2010Prop48
 90
       50
102
RTVSPost2010PropOp48
 70
     1
102
RTVSPost2010Prop49
280
     0
102
RTVSPost2010PropOp49
 70
     1
102
RTVSPost2010Prop50
 90
       50
102
RTVSPost2010PropOp50
 70
     1
102
RTVSPost2010Prop51ColorIndex
 90
      256
102
RTVSPost2010Prop51ColorRGB
 90
-16777216
102
RTVSPost2010PropOp51
 70
     0
102
RTVSPost2010Prop52
140
1.0
102
RTVSPost2010PropOp52
 70
     0
102
RTVSPost2010Prop53
 90
        2
102
RTVSPost2010PropOp53
 70
     1
102
RTVSPost2010Prop54
  1
strokes_ogs.tif
102
RTVSPost2010PropOp54
 70
     1
102
RTVSPost2010Prop55
280
     0
102
RTVSPost2010PropOp55
 70
     1
102
RTVSPost2010Prop56
140
1.0
102
RTVSPost2010PropOp56
 70
     1
102
RTVSPost2010Prop57
140
1.0
102
RTVSPost2010PropOp57
 70
     1
102
RTVSPropertyOp0
 70
     1
102
RTVSPropertyOp1
 70
     1
102
RTVSPropertyOp2
 70
     1
102
RTVSPropertyOp3
 70
     1
102
RTVSPropertyOp4
 70
     1
102
RTVSPropertyOp5
 70
     1
102
RTVSPropertyOp6
 70
     1
102
RTVSPropertyOp7
 70
     1
102
RTVSPropertyOp8
 70
     1
102
RTVSPropertyOp9
 70
     1
102
RTVSPropertyOp10
 70
     1
102
RTVSPropertyOp11
 70
     1
102
RTVSPropertyOp12
 70
     1
102
RTVSPropertyOp13
 70
     1
102
RTVSPropertyOp14
 70
     1
102
RTVSPropertyOp15
 70
     1
102
RTVSPropertyOp16
 70
     1
102
RTVSPropertyOp17
 70
     1
102
RTVSPropertyOp18
 70
     1
102
RTVSPropertyOp19
 70
     1
102
RTVSPropertyOp20
 70
     1
102
RTVSPropertyOp21
 70
     1
102
RTVSPropertyOp22
 70
     1
102
RTVSPropertyOp23
 70
     1
102
RTVSPropertyOp24
 70
     1
102
RTVSPropertyOp25
 70
     1
102
RTVSPropertyOp26
 70
     1
102
RTVSPropertyOp27
 70
     1
102
RTVSPropertyOp28
 70
     1
102
RTVSPropertyOp29
 70
     1
102
RTVSPropertyOp30
 70
     1
102
RTVSPropertyOp31
 70
     1
102
RTVSPropertyOp32
 70
     1
102
RTVSPropertyOp33
 70
     1
102
RTVSPropertyOp34
 70
     1
102
RTVSPropertyOp35
 70
     1
102
RTVSPropertyOp36
 70
     1
102
RTVSPropertyOp37
 70
     1
102
RTVSPropertyOp38
 70
     1
102
RTVSPropertyOp39
 70
     1
102
RTVSPropertyOp40
 70
     1
102
RTVSPropertyOp41
 70
     1
102
RTVSPropertyOp42
 70
     1
102
RTVSPropertyOp43
 70
     1
102
RTVSPropertyOp44
 70
     1
102
RTVSPropertyOp45
 70
     1
102
RTVSPropertyOp46
 70
     1
102
RTVSPropertyOp47
 70
     1
102
RTVSPropertyOp48
 70
     1
102
RTVSPropertyOp49
 70
     1
102
RTVSPropertyOp50
 70
     1
102
RTVSPropertyOp51
 70
     0
102
RTVSPropertyOp52
 70
     0
102
RTVSPropertyOp53
 70
     1
102
RTVSPropertyOp54
 70
     1
102
RTVSPropertyOp55
 70
     1
102
RTVSPropertyOp56
 70
     1
102
RTVSPropertyOp57
 70
     1
102
RTVSPropertyOp58
 70
     1
102
RTVSPropertyOp59
 70
     1
102
RTVSPropertyOp60
 70
     1
102
RTVSPropertyOp61
 70
     1
102
RTVSPropertyOp62
 70
     1
  0
XRECORD
  5
9888
102
{ACAD_REACTORS
330
9887
102
}
330
9887
100
AcDbXrecord
280
     1
102
RTVSPost2010Prop28
280
     0
102
RTVSPost2010PropOp28
 70
     1
102
RTVSPost2010Prop29
280
     1
102
RTVSPost2010PropOp29
 70
     1
102
RTVSPost2010Prop30
280
     1
102
RTVSPost2010PropOp30
 70
     1
102
RTVSPost2010Prop31
280
     0
102
RTVSPost2010PropOp31
 70
     1
102
RTVSPost2010Prop32
280
     0
102
RTVSPost2010PropOp32
 70
     1
102
RTVSPost2010Prop33
280
     0
102
RTVSPost2010PropOp33
 70
     1
102
RTVSPost2010Prop34
280
     0
102
RTVSPost2010PropOp34
 70
     1
102
RTVSPost2010Prop35
280
     0
102
RTVSPost2010PropOp35
 70
     1
102
RTVSPost2010Prop36
280
     0
102
RTVSPost2010PropOp36
 70
     1
102
RTVSPost2010Prop37
 90
       50
102
RTVSPost2010PropOp37
 70
     1
102
RTVSPost2010Prop38
140
0.0
102
RTVSPost2010PropOp38
 70
     1
102
RTVSPost2010Prop39
140
1.0
102
RTVSPost2010PropOp39
 70
     1
102
RTVSPost2010Prop40
 90
        0
102
RTVSPost2010PropOp40
 70
     1
102
RTVSPost2010Prop41ColorIndex
 90
       18
102
RTVSPost2010Prop41ColorRGB
 90
        0
102
RTVSPost2010PropOp41
 70
     1
102
RTVSPost2010Prop42
 90
       50
102
RTVSPost2010PropOp42
 70
     1
102
RTVSPost2010Prop43
 90
        3
102
RTVSPost2010PropOp43
 70
     1
102
RTVSPost2010Prop44ColorIndex
 90
        5
102
RTVSPost2010Prop44ColorRGB
 90
      255
102
RTVSPost2010PropOp44
 70
     1
102
RTVSPost2010Prop45
280
     0
102
RTVSPost2010PropOp45
 70
     1
102
RTVSPost2010Prop46
 90
       50
102
RTVSPost2010PropOp46
 70
     1
102
RTVSPost2010Prop47
 90
       50
102
RTVSPost2010PropOp47
 70
     1
102
RTVSPost2010Prop48
 90
       50
102
RTVSPost2010PropOp48
 70
     1
102
RTVSPost2010Prop49
280
     0
102
RTVSPost2010PropOp49
 70
     1
102
RTVSPost2010Prop50
 90
       50
102
RTVSPost2010PropOp50
 70
     1
102
RTVSPost2010Prop51ColorIndex
 90
      256
102
RTVSPost2010Prop51ColorRGB
 90
-16777216
102
RTVSPost2010PropOp51
 70
     0
102
RTVSPost2010Prop52
140
1.0
102
RTVSPost2010PropOp52
 70
     0
102
RTVSPost2010Prop53
 90
        2
102
RTVSPost2010PropOp53
 70
     1
102
RTVSPost2010Prop54
  1
strokes_ogs.tif
102
RTVSPost2010PropOp54
 70
     1
102
RTVSPost2010Prop55
280
     0
102
RTVSPost2010PropOp55
 70
     1
102
RTVSPost2010Prop56
140
1.0
102
RTVSPost2010PropOp56
 70
     1
102
RTVSPost2010Prop57
140
1.0
102
RTVSPost2010PropOp57
 70
     1
102
RTVSPropertyOp0
 70
     1
102
RTVSPropertyOp1
 70
     1
102
RTVSPropertyOp2
 70
     1
102
RTVSPropertyOp3
 70
     1
102
RTVSPropertyOp4
 70
     1
102
RTVSPropertyOp5
 70
     1
102
RTVSPropertyOp6
 70
     1
102
RTVSPropertyOp7
 70
     1
102
RTVSPropertyOp8
 70
     1
102
RTVSPropertyOp9
 70
     1
102
RTVSPropertyOp10
 70
     1
102
RTVSPropertyOp11
 70
     1
102
RTVSPropertyOp12
 70
     1
102
RTVSPropertyOp13
 70
     1
102
RTVSPropertyOp14
 70
     1
102
RTVSPropertyOp15
 70
     1
102
RTVSPropertyOp16
 70
     1
102
RTVSPropertyOp17
 70
     1
102
RTVSPropertyOp18
 70
     1
102
RTVSPropertyOp19
 70
     1
102
RTVSPropertyOp20
 70
     1
102
RTVSPropertyOp21
 70
     1
102
RTVSPropertyOp22
 70
     1
102
RTVSPropertyOp23
 70
     1
102
RTVSPropertyOp24
 70
     1
102
RTVSPropertyOp25
 70
     1
102
RTVSPropertyOp26
 70
     1
102
RTVSPropertyOp27
 70
     1
102
RTVSPropertyOp28
 70
     1
102
RTVSPropertyOp29
 70
     1
102
RTVSPropertyOp30
 70
     1
102
RTVSPropertyOp31
 70
     1
102
RTVSPropertyOp32
 70
     1
102
RTVSPropertyOp33
 70
     1
102
RTVSPropertyOp34
 70
     1
102
RTVSPropertyOp35
 70
     1
102
RTVSPropertyOp36
 70
     1
102
RTVSPropertyOp37
 70
     1
102
RTVSPropertyOp38
 70
     1
102
RTVSPropertyOp39
 70
     1
102
RTVSPropertyOp40
 70
     1
102
RTVSPropertyOp41
 70
     1
102
RTVSPropertyOp42
 70
     1
102
RTVSPropertyOp43
 70
     1
102
RTVSPropertyOp44
 70
     1
102
RTVSPropertyOp45
 70
     1
102
RTVSPropertyOp46
 70
     1
102
RTVSPropertyOp47
 70
     1
102
RTVSPropertyOp48
 70
     1
102
RTVSPropertyOp49
 70
     1
102
RTVSPropertyOp50
 70
     1
102
RTVSPropertyOp51
 70
     0
102
RTVSPropertyOp52
 70
     0
102
RTVSPropertyOp53
 70
     1
102
RTVSPropertyOp54
 70
     1
102
RTVSPropertyOp55
 70
     1
102
RTVSPropertyOp56
 70
     1
102
RTVSPropertyOp57
 70
     1
102
RTVSPropertyOp58
 70
     1
102
RTVSPropertyOp59
 70
     1
102
RTVSPropertyOp60
 70
     1
102
RTVSPropertyOp61
 70
     1
102
RTVSPropertyOp62
 70
     1
  0
XRECORD
  5
988A
102
{ACAD_REACTORS
330
9889
102
}
330
9889
100
AcDbXrecord
280
     1
102
RTVSPost2010Prop28
280
     0
102
RTVSPost2010PropOp28
 70
     1
102
RTVSPost2010Prop29
280
     1
102
RTVSPost2010PropOp29
 70
     1
102
RTVSPost2010Prop30
280
     1
102
RTVSPost2010PropOp30
 70
     1
102
RTVSPost2010Prop31
280
     0
102
RTVSPost2010PropOp31
 70
     1
102
RTVSPost2010Prop32
280
     0
102
RTVSPost2010PropOp32
 70
     1
102
RTVSPost2010Prop33
280
     0
102
RTVSPost2010PropOp33
 70
     1
102
RTVSPost2010Prop34
280
     0
102
RTVSPost2010PropOp34
 70
     1
102
RTVSPost2010Prop35
280
     0
102
RTVSPost2010PropOp35
 70
     1
102
RTVSPost2010Prop36
280
     0
102
RTVSPost2010PropOp36
 70
     1
102
RTVSPost2010Prop37
 90
       50
102
RTVSPost2010PropOp37
 70
     1
102
RTVSPost2010Prop38
140
0.0
102
RTVSPost2010PropOp38
 70
     1
102
RTVSPost2010Prop39
140
1.0
102
RTVSPost2010PropOp39
 70
     1
102
RTVSPost2010Prop40
 90
        0
102
RTVSPost2010PropOp40
 70
     1
102
RTVSPost2010Prop41ColorIndex
 90
       18
102
RTVSPost2010Prop41ColorRGB
 90
        0
102
RTVSPost2010PropOp41
 70
     1
102
RTVSPost2010Prop42
 90
       50
102
RTVSPost2010PropOp42
 70
     1
102
RTVSPost2010Prop43
 90
        3
102
RTVSPost2010PropOp43
 70
     1
102
RTVSPost2010Prop44ColorIndex
 90
        5
102
RTVSPost2010Prop44ColorRGB
 90
      255
102
RTVSPost2010PropOp44
 70
     1
102
RTVSPost2010Prop45
280
     0
102
RTVSPost2010PropOp45
 70
     1
102
RTVSPost2010Prop46
 90
       50
102
RTVSPost2010PropOp46
 70
     1
102
RTVSPost2010Prop47
 90
       50
102
RTVSPost2010PropOp47
 70
     1
102
RTVSPost2010Prop48
 90
       50
102
RTVSPost2010PropOp48
 70
     1
102
RTVSPost2010Prop49
280
     0
102
RTVSPost2010PropOp49
 70
     1
102
RTVSPost2010Prop50
 90
       50
102
RTVSPost2010PropOp50
 70
     1
102
RTVSPost2010Prop51ColorIndex
 90
      256
102
RTVSPost2010Prop51ColorRGB
 90
-16777216
102
RTVSPost2010PropOp51
 70
     0
102
RTVSPost2010Prop52
140
1.0
102
RTVSPost2010PropOp52
 70
     0
102
RTVSPost2010Prop53
 90
        2
102
RTVSPost2010PropOp53
 70
     1
102
RTVSPost2010Prop54
  1
strokes_ogs.tif
102
RTVSPost2010PropOp54
 70
     1
102
RTVSPost2010Prop55
280
     0
102
RTVSPost2010PropOp55
 70
     1
102
RTVSPost2010Prop56
140
1.0
102
RTVSPost2010PropOp56
 70
     1
102
RTVSPost2010Prop57
140
1.0
102
RTVSPost2010PropOp57
 70
     1
102
RTVSPropertyOp0
 70
     1
102
RTVSPropertyOp1
 70
     1
102
RTVSPropertyOp2
 70
     1
102
RTVSPropertyOp3
 70
     1
102
RTVSPropertyOp4
 70
     1
102
RTVSPropertyOp5
 70
     1
102
RTVSPropertyOp6
 70
     1
102
RTVSPropertyOp7
 70
     1
102
RTVSPropertyOp8
 70
     1
102
RTVSPropertyOp9
 70
     1
102
RTVSPropertyOp10
 70
     1
102
RTVSPropertyOp11
 70
     1
102
RTVSPropertyOp12
 70
     1
102
RTVSPropertyOp13
 70
     1
102
RTVSPropertyOp14
 70
     1
102
RTVSPropertyOp15
 70
     1
102
RTVSPropertyOp16
 70
     1
102
RTVSPropertyOp17
 70
     1
102
RTVSPropertyOp18
 70
     1
102
RTVSPropertyOp19
 70
     1
102
RTVSPropertyOp20
 70
     1
102
RTVSPropertyOp21
 70
     1
102
RTVSPropertyOp22
 70
     1
102
RTVSPropertyOp23
 70
     1
102
RTVSPropertyOp24
 70
     1
102
RTVSPropertyOp25
 70
     1
102
RTVSPropertyOp26
 70
     1
102
RTVSPropertyOp27
 70
     1
102
RTVSPropertyOp28
 70
     1
102
RTVSPropertyOp29
 70
     1
102
RTVSPropertyOp30
 70
     1
102
RTVSPropertyOp31
 70
     1
102
RTVSPropertyOp32
 70
     1
102
RTVSPropertyOp33
 70
     1
102
RTVSPropertyOp34
 70
     1
102
RTVSPropertyOp35
 70
     1
102
RTVSPropertyOp36
 70
     1
102
RTVSPropertyOp37
 70
     1
102
RTVSPropertyOp38
 70
     1
102
RTVSPropertyOp39
 70
     1
102
RTVSPropertyOp40
 70
     1
102
RTVSPropertyOp41
 70
     1
102
RTVSPropertyOp42
 70
     1
102
RTVSPropertyOp43
 70
     1
102
RTVSPropertyOp44
 70
     1
102
RTVSPropertyOp45
 70
     1
102
RTVSPropertyOp46
 70
     1
102
RTVSPropertyOp47
 70
     1
102
RTVSPropertyOp48
 70
     1
102
RTVSPropertyOp49
 70
     1
102
RTVSPropertyOp50
 70
     1
102
RTVSPropertyOp51
 70
     0
102
RTVSPropertyOp52
 70
     0
102
RTVSPropertyOp53
 70
     1
102
RTVSPropertyOp54
 70
     1
102
RTVSPropertyOp55
 70
     1
102
RTVSPropertyOp56
 70
     1
102
RTVSPropertyOp57
 70
     1
102
RTVSPropertyOp58
 70
     1
102
RTVSPropertyOp59
 70
     1
102
RTVSPropertyOp60
 70
     1
102
RTVSPropertyOp61
 70
     1
102
RTVSPropertyOp62
 70
     1
  0
XRECORD
  5
9880
102
{ACAD_REACTORS
330
987F
102
}
330
987F
100
AcDbXrecord
280
     1
102
RTVSPost2010Prop28
280
     0
102
RTVSPost2010PropOp28
 70
     1
102
RTVSPost2010Prop29
280
     1
102
RTVSPost2010PropOp29
 70
     1
102
RTVSPost2010Prop30
280
     1
102
RTVSPost2010PropOp30
 70
     1
102
RTVSPost2010Prop31
280
     0
102
RTVSPost2010PropOp31
 70
     1
102
RTVSPost2010Prop32
280
     0
102
RTVSPost2010PropOp32
 70
     1
102
RTVSPost2010Prop33
280
     0
102
RTVSPost2010PropOp33
 70
     1
102
RTVSPost2010Prop34
280
     0
102
RTVSPost2010PropOp34
 70
     1
102
RTVSPost2010Prop35
280
     0
102
RTVSPost2010PropOp35
 70
     1
102
RTVSPost2010Prop36
280
     0
102
RTVSPost2010PropOp36
 70
     1
102
RTVSPost2010Prop37
 90
       50
102
RTVSPost2010PropOp37
 70
     1
102
RTVSPost2010Prop38
140
0.0
102
RTVSPost2010PropOp38
 70
     1
102
RTVSPost2010Prop39
140
1.0
102
RTVSPost2010PropOp39
 70
     1
102
RTVSPost2010Prop40
 90
        0
102
RTVSPost2010PropOp40
 70
     1
102
RTVSPost2010Prop41ColorIndex
 90
       18
102
RTVSPost2010Prop41ColorRGB
 90
        0
102
RTVSPost2010PropOp41
 70
     1
102
RTVSPost2010Prop42
 90
       50
102
RTVSPost2010PropOp42
 70
     1
102
RTVSPost2010Prop43
 90
        3
102
RTVSPost2010PropOp43
 70
     1
102
RTVSPost2010Prop44ColorIndex
 90
        5
102
RTVSPost2010Prop44ColorRGB
 90
      255
102
RTVSPost2010PropOp44
 70
     1
102
RTVSPost2010Prop45
280
     0
102
RTVSPost2010PropOp45
 70
     1
102
RTVSPost2010Prop46
 90
       50
102
RTVSPost2010PropOp46
 70
     1
102
RTVSPost2010Prop47
 90
       50
102
RTVSPost2010PropOp47
 70
     1
102
RTVSPost2010Prop48
 90
       50
102
RTVSPost2010PropOp48
 70
     1
102
RTVSPost2010Prop49
280
     0
102
RTVSPost2010PropOp49
 70
     1
102
RTVSPost2010Prop50
 90
       50
102
RTVSPost2010PropOp50
 70
     1
102
RTVSPost2010Prop51ColorIndex
 90
      256
102
RTVSPost2010Prop51ColorRGB
 90
-16777216
102
RTVSPost2010PropOp51
 70
     0
102
RTVSPost2010Prop52
140
1.0
102
RTVSPost2010PropOp52
 70
     0
102
RTVSPost2010Prop53
 90
        2
102
RTVSPost2010PropOp53
 70
     1
102
RTVSPost2010Prop54
  1
strokes_ogs.tif
102
RTVSPost2010PropOp54
 70
     1
102
RTVSPost2010Prop55
280
     0
102
RTVSPost2010PropOp55
 70
     1
102
RTVSPost2010Prop56
140
1.0
102
RTVSPost2010PropOp56
 70
     1
102
RTVSPost2010Prop57
140
1.0
102
RTVSPost2010PropOp57
 70
     1
102
RTVSPropertyOp0
 70
     1
102
RTVSPropertyOp1
 70
     1
102
RTVSPropertyOp2
 70
     1
102
RTVSPropertyOp3
 70
     1
102
RTVSPropertyOp4
 70
     1
102
RTVSPropertyOp5
 70
     1
102
RTVSPropertyOp6
 70
     1
102
RTVSPropertyOp7
 70
     1
102
RTVSPropertyOp8
 70
     1
102
RTVSPropertyOp9
 70
     1
102
RTVSPropertyOp10
 70
     1
102
RTVSPropertyOp11
 70
     1
102
RTVSPropertyOp12
 70
     1
102
RTVSPropertyOp13
 70
     1
102
RTVSPropertyOp14
 70
     1
102
RTVSPropertyOp15
 70
     1
102
RTVSPropertyOp16
 70
     1
102
RTVSPropertyOp17
 70
     1
102
RTVSPropertyOp18
 70
     1
102
RTVSPropertyOp19
 70
     1
102
RTVSPropertyOp20
 70
     1
102
RTVSPropertyOp21
 70
     1
102
RTVSPropertyOp22
 70
     1
102
RTVSPropertyOp23
 70
     1
102
RTVSPropertyOp24
 70
     1
102
RTVSPropertyOp25
 70
     1
102
RTVSPropertyOp26
 70
     1
102
RTVSPropertyOp27
 70
     1
102
RTVSPropertyOp28
 70
     1
102
RTVSPropertyOp29
 70
     1
102
RTVSPropertyOp30
 70
     1
102
RTVSPropertyOp31
 70
     1
102
RTVSPropertyOp32
 70
     1
102
RTVSPropertyOp33
 70
     1
102
RTVSPropertyOp34
 70
     1
102
RTVSPropertyOp35
 70
     1
102
RTVSPropertyOp36
 70
     1
102
RTVSPropertyOp37
 70
     1
102
RTVSPropertyOp38
 70
     1
102
RTVSPropertyOp39
 70
     1
102
RTVSPropertyOp40
 70
     1
102
RTVSPropertyOp41
 70
     1
102
RTVSPropertyOp42
 70
     1
102
RTVSPropertyOp43
 70
     1
102
RTVSPropertyOp44
 70
     1
102
RTVSPropertyOp45
 70
     1
102
RTVSPropertyOp46
 70
     1
102
RTVSPropertyOp47
 70
     1
102
RTVSPropertyOp48
 70
     1
102
RTVSPropertyOp49
 70
     1
102
RTVSPropertyOp50
 70
     1
102
RTVSPropertyOp51
 70
     0
102
RTVSPropertyOp52
 70
     0
102
RTVSPropertyOp53
 70
     1
102
RTVSPropertyOp54
 70
     1
102
RTVSPropertyOp55
 70
     1
102
RTVSPropertyOp56
 70
     1
102
RTVSPropertyOp57
 70
     1
102
RTVSPropertyOp58
 70
     1
102
RTVSPropertyOp59
 70
     1
102
RTVSPropertyOp60
 70
     1
102
RTVSPropertyOp61
 70
     1
102
RTVSPropertyOp62
 70
     1
  0
XRECORD
  5
9874
102
{ACAD_REACTORS
330
9873
102
}
330
9873
100
AcDbXrecord
280
     1
102
RTVSPost2010Prop28
280
     0
102
RTVSPost2010PropOp28
 70
     1
102
RTVSPost2010Prop29
280
     1
102
RTVSPost2010PropOp29
 70
     1
102
RTVSPost2010Prop30
280
     1
102
RTVSPost2010PropOp30
 70
     1
102
RTVSPost2010Prop31
280
     0
102
RTVSPost2010PropOp31
 70
     1
102
RTVSPost2010Prop32
280
     0
102
RTVSPost2010PropOp32
 70
     1
102
RTVSPost2010Prop33
280
     0
102
RTVSPost2010PropOp33
 70
     1
102
RTVSPost2010Prop34
280
     0
102
RTVSPost2010PropOp34
 70
     1
102
RTVSPost2010Prop35
280
     0
102
RTVSPost2010PropOp35
 70
     1
102
RTVSPost2010Prop36
280
     0
102
RTVSPost2010PropOp36
 70
     1
102
RTVSPost2010Prop37
 90
       50
102
RTVSPost2010PropOp37
 70
     1
102
RTVSPost2010Prop38
140
0.0
102
RTVSPost2010PropOp38
 70
     1
102
RTVSPost2010Prop39
140
1.0
102
RTVSPost2010PropOp39
 70
     1
102
RTVSPost2010Prop40
 90
        0
102
RTVSPost2010PropOp40
 70
     1
102
RTVSPost2010Prop41ColorIndex
 90
       18
102
RTVSPost2010Prop41ColorRGB
 90
        0
102
RTVSPost2010PropOp41
 70
     1
102
RTVSPost2010Prop42
 90
       50
102
RTVSPost2010PropOp42
 70
     1
102
RTVSPost2010Prop43
 90
        3
102
RTVSPost2010PropOp43
 70
     1
102
RTVSPost2010Prop44ColorIndex
 90
        5
102
RTVSPost2010Prop44ColorRGB
 90
      255
102
RTVSPost2010PropOp44
 70
     1
102
RTVSPost2010Prop45
280
     0
102
RTVSPost2010PropOp45
 70
     1
102
RTVSPost2010Prop46
 90
       50
102
RTVSPost2010PropOp46
 70
     1
102
RTVSPost2010Prop47
 90
       50
102
RTVSPost2010PropOp47
 70
     1
102
RTVSPost2010Prop48
 90
       50
102
RTVSPost2010PropOp48
 70
     1
102
RTVSPost2010Prop49
280
     0
102
RTVSPost2010PropOp49
 70
     1
102
RTVSPost2010Prop50
 90
       50
102
RTVSPost2010PropOp50
 70
     1
102
RTVSPost2010Prop51ColorIndex
 90
      256
102
RTVSPost2010Prop51ColorRGB
 90
-16777216
102
RTVSPost2010PropOp51
 70
     0
102
RTVSPost2010Prop52
140
1.0
102
RTVSPost2010PropOp52
 70
     0
102
RTVSPost2010Prop53
 90
        2
102
RTVSPost2010PropOp53
 70
     1
102
RTVSPost2010Prop54
  1
strokes_ogs.tif
102
RTVSPost2010PropOp54
 70
     1
102
RTVSPost2010Prop55
280
     0
102
RTVSPost2010PropOp55
 70
     1
102
RTVSPost2010Prop56
140
1.0
102
RTVSPost2010PropOp56
 70
     1
102
RTVSPost2010Prop57
140
1.0
102
RTVSPost2010PropOp57
 70
     1
102
RTVSPropertyOp0
 70
     1
102
RTVSPropertyOp1
 70
     1
102
RTVSPropertyOp2
 70
     1
102
RTVSPropertyOp3
 70
     1
102
RTVSPropertyOp4
 70
     1
102
RTVSPropertyOp5
 70
     1
102
RTVSPropertyOp6
 70
     1
102
RTVSPropertyOp7
 70
     1
102
RTVSPropertyOp8
 70
     1
102
RTVSPropertyOp9
 70
     1
102
RTVSPropertyOp10
 70
     1
102
RTVSPropertyOp11
 70
     1
102
RTVSPropertyOp12
 70
     1
102
RTVSPropertyOp13
 70
     1
102
RTVSPropertyOp14
 70
     1
102
RTVSPropertyOp15
 70
     1
102
RTVSPropertyOp16
 70
     1
102
RTVSPropertyOp17
 70
     1
102
RTVSPropertyOp18
 70
     1
102
RTVSPropertyOp19
 70
     1
102
RTVSPropertyOp20
 70
     1
102
RTVSPropertyOp21
 70
     1
102
RTVSPropertyOp22
 70
     1
102
RTVSPropertyOp23
 70
     1
102
RTVSPropertyOp24
 70
     1
102
RTVSPropertyOp25
 70
     1
102
RTVSPropertyOp26
 70
     1
102
RTVSPropertyOp27
 70
     1
102
RTVSPropertyOp28
 70
     1
102
RTVSPropertyOp29
 70
     1
102
RTVSPropertyOp30
 70
     1
102
RTVSPropertyOp31
 70
     1
102
RTVSPropertyOp32
 70
     1
102
RTVSPropertyOp33
 70
     1
102
RTVSPropertyOp34
 70
     1
102
RTVSPropertyOp35
 70
     1
102
RTVSPropertyOp36
 70
     1
102
RTVSPropertyOp37
 70
     1
102
RTVSPropertyOp38
 70
     1
102
RTVSPropertyOp39
 70
     1
102
RTVSPropertyOp40
 70
     1
102
RTVSPropertyOp41
 70
     1
102
RTVSPropertyOp42
 70
     1
102
RTVSPropertyOp43
 70
     1
102
RTVSPropertyOp44
 70
     1
102
RTVSPropertyOp45
 70
     1
102
RTVSPropertyOp46
 70
     1
102
RTVSPropertyOp47
 70
     1
102
RTVSPropertyOp48
 70
     1
102
RTVSPropertyOp49
 70
     1
102
RTVSPropertyOp50
 70
     1
102
RTVSPropertyOp51
 70
     0
102
RTVSPropertyOp52
 70
     0
102
RTVSPropertyOp53
 70
     1
102
RTVSPropertyOp54
 70
     1
102
RTVSPropertyOp55
 70
     1
102
RTVSPropertyOp56
 70
     1
102
RTVSPropertyOp57
 70
     1
102
RTVSPropertyOp58
 70
     1
102
RTVSPropertyOp59
 70
     1
102
RTVSPropertyOp60
 70
     1
102
RTVSPropertyOp61
 70
     1
102
RTVSPropertyOp62
 70
     1
  0
XRECORD
  5
988C
102
{ACAD_REACTORS
330
988B
102
}
330
988B
100
AcDbXrecord
280
     1
102
RTVSPost2010Prop28
280
     0
102
RTVSPost2010PropOp28
 70
     1
102
RTVSPost2010Prop29
280
     1
102
RTVSPost2010PropOp29
 70
     1
102
RTVSPost2010Prop30
280
     1
102
RTVSPost2010PropOp30
 70
     1
102
RTVSPost2010Prop31
280
     0
102
RTVSPost2010PropOp31
 70
     1
102
RTVSPost2010Prop32
280
     0
102
RTVSPost2010PropOp32
 70
     1
102
RTVSPost2010Prop33
280
     0
102
RTVSPost2010PropOp33
 70
     1
102
RTVSPost2010Prop34
280
     0
102
RTVSPost2010PropOp34
 70
     1
102
RTVSPost2010Prop35
280
     0
102
RTVSPost2010PropOp35
 70
     1
102
RTVSPost2010Prop36
280
     0
102
RTVSPost2010PropOp36
 70
     1
102
RTVSPost2010Prop37
 90
       50
102
RTVSPost2010PropOp37
 70
     1
102
RTVSPost2010Prop38
140
0.0
102
RTVSPost2010PropOp38
 70
     1
102
RTVSPost2010Prop39
140
1.0
102
RTVSPost2010PropOp39
 70
     1
102
RTVSPost2010Prop40
 90
        0
102
RTVSPost2010PropOp40
 70
     1
102
RTVSPost2010Prop41ColorIndex
 90
       18
102
RTVSPost2010Prop41ColorRGB
 90
        0
102
RTVSPost2010PropOp41
 70
     1
102
RTVSPost2010Prop42
 90
       50
102
RTVSPost2010PropOp42
 70
     1
102
RTVSPost2010Prop43
 90
        3
102
RTVSPost2010PropOp43
 70
     1
102
RTVSPost2010Prop44ColorIndex
 90
        5
102
RTVSPost2010Prop44ColorRGB
 90
      255
102
RTVSPost2010PropOp44
 70
     1
102
RTVSPost2010Prop45
280
     0
102
RTVSPost2010PropOp45
 70
     1
102
RTVSPost2010Prop46
 90
       50
102
RTVSPost2010PropOp46
 70
     1
102
RTVSPost2010Prop47
 90
       50
102
RTVSPost2010PropOp47
 70
     1
102
RTVSPost2010Prop48
 90
       50
102
RTVSPost2010PropOp48
 70
     1
102
RTVSPost2010Prop49
280
     0
102
RTVSPost2010PropOp49
 70
     1
102
RTVSPost2010Prop50
 90
       50
102
RTVSPost2010PropOp50
 70
     1
102
RTVSPost2010Prop51ColorIndex
 90
      256
102
RTVSPost2010Prop51ColorRGB
 90
-16777216
102
RTVSPost2010PropOp51
 70
     0
102
RTVSPost2010Prop52
140
1.0
102
RTVSPost2010PropOp52
 70
     0
102
RTVSPost2010Prop53
 90
        2
102
RTVSPost2010PropOp53
 70
     1
102
RTVSPost2010Prop54
  1
strokes_ogs.tif
102
RTVSPost2010PropOp54
 70
     1
102
RTVSPost2010Prop55
280
     0
102
RTVSPost2010PropOp55
 70
     1
102
RTVSPost2010Prop56
140
1.0
102
RTVSPost2010PropOp56
 70
     1
102
RTVSPost2010Prop57
140
1.0
102
RTVSPost2010PropOp57
 70
     1
102
RTVSPropertyOp0
 70
     1
102
RTVSPropertyOp1
 70
     1
102
RTVSPropertyOp2
 70
     1
102
RTVSPropertyOp3
 70
     1
102
RTVSPropertyOp4
 70
     1
102
RTVSPropertyOp5
 70
     1
102
RTVSPropertyOp6
 70
     1
102
RTVSPropertyOp7
 70
     1
102
RTVSPropertyOp8
 70
     1
102
RTVSPropertyOp9
 70
     1
102
RTVSPropertyOp10
 70
     1
102
RTVSPropertyOp11
 70
     1
102
RTVSPropertyOp12
 70
     1
102
RTVSPropertyOp13
 70
     1
102
RTVSPropertyOp14
 70
     1
102
RTVSPropertyOp15
 70
     1
102
RTVSPropertyOp16
 70
     1
102
RTVSPropertyOp17
 70
     1
102
RTVSPropertyOp18
 70
     1
102
RTVSPropertyOp19
 70
     1
102
RTVSPropertyOp20
 70
     1
102
RTVSPropertyOp21
 70
     1
102
RTVSPropertyOp22
 70
     1
102
RTVSPropertyOp23
 70
     1
102
RTVSPropertyOp24
 70
     1
102
RTVSPropertyOp25
 70
     1
102
RTVSPropertyOp26
 70
     1
102
RTVSPropertyOp27
 70
     1
102
RTVSPropertyOp28
 70
     1
102
RTVSPropertyOp29
 70
     1
102
RTVSPropertyOp30
 70
     1
102
RTVSPropertyOp31
 70
     1
102
RTVSPropertyOp32
 70
     1
102
RTVSPropertyOp33
 70
     1
102
RTVSPropertyOp34
 70
     1
102
RTVSPropertyOp35
 70
     1
102
RTVSPropertyOp36
 70
     1
102
RTVSPropertyOp37
 70
     1
102
RTVSPropertyOp38
 70
     1
102
RTVSPropertyOp39
 70
     1
102
RTVSPropertyOp40
 70
     1
102
RTVSPropertyOp41
 70
     1
102
RTVSPropertyOp42
 70
     1
102
RTVSPropertyOp43
 70
     1
102
RTVSPropertyOp44
 70
     1
102
RTVSPropertyOp45
 70
     1
102
RTVSPropertyOp46
 70
     1
102
RTVSPropertyOp47
 70
     1
102
RTVSPropertyOp48
 70
     1
102
RTVSPropertyOp49
 70
     1
102
RTVSPropertyOp50
 70
     1
102
RTVSPropertyOp51
 70
     0
102
RTVSPropertyOp52
 70
     0
102
RTVSPropertyOp53
 70
     1
102
RTVSPropertyOp54
 70
     1
102
RTVSPropertyOp55
 70
     1
102
RTVSPropertyOp56
 70
     1
102
RTVSPropertyOp57
 70
     1
102
RTVSPropertyOp58
 70
     1
102
RTVSPropertyOp59
 70
     1
102
RTVSPropertyOp60
 70
     1
102
RTVSPropertyOp61
 70
     1
102
RTVSPropertyOp62
 70
     1
  0
ENDSEC
  0
EOF
