  0
SECTION
  2
HEADER
  9
$ACADVER
  1
AC1015
  9
$ACADMAINTVER
 70
    20
  9
$DWGCODEPAGE
  3
ANSI_932
  9
$INSBASE
 10
0.0
 20
0.0
 30
0.0
  9
$EXTMIN
 10
10.0
 20
9.999999999999998
 30
0.0
  9
$EXTMAX
 10
284.726568
 20
224.2403649999999
 30
0.0
  9
$LIMMIN
 10
0.0
 20
0.0
  9
$LIMMAX
 10
396.0
 20
273.0
  9
$ORTHOMODE
 70
     1
  9
$REGENMODE
 70
     1
  9
$FILLMODE
 70
     1
  9
$QTEXTMODE
 70
     0
  9
$MIRRTEXT
 70
     1
  9
$LTSCALE
 40
20.0
  9
$ATTMODE
 70
     1
  9
$TEXTSIZE
 40
5.0
  9
$TRACEWID
 40
1.0
  9
$TEXTSTYLE
  7
STANDARD
  9
$CLAYER
  8
0
  9
$CELTYPE
  6
BYLAYER
  9
$CECOLOR
 62
   256
  9
$CELTSCALE
 40
1.0
  9
$DISPSILH
 70
     0
  9
$DIMSCALE
 40
1.0
  9
$DIMASZ
 40
3.0
  9
$DIMEXO
 40
1.0
  9
$DIMDLI
 40
10.0
  9
$DIMRND
 40
0.0
  9
$DIMDLE
 40
0.0
  9
$DIMEXE
 40
1.0
  9
$DIMTP
 40
0.0
  9
$DIMTM
 40
0.0
  9
$DIMTXT
 40
3.2
  9
$DIMCEN
 40
0.0
  9
$DIMTSZ
 40
0.0
  9
$DIMTOL
 70
     0
  9
$DIMLIM
 70
     0
  9
$DIMTIH
 70
     0
  9
$DIMTOH
 70
     0
  9
$DIMSE1
 70
     0
  9
$DIMSE2
 70
     0
  9
$DIMTAD
 70
     3
  9
$DIMZIN
 70
     8
  9
$DIMBLK
  1

  9
$DIMASO
 70
     1
  9
$DIMSHO
 70
     1
  9
$DIMPOST
  1

  9
$DIMAPOST
  1

  9
$DIMALT
 70
     0
  9
$DIMALTD
 70
     2
  9
$DIMALTF
 40
25.4
  9
$DIMLFAC
 40
1.0
  9
$DIMTOFL
 70
     1
  9
$DIMTVP
 40
0.0
  9
$DIMTIX
 70
     0
  9
$DIMSOXD
 70
     0
  9
$DIMSAH
 70
     1
  9
$DIMBLK1
  1

  9
$DIMBLK2
  1

  9
$DIMSTYLE
  2
STANDARD
  9
$DIMCLRD
 70
     0
  9
$DIMCLRE
 70
     0
  9
$DIMCLRT
 70
     0
  9
$DIMTFAC
 40
1.0
  9
$DIMGAP
 40
1.0
  9
$DIMJUST
 70
     0
  9
$DIMSD1
 70
     0
  9
$DIMSD2
 70
     0
  9
$DIMTOLJ
 70
     1
  9
$DIMTZIN
 70
     0
  9
$DIMALTZ
 70
     0
  9
$DIMALTTZ
 70
     0
  9
$DIMUPT
 70
     0
  9
$DIMDEC
 70
     4
  9
$DIMTDEC
 70
     4
  9
$DIMALTU
 70
     2
  9
$DIMALTTD
 70
     2
  9
$DIMTXSTY
  7
STANDARD
  9
$DIMAUNIT
 70
     0
  9
$DIMADEC
 70
     0
  9
$DIMALTRND
 40
0.0
  9
$DIMAZIN
 70
     0
  9
$DIMDSEP
 70
    46
  9
$DIMATFIT
 70
     3
  9
$DIMFRAC
 70
     0
  9
$DIMLDRBLK
  1

  9
$DIMLUNIT
 70
     2
  9
$DIMLWD
 70
    -2
  9
$DIMLWE
 70
    -2
  9
$DIMTMOVE
 70
     0
  9
$LUNITS
 70
     2
  9
$LUPREC
 70
     4
  9
$SKETCHINC
 40
1.0
  9
$FILLETRAD
 40
1.0
  9
$AUNITS
 70
     0
  9
$AUPREC
 70
     2
  9
$MENU
  1
.
  9
$ELEVATION
 40
0.0
  9
$PELEVATION
 40
0.0
  9
$THICKNESS
 40
0.0
  9
$LIMCHECK
 70
     0
  9
$CHAMFERA
 40
10.0
  9
$CHAMFERB
 40
10.0
  9
$CHAMFERC
 40
0.0
  9
$CHAMFERD
 40
0.0
  9
$SKPOLY
 70
     0
  9
$TDCREATE
 40
2450737.742066204
  9
$TDUCREATE
 40
2450737.367066204
  9
$TDUPDATE
 40
2457192.639518495
  9
$TDUUPDATE
 40
2457192.264518495
  9
$TDINDWG
 40
0.0000168519
  9
$TDUSRTIMER
 40
0.0000165394
  9
$USRTIMER
 70
     1
  9
$ANGBASE
 50
0.0
  9
$ANGDIR
 70
     0
  9
$PDMODE
 70
     0
  9
$PDSIZE
 40
0.0
  9
$PLINEWID
 40
0.0
  9
$SPLFRAME
 70
     0
  9
$SPLINETYPE
 70
     6
  9
$SPLINESEGS
 70
     8
  9
$HANDSEED
  5
970E
  9
$SURFTAB1
 70
     6
  9
$SURFTAB2
 70
     6
  9
$SURFTYPE
 70
     6
  9
$SURFU
 70
     6
  9
$SURFV
 70
     6
  9
$UCSBASE
  2

  9
$UCSNAME
  2

  9
$UCSORG
 10
0.0
 20
0.0
 30
0.0
  9
$UCSXDIR
 10
1.0
 20
0.0
 30
0.0
  9
$UCSYDIR
 10
0.0
 20
1.0
 30
0.0
  9
$UCSORTHOREF
  2

  9
$UCSORTHOVIEW
 70
     0
  9
$UCSORGTOP
 10
0.0
 20
0.0
 30
0.0
  9
$UCSORGBOTTOM
 10
0.0
 20
0.0
 30
0.0
  9
$UCSORGLEFT
 10
0.0
 20
0.0
 30
0.0
  9
$UCSORGRIGHT
 10
0.0
 20
0.0
 30
0.0
  9
$UCSORGFRONT
 10
0.0
 20
0.0
 30
0.0
  9
$UCSORGBACK
 10
0.0
 20
0.0
 30
0.0
  9
$PUCSBASE
  2

  9
$PUCSNAME
  2

  9
$PUCSORG
 10
0.0
 20
0.0
 30
0.0
  9
$PUCSXDIR
 10
1.0
 20
0.0
 30
0.0
  9
$PUCSYDIR
 10
0.0
 20
1.0
 30
0.0
  9
$PUCSORTHOREF
  2

  9
$PUCSORTHOVIEW
 70
     0
  9
$PUCSORGTOP
 10
0.0
 20
0.0
 30
0.0
  9
$PUCSORGBOTTOM
 10
0.0
 20
0.0
 30
0.0
  9
$PUCSORGLEFT
 10
0.0
 20
0.0
 30
0.0
  9
$PUCSORGRIGHT
 10
0.0
 20
0.0
 30
0.0
  9
$PUCSORGFRONT
 10
0.0
 20
0.0
 30
0.0
  9
$PUCSORGBACK
 10
0.0
 20
0.0
 30
0.0
  9
$USERI1
 70
     0
  9
$USERI2
 70
     0
  9
$USERI3
 70
     0
  9
$USERI4
 70
     0
  9
$USERI5
 70
     0
  9
$USERR1
 40
0.0
  9
$USERR2
 40
0.0
  9
$USERR3
 40
0.0
  9
$USERR4
 40
0.0
  9
$USERR5
 40
0.0
  9
$WORLDVIEW
 70
     1
  9
$SHADEDGE
 70
     3
  9
$SHADEDIF
 70
    70
  9
$TILEMODE
 70
     1
  9
$MAXACTVP
 70
    16
  9
$PINSBASE
 10
0.0
 20
0.0
 30
0.0
  9
$PLIMCHECK
 70
     0
  9
$PEXTMIN
 10
1.000000000000000E+20
 20
1.000000000000000E+20
 30
1.000000000000000E+20
  9
$PEXTMAX
 10
-1.000000000000000E+20
 20
-1.000000000000000E+20
 30
-1.000000000000000E+20
  9
$PLIMMIN
 10
0.0
 20
0.0
  9
$PLIMMAX
 10
420.0
 20
297.0
  9
$UNITMODE
 70
     0
  9
$VISRETAIN
 70
     0
  9
$PLINEGEN
 70
     0
  9
$PSLTSCALE
 70
     0
  9
$TREEDEPTH
 70
  3020
  9
$CMLSTYLE
  2
STANDARD
  9
$CMLJUST
 70
     0
  9
$CMLSCALE
 40
1.0
  9
$PROXYGRAPHICS
 70
     1
  9
$MEASUREMENT
 70
     0
  9
$CELWEIGHT
370
    -1
  9
$ENDCAPS
280
     0
  9
$JOINSTYLE
280
     0
  9
$LWDISPLAY
290
     0
  9
$INSUNITS
 70
     0
  9
$HYPERLINKBASE
  1

  9
$STYLESHEET
  1

  9
$XEDIT
290
     1
  9
$CEPSNTYPE
380
     0
  9
$PSTYLEMODE
290
     1
  9
$FINGERPRINTGUID
  2
{03ED2CD8-F635-4768-8F25-F14003712217}
  9
$VERSIONGUID
  2
{E0096C4F-5A67-4513-AB69-0CF5925D7513}
  9
$EXTNAMES
290
     1
  9
$PSVPSCALE
 40
0.0
  9
$OLESTARTUP
290
     0
  0
ENDSEC
  0
SECTION
  2
CLASSES
  0
CLASS
  1
ACDBDICTIONARYWDFLT
  2
AcDbDictionaryWithDefault
  3
ObjectDBX Classes
 90
        0
280
     0
281
     0
  0
CLASS
  1
ACDBPLACEHOLDER
  2
AcDbPlaceHolder
  3
ObjectDBX Classes
 90
        0
280
     0
281
     0
  0
CLASS
  1
LAYOUT
  2
AcDbLayout
  3
ObjectDBX Classes
 90
        0
280
     0
281
     0
  0
CLASS
  1
DICTIONARYVAR
  2
AcDbDictionaryVar
  3
ObjectDBX Classes
 90
        0
280
     0
281
     0
  0
CLASS
  1
MATERIAL
  2
AcDbMaterial
  3
ObjectDBX Classes
 90
     1153
280
     0
281
     0
  0
CLASS
  1
VISUALSTYLE
  2
AcDbVisualStyle
  3
ObjectDBX Classes
 90
     4095
280
     0
281
     0
  0
CLASS
  1
TABLESTYLE
  2
AcDbTableStyle
  3
ObjectDBX Classes
 90
     4095
280
     0
281
     0
  0
CLASS
  1
SCALE
  2
AcDbScale
  3
ObjectDBX Classes
 90
     1153
280
     0
281
     0
  0
CLASS
  1
MLEADERSTYLE
  2
AcDbMLeaderStyle
  3
ACDB_MLEADERSTYLE_CLASS
 90
     4095
280
     0
281
     0
  0
CLASS
  1
ACDBSECTIONVIEWSTYLE
  2
AcDbSectionViewStyle
  3
ObjectDBX Classes
 90
     1025
280
     0
281
     0
  0
CLASS
  1
ACDBDETAILVIEWSTYLE
  2
AcDbDetailViewStyle
  3
ObjectDBX Classes
 90
     1025
280
     0
281
     0
  0
CLASS
  1
CELLSTYLEMAP
  2
AcDbCellStyleMap
  3
ObjectDBX Classes
 90
     1152
280
     0
281
     0
  0
ENDSEC
  0
SECTION
  2
TABLES
  0
TABLE
  2
VPORT
  5
93B6
330
0
100
AcDbSymbolTable
 70
     1
  0
VPORT
  5
9657
330
93B6
100
AcDbSymbolTableRecord
100
AcDbViewportTableRecord
  2
*ACTIVE
 70
     0
 10
0.0
 20
0.0
 11
1.0
 21
1.0
 12
212.2595561585892
 22
117.1193167141396
 13
0.0
 23
0.0
 14
10.0
 24
10.0
 15
10.0
 25
10.0
 16
0.0
 26
0.0
 36
1.0
 17
0.0
 27
0.0
 37
0.0
 40
216.6565528619733
 41
1.899603698811096
 42
50.0
 43
0.0
 44
0.0
 50
0.0
 51
0.0
 71
     0
 72
   100
 73
     1
 74
     0
 75
     0
 76
     0
 77
     0
 78
     0
281
     0
 65
     1
110
0.0
120
0.0
130
0.0
111
1.0
121
0.0
131
0.0
112
0.0
122
1.0
132
0.0
 79
     0
146
0.0
1001
ACAD_NAV_VCDISPLAY
1070
     3
  0
ENDTAB
  0
TABLE
  2
LTYPE
  5
93B3
330
0
100
AcDbSymbolTable
 70
     4
  0
LTYPE
  5
93C1
330
93B3
100
AcDbSymbolTableRecord
100
AcDbLinetypeTableRecord
  2
BYBLOCK
 70
     0
  3

 72
    65
 73
     0
 40
0.0
  0
LTYPE
  5
93C2
330
93B3
100
AcDbSymbolTableRecord
100
AcDbLinetypeTableRecord
  2
BYLAYER
 70
     0
  3

 72
    65
 73
     0
 40
0.0
  0
LTYPE
  5
93C3
330
93B3
100
AcDbSymbolTableRecord
100
AcDbLinetypeTableRecord
  2
CONTINUOUS
 70
     0
  3
Solid line
 72
    65
 73
     0
 40
0.0
  0
LTYPE
  5
93D1
330
93B3
100
AcDbSymbolTableRecord
100
AcDbLinetypeTableRecord
  2
DASHED
 70
     0
  3
__ __ __ __ __ __ __ __ __ __ __ __ __ __ __ __
 72
    65
 73
     2
 40
0.75
 49
0.5
 74
     0
 49
-0.25
 74
     0
  0
LTYPE
  5
93D2
330
93B3
100
AcDbSymbolTableRecord
100
AcDbLinetypeTableRecord
  2
CENTER
 70
     0
  3
____ _ ____ _ ____ _ ____ _ ____ _ ____ _ ____ 
 72
    65
 73
     4
 40
2.0
 49
1.25
 74
     0
 49
-0.25
 74
     0
 49
0.25
 74
     0
 49
-0.25
 74
     0
  0
LTYPE
  5
93D3
330
93B3
100
AcDbSymbolTableRecord
100
AcDbLinetypeTableRecord
  2
PHANTOM
 70
     0
  3
______  __  __  ______  __  __  ______  __  __ 
 72
    65
 73
     6
 40
2.5
 49
1.25
 74
     0
 49
-0.25
 74
     0
 49
0.25
 74
     0
 49
-0.25
 74
     0
 49
0.25
 74
     0
 49
-0.25
 74
     0
  0
ENDTAB
  0
TABLE
  2
LAYER
  5
93B0
330
0
100
AcDbSymbolTable
 70
     8
  0
LAYER
  5
93BE
102
{ACAD_XDICTIONARY
360
96B2
102
}
330
93B0
100
AcDbSymbolTableRecord
100
AcDbLayerTableRecord
  2
0
 70
     0
 62
     7
  6
CONTINUOUS
370
    -3
390
9660
  0
LAYER
  5
93D4
102
{ACAD_XDICTIONARY
360
96B4
102
}
330
93B0
100
AcDbSymbolTableRecord
100
AcDbLayerTableRecord
  2
4
 70
     0
 62
     1
  6
CENTER
370
    -3
390
9660
  0
LAYER
  5
93D5
102
{ACAD_XDICTIONARY
360
96B6
102
}
330
93B0
100
AcDbSymbolTableRecord
100
AcDbLayerTableRecord
  2
5
 70
     0
 62
     6
  6
PHANTOM
370
    -3
390
9660
  0
LAYER
  5
93D6
102
{ACAD_XDICTIONARY
360
96B8
102
}
330
93B0
100
AcDbSymbolTableRecord
100
AcDbLayerTableRecord
  2
1
 70
     0
 62
     7
  6
CONTINUOUS
370
    -3
390
9660
  0
LAYER
  5
93D7
102
{ACAD_XDICTIONARY
360
96BA
102
}
330
93B0
100
AcDbSymbolTableRecord
100
AcDbLayerTableRecord
  2
2
 70
     0
 62
     4
  6
CONTINUOUS
370
    -3
390
9660
  0
LAYER
  5
93D8
102
{ACAD_XDICTIONARY
360
96BC
102
}
330
93B0
100
AcDbSymbolTableRecord
100
AcDbLayerTableRecord
  2
3
 70
     0
 62
     2
  6
DASHED
370
    -3
390
9660
  0
LAYER
  5
93D9
102
{ACAD_XDICTIONARY
360
96BE
102
}
330
93B0
100
AcDbSymbolTableRecord
100
AcDbLayerTableRecord
  2
6
 70
     0
 62
     5
  6
CONTINUOUS
370
    -3
390
9660
  0
LAYER
  5
93DA
102
{ACAD_XDICTIONARY
360
96C0
102
}
330
93B0
100
AcDbSymbolTableRecord
100
AcDbLayerTableRecord
  2
7
 70
     0
 62
     3
  6
CONTINUOUS
370
    -3
390
9660
  0
ENDTAB
  0
TABLE
  2
STYLE
  5
93B1
330
0
100
AcDbSymbolTable
 70
     1
  0
STYLE
  5
93BF
330
93B1
100
AcDbSymbolTableRecord
100
AcDbTextStyleTableRecord
  2
STANDARD
 70
     0
 40
0.0
 41
1.0
 50
0.0
 71
     0
 42
5.0
  3
txt
  4

  0
ENDTAB
  0
TABLE
  2
VIEW
  5
93B4
330
0
100
AcDbSymbolTable
 70
     0
  0
ENDTAB
  0
TABLE
  2
UCS
  5
93B5
330
0
100
AcDbSymbolTable
 70
     0
  0
ENDTAB
  0
TABLE
  2
APPID
  5
93B7
330
0
100
AcDbSymbolTable
 70
     3
  0
APPID
  5
93C0
330
93B7
100
AcDbSymbolTableRecord
100
AcDbRegAppTableRecord
  2
ACAD
 70
     0
  0
APPID
  5
96CC
330
93B7
100
AcDbSymbolTableRecord
100
AcDbRegAppTableRecord
  2
ACAD_NAV_VCDISPLAY
 70
     0
  0
APPID
  5
9705
330
93B7
100
AcDbSymbolTableRecord
100
AcDbRegAppTableRecord
  2
ACAD_MLEADERVER
 70
     0
  0
ENDTAB
  0
TABLE
  2
DIMSTYLE
  5
93B8
330
0
100
AcDbSymbolTable
 70
     1
100
AcDbDimStyleTable
 71
     0
  0
DIMSTYLE
105
93DC
330
93B8
100
AcDbSymbolTableRecord
100
AcDbDimStyleTableRecord
  2
STANDARD
 70
     0
 41
3.0
 42
1.0
 43
10.0
 44
1.0
 73
     0
 74
     0
 77
     3
 78
     8
140
3.2
141
0.0
147
1.0
172
     1
173
     1
284
     8
285
     8
286
     8
340
93BF
  0
ENDTAB
  0
TABLE
  2
BLOCK_RECORD
  5
93AF
330
0
100
AcDbSymbolTable
 70
     0
  0
BLOCK_RECORD
  5
93CC
102
{ACAD_XDICTIONARY
360
965A
102
}
330
93AF
100
AcDbSymbolTableRecord
100
AcDbBlockTableRecord
  2
*MODEL_SPACE
340
96AE
  0
BLOCK_RECORD
  5
93C8
102
{ACAD_XDICTIONARY
360
9658
102
}
330
93AF
100
AcDbSymbolTableRecord
100
AcDbBlockTableRecord
  2
*PAPER_SPACE
340
96AF
  0
ENDTAB
  0
ENDSEC
  0
SECTION
  2
BLOCKS
  0
BLOCK
  5
93CD
330
93CC
100
AcDbEntity
  8
0
100
AcDbBlockBegin
  2
*MODEL_SPACE
 70
     0
 10
0.0
 20
0.0
 30
0.0
  3
*MODEL_SPACE
  1

  0
ENDBLK
  5
93CE
330
93CC
100
AcDbEntity
  8
0
100
AcDbBlockEnd
  0
BLOCK
  5
93C9
330
93C8
100
AcDbEntity
 67
     1
  8
0
100
AcDbBlockBegin
  2
*PAPER_SPACE
 70
     0
 10
0.0
 20
0.0
 30
0.0
  3
*PAPER_SPACE
  1

  0
ENDBLK
  5
93CA
330
93C8
100
AcDbEntity
 67
     1
  8
0
100
AcDbBlockEnd
  0
ENDSEC
  0
SECTION
  2
ENTITIES
  0
TEXT
  5
93E4
330
93CC
100
AcDbEntity
  8
7
  6
Continuous
100
AcDbText
 10
10.0
 20
18.0
 30
0.0
 40
3.0
  1
TYPE No.THA-246-3
100
AcDbText
  0
TEXT
  5
93E5
330
93CC
100
AcDbEntity
  8
7
  6
Continuous
100
AcDbText
 10
10.0
 20
26.0
 30
0.0
 40
3.0
  1
CODE No.3169
100
AcDbText
  0
TEXT
  5
93E6
330
93CC
100
AcDbEntity
  8
1
  6
Continuous
100
AcDbText
 10
10.0
 20
10.0
 30
0.0
 40
1.399999999999999
  1
LAYER
100
AcDbText
  0
TEXT
  5
93E7
330
93CC
100
AcDbEntity
  8
1
  6
Continuous
100
AcDbText
 10
17.97951099999998
 20
10.04873699999998
 30
0.0
 40
1.399999999999999
  1
1
100
AcDbText
  0
TEXT
  5
93E8
330
93CC
100
AcDbEntity
  8
7
  6
Continuous
100
AcDbText
 10
29.97951099999999
 20
10.04873699999998
 30
0.0
 40
1.399999999999999
  1
7
100
AcDbText
  0
TEXT
  5
93E9
330
93CC
100
AcDbEntity
  8
4
  6
CENTER
100
AcDbText
 10
23.97951099999999
 20
10.04873699999998
 30
0.0
 40
1.399999999999999
  1
4
100
AcDbText
  0
TEXT
  5
93EA
330
93CC
100
AcDbEntity
  8
3
  6
DASHED
100
AcDbText
 10
21.979511
 20
10.04873699999998
 30
0.0
 40
1.399999999999999
  1
3
100
AcDbText
  0
TEXT
  5
93EB
330
93CC
100
AcDbEntity
  8
2
  6
Continuous
100
AcDbText
 10
19.97951099999999
 20
10.04873699999998
 30
0.0
 40
1.399999999999999
  1
2
100
AcDbText
  0
TEXT
  5
93EC
330
93CC
100
AcDbEntity
  8
6
  6
Continuous
100
AcDbText
 10
27.979511
 20
10.04873699999998
 30
0.0
 40
1.399999999999999
  1
6
100
AcDbText
  0
TEXT
  5
93ED
330
93CC
100
AcDbEntity
  8
5
  6
PHANTOM
100
AcDbText
 10
25.97951099999999
 20
10.04873699999998
 30
0.0
 40
1.399999999999999
  1
5
100
AcDbText
  0
LINE
  5
93EE
330
93CC
100
AcDbEntity
  8
4
  6
CENTER
100
AcDbLine
 10
10.245191
 20
207.4013649999999
 30
0.0
 11
218.2910909999999
 21
207.4013649999999
 31
0.0
  0
LINE
  5
93EF
330
93CC
100
AcDbEntity
  8
1
  6
Continuous
100
AcDbLine
 10
17.18379099999999
 20
215.545365
 30
0.0
 11
17.18379099999999
 21
199.2573649999999
 31
0.0
  0
LINE
  5
93F0
330
93CC
100
AcDbEntity
  8
1
  6
Continuous
100
AcDbLine
 10
47.18379099999999
 20
216.1513649999999
 30
0.0
 11
47.18379099999999
 21
198.651365
 31
0.0
  0
LINE
  5
93F1
330
93CC
100
AcDbEntity
  8
1
  6
Continuous
100
AcDbLine
 10
27.18379099999999
 20
218.1513649999998
 30
0.0
 11
49.783791
 21
218.1513649999998
 31
0.0
  0
LINE
  5
93F2
330
93CC
100
AcDbEntity
  8
1
  6
Continuous
100
AcDbLine
 10
27.18379099999999
 20
196.6513649999999
 30
0.0
 11
49.783791
 21
196.6513649999999
 31
0.0
  0
LINE
  5
93F3
330
93CC
100
AcDbEntity
  8
1
  6
Continuous
100
AcDbLine
 10
27.18379099999999
 20
216.913365
 30
0.0
 11
27.18379099999999
 21
198.2933649999999
 31
0.0
  0
LINE
  5
93F4
330
93CC
100
AcDbEntity
  8
1
  6
Continuous
100
AcDbLine
 10
19.03419099999998
 20
217.5403649999998
 30
0.0
 11
27.18379099999999
 21
218.1513649999998
 31
0.0
  0
LINE
  5
93F5
330
93CC
100
AcDbEntity
  8
1
  6
Continuous
100
AcDbLine
 10
19.03419099999998
 20
197.2623649999999
 30
0.0
 11
27.18379099999999
 21
196.6513649999999
 31
0.0
  0
LINE
  5
93F6
330
93CC
100
AcDbEntity
  8
1
  6
Continuous
100
AcDbLine
 10
211.184091
 20
215.545365
 30
0.0
 11
211.184091
 21
199.2573649999999
 31
0.0
  0
LINE
  5
93F7
330
93CC
100
AcDbEntity
  8
1
  6
Continuous
100
AcDbLine
 10
181.1840909999999
 20
216.1513649999999
 30
0.0
 11
181.1840909999999
 21
198.651365
 31
0.0
  0
LINE
  5
93F8
330
93CC
100
AcDbEntity
  8
1
  6
Continuous
100
AcDbLine
 10
178.584091
 20
218.1513649999998
 30
0.0
 11
178.584091
 21
216.4343649999999
 31
0.0
  0
LINE
  5
93F9
330
93CC
100
AcDbEntity
  8
1
  6
Continuous
100
AcDbLine
 10
201.184091
 20
218.1513649999998
 30
0.0
 11
178.584091
 21
218.1513649999998
 31
0.0
  0
LINE
  5
93FA
330
93CC
100
AcDbEntity
  8
1
  6
Continuous
100
AcDbLine
 10
201.184091
 20
196.6513649999999
 30
0.0
 11
178.584091
 21
196.6513649999999
 31
0.0
  0
LINE
  5
93FB
330
93CC
100
AcDbEntity
  8
1
  6
Continuous
100
AcDbLine
 10
201.184091
 20
216.913365
 30
0.0
 11
201.184091
 21
198.2933649999999
 31
0.0
  0
LINE
  5
93FC
330
93CC
100
AcDbEntity
  8
1
  6
Continuous
100
AcDbLine
 10
209.333091
 20
217.5403649999998
 30
0.0
 11
201.184091
 21
218.1513649999998
 31
0.0
  0
LINE
  5
93FD
330
93CC
100
AcDbEntity
  8
1
  6
Continuous
100
AcDbLine
 10
209.333091
 20
197.2623649999999
 30
0.0
 11
201.184091
 21
196.6513649999999
 31
0.0
  0
LINE
  5
93FE
330
93CC
100
AcDbEntity
  8
1
  6
Continuous
100
AcDbLine
 10
178.584091
 20
198.3683649999999
 30
0.0
 11
178.584091
 21
196.6513649999999
 31
0.0
  0
LINE
  5
93FF
330
93CC
100
AcDbEntity
  8
1
  6
Continuous
100
AcDbLine
 10
49.783791
 20
124.8973649999998
 30
0.0
 11
49.783791
 21
121.8973649999998
 31
0.0
  0
LINE
  5
9400
330
93CC
100
AcDbEntity
  8
1
  6
Continuous
100
AcDbLine
 10
47.18379099999999
 20
133.5973649999999
 30
0.0
 11
47.18379099999999
 21
125.8973649999998
 31
0.0
  0
LINE
  5
9401
330
93CC
100
AcDbEntity
  8
1
  6
Continuous
100
AcDbLine
 10
17.18379099999999
 20
131.9573649999999
 30
0.0
 11
17.18379099999999
 21
127.597365
 31
0.0
  0
LINE
  5
9402
330
93CC
100
AcDbEntity
  8
1
  6
Continuous
100
AcDbLine
 10
17.18379099999999
 20
127.597365
 30
0.0
 11
38.98379099999999
 21
127.597365
 31
0.0
  0
LINE
  5
9403
330
93CC
100
AcDbEntity
  8
1
  6
Continuous
100
AcDbLine
 10
27.18379099999999
 20
135.5973649999999
 30
0.0
 11
45.18379099999999
 21
135.5973649999999
 31
0.0
  0
LINE
  5
9404
330
93CC
100
AcDbEntity
  8
1
  6
Continuous
100
AcDbLine
 10
27.18379099999999
 20
135.5973649999999
 30
0.0
 11
18.791591
 21
133.918365
 31
0.0
  0
LINE
  5
9405
330
93CC
100
AcDbEntity
  8
1
  6
Continuous
100
AcDbLine
 10
47.18379099999999
 20
125.8973649999998
 30
0.0
 11
48.783791
 21
125.8973649999998
 31
0.0
  0
LINE
  5
9406
330
93CC
100
AcDbEntity
  8
1
  6
Continuous
100
AcDbLine
 10
44.68379099999999
 20
121.8973649999998
 30
0.0
 11
49.783791
 21
121.8973649999998
 31
0.0
  0
LINE
  5
9407
330
93CC
100
AcDbEntity
  8
1
  6
Continuous
100
AcDbLine
 10
48.783791
 20
125.8973649999998
 30
0.0
 11
49.783791
 21
124.8973649999998
 31
0.0
  0
LINE
  5
9408
330
93CC
100
AcDbEntity
  8
1
  6
Continuous
100
AcDbLine
 10
19.183791
 20
127.597365
 30
0.0
 11
19.183791
 21
125.9973649999998
 31
0.0
  0
LINE
  5
9409
330
93CC
100
AcDbEntity
  8
1
  6
Continuous
100
AcDbLine
 10
21.98379099999999
 20
127.597365
 30
0.0
 11
21.98379099999999
 21
121.597365
 31
0.0
  0
LINE
  5
940A
330
93CC
100
AcDbEntity
  8
1
  6
Continuous
100
AcDbLine
 10
20.401091
 20
121.597365
 30
0.0
 11
21.98379099999999
 21
121.597365
 31
0.0
  0
LINE
  5
940B
330
93CC
100
AcDbEntity
  8
1
  6
Continuous
100
AcDbLine
 10
19.183791
 20
125.9973649999998
 30
0.0
 11
19.909191
 21
122.007365
 31
0.0
  0
LINE
  5
940C
330
93CC
100
AcDbEntity
  8
1
  6
Continuous
100
AcDbLine
 10
27.18379099999999
 20
134.8283649999999
 30
0.0
 11
27.18379099999999
 21
128.408365
 31
0.0
  0
LINE
  5
940D
330
93CC
100
AcDbEntity
  8
1
  6
Continuous
100
AcDbLine
 10
178.584091
 20
124.8973649999998
 30
0.0
 11
178.584091
 21
121.8973649999998
 31
0.0
  0
LINE
  5
940E
330
93CC
100
AcDbEntity
  8
1
  6
Continuous
100
AcDbLine
 10
181.1840909999999
 20
133.5973649999999
 30
0.0
 11
181.1840909999999
 21
125.8973649999998
 31
0.0
  0
LINE
  5
940F
330
93CC
100
AcDbEntity
  8
1
  6
Continuous
100
AcDbLine
 10
211.184091
 20
131.9573649999999
 30
0.0
 11
211.184091
 21
127.597365
 31
0.0
  0
LINE
  5
9410
330
93CC
100
AcDbEntity
  8
1
  6
Continuous
100
AcDbLine
 10
211.184091
 20
127.597365
 30
0.0
 11
189.3840909999999
 21
127.597365
 31
0.0
  0
LINE
  5
9411
330
93CC
100
AcDbEntity
  8
1
  6
Continuous
100
AcDbLine
 10
201.184091
 20
135.5973649999999
 30
0.0
 11
183.184091
 21
135.5973649999999
 31
0.0
  0
LINE
  5
9412
330
93CC
100
AcDbEntity
  8
1
  6
Continuous
100
AcDbLine
 10
201.184091
 20
135.5973649999999
 30
0.0
 11
209.576091
 21
133.918365
 31
0.0
  0
LINE
  5
9413
330
93CC
100
AcDbEntity
  8
1
  6
Continuous
100
AcDbLine
 10
181.1840909999999
 20
125.8973649999998
 30
0.0
 11
179.584091
 21
125.8973649999998
 31
0.0
  0
LINE
  5
9414
330
93CC
100
AcDbEntity
  8
1
  6
Continuous
100
AcDbLine
 10
183.684091
 20
121.8973649999998
 30
0.0
 11
178.584091
 21
121.8973649999998
 31
0.0
  0
LINE
  5
9415
330
93CC
100
AcDbEntity
  8
1
  6
Continuous
100
AcDbLine
 10
179.584091
 20
125.8973649999998
 30
0.0
 11
178.584091
 21
124.8973649999998
 31
0.0
  0
LINE
  5
9416
330
93CC
100
AcDbEntity
  8
1
  6
Continuous
100
AcDbLine
 10
209.184091
 20
127.597365
 30
0.0
 11
209.184091
 21
125.9973649999998
 31
0.0
  0
LINE
  5
9417
330
93CC
100
AcDbEntity
  8
1
  6
Continuous
100
AcDbLine
 10
206.3840909999999
 20
127.597365
 30
0.0
 11
206.3840909999999
 21
121.597365
 31
0.0
  0
LINE
  5
9418
330
93CC
100
AcDbEntity
  8
1
  6
Continuous
100
AcDbLine
 10
207.966091
 20
121.597365
 30
0.0
 11
206.3840909999999
 21
121.597365
 31
0.0
  0
LINE
  5
9419
330
93CC
100
AcDbEntity
  8
1
  6
Continuous
100
AcDbLine
 10
209.184091
 20
125.9973649999998
 30
0.0
 11
208.458091
 21
122.007365
 31
0.0
  0
LINE
  5
941A
330
93CC
100
AcDbEntity
  8
1
  6
Continuous
100
AcDbLine
 10
201.184091
 20
134.8283649999999
 30
0.0
 11
201.184091
 21
128.408365
 31
0.0
  0
LINE
  5
941B
330
93CC
100
AcDbEntity
  8
1
  6
Continuous
100
AcDbLine
 10
154.1840909999999
 20
213.9013649999998
 30
0.0
 11
154.1840909999999
 21
200.9013649999999
 31
0.0
  0
LINE
  5
941C
330
93CC
100
AcDbEntity
  8
1
  6
Continuous
100
AcDbLine
 10
74.183791
 20
213.9013649999998
 30
0.0
 11
74.183791
 21
200.9013649999999
 31
0.0
  0
LINE
  5
941D
330
93CC
100
AcDbEntity
  8
1
  6
Continuous
100
AcDbLine
 10
75.183791
 20
199.901365
 30
0.0
 11
153.1840909999999
 21
199.901365
 31
0.0
  0
LINE
  5
941E
330
93CC
100
AcDbEntity
  8
1
  6
Continuous
100
AcDbLine
 10
75.183791
 20
214.901365
 30
0.0
 11
153.1840909999999
 21
214.901365
 31
0.0
  0
LINE
  5
941F
330
93CC
100
AcDbEntity
  8
1
  6
Continuous
100
AcDbLine
 10
75.183791
 20
214.401365
 30
0.0
 11
153.1840909999999
 21
214.401365
 31
0.0
  0
LINE
  5
9420
330
93CC
100
AcDbEntity
  8
1
  6
Continuous
100
AcDbLine
 10
153.684091
 20
213.9013649999998
 30
0.0
 11
153.684091
 21
200.9013649999999
 31
0.0
  0
LINE
  5
9421
330
93CC
100
AcDbEntity
  8
1
  6
Continuous
100
AcDbLine
 10
75.183791
 20
200.401365
 30
0.0
 11
153.1840909999999
 21
200.401365
 31
0.0
  0
LINE
  5
9422
330
93CC
100
AcDbEntity
  8
1
  6
Continuous
100
AcDbLine
 10
74.68379099999999
 20
213.9013649999998
 30
0.0
 11
74.68379099999999
 21
200.9013649999999
 31
0.0
  0
LINE
  5
9423
330
93CC
100
AcDbEntity
  8
1
  6
Continuous
100
AcDbLine
 10
55.68379100000001
 20
218.401365
 30
0.0
 11
172.6840909999999
 21
218.401365
 31
0.0
  0
LINE
  5
9424
330
93CC
100
AcDbEntity
  8
1
  6
Continuous
100
AcDbLine
 10
55.68379100000001
 20
196.401365
 30
0.0
 11
172.6840909999999
 21
196.401365
 31
0.0
  0
LINE
  5
9425
330
93CC
100
AcDbEntity
  8
1
  6
Continuous
100
AcDbLine
 10
172.6840909999999
 20
216.901365
 30
0.0
 11
172.6840909999999
 21
197.9013649999999
 31
0.0
  0
LINE
  5
9426
330
93CC
100
AcDbEntity
  8
1
  6
Continuous
100
AcDbLine
 10
55.68379100000001
 20
216.901365
 30
0.0
 11
55.68379100000001
 21
197.9013649999999
 31
0.0
  0
LINE
  5
9427
330
93CC
100
AcDbEntity
  8
1
  6
Continuous
100
AcDbLine
 10
181.1840909999999
 20
199.234365
 30
0.0
 11
172.6840909999999
 21
196.401365
 31
0.0
  0
LINE
  5
9428
330
93CC
100
AcDbEntity
  8
1
  6
Continuous
100
AcDbLine
 10
172.6840909999999
 20
218.401365
 30
0.0
 11
181.1840909999999
 21
215.5683649999998
 31
0.0
  0
LINE
  5
9429
330
93CC
100
AcDbEntity
  8
1
  6
Continuous
100
AcDbLine
 10
55.68379100000001
 20
218.401365
 30
0.0
 11
47.18379099999999
 21
215.5683649999998
 31
0.0
  0
LINE
  5
942A
330
93CC
100
AcDbEntity
  8
1
  6
Continuous
100
AcDbLine
 10
49.783791
 20
218.1513649999998
 30
0.0
 11
49.783791
 21
216.4343649999999
 31
0.0
  0
LINE
  5
942B
330
93CC
100
AcDbEntity
  8
1
  6
Continuous
100
AcDbLine
 10
49.783791
 20
198.3683649999999
 30
0.0
 11
49.783791
 21
196.6513649999999
 31
0.0
  0
LINE
  5
942C
330
93CC
100
AcDbEntity
  8
1
  6
Continuous
100
AcDbLine
 10
47.18379099999999
 20
199.234365
 30
0.0
 11
55.68379100000001
 21
196.401365
 31
0.0
  0
LINE
  5
942D
330
93CC
100
AcDbEntity
  8
1
  6
Continuous
100
AcDbLine
 10
56.720291
 20
135.5973649999999
 30
0.0
 11
171.6470909999999
 21
135.5973649999999
 31
0.0
  0
LINE
  5
942E
330
93CC
100
AcDbEntity
  8
4
  6
CENTER
100
AcDbLine
 10
114.1840909999999
 20
224.2403649999999
 30
0.0
 11
114.1840909999999
 21
190.4503649999998
 31
0.0
  0
LINE
  5
942F
330
93CC
100
AcDbEntity
  8
1
  6
Continuous
100
AcDbLine
 10
56.720291
 20
131.5973649999999
 30
0.0
 11
59.18379100000001
 21
131.5973649999999
 31
0.0
  0
LINE
  5
9430
330
93CC
100
AcDbEntity
  8
1
  6
Continuous
100
AcDbLine
 10
173.5900909999998
 20
131.0933649999997
 30
0.0
 11
179.6570909999998
 21
127.722365
 31
0.0
  0
LINE
  5
9431
330
93CC
100
AcDbEntity
  8
1
  6
Continuous
100
AcDbLine
 10
173.5900909999998
 20
135.0933649999997
 30
0.0
 11
181.1840909999999
 21
130.8743649999998
 31
0.0
  0
LINE
  5
9432
330
93CC
100
AcDbEntity
  8
1
  6
Continuous
100
AcDbLine
 10
180.143091
 20
127.597365
 30
0.0
 11
181.1840909999999
 21
127.597365
 31
0.0
  0
LINE
  5
9433
330
93CC
100
AcDbEntity
  8
1
  6
Continuous
100
AcDbLine
 10
54.77769099999999
 20
135.0933649999997
 30
0.0
 11
47.18379099999999
 21
130.8743649999998
 31
0.0
  0
LINE
  5
9434
330
93CC
100
AcDbEntity
  8
1
  6
Continuous
100
AcDbLine
 10
54.77769099999999
 20
131.0933649999997
 30
0.0
 11
48.710291
 21
127.722365
 31
0.0
  0
LINE
  5
9435
330
93CC
100
AcDbEntity
  8
1
  6
Continuous
100
AcDbLine
 10
48.224691
 20
127.597365
 30
0.0
 11
47.18379099999999
 21
127.597365
 31
0.0
  0
LINE
  5
9436
330
93CC
100
AcDbEntity
  8
1
  6
Continuous
100
AcDbLine
 10
167.6840909999999
 20
132.5973649999999
 30
0.0
 11
167.6840909999999
 21
132.0973649999999
 31
0.0
  0
LINE
  5
9437
330
93CC
100
AcDbEntity
  8
1
  6
Continuous
100
AcDbLine
 10
168.6840909999999
 20
132.5973649999999
 30
0.0
 11
168.6840909999999
 21
132.0973649999999
 31
0.0
  0
LINE
  5
9438
330
93CC
100
AcDbEntity
  8
1
  6
Continuous
100
AcDbLine
 10
61.18379100000001
 20
131.5973649999999
 30
0.0
 11
63.18379100000001
 21
131.5973649999999
 31
0.0
  0
LINE
  5
9439
330
93CC
100
AcDbEntity
  8
1
  6
Continuous
100
AcDbLine
 10
59.68379099999999
 20
132.5973649999999
 30
0.0
 11
59.68379099999999
 21
132.0973649999999
 31
0.0
  0
LINE
  5
943A
330
93CC
100
AcDbEntity
  8
1
  6
Continuous
100
AcDbLine
 10
60.68379100000001
 20
132.5973649999999
 30
0.0
 11
60.68379100000001
 21
132.0973649999999
 31
0.0
  0
LINE
  5
943B
330
93CC
100
AcDbEntity
  8
1
  6
Continuous
100
AcDbLine
 10
63.68379100000001
 20
132.5973649999999
 30
0.0
 11
63.68379100000001
 21
132.0973649999999
 31
0.0
  0
LINE
  5
943C
330
93CC
100
AcDbEntity
  8
1
  6
Continuous
100
AcDbLine
 10
64.68379099999999
 20
132.5973649999999
 30
0.0
 11
64.68379099999999
 21
132.0973649999999
 31
0.0
  0
LINE
  5
943D
330
93CC
100
AcDbEntity
  8
1
  6
Continuous
100
AcDbLine
 10
67.683791
 20
132.5973649999999
 30
0.0
 11
67.683791
 21
132.0973649999999
 31
0.0
  0
LINE
  5
943E
330
93CC
100
AcDbEntity
  8
1
  6
Continuous
100
AcDbLine
 10
68.683791
 20
132.5973649999999
 30
0.0
 11
68.683791
 21
132.0973649999999
 31
0.0
  0
LINE
  5
943F
330
93CC
100
AcDbEntity
  8
1
  6
Continuous
100
AcDbLine
 10
71.683791
 20
132.5973649999999
 30
0.0
 11
71.683791
 21
132.0973649999999
 31
0.0
  0
LINE
  5
9440
330
93CC
100
AcDbEntity
  8
1
  6
Continuous
100
AcDbLine
 10
72.683791
 20
132.5973649999999
 30
0.0
 11
72.683791
 21
132.0973649999999
 31
0.0
  0
LINE
  5
9441
330
93CC
100
AcDbEntity
  8
1
  6
Continuous
100
AcDbLine
 10
75.683791
 20
132.5973649999999
 30
0.0
 11
75.683791
 21
132.0973649999999
 31
0.0
  0
LINE
  5
9442
330
93CC
100
AcDbEntity
  8
1
  6
Continuous
100
AcDbLine
 10
76.683791
 20
132.5973649999999
 30
0.0
 11
76.683791
 21
132.0973649999999
 31
0.0
  0
LINE
  5
9443
330
93CC
100
AcDbEntity
  8
1
  6
Continuous
100
AcDbLine
 10
79.68379099999999
 20
132.5973649999999
 30
0.0
 11
79.68379099999999
 21
132.0973649999999
 31
0.0
  0
LINE
  5
9444
330
93CC
100
AcDbEntity
  8
1
  6
Continuous
100
AcDbLine
 10
80.68379099999999
 20
132.5973649999999
 30
0.0
 11
80.68379099999999
 21
132.0973649999999
 31
0.0
  0
LINE
  5
9445
330
93CC
100
AcDbEntity
  8
1
  6
Continuous
100
AcDbLine
 10
83.683791
 20
132.5973649999999
 30
0.0
 11
83.683791
 21
132.0973649999999
 31
0.0
  0
LINE
  5
9446
330
93CC
100
AcDbEntity
  8
1
  6
Continuous
100
AcDbLine
 10
84.68409099999998
 20
132.5973649999999
 30
0.0
 11
84.68409099999998
 21
132.0973649999999
 31
0.0
  0
LINE
  5
9447
330
93CC
100
AcDbEntity
  8
1
  6
Continuous
100
AcDbLine
 10
87.68409100000004
 20
132.5973649999999
 30
0.0
 11
87.68409100000004
 21
132.0973649999999
 31
0.0
  0
LINE
  5
9448
330
93CC
100
AcDbEntity
  8
1
  6
Continuous
100
AcDbLine
 10
88.68409099999999
 20
132.5973649999999
 30
0.0
 11
88.68409099999999
 21
132.0973649999999
 31
0.0
  0
LINE
  5
9449
330
93CC
100
AcDbEntity
  8
1
  6
Continuous
100
AcDbLine
 10
91.68409100000003
 20
132.5973649999999
 30
0.0
 11
91.68409100000003
 21
132.0973649999999
 31
0.0
  0
LINE
  5
944A
330
93CC
100
AcDbEntity
  8
1
  6
Continuous
100
AcDbLine
 10
92.68409100000004
 20
132.5973649999999
 30
0.0
 11
92.68409100000004
 21
132.0973649999999
 31
0.0
  0
LINE
  5
944B
330
93CC
100
AcDbEntity
  8
1
  6
Continuous
100
AcDbLine
 10
95.684091
 20
132.5973649999999
 30
0.0
 11
95.684091
 21
132.0973649999999
 31
0.0
  0
LINE
  5
944C
330
93CC
100
AcDbEntity
  8
1
  6
Continuous
100
AcDbLine
 10
96.68409100000005
 20
132.5973649999999
 30
0.0
 11
96.68409100000005
 21
132.0973649999999
 31
0.0
  0
LINE
  5
944D
330
93CC
100
AcDbEntity
  8
1
  6
Continuous
100
AcDbLine
 10
99.68409100000002
 20
132.5973649999999
 30
0.0
 11
99.68409100000002
 21
132.0973649999999
 31
0.0
  0
LINE
  5
944E
330
93CC
100
AcDbEntity
  8
1
  6
Continuous
100
AcDbLine
 10
100.684091
 20
132.5973649999999
 30
0.0
 11
100.684091
 21
132.0973649999999
 31
0.0
  0
LINE
  5
944F
330
93CC
100
AcDbEntity
  8
1
  6
Continuous
100
AcDbLine
 10
103.684091
 20
132.5973649999999
 30
0.0
 11
103.684091
 21
132.0973649999999
 31
0.0
  0
LINE
  5
9450
330
93CC
100
AcDbEntity
  8
1
  6
Continuous
100
AcDbLine
 10
104.684091
 20
132.5973649999999
 30
0.0
 11
104.684091
 21
132.0973649999999
 31
0.0
  0
LINE
  5
9451
330
93CC
100
AcDbEntity
  8
1
  6
Continuous
100
AcDbLine
 10
107.684091
 20
132.5973649999999
 30
0.0
 11
107.684091
 21
132.0973649999999
 31
0.0
  0
LINE
  5
9452
330
93CC
100
AcDbEntity
  8
1
  6
Continuous
100
AcDbLine
 10
108.684091
 20
132.5973649999999
 30
0.0
 11
108.684091
 21
132.0973649999999
 31
0.0
  0
LINE
  5
9453
330
93CC
100
AcDbEntity
  8
1
  6
Continuous
100
AcDbLine
 10
111.684091
 20
132.5973649999999
 30
0.0
 11
111.684091
 21
132.0973649999999
 31
0.0
  0
LINE
  5
9454
330
93CC
100
AcDbEntity
  8
1
  6
Continuous
100
AcDbLine
 10
112.684091
 20
132.5973649999999
 30
0.0
 11
112.684091
 21
132.0973649999999
 31
0.0
  0
LINE
  5
9455
330
93CC
100
AcDbEntity
  8
1
  6
Continuous
100
AcDbLine
 10
115.6840909999999
 20
132.5973649999999
 30
0.0
 11
115.6840909999999
 21
132.0973649999999
 31
0.0
  0
LINE
  5
9456
330
93CC
100
AcDbEntity
  8
1
  6
Continuous
100
AcDbLine
 10
116.6840909999999
 20
132.5973649999999
 30
0.0
 11
116.6840909999999
 21
132.0973649999999
 31
0.0
  0
LINE
  5
9457
330
93CC
100
AcDbEntity
  8
1
  6
Continuous
100
AcDbLine
 10
119.6840909999999
 20
132.5973649999999
 30
0.0
 11
119.6840909999999
 21
132.0973649999999
 31
0.0
  0
LINE
  5
9458
330
93CC
100
AcDbEntity
  8
1
  6
Continuous
100
AcDbLine
 10
120.6840909999999
 20
132.5973649999999
 30
0.0
 11
120.6840909999999
 21
132.0973649999999
 31
0.0
  0
LINE
  5
9459
330
93CC
100
AcDbEntity
  8
1
  6
Continuous
100
AcDbLine
 10
123.6840909999999
 20
132.5973649999999
 30
0.0
 11
123.6840909999999
 21
132.0973649999999
 31
0.0
  0
LINE
  5
945A
330
93CC
100
AcDbEntity
  8
1
  6
Continuous
100
AcDbLine
 10
124.6840909999999
 20
132.5973649999999
 30
0.0
 11
124.6840909999999
 21
132.0973649999999
 31
0.0
  0
LINE
  5
945B
330
93CC
100
AcDbEntity
  8
1
  6
Continuous
100
AcDbLine
 10
127.6840909999999
 20
132.5973649999999
 30
0.0
 11
127.6840909999999
 21
132.0973649999999
 31
0.0
  0
LINE
  5
945C
330
93CC
100
AcDbEntity
  8
1
  6
Continuous
100
AcDbLine
 10
128.684091
 20
132.5973649999999
 30
0.0
 11
128.684091
 21
132.0973649999999
 31
0.0
  0
LINE
  5
945D
330
93CC
100
AcDbEntity
  8
1
  6
Continuous
100
AcDbLine
 10
131.684091
 20
132.5973649999999
 30
0.0
 11
131.684091
 21
132.0973649999999
 31
0.0
  0
LINE
  5
945E
330
93CC
100
AcDbEntity
  8
1
  6
Continuous
100
AcDbLine
 10
132.684091
 20
132.5973649999999
 30
0.0
 11
132.684091
 21
132.0973649999999
 31
0.0
  0
LINE
  5
945F
330
93CC
100
AcDbEntity
  8
1
  6
Continuous
100
AcDbLine
 10
135.684091
 20
132.5973649999999
 30
0.0
 11
135.684091
 21
132.0973649999999
 31
0.0
  0
LINE
  5
9460
330
93CC
100
AcDbEntity
  8
1
  6
Continuous
100
AcDbLine
 10
136.684091
 20
132.5973649999999
 30
0.0
 11
136.684091
 21
132.0973649999999
 31
0.0
  0
LINE
  5
9461
330
93CC
100
AcDbEntity
  8
1
  6
Continuous
100
AcDbLine
 10
139.6840909999999
 20
132.5973649999999
 30
0.0
 11
139.6840909999999
 21
132.0973649999999
 31
0.0
  0
LINE
  5
9462
330
93CC
100
AcDbEntity
  8
1
  6
Continuous
100
AcDbLine
 10
140.6840909999999
 20
132.5973649999999
 30
0.0
 11
140.6840909999999
 21
132.0973649999999
 31
0.0
  0
LINE
  5
9463
330
93CC
100
AcDbEntity
  8
1
  6
Continuous
100
AcDbLine
 10
143.6840909999999
 20
132.5973649999999
 30
0.0
 11
143.6840909999999
 21
132.0973649999999
 31
0.0
  0
LINE
  5
9464
330
93CC
100
AcDbEntity
  8
1
  6
Continuous
100
AcDbLine
 10
144.6840909999998
 20
132.5973649999999
 30
0.0
 11
144.6840909999998
 21
132.0973649999999
 31
0.0
  0
LINE
  5
9465
330
93CC
100
AcDbEntity
  8
1
  6
Continuous
100
AcDbLine
 10
147.6840909999999
 20
132.5973649999999
 30
0.0
 11
147.6840909999999
 21
132.0973649999999
 31
0.0
  0
LINE
  5
9466
330
93CC
100
AcDbEntity
  8
1
  6
Continuous
100
AcDbLine
 10
148.6840909999999
 20
132.5973649999999
 30
0.0
 11
148.6840909999999
 21
132.0973649999999
 31
0.0
  0
LINE
  5
9467
330
93CC
100
AcDbEntity
  8
1
  6
Continuous
100
AcDbLine
 10
151.6840909999999
 20
132.5973649999999
 30
0.0
 11
151.6840909999999
 21
132.0973649999999
 31
0.0
  0
LINE
  5
9468
330
93CC
100
AcDbEntity
  8
1
  6
Continuous
100
AcDbLine
 10
152.6840909999999
 20
132.5973649999999
 30
0.0
 11
152.6840909999999
 21
132.0973649999999
 31
0.0
  0
LINE
  5
9469
330
93CC
100
AcDbEntity
  8
1
  6
Continuous
100
AcDbLine
 10
155.684091
 20
132.5973649999999
 30
0.0
 11
155.684091
 21
132.0973649999999
 31
0.0
  0
LINE
  5
946A
330
93CC
100
AcDbEntity
  8
1
  6
Continuous
100
AcDbLine
 10
156.6840909999999
 20
132.5973649999999
 30
0.0
 11
156.6840909999999
 21
132.0973649999999
 31
0.0
  0
LINE
  5
946B
330
93CC
100
AcDbEntity
  8
1
  6
Continuous
100
AcDbLine
 10
159.684091
 20
132.5973649999999
 30
0.0
 11
159.684091
 21
132.0973649999999
 31
0.0
  0
LINE
  5
946C
330
93CC
100
AcDbEntity
  8
1
  6
Continuous
100
AcDbLine
 10
160.684091
 20
132.5973649999999
 30
0.0
 11
160.684091
 21
132.0973649999999
 31
0.0
  0
LINE
  5
946D
330
93CC
100
AcDbEntity
  8
1
  6
Continuous
100
AcDbLine
 10
163.684091
 20
132.5973649999999
 30
0.0
 11
163.684091
 21
132.0973649999999
 31
0.0
  0
LINE
  5
946E
330
93CC
100
AcDbEntity
  8
1
  6
Continuous
100
AcDbLine
 10
164.6840909999999
 20
132.5973649999999
 30
0.0
 11
164.6840909999999
 21
132.0973649999999
 31
0.0
  0
LINE
  5
946F
330
93CC
100
AcDbEntity
  8
1
  6
Continuous
100
AcDbLine
 10
65.183791
 20
131.5973649999999
 30
0.0
 11
67.18379099999999
 21
131.5973649999999
 31
0.0
  0
LINE
  5
9470
330
93CC
100
AcDbEntity
  8
1
  6
Continuous
100
AcDbLine
 10
69.183791
 20
131.5973649999999
 30
0.0
 11
71.183791
 21
131.5973649999999
 31
0.0
  0
LINE
  5
9471
330
93CC
100
AcDbEntity
  8
1
  6
Continuous
100
AcDbLine
 10
73.183791
 20
131.5973649999999
 30
0.0
 11
75.183791
 21
131.5973649999999
 31
0.0
  0
LINE
  5
9472
330
93CC
100
AcDbEntity
  8
1
  6
Continuous
100
AcDbLine
 10
77.18379099999999
 20
131.5973649999999
 30
0.0
 11
79.183791
 21
131.5973649999999
 31
0.0
  0
LINE
  5
9473
330
93CC
100
AcDbEntity
  8
1
  6
Continuous
100
AcDbLine
 10
81.183791
 20
131.5973649999999
 30
0.0
 11
83.18379099999999
 21
131.5973649999999
 31
0.0
  0
LINE
  5
9474
330
93CC
100
AcDbEntity
  8
1
  6
Continuous
100
AcDbLine
 10
85.18409100000003
 20
131.5973649999999
 30
0.0
 11
87.18409099999998
 21
131.5973649999999
 31
0.0
  0
LINE
  5
9475
330
93CC
100
AcDbEntity
  8
1
  6
Continuous
100
AcDbLine
 10
89.18409100000003
 20
131.5973649999999
 30
0.0
 11
91.18409099999999
 21
131.5973649999999
 31
0.0
  0
LINE
  5
9476
330
93CC
100
AcDbEntity
  8
1
  6
Continuous
100
AcDbLine
 10
93.184091
 20
131.5973649999999
 30
0.0
 11
95.18409100000004
 21
131.5973649999999
 31
0.0
  0
LINE
  5
9477
330
93CC
100
AcDbEntity
  8
1
  6
Continuous
100
AcDbLine
 10
97.18409100000002
 20
131.5973649999999
 30
0.0
 11
99.18409100000005
 21
131.5973649999999
 31
0.0
  0
LINE
  5
9478
330
93CC
100
AcDbEntity
  8
1
  6
Continuous
100
AcDbLine
 10
101.184091
 20
131.5973649999999
 30
0.0
 11
103.184091
 21
131.5973649999999
 31
0.0
  0
LINE
  5
9479
330
93CC
100
AcDbEntity
  8
1
  6
Continuous
100
AcDbLine
 10
105.1840909999999
 20
131.5973649999999
 30
0.0
 11
107.1840909999999
 21
131.5973649999999
 31
0.0
  0
LINE
  5
947A
330
93CC
100
AcDbEntity
  8
1
  6
Continuous
100
AcDbLine
 10
108.955091
 20
131.5973649999999
 30
0.0
 11
111.1840909999999
 21
131.5973649999999
 31
0.0
  0
LINE
  5
947B
330
93CC
100
AcDbEntity
  8
1
  6
Continuous
100
AcDbLine
 10
113.1840909999999
 20
131.5973649999999
 30
0.0
 11
115.1840909999999
 21
131.5973649999999
 31
0.0
  0
LINE
  5
947C
330
93CC
100
AcDbEntity
  8
1
  6
Continuous
100
AcDbLine
 10
117.184091
 20
131.5973649999999
 30
0.0
 11
119.184091
 21
131.5973649999999
 31
0.0
  0
LINE
  5
947D
330
93CC
100
AcDbEntity
  8
1
  6
Continuous
100
AcDbLine
 10
121.184091
 20
131.5973649999999
 30
0.0
 11
123.184091
 21
131.5973649999999
 31
0.0
  0
LINE
  5
947E
330
93CC
100
AcDbEntity
  8
1
  6
Continuous
100
AcDbLine
 10
125.184091
 20
131.5973649999999
 30
0.0
 11
127.1840909999999
 21
131.5973649999999
 31
0.0
  0
LINE
  5
947F
330
93CC
100
AcDbEntity
  8
1
  6
Continuous
100
AcDbLine
 10
129.1840909999999
 20
131.5973649999999
 30
0.0
 11
131.1840909999999
 21
131.5973649999999
 31
0.0
  0
LINE
  5
9480
330
93CC
100
AcDbEntity
  8
1
  6
Continuous
100
AcDbLine
 10
133.1840909999999
 20
131.5973649999999
 30
0.0
 11
135.1840909999999
 21
131.5973649999999
 31
0.0
  0
LINE
  5
9481
330
93CC
100
AcDbEntity
  8
1
  6
Continuous
100
AcDbLine
 10
137.1840909999999
 20
131.5973649999999
 30
0.0
 11
139.1840909999999
 21
131.5973649999999
 31
0.0
  0
LINE
  5
9482
330
93CC
100
AcDbEntity
  8
1
  6
Continuous
100
AcDbLine
 10
141.184091
 20
131.5973649999999
 30
0.0
 11
143.184091
 21
131.5973649999999
 31
0.0
  0
LINE
  5
9483
330
93CC
100
AcDbEntity
  8
1
  6
Continuous
100
AcDbLine
 10
145.184091
 20
131.5973649999999
 30
0.0
 11
147.184091
 21
131.5973649999999
 31
0.0
  0
LINE
  5
9484
330
93CC
100
AcDbEntity
  8
1
  6
Continuous
100
AcDbLine
 10
149.184091
 20
131.5973649999999
 30
0.0
 11
151.184091
 21
131.5973649999999
 31
0.0
  0
LINE
  5
9485
330
93CC
100
AcDbEntity
  8
1
  6
Continuous
100
AcDbLine
 10
153.1840909999999
 20
131.5973649999999
 30
0.0
 11
155.1840909999999
 21
131.5973649999999
 31
0.0
  0
LINE
  5
9486
330
93CC
100
AcDbEntity
  8
1
  6
Continuous
100
AcDbLine
 10
157.1840909999998
 20
131.5973649999999
 30
0.0
 11
159.1840909999999
 21
131.5973649999999
 31
0.0
  0
LINE
  5
9487
330
93CC
100
AcDbEntity
  8
1
  6
Continuous
100
AcDbLine
 10
161.1840909999999
 20
131.5973649999999
 30
0.0
 11
163.184091
 21
131.5973649999999
 31
0.0
  0
LINE
  5
9488
330
93CC
100
AcDbEntity
  8
1
  6
Continuous
100
AcDbLine
 10
165.1840909999999
 20
131.5973649999999
 30
0.0
 11
167.184091
 21
131.5973649999999
 31
0.0
  0
LINE
  5
9489
330
93CC
100
AcDbEntity
  8
1
  6
Continuous
100
AcDbLine
 10
169.1840909999999
 20
131.5973649999999
 30
0.0
 11
171.6470909999999
 21
131.5973649999999
 31
0.0
  0
LINE
  5
948A
330
93CC
100
AcDbEntity
  8
1
  6
Continuous
100
AcDbLine
 10
60.183791
 20
133.097365
 30
0.0
 11
168.184091
 21
133.097365
 31
0.0
  0
LINE
  5
948B
330
93CC
100
AcDbEntity
  8
4
  6
CENTER
100
AcDbLine
 10
10.245191
 20
54.792565
 30
0.0
 11
216.145091
 21
54.792565
 31
0.0
  0
LINE
  5
948C
330
93CC
100
AcDbEntity
  8
1
  6
Continuous
100
AcDbLine
 10
211.184091
 20
62.936965
 30
0.0
 11
211.184091
 21
46.64816499999999
 31
0.0
  0
LINE
  5
948D
330
93CC
100
AcDbEntity
  8
1
  6
Continuous
100
AcDbLine
 10
181.1840909999999
 20
62.942565
 30
0.0
 11
181.1840909999999
 21
62.792565
 31
0.0
  0
LINE
  5
948E
330
93CC
100
AcDbEntity
  8
1
  6
Continuous
100
AcDbLine
 10
178.584091
 20
65.542565
 30
0.0
 11
178.584091
 21
62.942565
 31
0.0
  0
LINE
  5
948F
330
93CC
100
AcDbEntity
  8
1
  6
Continuous
100
AcDbLine
 10
201.184091
 20
65.542565
 30
0.0
 11
178.584091
 21
65.542565
 31
0.0
  0
LINE
  5
9490
330
93CC
100
AcDbEntity
  8
1
  6
Continuous
100
AcDbLine
 10
201.184091
 20
44.042565
 30
0.0
 11
178.584091
 21
44.042565
 31
0.0
  0
LINE
  5
9491
330
93CC
100
AcDbEntity
  8
1
  6
Continuous
100
AcDbLine
 10
209.333091
 20
64.931365
 30
0.0
 11
201.184091
 21
65.542565
 31
0.0
  0
LINE
  5
9492
330
93CC
100
AcDbEntity
  8
1
  6
Continuous
100
AcDbLine
 10
209.333091
 20
44.653765
 30
0.0
 11
201.184091
 21
44.042565
 31
0.0
  0
LINE
  5
9493
330
93CC
100
AcDbEntity
  8
1
  6
Continuous
100
AcDbLine
 10
178.584091
 20
46.64256499999999
 30
0.0
 11
178.584091
 21
44.042565
 31
0.0
  0
LINE
  5
9494
330
93CC
100
AcDbEntity
  8
1
  6
Continuous
100
AcDbLine
 10
55.68379100000001
 20
65.79256499999999
 30
0.0
 11
172.6840909999999
 21
65.79256499999999
 31
0.0
  0
LINE
  5
9495
330
93CC
100
AcDbEntity
  8
1
  6
Continuous
100
AcDbLine
 10
55.68379100000001
 20
43.792565
 30
0.0
 11
172.6840909999999
 21
43.792565
 31
0.0
  0
LINE
  5
9496
330
93CC
100
AcDbEntity
  8
1
  6
Continuous
100
AcDbLine
 10
172.6840909999999
 20
64.292565
 30
0.0
 11
172.6840909999999
 21
45.292565
 31
0.0
  0
LINE
  5
9497
330
93CC
100
AcDbEntity
  8
1
  6
Continuous
100
AcDbLine
 10
55.68379100000001
 20
64.292565
 30
0.0
 11
55.68379100000001
 21
45.292565
 31
0.0
  0
LINE
  5
9498
330
93CC
100
AcDbEntity
  8
1
  6
Continuous
100
AcDbLine
 10
181.6840909999999
 20
46.792565
 30
0.0
 11
181.2340909999998
 21
46.64256499999999
 31
0.0
  0
LINE
  5
9499
330
93CC
100
AcDbEntity
  8
1
  6
Continuous
100
AcDbLine
 10
172.6840909999999
 20
65.79256499999999
 30
0.0
 11
178.584091
 21
63.825965
 31
0.0
  0
LINE
  5
949A
330
93CC
100
AcDbEntity
  8
1
  6
Continuous
100
AcDbLine
 10
55.68379100000001
 20
65.79256499999999
 30
0.0
 11
49.783791
 21
63.825965
 31
0.0
  0
LINE
  5
949B
330
93CC
100
AcDbEntity
  8
1
  6
Continuous
100
AcDbLine
 10
49.783791
 20
45.759265
 30
0.0
 11
55.68379100000001
 21
43.792565
 31
0.0
  0
LINE
  5
949C
330
93CC
100
AcDbEntity
  8
4
  6
CENTER
100
AcDbLine
 10
114.1840909999999
 20
71.631165
 30
0.0
 11
114.1840909999999
 21
35.97946499999999
 31
0.0
  0
LINE
  5
949D
330
93CC
100
AcDbEntity
  8
1
  6
Continuous
100
AcDbLine
 10
201.6840909999999
 20
61.79256500000001
 30
0.0
 11
201.6840909999999
 21
47.792565
 31
0.0
  0
LINE
  5
949E
330
93CC
100
AcDbEntity
  8
1
  6
Continuous
100
AcDbLine
 10
179.8840909999999
 20
46.792565
 30
0.0
 11
200.684091
 21
46.792565
 31
0.0
  0
LINE
  5
949F
330
93CC
100
AcDbEntity
  8
1
  6
Continuous
100
AcDbLine
 10
179.8840909999999
 20
62.792565
 30
0.0
 11
200.684091
 21
62.792565
 31
0.0
  0
LINE
  5
94A0
330
93CC
100
AcDbEntity
  8
1
  6
Continuous
100
AcDbLine
 10
179.8840909999999
 20
62.792565
 30
0.0
 11
179.8840909999999
 21
59.792565
 31
0.0
  0
LINE
  5
94A1
330
93CC
100
AcDbEntity
  8
1
  6
Continuous
100
AcDbLine
 10
178.084091
 20
59.792565
 30
0.0
 11
178.084091
 21
49.792565
 31
0.0
  0
LINE
  5
94A2
330
93CC
100
AcDbEntity
  8
1
  6
Continuous
100
AcDbLine
 10
178.084091
 20
49.792565
 30
0.0
 11
194.6840909999998
 21
49.792565
 31
0.0
  0
LINE
  5
94A3
330
93CC
100
AcDbEntity
  8
1
  6
Continuous
100
AcDbLine
 10
178.084091
 20
59.792565
 30
0.0
 11
194.6840909999998
 21
59.792565
 31
0.0
  0
LINE
  5
94A4
330
93CC
100
AcDbEntity
  8
1
  6
Continuous
100
AcDbLine
 10
196.6840909999999
 20
57.792565
 30
0.0
 11
196.6840909999999
 21
51.79256500000001
 31
0.0
  0
LINE
  5
94A5
330
93CC
100
AcDbEntity
  8
1
  6
Continuous
100
AcDbLine
 10
179.8840909999999
 20
49.792565
 30
0.0
 11
179.8840909999999
 21
46.792565
 31
0.0
  0
LINE
  5
94A6
330
93CC
100
AcDbEntity
  8
1
  6
Continuous
100
AcDbLine
 10
168.6840909999999
 20
64.79256499999999
 30
0.0
 11
168.6840909999999
 21
44.792565
 31
0.0
  0
LINE
  5
94A7
330
93CC
100
AcDbEntity
  8
1
  6
Continuous
100
AcDbLine
 10
167.6840909999999
 20
64.79256499999999
 30
0.0
 11
167.6840909999999
 21
44.792565
 31
0.0
  0
LINE
  5
94A8
330
93CC
100
AcDbEntity
  8
1
  6
Continuous
100
AcDbLine
 10
167.6840909999999
 20
44.792565
 30
0.0
 11
168.184091
 21
43.792565
 31
0.0
  0
LINE
  5
94A9
330
93CC
100
AcDbEntity
  8
1
  6
Continuous
100
AcDbLine
 10
168.6840909999999
 20
44.792565
 30
0.0
 11
168.184091
 21
43.792565
 31
0.0
  0
LINE
  5
94AA
330
93CC
100
AcDbEntity
  8
1
  6
Continuous
100
AcDbLine
 10
168.184091
 20
65.79256499999999
 30
0.0
 11
167.6840909999999
 21
64.79256499999999
 31
0.0
  0
LINE
  5
94AB
330
93CC
100
AcDbEntity
  8
1
  6
Continuous
100
AcDbLine
 10
168.184091
 20
65.79256499999999
 30
0.0
 11
168.6840909999999
 21
64.79256499999999
 31
0.0
  0
LINE
  5
94AC
330
93CC
100
AcDbEntity
  8
1
  6
Continuous
100
AcDbLine
 10
60.183791
 20
65.79256499999999
 30
0.0
 11
59.68379099999999
 21
64.79256499999999
 31
0.0
  0
LINE
  5
94AD
330
93CC
100
AcDbEntity
  8
1
  6
Continuous
100
AcDbLine
 10
60.183791
 20
65.79256499999999
 30
0.0
 11
60.68379100000001
 21
64.79256499999999
 31
0.0
  0
LINE
  5
94AE
330
93CC
100
AcDbEntity
  8
1
  6
Continuous
100
AcDbLine
 10
60.68379100000001
 20
64.79256499999999
 30
0.0
 11
60.68379100000001
 21
44.792565
 31
0.0
  0
LINE
  5
94AF
330
93CC
100
AcDbEntity
  8
1
  6
Continuous
100
AcDbLine
 10
59.68379099999999
 20
64.79256499999999
 30
0.0
 11
59.68379099999999
 21
44.792565
 31
0.0
  0
LINE
  5
94B0
330
93CC
100
AcDbEntity
  8
1
  6
Continuous
100
AcDbLine
 10
59.68379099999999
 20
44.792565
 30
0.0
 11
60.183791
 21
43.792565
 31
0.0
  0
LINE
  5
94B1
330
93CC
100
AcDbEntity
  8
1
  6
Continuous
100
AcDbLine
 10
60.68379100000001
 20
44.792565
 30
0.0
 11
60.183791
 21
43.792565
 31
0.0
  0
LINE
  5
94B2
330
93CC
100
AcDbEntity
  8
1
  6
Continuous
100
AcDbLine
 10
64.183791
 20
65.79256499999999
 30
0.0
 11
63.68379100000001
 21
64.79256499999999
 31
0.0
  0
LINE
  5
94B3
330
93CC
100
AcDbEntity
  8
1
  6
Continuous
100
AcDbLine
 10
64.183791
 20
65.79256499999999
 30
0.0
 11
64.68379099999999
 21
64.79256499999999
 31
0.0
  0
LINE
  5
94B4
330
93CC
100
AcDbEntity
  8
1
  6
Continuous
100
AcDbLine
 10
64.68379099999999
 20
64.79256499999999
 30
0.0
 11
64.68379099999999
 21
44.792565
 31
0.0
  0
LINE
  5
94B5
330
93CC
100
AcDbEntity
  8
1
  6
Continuous
100
AcDbLine
 10
63.68379100000001
 20
64.79256499999999
 30
0.0
 11
63.68379100000001
 21
44.792565
 31
0.0
  0
LINE
  5
94B6
330
93CC
100
AcDbEntity
  8
1
  6
Continuous
100
AcDbLine
 10
63.68379100000001
 20
44.792565
 30
0.0
 11
64.183791
 21
43.792565
 31
0.0
  0
LINE
  5
94B7
330
93CC
100
AcDbEntity
  8
1
  6
Continuous
100
AcDbLine
 10
64.68379099999999
 20
44.792565
 30
0.0
 11
64.183791
 21
43.792565
 31
0.0
  0
LINE
  5
94B8
330
93CC
100
AcDbEntity
  8
1
  6
Continuous
100
AcDbLine
 10
68.183791
 20
65.79256499999999
 30
0.0
 11
67.683791
 21
64.79256499999999
 31
0.0
  0
LINE
  5
94B9
330
93CC
100
AcDbEntity
  8
1
  6
Continuous
100
AcDbLine
 10
68.183791
 20
65.79256499999999
 30
0.0
 11
68.683791
 21
64.79256499999999
 31
0.0
  0
LINE
  5
94BA
330
93CC
100
AcDbEntity
  8
1
  6
Continuous
100
AcDbLine
 10
68.683791
 20
64.79256499999999
 30
0.0
 11
68.683791
 21
44.792565
 31
0.0
  0
LINE
  5
94BB
330
93CC
100
AcDbEntity
  8
1
  6
Continuous
100
AcDbLine
 10
67.683791
 20
64.79256499999999
 30
0.0
 11
67.683791
 21
44.792565
 31
0.0
  0
LINE
  5
94BC
330
93CC
100
AcDbEntity
  8
1
  6
Continuous
100
AcDbLine
 10
67.683791
 20
44.792565
 30
0.0
 11
68.183791
 21
43.792565
 31
0.0
  0
LINE
  5
94BD
330
93CC
100
AcDbEntity
  8
1
  6
Continuous
100
AcDbLine
 10
68.683791
 20
44.792565
 30
0.0
 11
68.183791
 21
43.792565
 31
0.0
  0
LINE
  5
94BE
330
93CC
100
AcDbEntity
  8
1
  6
Continuous
100
AcDbLine
 10
72.18379099999999
 20
65.79256499999999
 30
0.0
 11
71.683791
 21
64.79256499999999
 31
0.0
  0
LINE
  5
94BF
330
93CC
100
AcDbEntity
  8
1
  6
Continuous
100
AcDbLine
 10
72.18379099999999
 20
65.79256499999999
 30
0.0
 11
72.683791
 21
64.79256499999999
 31
0.0
  0
LINE
  5
94C0
330
93CC
100
AcDbEntity
  8
1
  6
Continuous
100
AcDbLine
 10
72.683791
 20
64.79256499999999
 30
0.0
 11
72.683791
 21
44.792565
 31
0.0
  0
LINE
  5
94C1
330
93CC
100
AcDbEntity
  8
1
  6
Continuous
100
AcDbLine
 10
71.683791
 20
64.79256499999999
 30
0.0
 11
71.683791
 21
44.792565
 31
0.0
  0
LINE
  5
94C2
330
93CC
100
AcDbEntity
  8
1
  6
Continuous
100
AcDbLine
 10
71.683791
 20
44.792565
 30
0.0
 11
72.18379099999999
 21
43.792565
 31
0.0
  0
LINE
  5
94C3
330
93CC
100
AcDbEntity
  8
1
  6
Continuous
100
AcDbLine
 10
72.683791
 20
44.792565
 30
0.0
 11
72.18379099999999
 21
43.792565
 31
0.0
  0
LINE
  5
94C4
330
93CC
100
AcDbEntity
  8
1
  6
Continuous
100
AcDbLine
 10
76.183791
 20
65.79256499999999
 30
0.0
 11
75.683791
 21
64.79256499999999
 31
0.0
  0
LINE
  5
94C5
330
93CC
100
AcDbEntity
  8
1
  6
Continuous
100
AcDbLine
 10
76.183791
 20
65.79256499999999
 30
0.0
 11
76.683791
 21
64.79256499999999
 31
0.0
  0
LINE
  5
94C6
330
93CC
100
AcDbEntity
  8
1
  6
Continuous
100
AcDbLine
 10
76.683791
 20
64.79256499999999
 30
0.0
 11
76.683791
 21
44.792565
 31
0.0
  0
LINE
  5
94C7
330
93CC
100
AcDbEntity
  8
1
  6
Continuous
100
AcDbLine
 10
75.683791
 20
64.79256499999999
 30
0.0
 11
75.683791
 21
44.792565
 31
0.0
  0
LINE
  5
94C8
330
93CC
100
AcDbEntity
  8
1
  6
Continuous
100
AcDbLine
 10
75.683791
 20
44.792565
 30
0.0
 11
76.183791
 21
43.792565
 31
0.0
  0
LINE
  5
94C9
330
93CC
100
AcDbEntity
  8
1
  6
Continuous
100
AcDbLine
 10
76.683791
 20
44.792565
 30
0.0
 11
76.183791
 21
43.792565
 31
0.0
  0
LINE
  5
94CA
330
93CC
100
AcDbEntity
  8
1
  6
Continuous
100
AcDbLine
 10
80.183791
 20
65.79256499999999
 30
0.0
 11
79.68379099999999
 21
64.79256499999999
 31
0.0
  0
LINE
  5
94CB
330
93CC
100
AcDbEntity
  8
1
  6
Continuous
100
AcDbLine
 10
80.183791
 20
65.79256499999999
 30
0.0
 11
80.68379099999999
 21
64.79256499999999
 31
0.0
  0
LINE
  5
94CC
330
93CC
100
AcDbEntity
  8
1
  6
Continuous
100
AcDbLine
 10
80.68379099999999
 20
64.79256499999999
 30
0.0
 11
80.68379099999999
 21
44.792565
 31
0.0
  0
LINE
  5
94CD
330
93CC
100
AcDbEntity
  8
1
  6
Continuous
100
AcDbLine
 10
79.68379099999999
 20
64.79256499999999
 30
0.0
 11
79.68379099999999
 21
44.792565
 31
0.0
  0
LINE
  5
94CE
330
93CC
100
AcDbEntity
  8
1
  6
Continuous
100
AcDbLine
 10
79.68379099999999
 20
44.792565
 30
0.0
 11
80.183791
 21
43.792565
 31
0.0
  0
LINE
  5
94CF
330
93CC
100
AcDbEntity
  8
1
  6
Continuous
100
AcDbLine
 10
80.68379099999999
 20
44.792565
 30
0.0
 11
80.183791
 21
43.792565
 31
0.0
  0
LINE
  5
94D0
330
93CC
100
AcDbEntity
  8
1
  6
Continuous
100
AcDbLine
 10
84.18379100000001
 20
65.79256499999999
 30
0.0
 11
83.683791
 21
64.79256499999999
 31
0.0
  0
LINE
  5
94D1
330
93CC
100
AcDbEntity
  8
1
  6
Continuous
100
AcDbLine
 10
84.18379100000001
 20
65.79256499999999
 30
0.0
 11
84.68409099999998
 21
64.79256499999999
 31
0.0
  0
LINE
  5
94D2
330
93CC
100
AcDbEntity
  8
1
  6
Continuous
100
AcDbLine
 10
84.68409099999998
 20
64.79256499999999
 30
0.0
 11
84.68409099999998
 21
44.792565
 31
0.0
  0
LINE
  5
94D3
330
93CC
100
AcDbEntity
  8
1
  6
Continuous
100
AcDbLine
 10
83.683791
 20
64.79256499999999
 30
0.0
 11
83.683791
 21
44.792565
 31
0.0
  0
LINE
  5
94D4
330
93CC
100
AcDbEntity
  8
1
  6
Continuous
100
AcDbLine
 10
83.683791
 20
44.792565
 30
0.0
 11
84.18379100000001
 21
43.792565
 31
0.0
  0
LINE
  5
94D5
330
93CC
100
AcDbEntity
  8
1
  6
Continuous
100
AcDbLine
 10
84.68409099999998
 20
44.792565
 30
0.0
 11
84.18379100000001
 21
43.792565
 31
0.0
  0
LINE
  5
94D6
330
93CC
100
AcDbEntity
  8
1
  6
Continuous
100
AcDbLine
 10
88.18409100000001
 20
65.79256499999999
 30
0.0
 11
87.68409100000004
 21
64.79256499999999
 31
0.0
  0
LINE
  5
94D7
330
93CC
100
AcDbEntity
  8
1
  6
Continuous
100
AcDbLine
 10
88.18409100000001
 20
65.79256499999999
 30
0.0
 11
88.68409099999999
 21
64.79256499999999
 31
0.0
  0
LINE
  5
94D8
330
93CC
100
AcDbEntity
  8
1
  6
Continuous
100
AcDbLine
 10
88.68409099999999
 20
64.79256499999999
 30
0.0
 11
88.68409099999999
 21
44.792565
 31
0.0
  0
LINE
  5
94D9
330
93CC
100
AcDbEntity
  8
1
  6
Continuous
100
AcDbLine
 10
87.68409100000004
 20
64.79256499999999
 30
0.0
 11
87.68409100000004
 21
44.792565
 31
0.0
  0
LINE
  5
94DA
330
93CC
100
AcDbEntity
  8
1
  6
Continuous
100
AcDbLine
 10
87.68409100000004
 20
44.792565
 30
0.0
 11
88.18409100000001
 21
43.792565
 31
0.0
  0
LINE
  5
94DB
330
93CC
100
AcDbEntity
  8
1
  6
Continuous
100
AcDbLine
 10
88.68409099999999
 20
44.792565
 30
0.0
 11
88.18409100000001
 21
43.792565
 31
0.0
  0
LINE
  5
94DC
330
93CC
100
AcDbEntity
  8
1
  6
Continuous
100
AcDbLine
 10
92.184091
 20
65.79256499999999
 30
0.0
 11
91.68409100000003
 21
64.79256499999999
 31
0.0
  0
LINE
  5
94DD
330
93CC
100
AcDbEntity
  8
1
  6
Continuous
100
AcDbLine
 10
92.184091
 20
65.79256499999999
 30
0.0
 11
92.68409100000004
 21
64.79256499999999
 31
0.0
  0
LINE
  5
94DE
330
93CC
100
AcDbEntity
  8
1
  6
Continuous
100
AcDbLine
 10
92.68409100000004
 20
64.79256499999999
 30
0.0
 11
92.68409100000004
 21
44.792565
 31
0.0
  0
LINE
  5
94DF
330
93CC
100
AcDbEntity
  8
1
  6
Continuous
100
AcDbLine
 10
91.68409100000003
 20
64.79256499999999
 30
0.0
 11
91.68409100000003
 21
44.792565
 31
0.0
  0
LINE
  5
94E0
330
93CC
100
AcDbEntity
  8
1
  6
Continuous
100
AcDbLine
 10
91.68409100000003
 20
44.792565
 30
0.0
 11
92.184091
 21
43.792565
 31
0.0
  0
LINE
  5
94E1
330
93CC
100
AcDbEntity
  8
1
  6
Continuous
100
AcDbLine
 10
92.68409100000004
 20
44.792565
 30
0.0
 11
92.184091
 21
43.792565
 31
0.0
  0
LINE
  5
94E2
330
93CC
100
AcDbEntity
  8
1
  6
Continuous
100
AcDbLine
 10
96.184091
 20
65.79256499999999
 30
0.0
 11
95.684091
 21
64.79256499999999
 31
0.0
  0
LINE
  5
94E3
330
93CC
100
AcDbEntity
  8
1
  6
Continuous
100
AcDbLine
 10
96.184091
 20
65.79256499999999
 30
0.0
 11
96.68409100000005
 21
64.79256499999999
 31
0.0
  0
LINE
  5
94E4
330
93CC
100
AcDbEntity
  8
1
  6
Continuous
100
AcDbLine
 10
96.68409100000005
 20
64.79256499999999
 30
0.0
 11
96.68409100000005
 21
44.792565
 31
0.0
  0
LINE
  5
94E5
330
93CC
100
AcDbEntity
  8
1
  6
Continuous
100
AcDbLine
 10
95.684091
 20
64.79256499999999
 30
0.0
 11
95.684091
 21
44.792565
 31
0.0
  0
LINE
  5
94E6
330
93CC
100
AcDbEntity
  8
1
  6
Continuous
100
AcDbLine
 10
95.684091
 20
44.792565
 30
0.0
 11
96.184091
 21
43.792565
 31
0.0
  0
LINE
  5
94E7
330
93CC
100
AcDbEntity
  8
1
  6
Continuous
100
AcDbLine
 10
96.68409100000005
 20
44.792565
 30
0.0
 11
96.184091
 21
43.792565
 31
0.0
  0
LINE
  5
94E8
330
93CC
100
AcDbEntity
  8
1
  6
Continuous
100
AcDbLine
 10
100.184091
 20
65.79256499999999
 30
0.0
 11
99.68409100000002
 21
64.79256499999999
 31
0.0
  0
LINE
  5
94E9
330
93CC
100
AcDbEntity
  8
1
  6
Continuous
100
AcDbLine
 10
100.184091
 20
65.79256499999999
 30
0.0
 11
100.684091
 21
64.79256499999999
 31
0.0
  0
LINE
  5
94EA
330
93CC
100
AcDbEntity
  8
1
  6
Continuous
100
AcDbLine
 10
100.684091
 20
64.79256499999999
 30
0.0
 11
100.684091
 21
44.792565
 31
0.0
  0
LINE
  5
94EB
330
93CC
100
AcDbEntity
  8
1
  6
Continuous
100
AcDbLine
 10
99.68409100000002
 20
64.79256499999999
 30
0.0
 11
99.68409100000002
 21
44.792565
 31
0.0
  0
LINE
  5
94EC
330
93CC
100
AcDbEntity
  8
1
  6
Continuous
100
AcDbLine
 10
99.68409100000002
 20
44.792565
 30
0.0
 11
100.184091
 21
43.792565
 31
0.0
  0
LINE
  5
94ED
330
93CC
100
AcDbEntity
  8
1
  6
Continuous
100
AcDbLine
 10
100.684091
 20
44.792565
 30
0.0
 11
100.184091
 21
43.792565
 31
0.0
  0
LINE
  5
94EE
330
93CC
100
AcDbEntity
  8
1
  6
Continuous
100
AcDbLine
 10
104.184091
 20
65.79256499999999
 30
0.0
 11
103.684091
 21
64.79256499999999
 31
0.0
  0
LINE
  5
94EF
330
93CC
100
AcDbEntity
  8
1
  6
Continuous
100
AcDbLine
 10
104.184091
 20
65.79256499999999
 30
0.0
 11
104.684091
 21
64.79256499999999
 31
0.0
  0
LINE
  5
94F0
330
93CC
100
AcDbEntity
  8
1
  6
Continuous
100
AcDbLine
 10
104.684091
 20
64.79256499999999
 30
0.0
 11
104.684091
 21
44.792565
 31
0.0
  0
LINE
  5
94F1
330
93CC
100
AcDbEntity
  8
1
  6
Continuous
100
AcDbLine
 10
103.684091
 20
64.79256499999999
 30
0.0
 11
103.684091
 21
44.792565
 31
0.0
  0
LINE
  5
94F2
330
93CC
100
AcDbEntity
  8
1
  6
Continuous
100
AcDbLine
 10
103.684091
 20
44.792565
 30
0.0
 11
104.184091
 21
43.792565
 31
0.0
  0
LINE
  5
94F3
330
93CC
100
AcDbEntity
  8
1
  6
Continuous
100
AcDbLine
 10
104.684091
 20
44.792565
 30
0.0
 11
104.184091
 21
43.792565
 31
0.0
  0
LINE
  5
94F4
330
93CC
100
AcDbEntity
  8
1
  6
Continuous
100
AcDbLine
 10
108.1840909999999
 20
65.79256499999999
 30
0.0
 11
107.684091
 21
64.79256499999999
 31
0.0
  0
LINE
  5
94F5
330
93CC
100
AcDbEntity
  8
1
  6
Continuous
100
AcDbLine
 10
108.1840909999999
 20
65.79256499999999
 30
0.0
 11
108.684091
 21
64.79256499999999
 31
0.0
  0
LINE
  5
94F6
330
93CC
100
AcDbEntity
  8
1
  6
Continuous
100
AcDbLine
 10
108.684091
 20
64.79256499999999
 30
0.0
 11
108.684091
 21
44.792565
 31
0.0
  0
LINE
  5
94F7
330
93CC
100
AcDbEntity
  8
1
  6
Continuous
100
AcDbLine
 10
107.684091
 20
64.79256499999999
 30
0.0
 11
107.684091
 21
44.792565
 31
0.0
  0
LINE
  5
94F8
330
93CC
100
AcDbEntity
  8
1
  6
Continuous
100
AcDbLine
 10
107.684091
 20
44.792565
 30
0.0
 11
108.1840909999999
 21
43.792565
 31
0.0
  0
LINE
  5
94F9
330
93CC
100
AcDbEntity
  8
1
  6
Continuous
100
AcDbLine
 10
108.684091
 20
44.792565
 30
0.0
 11
108.1840909999999
 21
43.792565
 31
0.0
  0
LINE
  5
94FA
330
93CC
100
AcDbEntity
  8
1
  6
Continuous
100
AcDbLine
 10
112.1840909999999
 20
65.79256499999999
 30
0.0
 11
111.684091
 21
64.79256499999999
 31
0.0
  0
LINE
  5
94FB
330
93CC
100
AcDbEntity
  8
1
  6
Continuous
100
AcDbLine
 10
112.1840909999999
 20
65.79256499999999
 30
0.0
 11
112.684091
 21
64.79256499999999
 31
0.0
  0
LINE
  5
94FC
330
93CC
100
AcDbEntity
  8
1
  6
Continuous
100
AcDbLine
 10
112.684091
 20
64.79256499999999
 30
0.0
 11
112.684091
 21
44.792565
 31
0.0
  0
LINE
  5
94FD
330
93CC
100
AcDbEntity
  8
1
  6
Continuous
100
AcDbLine
 10
111.684091
 20
64.79256499999999
 30
0.0
 11
111.684091
 21
44.792565
 31
0.0
  0
LINE
  5
94FE
330
93CC
100
AcDbEntity
  8
1
  6
Continuous
100
AcDbLine
 10
111.684091
 20
44.792565
 30
0.0
 11
112.1840909999999
 21
43.792565
 31
0.0
  0
LINE
  5
94FF
330
93CC
100
AcDbEntity
  8
1
  6
Continuous
100
AcDbLine
 10
112.684091
 20
44.792565
 30
0.0
 11
112.1840909999999
 21
43.792565
 31
0.0
  0
LINE
  5
9500
330
93CC
100
AcDbEntity
  8
1
  6
Continuous
100
AcDbLine
 10
116.184091
 20
65.79256499999999
 30
0.0
 11
115.6840909999999
 21
64.79256499999999
 31
0.0
  0
LINE
  5
9501
330
93CC
100
AcDbEntity
  8
1
  6
Continuous
100
AcDbLine
 10
116.184091
 20
65.79256499999999
 30
0.0
 11
116.6840909999999
 21
64.79256499999999
 31
0.0
  0
LINE
  5
9502
330
93CC
100
AcDbEntity
  8
1
  6
Continuous
100
AcDbLine
 10
116.6840909999999
 20
64.79256499999999
 30
0.0
 11
116.6840909999999
 21
44.792565
 31
0.0
  0
LINE
  5
9503
330
93CC
100
AcDbEntity
  8
1
  6
Continuous
100
AcDbLine
 10
115.6840909999999
 20
64.79256499999999
 30
0.0
 11
115.6840909999999
 21
44.792565
 31
0.0
  0
LINE
  5
9504
330
93CC
100
AcDbEntity
  8
1
  6
Continuous
100
AcDbLine
 10
115.6840909999999
 20
44.792565
 30
0.0
 11
116.184091
 21
43.792565
 31
0.0
  0
LINE
  5
9505
330
93CC
100
AcDbEntity
  8
1
  6
Continuous
100
AcDbLine
 10
116.6840909999999
 20
44.792565
 30
0.0
 11
116.184091
 21
43.792565
 31
0.0
  0
LINE
  5
9506
330
93CC
100
AcDbEntity
  8
1
  6
Continuous
100
AcDbLine
 10
120.184091
 20
65.79256499999999
 30
0.0
 11
119.6840909999999
 21
64.79256499999999
 31
0.0
  0
LINE
  5
9507
330
93CC
100
AcDbEntity
  8
1
  6
Continuous
100
AcDbLine
 10
120.184091
 20
65.79256499999999
 30
0.0
 11
120.6840909999999
 21
64.79256499999999
 31
0.0
  0
LINE
  5
9508
330
93CC
100
AcDbEntity
  8
1
  6
Continuous
100
AcDbLine
 10
120.6840909999999
 20
64.79256499999999
 30
0.0
 11
120.6840909999999
 21
44.792565
 31
0.0
  0
LINE
  5
9509
330
93CC
100
AcDbEntity
  8
1
  6
Continuous
100
AcDbLine
 10
119.6840909999999
 20
64.79256499999999
 30
0.0
 11
119.6840909999999
 21
44.792565
 31
0.0
  0
LINE
  5
950A
330
93CC
100
AcDbEntity
  8
1
  6
Continuous
100
AcDbLine
 10
119.6840909999999
 20
44.792565
 30
0.0
 11
120.184091
 21
43.792565
 31
0.0
  0
LINE
  5
950B
330
93CC
100
AcDbEntity
  8
1
  6
Continuous
100
AcDbLine
 10
120.6840909999999
 20
44.792565
 30
0.0
 11
120.184091
 21
43.792565
 31
0.0
  0
LINE
  5
950C
330
93CC
100
AcDbEntity
  8
1
  6
Continuous
100
AcDbLine
 10
124.184091
 20
65.79256499999999
 30
0.0
 11
123.6840909999999
 21
64.79256499999999
 31
0.0
  0
LINE
  5
950D
330
93CC
100
AcDbEntity
  8
1
  6
Continuous
100
AcDbLine
 10
124.184091
 20
65.79256499999999
 30
0.0
 11
124.6840909999999
 21
64.79256499999999
 31
0.0
  0
LINE
  5
950E
330
93CC
100
AcDbEntity
  8
1
  6
Continuous
100
AcDbLine
 10
124.6840909999999
 20
64.79256499999999
 30
0.0
 11
124.6840909999999
 21
44.792565
 31
0.0
  0
LINE
  5
950F
330
93CC
100
AcDbEntity
  8
1
  6
Continuous
100
AcDbLine
 10
123.6840909999999
 20
64.79256499999999
 30
0.0
 11
123.6840909999999
 21
44.792565
 31
0.0
  0
LINE
  5
9510
330
93CC
100
AcDbEntity
  8
1
  6
Continuous
100
AcDbLine
 10
123.6840909999999
 20
44.792565
 30
0.0
 11
124.184091
 21
43.792565
 31
0.0
  0
LINE
  5
9511
330
93CC
100
AcDbEntity
  8
1
  6
Continuous
100
AcDbLine
 10
124.6840909999999
 20
44.792565
 30
0.0
 11
124.184091
 21
43.792565
 31
0.0
  0
LINE
  5
9512
330
93CC
100
AcDbEntity
  8
1
  6
Continuous
100
AcDbLine
 10
128.1840909999999
 20
65.79256499999999
 30
0.0
 11
127.6840909999999
 21
64.79256499999999
 31
0.0
  0
LINE
  5
9513
330
93CC
100
AcDbEntity
  8
1
  6
Continuous
100
AcDbLine
 10
128.1840909999999
 20
65.79256499999999
 30
0.0
 11
128.684091
 21
64.79256499999999
 31
0.0
  0
LINE
  5
9514
330
93CC
100
AcDbEntity
  8
1
  6
Continuous
100
AcDbLine
 10
128.684091
 20
64.79256499999999
 30
0.0
 11
128.684091
 21
44.792565
 31
0.0
  0
LINE
  5
9515
330
93CC
100
AcDbEntity
  8
1
  6
Continuous
100
AcDbLine
 10
127.6840909999999
 20
64.79256499999999
 30
0.0
 11
127.6840909999999
 21
44.792565
 31
0.0
  0
LINE
  5
9516
330
93CC
100
AcDbEntity
  8
1
  6
Continuous
100
AcDbLine
 10
127.6840909999999
 20
44.792565
 30
0.0
 11
128.1840909999999
 21
43.792565
 31
0.0
  0
LINE
  5
9517
330
93CC
100
AcDbEntity
  8
1
  6
Continuous
100
AcDbLine
 10
128.684091
 20
44.792565
 30
0.0
 11
128.1840909999999
 21
43.792565
 31
0.0
  0
LINE
  5
9518
330
93CC
100
AcDbEntity
  8
1
  6
Continuous
100
AcDbLine
 10
132.1840909999999
 20
65.79256499999999
 30
0.0
 11
131.684091
 21
64.79256499999999
 31
0.0
  0
LINE
  5
9519
330
93CC
100
AcDbEntity
  8
1
  6
Continuous
100
AcDbLine
 10
132.1840909999999
 20
65.79256499999999
 30
0.0
 11
132.684091
 21
64.79256499999999
 31
0.0
  0
LINE
  5
951A
330
93CC
100
AcDbEntity
  8
1
  6
Continuous
100
AcDbLine
 10
132.684091
 20
64.79256499999999
 30
0.0
 11
132.684091
 21
44.792565
 31
0.0
  0
LINE
  5
951B
330
93CC
100
AcDbEntity
  8
1
  6
Continuous
100
AcDbLine
 10
131.684091
 20
64.79256499999999
 30
0.0
 11
131.684091
 21
44.792565
 31
0.0
  0
LINE
  5
951C
330
93CC
100
AcDbEntity
  8
1
  6
Continuous
100
AcDbLine
 10
131.684091
 20
44.792565
 30
0.0
 11
132.1840909999999
 21
43.792565
 31
0.0
  0
LINE
  5
951D
330
93CC
100
AcDbEntity
  8
1
  6
Continuous
100
AcDbLine
 10
132.684091
 20
44.792565
 30
0.0
 11
132.1840909999999
 21
43.792565
 31
0.0
  0
LINE
  5
951E
330
93CC
100
AcDbEntity
  8
1
  6
Continuous
100
AcDbLine
 10
136.1840909999999
 20
65.79256499999999
 30
0.0
 11
135.684091
 21
64.79256499999999
 31
0.0
  0
LINE
  5
951F
330
93CC
100
AcDbEntity
  8
1
  6
Continuous
100
AcDbLine
 10
136.1840909999999
 20
65.79256499999999
 30
0.0
 11
136.684091
 21
64.79256499999999
 31
0.0
  0
LINE
  5
9520
330
93CC
100
AcDbEntity
  8
1
  6
Continuous
100
AcDbLine
 10
136.684091
 20
64.79256499999999
 30
0.0
 11
136.684091
 21
44.792565
 31
0.0
  0
LINE
  5
9521
330
93CC
100
AcDbEntity
  8
1
  6
Continuous
100
AcDbLine
 10
135.684091
 20
64.79256499999999
 30
0.0
 11
135.684091
 21
44.792565
 31
0.0
  0
LINE
  5
9522
330
93CC
100
AcDbEntity
  8
1
  6
Continuous
100
AcDbLine
 10
135.684091
 20
44.792565
 30
0.0
 11
136.1840909999999
 21
43.792565
 31
0.0
  0
LINE
  5
9523
330
93CC
100
AcDbEntity
  8
1
  6
Continuous
100
AcDbLine
 10
136.684091
 20
44.792565
 30
0.0
 11
136.1840909999999
 21
43.792565
 31
0.0
  0
LINE
  5
9524
330
93CC
100
AcDbEntity
  8
1
  6
Continuous
100
AcDbLine
 10
140.1840909999999
 20
65.79256499999999
 30
0.0
 11
139.6840909999999
 21
64.79256499999999
 31
0.0
  0
LINE
  5
9525
330
93CC
100
AcDbEntity
  8
1
  6
Continuous
100
AcDbLine
 10
140.1840909999999
 20
65.79256499999999
 30
0.0
 11
140.6840909999999
 21
64.79256499999999
 31
0.0
  0
LINE
  5
9526
330
93CC
100
AcDbEntity
  8
1
  6
Continuous
100
AcDbLine
 10
140.6840909999999
 20
64.79256499999999
 30
0.0
 11
140.6840909999999
 21
44.792565
 31
0.0
  0
LINE
  5
9527
330
93CC
100
AcDbEntity
  8
1
  6
Continuous
100
AcDbLine
 10
139.6840909999999
 20
64.79256499999999
 30
0.0
 11
139.6840909999999
 21
44.792565
 31
0.0
  0
LINE
  5
9528
330
93CC
100
AcDbEntity
  8
1
  6
Continuous
100
AcDbLine
 10
139.6840909999999
 20
44.792565
 30
0.0
 11
140.1840909999999
 21
43.792565
 31
0.0
  0
LINE
  5
9529
330
93CC
100
AcDbEntity
  8
1
  6
Continuous
100
AcDbLine
 10
140.6840909999999
 20
44.792565
 30
0.0
 11
140.1840909999999
 21
43.792565
 31
0.0
  0
LINE
  5
952A
330
93CC
100
AcDbEntity
  8
1
  6
Continuous
100
AcDbLine
 10
144.1840909999999
 20
65.79256499999999
 30
0.0
 11
143.6840909999999
 21
64.79256499999999
 31
0.0
  0
LINE
  5
952B
330
93CC
100
AcDbEntity
  8
1
  6
Continuous
100
AcDbLine
 10
144.1840909999999
 20
65.79256499999999
 30
0.0
 11
144.6840909999998
 21
64.79256499999999
 31
0.0
  0
LINE
  5
952C
330
93CC
100
AcDbEntity
  8
1
  6
Continuous
100
AcDbLine
 10
144.6840909999998
 20
64.79256499999999
 30
0.0
 11
144.6840909999998
 21
44.792565
 31
0.0
  0
LINE
  5
952D
330
93CC
100
AcDbEntity
  8
1
  6
Continuous
100
AcDbLine
 10
143.6840909999999
 20
64.79256499999999
 30
0.0
 11
143.6840909999999
 21
44.792565
 31
0.0
  0
LINE
  5
952E
330
93CC
100
AcDbEntity
  8
1
  6
Continuous
100
AcDbLine
 10
143.6840909999999
 20
44.792565
 30
0.0
 11
144.1840909999999
 21
43.792565
 31
0.0
  0
LINE
  5
952F
330
93CC
100
AcDbEntity
  8
1
  6
Continuous
100
AcDbLine
 10
144.6840909999998
 20
44.792565
 30
0.0
 11
144.1840909999999
 21
43.792565
 31
0.0
  0
LINE
  5
9530
330
93CC
100
AcDbEntity
  8
1
  6
Continuous
100
AcDbLine
 10
148.184091
 20
65.79256499999999
 30
0.0
 11
147.6840909999999
 21
64.79256499999999
 31
0.0
  0
LINE
  5
9531
330
93CC
100
AcDbEntity
  8
1
  6
Continuous
100
AcDbLine
 10
148.184091
 20
65.79256499999999
 30
0.0
 11
148.6840909999999
 21
64.79256499999999
 31
0.0
  0
LINE
  5
9532
330
93CC
100
AcDbEntity
  8
1
  6
Continuous
100
AcDbLine
 10
148.6840909999999
 20
64.79256499999999
 30
0.0
 11
148.6840909999999
 21
44.792565
 31
0.0
  0
LINE
  5
9533
330
93CC
100
AcDbEntity
  8
1
  6
Continuous
100
AcDbLine
 10
147.6840909999999
 20
64.79256499999999
 30
0.0
 11
147.6840909999999
 21
44.792565
 31
0.0
  0
LINE
  5
9534
330
93CC
100
AcDbEntity
  8
1
  6
Continuous
100
AcDbLine
 10
147.6840909999999
 20
44.792565
 30
0.0
 11
148.184091
 21
43.792565
 31
0.0
  0
LINE
  5
9535
330
93CC
100
AcDbEntity
  8
1
  6
Continuous
100
AcDbLine
 10
148.6840909999999
 20
44.792565
 30
0.0
 11
148.184091
 21
43.792565
 31
0.0
  0
LINE
  5
9536
330
93CC
100
AcDbEntity
  8
1
  6
Continuous
100
AcDbLine
 10
152.1840909999999
 20
65.79256499999999
 30
0.0
 11
151.6840909999999
 21
64.79256499999999
 31
0.0
  0
LINE
  5
9537
330
93CC
100
AcDbEntity
  8
1
  6
Continuous
100
AcDbLine
 10
152.1840909999999
 20
65.79256499999999
 30
0.0
 11
152.6840909999999
 21
64.79256499999999
 31
0.0
  0
LINE
  5
9538
330
93CC
100
AcDbEntity
  8
1
  6
Continuous
100
AcDbLine
 10
152.6840909999999
 20
64.79256499999999
 30
0.0
 11
152.6840909999999
 21
44.792565
 31
0.0
  0
LINE
  5
9539
330
93CC
100
AcDbEntity
  8
1
  6
Continuous
100
AcDbLine
 10
151.6840909999999
 20
64.79256499999999
 30
0.0
 11
151.6840909999999
 21
44.792565
 31
0.0
  0
LINE
  5
953A
330
93CC
100
AcDbEntity
  8
1
  6
Continuous
100
AcDbLine
 10
151.6840909999999
 20
44.792565
 30
0.0
 11
152.1840909999999
 21
43.792565
 31
0.0
  0
LINE
  5
953B
330
93CC
100
AcDbEntity
  8
1
  6
Continuous
100
AcDbLine
 10
152.6840909999999
 20
44.792565
 30
0.0
 11
152.1840909999999
 21
43.792565
 31
0.0
  0
LINE
  5
953C
330
93CC
100
AcDbEntity
  8
1
  6
Continuous
100
AcDbLine
 10
156.1840909999999
 20
65.79256499999999
 30
0.0
 11
155.684091
 21
64.79256499999999
 31
0.0
  0
LINE
  5
953D
330
93CC
100
AcDbEntity
  8
1
  6
Continuous
100
AcDbLine
 10
156.1840909999999
 20
65.79256499999999
 30
0.0
 11
156.6840909999999
 21
64.79256499999999
 31
0.0
  0
LINE
  5
953E
330
93CC
100
AcDbEntity
  8
1
  6
Continuous
100
AcDbLine
 10
156.6840909999999
 20
64.79256499999999
 30
0.0
 11
156.6840909999999
 21
44.792565
 31
0.0
  0
LINE
  5
953F
330
93CC
100
AcDbEntity
  8
1
  6
Continuous
100
AcDbLine
 10
155.684091
 20
64.79256499999999
 30
0.0
 11
155.684091
 21
44.792565
 31
0.0
  0
LINE
  5
9540
330
93CC
100
AcDbEntity
  8
1
  6
Continuous
100
AcDbLine
 10
155.684091
 20
44.792565
 30
0.0
 11
156.1840909999999
 21
43.792565
 31
0.0
  0
LINE
  5
9541
330
93CC
100
AcDbEntity
  8
1
  6
Continuous
100
AcDbLine
 10
156.6840909999999
 20
44.792565
 30
0.0
 11
156.1840909999999
 21
43.792565
 31
0.0
  0
LINE
  5
9542
330
93CC
100
AcDbEntity
  8
1
  6
Continuous
100
AcDbLine
 10
160.1840909999999
 20
65.79256499999999
 30
0.0
 11
159.684091
 21
64.79256499999999
 31
0.0
  0
LINE
  5
9543
330
93CC
100
AcDbEntity
  8
1
  6
Continuous
100
AcDbLine
 10
160.1840909999999
 20
65.79256499999999
 30
0.0
 11
160.684091
 21
64.79256499999999
 31
0.0
  0
LINE
  5
9544
330
93CC
100
AcDbEntity
  8
1
  6
Continuous
100
AcDbLine
 10
160.684091
 20
64.79256499999999
 30
0.0
 11
160.684091
 21
44.792565
 31
0.0
  0
LINE
  5
9545
330
93CC
100
AcDbEntity
  8
1
  6
Continuous
100
AcDbLine
 10
159.684091
 20
64.79256499999999
 30
0.0
 11
159.684091
 21
44.792565
 31
0.0
  0
LINE
  5
9546
330
93CC
100
AcDbEntity
  8
1
  6
Continuous
100
AcDbLine
 10
159.684091
 20
44.792565
 30
0.0
 11
160.1840909999999
 21
43.792565
 31
0.0
  0
LINE
  5
9547
330
93CC
100
AcDbEntity
  8
1
  6
Continuous
100
AcDbLine
 10
160.684091
 20
44.792565
 30
0.0
 11
160.1840909999999
 21
43.792565
 31
0.0
  0
LINE
  5
9548
330
93CC
100
AcDbEntity
  8
1
  6
Continuous
100
AcDbLine
 10
164.1840909999999
 20
65.79256499999999
 30
0.0
 11
163.684091
 21
64.79256499999999
 31
0.0
  0
LINE
  5
9549
330
93CC
100
AcDbEntity
  8
1
  6
Continuous
100
AcDbLine
 10
164.1840909999999
 20
65.79256499999999
 30
0.0
 11
164.6840909999999
 21
64.79256499999999
 31
0.0
  0
LINE
  5
954A
330
93CC
100
AcDbEntity
  8
1
  6
Continuous
100
AcDbLine
 10
164.6840909999999
 20
64.79256499999999
 30
0.0
 11
164.6840909999999
 21
44.792565
 31
0.0
  0
LINE
  5
954B
330
93CC
100
AcDbEntity
  8
1
  6
Continuous
100
AcDbLine
 10
163.684091
 20
64.79256499999999
 30
0.0
 11
163.684091
 21
44.792565
 31
0.0
  0
LINE
  5
954C
330
93CC
100
AcDbEntity
  8
1
  6
Continuous
100
AcDbLine
 10
163.684091
 20
44.792565
 30
0.0
 11
164.1840909999999
 21
43.792565
 31
0.0
  0
LINE
  5
954D
330
93CC
100
AcDbEntity
  8
1
  6
Continuous
100
AcDbLine
 10
164.6840909999999
 20
44.792565
 30
0.0
 11
164.1840909999999
 21
43.792565
 31
0.0
  0
LINE
  5
954E
330
93CC
100
AcDbEntity
  8
1
  6
Continuous
100
AcDbLine
 10
178.584091
 20
62.942565
 30
0.0
 11
201.0860909999999
 21
62.942565
 31
0.0
  0
LINE
  5
954F
330
93CC
100
AcDbEntity
  8
1
  6
Continuous
100
AcDbLine
 10
178.584091
 20
46.64256499999999
 30
0.0
 11
201.0860909999999
 21
46.64256499999999
 31
0.0
  0
LINE
  5
9550
330
93CC
100
AcDbEntity
  8
1
  6
Continuous
100
AcDbLine
 10
178.584091
 20
45.759265
 30
0.0
 11
172.6840909999999
 21
43.792565
 31
0.0
  0
LINE
  5
9551
330
93CC
100
AcDbEntity
  8
1
  6
Continuous
100
AcDbLine
 10
181.2340909999998
 20
62.942565
 30
0.0
 11
181.6840909999999
 21
62.792565
 31
0.0
  0
LINE
  5
9552
330
93CC
100
AcDbEntity
  8
1
  6
Continuous
100
AcDbLine
 10
181.1840909999999
 20
46.792565
 30
0.0
 11
181.1840909999999
 21
46.64256499999999
 31
0.0
  0
LINE
  5
9553
330
93CC
100
AcDbEntity
  8
1
  6
Continuous
100
AcDbLine
 10
206.3840909999999
 20
62.08136500000001
 30
0.0
 11
206.3840909999999
 21
47.503765
 31
0.0
  0
LINE
  5
9554
330
93CC
100
AcDbEntity
  8
1
  6
Continuous
100
AcDbLine
 10
205.921091
 20
62.579965
 30
0.0
 11
201.0860909999999
 21
62.942565
 31
0.0
  0
LINE
  5
9555
330
93CC
100
AcDbEntity
  8
1
  6
Continuous
100
AcDbLine
 10
205.921091
 20
47.00516499999999
 30
0.0
 11
201.0860909999999
 21
46.64256499999999
 31
0.0
  0
LINE
  5
9556
330
93CC
100
AcDbEntity
  8
1
  6
Continuous
100
AcDbLine
 10
189.3840909999999
 20
65.542565
 30
0.0
 11
189.3840909999999
 21
62.942565
 31
0.0
  0
LINE
  5
9557
330
93CC
100
AcDbEntity
  8
1
  6
Continuous
100
AcDbLine
 10
189.3840909999999
 20
46.64256499999999
 30
0.0
 11
189.3840909999999
 21
44.042565
 31
0.0
  0
LINE
  5
9558
330
93CC
100
AcDbEntity
  8
1
  6
Continuous
100
AcDbLine
 10
183.684091
 20
44.84256499999999
 30
0.0
 11
178.584091
 21
44.84256499999999
 31
0.0
  0
LINE
  5
9559
330
93CC
100
AcDbEntity
  8
1
  6
Continuous
100
AcDbLine
 10
178.584091
 20
45.842565
 30
0.0
 11
183.684091
 21
45.842565
 31
0.0
  0
LINE
  5
955A
330
93CC
100
AcDbEntity
  8
1
  6
Continuous
100
AcDbLine
 10
178.584091
 20
63.742565
 30
0.0
 11
183.684091
 21
63.742565
 31
0.0
  0
LINE
  5
955B
330
93CC
100
AcDbEntity
  8
1
  6
Continuous
100
AcDbLine
 10
183.684091
 20
64.742565
 30
0.0
 11
178.584091
 21
64.742565
 31
0.0
  0
LINE
  5
955C
330
93CC
100
AcDbEntity
  8
1
  6
Continuous
100
AcDbLine
 10
208.3840909999999
 20
56.292565
 30
0.0
 11
208.3840909999999
 21
53.292565
 31
0.0
  0
LINE
  5
955D
330
93CC
100
AcDbEntity
  8
1
  6
Continuous
100
AcDbLine
 10
206.3840909999999
 20
58.592565
 30
0.0
 11
209.184091
 21
58.592565
 31
0.0
  0
LINE
  5
955E
330
93CC
100
AcDbEntity
  8
1
  6
Continuous
100
AcDbLine
 10
206.3840909999999
 20
50.992565
 30
0.0
 11
209.184091
 21
50.992565
 31
0.0
  0
LINE
  5
955F
330
93CC
100
AcDbEntity
  8
1
  6
Continuous
100
AcDbLine
 10
206.3840909999999
 20
53.292565
 30
0.0
 11
208.3840909999999
 21
53.292565
 31
0.0
  0
LINE
  5
9560
330
93CC
100
AcDbEntity
  8
1
  6
Continuous
100
AcDbLine
 10
206.3840909999999
 20
56.292565
 30
0.0
 11
208.3840909999999
 21
56.292565
 31
0.0
  0
LINE
  5
9561
330
93CC
100
AcDbEntity
  8
1
  6
Continuous
100
AcDbLine
 10
209.184091
 20
58.592565
 30
0.0
 11
208.3840909999999
 21
56.292565
 31
0.0
  0
LINE
  5
9562
330
93CC
100
AcDbEntity
  8
1
  6
Continuous
100
AcDbLine
 10
208.3840909999999
 20
53.292565
 30
0.0
 11
209.184091
 21
50.992565
 31
0.0
  0
LINE
  5
9563
330
93CC
100
AcDbEntity
  8
1
  6
Continuous
100
AcDbLine
 10
208.3840909999999
 20
55.492565
 30
0.0
 11
209.184091
 21
55.492565
 31
0.0
  0
LINE
  5
9564
330
93CC
100
AcDbEntity
  8
1
  6
Continuous
100
AcDbLine
 10
208.3840909999999
 20
54.092565
 30
0.0
 11
209.184091
 21
54.092565
 31
0.0
  0
LINE
  5
9565
330
93CC
100
AcDbEntity
  8
1
  6
Continuous
100
AcDbLine
 10
17.18379099999999
 20
62.936965
 30
0.0
 11
17.18379099999999
 21
46.64816499999999
 31
0.0
  0
LINE
  5
9566
330
93CC
100
AcDbEntity
  8
1
  6
Continuous
100
AcDbLine
 10
47.18379099999999
 20
62.942565
 30
0.0
 11
47.18379099999999
 21
62.792565
 31
0.0
  0
LINE
  5
9567
330
93CC
100
AcDbEntity
  8
1
  6
Continuous
100
AcDbLine
 10
49.783791
 20
65.542565
 30
0.0
 11
49.783791
 21
62.942565
 31
0.0
  0
LINE
  5
9568
330
93CC
100
AcDbEntity
  8
1
  6
Continuous
100
AcDbLine
 10
27.18379099999999
 20
65.542565
 30
0.0
 11
49.783791
 21
65.542565
 31
0.0
  0
LINE
  5
9569
330
93CC
100
AcDbEntity
  8
1
  6
Continuous
100
AcDbLine
 10
27.18379099999999
 20
44.042565
 30
0.0
 11
49.783791
 21
44.042565
 31
0.0
  0
LINE
  5
956A
330
93CC
100
AcDbEntity
  8
1
  6
Continuous
100
AcDbLine
 10
19.03419099999998
 20
64.931365
 30
0.0
 11
27.18379099999999
 21
65.542565
 31
0.0
  0
LINE
  5
956B
330
93CC
100
AcDbEntity
  8
1
  6
Continuous
100
AcDbLine
 10
19.03419099999998
 20
44.653765
 30
0.0
 11
27.18379099999999
 21
44.042565
 31
0.0
  0
LINE
  5
956C
330
93CC
100
AcDbEntity
  8
1
  6
Continuous
100
AcDbLine
 10
49.783791
 20
46.64256499999999
 30
0.0
 11
49.783791
 21
44.042565
 31
0.0
  0
LINE
  5
956D
330
93CC
100
AcDbEntity
  8
1
  6
Continuous
100
AcDbLine
 10
46.683791
 20
46.792565
 30
0.0
 11
47.133791
 21
46.64256499999999
 31
0.0
  0
LINE
  5
956E
330
93CC
100
AcDbEntity
  8
1
  6
Continuous
100
AcDbLine
 10
26.68379099999999
 20
61.79256500000001
 30
0.0
 11
26.68379099999999
 21
47.792565
 31
0.0
  0
LINE
  5
956F
330
93CC
100
AcDbEntity
  8
1
  6
Continuous
100
AcDbLine
 10
48.48379099999998
 20
46.792565
 30
0.0
 11
27.68379099999998
 21
46.792565
 31
0.0
  0
LINE
  5
9570
330
93CC
100
AcDbEntity
  8
1
  6
Continuous
100
AcDbLine
 10
48.48379099999998
 20
62.792565
 30
0.0
 11
27.68379099999998
 21
62.792565
 31
0.0
  0
LINE
  5
9571
330
93CC
100
AcDbEntity
  8
1
  6
Continuous
100
AcDbLine
 10
48.48379099999998
 20
62.792565
 30
0.0
 11
48.48379099999998
 21
59.792565
 31
0.0
  0
LINE
  5
9572
330
93CC
100
AcDbEntity
  8
1
  6
Continuous
100
AcDbLine
 10
50.283791
 20
59.792565
 30
0.0
 11
50.283791
 21
49.792565
 31
0.0
  0
LINE
  5
9573
330
93CC
100
AcDbEntity
  8
1
  6
Continuous
100
AcDbLine
 10
50.283791
 20
49.792565
 30
0.0
 11
33.683791
 21
49.792565
 31
0.0
  0
LINE
  5
9574
330
93CC
100
AcDbEntity
  8
1
  6
Continuous
100
AcDbLine
 10
50.283791
 20
59.792565
 30
0.0
 11
33.683791
 21
59.792565
 31
0.0
  0
LINE
  5
9575
330
93CC
100
AcDbEntity
  8
1
  6
Continuous
100
AcDbLine
 10
31.68379099999999
 20
57.792565
 30
0.0
 11
31.68379099999999
 21
51.79256500000001
 31
0.0
  0
LINE
  5
9576
330
93CC
100
AcDbEntity
  8
1
  6
Continuous
100
AcDbLine
 10
48.48379099999998
 20
49.792565
 30
0.0
 11
48.48379099999998
 21
46.792565
 31
0.0
  0
LINE
  5
9577
330
93CC
100
AcDbEntity
  8
1
  6
Continuous
100
AcDbLine
 10
49.783791
 20
62.942565
 30
0.0
 11
27.28119099999998
 21
62.942565
 31
0.0
  0
LINE
  5
9578
330
93CC
100
AcDbEntity
  8
1
  6
Continuous
100
AcDbLine
 10
49.783791
 20
46.64256499999999
 30
0.0
 11
27.28119099999998
 21
46.64256499999999
 31
0.0
  0
LINE
  5
9579
330
93CC
100
AcDbEntity
  8
1
  6
Continuous
100
AcDbLine
 10
47.133791
 20
62.942565
 30
0.0
 11
46.683791
 21
62.792565
 31
0.0
  0
LINE
  5
957A
330
93CC
100
AcDbEntity
  8
1
  6
Continuous
100
AcDbLine
 10
47.18379099999999
 20
46.792565
 30
0.0
 11
47.18379099999999
 21
46.64256499999999
 31
0.0
  0
LINE
  5
957B
330
93CC
100
AcDbEntity
  8
1
  6
Continuous
100
AcDbLine
 10
21.98379099999999
 20
62.08136500000001
 30
0.0
 11
21.98379099999999
 21
47.503765
 31
0.0
  0
LINE
  5
957C
330
93CC
100
AcDbEntity
  8
1
  6
Continuous
100
AcDbLine
 10
22.446391
 20
62.579965
 30
0.0
 11
27.28119099999998
 21
62.942565
 31
0.0
  0
LINE
  5
957D
330
93CC
100
AcDbEntity
  8
1
  6
Continuous
100
AcDbLine
 10
22.446391
 20
47.00516499999999
 30
0.0
 11
27.28119099999998
 21
46.64256499999999
 31
0.0
  0
LINE
  5
957E
330
93CC
100
AcDbEntity
  8
1
  6
Continuous
100
AcDbLine
 10
38.98379099999999
 20
65.542565
 30
0.0
 11
38.98379099999999
 21
62.942565
 31
0.0
  0
LINE
  5
957F
330
93CC
100
AcDbEntity
  8
1
  6
Continuous
100
AcDbLine
 10
38.98379099999999
 20
46.64256499999999
 30
0.0
 11
38.98379099999999
 21
44.042565
 31
0.0
  0
LINE
  5
9580
330
93CC
100
AcDbEntity
  8
1
  6
Continuous
100
AcDbLine
 10
44.68379099999999
 20
44.84256499999999
 30
0.0
 11
49.783791
 21
44.84256499999999
 31
0.0
  0
LINE
  5
9581
330
93CC
100
AcDbEntity
  8
1
  6
Continuous
100
AcDbLine
 10
49.783791
 20
45.842565
 30
0.0
 11
44.68379099999999
 21
45.842565
 31
0.0
  0
LINE
  5
9582
330
93CC
100
AcDbEntity
  8
1
  6
Continuous
100
AcDbLine
 10
49.783791
 20
63.742565
 30
0.0
 11
44.68379099999999
 21
63.742565
 31
0.0
  0
LINE
  5
9583
330
93CC
100
AcDbEntity
  8
1
  6
Continuous
100
AcDbLine
 10
44.68379099999999
 20
64.742565
 30
0.0
 11
49.783791
 21
64.742565
 31
0.0
  0
LINE
  5
9584
330
93CC
100
AcDbEntity
  8
1
  6
Continuous
100
AcDbLine
 10
19.983791
 20
56.292565
 30
0.0
 11
19.983791
 21
53.292565
 31
0.0
  0
LINE
  5
9585
330
93CC
100
AcDbEntity
  8
1
  6
Continuous
100
AcDbLine
 10
21.98379099999999
 20
58.592565
 30
0.0
 11
19.183791
 21
58.592565
 31
0.0
  0
LINE
  5
9586
330
93CC
100
AcDbEntity
  8
1
  6
Continuous
100
AcDbLine
 10
21.98379099999999
 20
50.992565
 30
0.0
 11
19.183791
 21
50.992565
 31
0.0
  0
LINE
  5
9587
330
93CC
100
AcDbEntity
  8
1
  6
Continuous
100
AcDbLine
 10
21.98379099999999
 20
53.292565
 30
0.0
 11
19.983791
 21
53.292565
 31
0.0
  0
LINE
  5
9588
330
93CC
100
AcDbEntity
  8
1
  6
Continuous
100
AcDbLine
 10
21.98379099999999
 20
56.292565
 30
0.0
 11
19.983791
 21
56.292565
 31
0.0
  0
LINE
  5
9589
330
93CC
100
AcDbEntity
  8
1
  6
Continuous
100
AcDbLine
 10
19.183791
 20
58.592565
 30
0.0
 11
19.983791
 21
56.292565
 31
0.0
  0
LINE
  5
958A
330
93CC
100
AcDbEntity
  8
1
  6
Continuous
100
AcDbLine
 10
19.983791
 20
53.292565
 30
0.0
 11
19.183791
 21
50.992565
 31
0.0
  0
LINE
  5
958B
330
93CC
100
AcDbEntity
  8
1
  6
Continuous
100
AcDbLine
 10
19.983791
 20
55.492565
 30
0.0
 11
19.183791
 21
55.492565
 31
0.0
  0
LINE
  5
958C
330
93CC
100
AcDbEntity
  8
1
  6
Continuous
100
AcDbLine
 10
19.983791
 20
54.092565
 30
0.0
 11
19.183791
 21
54.092565
 31
0.0
  0
LINE
  5
958D
330
93CC
100
AcDbEntity
  8
1
  6
Continuous
100
AcDbLine
 10
284.7265679999999
 20
133.5973649999999
 30
0.0
 11
284.7265679999999
 21
122.6973649999999
 31
0.0
  0
LINE
  5
958E
330
93CC
100
AcDbEntity
  8
1
  6
Continuous
100
AcDbLine
 10
263.2265679999999
 20
133.5973649999999
 30
0.0
 11
263.2265679999999
 21
122.6973649999999
 31
0.0
  0
LINE
  5
958F
330
93CC
100
AcDbEntity
  8
1
  6
Continuous
100
AcDbLine
 10
282.726568
 20
135.5973649999999
 30
0.0
 11
265.2265679999999
 21
135.5973649999999
 31
0.0
  0
LINE
  5
9590
330
93CC
100
AcDbEntity
  8
1
  6
Continuous
100
AcDbLine
 10
283.926568
 20
121.8973649999998
 30
0.0
 11
282.9265679999998
 21
121.8973649999998
 31
0.0
  0
LINE
  5
9591
330
93CC
100
AcDbEntity
  8
1
  6
Continuous
100
AcDbLine
 10
265.8265679999999
 20
127.597365
 30
0.0
 11
265.8265679999999
 21
122.6973649999999
 31
0.0
  0
LINE
  5
9592
330
93CC
100
AcDbEntity
  8
1
  6
Continuous
100
AcDbLine
 10
282.126568
 20
127.597365
 30
0.0
 11
282.126568
 21
122.6973649999999
 31
0.0
  0
LINE
  5
9593
330
93CC
100
AcDbEntity
  8
1
  6
Continuous
100
AcDbLine
 10
265.0265679999999
 20
121.8973649999998
 30
0.0
 11
264.026568
 21
121.8973649999998
 31
0.0
  0
LINE
  5
9594
330
93CC
100
AcDbEntity
  8
1
  6
Continuous
100
AcDbLine
 10
284.7265679999999
 20
122.6973649999999
 30
0.0
 11
283.926568
 21
121.8973649999998
 31
0.0
  0
LINE
  5
9595
330
93CC
100
AcDbEntity
  8
1
  6
Continuous
100
AcDbLine
 10
282.9265679999998
 20
121.8973649999998
 30
0.0
 11
282.126568
 21
122.6973649999999
 31
0.0
  0
LINE
  5
9596
330
93CC
100
AcDbEntity
  8
1
  6
Continuous
100
AcDbLine
 10
265.8265679999999
 20
122.6973649999999
 30
0.0
 11
265.0265679999999
 21
121.8973649999998
 31
0.0
  0
LINE
  5
9597
330
93CC
100
AcDbEntity
  8
1
  6
Continuous
100
AcDbLine
 10
264.026568
 20
121.8973649999998
 30
0.0
 11
263.2265679999999
 21
122.6973649999999
 31
0.0
  0
LINE
  5
9598
330
93CC
100
AcDbEntity
  8
1
  6
Continuous
100
AcDbLine
 10
283.9765679999999
 20
131.5973649999999
 30
0.0
 11
283.9765679999999
 21
127.597365
 31
0.0
  0
LINE
  5
9599
330
93CC
100
AcDbEntity
  8
1
  6
Continuous
100
AcDbLine
 10
263.976568
 20
131.5973649999999
 30
0.0
 11
263.976568
 21
127.597365
 31
0.0
  0
LINE
  5
959A
330
93CC
100
AcDbEntity
  8
1
  6
Continuous
100
AcDbLine
 10
281.9765679999999
 20
133.5973649999999
 30
0.0
 11
265.976568
 21
133.5973649999999
 31
0.0
  0
LINE
  5
959B
330
93CC
100
AcDbEntity
  8
4
  6
CENTER
100
AcDbLine
 10
273.976568
 20
139.6773649999998
 30
0.0
 11
273.976568
 21
117.0623649999999
 31
0.0
  0
LINE
  5
959C
330
93CC
100
AcDbEntity
  8
1
  6
Continuous
100
AcDbLine
 10
284.7265679999999
 20
127.597365
 30
0.0
 11
263.2265679999999
 21
127.597365
 31
0.0
  0
LINE
  5
959D
330
93CC
100
AcDbEntity
  8
1
  6
Continuous
100
AcDbLine
 10
273.2765679999999
 20
126.7313649999999
 30
0.0
 11
273.2765679999999
 21
123.2393649999999
 31
0.0
  0
LINE
  5
959E
330
93CC
100
AcDbEntity
  8
1
  6
Continuous
100
AcDbLine
 10
274.9835679999999
 20
121.597365
 30
0.0
 11
272.9695679999999
 21
121.597365
 31
0.0
  0
LINE
  5
959F
330
93CC
100
AcDbEntity
  8
1
  6
Continuous
100
AcDbLine
 10
270.1765679999999
 20
125.1973649999999
 30
0.0
 11
270.1765679999999
 21
124.597365
 31
0.0
  0
LINE
  5
95A0
330
93CC
100
AcDbEntity
  8
1
  6
Continuous
100
AcDbLine
 10
274.6765679999999
 20
125.9973649999998
 30
0.0
 11
273.2765679999999
 21
125.9973649999998
 31
0.0
  0
LINE
  5
95A1
330
93CC
100
AcDbEntity
  8
1
  6
Continuous
100
AcDbLine
 10
270.776568
 20
126.397365
 30
0.0
 11
270.776568
 21
125.6973649999999
 31
0.0
  0
LINE
  5
95A2
330
93CC
100
AcDbEntity
  8
1
  6
Continuous
100
AcDbLine
 10
271.7765679999998
 20
126.397365
 30
0.0
 11
271.7765679999998
 21
124.4833649999999
 31
0.0
  0
LINE
  5
95A3
330
93CC
100
AcDbEntity
  8
1
  6
Continuous
100
AcDbLine
 10
270.776568
 20
125.6973649999999
 30
0.0
 11
270.1765679999999
 21
125.1973649999999
 31
0.0
  0
LINE
  5
95A4
330
93CC
100
AcDbEntity
  8
1
  6
Continuous
100
AcDbLine
 10
272.1765679999999
 20
121.9893649999999
 30
0.0
 11
270.1765679999999
 21
124.597365
 31
0.0
  0
LINE
  5
95A5
330
93CC
100
AcDbEntity
  8
1
  6
Continuous
100
AcDbLine
 10
272.842568
 20
123.0923649999999
 30
0.0
 11
271.7765679999998
 21
124.4833649999999
 31
0.0
  0
LINE
  5
95A6
330
93CC
100
AcDbEntity
  8
1
  6
Continuous
100
AcDbLine
 10
276.1765679999999
 20
126.397365
 30
0.0
 11
276.1765679999999
 21
124.4833649999999
 31
0.0
  0
LINE
  5
95A7
330
93CC
100
AcDbEntity
  8
1
  6
Continuous
100
AcDbLine
 10
275.110568
 20
123.0923649999999
 30
0.0
 11
276.1765679999999
 21
124.4833649999999
 31
0.0
  0
LINE
  5
95A8
330
93CC
100
AcDbEntity
  8
1
  6
Continuous
100
AcDbLine
 10
274.6765679999999
 20
126.7313649999999
 30
0.0
 11
274.6765679999999
 21
123.2393649999999
 31
0.0
  0
LINE
  5
95A9
330
93CC
100
AcDbEntity
  8
1
  6
Continuous
100
AcDbLine
 10
277.1765679999999
 20
126.397365
 30
0.0
 11
277.1765679999999
 21
125.6973649999999
 31
0.0
  0
LINE
  5
95AA
330
93CC
100
AcDbEntity
  8
1
  6
Continuous
100
AcDbLine
 10
275.7765679999998
 20
121.9893649999999
 30
0.0
 11
277.7765679999999
 21
124.597365
 31
0.0
  0
LINE
  5
95AB
330
93CC
100
AcDbEntity
  8
1
  6
Continuous
100
AcDbLine
 10
277.7765679999999
 20
125.1973649999999
 30
0.0
 11
277.7765679999999
 21
124.597365
 31
0.0
  0
LINE
  5
95AC
330
93CC
100
AcDbEntity
  8
1
  6
Continuous
100
AcDbLine
 10
277.1765679999999
 20
125.6973649999999
 30
0.0
 11
277.7765679999999
 21
125.1973649999999
 31
0.0
  0
LINE
  5
95AD
330
93CC
100
AcDbEntity
  8
1
  6
Continuous
100
AcDbLine
 10
172.6840909999999
 20
135.1483649999998
 30
0.0
 11
172.6840909999999
 21
131.770365
 31
0.0
  0
LINE
  5
95AE
330
93CC
100
AcDbEntity
  8
1
  6
Continuous
100
AcDbLine
 10
55.68379100000001
 20
135.1483649999998
 30
0.0
 11
55.68379100000001
 21
131.770365
 31
0.0
  0
LINE
  5
95AF
330
93CC
100
AcDbEntity
  8
1
  6
Continuous
100
AcDbLine
 10
19.238291
 20
125.6973649999999
 30
0.0
 11
21.98379099999999
 21
125.6973649999999
 31
0.0
  0
LINE
  5
95B0
330
93CC
100
AcDbEntity
  8
1
  6
Continuous
100
AcDbLine
 10
19.329291
 20
125.1973649999999
 30
0.0
 11
21.98379099999999
 21
125.1973649999999
 31
0.0
  0
LINE
  5
95B1
330
93CC
100
AcDbEntity
  8
1
  6
Continuous
100
AcDbLine
 10
19.438291
 20
124.597365
 30
0.0
 11
21.98379099999999
 21
124.597365
 31
0.0
  0
LINE
  5
95B2
330
93CC
100
AcDbEntity
  8
1
  6
Continuous
100
AcDbLine
 10
209.129091
 20
125.6973649999999
 30
0.0
 11
206.3840909999999
 21
125.6973649999999
 31
0.0
  0
LINE
  5
95B3
330
93CC
100
AcDbEntity
  8
1
  6
Continuous
100
AcDbLine
 10
209.0380909999999
 20
125.1973649999999
 30
0.0
 11
206.3840909999999
 21
125.1973649999999
 31
0.0
  0
LINE
  5
95B4
330
93CC
100
AcDbEntity
  8
1
  6
Continuous
100
AcDbLine
 10
208.9290909999999
 20
124.597365
 30
0.0
 11
206.3840909999999
 21
124.597365
 31
0.0
  0
ARC
  5
95B5
330
93CC
100
AcDbEntity
  8
1
  6
Continuous
100
AcDbCircle
 10
19.183791
 20
215.545365
 30
0.0
 40
2.0
100
AcDbArc
 50
94.28919999999999
 51
180.0
  0
ARC
  5
95B6
330
93CC
100
AcDbEntity
  8
1
  6
Continuous
100
AcDbCircle
 10
19.183791
 20
199.2573649999999
 30
0.0
 40
2.0
100
AcDbArc
 50
180.0
 51
265.711
  0
ARC
  5
95B7
330
93CC
100
AcDbEntity
  8
1
  6
Continuous
100
AcDbCircle
 10
45.18379099999999
 20
216.1513649999999
 30
0.0
 40
2.0
100
AcDbArc
 50
0.0
 51
90.0
  0
ARC
  5
95B8
330
93CC
100
AcDbEntity
  8
1
  6
Continuous
100
AcDbCircle
 10
45.18379099999999
 20
198.651365
 30
0.0
 40
2.0
100
AcDbArc
 50
270.0
 51
0.0
  0
ARC
  5
95B9
330
93CC
100
AcDbEntity
  8
1
  6
Continuous
100
AcDbCircle
 10
183.184091
 20
198.651365
 30
0.0
 40
2.0
100
AcDbArc
 50
180.0
 51
270.0
  0
ARC
  5
95BA
330
93CC
100
AcDbEntity
  8
1
  6
Continuous
100
AcDbCircle
 10
209.184091
 20
215.545365
 30
0.0
 40
2.0
100
AcDbArc
 50
0.0
 51
85.7108
  0
ARC
  5
95BB
330
93CC
100
AcDbEntity
  8
1
  6
Continuous
100
AcDbCircle
 10
209.184091
 20
199.2573649999999
 30
0.0
 40
2.0
100
AcDbArc
 50
274.289
 51
0.0
  0
ARC
  5
95BC
330
93CC
100
AcDbEntity
  8
1
  6
Continuous
100
AcDbCircle
 10
183.184091
 20
216.1513649999999
 30
0.0
 40
2.0
100
AcDbArc
 50
90.0
 51
180.0
  0
ARC
  5
95BD
330
93CC
100
AcDbEntity
  8
1
  6
Continuous
100
AcDbCircle
 10
19.183791
 20
131.9573649999999
 30
0.0
 40
2.0
100
AcDbArc
 50
101.31
 51
180.0
  0
ARC
  5
95BE
330
93CC
100
AcDbEntity
  8
1
  6
Continuous
100
AcDbCircle
 10
45.18379099999999
 20
133.5973649999999
 30
0.0
 40
2.0
100
AcDbArc
 50
0.0
 51
90.0
  0
ARC
  5
95BF
330
93CC
100
AcDbEntity
  8
1
  6
Continuous
100
AcDbCircle
 10
44.68379099999999
 20
127.597365
 30
0.0
 40
5.7
100
AcDbArc
 50
180.0
 51
270.0
  0
ARC
  5
95C0
330
93CC
100
AcDbEntity
  8
1
  6
Continuous
100
AcDbCircle
 10
20.401091
 20
122.0973649999999
 30
0.0
 40
0.5
100
AcDbArc
 50
190.305
 51
270.0
  0
ARC
  5
95C1
330
93CC
100
AcDbEntity
  8
1
  6
Continuous
100
AcDbCircle
 10
209.184091
 20
131.9573649999999
 30
0.0
 40
2.0
100
AcDbArc
 50
0.0
 51
78.6901
  0
ARC
  5
95C2
330
93CC
100
AcDbEntity
  8
1
  6
Continuous
100
AcDbCircle
 10
183.184091
 20
133.5973649999999
 30
0.0
 40
2.0
100
AcDbArc
 50
90.0
 51
180.0
  0
ARC
  5
95C3
330
93CC
100
AcDbEntity
  8
1
  6
Continuous
100
AcDbCircle
 10
183.684091
 20
127.597365
 30
0.0
 40
5.7
100
AcDbArc
 50
270.0
 51
0.0
  0
ARC
  5
95C4
330
93CC
100
AcDbEntity
  8
1
  6
Continuous
100
AcDbCircle
 10
207.966091
 20
122.0973649999999
 30
0.0
 40
0.5
100
AcDbArc
 50
270.0
 51
349.695
  0
ARC
  5
95C5
330
93CC
100
AcDbEntity
  8
1
  6
Continuous
100
AcDbCircle
 10
171.6470909999999
 20
131.5973649999999
 30
0.0
 40
4.0
100
AcDbArc
 50
60.94540000000001
 51
90.0
  0
ARC
  5
95C6
330
93CC
100
AcDbEntity
  8
1
  6
Continuous
100
AcDbCircle
 10
171.6470909999999
 20
127.597365
 30
0.0
 40
4.0
100
AcDbArc
 50
60.94540000000001
 51
90.0
  0
ARC
  5
95C7
330
93CC
100
AcDbEntity
  8
1
  6
Continuous
100
AcDbCircle
 10
180.143091
 20
128.597365
 30
0.0
 40
1.0
100
AcDbArc
 50
240.945
 51
270.0
  0
ARC
  5
95C8
330
93CC
100
AcDbEntity
  8
1
  6
Continuous
100
AcDbCircle
 10
56.720291
 20
131.5973649999999
 30
0.0
 40
4.0
100
AcDbArc
 50
90.0
 51
119.0549999999998
  0
ARC
  5
95C9
330
93CC
100
AcDbEntity
  8
1
  6
Continuous
100
AcDbCircle
 10
56.720291
 20
127.597365
 30
0.0
 40
4.0
100
AcDbArc
 50
90.0
 51
119.0549999999998
  0
ARC
  5
95CA
330
93CC
100
AcDbEntity
  8
1
  6
Continuous
100
AcDbCircle
 10
48.224691
 20
128.597365
 30
0.0
 40
1.0
100
AcDbArc
 50
270.0
 51
299.055
  0
ARC
  5
95CB
330
93CC
100
AcDbEntity
  8
1
  6
Continuous
100
AcDbCircle
 10
168.184091
 20
132.5973649999999
 30
0.0
 40
0.5
100
AcDbArc
 50
0.0
 51
180.0
  0
ARC
  5
95CC
330
93CC
100
AcDbEntity
  8
1
  6
Continuous
100
AcDbCircle
 10
167.184091
 20
132.0973649999999
 30
0.0
 40
0.5
100
AcDbArc
 50
270.0
 51
0.0
  0
ARC
  5
95CD
330
93CC
100
AcDbEntity
  8
1
  6
Continuous
100
AcDbCircle
 10
169.1840909999999
 20
132.0973649999999
 30
0.0
 40
0.5
100
AcDbArc
 50
180.0
 51
270.0
  0
ARC
  5
95CE
330
93CC
100
AcDbEntity
  8
1
  6
Continuous
100
AcDbCircle
 10
60.183791
 20
132.5973649999999
 30
0.0
 40
0.5
100
AcDbArc
 50
0.0
 51
180.0
  0
ARC
  5
95CF
330
93CC
100
AcDbEntity
  8
1
  6
Continuous
100
AcDbCircle
 10
61.18379100000001
 20
132.0973649999999
 30
0.0
 40
0.5
100
AcDbArc
 50
180.0
 51
270.0
  0
ARC
  5
95D0
330
93CC
100
AcDbEntity
  8
1
  6
Continuous
100
AcDbCircle
 10
59.18379100000001
 20
132.0973649999999
 30
0.0
 40
0.5
100
AcDbArc
 50
270.0
 51
0.0
  0
ARC
  5
95D1
330
93CC
100
AcDbEntity
  8
1
  6
Continuous
100
AcDbCircle
 10
64.183791
 20
132.5973649999999
 30
0.0
 40
0.5
100
AcDbArc
 50
0.0
 51
180.0
  0
ARC
  5
95D2
330
93CC
100
AcDbEntity
  8
1
  6
Continuous
100
AcDbCircle
 10
65.183791
 20
132.0973649999999
 30
0.0
 40
0.5
100
AcDbArc
 50
180.0
 51
270.0
  0
ARC
  5
95D3
330
93CC
100
AcDbEntity
  8
1
  6
Continuous
100
AcDbCircle
 10
63.18379100000001
 20
132.0973649999999
 30
0.0
 40
0.5
100
AcDbArc
 50
270.0
 51
0.0
  0
ARC
  5
95D4
330
93CC
100
AcDbEntity
  8
1
  6
Continuous
100
AcDbCircle
 10
68.183791
 20
132.5973649999999
 30
0.0
 40
0.5
100
AcDbArc
 50
0.0
 51
180.0
  0
ARC
  5
95D5
330
93CC
100
AcDbEntity
  8
1
  6
Continuous
100
AcDbCircle
 10
69.183791
 20
132.0973649999999
 30
0.0
 40
0.5
100
AcDbArc
 50
180.0
 51
270.0
  0
ARC
  5
95D6
330
93CC
100
AcDbEntity
  8
1
  6
Continuous
100
AcDbCircle
 10
67.18379099999999
 20
132.0973649999999
 30
0.0
 40
0.5
100
AcDbArc
 50
270.0
 51
0.0
  0
ARC
  5
95D7
330
93CC
100
AcDbEntity
  8
1
  6
Continuous
100
AcDbCircle
 10
72.18379099999999
 20
132.5973649999999
 30
0.0
 40
0.5
100
AcDbArc
 50
0.0
 51
180.0
  0
ARC
  5
95D8
330
93CC
100
AcDbEntity
  8
1
  6
Continuous
100
AcDbCircle
 10
73.183791
 20
132.0973649999999
 30
0.0
 40
0.5
100
AcDbArc
 50
180.0
 51
270.0
  0
ARC
  5
95D9
330
93CC
100
AcDbEntity
  8
1
  6
Continuous
100
AcDbCircle
 10
71.183791
 20
132.0973649999999
 30
0.0
 40
0.5
100
AcDbArc
 50
270.0
 51
0.0
  0
ARC
  5
95DA
330
93CC
100
AcDbEntity
  8
1
  6
Continuous
100
AcDbCircle
 10
76.183791
 20
132.5973649999999
 30
0.0
 40
0.5
100
AcDbArc
 50
0.0
 51
180.0
  0
ARC
  5
95DB
330
93CC
100
AcDbEntity
  8
1
  6
Continuous
100
AcDbCircle
 10
77.18379099999999
 20
132.0973649999999
 30
0.0
 40
0.5
100
AcDbArc
 50
180.0
 51
270.0
  0
ARC
  5
95DC
330
93CC
100
AcDbEntity
  8
1
  6
Continuous
100
AcDbCircle
 10
75.183791
 20
132.0973649999999
 30
0.0
 40
0.5
100
AcDbArc
 50
270.0
 51
0.0
  0
ARC
  5
95DD
330
93CC
100
AcDbEntity
  8
1
  6
Continuous
100
AcDbCircle
 10
80.183791
 20
132.5973649999999
 30
0.0
 40
0.5
100
AcDbArc
 50
0.0
 51
180.0
  0
ARC
  5
95DE
330
93CC
100
AcDbEntity
  8
1
  6
Continuous
100
AcDbCircle
 10
81.183791
 20
132.0973649999999
 30
0.0
 40
0.5
100
AcDbArc
 50
180.0
 51
270.0
  0
ARC
  5
95DF
330
93CC
100
AcDbEntity
  8
1
  6
Continuous
100
AcDbCircle
 10
79.183791
 20
132.0973649999999
 30
0.0
 40
0.5
100
AcDbArc
 50
270.0
 51
0.0
  0
ARC
  5
95E0
330
93CC
100
AcDbEntity
  8
1
  6
Continuous
100
AcDbCircle
 10
84.18379100000001
 20
132.5973649999999
 30
0.0
 40
0.5
100
AcDbArc
 50
0.0
 51
180.0
  0
ARC
  5
95E1
330
93CC
100
AcDbEntity
  8
1
  6
Continuous
100
AcDbCircle
 10
85.18409100000003
 20
132.0973649999999
 30
0.0
 40
0.5
100
AcDbArc
 50
180.0
 51
270.0
  0
ARC
  5
95E2
330
93CC
100
AcDbEntity
  8
1
  6
Continuous
100
AcDbCircle
 10
83.18379099999999
 20
132.0973649999999
 30
0.0
 40
0.5
100
AcDbArc
 50
270.0
 51
0.0
  0
ARC
  5
95E3
330
93CC
100
AcDbEntity
  8
1
  6
Continuous
100
AcDbCircle
 10
88.18409100000001
 20
132.5973649999999
 30
0.0
 40
0.5
100
AcDbArc
 50
0.0
 51
180.0
  0
ARC
  5
95E4
330
93CC
100
AcDbEntity
  8
1
  6
Continuous
100
AcDbCircle
 10
89.18409100000003
 20
132.0973649999999
 30
0.0
 40
0.5
100
AcDbArc
 50
180.0
 51
270.0
  0
ARC
  5
95E5
330
93CC
100
AcDbEntity
  8
1
  6
Continuous
100
AcDbCircle
 10
87.18409099999998
 20
132.0973649999999
 30
0.0
 40
0.5
100
AcDbArc
 50
270.0
 51
0.0
  0
ARC
  5
95E6
330
93CC
100
AcDbEntity
  8
1
  6
Continuous
100
AcDbCircle
 10
92.184091
 20
132.5973649999999
 30
0.0
 40
0.5
100
AcDbArc
 50
0.0
 51
180.0
  0
ARC
  5
95E7
330
93CC
100
AcDbEntity
  8
1
  6
Continuous
100
AcDbCircle
 10
93.184091
 20
132.0973649999999
 30
0.0
 40
0.5
100
AcDbArc
 50
180.0
 51
270.0
  0
ARC
  5
95E8
330
93CC
100
AcDbEntity
  8
1
  6
Continuous
100
AcDbCircle
 10
91.18409099999999
 20
132.0973649999999
 30
0.0
 40
0.5
100
AcDbArc
 50
270.0
 51
0.0
  0
ARC
  5
95E9
330
93CC
100
AcDbEntity
  8
1
  6
Continuous
100
AcDbCircle
 10
96.184091
 20
132.5973649999999
 30
0.0
 40
0.5
100
AcDbArc
 50
0.0
 51
180.0
  0
ARC
  5
95EA
330
93CC
100
AcDbEntity
  8
1
  6
Continuous
100
AcDbCircle
 10
97.18409100000002
 20
132.0973649999999
 30
0.0
 40
0.5
100
AcDbArc
 50
180.0
 51
270.0
  0
ARC
  5
95EB
330
93CC
100
AcDbEntity
  8
1
  6
Continuous
100
AcDbCircle
 10
95.18409100000004
 20
132.0973649999999
 30
0.0
 40
0.5
100
AcDbArc
 50
270.0
 51
0.0
  0
ARC
  5
95EC
330
93CC
100
AcDbEntity
  8
1
  6
Continuous
100
AcDbCircle
 10
100.184091
 20
132.5973649999999
 30
0.0
 40
0.5
100
AcDbArc
 50
0.0
 51
180.0
  0
ARC
  5
95ED
330
93CC
100
AcDbEntity
  8
1
  6
Continuous
100
AcDbCircle
 10
101.184091
 20
132.0973649999999
 30
0.0
 40
0.5
100
AcDbArc
 50
180.0
 51
270.0
  0
ARC
  5
95EE
330
93CC
100
AcDbEntity
  8
1
  6
Continuous
100
AcDbCircle
 10
99.18409100000005
 20
132.0973649999999
 30
0.0
 40
0.5
100
AcDbArc
 50
270.0
 51
0.0
  0
ARC
  5
95EF
330
93CC
100
AcDbEntity
  8
1
  6
Continuous
100
AcDbCircle
 10
104.184091
 20
132.5973649999999
 30
0.0
 40
0.5
100
AcDbArc
 50
0.0
 51
180.0
  0
ARC
  5
95F0
330
93CC
100
AcDbEntity
  8
1
  6
Continuous
100
AcDbCircle
 10
105.1840909999999
 20
132.0973649999999
 30
0.0
 40
0.5
100
AcDbArc
 50
180.0
 51
270.0
  0
ARC
  5
95F1
330
93CC
100
AcDbEntity
  8
1
  6
Continuous
100
AcDbCircle
 10
103.184091
 20
132.0973649999999
 30
0.0
 40
0.5
100
AcDbArc
 50
270.0
 51
0.0
  0
ARC
  5
95F2
330
93CC
100
AcDbEntity
  8
1
  6
Continuous
100
AcDbCircle
 10
108.1840909999999
 20
132.5973649999999
 30
0.0
 40
0.5
100
AcDbArc
 50
0.0
 51
180.0
  0
ARC
  5
95F3
330
93CC
100
AcDbEntity
  8
1
  6
Continuous
100
AcDbCircle
 10
109.1840909999999
 20
132.0973649999999
 30
0.0
 40
0.5
100
AcDbArc
 50
180.0
 51
270.0
  0
ARC
  5
95F4
330
93CC
100
AcDbEntity
  8
1
  6
Continuous
100
AcDbCircle
 10
107.1840909999999
 20
132.0973649999999
 30
0.0
 40
0.5
100
AcDbArc
 50
270.0
 51
0.0
  0
ARC
  5
95F5
330
93CC
100
AcDbEntity
  8
1
  6
Continuous
100
AcDbCircle
 10
112.1840909999999
 20
132.5973649999999
 30
0.0
 40
0.5
100
AcDbArc
 50
0.0
 51
180.0
  0
ARC
  5
95F6
330
93CC
100
AcDbEntity
  8
1
  6
Continuous
100
AcDbCircle
 10
113.1840909999999
 20
132.0973649999999
 30
0.0
 40
0.5
100
AcDbArc
 50
180.0
 51
270.0
  0
ARC
  5
95F7
330
93CC
100
AcDbEntity
  8
1
  6
Continuous
100
AcDbCircle
 10
111.1840909999999
 20
132.0973649999999
 30
0.0
 40
0.5
100
AcDbArc
 50
270.0
 51
0.0
  0
ARC
  5
95F8
330
93CC
100
AcDbEntity
  8
1
  6
Continuous
100
AcDbCircle
 10
116.184091
 20
132.5973649999999
 30
0.0
 40
0.5
100
AcDbArc
 50
0.0
 51
180.0
  0
ARC
  5
95F9
330
93CC
100
AcDbEntity
  8
1
  6
Continuous
100
AcDbCircle
 10
117.184091
 20
132.0973649999999
 30
0.0
 40
0.5
100
AcDbArc
 50
180.0
 51
270.0
  0
ARC
  5
95FA
330
93CC
100
AcDbEntity
  8
1
  6
Continuous
100
AcDbCircle
 10
115.1840909999999
 20
132.0973649999999
 30
0.0
 40
0.5
100
AcDbArc
 50
270.0
 51
0.0
  0
ARC
  5
95FB
330
93CC
100
AcDbEntity
  8
1
  6
Continuous
100
AcDbCircle
 10
120.184091
 20
132.5973649999999
 30
0.0
 40
0.5
100
AcDbArc
 50
0.0
 51
180.0
  0
ARC
  5
95FC
330
93CC
100
AcDbEntity
  8
1
  6
Continuous
100
AcDbCircle
 10
121.184091
 20
132.0973649999999
 30
0.0
 40
0.5
100
AcDbArc
 50
180.0
 51
270.0
  0
ARC
  5
95FD
330
93CC
100
AcDbEntity
  8
1
  6
Continuous
100
AcDbCircle
 10
119.184091
 20
132.0973649999999
 30
0.0
 40
0.5
100
AcDbArc
 50
270.0
 51
0.0
  0
ARC
  5
95FE
330
93CC
100
AcDbEntity
  8
1
  6
Continuous
100
AcDbCircle
 10
124.184091
 20
132.5973649999999
 30
0.0
 40
0.5
100
AcDbArc
 50
0.0
 51
180.0
  0
ARC
  5
95FF
330
93CC
100
AcDbEntity
  8
1
  6
Continuous
100
AcDbCircle
 10
125.184091
 20
132.0973649999999
 30
0.0
 40
0.5
100
AcDbArc
 50
180.0
 51
270.0
  0
ARC
  5
9600
330
93CC
100
AcDbEntity
  8
1
  6
Continuous
100
AcDbCircle
 10
123.184091
 20
132.0973649999999
 30
0.0
 40
0.5
100
AcDbArc
 50
270.0
 51
0.0
  0
ARC
  5
9601
330
93CC
100
AcDbEntity
  8
1
  6
Continuous
100
AcDbCircle
 10
128.1840909999999
 20
132.5973649999999
 30
0.0
 40
0.5
100
AcDbArc
 50
0.0
 51
180.0
  0
ARC
  5
9602
330
93CC
100
AcDbEntity
  8
1
  6
Continuous
100
AcDbCircle
 10
129.1840909999999
 20
132.0973649999999
 30
0.0
 40
0.5
100
AcDbArc
 50
180.0
 51
270.0
  0
ARC
  5
9603
330
93CC
100
AcDbEntity
  8
1
  6
Continuous
100
AcDbCircle
 10
127.1840909999999
 20
132.0973649999999
 30
0.0
 40
0.5
100
AcDbArc
 50
270.0
 51
0.0
  0
ARC
  5
9604
330
93CC
100
AcDbEntity
  8
1
  6
Continuous
100
AcDbCircle
 10
132.1840909999999
 20
132.5973649999999
 30
0.0
 40
0.5
100
AcDbArc
 50
0.0
 51
180.0
  0
ARC
  5
9605
330
93CC
100
AcDbEntity
  8
1
  6
Continuous
100
AcDbCircle
 10
133.1840909999999
 20
132.0973649999999
 30
0.0
 40
0.5
100
AcDbArc
 50
180.0
 51
270.0
  0
ARC
  5
9606
330
93CC
100
AcDbEntity
  8
1
  6
Continuous
100
AcDbCircle
 10
131.1840909999999
 20
132.0973649999999
 30
0.0
 40
0.5
100
AcDbArc
 50
270.0
 51
0.0
  0
ARC
  5
9607
330
93CC
100
AcDbEntity
  8
1
  6
Continuous
100
AcDbCircle
 10
136.1840909999999
 20
132.5973649999999
 30
0.0
 40
0.5
100
AcDbArc
 50
0.0
 51
180.0
  0
ARC
  5
9608
330
93CC
100
AcDbEntity
  8
1
  6
Continuous
100
AcDbCircle
 10
137.1840909999999
 20
132.0973649999999
 30
0.0
 40
0.5
100
AcDbArc
 50
180.0
 51
270.0
  0
ARC
  5
9609
330
93CC
100
AcDbEntity
  8
1
  6
Continuous
100
AcDbCircle
 10
135.1840909999999
 20
132.0973649999999
 30
0.0
 40
0.5
100
AcDbArc
 50
270.0
 51
0.0
  0
ARC
  5
960A
330
93CC
100
AcDbEntity
  8
1
  6
Continuous
100
AcDbCircle
 10
140.1840909999999
 20
132.5973649999999
 30
0.0
 40
0.5
100
AcDbArc
 50
0.0
 51
180.0
  0
ARC
  5
960B
330
93CC
100
AcDbEntity
  8
1
  6
Continuous
100
AcDbCircle
 10
141.184091
 20
132.0973649999999
 30
0.0
 40
0.5
100
AcDbArc
 50
180.0
 51
270.0
  0
ARC
  5
960C
330
93CC
100
AcDbEntity
  8
1
  6
Continuous
100
AcDbCircle
 10
139.1840909999999
 20
132.0973649999999
 30
0.0
 40
0.5
100
AcDbArc
 50
270.0
 51
0.0
  0
ARC
  5
960D
330
93CC
100
AcDbEntity
  8
1
  6
Continuous
100
AcDbCircle
 10
144.1840909999999
 20
132.5973649999999
 30
0.0
 40
0.5
100
AcDbArc
 50
0.0
 51
180.0
  0
ARC
  5
960E
330
93CC
100
AcDbEntity
  8
1
  6
Continuous
100
AcDbCircle
 10
145.184091
 20
132.0973649999999
 30
0.0
 40
0.5
100
AcDbArc
 50
180.0
 51
270.0
  0
ARC
  5
960F
330
93CC
100
AcDbEntity
  8
1
  6
Continuous
100
AcDbCircle
 10
143.184091
 20
132.0973649999999
 30
0.0
 40
0.5
100
AcDbArc
 50
270.0
 51
0.0
  0
ARC
  5
9610
330
93CC
100
AcDbEntity
  8
1
  6
Continuous
100
AcDbCircle
 10
148.184091
 20
132.5973649999999
 30
0.0
 40
0.5
100
AcDbArc
 50
0.0
 51
180.0
  0
ARC
  5
9611
330
93CC
100
AcDbEntity
  8
1
  6
Continuous
100
AcDbCircle
 10
149.184091
 20
132.0973649999999
 30
0.0
 40
0.5
100
AcDbArc
 50
180.0
 51
270.0
  0
ARC
  5
9612
330
93CC
100
AcDbEntity
  8
1
  6
Continuous
100
AcDbCircle
 10
147.184091
 20
132.0973649999999
 30
0.0
 40
0.5
100
AcDbArc
 50
270.0
 51
0.0
  0
ARC
  5
9613
330
93CC
100
AcDbEntity
  8
1
  6
Continuous
100
AcDbCircle
 10
152.1840909999999
 20
132.5973649999999
 30
0.0
 40
0.5
100
AcDbArc
 50
0.0
 51
180.0
  0
ARC
  5
9614
330
93CC
100
AcDbEntity
  8
1
  6
Continuous
100
AcDbCircle
 10
153.1840909999999
 20
132.0973649999999
 30
0.0
 40
0.5
100
AcDbArc
 50
180.0
 51
270.0
  0
ARC
  5
9615
330
93CC
100
AcDbEntity
  8
1
  6
Continuous
100
AcDbCircle
 10
151.184091
 20
132.0973649999999
 30
0.0
 40
0.5
100
AcDbArc
 50
270.0
 51
0.0
  0
ARC
  5
9616
330
93CC
100
AcDbEntity
  8
1
  6
Continuous
100
AcDbCircle
 10
156.1840909999999
 20
132.5973649999999
 30
0.0
 40
0.5
100
AcDbArc
 50
0.0
 51
180.0
  0
ARC
  5
9617
330
93CC
100
AcDbEntity
  8
1
  6
Continuous
100
AcDbCircle
 10
157.1840909999998
 20
132.0973649999999
 30
0.0
 40
0.5
100
AcDbArc
 50
180.0
 51
270.0
  0
ARC
  5
9618
330
93CC
100
AcDbEntity
  8
1
  6
Continuous
100
AcDbCircle
 10
155.1840909999999
 20
132.0973649999999
 30
0.0
 40
0.5
100
AcDbArc
 50
270.0
 51
0.0
  0
ARC
  5
9619
330
93CC
100
AcDbEntity
  8
1
  6
Continuous
100
AcDbCircle
 10
160.1840909999999
 20
132.5973649999999
 30
0.0
 40
0.5
100
AcDbArc
 50
0.0
 51
180.0
  0
ARC
  5
961A
330
93CC
100
AcDbEntity
  8
1
  6
Continuous
100
AcDbCircle
 10
161.1840909999999
 20
132.0973649999999
 30
0.0
 40
0.5
100
AcDbArc
 50
180.0
 51
270.0
  0
ARC
  5
961B
330
93CC
100
AcDbEntity
  8
1
  6
Continuous
100
AcDbCircle
 10
159.1840909999999
 20
132.0973649999999
 30
0.0
 40
0.5
100
AcDbArc
 50
270.0
 51
0.0
  0
ARC
  5
961C
330
93CC
100
AcDbEntity
  8
1
  6
Continuous
100
AcDbCircle
 10
164.1840909999999
 20
132.5973649999999
 30
0.0
 40
0.5
100
AcDbArc
 50
0.0
 51
180.0
  0
ARC
  5
961D
330
93CC
100
AcDbEntity
  8
1
  6
Continuous
100
AcDbCircle
 10
165.1840909999999
 20
132.0973649999999
 30
0.0
 40
0.5
100
AcDbArc
 50
180.0
 51
270.0
  0
ARC
  5
961E
330
93CC
100
AcDbEntity
  8
1
  6
Continuous
100
AcDbCircle
 10
163.184091
 20
132.0973649999999
 30
0.0
 40
0.5
100
AcDbArc
 50
270.0
 51
0.0
  0
ARC
  5
961F
330
93CC
100
AcDbEntity
  8
1
  6
Continuous
100
AcDbCircle
 10
209.184091
 20
62.936965
 30
0.0
 40
2.0
100
AcDbArc
 50
0.0
 51
85.7108
  0
ARC
  5
9620
330
93CC
100
AcDbEntity
  8
1
  6
Continuous
100
AcDbCircle
 10
209.184091
 20
46.64816499999999
 30
0.0
 40
2.0
100
AcDbArc
 50
274.289
 51
0.0
  0
ARC
  5
9621
330
93CC
100
AcDbEntity
  8
1
  6
Continuous
100
AcDbCircle
 10
200.684091
 20
61.79256500000001
 30
0.0
 40
1.0
100
AcDbArc
 50
0.0
 51
90.0
  0
ARC
  5
9622
330
93CC
100
AcDbEntity
  8
1
  6
Continuous
100
AcDbCircle
 10
200.684091
 20
47.792565
 30
0.0
 40
1.0
100
AcDbArc
 50
270.0
 51
0.0
  0
ARC
  5
9623
330
93CC
100
AcDbEntity
  8
1
  6
Continuous
100
AcDbCircle
 10
194.6840909999998
 20
57.792565
 30
0.0
 40
2.0
100
AcDbArc
 50
0.0
 51
90.0
  0
ARC
  5
9624
330
93CC
100
AcDbEntity
  8
1
  6
Continuous
100
AcDbCircle
 10
194.6840909999998
 20
51.79256500000001
 30
0.0
 40
2.0
100
AcDbArc
 50
270.0
 51
0.0
  0
ARC
  5
9625
330
93CC
100
AcDbEntity
  8
1
  6
Continuous
100
AcDbCircle
 10
205.8840909999999
 20
47.503765
 30
0.0
 40
0.5
100
AcDbArc
 50
274.289
 51
0.0
  0
ARC
  5
9626
330
93CC
100
AcDbEntity
  8
1
  6
Continuous
100
AcDbCircle
 10
205.8840909999999
 20
62.08136500000001
 30
0.0
 40
0.5
100
AcDbArc
 50
0.0
 51
85.7108
  0
ARC
  5
9627
330
93CC
100
AcDbEntity
  8
1
  6
Continuous
100
AcDbCircle
 10
183.684091
 20
43.036365
 30
0.0
 40
1.80625
100
AcDbArc
 50
33.8551
 51
90.0
  0
ARC
  5
9628
330
93CC
100
AcDbEntity
  8
1
  6
Continuous
100
AcDbCircle
 10
183.684091
 20
47.648865
 30
0.0
 40
1.80625
100
AcDbArc
 50
270.0
 51
326.1449999999999
  0
ARC
  5
9629
330
93CC
100
AcDbEntity
  8
1
  6
Continuous
100
AcDbCircle
 10
183.684091
 20
61.936365
 30
0.0
 40
1.80625
100
AcDbArc
 50
33.8551
 51
89.99989999999998
  0
ARC
  5
962A
330
93CC
100
AcDbEntity
  8
1
  6
Continuous
100
AcDbCircle
 10
183.684091
 20
66.548865
 30
0.0
 40
1.80625
100
AcDbArc
 50
270.0
 51
326.1449999999999
  0
ARC
  5
962B
330
93CC
100
AcDbEntity
  8
1
  6
Continuous
100
AcDbCircle
 10
44.68379099999999
 20
66.548865
 30
0.0
 40
1.80625
100
AcDbArc
 50
213.855
 51
270.0
  0
ARC
  5
962C
330
93CC
100
AcDbEntity
  8
1
  6
Continuous
100
AcDbCircle
 10
44.68379099999999
 20
47.648865
 30
0.0
 40
1.80625
100
AcDbArc
 50
213.855
 51
270.0
  0
ARC
  5
962D
330
93CC
100
AcDbEntity
  8
1
  6
Continuous
100
AcDbCircle
 10
44.68379099999999
 20
61.936365
 30
0.0
 40
1.80625
100
AcDbArc
 50
90.00010000000001
 51
146.145
  0
ARC
  5
962E
330
93CC
100
AcDbEntity
  8
1
  6
Continuous
100
AcDbCircle
 10
19.183791
 20
62.936965
 30
0.0
 40
2.0
100
AcDbArc
 50
94.28919999999999
 51
180.0
  0
ARC
  5
962F
330
93CC
100
AcDbEntity
  8
1
  6
Continuous
100
AcDbCircle
 10
19.183791
 20
46.64816499999999
 30
0.0
 40
2.0
100
AcDbArc
 50
180.0
 51
265.711
  0
ARC
  5
9630
330
93CC
100
AcDbEntity
  8
1
  6
Continuous
100
AcDbCircle
 10
27.68379099999998
 20
61.79256500000001
 30
0.0
 40
1.0
100
AcDbArc
 50
90.0
 51
180.0
  0
ARC
  5
9631
330
93CC
100
AcDbEntity
  8
1
  6
Continuous
100
AcDbCircle
 10
27.68379099999998
 20
47.792565
 30
0.0
 40
1.0
100
AcDbArc
 50
180.0
 51
270.0
  0
ARC
  5
9632
330
93CC
100
AcDbEntity
  8
1
  6
Continuous
100
AcDbCircle
 10
33.683791
 20
57.792565
 30
0.0
 40
2.0
100
AcDbArc
 50
90.0
 51
180.0
  0
ARC
  5
9633
330
93CC
100
AcDbEntity
  8
1
  6
Continuous
100
AcDbCircle
 10
33.683791
 20
51.79256500000001
 30
0.0
 40
2.0
100
AcDbArc
 50
180.0
 51
270.0
  0
ARC
  5
9634
330
93CC
100
AcDbEntity
  8
1
  6
Continuous
100
AcDbCircle
 10
22.483791
 20
47.503765
 30
0.0
 40
0.5
100
AcDbArc
 50
180.0
 51
265.711
  0
ARC
  5
9635
330
93CC
100
AcDbEntity
  8
1
  6
Continuous
100
AcDbCircle
 10
22.483791
 20
62.08136500000001
 30
0.0
 40
0.5
100
AcDbArc
 50
94.28919999999999
 51
180.0
  0
ARC
  5
9636
330
93CC
100
AcDbEntity
  8
1
  6
Continuous
100
AcDbCircle
 10
44.68379099999999
 20
43.036365
 30
0.0
 40
1.80625
100
AcDbArc
 50
90.0
 51
146.145
  0
ARC
  5
9637
330
93CC
100
AcDbEntity
  8
1
  6
Continuous
100
AcDbCircle
 10
282.726568
 20
133.5973649999999
 30
0.0
 40
2.0
100
AcDbArc
 50
0.0
 51
90.0
  0
ARC
  5
9638
330
93CC
100
AcDbEntity
  8
1
  6
Continuous
100
AcDbCircle
 10
265.2265679999999
 20
133.5973649999999
 30
0.0
 40
2.0
100
AcDbArc
 50
90.0
 51
180.0
  0
ARC
  5
9639
330
93CC
100
AcDbEntity
  8
1
  6
Continuous
100
AcDbCircle
 10
281.9765679999999
 20
131.5973649999999
 30
0.0
 40
2.0
100
AcDbArc
 50
0.0
 51
90.0
  0
ARC
  5
963A
330
93CC
100
AcDbEntity
  8
1
  6
Continuous
100
AcDbCircle
 10
265.976568
 20
131.5973649999999
 30
0.0
 40
2.0
100
AcDbArc
 50
90.0
 51
180.0
  0
ARC
  5
963B
330
93CC
100
AcDbEntity
  8
1
  6
Continuous
100
AcDbCircle
 10
275.6765679999999
 20
126.7313649999999
 30
0.0
 40
1.0
100
AcDbArc
 50
119.9999999999999
 51
180.0
  0
ARC
  5
963C
330
93CC
100
AcDbEntity
  8
1
  6
Continuous
100
AcDbCircle
 10
272.276568
 20
126.7313649999999
 30
0.0
 40
1.0
100
AcDbArc
 50
0.0
 51
60.0
  0
ARC
  5
963D
330
93CC
100
AcDbEntity
  8
1
  6
Continuous
100
AcDbCircle
 10
271.2765679999999
 20
126.397365
 30
0.0
 40
0.5
100
AcDbArc
 50
0.0
 51
180.0
  0
ARC
  5
963E
330
93CC
100
AcDbEntity
  8
1
  6
Continuous
100
AcDbCircle
 10
273.0345679999999
 20
123.2393649999999
 30
0.0
 40
0.241896
100
AcDbArc
 50
217.476
 51
0.0
  0
ARC
  5
963F
330
93CC
100
AcDbEntity
  8
1
  6
Continuous
100
AcDbCircle
 10
272.9695679999999
 20
122.597365
 30
0.0
 40
1.0
100
AcDbArc
 50
217.476
 51
270.0
  0
ARC
  5
9640
330
93CC
100
AcDbEntity
  8
1
  6
Continuous
100
AcDbCircle
 10
274.918568
 20
123.2393649999999
 30
0.0
 40
0.241896
100
AcDbArc
 50
180.0
 51
322.5238
  0
ARC
  5
9641
330
93CC
100
AcDbEntity
  8
1
  6
Continuous
100
AcDbCircle
 10
276.6765679999999
 20
126.397365
 30
0.0
 40
0.5
100
AcDbArc
 50
0.0
 51
180.0
  0
ARC
  5
9642
330
93CC
100
AcDbEntity
  8
1
  6
Continuous
100
AcDbCircle
 10
274.9835679999999
 20
122.597365
 30
0.0
 40
1.0
100
AcDbArc
 50
270.0
 51
322.5238
  0
LINE
  5
9643
330
93CC
100
AcDbEntity
  8
4
  6
CENTER
100
AcDbLine
 10
114.1840909999999
 20
143.3098
 30
0.0
 11
114.1840909999999
 21
123.1869409999999
 31
0.0
  0
ARC
  5
9644
330
93CC
100
AcDbEntity
  8
1
  6
Continuous
100
AcDbCircle
 10
75.183791
 20
213.9013649999998
 30
0.0
 40
0.5
100
AcDbArc
 50
90.0
 51
180.0
  0
ARC
  5
9645
330
93CC
100
AcDbEntity
  8
1
  6
Continuous
100
AcDbCircle
 10
75.183791
 20
200.9013649999999
 30
0.0
 40
0.5
100
AcDbArc
 50
180.0
 51
270.0
  0
ARC
  5
9646
330
93CC
100
AcDbEntity
  8
1
  6
Continuous
100
AcDbCircle
 10
153.1840909999999
 20
200.9013649999999
 30
0.0
 40
0.5
100
AcDbArc
 50
270.0
 51
0.0
  0
ARC
  5
9647
330
93CC
100
AcDbEntity
  8
1
  6
Continuous
100
AcDbCircle
 10
153.1840909999999
 20
213.9013649999998
 30
0.0
 40
0.5
100
AcDbArc
 50
0.0
 51
90.0
  0
ARC
  5
9648
330
93CC
100
AcDbEntity
  8
1
  6
Continuous
100
AcDbCircle
 10
75.183791
 20
213.9013649999998
 30
0.0
 40
1.0
100
AcDbArc
 50
90.0
 51
180.0
  0
ARC
  5
9649
330
93CC
100
AcDbEntity
  8
1
  6
Continuous
100
AcDbCircle
 10
75.183791
 20
200.9013649999999
 30
0.0
 40
1.0
100
AcDbArc
 50
180.0
 51
270.0
  0
ARC
  5
964A
330
93CC
100
AcDbEntity
  8
1
  6
Continuous
100
AcDbCircle
 10
153.1840909999999
 20
213.9013649999998
 30
0.0
 40
1.0
100
AcDbArc
 50
0.0
 51
90.0
  0
ARC
  5
964B
330
93CC
100
AcDbEntity
  8
1
  6
Continuous
100
AcDbCircle
 10
153.1840909999999
 20
200.9013649999999
 30
0.0
 40
1.0
100
AcDbArc
 50
270.0
 51
0.0
  0
ENDSEC
  0
SECTION
  2
OBJECTS
  0
DICTIONARY
  5
93BA
330
0
100
AcDbDictionary
281
     1
  3
ACAD_CIP_PREVIOUS_PRODUCT_INFO
350
96B1
  3
ACAD_COLOR
350
9693
  3
ACAD_DETAILVIEWSTYLE
350
96AC
  3
ACAD_GROUP
350
93BB
  3
ACAD_LAYOUT
350
93C7
  3
ACAD_MATERIAL
350
9661
  3
ACAD_MLEADERSTYLE
350
96A8
  3
ACAD_MLINESTYLE
350
93C4
  3
ACAD_PLOTSETTINGS
350
93C6
  3
ACAD_PLOTSTYLENAME
350
965F
  3
ACAD_SCALELIST
350
9696
  3
ACAD_SECTIONVIEWSTYLE
350
96AA
  3
ACAD_TABLESTYLE
350
9694
  3
ACAD_VISUALSTYLE
350
967A
  3
ACDB_RECOMPOSE_DATA
350
96CF
  3
AcDbVariableDictionary
350
96C2
  3
DWGPROPS
350
96D0
  0
DICTIONARY
  5
96B2
330
93BE
100
AcDbDictionary
280
     1
281
     1
  3
ADSK_XREC_LAYER_RECONCILED
360
96B3
  0
DICTIONARY
  5
96B4
330
93D4
100
AcDbDictionary
280
     1
281
     1
  3
ADSK_XREC_LAYER_RECONCILED
360
96B5
  0
DICTIONARY
  5
96B6
330
93D5
100
AcDbDictionary
280
     1
281
     1
  3
ADSK_XREC_LAYER_RECONCILED
360
96B7
  0
DICTIONARY
  5
96B8
330
93D6
100
AcDbDictionary
280
     1
281
     1
  3
ADSK_XREC_LAYER_RECONCILED
360
96B9
  0
DICTIONARY
  5
96BA
330
93D7
100
AcDbDictionary
280
     1
281
     1
  3
ADSK_XREC_LAYER_RECONCILED
360
96BB
  0
DICTIONARY
  5
96BC
330
93D8
100
AcDbDictionary
280
     1
281
     1
  3
ADSK_XREC_LAYER_RECONCILED
360
96BD
  0
DICTIONARY
  5
96BE
330
93D9
100
AcDbDictionary
280
     1
281
     1
  3
ADSK_XREC_LAYER_RECONCILED
360
96BF
  0
DICTIONARY
  5
96C0
330
93DA
100
AcDbDictionary
280
     1
281
     1
  3
ADSK_XREC_LAYER_RECONCILED
360
96C1
  0
DICTIONARY
  5
965A
330
93CC
100
AcDbDictionary
281
     1
  3
ACAD_LAYOUTSELFREF
350
965B
  0
DICTIONARY
  5
9658
330
93C8
100
AcDbDictionary
281
     1
  3
ACAD_LAYOUTSELFREF
350
9659
  0
XRECORD
  5
96B1
102
{ACAD_REACTORS
330
93BA
102
}
330
93BA
100
AcDbXrecord
280
     1
300
ACDLT
300
2014
300
ACDLT_F_S
  0
DICTIONARY
  5
9693
102
{ACAD_REACTORS
330
93BA
102
}
330
93BA
100
AcDbDictionary
281
     1
  0
DICTIONARY
  5
96AC
102
{ACAD_REACTORS
330
93BA
102
}
330
93BA
100
AcDbDictionary
281
     1
  3
Imperial24
350
96AD
  0
DICTIONARY
  5
93BB
102
{ACAD_REACTORS
330
93BA
102
}
330
93BA
100
AcDbDictionary
281
     1
  0
DICTIONARY
  5
93C7
102
{ACAD_REACTORS
330
93BA
102
}
330
93BA
100
AcDbDictionary
281
     1
  3
Model
350
96AE
  3
レイアウト1
350
96AF
  0
DICTIONARY
  5
9661
102
{ACAD_REACTORS
330
93BA
102
}
330
93BA
100
AcDbDictionary
281
     1
  3
ByBlock
350
966A
  3
ByLayer
350
9662
  3
Global
350
9672
  0
DICTIONARY
  5
96A8
102
{ACAD_REACTORS
330
93BA
102
}
330
93BA
100
AcDbDictionary
281
     1
  3
Standard
350
96A9
  0
DICTIONARY
  5
93C4
102
{ACAD_REACTORS
330
93BA
102
}
330
93BA
100
AcDbDictionary
281
     1
  3
STANDARD
350
93C5
  0
DICTIONARY
  5
93C6
102
{ACAD_REACTORS
330
93BA
102
}
330
93BA
100
AcDbDictionary
281
     1
  0
ACDBDICTIONARYWDFLT
  5
965F
102
{ACAD_REACTORS
330
93BA
102
}
330
93BA
100
AcDbDictionary
281
     1
  3
Normal
350
9660
100
AcDbDictionaryWithDefault
340
9660
  0
DICTIONARY
  5
9696
102
{ACAD_REACTORS
330
93BA
102
}
330
93BA
100
AcDbDictionary
281
     1
  3
A0
350
9697
  3
A1
350
9698
  3
A2
350
9699
  3
A3
350
969A
  3
A4
350
969B
  3
A5
350
969C
  3
A6
350
969D
  3
A7
350
969E
  3
A8
350
969F
  3
A9
350
96A0
  3
B0
350
96A1
  3
B1
350
96A2
  3
B2
350
96A3
  3
B3
350
96A4
  3
B4
350
96A5
  3
B5
350
96A6
  3
B6
350
96A7
  0
DICTIONARY
  5
96AA
102
{ACAD_REACTORS
330
93BA
102
}
330
93BA
100
AcDbDictionary
281
     1
  3
Imperial24
350
96AB
  0
DICTIONARY
  5
9694
102
{ACAD_REACTORS
330
93BA
102
}
330
93BA
100
AcDbDictionary
281
     1
  3
Standard
350
9695
  0
DICTIONARY
  5
967A
102
{ACAD_REACTORS
330
93BA
102
}
330
93BA
100
AcDbDictionary
281
     1
  3
2dWireframe
350
9680
  3
Basic
350
967F
  3
Brighten
350
9686
  3
ColorChange
350
968A
  3
Conceptual
350
9683
  3
Dim
350
9685
  3
EdgeColorOff
350
9692
  3
Facepattern
350
9689
  3
Flat
350
967B
  3
FlatWithEdges
350
967C
  3
Gouraud
350
967D
  3
GouraudWithEdges
350
967E
  3
Hidden
350
9682
  3
JitterOff
350
9690
  3
Linepattern
350
9688
  3
OverhangOff
350
9691
  3
Realistic
350
9684
  3
Shaded
350
968F
  3
Shaded with edges
350
968E
  3
Shades of Gray
350
968B
  3
Sketchy
350
968C
  3
Thicken
350
9687
  3
Wireframe
350
9681
  3
X-Ray
350
968D
  0
XRECORD
  5
96CF
102
{ACAD_REACTORS
330
93BA
102
}
330
93BA
100
AcDbXrecord
280
     1
 90
        1
330
9695
  0
DICTIONARY
  5
96C2
102
{ACAD_REACTORS
330
93BA
102
}
330
93BA
100
AcDbDictionary
281
     1
  3
CANNOSCALE
350
96C7
  3
CMLEADERSTYLE
350
96C4
  3
CTABLESTYLE
350
96C3
  3
CVIEWDETAILSTYLE
350
96C5
  3
CVIEWSECTIONSTYLE
350
96C6
  3
DIMASSOC
350
96CA
  3
INDEXCTL
350
96C9
  3
SORTENTS
350
96C8
  3
XCLIPFRAME
350
96CB
  0
XRECORD
  5
96D0
102
{ACAD_REACTORS
330
93BA
102
}
330
93BA
100
AcDbXrecord
280
     1
  1
DWGPROPS COOKIE
  2

  3

  4

  6

  7

  8
Yoshitsune
  9

300
=
301
=
302
=
303
=
304
=
305
=
306
=
307
=
308
=
309
=
 40
0.0000161458333333
 41
2450737.742066204
 42
2457192.639518495
  1

 90
        0
  0
XRECORD
  5
96B3
102
{ACAD_REACTORS
330
96B2
102
}
330
96B2
100
AcDbXrecord
280
     1
290
     1
  0
XRECORD
  5
96B5
102
{ACAD_REACTORS
330
96B4
102
}
330
96B4
100
AcDbXrecord
280
     1
290
     1
  0
XRECORD
  5
96B7
102
{ACAD_REACTORS
330
96B6
102
}
330
96B6
100
AcDbXrecord
280
     1
290
     1
  0
XRECORD
  5
96B9
102
{ACAD_REACTORS
330
96B8
102
}
330
96B8
100
AcDbXrecord
280
     1
290
     1
  0
XRECORD
  5
96BB
102
{ACAD_REACTORS
330
96BA
102
}
330
96BA
100
AcDbXrecord
280
     1
290
     1
  0
XRECORD
  5
96BD
102
{ACAD_REACTORS
330
96BC
102
}
330
96BC
100
AcDbXrecord
280
     1
290
     1
  0
XRECORD
  5
96BF
102
{ACAD_REACTORS
330
96BE
102
}
330
96BE
100
AcDbXrecord
280
     1
290
     1
  0
XRECORD
  5
96C1
102
{ACAD_REACTORS
330
96C0
102
}
330
96C0
100
AcDbXrecord
280
     1
290
     1
  0
XRECORD
  5
965B
102
{ACAD_REACTORS
330
965A
102
}
330
965A
100
AcDbXrecord
280
     1
340
93CC
  0
XRECORD
  5
9659
102
{ACAD_REACTORS
330
9658
102
}
330
9658
100
AcDbXrecord
280
     1
340
93C8
  0
ACDBDETAILVIEWSTYLE
  5
96AD
102
{ACAD_XDICTIONARY
360
9708
102
}
102
{ACAD_REACTORS
330
96AC
102
}
330
96AC
100
AcDbModelDocViewStyle
 70
     0
  3
Imperial24
290
     0
100
AcDbDetailViewStyle
 70
     0
 71
     0
 90
        3
 71
     1
340
93BF
 40
0.24
340
0
 40
0.24
300

 40
0.36
280
     3
 71
     2
340
93C3
 90
       25
 71
     3
340
93BF
 40
0.24
 90
        1
 40
0.75
 90
        1
300
%<\AcVar ViewType \f "%tc1">% %<\AcVar ViewDetailId>%\PSCALE %<\AcVar ViewScale \f "%sn">%
 71
     4
340
93C3
 90
       25
340
93C3
 90
       25
280
     0
  0
LAYOUT
  5
96AE
102
{ACAD_XDICTIONARY
360
970A
102
}
102
{ACAD_REACTORS
330
93C7
102
}
330
93C7
100
AcDbPlotSettings
  1

  2
Canon LBP9100C
  4

  6

 40
0.0
 41
0.0
 42
0.0
 43
0.0
 44
0.0
 45
0.0
 46
0.0
 47
0.0
 48
0.0
 49
0.0
140
0.0
141
0.0
142
1.0
143
1.0
 70
  1712
 72
     0
 73
     0
 74
     0
  7

 75
     0
147
1.0
148
0.0
149
0.0
100
AcDbLayout
  1
Model
 70
     1
 71
     0
 10
0.0
 20
0.0
 11
12.0
 21
9.0
 12
0.0
 22
0.0
 32
0.0
 14
0.0
 24
0.0
 34
0.0
 15
0.0
 25
0.0
 35
0.0
146
0.0
 13
0.0
 23
0.0
 33
0.0
 16
1.0
 26
0.0
 36
0.0
 17
0.0
 27
1.0
 37
0.0
 76
     0
330
93CC
331
9657
  0
LAYOUT
  5
96AF
102
{ACAD_XDICTIONARY
360
970C
102
}
102
{ACAD_REACTORS
330
93C7
102
}
330
93C7
100
AcDbPlotSettings
  1

  2
Canon LBP9100C
  4

  6

 40
0.0
 41
0.0
 42
0.0
 43
0.0
 44
0.0
 45
0.0
 46
0.0
 47
0.0
 48
0.0
 49
0.0
140
0.0
141
0.0
142
1.0
143
1.0
 70
   688
 72
     0
 73
     0
 74
     5
  7

 75
    16
147
1.0
148
0.0
149
0.0
100
AcDbLayout
  1
レイアウト1
 70
     0
 71
     1
 10
0.0
 20
0.0
 11
420.0
 21
297.0
 12
0.0
 22
0.0
 32
0.0
 14
1.000000000000000E+20
 24
1.000000000000000E+20
 34
1.000000000000000E+20
 15
-1.000000000000000E+20
 25
-1.000000000000000E+20
 35
-1.000000000000000E+20
146
0.0
 13
0.0
 23
0.0
 33
0.0
 16
1.0
 26
0.0
 36
0.0
 17
0.0
 27
1.0
 37
0.0
 76
     0
330
93C8
  0
MATERIAL
  5
966A
102
{ACAD_XDICTIONARY
360
966B
102
}
102
{ACAD_REACTORS
330
9661
102
}
330
9661
100
AcDbMaterial
  1
ByBlock
 72
     0
 43
0.0208333333333333
 43
0.0
 43
0.0
 43
0.0
 43
0.0
 43
0.0208333333333333
 43
0.0
 43
0.0
 43
0.0
 43
0.0
 43
1.0
 43
0.0
 43
0.0
 43
0.0
 43
0.0
 43
1.0
 77
     0
 47
0.0208333333333333
 47
0.0
 47
0.0
 47
0.0
 47
0.0
 47
0.0208333333333333
 47
0.0
 47
0.0
 47
0.0
 47
0.0
 47
1.0
 47
0.0
 47
0.0
 47
0.0
 47
0.0
 47
1.0
171
     0
 49
0.0208333333333333
 49
0.0
 49
0.0
 49
0.0
 49
0.0
 49
0.0208333333333333
 49
0.0
 49
0.0
 49
0.0
 49
0.0
 49
1.0
 49
0.0
 49
0.0
 49
0.0
 49
0.0
 49
1.0
175
     0
142
0.0208333333333333
142
0.0
142
0.0
142
0.0
142
0.0
142
0.0208333333333333
142
0.0
142
0.0
142
0.0
142
0.0
142
1.0
142
0.0
142
0.0
142
0.0
142
0.0
142
1.0
179
     0
144
0.0208333333333333
144
0.0
144
0.0
144
0.0
144
0.0
144
0.0208333333333333
144
0.0
144
0.0
144
0.0
144
0.0
144
1.0
144
0.0
144
0.0
144
0.0
144
0.0
144
1.0
147
0.0208333333333333
147
0.0
147
0.0
147
0.0
147
0.0
147
0.0208333333333333
147
0.0
147
0.0
147
0.0
147
0.0
147
1.0
147
0.0
147
0.0
147
0.0
147
0.0
147
1.0
  0
MATERIAL
  5
9662
102
{ACAD_XDICTIONARY
360
9663
102
}
102
{ACAD_REACTORS
330
9661
102
}
330
9661
100
AcDbMaterial
  1
ByLayer
 72
     0
 43
0.0208333333333333
 43
0.0
 43
0.0
 43
0.0
 43
0.0
 43
0.0208333333333333
 43
0.0
 43
0.0
 43
0.0
 43
0.0
 43
1.0
 43
0.0
 43
0.0
 43
0.0
 43
0.0
 43
1.0
 77
     0
 47
0.0208333333333333
 47
0.0
 47
0.0
 47
0.0
 47
0.0
 47
0.0208333333333333
 47
0.0
 47
0.0
 47
0.0
 47
0.0
 47
1.0
 47
0.0
 47
0.0
 47
0.0
 47
0.0
 47
1.0
171
     0
 49
0.0208333333333333
 49
0.0
 49
0.0
 49
0.0
 49
0.0
 49
0.0208333333333333
 49
0.0
 49
0.0
 49
0.0
 49
0.0
 49
1.0
 49
0.0
 49
0.0
 49
0.0
 49
0.0
 49
1.0
175
     0
142
0.0208333333333333
142
0.0
142
0.0
142
0.0
142
0.0
142
0.0208333333333333
142
0.0
142
0.0
142
0.0
142
0.0
142
1.0
142
0.0
142
0.0
142
0.0
142
0.0
142
1.0
179
     0
144
0.0208333333333333
144
0.0
144
0.0
144
0.0
144
0.0
144
0.0208333333333333
144
0.0
144
0.0
144
0.0
144
0.0
144
1.0
144
0.0
144
0.0
144
0.0
144
0.0
144
1.0
147
0.0208333333333333
147
0.0
147
0.0
147
0.0
147
0.0
147
0.0208333333333333
147
0.0
147
0.0
147
0.0
147
0.0
147
1.0
147
0.0
147
0.0
147
0.0
147
0.0
147
1.0
  0
MATERIAL
  5
9672
102
{ACAD_XDICTIONARY
360
9673
102
}
102
{ACAD_REACTORS
330
9661
102
}
330
9661
100
AcDbMaterial
  1
Global
 72
     0
 43
0.0208333333333333
 43
0.0
 43
0.0
 43
0.0
 43
0.0
 43
0.0208333333333333
 43
0.0
 43
0.0
 43
0.0
 43
0.0
 43
1.0
 43
0.0
 43
0.0
 43
0.0
 43
0.0
 43
1.0
 77
     0
 47
0.0208333333333333
 47
0.0
 47
0.0
 47
0.0
 47
0.0
 47
0.0208333333333333
 47
0.0
 47
0.0
 47
0.0
 47
0.0
 47
1.0
 47
0.0
 47
0.0
 47
0.0
 47
0.0
 47
1.0
171
     0
 49
0.0208333333333333
 49
0.0
 49
0.0
 49
0.0
 49
0.0
 49
0.0208333333333333
 49
0.0
 49
0.0
 49
0.0
 49
0.0
 49
1.0
 49
0.0
 49
0.0
 49
0.0
 49
0.0
 49
1.0
175
     0
142
0.0208333333333333
142
0.0
142
0.0
142
0.0
142
0.0
142
0.0208333333333333
142
0.0
142
0.0
142
0.0
142
0.0
142
1.0
142
0.0
142
0.0
142
0.0
142
0.0
142
1.0
179
     0
144
0.0208333333333333
144
0.0
144
0.0
144
0.0
144
0.0
144
0.0208333333333333
144
0.0
144
0.0
144
0.0
144
0.0
144
1.0
144
0.0
144
0.0
144
0.0
144
0.0
144
1.0
147
0.0208333333333333
147
0.0
147
0.0
147
0.0
147
0.0
147
0.0208333333333333
147
0.0
147
0.0
147
0.0
147
0.0
147
1.0
147
0.0
147
0.0
147
0.0
147
0.0
147
1.0
  0
MLEADERSTYLE
  5
96A9
102
{ACAD_REACTORS
330
96A8
102
}
330
96A8
100
AcDbMLeaderStyle
170
     2
171
     1
172
     0
 90
        2
 40
0.0
 41
0.0
173
     1
 91
-1056964608
340
93C1
 92
       -2
290
     1
 42
0.09
291
     1
 43
0.36
  3
Standard
 44
0.18
300

342
93BF
174
     1
178
     6
175
     1
176
     0
 93
-1056964608
 45
0.18
292
     0
297
     0
 46
0.18
 94
-1056964608
 47
1.0
 49
1.0
140
1.0
293
     1
141
0.0
294
     1
177
     0
142
1.0
295
     0
296
     0
143
0.125
1001
ACAD_MLEADERVER
1070
     2
  0
MLINESTYLE
  5
93C5
102
{ACAD_REACTORS
330
93C4
102
}
330
93C4
100
AcDbMlineStyle
  2
STANDARD
 70
     0
  3

 62
   256
 51
90.0
 52
90.0
 71
     2
 49
0.5
 62
   256
  6
BYLAYER
 49
-0.5
 62
   256
  6
BYLAYER
  0
ACDBPLACEHOLDER
  5
9660
102
{ACAD_REACTORS
330
965F
102
}
330
965F
  0
SCALE
  5
9697
102
{ACAD_REACTORS
330
9696
102
}
330
9696
100
AcDbScale
 70
     0
300
1:1
140
1.0
141
1.0
290
     1
  0
SCALE
  5
9698
102
{ACAD_REACTORS
330
9696
102
}
330
9696
100
AcDbScale
 70
     0
300
1/128" = 1'-0"
140
0.0078125
141
12.0
290
     0
  0
SCALE
  5
9699
102
{ACAD_REACTORS
330
9696
102
}
330
9696
100
AcDbScale
 70
     0
300
1/64" = 1'-0"
140
0.015625
141
12.0
290
     0
  0
SCALE
  5
969A
102
{ACAD_REACTORS
330
9696
102
}
330
9696
100
AcDbScale
 70
     0
300
1/32" = 1'-0"
140
0.03125
141
12.0
290
     0
  0
SCALE
  5
969B
102
{ACAD_REACTORS
330
9696
102
}
330
9696
100
AcDbScale
 70
     0
300
1/16" = 1'-0"
140
0.0625
141
12.0
290
     0
  0
SCALE
  5
969C
102
{ACAD_REACTORS
330
9696
102
}
330
9696
100
AcDbScale
 70
     0
300
3/32" = 1'-0"
140
0.09375
141
12.0
290
     0
  0
SCALE
  5
969D
102
{ACAD_REACTORS
330
9696
102
}
330
9696
100
AcDbScale
 70
     0
300
1/8" = 1'-0"
140
0.125
141
12.0
290
     0
  0
SCALE
  5
969E
102
{ACAD_REACTORS
330
9696
102
}
330
9696
100
AcDbScale
 70
     0
300
3/16" = 1'-0"
140
0.1875
141
12.0
290
     0
  0
SCALE
  5
969F
102
{ACAD_REACTORS
330
9696
102
}
330
9696
100
AcDbScale
 70
     0
300
1/4" = 1'-0"
140
0.25
141
12.0
290
     0
  0
SCALE
  5
96A0
102
{ACAD_REACTORS
330
9696
102
}
330
9696
100
AcDbScale
 70
     0
300
3/8" = 1'-0"
140
0.375
141
12.0
290
     0
  0
SCALE
  5
96A1
102
{ACAD_REACTORS
330
9696
102
}
330
9696
100
AcDbScale
 70
     0
300
1/2" = 1'-0"
140
0.5
141
12.0
290
     0
  0
SCALE
  5
96A2
102
{ACAD_REACTORS
330
9696
102
}
330
9696
100
AcDbScale
 70
     0
300
3/4" = 1'-0"
140
0.75
141
12.0
290
     0
  0
SCALE
  5
96A3
102
{ACAD_REACTORS
330
9696
102
}
330
9696
100
AcDbScale
 70
     0
300
1" = 1'-0"
140
1.0
141
12.0
290
     0
  0
SCALE
  5
96A4
102
{ACAD_REACTORS
330
9696
102
}
330
9696
100
AcDbScale
 70
     0
300
1-1/2" = 1'-0"
140
1.5
141
12.0
290
     0
  0
SCALE
  5
96A5
102
{ACAD_REACTORS
330
9696
102
}
330
9696
100
AcDbScale
 70
     0
300
3" = 1'-0"
140
3.0
141
12.0
290
     0
  0
SCALE
  5
96A6
102
{ACAD_REACTORS
330
9696
102
}
330
9696
100
AcDbScale
 70
     0
300
6" = 1'-0"
140
6.0
141
12.0
290
     0
  0
SCALE
  5
96A7
102
{ACAD_REACTORS
330
9696
102
}
330
9696
100
AcDbScale
 70
     0
300
1'-0" = 1'-0"
140
12.0
141
12.0
290
     0
  0
ACDBSECTIONVIEWSTYLE
  5
96AB
102
{ACAD_XDICTIONARY
360
9706
102
}
102
{ACAD_REACTORS
330
96AA
102
}
330
96AA
100
AcDbModelDocViewStyle
 70
     0
  3
Imperial24
290
     0
100
AcDbSectionViewStyle
 70
     0
 71
     0
 90
       78
 71
     1
340
93BF
 40
0.24
340
0
340
0
 40
0.24
300
I, O, Q, S, X, Z
 40
0.48
 90
        3
 40
0.18
 90
        1
 71
     2
340
93C3
 90
       25
340
93C3
 90
       50
 40
0.24
 40
0.0
 40
0.24
 71
     3
340
93BF
 40
0.24
 90
        1
 40
0.75
 90
        1
300
%<\AcVar ViewType \f "%tc1">% %<\AcVar ViewSectionStartId>%-%<\AcVar ViewSectionEndId>%\PSCALE %<\AcVar ViewScale \f "%sn">%
 71
     4
300
ANSI31
 40
1.0
 90
        0
290
     0
290
     0
 90
        6
 40
0.0
 40
1.570796326794896
 40
0.2617993877991494
 40
1.308996938995747
 40
-0.2617993877991494
 40
1.832595714594046
  0
TABLESTYLE
  5
9695
102
{ACAD_XDICTIONARY
360
96CD
102
}
102
{ACAD_REACTORS
330
9694
102
}
330
9694
100
AcDbTableStyle
  3
Standard
 70
     0
 71
     0
 40
0.06
 41
0.06
280
     0
281
     0
  7
STANDARD
140
0.18
170
     2
 62
     0
 63
     7
283
     0
274
    -2
284
     1
 64
     0
275
    -2
285
     1
 65
     0
276
    -2
286
     1
 66
     0
277
    -2
287
     1
 67
     0
278
    -2
288
     1
 68
     0
279
    -2
289
     1
 69
     0
  7
STANDARD
140
0.25
170
     5
 62
     0
 63
     7
283
     0
274
    -2
284
     1
 64
     0
275
    -2
285
     1
 65
     0
276
    -2
286
     1
 66
     0
277
    -2
287
     1
 67
     0
278
    -2
288
     1
 68
     0
279
    -2
289
     1
 69
     0
  7
STANDARD
140
0.18
170
     5
 62
     0
 63
     7
283
     0
274
    -2
284
     1
 64
     0
275
    -2
285
     1
 65
     0
276
    -2
286
     1
 66
     0
277
    -2
287
     1
 67
     0
278
    -2
288
     1
 68
     0
279
    -2
289
     1
 69
     0
  0
VISUALSTYLE
  5
9680
102
{ACAD_XDICTIONARY
360
96DE
102
}
102
{ACAD_REACTORS
330
967A
102
}
330
967A
100
AcDbVisualStyle
  2
2dWireframe
 70
     4
 71
     0
 72
     2
 73
     0
 90
        0
 40
-0.6
 41
-30.0
 62
     5
 63
     7
 74
     1
 91
        4
 64
     7
 65
   257
 75
     1
175
     1
 42
1.0
 92
        0
 66
   257
 43
1.0
 76
     1
 77
     6
 78
     2
 67
     7
 79
     5
170
     0
171
     0
290
     0
174
     0
 93
        1
 44
0.0
173
     0
291
     0
 45
0.0
1001
ACAD
1000
AcDbSavedByObjectVersion
1070
     0
  0
VISUALSTYLE
  5
967F
102
{ACAD_XDICTIONARY
360
96DC
102
}
102
{ACAD_REACTORS
330
967A
102
}
330
967A
100
AcDbVisualStyle
  2
Basic
 70
     7
 71
     1
 72
     0
 73
     1
 90
        0
 40
-0.6
 41
-30.0
 62
     5
 63
     7
 74
     0
 91
        4
 64
     7
 65
   257
 75
     1
175
     1
 42
1.0
 92
        8
 66
     7
 43
1.0
 76
     1
 77
     6
 78
     2
 67
     7
 79
     5
170
     0
171
     0
290
     0
174
     0
 93
        1
 44
0.0
173
     0
291
     1
 45
0.0
1001
ACAD
1000
AcDbSavedByObjectVersion
1070
     0
  0
VISUALSTYLE
  5
9686
102
{ACAD_XDICTIONARY
360
96EA
102
}
102
{ACAD_REACTORS
330
967A
102
}
330
967A
100
AcDbVisualStyle
  2
Brighten
 70
    12
 71
     2
 72
     2
 73
     0
 90
        0
 40
-0.6
 41
-30.0
 62
     5
 63
     7
 74
     1
 91
        4
 64
     7
 65
   257
 75
     1
175
     1
 42
1.0
 92
        8
 66
     7
 43
1.0
 76
     1
 77
     6
 78
     2
 67
     7
 79
     5
170
     0
171
     0
290
     0
174
     0
 93
        1
 44
50.0
173
     0
291
     1
 45
0.0
1001
ACAD
1000
AcDbSavedByObjectVersion
1070
     0
  0
VISUALSTYLE
  5
968A
102
{ACAD_XDICTIONARY
360
96F2
102
}
102
{ACAD_REACTORS
330
967A
102
}
330
967A
100
AcDbVisualStyle
  2
ColorChange
 70
    16
 71
     2
 72
     2
 73
     3
 90
        0
 40
-0.6
 41
-30.0
 62
     5
 63
     8
 74
     1
 91
        4
 64
     7
 65
   257
 75
     1
175
     1
 42
1.0
 92
        8
 66
     8
 43
1.0
 76
     1
 77
     6
 78
     2
 67
     7
 79
     5
170
     0
171
     0
290
     0
174
     0
 93
        1
 44
0.0
173
     0
291
     1
 45
0.0
1001
ACAD
1000
AcDbSavedByObjectVersion
1070
     0
  0
VISUALSTYLE
  5
9683
102
{ACAD_XDICTIONARY
360
96E4
102
}
102
{ACAD_REACTORS
330
967A
102
}
330
967A
100
AcDbVisualStyle
  2
Conceptual
 70
     9
 71
     3
 72
     2
 73
     0
 90
        0
 40
-0.6
 41
-30.0
 62
     5
 63
     7
 74
     2
 91
        2
 64
     7
 65
   257
 75
     1
175
     1
 42
179.0
 92
        8
 66
     7
 43
1.0
 76
     1
 77
     6
 78
     2
 67
     7
 79
     3
170
     0
171
     0
290
     0
174
     0
 93
        1
 44
0.0
173
     0
291
     0
 45
0.0
1001
ACAD
1000
AcDbSavedByObjectVersion
1070
     0
  0
VISUALSTYLE
  5
9685
102
{ACAD_XDICTIONARY
360
96E8
102
}
102
{ACAD_REACTORS
330
967A
102
}
330
967A
100
AcDbVisualStyle
  2
Dim
 70
    11
 71
     2
 72
     2
 73
     0
 90
        0
 40
-0.6
 41
-30.0
 62
     5
 63
     7
 74
     1
 91
        4
 64
     7
 65
   257
 75
     1
175
     1
 42
1.0
 92
        8
 66
     7
 43
1.0
 76
     1
 77
     6
 78
     2
 67
     7
 79
     5
170
     0
171
     0
290
     0
174
     0
 93
        1
 44
-50.0
173
     0
291
     1
 45
0.0
1001
ACAD
1000
AcDbSavedByObjectVersion
1070
     0
  0
VISUALSTYLE
  5
9692
102
{ACAD_XDICTIONARY
360
9702
102
}
102
{ACAD_REACTORS
330
967A
102
}
330
967A
100
AcDbVisualStyle
  2
EdgeColorOff
 70
    22
 71
     2
 72
     2
 73
     0
 90
        0
 40
-0.6
 41
-30.0
 62
     5
 63
     7
 74
     1
 91
        4
 64
     7
 65
   257
 75
     1
175
     1
 42
1.0
 92
        8
 66
     7
 43
1.0
 76
     1
 77
     6
 78
     2
 67
     7
 79
     5
170
     0
171
     0
290
     0
174
     0
 93
        1
 44
0.0
173
     0
291
     1
 45
0.0
1001
ACAD
1000
AcDbSavedByObjectVersion
1070
     0
  0
VISUALSTYLE
  5
9689
102
{ACAD_XDICTIONARY
360
96F0
102
}
102
{ACAD_REACTORS
330
967A
102
}
330
967A
100
AcDbVisualStyle
  2
Facepattern
 70
    15
 71
     2
 72
     2
 73
     0
 90
        0
 40
-0.6
 41
-30.0
 62
     5
 63
     7
 74
     1
 91
        4
 64
     7
 65
   257
 75
     1
175
     1
 42
1.0
 92
        8
 66
     7
 43
1.0
 76
     1
 77
     6
 78
     2
 67
     7
 79
     5
170
     0
171
     0
290
     0
174
     0
 93
        1
 44
0.0
173
     0
291
     1
 45
0.0
1001
ACAD
1000
AcDbSavedByObjectVersion
1070
     0
  0
VISUALSTYLE
  5
967B
102
{ACAD_XDICTIONARY
360
96D4
102
}
102
{ACAD_REACTORS
330
967A
102
}
330
967A
100
AcDbVisualStyle
  2
Flat
 70
     0
 71
     2
 72
     1
 73
     1
 90
        2
 40
-0.6
 41
30.0
 62
     5
 63
     7
 74
     0
 91
        0
 64
     7
 65
   257
 75
     1
175
     1
 42
1.0
 92
        8
 66
     7
 43
1.0
 76
     1
 77
     6
 78
     2
 67
     7
 79
     5
170
     0
171
     0
290
     0
174
     0
 93
       13
 44
0.0
173
     0
291
     1
 45
0.0
1001
ACAD
1000
AcDbSavedByObjectVersion
1070
     0
  0
VISUALSTYLE
  5
967C
102
{ACAD_XDICTIONARY
360
96D6
102
}
102
{ACAD_REACTORS
330
967A
102
}
330
967A
100
AcDbVisualStyle
  2
FlatWithEdges
 70
     1
 71
     2
 72
     1
 73
     1
 90
        2
 40
-0.6
 41
30.0
 62
     5
 63
     7
 74
     1
 91
        0
 64
     7
 65
   257
 75
     1
175
     1
 42
1.0
 92
        0
 66
   257
 43
1.0
 76
     1
 77
     6
 78
     2
 67
     7
 79
     5
170
     0
171
     0
290
     0
174
     0
 93
       13
 44
0.0
173
     0
291
     1
 45
0.0
1001
ACAD
1000
AcDbSavedByObjectVersion
1070
     0
  0
VISUALSTYLE
  5
967D
102
{ACAD_XDICTIONARY
360
96D8
102
}
102
{ACAD_REACTORS
330
967A
102
}
330
967A
100
AcDbVisualStyle
  2
Gouraud
 70
     2
 71
     2
 72
     2
 73
     1
 90
        2
 40
-0.6
 41
30.0
 62
     5
 63
     7
 74
     0
 91
        0
 64
     7
 65
   257
 75
     1
175
     1
 42
1.0
 92
        0
 66
     7
 43
1.0
 76
     1
 77
     6
 78
     2
 67
     7
 79
     5
170
     0
171
     0
290
     0
174
     0
 93
       13
 44
0.0
173
     0
291
     1
 45
0.0
1001
ACAD
1000
AcDbSavedByObjectVersion
1070
     0
  0
VISUALSTYLE
  5
967E
102
{ACAD_XDICTIONARY
360
96DA
102
}
102
{ACAD_REACTORS
330
967A
102
}
330
967A
100
AcDbVisualStyle
  2
GouraudWithEdges
 70
     3
 71
     2
 72
     2
 73
     1
 90
        2
 40
-0.6
 41
30.0
 62
     5
 63
     7
 74
     1
 91
        0
 64
     7
 65
   257
 75
     1
175
     1
 42
1.0
 92
        0
 66
   257
 43
1.0
 76
     1
 77
     6
 78
     2
 67
     7
 79
     5
170
     0
171
     0
290
     0
174
     0
 93
       13
 44
0.0
173
     0
291
     1
 45
0.0
1001
ACAD
1000
AcDbSavedByObjectVersion
1070
     0
  0
VISUALSTYLE
  5
9682
102
{ACAD_XDICTIONARY
360
96E2
102
}
102
{ACAD_REACTORS
330
967A
102
}
330
967A
100
AcDbVisualStyle
  2
Hidden
 70
     6
 71
     1
 72
     2
 73
     2
 90
        0
 40
-0.6
 41
-30.0
 62
     5
 63
     7
 74
     2
 91
        2
 64
     7
 65
   257
 75
     2
175
     1
 42
40.0
 92
        0
 66
   257
 43
1.0
 76
     1
 77
     6
 78
     2
 67
     7
 79
     3
170
     0
171
     0
290
     0
174
     0
 93
        1
 44
0.0
173
     0
291
     0
 45
0.0
1001
ACAD
1000
AcDbSavedByObjectVersion
1070
     0
  0
VISUALSTYLE
  5
9690
102
{ACAD_XDICTIONARY
360
96FE
102
}
102
{ACAD_REACTORS
330
967A
102
}
330
967A
100
AcDbVisualStyle
  2
JitterOff
 70
    20
 71
     2
 72
     2
 73
     0
 90
        0
 40
-0.6
 41
-30.0
 62
     5
 63
     7
 74
     1
 91
        4
 64
     7
 65
   257
 75
     1
175
     1
 42
1.0
 92
       10
 66
     7
 43
1.0
 76
     1
 77
     6
 78
     2
 67
     7
 79
     5
170
     0
171
     0
290
     0
174
     0
 93
        1
 44
0.0
173
     0
291
     1
 45
0.0
1001
ACAD
1000
AcDbSavedByObjectVersion
1070
     0
  0
VISUALSTYLE
  5
9688
102
{ACAD_XDICTIONARY
360
96EE
102
}
102
{ACAD_REACTORS
330
967A
102
}
330
967A
100
AcDbVisualStyle
  2
Linepattern
 70
    14
 71
     2
 72
     2
 73
     0
 90
        0
 40
-0.6
 41
-30.0
 62
     5
 63
     7
 74
     1
 91
        4
 64
     7
 65
   257
 75
     7
175
     7
 42
1.0
 92
        8
 66
     7
 43
1.0
 76
     1
 77
     6
 78
     2
 67
     7
 79
     5
170
     0
171
     0
290
     0
174
     0
 93
        1
 44
0.0
173
     0
291
     1
 45
0.0
1001
ACAD
1000
AcDbSavedByObjectVersion
1070
     0
  0
VISUALSTYLE
  5
9691
102
{ACAD_XDICTIONARY
360
9700
102
}
102
{ACAD_REACTORS
330
967A
102
}
330
967A
100
AcDbVisualStyle
  2
OverhangOff
 70
    21
 71
     2
 72
     2
 73
     0
 90
        0
 40
-0.6
 41
-30.0
 62
     5
 63
     7
 74
     1
 91
        4
 64
     7
 65
   257
 75
     1
175
     1
 42
1.0
 92
        9
 66
     7
 43
1.0
 76
     1
 77
     6
 78
     2
 67
     7
 79
     5
170
     0
171
     0
290
     0
174
     0
 93
        1
 44
0.0
173
     0
291
     1
 45
0.0
1001
ACAD
1000
AcDbSavedByObjectVersion
1070
     0
  0
VISUALSTYLE
  5
9684
102
{ACAD_XDICTIONARY
360
96E6
102
}
102
{ACAD_REACTORS
330
967A
102
}
330
967A
100
AcDbVisualStyle
  2
Realistic
 70
     8
 71
     2
 72
     3
 73
     0
 90
        2
 40
-0.6
 41
30.0
 62
     5
 63
     7
 74
     0
 91
        0
 64
     7
 65
   257
 75
     1
175
     1
 42
1.0
 92
        8
 66
   257
 43
1.0
 76
     1
 77
     6
 78
     2
 67
     7
 79
     3
170
     0
171
     0
290
     0
174
     0
 93
       13
 44
0.0
173
     0
291
     0
 45
0.0
1001
ACAD
1000
AcDbSavedByObjectVersion
1070
     0
  0
VISUALSTYLE
  5
968F
102
{ACAD_XDICTIONARY
360
96FC
102
}
102
{ACAD_REACTORS
330
967A
102
}
330
967A
100
AcDbVisualStyle
  2
Shaded
 70
    27
 71
     2
 72
     2
 73
     1
 90
        2
 40
-0.6
 41
30.0
 62
     5
 63
     7
 74
     0
 91
        4
 64
     7
 65
   257
 75
     1
175
     1
 42
1.0
 92
        8
 66
   257
 43
1.0
 76
     1
 77
     6
 78
     2
 67
     8
 79
     3
170
     0
171
     0
290
     0
174
     0
 93
        5
 44
0.0
173
     0
291
     0
 45
0.0
1001
ACAD
1000
AcDbSavedByObjectVersion
1070
     0
  0
VISUALSTYLE
  5
968E
102
{ACAD_XDICTIONARY
360
96FA
102
}
102
{ACAD_REACTORS
330
967A
102
}
330
967A
100
AcDbVisualStyle
  2
Shaded with edges
 70
    26
 71
     2
 72
     2
 73
     1
 90
        2
 40
-0.6
 41
30.0
 62
     5
 63
     7
 74
     1
 91
       10
 64
     7
 65
   257
 75
     2
175
     1
 42
1.0
 92
        8
 66
   257
 43
1.0
 76
     1
 77
     6
 78
     2
 67
     7
 79
     3
170
     0
171
     0
290
     0
174
     0
 93
        5
 44
0.0
173
     0
291
     0
 45
0.0
1001
ACAD
1000
AcDbSavedByObjectVersion
1070
     0
  0
VISUALSTYLE
  5
968B
102
{ACAD_XDICTIONARY
360
96F4
102
}
102
{ACAD_REACTORS
330
967A
102
}
330
967A
100
AcDbVisualStyle
  2
Shades of Gray
 70
    23
 71
     2
 72
     2
 73
     3
 90
        0
 40
-0.6
 41
-30.0
 62
     5
 63
     7
 74
     2
 91
        2
 64
     7
 65
     7
 75
     1
175
     1
 42
40.0
 92
        8
 66
     7
 43
1.0
 76
     1
 77
     6
 78
     2
 67
     7
 79
     3
170
     0
171
     0
290
     0
174
     0
 93
        1
 44
0.0
173
     0
291
     0
 45
0.0
1001
ACAD
1000
AcDbSavedByObjectVersion
1070
     0
  0
VISUALSTYLE
  5
968C
102
{ACAD_XDICTIONARY
360
96F6
102
}
102
{ACAD_REACTORS
330
967A
102
}
330
967A
100
AcDbVisualStyle
  2
Sketchy
 70
    24
 71
     1
 72
     2
 73
     2
 90
        0
 40
-0.6
 41
-30.0
 62
     5
 63
     7
 74
     2
 91
        2
 64
     7
 65
     7
 75
     1
175
     1
 42
40.0
 92
       11
 66
     7
 43
1.0
 76
     1
 77
     6
 78
     2
 67
     7
 79
     6
170
     0
171
     0
290
     0
174
     0
 93
        1
 44
0.0
173
     0
291
     0
 45
0.0
1001
ACAD
1000
AcDbSavedByObjectVersion
1070
     0
  0
VISUALSTYLE
  5
9687
102
{ACAD_XDICTIONARY
360
96EC
102
}
102
{ACAD_REACTORS
330
967A
102
}
330
967A
100
AcDbVisualStyle
  2
Thicken
 70
    13
 71
     2
 72
     2
 73
     0
 90
        0
 40
-0.6
 41
-30.0
 62
     5
 63
     7
 74
     1
 91
        4
 64
     7
 65
   257
 75
     1
175
     1
 42
1.0
 92
       12
 66
     7
 43
1.0
 76
     1
 77
     6
 78
     2
 67
     7
 79
     5
170
     0
171
     0
290
     0
174
     0
 93
        1
 44
0.0
173
     0
291
     1
 45
0.0
1001
ACAD
1000
AcDbSavedByObjectVersion
1070
     0
  0
VISUALSTYLE
  5
9681
102
{ACAD_XDICTIONARY
360
96E0
102
}
102
{ACAD_REACTORS
330
967A
102
}
330
967A
100
AcDbVisualStyle
  2
Wireframe
 70
     5
 71
     0
 72
     2
 73
     0
 90
        0
 40
-0.6
 41
-30.0
 62
     5
 63
     7
 74
     1
 91
        4
 64
     7
 65
   257
 75
     1
175
     1
 42
1.0
 92
        0
 66
   257
 43
1.0
 76
     1
 77
     6
 78
     2
 67
     7
 79
     3
170
     0
171
     0
290
     0
174
     0
 93
        1
 44
0.0
173
     0
291
     0
 45
0.0
1001
ACAD
1000
AcDbSavedByObjectVersion
1070
     0
  0
VISUALSTYLE
  5
968D
102
{ACAD_XDICTIONARY
360
96F8
102
}
102
{ACAD_REACTORS
330
967A
102
}
330
967A
100
AcDbVisualStyle
  2
X-Ray
 70
    25
 71
     2
 72
     2
 73
     1
 90
        1
 40
0.5
 41
-30.0
 62
     5
 63
     7
 74
     1
 91
        0
 64
     7
 65
   257
 75
     1
175
     1
 42
1.0
 92
        8
 66
     7
 43
1.0
 76
     1
 77
     6
 78
     2
 67
     7
 79
     3
170
     0
171
     0
290
     0
174
     0
 93
       13
 44
0.0
173
     0
291
     0
 45
0.0
1001
ACAD
1000
AcDbSavedByObjectVersion
1070
     0
  0
DICTIONARYVAR
  5
96C7
102
{ACAD_REACTORS
330
96C2
102
}
330
96C2
100
DictionaryVariables
280
     0
  1
1:1
  0
DICTIONARYVAR
  5
96C4
102
{ACAD_REACTORS
330
96C2
102
}
330
96C2
100
DictionaryVariables
280
     0
  1
STANDARD
  0
DICTIONARYVAR
  5
96C3
102
{ACAD_REACTORS
330
96C2
102
}
330
96C2
100
DictionaryVariables
280
     0
  1
STANDARD
  0
DICTIONARYVAR
  5
96C5
102
{ACAD_REACTORS
330
96C2
102
}
330
96C2
100
DictionaryVariables
280
     0
  1
Imperial24
  0
DICTIONARYVAR
  5
96C6
102
{ACAD_REACTORS
330
96C2
102
}
330
96C2
100
DictionaryVariables
280
     0
  1
Imperial24
  0
DICTIONARYVAR
  5
96CA
102
{ACAD_REACTORS
330
96C2
102
}
330
96C2
100
DictionaryVariables
280
     0
  1
1
  0
DICTIONARYVAR
  5
96C9
102
{ACAD_REACTORS
330
96C2
102
}
330
96C2
100
DictionaryVariables
280
     0
  1
0
  0
DICTIONARYVAR
  5
96C8
102
{ACAD_REACTORS
330
96C2
102
}
330
96C2
100
DictionaryVariables
280
     0
  1
127
  0
DICTIONARYVAR
  5
96CB
102
{ACAD_REACTORS
330
96C2
102
}
330
96C2
100
DictionaryVariables
280
     0
  1
2
  0
DICTIONARY
  5
9708
330
96AD
100
AcDbDictionary
280
     1
281
     1
  3
ACAD_XREC_ROUNDTRIP
360
9709
  0
DICTIONARY
  5
970A
330
96AE
100
AcDbDictionary
280
     1
281
     1
  3
ACAD_XREC_ROUNDTRIP
360
970B
  0
DICTIONARY
  5
970C
330
96AF
100
AcDbDictionary
280
     1
281
     1
  3
ACAD_XREC_ROUNDTRIP
360
970D
  0
DICTIONARY
  5
966B
330
966A
100
AcDbDictionary
280
     1
281
     1
  3
ACAD_XREC_ROUNDTRIP
360
96D2
  3
BUMPTILE
360
966D
  3
DIFFUSETILE
360
966C
  3
OPACITYTILE
360
9670
  3
REFLECTIONTILE
360
966F
  3
REFRACTIONTILE
360
9671
  3
SPECULARTILE
360
966E
  0
DICTIONARY
  5
9663
330
9662
100
AcDbDictionary
280
     1
281
     1
  3
ACAD_XREC_ROUNDTRIP
360
96D1
  3
BUMPTILE
360
9665
  3
DIFFUSETILE
360
9664
  3
OPACITYTILE
360
9668
  3
REFLECTIONTILE
360
9667
  3
REFRACTIONTILE
360
9669
  3
SPECULARTILE
360
9666
  0
DICTIONARY
  5
9673
330
9672
100
AcDbDictionary
280
     1
281
     1
  3
ACAD_XREC_ROUNDTRIP
360
96D3
  3
BUMPTILE
360
9675
  3
DIFFUSETILE
360
9674
  3
OPACITYTILE
360
9678
  3
REFLECTIONTILE
360
9677
  3
REFRACTIONTILE
360
9679
  3
SPECULARTILE
360
9676
  0
DICTIONARY
  5
9706
330
96AB
100
AcDbDictionary
280
     1
281
     1
  3
ACAD_XREC_ROUNDTRIP
360
9707
  0
DICTIONARY
  5
96CD
330
9695
100
AcDbDictionary
280
     1
281
     1
  3
ACAD_ROUNDTRIP_2008_TABLESTYLE_CELLSTYLEMAP
360
96CE
  3
ACAD_XREC_ROUNDTRIP
360
9704
  0
DICTIONARY
  5
96DE
330
9680
100
AcDbDictionary
280
     1
281
     1
  3
ACAD_XREC_ROUNDTRIP
360
96DF
  0
DICTIONARY
  5
96DC
330
967F
100
AcDbDictionary
280
     1
281
     1
  3
ACAD_XREC_ROUNDTRIP
360
96DD
  0
DICTIONARY
  5
96EA
330
9686
100
AcDbDictionary
280
     1
281
     1
  3
ACAD_XREC_ROUNDTRIP
360
96EB
  0
DICTIONARY
  5
96F2
330
968A
100
AcDbDictionary
280
     1
281
     1
  3
ACAD_XREC_ROUNDTRIP
360
96F3
  0
DICTIONARY
  5
96E4
330
9683
100
AcDbDictionary
280
     1
281
     1
  3
ACAD_XREC_ROUNDTRIP
360
96E5
  0
DICTIONARY
  5
96E8
330
9685
100
AcDbDictionary
280
     1
281
     1
  3
ACAD_XREC_ROUNDTRIP
360
96E9
  0
DICTIONARY
  5
9702
330
9692
100
AcDbDictionary
280
     1
281
     1
  3
ACAD_XREC_ROUNDTRIP
360
9703
  0
DICTIONARY
  5
96F0
330
9689
100
AcDbDictionary
280
     1
281
     1
  3
ACAD_XREC_ROUNDTRIP
360
96F1
  0
DICTIONARY
  5
96D4
330
967B
100
AcDbDictionary
280
     1
281
     1
  3
ACAD_XREC_ROUNDTRIP
360
96D5
  0
DICTIONARY
  5
96D6
330
967C
100
AcDbDictionary
280
     1
281
     1
  3
ACAD_XREC_ROUNDTRIP
360
96D7
  0
DICTIONARY
  5
96D8
330
967D
100
AcDbDictionary
280
     1
281
     1
  3
ACAD_XREC_ROUNDTRIP
360
96D9
  0
DICTIONARY
  5
96DA
330
967E
100
AcDbDictionary
280
     1
281
     1
  3
ACAD_XREC_ROUNDTRIP
360
96DB
  0
DICTIONARY
  5
96E2
330
9682
100
AcDbDictionary
280
     1
281
     1
  3
ACAD_XREC_ROUNDTRIP
360
96E3
  0
DICTIONARY
  5
96FE
330
9690
100
AcDbDictionary
280
     1
281
     1
  3
ACAD_XREC_ROUNDTRIP
360
96FF
  0
DICTIONARY
  5
96EE
330
9688
100
AcDbDictionary
280
     1
281
     1
  3
ACAD_XREC_ROUNDTRIP
360
96EF
  0
DICTIONARY
  5
9700
330
9691
100
AcDbDictionary
280
     1
281
     1
  3
ACAD_XREC_ROUNDTRIP
360
9701
  0
DICTIONARY
  5
96E6
330
9684
100
AcDbDictionary
280
     1
281
     1
  3
ACAD_XREC_ROUNDTRIP
360
96E7
  0
DICTIONARY
  5
96FC
330
968F
100
AcDbDictionary
280
     1
281
     1
  3
ACAD_XREC_ROUNDTRIP
360
96FD
  0
DICTIONARY
  5
96FA
330
968E
100
AcDbDictionary
280
     1
281
     1
  3
ACAD_XREC_ROUNDTRIP
360
96FB
  0
DICTIONARY
  5
96F4
330
968B
100
AcDbDictionary
280
     1
281
     1
  3
ACAD_XREC_ROUNDTRIP
360
96F5
  0
DICTIONARY
  5
96F6
330
968C
100
AcDbDictionary
280
     1
281
     1
  3
ACAD_XREC_ROUNDTRIP
360
96F7
  0
DICTIONARY
  5
96EC
330
9687
100
AcDbDictionary
280
     1
281
     1
  3
ACAD_XREC_ROUNDTRIP
360
96ED
  0
DICTIONARY
  5
96E0
330
9681
100
AcDbDictionary
280
     1
281
     1
  3
ACAD_XREC_ROUNDTRIP
360
96E1
  0
DICTIONARY
  5
96F8
330
968D
100
AcDbDictionary
280
     1
281
     1
  3
ACAD_XREC_ROUNDTRIP
360
96F9
  0
XRECORD
  5
9709
102
{ACAD_REACTORS
330
9708
102
}
330
9708
100
AcDbXrecord
280
     1
102
DISPLAYNAME
  1
Imperial24
102
FLAGS
 90
        0
  0
XRECORD
  5
970B
102
{ACAD_REACTORS
330
970A
102
}
330
970A
100
AcDbXrecord
280
     1
102
SHADEPLOT
 70
     0
102
SHADEPLOTRESLEVEL
 70
     2
102
SHADEPLOTCUSTOMDPI
 70
   300
  0
XRECORD
  5
970D
102
{ACAD_REACTORS
330
970C
102
}
330
970C
100
AcDbXrecord
280
     1
102
SHADEPLOT
 70
     0
102
SHADEPLOTRESLEVEL
 70
     2
102
SHADEPLOTCUSTOMDPI
 70
   300
  0
XRECORD
  5
96D2
102
{ACAD_REACTORS
330
966B
102
}
330
966B
100
AcDbXrecord
280
     1
102
MATERIAL
148
0.0
149
0.0
149
0.0
 93
        0
 94
      127
282
     0
 72
     0
 77
     0
171
     0
175
     0
179
     0
273
     0
  0
XRECORD
  5
966D
102
{ACAD_REACTORS
330
966B
102
}
330
966B
100
AcDbXrecord
280
     1
270
     1
271
     1
  0
XRECORD
  5
966C
102
{ACAD_REACTORS
330
966B
102
}
330
966B
100
AcDbXrecord
280
     1
270
     1
271
     1
  0
XRECORD
  5
9670
102
{ACAD_REACTORS
330
966B
102
}
330
966B
100
AcDbXrecord
280
     1
270
     1
271
     1
  0
XRECORD
  5
966F
102
{ACAD_REACTORS
330
966B
102
}
330
966B
100
AcDbXrecord
280
     1
270
     1
271
     1
  0
XRECORD
  5
9671
102
{ACAD_REACTORS
330
966B
102
}
330
966B
100
AcDbXrecord
280
     1
270
     1
271
     1
  0
XRECORD
  5
966E
102
{ACAD_REACTORS
330
966B
102
}
330
966B
100
AcDbXrecord
280
     1
270
     1
271
     1
  0
XRECORD
  5
96D1
102
{ACAD_REACTORS
330
9663
102
}
330
9663
100
AcDbXrecord
280
     1
102
MATERIAL
148
0.0
149
0.0
149
0.0
 93
        0
 94
      127
282
     0
 72
     0
 77
     0
171
     0
175
     0
179
     0
273
     0
  0
XRECORD
  5
9665
102
{ACAD_REACTORS
330
9663
102
}
330
9663
100
AcDbXrecord
280
     1
270
     1
271
     1
  0
XRECORD
  5
9664
102
{ACAD_REACTORS
330
9663
102
}
330
9663
100
AcDbXrecord
280
     1
270
     1
271
     1
  0
XRECORD
  5
9668
102
{ACAD_REACTORS
330
9663
102
}
330
9663
100
AcDbXrecord
280
     1
270
     1
271
     1
  0
XRECORD
  5
9667
102
{ACAD_REACTORS
330
9663
102
}
330
9663
100
AcDbXrecord
280
     1
270
     1
271
     1
  0
XRECORD
  5
9669
102
{ACAD_REACTORS
330
9663
102
}
330
9663
100
AcDbXrecord
280
     1
270
     1
271
     1
  0
XRECORD
  5
9666
102
{ACAD_REACTORS
330
9663
102
}
330
9663
100
AcDbXrecord
280
     1
270
     1
271
     1
  0
XRECORD
  5
96D3
102
{ACAD_REACTORS
330
9673
102
}
330
9673
100
AcDbXrecord
280
     1
102
MATERIAL
148
0.0
149
0.0
149
0.0
 93
        0
 94
      127
282
     0
 72
     0
 77
     0
171
     0
175
     0
179
     0
273
     0
  0
XRECORD
  5
9675
102
{ACAD_REACTORS
330
9673
102
}
330
9673
100
AcDbXrecord
280
     1
270
     1
271
     1
  0
XRECORD
  5
9674
102
{ACAD_REACTORS
330
9673
102
}
330
9673
100
AcDbXrecord
280
     1
270
     1
271
     1
  0
XRECORD
  5
9678
102
{ACAD_REACTORS
330
9673
102
}
330
9673
100
AcDbXrecord
280
     1
270
     1
271
     1
  0
XRECORD
  5
9677
102
{ACAD_REACTORS
330
9673
102
}
330
9673
100
AcDbXrecord
280
     1
270
     1
271
     1
  0
XRECORD
  5
9679
102
{ACAD_REACTORS
330
9673
102
}
330
9673
100
AcDbXrecord
280
     1
270
     1
271
     1
  0
XRECORD
  5
9676
102
{ACAD_REACTORS
330
9673
102
}
330
9673
100
AcDbXrecord
280
     1
270
     1
271
     1
  0
XRECORD
  5
9707
102
{ACAD_REACTORS
330
9706
102
}
330
9706
100
AcDbXrecord
280
     1
102
DISPLAYNAME
  1
Imperial24
102
FLAGS
 90
        0
  0
CELLSTYLEMAP
  5
96CE
102
{ACAD_REACTORS
330
96CD
102
}
330
96CD
100
AcDbCellStyleMap
 90
        3
300
CELLSTYLE
  1
TABLEFORMAT_BEGIN
 90
        5
170
     1
 91
        0
 92
    32768
 62
   257
 93
        1
300
CONTENTFORMAT
  1
CONTENTFORMAT_BEGIN
 90
        0
 91
        0
 92
      512
 93
        0
300

 40
0.0
140
1.0
 94
        5
 62
     0
340
93BF
144
0.25
309
CONTENTFORMAT_END
171
     0
 94
        0
309
TABLEFORMAT_END
  1
CELLSTYLE_BEGIN
 90
        1
 91
        1
300
_TITLE
309
CELLSTYLE_END
300
CELLSTYLE
  1
TABLEFORMAT_BEGIN
 90
        5
170
     1
 91
        0
 92
        0
 62
   257
 93
        1
300
CONTENTFORMAT
  1
CONTENTFORMAT_BEGIN
 90
        0
 91
        0
 92
      512
 93
        0
300

 40
0.0
140
1.0
 94
        5
 62
     0
340
93BF
144
0.18
309
CONTENTFORMAT_END
171
     0
 94
        0
309
TABLEFORMAT_END
  1
CELLSTYLE_BEGIN
 90
        2
 91
        1
300
_HEADER
309
CELLSTYLE_END
300
CELLSTYLE
  1
TABLEFORMAT_BEGIN
 90
        5
170
     1
 91
        0
 92
        0
 62
   257
 93
        1
300
CONTENTFORMAT
  1
CONTENTFORMAT_BEGIN
 90
        0
 91
        0
 92
      512
 93
        0
300

 40
0.0
140
1.0
 94
        2
 62
     0
340
93BF
144
0.18
309
CONTENTFORMAT_END
171
     0
 94
        0
309
TABLEFORMAT_END
  1
CELLSTYLE_BEGIN
 90
        3
 91
        2
300
_DATA
309
CELLSTYLE_END
  0
XRECORD
  5
9704
102
{ACAD_REACTORS
330
96CD
102
}
330
96CD
100
AcDbXrecord
280
     1
102
ACAD_ROUNDTRIP_PRE2007_TABLESTYLE
 90
      512
 91
        0
  1

 92
      512
 93
        0
  2

 94
      512
 95
        0
  3

  0
XRECORD
  5
96DF
102
{ACAD_REACTORS
330
96DE
102
}
330
96DE
100
AcDbXrecord
280
     1
102
RTVSPost2010Prop28
280
     1
102
RTVSPost2010PropOp28
 70
     1
102
RTVSPost2010Prop29
280
     1
102
RTVSPost2010PropOp29
 70
     1
102
RTVSPost2010Prop30
280
     0
102
RTVSPost2010PropOp30
 70
     1
102
RTVSPost2010Prop31
280
     0
102
RTVSPost2010PropOp31
 70
     1
102
RTVSPost2010Prop32
280
     0
102
RTVSPost2010PropOp32
 70
     1
102
RTVSPost2010Prop33
280
     0
102
RTVSPost2010PropOp33
 70
     1
102
RTVSPost2010Prop34
280
     0
102
RTVSPost2010PropOp34
 70
     1
102
RTVSPost2010Prop35
280
     0
102
RTVSPost2010PropOp35
 70
     1
102
RTVSPost2010Prop36
280
     0
102
RTVSPost2010PropOp36
 70
     1
102
RTVSPost2010Prop37
 90
       50
102
RTVSPost2010PropOp37
 70
     1
102
RTVSPost2010Prop38
140
0.0
102
RTVSPost2010PropOp38
 70
     1
102
RTVSPost2010Prop39
140
1.0
102
RTVSPost2010PropOp39
 70
     1
102
RTVSPost2010Prop40
 90
        0
102
RTVSPost2010PropOp40
 70
     1
102
RTVSPost2010Prop41ColorIndex
 90
       18
102
RTVSPost2010Prop41ColorRGB
 90
        0
102
RTVSPost2010PropOp41
 70
     1
102
RTVSPost2010Prop42
 90
       50
102
RTVSPost2010PropOp42
 70
     1
102
RTVSPost2010Prop43
 90
        3
102
RTVSPost2010PropOp43
 70
     1
102
RTVSPost2010Prop44ColorIndex
 90
        5
102
RTVSPost2010Prop44ColorRGB
 90
      255
102
RTVSPost2010PropOp44
 70
     1
102
RTVSPost2010Prop45
280
     0
102
RTVSPost2010PropOp45
 70
     1
102
RTVSPost2010Prop46
 90
       50
102
RTVSPost2010PropOp46
 70
     1
102
RTVSPost2010Prop47
 90
       50
102
RTVSPost2010PropOp47
 70
     1
102
RTVSPost2010Prop48
 90
       50
102
RTVSPost2010PropOp48
 70
     1
102
RTVSPost2010Prop49
280
     0
102
RTVSPost2010PropOp49
 70
     1
102
RTVSPost2010Prop50
 90
       50
102
RTVSPost2010PropOp50
 70
     1
102
RTVSPost2010Prop51ColorIndex
 90
      256
102
RTVSPost2010Prop51ColorRGB
 90
-16777216
102
RTVSPost2010PropOp51
 70
     0
102
RTVSPost2010Prop52
140
1.0
102
RTVSPost2010PropOp52
 70
     0
102
RTVSPost2010Prop53
 90
        2
102
RTVSPost2010PropOp53
 70
     1
102
RTVSPost2010Prop54
  1
strokes_ogs.tif
102
RTVSPost2010PropOp54
 70
     1
102
RTVSPost2010Prop55
280
     0
102
RTVSPost2010PropOp55
 70
     1
102
RTVSPost2010Prop56
140
1.0
102
RTVSPost2010PropOp56
 70
     1
102
RTVSPost2010Prop57
140
1.0
102
RTVSPost2010PropOp57
 70
     1
102
RTVSPropertyOp0
 70
     1
102
RTVSPropertyOp1
 70
     1
102
RTVSPropertyOp2
 70
     1
102
RTVSPropertyOp3
 70
     1
102
RTVSPropertyOp4
 70
     1
102
RTVSPropertyOp5
 70
     1
102
RTVSPropertyOp6
 70
     1
102
RTVSPropertyOp7
 70
     1
102
RTVSPropertyOp8
 70
     1
102
RTVSPropertyOp9
 70
     1
102
RTVSPropertyOp10
 70
     1
102
RTVSPropertyOp11
 70
     1
102
RTVSPropertyOp12
 70
     1
102
RTVSPropertyOp13
 70
     1
102
RTVSPropertyOp14
 70
     1
102
RTVSPropertyOp15
 70
     1
102
RTVSPropertyOp16
 70
     1
102
RTVSPropertyOp17
 70
     1
102
RTVSPropertyOp18
 70
     1
102
RTVSPropertyOp19
 70
     1
102
RTVSPropertyOp20
 70
     1
102
RTVSPropertyOp21
 70
     1
102
RTVSPropertyOp22
 70
     1
102
RTVSPropertyOp23
 70
     1
102
RTVSPropertyOp24
 70
     1
102
RTVSPropertyOp25
 70
     1
102
RTVSPropertyOp26
 70
     1
102
RTVSPropertyOp27
 70
     1
102
RTVSPropertyOp28
 70
     1
102
RTVSPropertyOp29
 70
     1
102
RTVSPropertyOp30
 70
     1
102
RTVSPropertyOp31
 70
     1
102
RTVSPropertyOp32
 70
     1
102
RTVSPropertyOp33
 70
     1
102
RTVSPropertyOp34
 70
     1
102
RTVSPropertyOp35
 70
     1
102
RTVSPropertyOp36
 70
     1
102
RTVSPropertyOp37
 70
     1
102
RTVSPropertyOp38
 70
     1
102
RTVSPropertyOp39
 70
     1
102
RTVSPropertyOp40
 70
     1
102
RTVSPropertyOp41
 70
     1
102
RTVSPropertyOp42
 70
     1
102
RTVSPropertyOp43
 70
     1
102
RTVSPropertyOp44
 70
     1
102
RTVSPropertyOp45
 70
     1
102
RTVSPropertyOp46
 70
     1
102
RTVSPropertyOp47
 70
     1
102
RTVSPropertyOp48
 70
     1
102
RTVSPropertyOp49
 70
     1
102
RTVSPropertyOp50
 70
     1
102
RTVSPropertyOp51
 70
     0
102
RTVSPropertyOp52
 70
     0
102
RTVSPropertyOp53
 70
     1
102
RTVSPropertyOp54
 70
     1
102
RTVSPropertyOp55
 70
     1
102
RTVSPropertyOp56
 70
     1
102
RTVSPropertyOp57
 70
     1
102
RTVSPropertyOp58
 70
     1
102
RTVSPropertyOp59
 70
     1
102
RTVSPropertyOp60
 70
     1
102
RTVSPropertyOp61
 70
     1
102
RTVSPropertyOp62
 70
     1
  0
XRECORD
  5
96DD
102
{ACAD_REACTORS
330
96DC
102
}
330
96DC
100
AcDbXrecord
280
     1
102
RTVSPost2010Prop28
280
     0
102
RTVSPost2010PropOp28
 70
     1
102
RTVSPost2010Prop29
280
     1
102
RTVSPost2010PropOp29
 70
     1
102
RTVSPost2010Prop30
280
     1
102
RTVSPost2010PropOp30
 70
     1
102
RTVSPost2010Prop31
280
     0
102
RTVSPost2010PropOp31
 70
     1
102
RTVSPost2010Prop32
280
     0
102
RTVSPost2010PropOp32
 70
     1
102
RTVSPost2010Prop33
280
     0
102
RTVSPost2010PropOp33
 70
     1
102
RTVSPost2010Prop34
280
     0
102
RTVSPost2010PropOp34
 70
     1
102
RTVSPost2010Prop35
280
     0
102
RTVSPost2010PropOp35
 70
     1
102
RTVSPost2010Prop36
280
     0
102
RTVSPost2010PropOp36
 70
     1
102
RTVSPost2010Prop37
 90
       50
102
RTVSPost2010PropOp37
 70
     1
102
RTVSPost2010Prop38
140
0.0
102
RTVSPost2010PropOp38
 70
     1
102
RTVSPost2010Prop39
140
1.0
102
RTVSPost2010PropOp39
 70
     1
102
RTVSPost2010Prop40
 90
        0
102
RTVSPost2010PropOp40
 70
     1
102
RTVSPost2010Prop41ColorIndex
 90
       18
102
RTVSPost2010Prop41ColorRGB
 90
        0
102
RTVSPost2010PropOp41
 70
     1
102
RTVSPost2010Prop42
 90
       50
102
RTVSPost2010PropOp42
 70
     1
102
RTVSPost2010Prop43
 90
        3
102
RTVSPost2010PropOp43
 70
     1
102
RTVSPost2010Prop44ColorIndex
 90
        5
102
RTVSPost2010Prop44ColorRGB
 90
      255
102
RTVSPost2010PropOp44
 70
     1
102
RTVSPost2010Prop45
280
     0
102
RTVSPost2010PropOp45
 70
     1
102
RTVSPost2010Prop46
 90
       50
102
RTVSPost2010PropOp46
 70
     1
102
RTVSPost2010Prop47
 90
       50
102
RTVSPost2010PropOp47
 70
     1
102
RTVSPost2010Prop48
 90
       50
102
RTVSPost2010PropOp48
 70
     1
102
RTVSPost2010Prop49
280
     0
102
RTVSPost2010PropOp49
 70
     1
102
RTVSPost2010Prop50
 90
       50
102
RTVSPost2010PropOp50
 70
     1
102
RTVSPost2010Prop51ColorIndex
 90
      256
102
RTVSPost2010Prop51ColorRGB
 90
-16777216
102
RTVSPost2010PropOp51
 70
     0
102
RTVSPost2010Prop52
140
1.0
102
RTVSPost2010PropOp52
 70
     0
102
RTVSPost2010Prop53
 90
        2
102
RTVSPost2010PropOp53
 70
     1
102
RTVSPost2010Prop54
  1
strokes_ogs.tif
102
RTVSPost2010PropOp54
 70
     1
102
RTVSPost2010Prop55
280
     0
102
RTVSPost2010PropOp55
 70
     1
102
RTVSPost2010Prop56
140
1.0
102
RTVSPost2010PropOp56
 70
     1
102
RTVSPost2010Prop57
140
1.0
102
RTVSPost2010PropOp57
 70
     1
102
RTVSPropertyOp0
 70
     1
102
RTVSPropertyOp1
 70
     1
102
RTVSPropertyOp2
 70
     1
102
RTVSPropertyOp3
 70
     1
102
RTVSPropertyOp4
 70
     1
102
RTVSPropertyOp5
 70
     1
102
RTVSPropertyOp6
 70
     1
102
RTVSPropertyOp7
 70
     1
102
RTVSPropertyOp8
 70
     1
102
RTVSPropertyOp9
 70
     1
102
RTVSPropertyOp10
 70
     1
102
RTVSPropertyOp11
 70
     1
102
RTVSPropertyOp12
 70
     1
102
RTVSPropertyOp13
 70
     1
102
RTVSPropertyOp14
 70
     1
102
RTVSPropertyOp15
 70
     1
102
RTVSPropertyOp16
 70
     1
102
RTVSPropertyOp17
 70
     1
102
RTVSPropertyOp18
 70
     1
102
RTVSPropertyOp19
 70
     1
102
RTVSPropertyOp20
 70
     1
102
RTVSPropertyOp21
 70
     1
102
RTVSPropertyOp22
 70
     1
102
RTVSPropertyOp23
 70
     1
102
RTVSPropertyOp24
 70
     1
102
RTVSPropertyOp25
 70
     1
102
RTVSPropertyOp26
 70
     1
102
RTVSPropertyOp27
 70
     1
102
RTVSPropertyOp28
 70
     1
102
RTVSPropertyOp29
 70
     1
102
RTVSPropertyOp30
 70
     1
102
RTVSPropertyOp31
 70
     1
102
RTVSPropertyOp32
 70
     1
102
RTVSPropertyOp33
 70
     1
102
RTVSPropertyOp34
 70
     1
102
RTVSPropertyOp35
 70
     1
102
RTVSPropertyOp36
 70
     1
102
RTVSPropertyOp37
 70
     1
102
RTVSPropertyOp38
 70
     1
102
RTVSPropertyOp39
 70
     1
102
RTVSPropertyOp40
 70
     1
102
RTVSPropertyOp41
 70
     1
102
RTVSPropertyOp42
 70
     1
102
RTVSPropertyOp43
 70
     1
102
RTVSPropertyOp44
 70
     1
102
RTVSPropertyOp45
 70
     1
102
RTVSPropertyOp46
 70
     1
102
RTVSPropertyOp47
 70
     1
102
RTVSPropertyOp48
 70
     1
102
RTVSPropertyOp49
 70
     1
102
RTVSPropertyOp50
 70
     1
102
RTVSPropertyOp51
 70
     0
102
RTVSPropertyOp52
 70
     0
102
RTVSPropertyOp53
 70
     1
102
RTVSPropertyOp54
 70
     1
102
RTVSPropertyOp55
 70
     1
102
RTVSPropertyOp56
 70
     1
102
RTVSPropertyOp57
 70
     1
102
RTVSPropertyOp58
 70
     1
102
RTVSPropertyOp59
 70
     1
102
RTVSPropertyOp60
 70
     1
102
RTVSPropertyOp61
 70
     1
102
RTVSPropertyOp62
 70
     1
  0
XRECORD
  5
96EB
102
{ACAD_REACTORS
330
96EA
102
}
330
96EA
100
AcDbXrecord
280
     1
102
RTVSPost2010Prop28
280
     0
102
RTVSPost2010PropOp28
 70
     1
102
RTVSPost2010Prop29
280
     1
102
RTVSPost2010PropOp29
 70
     1
102
RTVSPost2010Prop30
280
     1
102
RTVSPost2010PropOp30
 70
     1
102
RTVSPost2010Prop31
280
     0
102
RTVSPost2010PropOp31
 70
     1
102
RTVSPost2010Prop32
280
     0
102
RTVSPost2010PropOp32
 70
     1
102
RTVSPost2010Prop33
280
     0
102
RTVSPost2010PropOp33
 70
     1
102
RTVSPost2010Prop34
280
     0
102
RTVSPost2010PropOp34
 70
     1
102
RTVSPost2010Prop35
280
     0
102
RTVSPost2010PropOp35
 70
     1
102
RTVSPost2010Prop36
280
     0
102
RTVSPost2010PropOp36
 70
     1
102
RTVSPost2010Prop37
 90
       50
102
RTVSPost2010PropOp37
 70
     1
102
RTVSPost2010Prop38
140
0.0
102
RTVSPost2010PropOp38
 70
     1
102
RTVSPost2010Prop39
140
1.0
102
RTVSPost2010PropOp39
 70
     1
102
RTVSPost2010Prop40
 90
        0
102
RTVSPost2010PropOp40
 70
     1
102
RTVSPost2010Prop41ColorIndex
 90
       18
102
RTVSPost2010Prop41ColorRGB
 90
        0
102
RTVSPost2010PropOp41
 70
     1
102
RTVSPost2010Prop42
 90
       50
102
RTVSPost2010PropOp42
 70
     1
102
RTVSPost2010Prop43
 90
        3
102
RTVSPost2010PropOp43
 70
     1
102
RTVSPost2010Prop44ColorIndex
 90
        5
102
RTVSPost2010Prop44ColorRGB
 90
      255
102
RTVSPost2010PropOp44
 70
     1
102
RTVSPost2010Prop45
280
     0
102
RTVSPost2010PropOp45
 70
     1
102
RTVSPost2010Prop46
 90
       50
102
RTVSPost2010PropOp46
 70
     1
102
RTVSPost2010Prop47
 90
       50
102
RTVSPost2010PropOp47
 70
     1
102
RTVSPost2010Prop48
 90
       50
102
RTVSPost2010PropOp48
 70
     1
102
RTVSPost2010Prop49
280
     0
102
RTVSPost2010PropOp49
 70
     1
102
RTVSPost2010Prop50
 90
       50
102
RTVSPost2010PropOp50
 70
     1
102
RTVSPost2010Prop51ColorIndex
 90
      256
102
RTVSPost2010Prop51ColorRGB
 90
-16777216
102
RTVSPost2010PropOp51
 70
     0
102
RTVSPost2010Prop52
140
1.0
102
RTVSPost2010PropOp52
 70
     0
102
RTVSPost2010Prop53
 90
        2
102
RTVSPost2010PropOp53
 70
     1
102
RTVSPost2010Prop54
  1
strokes_ogs.tif
102
RTVSPost2010PropOp54
 70
     1
102
RTVSPost2010Prop55
280
     0
102
RTVSPost2010PropOp55
 70
     1
102
RTVSPost2010Prop56
140
1.0
102
RTVSPost2010PropOp56
 70
     1
102
RTVSPost2010Prop57
140
1.0
102
RTVSPost2010PropOp57
 70
     1
102
RTVSPropertyOp0
 70
     1
102
RTVSPropertyOp1
 70
     1
102
RTVSPropertyOp2
 70
     1
102
RTVSPropertyOp3
 70
     1
102
RTVSPropertyOp4
 70
     1
102
RTVSPropertyOp5
 70
     1
102
RTVSPropertyOp6
 70
     1
102
RTVSPropertyOp7
 70
     1
102
RTVSPropertyOp8
 70
     1
102
RTVSPropertyOp9
 70
     1
102
RTVSPropertyOp10
 70
     1
102
RTVSPropertyOp11
 70
     1
102
RTVSPropertyOp12
 70
     1
102
RTVSPropertyOp13
 70
     1
102
RTVSPropertyOp14
 70
     1
102
RTVSPropertyOp15
 70
     1
102
RTVSPropertyOp16
 70
     1
102
RTVSPropertyOp17
 70
     1
102
RTVSPropertyOp18
 70
     1
102
RTVSPropertyOp19
 70
     1
102
RTVSPropertyOp20
 70
     1
102
RTVSPropertyOp21
 70
     1
102
RTVSPropertyOp22
 70
     1
102
RTVSPropertyOp23
 70
     1
102
RTVSPropertyOp24
 70
     1
102
RTVSPropertyOp25
 70
     1
102
RTVSPropertyOp26
 70
     1
102
RTVSPropertyOp27
 70
     1
102
RTVSPropertyOp28
 70
     1
102
RTVSPropertyOp29
 70
     1
102
RTVSPropertyOp30
 70
     1
102
RTVSPropertyOp31
 70
     1
102
RTVSPropertyOp32
 70
     1
102
RTVSPropertyOp33
 70
     1
102
RTVSPropertyOp34
 70
     1
102
RTVSPropertyOp35
 70
     1
102
RTVSPropertyOp36
 70
     1
102
RTVSPropertyOp37
 70
     1
102
RTVSPropertyOp38
 70
     1
102
RTVSPropertyOp39
 70
     1
102
RTVSPropertyOp40
 70
     1
102
RTVSPropertyOp41
 70
     1
102
RTVSPropertyOp42
 70
     1
102
RTVSPropertyOp43
 70
     1
102
RTVSPropertyOp44
 70
     1
102
RTVSPropertyOp45
 70
     1
102
RTVSPropertyOp46
 70
     1
102
RTVSPropertyOp47
 70
     1
102
RTVSPropertyOp48
 70
     1
102
RTVSPropertyOp49
 70
     1
102
RTVSPropertyOp50
 70
     1
102
RTVSPropertyOp51
 70
     0
102
RTVSPropertyOp52
 70
     0
102
RTVSPropertyOp53
 70
     1
102
RTVSPropertyOp54
 70
     1
102
RTVSPropertyOp55
 70
     1
102
RTVSPropertyOp56
 70
     1
102
RTVSPropertyOp57
 70
     1
102
RTVSPropertyOp58
 70
     1
102
RTVSPropertyOp59
 70
     1
102
RTVSPropertyOp60
 70
     1
102
RTVSPropertyOp61
 70
     1
102
RTVSPropertyOp62
 70
     1
  0
XRECORD
  5
96F3
102
{ACAD_REACTORS
330
96F2
102
}
330
96F2
100
AcDbXrecord
280
     1
102
RTVSPost2010Prop28
280
     0
102
RTVSPost2010PropOp28
 70
     1
102
RTVSPost2010Prop29
280
     1
102
RTVSPost2010PropOp29
 70
     1
102
RTVSPost2010Prop30
280
     1
102
RTVSPost2010PropOp30
 70
     1
102
RTVSPost2010Prop31
280
     0
102
RTVSPost2010PropOp31
 70
     1
102
RTVSPost2010Prop32
280
     0
102
RTVSPost2010PropOp32
 70
     1
102
RTVSPost2010Prop33
280
     0
102
RTVSPost2010PropOp33
 70
     1
102
RTVSPost2010Prop34
280
     0
102
RTVSPost2010PropOp34
 70
     1
102
RTVSPost2010Prop35
280
     0
102
RTVSPost2010PropOp35
 70
     1
102
RTVSPost2010Prop36
280
     0
102
RTVSPost2010PropOp36
 70
     1
102
RTVSPost2010Prop37
 90
       50
102
RTVSPost2010PropOp37
 70
     1
102
RTVSPost2010Prop38
140
0.0
102
RTVSPost2010PropOp38
 70
     1
102
RTVSPost2010Prop39
140
1.0
102
RTVSPost2010PropOp39
 70
     1
102
RTVSPost2010Prop40
 90
        0
102
RTVSPost2010PropOp40
 70
     1
102
RTVSPost2010Prop41ColorIndex
 90
       18
102
RTVSPost2010Prop41ColorRGB
 90
        0
102
RTVSPost2010PropOp41
 70
     1
102
RTVSPost2010Prop42
 90
       50
102
RTVSPost2010PropOp42
 70
     1
102
RTVSPost2010Prop43
 90
        3
102
RTVSPost2010PropOp43
 70
     1
102
RTVSPost2010Prop44ColorIndex
 90
        5
102
RTVSPost2010Prop44ColorRGB
 90
      255
102
RTVSPost2010PropOp44
 70
     1
102
RTVSPost2010Prop45
280
     0
102
RTVSPost2010PropOp45
 70
     1
102
RTVSPost2010Prop46
 90
       50
102
RTVSPost2010PropOp46
 70
     1
102
RTVSPost2010Prop47
 90
       50
102
RTVSPost2010PropOp47
 70
     1
102
RTVSPost2010Prop48
 90
       50
102
RTVSPost2010PropOp48
 70
     1
102
RTVSPost2010Prop49
280
     0
102
RTVSPost2010PropOp49
 70
     1
102
RTVSPost2010Prop50
 90
       50
102
RTVSPost2010PropOp50
 70
     1
102
RTVSPost2010Prop51ColorIndex
 90
      256
102
RTVSPost2010Prop51ColorRGB
 90
-16777216
102
RTVSPost2010PropOp51
 70
     0
102
RTVSPost2010Prop52
140
1.0
102
RTVSPost2010PropOp52
 70
     0
102
RTVSPost2010Prop53
 90
        2
102
RTVSPost2010PropOp53
 70
     1
102
RTVSPost2010Prop54
  1
strokes_ogs.tif
102
RTVSPost2010PropOp54
 70
     1
102
RTVSPost2010Prop55
280
     0
102
RTVSPost2010PropOp55
 70
     1
102
RTVSPost2010Prop56
140
1.0
102
RTVSPost2010PropOp56
 70
     1
102
RTVSPost2010Prop57
140
1.0
102
RTVSPost2010PropOp57
 70
     1
102
RTVSPropertyOp0
 70
     1
102
RTVSPropertyOp1
 70
     1
102
RTVSPropertyOp2
 70
     1
102
RTVSPropertyOp3
 70
     1
102
RTVSPropertyOp4
 70
     1
102
RTVSPropertyOp5
 70
     1
102
RTVSPropertyOp6
 70
     1
102
RTVSPropertyOp7
 70
     1
102
RTVSPropertyOp8
 70
     1
102
RTVSPropertyOp9
 70
     1
102
RTVSPropertyOp10
 70
     1
102
RTVSPropertyOp11
 70
     1
102
RTVSPropertyOp12
 70
     1
102
RTVSPropertyOp13
 70
     1
102
RTVSPropertyOp14
 70
     1
102
RTVSPropertyOp15
 70
     1
102
RTVSPropertyOp16
 70
     1
102
RTVSPropertyOp17
 70
     1
102
RTVSPropertyOp18
 70
     1
102
RTVSPropertyOp19
 70
     1
102
RTVSPropertyOp20
 70
     1
102
RTVSPropertyOp21
 70
     1
102
RTVSPropertyOp22
 70
     1
102
RTVSPropertyOp23
 70
     1
102
RTVSPropertyOp24
 70
     1
102
RTVSPropertyOp25
 70
     1
102
RTVSPropertyOp26
 70
     1
102
RTVSPropertyOp27
 70
     1
102
RTVSPropertyOp28
 70
     1
102
RTVSPropertyOp29
 70
     1
102
RTVSPropertyOp30
 70
     1
102
RTVSPropertyOp31
 70
     1
102
RTVSPropertyOp32
 70
     1
102
RTVSPropertyOp33
 70
     1
102
RTVSPropertyOp34
 70
     1
102
RTVSPropertyOp35
 70
     1
102
RTVSPropertyOp36
 70
     1
102
RTVSPropertyOp37
 70
     1
102
RTVSPropertyOp38
 70
     1
102
RTVSPropertyOp39
 70
     1
102
RTVSPropertyOp40
 70
     1
102
RTVSPropertyOp41
 70
     1
102
RTVSPropertyOp42
 70
     1
102
RTVSPropertyOp43
 70
     1
102
RTVSPropertyOp44
 70
     1
102
RTVSPropertyOp45
 70
     1
102
RTVSPropertyOp46
 70
     1
102
RTVSPropertyOp47
 70
     1
102
RTVSPropertyOp48
 70
     1
102
RTVSPropertyOp49
 70
     1
102
RTVSPropertyOp50
 70
     1
102
RTVSPropertyOp51
 70
     0
102
RTVSPropertyOp52
 70
     0
102
RTVSPropertyOp53
 70
     1
102
RTVSPropertyOp54
 70
     1
102
RTVSPropertyOp55
 70
     1
102
RTVSPropertyOp56
 70
     1
102
RTVSPropertyOp57
 70
     1
102
RTVSPropertyOp58
 70
     1
102
RTVSPropertyOp59
 70
     1
102
RTVSPropertyOp60
 70
     1
102
RTVSPropertyOp61
 70
     1
102
RTVSPropertyOp62
 70
     1
  0
XRECORD
  5
96E5
102
{ACAD_REACTORS
330
96E4
102
}
330
96E4
100
AcDbXrecord
280
     1
102
RTVSPost2010Prop28
280
     0
102
RTVSPost2010PropOp28
 70
     1
102
RTVSPost2010Prop29
280
     1
102
RTVSPost2010PropOp29
 70
     1
102
RTVSPost2010Prop30
280
     1
102
RTVSPost2010PropOp30
 70
     1
102
RTVSPost2010Prop31
280
     0
102
RTVSPost2010PropOp31
 70
     1
102
RTVSPost2010Prop32
280
     0
102
RTVSPost2010PropOp32
 70
     1
102
RTVSPost2010Prop33
280
     0
102
RTVSPost2010PropOp33
 70
     1
102
RTVSPost2010Prop34
280
     0
102
RTVSPost2010PropOp34
 70
     1
102
RTVSPost2010Prop35
280
     0
102
RTVSPost2010PropOp35
 70
     1
102
RTVSPost2010Prop36
280
     0
102
RTVSPost2010PropOp36
 70
     1
102
RTVSPost2010Prop37
 90
       50
102
RTVSPost2010PropOp37
 70
     1
102
RTVSPost2010Prop38
140
0.0
102
RTVSPost2010PropOp38
 70
     1
102
RTVSPost2010Prop39
140
1.0
102
RTVSPost2010PropOp39
 70
     1
102
RTVSPost2010Prop40
 90
        0
102
RTVSPost2010PropOp40
 70
     1
102
RTVSPost2010Prop41ColorIndex
 90
       18
102
RTVSPost2010Prop41ColorRGB
 90
        0
102
RTVSPost2010PropOp41
 70
     1
102
RTVSPost2010Prop42
 90
       50
102
RTVSPost2010PropOp42
 70
     1
102
RTVSPost2010Prop43
 90
        3
102
RTVSPost2010PropOp43
 70
     1
102
RTVSPost2010Prop44ColorIndex
 90
        5
102
RTVSPost2010Prop44ColorRGB
 90
      255
102
RTVSPost2010PropOp44
 70
     1
102
RTVSPost2010Prop45
280
     0
102
RTVSPost2010PropOp45
 70
     1
102
RTVSPost2010Prop46
 90
       50
102
RTVSPost2010PropOp46
 70
     1
102
RTVSPost2010Prop47
 90
       50
102
RTVSPost2010PropOp47
 70
     1
102
RTVSPost2010Prop48
 90
       50
102
RTVSPost2010PropOp48
 70
     1
102
RTVSPost2010Prop49
280
     0
102
RTVSPost2010PropOp49
 70
     1
102
RTVSPost2010Prop50
 90
       50
102
RTVSPost2010PropOp50
 70
     1
102
RTVSPost2010Prop51ColorIndex
 90
      256
102
RTVSPost2010Prop51ColorRGB
 90
-16777216
102
RTVSPost2010PropOp51
 70
     0
102
RTVSPost2010Prop52
140
1.0
102
RTVSPost2010PropOp52
 70
     0
102
RTVSPost2010Prop53
 90
        2
102
RTVSPost2010PropOp53
 70
     1
102
RTVSPost2010Prop54
  1
strokes_ogs.tif
102
RTVSPost2010PropOp54
 70
     1
102
RTVSPost2010Prop55
280
     0
102
RTVSPost2010PropOp55
 70
     1
102
RTVSPost2010Prop56
140
1.0
102
RTVSPost2010PropOp56
 70
     1
102
RTVSPost2010Prop57
140
1.0
102
RTVSPost2010PropOp57
 70
     1
102
RTVSPropertyOp0
 70
     1
102
RTVSPropertyOp1
 70
     1
102
RTVSPropertyOp2
 70
     1
102
RTVSPropertyOp3
 70
     1
102
RTVSPropertyOp4
 70
     1
102
RTVSPropertyOp5
 70
     1
102
RTVSPropertyOp6
 70
     1
102
RTVSPropertyOp7
 70
     1
102
RTVSPropertyOp8
 70
     1
102
RTVSPropertyOp9
 70
     1
102
RTVSPropertyOp10
 70
     1
102
RTVSPropertyOp11
 70
     1
102
RTVSPropertyOp12
 70
     1
102
RTVSPropertyOp13
 70
     1
102
RTVSPropertyOp14
 70
     1
102
RTVSPropertyOp15
 70
     1
102
RTVSPropertyOp16
 70
     1
102
RTVSPropertyOp17
 70
     1
102
RTVSPropertyOp18
 70
     1
102
RTVSPropertyOp19
 70
     1
102
RTVSPropertyOp20
 70
     1
102
RTVSPropertyOp21
 70
     1
102
RTVSPropertyOp22
 70
     1
102
RTVSPropertyOp23
 70
     1
102
RTVSPropertyOp24
 70
     1
102
RTVSPropertyOp25
 70
     1
102
RTVSPropertyOp26
 70
     1
102
RTVSPropertyOp27
 70
     1
102
RTVSPropertyOp28
 70
     1
102
RTVSPropertyOp29
 70
     1
102
RTVSPropertyOp30
 70
     1
102
RTVSPropertyOp31
 70
     1
102
RTVSPropertyOp32
 70
     1
102
RTVSPropertyOp33
 70
     1
102
RTVSPropertyOp34
 70
     1
102
RTVSPropertyOp35
 70
     1
102
RTVSPropertyOp36
 70
     1
102
RTVSPropertyOp37
 70
     1
102
RTVSPropertyOp38
 70
     1
102
RTVSPropertyOp39
 70
     1
102
RTVSPropertyOp40
 70
     1
102
RTVSPropertyOp41
 70
     1
102
RTVSPropertyOp42
 70
     1
102
RTVSPropertyOp43
 70
     1
102
RTVSPropertyOp44
 70
     1
102
RTVSPropertyOp45
 70
     1
102
RTVSPropertyOp46
 70
     1
102
RTVSPropertyOp47
 70
     1
102
RTVSPropertyOp48
 70
     1
102
RTVSPropertyOp49
 70
     1
102
RTVSPropertyOp50
 70
     1
102
RTVSPropertyOp51
 70
     0
102
RTVSPropertyOp52
 70
     0
102
RTVSPropertyOp53
 70
     1
102
RTVSPropertyOp54
 70
     1
102
RTVSPropertyOp55
 70
     1
102
RTVSPropertyOp56
 70
     1
102
RTVSPropertyOp57
 70
     1
102
RTVSPropertyOp58
 70
     1
102
RTVSPropertyOp59
 70
     1
102
RTVSPropertyOp60
 70
     1
102
RTVSPropertyOp61
 70
     1
102
RTVSPropertyOp62
 70
     1
  0
XRECORD
  5
96E9
102
{ACAD_REACTORS
330
96E8
102
}
330
96E8
100
AcDbXrecord
280
     1
102
RTVSPost2010Prop28
280
     0
102
RTVSPost2010PropOp28
 70
     1
102
RTVSPost2010Prop29
280
     1
102
RTVSPost2010PropOp29
 70
     1
102
RTVSPost2010Prop30
280
     1
102
RTVSPost2010PropOp30
 70
     1
102
RTVSPost2010Prop31
280
     0
102
RTVSPost2010PropOp31
 70
     1
102
RTVSPost2010Prop32
280
     0
102
RTVSPost2010PropOp32
 70
     1
102
RTVSPost2010Prop33
280
     0
102
RTVSPost2010PropOp33
 70
     1
102
RTVSPost2010Prop34
280
     0
102
RTVSPost2010PropOp34
 70
     1
102
RTVSPost2010Prop35
280
     0
102
RTVSPost2010PropOp35
 70
     1
102
RTVSPost2010Prop36
280
     0
102
RTVSPost2010PropOp36
 70
     1
102
RTVSPost2010Prop37
 90
       50
102
RTVSPost2010PropOp37
 70
     1
102
RTVSPost2010Prop38
140
0.0
102
RTVSPost2010PropOp38
 70
     1
102
RTVSPost2010Prop39
140
1.0
102
RTVSPost2010PropOp39
 70
     1
102
RTVSPost2010Prop40
 90
        0
102
RTVSPost2010PropOp40
 70
     1
102
RTVSPost2010Prop41ColorIndex
 90
       18
102
RTVSPost2010Prop41ColorRGB
 90
        0
102
RTVSPost2010PropOp41
 70
     1
102
RTVSPost2010Prop42
 90
       50
102
RTVSPost2010PropOp42
 70
     1
102
RTVSPost2010Prop43
 90
        3
102
RTVSPost2010PropOp43
 70
     1
102
RTVSPost2010Prop44ColorIndex
 90
        5
102
RTVSPost2010Prop44ColorRGB
 90
      255
102
RTVSPost2010PropOp44
 70
     1
102
RTVSPost2010Prop45
280
     0
102
RTVSPost2010PropOp45
 70
     1
102
RTVSPost2010Prop46
 90
       50
102
RTVSPost2010PropOp46
 70
     1
102
RTVSPost2010Prop47
 90
       50
102
RTVSPost2010PropOp47
 70
     1
102
RTVSPost2010Prop48
 90
       50
102
RTVSPost2010PropOp48
 70
     1
102
RTVSPost2010Prop49
280
     0
102
RTVSPost2010PropOp49
 70
     1
102
RTVSPost2010Prop50
 90
       50
102
RTVSPost2010PropOp50
 70
     1
102
RTVSPost2010Prop51ColorIndex
 90
      256
102
RTVSPost2010Prop51ColorRGB
 90
-16777216
102
RTVSPost2010PropOp51
 70
     0
102
RTVSPost2010Prop52
140
1.0
102
RTVSPost2010PropOp52
 70
     0
102
RTVSPost2010Prop53
 90
        2
102
RTVSPost2010PropOp53
 70
     1
102
RTVSPost2010Prop54
  1
strokes_ogs.tif
102
RTVSPost2010PropOp54
 70
     1
102
RTVSPost2010Prop55
280
     0
102
RTVSPost2010PropOp55
 70
     1
102
RTVSPost2010Prop56
140
1.0
102
RTVSPost2010PropOp56
 70
     1
102
RTVSPost2010Prop57
140
1.0
102
RTVSPost2010PropOp57
 70
     1
102
RTVSPropertyOp0
 70
     1
102
RTVSPropertyOp1
 70
     1
102
RTVSPropertyOp2
 70
     1
102
RTVSPropertyOp3
 70
     1
102
RTVSPropertyOp4
 70
     1
102
RTVSPropertyOp5
 70
     1
102
RTVSPropertyOp6
 70
     1
102
RTVSPropertyOp7
 70
     1
102
RTVSPropertyOp8
 70
     1
102
RTVSPropertyOp9
 70
     1
102
RTVSPropertyOp10
 70
     1
102
RTVSPropertyOp11
 70
     1
102
RTVSPropertyOp12
 70
     1
102
RTVSPropertyOp13
 70
     1
102
RTVSPropertyOp14
 70
     1
102
RTVSPropertyOp15
 70
     1
102
RTVSPropertyOp16
 70
     1
102
RTVSPropertyOp17
 70
     1
102
RTVSPropertyOp18
 70
     1
102
RTVSPropertyOp19
 70
     1
102
RTVSPropertyOp20
 70
     1
102
RTVSPropertyOp21
 70
     1
102
RTVSPropertyOp22
 70
     1
102
RTVSPropertyOp23
 70
     1
102
RTVSPropertyOp24
 70
     1
102
RTVSPropertyOp25
 70
     1
102
RTVSPropertyOp26
 70
     1
102
RTVSPropertyOp27
 70
     1
102
RTVSPropertyOp28
 70
     1
102
RTVSPropertyOp29
 70
     1
102
RTVSPropertyOp30
 70
     1
102
RTVSPropertyOp31
 70
     1
102
RTVSPropertyOp32
 70
     1
102
RTVSPropertyOp33
 70
     1
102
RTVSPropertyOp34
 70
     1
102
RTVSPropertyOp35
 70
     1
102
RTVSPropertyOp36
 70
     1
102
RTVSPropertyOp37
 70
     1
102
RTVSPropertyOp38
 70
     1
102
RTVSPropertyOp39
 70
     1
102
RTVSPropertyOp40
 70
     1
102
RTVSPropertyOp41
 70
     1
102
RTVSPropertyOp42
 70
     1
102
RTVSPropertyOp43
 70
     1
102
RTVSPropertyOp44
 70
     1
102
RTVSPropertyOp45
 70
     1
102
RTVSPropertyOp46
 70
     1
102
RTVSPropertyOp47
 70
     1
102
RTVSPropertyOp48
 70
     1
102
RTVSPropertyOp49
 70
     1
102
RTVSPropertyOp50
 70
     1
102
RTVSPropertyOp51
 70
     0
102
RTVSPropertyOp52
 70
     0
102
RTVSPropertyOp53
 70
     1
102
RTVSPropertyOp54
 70
     1
102
RTVSPropertyOp55
 70
     1
102
RTVSPropertyOp56
 70
     1
102
RTVSPropertyOp57
 70
     1
102
RTVSPropertyOp58
 70
     1
102
RTVSPropertyOp59
 70
     1
102
RTVSPropertyOp60
 70
     1
102
RTVSPropertyOp61
 70
     1
102
RTVSPropertyOp62
 70
     1
  0
XRECORD
  5
9703
102
{ACAD_REACTORS
330
9702
102
}
330
9702
100
AcDbXrecord
280
     1
102
RTVSPost2010Prop28
280
     0
102
RTVSPost2010PropOp28
 70
     1
102
RTVSPost2010Prop29
280
     1
102
RTVSPost2010PropOp29
 70
     1
102
RTVSPost2010Prop30
280
     1
102
RTVSPost2010PropOp30
 70
     1
102
RTVSPost2010Prop31
280
     0
102
RTVSPost2010PropOp31
 70
     1
102
RTVSPost2010Prop32
280
     0
102
RTVSPost2010PropOp32
 70
     1
102
RTVSPost2010Prop33
280
     0
102
RTVSPost2010PropOp33
 70
     1
102
RTVSPost2010Prop34
280
     0
102
RTVSPost2010PropOp34
 70
     1
102
RTVSPost2010Prop35
280
     0
102
RTVSPost2010PropOp35
 70
     1
102
RTVSPost2010Prop36
280
     0
102
RTVSPost2010PropOp36
 70
     1
102
RTVSPost2010Prop37
 90
       50
102
RTVSPost2010PropOp37
 70
     0
102
RTVSPost2010Prop38
140
0.0
102
RTVSPost2010PropOp38
 70
     0
102
RTVSPost2010Prop39
140
1.0
102
RTVSPost2010PropOp39
 70
     0
102
RTVSPost2010Prop40
 90
        0
102
RTVSPost2010PropOp40
 70
     0
102
RTVSPost2010Prop41ColorIndex
 90
       18
102
RTVSPost2010Prop41ColorRGB
 90
        0
102
RTVSPost2010PropOp41
 70
     0
102
RTVSPost2010Prop42
 90
       50
102
RTVSPost2010PropOp42
 70
     0
102
RTVSPost2010Prop43
 90
        3
102
RTVSPost2010PropOp43
 70
     0
102
RTVSPost2010Prop44ColorIndex
 90
        5
102
RTVSPost2010Prop44ColorRGB
 90
      255
102
RTVSPost2010PropOp44
 70
     0
102
RTVSPost2010Prop45
280
     0
102
RTVSPost2010PropOp45
 70
     1
102
RTVSPost2010Prop46
 90
       50
102
RTVSPost2010PropOp46
 70
     0
102
RTVSPost2010Prop47
 90
       50
102
RTVSPost2010PropOp47
 70
     0
102
RTVSPost2010Prop48
 90
       50
102
RTVSPost2010PropOp48
 70
     0
102
RTVSPost2010Prop49
280
     0
102
RTVSPost2010PropOp49
 70
     1
102
RTVSPost2010Prop50
 90
       50
102
RTVSPost2010PropOp50
 70
     0
102
RTVSPost2010Prop51ColorIndex
 90
      256
102
RTVSPost2010Prop51ColorRGB
 90
-16777216
102
RTVSPost2010PropOp51
 70
     0
102
RTVSPost2010Prop52
140
1.0
102
RTVSPost2010PropOp52
 70
     0
102
RTVSPost2010Prop53
 90
        2
102
RTVSPost2010PropOp53
 70
     0
102
RTVSPost2010Prop54
  1
strokes_ogs.tif
102
RTVSPost2010PropOp54
 70
     0
102
RTVSPost2010Prop55
280
     0
102
RTVSPost2010PropOp55
 70
     1
102
RTVSPost2010Prop56
140
1.0
102
RTVSPost2010PropOp56
 70
     0
102
RTVSPost2010Prop57
140
1.0
102
RTVSPost2010PropOp57
 70
     0
102
RTVSPropertyOp0
 70
     0
102
RTVSPropertyOp1
 70
     0
102
RTVSPropertyOp2
 70
     0
102
RTVSPropertyOp3
 70
     0
102
RTVSPropertyOp4
 70
     0
102
RTVSPropertyOp5
 70
     0
102
RTVSPropertyOp6
 70
     0
102
RTVSPropertyOp7
 70
     0
102
RTVSPropertyOp8
 70
     0
102
RTVSPropertyOp9
 70
     0
102
RTVSPropertyOp10
 70
     0
102
RTVSPropertyOp11
 70
     0
102
RTVSPropertyOp12
 70
     0
102
RTVSPropertyOp13
 70
     0
102
RTVSPropertyOp14
 70
     2
102
RTVSPropertyOp15
 70
     0
102
RTVSPropertyOp16
 70
     0
102
RTVSPropertyOp17
 70
     0
102
RTVSPropertyOp18
 70
     0
102
RTVSPropertyOp19
 70
     0
102
RTVSPropertyOp20
 70
     0
102
RTVSPropertyOp21
 70
     0
102
RTVSPropertyOp22
 70
     0
102
RTVSPropertyOp23
 70
     0
102
RTVSPropertyOp24
 70
     0
102
RTVSPropertyOp25
 70
     0
102
RTVSPropertyOp26
 70
     0
102
RTVSPropertyOp27
 70
     0
102
RTVSPropertyOp28
 70
     1
102
RTVSPropertyOp29
 70
     1
102
RTVSPropertyOp30
 70
     1
102
RTVSPropertyOp31
 70
     1
102
RTVSPropertyOp32
 70
     1
102
RTVSPropertyOp33
 70
     1
102
RTVSPropertyOp34
 70
     1
102
RTVSPropertyOp35
 70
     1
102
RTVSPropertyOp36
 70
     1
102
RTVSPropertyOp37
 70
     0
102
RTVSPropertyOp38
 70
     0
102
RTVSPropertyOp39
 70
     0
102
RTVSPropertyOp40
 70
     0
102
RTVSPropertyOp41
 70
     0
102
RTVSPropertyOp42
 70
     0
102
RTVSPropertyOp43
 70
     0
102
RTVSPropertyOp44
 70
     0
102
RTVSPropertyOp45
 70
     1
102
RTVSPropertyOp46
 70
     0
102
RTVSPropertyOp47
 70
     0
102
RTVSPropertyOp48
 70
     0
102
RTVSPropertyOp49
 70
     1
102
RTVSPropertyOp50
 70
     0
102
RTVSPropertyOp51
 70
     0
102
RTVSPropertyOp52
 70
     0
102
RTVSPropertyOp53
 70
     0
102
RTVSPropertyOp54
 70
     0
102
RTVSPropertyOp55
 70
     1
102
RTVSPropertyOp56
 70
     0
102
RTVSPropertyOp57
 70
     0
102
RTVSPropertyOp58
 70
     0
102
RTVSPropertyOp59
 70
     0
102
RTVSPropertyOp60
 70
     0
102
RTVSPropertyOp61
 70
     0
102
RTVSPropertyOp62
 70
     0
  0
XRECORD
  5
96F1
102
{ACAD_REACTORS
330
96F0
102
}
330
96F0
100
AcDbXrecord
280
     1
102
RTVSPost2010Prop28
280
     0
102
RTVSPost2010PropOp28
 70
     1
102
RTVSPost2010Prop29
280
     1
102
RTVSPost2010PropOp29
 70
     1
102
RTVSPost2010Prop30
280
     1
102
RTVSPost2010PropOp30
 70
     1
102
RTVSPost2010Prop31
280
     0
102
RTVSPost2010PropOp31
 70
     1
102
RTVSPost2010Prop32
280
     0
102
RTVSPost2010PropOp32
 70
     1
102
RTVSPost2010Prop33
280
     0
102
RTVSPost2010PropOp33
 70
     1
102
RTVSPost2010Prop34
280
     0
102
RTVSPost2010PropOp34
 70
     1
102
RTVSPost2010Prop35
280
     0
102
RTVSPost2010PropOp35
 70
     1
102
RTVSPost2010Prop36
280
     0
102
RTVSPost2010PropOp36
 70
     1
102
RTVSPost2010Prop37
 90
       50
102
RTVSPost2010PropOp37
 70
     1
102
RTVSPost2010Prop38
140
0.0
102
RTVSPost2010PropOp38
 70
     1
102
RTVSPost2010Prop39
140
1.0
102
RTVSPost2010PropOp39
 70
     1
102
RTVSPost2010Prop40
 90
        0
102
RTVSPost2010PropOp40
 70
     1
102
RTVSPost2010Prop41ColorIndex
 90
       18
102
RTVSPost2010Prop41ColorRGB
 90
        0
102
RTVSPost2010PropOp41
 70
     1
102
RTVSPost2010Prop42
 90
       50
102
RTVSPost2010PropOp42
 70
     1
102
RTVSPost2010Prop43
 90
        3
102
RTVSPost2010PropOp43
 70
     1
102
RTVSPost2010Prop44ColorIndex
 90
        5
102
RTVSPost2010Prop44ColorRGB
 90
      255
102
RTVSPost2010PropOp44
 70
     1
102
RTVSPost2010Prop45
280
     0
102
RTVSPost2010PropOp45
 70
     1
102
RTVSPost2010Prop46
 90
       50
102
RTVSPost2010PropOp46
 70
     1
102
RTVSPost2010Prop47
 90
       50
102
RTVSPost2010PropOp47
 70
     1
102
RTVSPost2010Prop48
 90
       50
102
RTVSPost2010PropOp48
 70
     1
102
RTVSPost2010Prop49
280
     0
102
RTVSPost2010PropOp49
 70
     1
102
RTVSPost2010Prop50
 90
       50
102
RTVSPost2010PropOp50
 70
     1
102
RTVSPost2010Prop51ColorIndex
 90
      256
102
RTVSPost2010Prop51ColorRGB
 90
-16777216
102
RTVSPost2010PropOp51
 70
     0
102
RTVSPost2010Prop52
140
1.0
102
RTVSPost2010PropOp52
 70
     0
102
RTVSPost2010Prop53
 90
        2
102
RTVSPost2010PropOp53
 70
     1
102
RTVSPost2010Prop54
  1
strokes_ogs.tif
102
RTVSPost2010PropOp54
 70
     1
102
RTVSPost2010Prop55
280
     0
102
RTVSPost2010PropOp55
 70
     1
102
RTVSPost2010Prop56
140
1.0
102
RTVSPost2010PropOp56
 70
     1
102
RTVSPost2010Prop57
140
1.0
102
RTVSPost2010PropOp57
 70
     1
102
RTVSPropertyOp0
 70
     1
102
RTVSPropertyOp1
 70
     1
102
RTVSPropertyOp2
 70
     1
102
RTVSPropertyOp3
 70
     1
102
RTVSPropertyOp4
 70
     1
102
RTVSPropertyOp5
 70
     1
102
RTVSPropertyOp6
 70
     1
102
RTVSPropertyOp7
 70
     1
102
RTVSPropertyOp8
 70
     1
102
RTVSPropertyOp9
 70
     1
102
RTVSPropertyOp10
 70
     1
102
RTVSPropertyOp11
 70
     1
102
RTVSPropertyOp12
 70
     1
102
RTVSPropertyOp13
 70
     1
102
RTVSPropertyOp14
 70
     1
102
RTVSPropertyOp15
 70
     1
102
RTVSPropertyOp16
 70
     1
102
RTVSPropertyOp17
 70
     1
102
RTVSPropertyOp18
 70
     1
102
RTVSPropertyOp19
 70
     1
102
RTVSPropertyOp20
 70
     1
102
RTVSPropertyOp21
 70
     1
102
RTVSPropertyOp22
 70
     1
102
RTVSPropertyOp23
 70
     1
102
RTVSPropertyOp24
 70
     1
102
RTVSPropertyOp25
 70
     1
102
RTVSPropertyOp26
 70
     1
102
RTVSPropertyOp27
 70
     1
102
RTVSPropertyOp28
 70
     1
102
RTVSPropertyOp29
 70
     1
102
RTVSPropertyOp30
 70
     1
102
RTVSPropertyOp31
 70
     1
102
RTVSPropertyOp32
 70
     1
102
RTVSPropertyOp33
 70
     1
102
RTVSPropertyOp34
 70
     1
102
RTVSPropertyOp35
 70
     1
102
RTVSPropertyOp36
 70
     1
102
RTVSPropertyOp37
 70
     1
102
RTVSPropertyOp38
 70
     1
102
RTVSPropertyOp39
 70
     1
102
RTVSPropertyOp40
 70
     1
102
RTVSPropertyOp41
 70
     1
102
RTVSPropertyOp42
 70
     1
102
RTVSPropertyOp43
 70
     1
102
RTVSPropertyOp44
 70
     1
102
RTVSPropertyOp45
 70
     1
102
RTVSPropertyOp46
 70
     1
102
RTVSPropertyOp47
 70
     1
102
RTVSPropertyOp48
 70
     1
102
RTVSPropertyOp49
 70
     1
102
RTVSPropertyOp50
 70
     1
102
RTVSPropertyOp51
 70
     0
102
RTVSPropertyOp52
 70
     0
102
RTVSPropertyOp53
 70
     1
102
RTVSPropertyOp54
 70
     1
102
RTVSPropertyOp55
 70
     1
102
RTVSPropertyOp56
 70
     1
102
RTVSPropertyOp57
 70
     1
102
RTVSPropertyOp58
 70
     1
102
RTVSPropertyOp59
 70
     1
102
RTVSPropertyOp60
 70
     1
102
RTVSPropertyOp61
 70
     1
102
RTVSPropertyOp62
 70
     1
  0
XRECORD
  5
96D5
102
{ACAD_REACTORS
330
96D4
102
}
330
96D4
100
AcDbXrecord
280
     1
102
RTVSPost2010Prop28
280
     0
102
RTVSPost2010PropOp28
 70
     1
102
RTVSPost2010Prop29
280
     1
102
RTVSPost2010PropOp29
 70
     1
102
RTVSPost2010Prop30
280
     1
102
RTVSPost2010PropOp30
 70
     1
102
RTVSPost2010Prop31
280
     0
102
RTVSPost2010PropOp31
 70
     1
102
RTVSPost2010Prop32
280
     0
102
RTVSPost2010PropOp32
 70
     1
102
RTVSPost2010Prop33
280
     0
102
RTVSPost2010PropOp33
 70
     1
102
RTVSPost2010Prop34
280
     0
102
RTVSPost2010PropOp34
 70
     1
102
RTVSPost2010Prop35
280
     0
102
RTVSPost2010PropOp35
 70
     1
102
RTVSPost2010Prop36
280
     0
102
RTVSPost2010PropOp36
 70
     1
102
RTVSPost2010Prop37
 90
       50
102
RTVSPost2010PropOp37
 70
     1
102
RTVSPost2010Prop38
140
0.0
102
RTVSPost2010PropOp38
 70
     1
102
RTVSPost2010Prop39
140
1.0
102
RTVSPost2010PropOp39
 70
     1
102
RTVSPost2010Prop40
 90
        0
102
RTVSPost2010PropOp40
 70
     1
102
RTVSPost2010Prop41ColorIndex
 90
       18
102
RTVSPost2010Prop41ColorRGB
 90
        0
102
RTVSPost2010PropOp41
 70
     1
102
RTVSPost2010Prop42
 90
       50
102
RTVSPost2010PropOp42
 70
     1
102
RTVSPost2010Prop43
 90
        3
102
RTVSPost2010PropOp43
 70
     1
102
RTVSPost2010Prop44ColorIndex
 90
        5
102
RTVSPost2010Prop44ColorRGB
 90
      255
102
RTVSPost2010PropOp44
 70
     1
102
RTVSPost2010Prop45
280
     0
102
RTVSPost2010PropOp45
 70
     1
102
RTVSPost2010Prop46
 90
       50
102
RTVSPost2010PropOp46
 70
     1
102
RTVSPost2010Prop47
 90
       50
102
RTVSPost2010PropOp47
 70
     1
102
RTVSPost2010Prop48
 90
       50
102
RTVSPost2010PropOp48
 70
     1
102
RTVSPost2010Prop49
280
     0
102
RTVSPost2010PropOp49
 70
     1
102
RTVSPost2010Prop50
 90
       50
102
RTVSPost2010PropOp50
 70
     1
102
RTVSPost2010Prop51ColorIndex
 90
      256
102
RTVSPost2010Prop51ColorRGB
 90
-16777216
102
RTVSPost2010PropOp51
 70
     0
102
RTVSPost2010Prop52
140
1.0
102
RTVSPost2010PropOp52
 70
     0
102
RTVSPost2010Prop53
 90
        2
102
RTVSPost2010PropOp53
 70
     1
102
RTVSPost2010Prop54
  1
strokes_ogs.tif
102
RTVSPost2010PropOp54
 70
     1
102
RTVSPost2010Prop55
280
     0
102
RTVSPost2010PropOp55
 70
     1
102
RTVSPost2010Prop56
140
1.0
102
RTVSPost2010PropOp56
 70
     1
102
RTVSPost2010Prop57
140
1.0
102
RTVSPost2010PropOp57
 70
     1
102
RTVSPropertyOp0
 70
     1
102
RTVSPropertyOp1
 70
     1
102
RTVSPropertyOp2
 70
     1
102
RTVSPropertyOp3
 70
     1
102
RTVSPropertyOp4
 70
     1
102
RTVSPropertyOp5
 70
     1
102
RTVSPropertyOp6
 70
     1
102
RTVSPropertyOp7
 70
     1
102
RTVSPropertyOp8
 70
     1
102
RTVSPropertyOp9
 70
     1
102
RTVSPropertyOp10
 70
     1
102
RTVSPropertyOp11
 70
     1
102
RTVSPropertyOp12
 70
     1
102
RTVSPropertyOp13
 70
     1
102
RTVSPropertyOp14
 70
     1
102
RTVSPropertyOp15
 70
     1
102
RTVSPropertyOp16
 70
     1
102
RTVSPropertyOp17
 70
     1
102
RTVSPropertyOp18
 70
     1
102
RTVSPropertyOp19
 70
     1
102
RTVSPropertyOp20
 70
     1
102
RTVSPropertyOp21
 70
     1
102
RTVSPropertyOp22
 70
     1
102
RTVSPropertyOp23
 70
     1
102
RTVSPropertyOp24
 70
     1
102
RTVSPropertyOp25
 70
     1
102
RTVSPropertyOp26
 70
     1
102
RTVSPropertyOp27
 70
     1
102
RTVSPropertyOp28
 70
     1
102
RTVSPropertyOp29
 70
     1
102
RTVSPropertyOp30
 70
     1
102
RTVSPropertyOp31
 70
     1
102
RTVSPropertyOp32
 70
     1
102
RTVSPropertyOp33
 70
     1
102
RTVSPropertyOp34
 70
     1
102
RTVSPropertyOp35
 70
     1
102
RTVSPropertyOp36
 70
     1
102
RTVSPropertyOp37
 70
     1
102
RTVSPropertyOp38
 70
     1
102
RTVSPropertyOp39
 70
     1
102
RTVSPropertyOp40
 70
     1
102
RTVSPropertyOp41
 70
     1
102
RTVSPropertyOp42
 70
     1
102
RTVSPropertyOp43
 70
     1
102
RTVSPropertyOp44
 70
     1
102
RTVSPropertyOp45
 70
     1
102
RTVSPropertyOp46
 70
     1
102
RTVSPropertyOp47
 70
     1
102
RTVSPropertyOp48
 70
     1
102
RTVSPropertyOp49
 70
     1
102
RTVSPropertyOp50
 70
     1
102
RTVSPropertyOp51
 70
     0
102
RTVSPropertyOp52
 70
     0
102
RTVSPropertyOp53
 70
     1
102
RTVSPropertyOp54
 70
     1
102
RTVSPropertyOp55
 70
     1
102
RTVSPropertyOp56
 70
     1
102
RTVSPropertyOp57
 70
     1
102
RTVSPropertyOp58
 70
     1
102
RTVSPropertyOp59
 70
     1
102
RTVSPropertyOp60
 70
     1
102
RTVSPropertyOp61
 70
     1
102
RTVSPropertyOp62
 70
     1
  0
XRECORD
  5
96D7
102
{ACAD_REACTORS
330
96D6
102
}
330
96D6
100
AcDbXrecord
280
     1
102
RTVSPost2010Prop28
280
     0
102
RTVSPost2010PropOp28
 70
     1
102
RTVSPost2010Prop29
280
     1
102
RTVSPost2010PropOp29
 70
     1
102
RTVSPost2010Prop30
280
     1
102
RTVSPost2010PropOp30
 70
     1
102
RTVSPost2010Prop31
280
     0
102
RTVSPost2010PropOp31
 70
     1
102
RTVSPost2010Prop32
280
     0
102
RTVSPost2010PropOp32
 70
     1
102
RTVSPost2010Prop33
280
     0
102
RTVSPost2010PropOp33
 70
     1
102
RTVSPost2010Prop34
280
     0
102
RTVSPost2010PropOp34
 70
     1
102
RTVSPost2010Prop35
280
     0
102
RTVSPost2010PropOp35
 70
     1
102
RTVSPost2010Prop36
280
     0
102
RTVSPost2010PropOp36
 70
     1
102
RTVSPost2010Prop37
 90
       50
102
RTVSPost2010PropOp37
 70
     1
102
RTVSPost2010Prop38
140
0.0
102
RTVSPost2010PropOp38
 70
     1
102
RTVSPost2010Prop39
140
1.0
102
RTVSPost2010PropOp39
 70
     1
102
RTVSPost2010Prop40
 90
        0
102
RTVSPost2010PropOp40
 70
     1
102
RTVSPost2010Prop41ColorIndex
 90
       18
102
RTVSPost2010Prop41ColorRGB
 90
        0
102
RTVSPost2010PropOp41
 70
     1
102
RTVSPost2010Prop42
 90
       50
102
RTVSPost2010PropOp42
 70
     1
102
RTVSPost2010Prop43
 90
        3
102
RTVSPost2010PropOp43
 70
     1
102
RTVSPost2010Prop44ColorIndex
 90
        5
102
RTVSPost2010Prop44ColorRGB
 90
      255
102
RTVSPost2010PropOp44
 70
     1
102
RTVSPost2010Prop45
280
     0
102
RTVSPost2010PropOp45
 70
     1
102
RTVSPost2010Prop46
 90
       50
102
RTVSPost2010PropOp46
 70
     1
102
RTVSPost2010Prop47
 90
       50
102
RTVSPost2010PropOp47
 70
     1
102
RTVSPost2010Prop48
 90
       50
102
RTVSPost2010PropOp48
 70
     1
102
RTVSPost2010Prop49
280
     0
102
RTVSPost2010PropOp49
 70
     1
102
RTVSPost2010Prop50
 90
       50
102
RTVSPost2010PropOp50
 70
     1
102
RTVSPost2010Prop51ColorIndex
 90
      256
102
RTVSPost2010Prop51ColorRGB
 90
-16777216
102
RTVSPost2010PropOp51
 70
     0
102
RTVSPost2010Prop52
140
1.0
102
RTVSPost2010PropOp52
 70
     0
102
RTVSPost2010Prop53
 90
        2
102
RTVSPost2010PropOp53
 70
     1
102
RTVSPost2010Prop54
  1
strokes_ogs.tif
102
RTVSPost2010PropOp54
 70
     1
102
RTVSPost2010Prop55
280
     0
102
RTVSPost2010PropOp55
 70
     1
102
RTVSPost2010Prop56
140
1.0
102
RTVSPost2010PropOp56
 70
     1
102
RTVSPost2010Prop57
140
1.0
102
RTVSPost2010PropOp57
 70
     1
102
RTVSPropertyOp0
 70
     1
102
RTVSPropertyOp1
 70
     1
102
RTVSPropertyOp2
 70
     1
102
RTVSPropertyOp3
 70
     1
102
RTVSPropertyOp4
 70
     1
102
RTVSPropertyOp5
 70
     1
102
RTVSPropertyOp6
 70
     1
102
RTVSPropertyOp7
 70
     1
102
RTVSPropertyOp8
 70
     1
102
RTVSPropertyOp9
 70
     1
102
RTVSPropertyOp10
 70
     1
102
RTVSPropertyOp11
 70
     1
102
RTVSPropertyOp12
 70
     1
102
RTVSPropertyOp13
 70
     1
102
RTVSPropertyOp14
 70
     1
102
RTVSPropertyOp15
 70
     1
102
RTVSPropertyOp16
 70
     1
102
RTVSPropertyOp17
 70
     1
102
RTVSPropertyOp18
 70
     1
102
RTVSPropertyOp19
 70
     1
102
RTVSPropertyOp20
 70
     1
102
RTVSPropertyOp21
 70
     1
102
RTVSPropertyOp22
 70
     1
102
RTVSPropertyOp23
 70
     1
102
RTVSPropertyOp24
 70
     1
102
RTVSPropertyOp25
 70
     1
102
RTVSPropertyOp26
 70
     1
102
RTVSPropertyOp27
 70
     1
102
RTVSPropertyOp28
 70
     1
102
RTVSPropertyOp29
 70
     1
102
RTVSPropertyOp30
 70
     1
102
RTVSPropertyOp31
 70
     1
102
RTVSPropertyOp32
 70
     1
102
RTVSPropertyOp33
 70
     1
102
RTVSPropertyOp34
 70
     1
102
RTVSPropertyOp35
 70
     1
102
RTVSPropertyOp36
 70
     1
102
RTVSPropertyOp37
 70
     1
102
RTVSPropertyOp38
 70
     1
102
RTVSPropertyOp39
 70
     1
102
RTVSPropertyOp40
 70
     1
102
RTVSPropertyOp41
 70
     1
102
RTVSPropertyOp42
 70
     1
102
RTVSPropertyOp43
 70
     1
102
RTVSPropertyOp44
 70
     1
102
RTVSPropertyOp45
 70
     1
102
RTVSPropertyOp46
 70
     1
102
RTVSPropertyOp47
 70
     1
102
RTVSPropertyOp48
 70
     1
102
RTVSPropertyOp49
 70
     1
102
RTVSPropertyOp50
 70
     1
102
RTVSPropertyOp51
 70
     0
102
RTVSPropertyOp52
 70
     0
102
RTVSPropertyOp53
 70
     1
102
RTVSPropertyOp54
 70
     1
102
RTVSPropertyOp55
 70
     1
102
RTVSPropertyOp56
 70
     1
102
RTVSPropertyOp57
 70
     1
102
RTVSPropertyOp58
 70
     1
102
RTVSPropertyOp59
 70
     1
102
RTVSPropertyOp60
 70
     1
102
RTVSPropertyOp61
 70
     1
102
RTVSPropertyOp62
 70
     1
  0
XRECORD
  5
96D9
102
{ACAD_REACTORS
330
96D8
102
}
330
96D8
100
AcDbXrecord
280
     1
102
RTVSPost2010Prop28
280
     0
102
RTVSPost2010PropOp28
 70
     1
102
RTVSPost2010Prop29
280
     1
102
RTVSPost2010PropOp29
 70
     1
102
RTVSPost2010Prop30
280
     1
102
RTVSPost2010PropOp30
 70
     1
102
RTVSPost2010Prop31
280
     0
102
RTVSPost2010PropOp31
 70
     1
102
RTVSPost2010Prop32
280
     0
102
RTVSPost2010PropOp32
 70
     1
102
RTVSPost2010Prop33
280
     0
102
RTVSPost2010PropOp33
 70
     1
102
RTVSPost2010Prop34
280
     0
102
RTVSPost2010PropOp34
 70
     1
102
RTVSPost2010Prop35
280
     0
102
RTVSPost2010PropOp35
 70
     1
102
RTVSPost2010Prop36
280
     0
102
RTVSPost2010PropOp36
 70
     1
102
RTVSPost2010Prop37
 90
       50
102
RTVSPost2010PropOp37
 70
     1
102
RTVSPost2010Prop38
140
0.0
102
RTVSPost2010PropOp38
 70
     1
102
RTVSPost2010Prop39
140
1.0
102
RTVSPost2010PropOp39
 70
     1
102
RTVSPost2010Prop40
 90
        0
102
RTVSPost2010PropOp40
 70
     1
102
RTVSPost2010Prop41ColorIndex
 90
       18
102
RTVSPost2010Prop41ColorRGB
 90
        0
102
RTVSPost2010PropOp41
 70
     1
102
RTVSPost2010Prop42
 90
       50
102
RTVSPost2010PropOp42
 70
     1
102
RTVSPost2010Prop43
 90
        3
102
RTVSPost2010PropOp43
 70
     1
102
RTVSPost2010Prop44ColorIndex
 90
        5
102
RTVSPost2010Prop44ColorRGB
 90
      255
102
RTVSPost2010PropOp44
 70
     1
102
RTVSPost2010Prop45
280
     0
102
RTVSPost2010PropOp45
 70
     1
102
RTVSPost2010Prop46
 90
       50
102
RTVSPost2010PropOp46
 70
     1
102
RTVSPost2010Prop47
 90
       50
102
RTVSPost2010PropOp47
 70
     1
102
RTVSPost2010Prop48
 90
       50
102
RTVSPost2010PropOp48
 70
     1
102
RTVSPost2010Prop49
280
     0
102
RTVSPost2010PropOp49
 70
     1
102
RTVSPost2010Prop50
 90
       50
102
RTVSPost2010PropOp50
 70
     1
102
RTVSPost2010Prop51ColorIndex
 90
      256
102
RTVSPost2010Prop51ColorRGB
 90
-16777216
102
RTVSPost2010PropOp51
 70
     0
102
RTVSPost2010Prop52
140
1.0
102
RTVSPost2010PropOp52
 70
     0
102
RTVSPost2010Prop53
 90
        2
102
RTVSPost2010PropOp53
 70
     1
102
RTVSPost2010Prop54
  1
strokes_ogs.tif
102
RTVSPost2010PropOp54
 70
     1
102
RTVSPost2010Prop55
280
     0
102
RTVSPost2010PropOp55
 70
     1
102
RTVSPost2010Prop56
140
1.0
102
RTVSPost2010PropOp56
 70
     1
102
RTVSPost2010Prop57
140
1.0
102
RTVSPost2010PropOp57
 70
     1
102
RTVSPropertyOp0
 70
     1
102
RTVSPropertyOp1
 70
     1
102
RTVSPropertyOp2
 70
     1
102
RTVSPropertyOp3
 70
     1
102
RTVSPropertyOp4
 70
     1
102
RTVSPropertyOp5
 70
     1
102
RTVSPropertyOp6
 70
     1
102
RTVSPropertyOp7
 70
     1
102
RTVSPropertyOp8
 70
     1
102
RTVSPropertyOp9
 70
     1
102
RTVSPropertyOp10
 70
     1
102
RTVSPropertyOp11
 70
     1
102
RTVSPropertyOp12
 70
     1
102
RTVSPropertyOp13
 70
     1
102
RTVSPropertyOp14
 70
     1
102
RTVSPropertyOp15
 70
     1
102
RTVSPropertyOp16
 70
     1
102
RTVSPropertyOp17
 70
     1
102
RTVSPropertyOp18
 70
     1
102
RTVSPropertyOp19
 70
     1
102
RTVSPropertyOp20
 70
     1
102
RTVSPropertyOp21
 70
     1
102
RTVSPropertyOp22
 70
     1
102
RTVSPropertyOp23
 70
     1
102
RTVSPropertyOp24
 70
     1
102
RTVSPropertyOp25
 70
     1
102
RTVSPropertyOp26
 70
     1
102
RTVSPropertyOp27
 70
     1
102
RTVSPropertyOp28
 70
     1
102
RTVSPropertyOp29
 70
     1
102
RTVSPropertyOp30
 70
     1
102
RTVSPropertyOp31
 70
     1
102
RTVSPropertyOp32
 70
     1
102
RTVSPropertyOp33
 70
     1
102
RTVSPropertyOp34
 70
     1
102
RTVSPropertyOp35
 70
     1
102
RTVSPropertyOp36
 70
     1
102
RTVSPropertyOp37
 70
     1
102
RTVSPropertyOp38
 70
     1
102
RTVSPropertyOp39
 70
     1
102
RTVSPropertyOp40
 70
     1
102
RTVSPropertyOp41
 70
     1
102
RTVSPropertyOp42
 70
     1
102
RTVSPropertyOp43
 70
     1
102
RTVSPropertyOp44
 70
     1
102
RTVSPropertyOp45
 70
     1
102
RTVSPropertyOp46
 70
     1
102
RTVSPropertyOp47
 70
     1
102
RTVSPropertyOp48
 70
     1
102
RTVSPropertyOp49
 70
     1
102
RTVSPropertyOp50
 70
     1
102
RTVSPropertyOp51
 70
     0
102
RTVSPropertyOp52
 70
     0
102
RTVSPropertyOp53
 70
     1
102
RTVSPropertyOp54
 70
     1
102
RTVSPropertyOp55
 70
     1
102
RTVSPropertyOp56
 70
     1
102
RTVSPropertyOp57
 70
     1
102
RTVSPropertyOp58
 70
     1
102
RTVSPropertyOp59
 70
     1
102
RTVSPropertyOp60
 70
     1
102
RTVSPropertyOp61
 70
     1
102
RTVSPropertyOp62
 70
     1
  0
XRECORD
  5
96DB
102
{ACAD_REACTORS
330
96DA
102
}
330
96DA
100
AcDbXrecord
280
     1
102
RTVSPost2010Prop28
280
     0
102
RTVSPost2010PropOp28
 70
     1
102
RTVSPost2010Prop29
280
     1
102
RTVSPost2010PropOp29
 70
     1
102
RTVSPost2010Prop30
280
     1
102
RTVSPost2010PropOp30
 70
     1
102
RTVSPost2010Prop31
280
     0
102
RTVSPost2010PropOp31
 70
     1
102
RTVSPost2010Prop32
280
     0
102
RTVSPost2010PropOp32
 70
     1
102
RTVSPost2010Prop33
280
     0
102
RTVSPost2010PropOp33
 70
     1
102
RTVSPost2010Prop34
280
     0
102
RTVSPost2010PropOp34
 70
     1
102
RTVSPost2010Prop35
280
     0
102
RTVSPost2010PropOp35
 70
     1
102
RTVSPost2010Prop36
280
     0
102
RTVSPost2010PropOp36
 70
     1
102
RTVSPost2010Prop37
 90
       50
102
RTVSPost2010PropOp37
 70
     1
102
RTVSPost2010Prop38
140
0.0
102
RTVSPost2010PropOp38
 70
     1
102
RTVSPost2010Prop39
140
1.0
102
RTVSPost2010PropOp39
 70
     1
102
RTVSPost2010Prop40
 90
        0
102
RTVSPost2010PropOp40
 70
     1
102
RTVSPost2010Prop41ColorIndex
 90
       18
102
RTVSPost2010Prop41ColorRGB
 90
        0
102
RTVSPost2010PropOp41
 70
     1
102
RTVSPost2010Prop42
 90
       50
102
RTVSPost2010PropOp42
 70
     1
102
RTVSPost2010Prop43
 90
        3
102
RTVSPost2010PropOp43
 70
     1
102
RTVSPost2010Prop44ColorIndex
 90
        5
102
RTVSPost2010Prop44ColorRGB
 90
      255
102
RTVSPost2010PropOp44
 70
     1
102
RTVSPost2010Prop45
280
     0
102
RTVSPost2010PropOp45
 70
     1
102
RTVSPost2010Prop46
 90
       50
102
RTVSPost2010PropOp46
 70
     1
102
RTVSPost2010Prop47
 90
       50
102
RTVSPost2010PropOp47
 70
     1
102
RTVSPost2010Prop48
 90
       50
102
RTVSPost2010PropOp48
 70
     1
102
RTVSPost2010Prop49
280
     0
102
RTVSPost2010PropOp49
 70
     1
102
RTVSPost2010Prop50
 90
       50
102
RTVSPost2010PropOp50
 70
     1
102
RTVSPost2010Prop51ColorIndex
 90
      256
102
RTVSPost2010Prop51ColorRGB
 90
-16777216
102
RTVSPost2010PropOp51
 70
     0
102
RTVSPost2010Prop52
140
1.0
102
RTVSPost2010PropOp52
 70
     0
102
RTVSPost2010Prop53
 90
        2
102
RTVSPost2010PropOp53
 70
     1
102
RTVSPost2010Prop54
  1
strokes_ogs.tif
102
RTVSPost2010PropOp54
 70
     1
102
RTVSPost2010Prop55
280
     0
102
RTVSPost2010PropOp55
 70
     1
102
RTVSPost2010Prop56
140
1.0
102
RTVSPost2010PropOp56
 70
     1
102
RTVSPost2010Prop57
140
1.0
102
RTVSPost2010PropOp57
 70
     1
102
RTVSPropertyOp0
 70
     1
102
RTVSPropertyOp1
 70
     1
102
RTVSPropertyOp2
 70
     1
102
RTVSPropertyOp3
 70
     1
102
RTVSPropertyOp4
 70
     1
102
RTVSPropertyOp5
 70
     1
102
RTVSPropertyOp6
 70
     1
102
RTVSPropertyOp7
 70
     1
102
RTVSPropertyOp8
 70
     1
102
RTVSPropertyOp9
 70
     1
102
RTVSPropertyOp10
 70
     1
102
RTVSPropertyOp11
 70
     1
102
RTVSPropertyOp12
 70
     1
102
RTVSPropertyOp13
 70
     1
102
RTVSPropertyOp14
 70
     1
102
RTVSPropertyOp15
 70
     1
102
RTVSPropertyOp16
 70
     1
102
RTVSPropertyOp17
 70
     1
102
RTVSPropertyOp18
 70
     1
102
RTVSPropertyOp19
 70
     1
102
RTVSPropertyOp20
 70
     1
102
RTVSPropertyOp21
 70
     1
102
RTVSPropertyOp22
 70
     1
102
RTVSPropertyOp23
 70
     1
102
RTVSPropertyOp24
 70
     1
102
RTVSPropertyOp25
 70
     1
102
RTVSPropertyOp26
 70
     1
102
RTVSPropertyOp27
 70
     1
102
RTVSPropertyOp28
 70
     1
102
RTVSPropertyOp29
 70
     1
102
RTVSPropertyOp30
 70
     1
102
RTVSPropertyOp31
 70
     1
102
RTVSPropertyOp32
 70
     1
102
RTVSPropertyOp33
 70
     1
102
RTVSPropertyOp34
 70
     1
102
RTVSPropertyOp35
 70
     1
102
RTVSPropertyOp36
 70
     1
102
RTVSPropertyOp37
 70
     1
102
RTVSPropertyOp38
 70
     1
102
RTVSPropertyOp39
 70
     1
102
RTVSPropertyOp40
 70
     1
102
RTVSPropertyOp41
 70
     1
102
RTVSPropertyOp42
 70
     1
102
RTVSPropertyOp43
 70
     1
102
RTVSPropertyOp44
 70
     1
102
RTVSPropertyOp45
 70
     1
102
RTVSPropertyOp46
 70
     1
102
RTVSPropertyOp47
 70
     1
102
RTVSPropertyOp48
 70
     1
102
RTVSPropertyOp49
 70
     1
102
RTVSPropertyOp50
 70
     1
102
RTVSPropertyOp51
 70
     0
102
RTVSPropertyOp52
 70
     0
102
RTVSPropertyOp53
 70
     1
102
RTVSPropertyOp54
 70
     1
102
RTVSPropertyOp55
 70
     1
102
RTVSPropertyOp56
 70
     1
102
RTVSPropertyOp57
 70
     1
102
RTVSPropertyOp58
 70
     1
102
RTVSPropertyOp59
 70
     1
102
RTVSPropertyOp60
 70
     1
102
RTVSPropertyOp61
 70
     1
102
RTVSPropertyOp62
 70
     1
  0
XRECORD
  5
96E3
102
{ACAD_REACTORS
330
96E2
102
}
330
96E2
100
AcDbXrecord
280
     1
102
RTVSPost2010Prop28
280
     0
102
RTVSPost2010PropOp28
 70
     1
102
RTVSPost2010Prop29
280
     1
102
RTVSPost2010PropOp29
 70
     1
102
RTVSPost2010Prop30
280
     1
102
RTVSPost2010PropOp30
 70
     1
102
RTVSPost2010Prop31
280
     0
102
RTVSPost2010PropOp31
 70
     1
102
RTVSPost2010Prop32
280
     0
102
RTVSPost2010PropOp32
 70
     1
102
RTVSPost2010Prop33
280
     0
102
RTVSPost2010PropOp33
 70
     1
102
RTVSPost2010Prop34
280
     0
102
RTVSPost2010PropOp34
 70
     1
102
RTVSPost2010Prop35
280
     0
102
RTVSPost2010PropOp35
 70
     1
102
RTVSPost2010Prop36
280
     0
102
RTVSPost2010PropOp36
 70
     1
102
RTVSPost2010Prop37
 90
       50
102
RTVSPost2010PropOp37
 70
     1
102
RTVSPost2010Prop38
140
0.0
102
RTVSPost2010PropOp38
 70
     1
102
RTVSPost2010Prop39
140
1.0
102
RTVSPost2010PropOp39
 70
     1
102
RTVSPost2010Prop40
 90
        0
102
RTVSPost2010PropOp40
 70
     1
102
RTVSPost2010Prop41ColorIndex
 90
       18
102
RTVSPost2010Prop41ColorRGB
 90
        0
102
RTVSPost2010PropOp41
 70
     1
102
RTVSPost2010Prop42
 90
       50
102
RTVSPost2010PropOp42
 70
     1
102
RTVSPost2010Prop43
 90
        3
102
RTVSPost2010PropOp43
 70
     1
102
RTVSPost2010Prop44ColorIndex
 90
        5
102
RTVSPost2010Prop44ColorRGB
 90
      255
102
RTVSPost2010PropOp44
 70
     1
102
RTVSPost2010Prop45
280
     0
102
RTVSPost2010PropOp45
 70
     1
102
RTVSPost2010Prop46
 90
       50
102
RTVSPost2010PropOp46
 70
     1
102
RTVSPost2010Prop47
 90
       50
102
RTVSPost2010PropOp47
 70
     1
102
RTVSPost2010Prop48
 90
       50
102
RTVSPost2010PropOp48
 70
     1
102
RTVSPost2010Prop49
280
     0
102
RTVSPost2010PropOp49
 70
     1
102
RTVSPost2010Prop50
 90
       50
102
RTVSPost2010PropOp50
 70
     1
102
RTVSPost2010Prop51ColorIndex
 90
      256
102
RTVSPost2010Prop51ColorRGB
 90
-16777216
102
RTVSPost2010PropOp51
 70
     0
102
RTVSPost2010Prop52
140
1.0
102
RTVSPost2010PropOp52
 70
     0
102
RTVSPost2010Prop53
 90
        2
102
RTVSPost2010PropOp53
 70
     1
102
RTVSPost2010Prop54
  1
strokes_ogs.tif
102
RTVSPost2010PropOp54
 70
     1
102
RTVSPost2010Prop55
280
     0
102
RTVSPost2010PropOp55
 70
     1
102
RTVSPost2010Prop56
140
1.0
102
RTVSPost2010PropOp56
 70
     1
102
RTVSPost2010Prop57
140
1.0
102
RTVSPost2010PropOp57
 70
     1
102
RTVSPropertyOp0
 70
     1
102
RTVSPropertyOp1
 70
     1
102
RTVSPropertyOp2
 70
     1
102
RTVSPropertyOp3
 70
     1
102
RTVSPropertyOp4
 70
     1
102
RTVSPropertyOp5
 70
     1
102
RTVSPropertyOp6
 70
     1
102
RTVSPropertyOp7
 70
     1
102
RTVSPropertyOp8
 70
     1
102
RTVSPropertyOp9
 70
     1
102
RTVSPropertyOp10
 70
     1
102
RTVSPropertyOp11
 70
     1
102
RTVSPropertyOp12
 70
     1
102
RTVSPropertyOp13
 70
     1
102
RTVSPropertyOp14
 70
     1
102
RTVSPropertyOp15
 70
     1
102
RTVSPropertyOp16
 70
     1
102
RTVSPropertyOp17
 70
     1
102
RTVSPropertyOp18
 70
     1
102
RTVSPropertyOp19
 70
     1
102
RTVSPropertyOp20
 70
     1
102
RTVSPropertyOp21
 70
     1
102
RTVSPropertyOp22
 70
     1
102
RTVSPropertyOp23
 70
     1
102
RTVSPropertyOp24
 70
     1
102
RTVSPropertyOp25
 70
     1
102
RTVSPropertyOp26
 70
     1
102
RTVSPropertyOp27
 70
     1
102
RTVSPropertyOp28
 70
     1
102
RTVSPropertyOp29
 70
     1
102
RTVSPropertyOp30
 70
     1
102
RTVSPropertyOp31
 70
     1
102
RTVSPropertyOp32
 70
     1
102
RTVSPropertyOp33
 70
     1
102
RTVSPropertyOp34
 70
     1
102
RTVSPropertyOp35
 70
     1
102
RTVSPropertyOp36
 70
     1
102
RTVSPropertyOp37
 70
     1
102
RTVSPropertyOp38
 70
     1
102
RTVSPropertyOp39
 70
     1
102
RTVSPropertyOp40
 70
     1
102
RTVSPropertyOp41
 70
     1
102
RTVSPropertyOp42
 70
     1
102
RTVSPropertyOp43
 70
     1
102
RTVSPropertyOp44
 70
     1
102
RTVSPropertyOp45
 70
     1
102
RTVSPropertyOp46
 70
     1
102
RTVSPropertyOp47
 70
     1
102
RTVSPropertyOp48
 70
     1
102
RTVSPropertyOp49
 70
     1
102
RTVSPropertyOp50
 70
     1
102
RTVSPropertyOp51
 70
     0
102
RTVSPropertyOp52
 70
     0
102
RTVSPropertyOp53
 70
     1
102
RTVSPropertyOp54
 70
     1
102
RTVSPropertyOp55
 70
     1
102
RTVSPropertyOp56
 70
     1
102
RTVSPropertyOp57
 70
     1
102
RTVSPropertyOp58
 70
     1
102
RTVSPropertyOp59
 70
     1
102
RTVSPropertyOp60
 70
     1
102
RTVSPropertyOp61
 70
     1
102
RTVSPropertyOp62
 70
     1
  0
XRECORD
  5
96FF
102
{ACAD_REACTORS
330
96FE
102
}
330
96FE
100
AcDbXrecord
280
     1
102
RTVSPost2010Prop28
280
     0
102
RTVSPost2010PropOp28
 70
     1
102
RTVSPost2010Prop29
280
     1
102
RTVSPost2010PropOp29
 70
     1
102
RTVSPost2010Prop30
280
     1
102
RTVSPost2010PropOp30
 70
     1
102
RTVSPost2010Prop31
280
     0
102
RTVSPost2010PropOp31
 70
     1
102
RTVSPost2010Prop32
280
     0
102
RTVSPost2010PropOp32
 70
     1
102
RTVSPost2010Prop33
280
     0
102
RTVSPost2010PropOp33
 70
     1
102
RTVSPost2010Prop34
280
     0
102
RTVSPost2010PropOp34
 70
     1
102
RTVSPost2010Prop35
280
     0
102
RTVSPost2010PropOp35
 70
     1
102
RTVSPost2010Prop36
280
     0
102
RTVSPost2010PropOp36
 70
     1
102
RTVSPost2010Prop37
 90
       50
102
RTVSPost2010PropOp37
 70
     0
102
RTVSPost2010Prop38
140
0.0
102
RTVSPost2010PropOp38
 70
     0
102
RTVSPost2010Prop39
140
1.0
102
RTVSPost2010PropOp39
 70
     0
102
RTVSPost2010Prop40
 90
        0
102
RTVSPost2010PropOp40
 70
     0
102
RTVSPost2010Prop41ColorIndex
 90
       18
102
RTVSPost2010Prop41ColorRGB
 90
        0
102
RTVSPost2010PropOp41
 70
     0
102
RTVSPost2010Prop42
 90
       50
102
RTVSPost2010PropOp42
 70
     0
102
RTVSPost2010Prop43
 90
        3
102
RTVSPost2010PropOp43
 70
     0
102
RTVSPost2010Prop44ColorIndex
 90
        5
102
RTVSPost2010Prop44ColorRGB
 90
      255
102
RTVSPost2010PropOp44
 70
     0
102
RTVSPost2010Prop45
280
     0
102
RTVSPost2010PropOp45
 70
     1
102
RTVSPost2010Prop46
 90
       50
102
RTVSPost2010PropOp46
 70
     0
102
RTVSPost2010Prop47
 90
       50
102
RTVSPost2010PropOp47
 70
     0
102
RTVSPost2010Prop48
 90
       50
102
RTVSPost2010PropOp48
 70
     0
102
RTVSPost2010Prop49
280
     0
102
RTVSPost2010PropOp49
 70
     1
102
RTVSPost2010Prop50
 90
       50
102
RTVSPost2010PropOp50
 70
     0
102
RTVSPost2010Prop51ColorIndex
 90
      256
102
RTVSPost2010Prop51ColorRGB
 90
-16777216
102
RTVSPost2010PropOp51
 70
     0
102
RTVSPost2010Prop52
140
1.0
102
RTVSPost2010PropOp52
 70
     0
102
RTVSPost2010Prop53
 90
        2
102
RTVSPost2010PropOp53
 70
     0
102
RTVSPost2010Prop54
  1
strokes_ogs.tif
102
RTVSPost2010PropOp54
 70
     0
102
RTVSPost2010Prop55
280
     0
102
RTVSPost2010PropOp55
 70
     1
102
RTVSPost2010Prop56
140
1.0
102
RTVSPost2010PropOp56
 70
     0
102
RTVSPost2010Prop57
140
1.0
102
RTVSPost2010PropOp57
 70
     0
102
RTVSPropertyOp0
 70
     0
102
RTVSPropertyOp1
 70
     0
102
RTVSPropertyOp2
 70
     0
102
RTVSPropertyOp3
 70
     0
102
RTVSPropertyOp4
 70
     0
102
RTVSPropertyOp5
 70
     0
102
RTVSPropertyOp6
 70
     0
102
RTVSPropertyOp7
 70
     0
102
RTVSPropertyOp8
 70
     0
102
RTVSPropertyOp9
 70
     0
102
RTVSPropertyOp10
 70
     0
102
RTVSPropertyOp11
 70
     0
102
RTVSPropertyOp12
 70
     0
102
RTVSPropertyOp13
 70
     0
102
RTVSPropertyOp14
 70
     2
102
RTVSPropertyOp15
 70
     0
102
RTVSPropertyOp16
 70
     0
102
RTVSPropertyOp17
 70
     0
102
RTVSPropertyOp18
 70
     0
102
RTVSPropertyOp19
 70
     0
102
RTVSPropertyOp20
 70
     0
102
RTVSPropertyOp21
 70
     0
102
RTVSPropertyOp22
 70
     0
102
RTVSPropertyOp23
 70
     0
102
RTVSPropertyOp24
 70
     0
102
RTVSPropertyOp25
 70
     0
102
RTVSPropertyOp26
 70
     0
102
RTVSPropertyOp27
 70
     0
102
RTVSPropertyOp28
 70
     1
102
RTVSPropertyOp29
 70
     1
102
RTVSPropertyOp30
 70
     1
102
RTVSPropertyOp31
 70
     1
102
RTVSPropertyOp32
 70
     1
102
RTVSPropertyOp33
 70
     1
102
RTVSPropertyOp34
 70
     1
102
RTVSPropertyOp35
 70
     1
102
RTVSPropertyOp36
 70
     1
102
RTVSPropertyOp37
 70
     0
102
RTVSPropertyOp38
 70
     0
102
RTVSPropertyOp39
 70
     0
102
RTVSPropertyOp40
 70
     0
102
RTVSPropertyOp41
 70
     0
102
RTVSPropertyOp42
 70
     0
102
RTVSPropertyOp43
 70
     0
102
RTVSPropertyOp44
 70
     0
102
RTVSPropertyOp45
 70
     1
102
RTVSPropertyOp46
 70
     0
102
RTVSPropertyOp47
 70
     0
102
RTVSPropertyOp48
 70
     0
102
RTVSPropertyOp49
 70
     1
102
RTVSPropertyOp50
 70
     0
102
RTVSPropertyOp51
 70
     0
102
RTVSPropertyOp52
 70
     0
102
RTVSPropertyOp53
 70
     0
102
RTVSPropertyOp54
 70
     0
102
RTVSPropertyOp55
 70
     1
102
RTVSPropertyOp56
 70
     0
102
RTVSPropertyOp57
 70
     0
102
RTVSPropertyOp58
 70
     0
102
RTVSPropertyOp59
 70
     0
102
RTVSPropertyOp60
 70
     0
102
RTVSPropertyOp61
 70
     0
102
RTVSPropertyOp62
 70
     0
  0
XRECORD
  5
96EF
102
{ACAD_REACTORS
330
96EE
102
}
330
96EE
100
AcDbXrecord
280
     1
102
RTVSPost2010Prop28
280
     0
102
RTVSPost2010PropOp28
 70
     1
102
RTVSPost2010Prop29
280
     1
102
RTVSPost2010PropOp29
 70
     1
102
RTVSPost2010Prop30
280
     1
102
RTVSPost2010PropOp30
 70
     1
102
RTVSPost2010Prop31
280
     0
102
RTVSPost2010PropOp31
 70
     1
102
RTVSPost2010Prop32
280
     0
102
RTVSPost2010PropOp32
 70
     1
102
RTVSPost2010Prop33
280
     0
102
RTVSPost2010PropOp33
 70
     1
102
RTVSPost2010Prop34
280
     0
102
RTVSPost2010PropOp34
 70
     1
102
RTVSPost2010Prop35
280
     0
102
RTVSPost2010PropOp35
 70
     1
102
RTVSPost2010Prop36
280
     0
102
RTVSPost2010PropOp36
 70
     1
102
RTVSPost2010Prop37
 90
       50
102
RTVSPost2010PropOp37
 70
     1
102
RTVSPost2010Prop38
140
0.0
102
RTVSPost2010PropOp38
 70
     1
102
RTVSPost2010Prop39
140
1.0
102
RTVSPost2010PropOp39
 70
     1
102
RTVSPost2010Prop40
 90
        0
102
RTVSPost2010PropOp40
 70
     1
102
RTVSPost2010Prop41ColorIndex
 90
       18
102
RTVSPost2010Prop41ColorRGB
 90
        0
102
RTVSPost2010PropOp41
 70
     1
102
RTVSPost2010Prop42
 90
       50
102
RTVSPost2010PropOp42
 70
     1
102
RTVSPost2010Prop43
 90
        3
102
RTVSPost2010PropOp43
 70
     1
102
RTVSPost2010Prop44ColorIndex
 90
        5
102
RTVSPost2010Prop44ColorRGB
 90
      255
102
RTVSPost2010PropOp44
 70
     1
102
RTVSPost2010Prop45
280
     0
102
RTVSPost2010PropOp45
 70
     1
102
RTVSPost2010Prop46
 90
       50
102
RTVSPost2010PropOp46
 70
     1
102
RTVSPost2010Prop47
 90
       50
102
RTVSPost2010PropOp47
 70
     1
102
RTVSPost2010Prop48
 90
       50
102
RTVSPost2010PropOp48
 70
     1
102
RTVSPost2010Prop49
280
     0
102
RTVSPost2010PropOp49
 70
     1
102
RTVSPost2010Prop50
 90
       50
102
RTVSPost2010PropOp50
 70
     1
102
RTVSPost2010Prop51ColorIndex
 90
      256
102
RTVSPost2010Prop51ColorRGB
 90
-16777216
102
RTVSPost2010PropOp51
 70
     0
102
RTVSPost2010Prop52
140
1.0
102
RTVSPost2010PropOp52
 70
     0
102
RTVSPost2010Prop53
 90
        2
102
RTVSPost2010PropOp53
 70
     1
102
RTVSPost2010Prop54
  1
strokes_ogs.tif
102
RTVSPost2010PropOp54
 70
     1
102
RTVSPost2010Prop55
280
     0
102
RTVSPost2010PropOp55
 70
     1
102
RTVSPost2010Prop56
140
1.0
102
RTVSPost2010PropOp56
 70
     1
102
RTVSPost2010Prop57
140
1.0
102
RTVSPost2010PropOp57
 70
     1
102
RTVSPropertyOp0
 70
     1
102
RTVSPropertyOp1
 70
     1
102
RTVSPropertyOp2
 70
     1
102
RTVSPropertyOp3
 70
     1
102
RTVSPropertyOp4
 70
     1
102
RTVSPropertyOp5
 70
     1
102
RTVSPropertyOp6
 70
     1
102
RTVSPropertyOp7
 70
     1
102
RTVSPropertyOp8
 70
     1
102
RTVSPropertyOp9
 70
     1
102
RTVSPropertyOp10
 70
     1
102
RTVSPropertyOp11
 70
     1
102
RTVSPropertyOp12
 70
     1
102
RTVSPropertyOp13
 70
     1
102
RTVSPropertyOp14
 70
     1
102
RTVSPropertyOp15
 70
     1
102
RTVSPropertyOp16
 70
     1
102
RTVSPropertyOp17
 70
     1
102
RTVSPropertyOp18
 70
     1
102
RTVSPropertyOp19
 70
     1
102
RTVSPropertyOp20
 70
     1
102
RTVSPropertyOp21
 70
     1
102
RTVSPropertyOp22
 70
     1
102
RTVSPropertyOp23
 70
     1
102
RTVSPropertyOp24
 70
     1
102
RTVSPropertyOp25
 70
     1
102
RTVSPropertyOp26
 70
     1
102
RTVSPropertyOp27
 70
     1
102
RTVSPropertyOp28
 70
     1
102
RTVSPropertyOp29
 70
     1
102
RTVSPropertyOp30
 70
     1
102
RTVSPropertyOp31
 70
     1
102
RTVSPropertyOp32
 70
     1
102
RTVSPropertyOp33
 70
     1
102
RTVSPropertyOp34
 70
     1
102
RTVSPropertyOp35
 70
     1
102
RTVSPropertyOp36
 70
     1
102
RTVSPropertyOp37
 70
     1
102
RTVSPropertyOp38
 70
     1
102
RTVSPropertyOp39
 70
     1
102
RTVSPropertyOp40
 70
     1
102
RTVSPropertyOp41
 70
     1
102
RTVSPropertyOp42
 70
     1
102
RTVSPropertyOp43
 70
     1
102
RTVSPropertyOp44
 70
     1
102
RTVSPropertyOp45
 70
     1
102
RTVSPropertyOp46
 70
     1
102
RTVSPropertyOp47
 70
     1
102
RTVSPropertyOp48
 70
     1
102
RTVSPropertyOp49
 70
     1
102
RTVSPropertyOp50
 70
     1
102
RTVSPropertyOp51
 70
     0
102
RTVSPropertyOp52
 70
     0
102
RTVSPropertyOp53
 70
     1
102
RTVSPropertyOp54
 70
     1
102
RTVSPropertyOp55
 70
     1
102
RTVSPropertyOp56
 70
     1
102
RTVSPropertyOp57
 70
     1
102
RTVSPropertyOp58
 70
     1
102
RTVSPropertyOp59
 70
     1
102
RTVSPropertyOp60
 70
     1
102
RTVSPropertyOp61
 70
     1
102
RTVSPropertyOp62
 70
     1
  0
XRECORD
  5
9701
102
{ACAD_REACTORS
330
9700
102
}
330
9700
100
AcDbXrecord
280
     1
102
RTVSPost2010Prop28
280
     0
102
RTVSPost2010PropOp28
 70
     1
102
RTVSPost2010Prop29
280
     1
102
RTVSPost2010PropOp29
 70
     1
102
RTVSPost2010Prop30
280
     1
102
RTVSPost2010PropOp30
 70
     1
102
RTVSPost2010Prop31
280
     0
102
RTVSPost2010PropOp31
 70
     1
102
RTVSPost2010Prop32
280
     0
102
RTVSPost2010PropOp32
 70
     1
102
RTVSPost2010Prop33
280
     0
102
RTVSPost2010PropOp33
 70
     1
102
RTVSPost2010Prop34
280
     0
102
RTVSPost2010PropOp34
 70
     1
102
RTVSPost2010Prop35
280
     0
102
RTVSPost2010PropOp35
 70
     1
102
RTVSPost2010Prop36
280
     0
102
RTVSPost2010PropOp36
 70
     1
102
RTVSPost2010Prop37
 90
       50
102
RTVSPost2010PropOp37
 70
     0
102
RTVSPost2010Prop38
140
0.0
102
RTVSPost2010PropOp38
 70
     0
102
RTVSPost2010Prop39
140
1.0
102
RTVSPost2010PropOp39
 70
     0
102
RTVSPost2010Prop40
 90
        0
102
RTVSPost2010PropOp40
 70
     0
102
RTVSPost2010Prop41ColorIndex
 90
       18
102
RTVSPost2010Prop41ColorRGB
 90
        0
102
RTVSPost2010PropOp41
 70
     0
102
RTVSPost2010Prop42
 90
       50
102
RTVSPost2010PropOp42
 70
     0
102
RTVSPost2010Prop43
 90
        3
102
RTVSPost2010PropOp43
 70
     0
102
RTVSPost2010Prop44ColorIndex
 90
        5
102
RTVSPost2010Prop44ColorRGB
 90
      255
102
RTVSPost2010PropOp44
 70
     0
102
RTVSPost2010Prop45
280
     0
102
RTVSPost2010PropOp45
 70
     1
102
RTVSPost2010Prop46
 90
       50
102
RTVSPost2010PropOp46
 70
     0
102
RTVSPost2010Prop47
 90
       50
102
RTVSPost2010PropOp47
 70
     0
102
RTVSPost2010Prop48
 90
       50
102
RTVSPost2010PropOp48
 70
     0
102
RTVSPost2010Prop49
280
     0
102
RTVSPost2010PropOp49
 70
     1
102
RTVSPost2010Prop50
 90
       50
102
RTVSPost2010PropOp50
 70
     0
102
RTVSPost2010Prop51ColorIndex
 90
      256
102
RTVSPost2010Prop51ColorRGB
 90
-16777216
102
RTVSPost2010PropOp51
 70
     0
102
RTVSPost2010Prop52
140
1.0
102
RTVSPost2010PropOp52
 70
     0
102
RTVSPost2010Prop53
 90
        2
102
RTVSPost2010PropOp53
 70
     0
102
RTVSPost2010Prop54
  1
strokes_ogs.tif
102
RTVSPost2010PropOp54
 70
     0
102
RTVSPost2010Prop55
280
     0
102
RTVSPost2010PropOp55
 70
     1
102
RTVSPost2010Prop56
140
1.0
102
RTVSPost2010PropOp56
 70
     0
102
RTVSPost2010Prop57
140
1.0
102
RTVSPost2010PropOp57
 70
     0
102
RTVSPropertyOp0
 70
     0
102
RTVSPropertyOp1
 70
     0
102
RTVSPropertyOp2
 70
     0
102
RTVSPropertyOp3
 70
     0
102
RTVSPropertyOp4
 70
     0
102
RTVSPropertyOp5
 70
     0
102
RTVSPropertyOp6
 70
     0
102
RTVSPropertyOp7
 70
     0
102
RTVSPropertyOp8
 70
     0
102
RTVSPropertyOp9
 70
     0
102
RTVSPropertyOp10
 70
     0
102
RTVSPropertyOp11
 70
     0
102
RTVSPropertyOp12
 70
     0
102
RTVSPropertyOp13
 70
     0
102
RTVSPropertyOp14
 70
     2
102
RTVSPropertyOp15
 70
     0
102
RTVSPropertyOp16
 70
     0
102
RTVSPropertyOp17
 70
     0
102
RTVSPropertyOp18
 70
     0
102
RTVSPropertyOp19
 70
     0
102
RTVSPropertyOp20
 70
     0
102
RTVSPropertyOp21
 70
     0
102
RTVSPropertyOp22
 70
     0
102
RTVSPropertyOp23
 70
     0
102
RTVSPropertyOp24
 70
     0
102
RTVSPropertyOp25
 70
     0
102
RTVSPropertyOp26
 70
     0
102
RTVSPropertyOp27
 70
     0
102
RTVSPropertyOp28
 70
     1
102
RTVSPropertyOp29
 70
     1
102
RTVSPropertyOp30
 70
     1
102
RTVSPropertyOp31
 70
     1
102
RTVSPropertyOp32
 70
     1
102
RTVSPropertyOp33
 70
     1
102
RTVSPropertyOp34
 70
     1
102
RTVSPropertyOp35
 70
     1
102
RTVSPropertyOp36
 70
     1
102
RTVSPropertyOp37
 70
     0
102
RTVSPropertyOp38
 70
     0
102
RTVSPropertyOp39
 70
     0
102
RTVSPropertyOp40
 70
     0
102
RTVSPropertyOp41
 70
     0
102
RTVSPropertyOp42
 70
     0
102
RTVSPropertyOp43
 70
     0
102
RTVSPropertyOp44
 70
     0
102
RTVSPropertyOp45
 70
     1
102
RTVSPropertyOp46
 70
     0
102
RTVSPropertyOp47
 70
     0
102
RTVSPropertyOp48
 70
     0
102
RTVSPropertyOp49
 70
     1
102
RTVSPropertyOp50
 70
     0
102
RTVSPropertyOp51
 70
     0
102
RTVSPropertyOp52
 70
     0
102
RTVSPropertyOp53
 70
     0
102
RTVSPropertyOp54
 70
     0
102
RTVSPropertyOp55
 70
     1
102
RTVSPropertyOp56
 70
     0
102
RTVSPropertyOp57
 70
     0
102
RTVSPropertyOp58
 70
     0
102
RTVSPropertyOp59
 70
     0
102
RTVSPropertyOp60
 70
     0
102
RTVSPropertyOp61
 70
     0
102
RTVSPropertyOp62
 70
     0
  0
XRECORD
  5
96E7
102
{ACAD_REACTORS
330
96E6
102
}
330
96E6
100
AcDbXrecord
280
     1
102
RTVSPost2010Prop28
280
     0
102
RTVSPost2010PropOp28
 70
     1
102
RTVSPost2010Prop29
280
     1
102
RTVSPost2010PropOp29
 70
     1
102
RTVSPost2010Prop30
280
     1
102
RTVSPost2010PropOp30
 70
     1
102
RTVSPost2010Prop31
280
     0
102
RTVSPost2010PropOp31
 70
     1
102
RTVSPost2010Prop32
280
     0
102
RTVSPost2010PropOp32
 70
     1
102
RTVSPost2010Prop33
280
     0
102
RTVSPost2010PropOp33
 70
     1
102
RTVSPost2010Prop34
280
     0
102
RTVSPost2010PropOp34
 70
     1
102
RTVSPost2010Prop35
280
     0
102
RTVSPost2010PropOp35
 70
     1
102
RTVSPost2010Prop36
280
     0
102
RTVSPost2010PropOp36
 70
     1
102
RTVSPost2010Prop37
 90
       50
102
RTVSPost2010PropOp37
 70
     1
102
RTVSPost2010Prop38
140
0.0
102
RTVSPost2010PropOp38
 70
     1
102
RTVSPost2010Prop39
140
1.0
102
RTVSPost2010PropOp39
 70
     1
102
RTVSPost2010Prop40
 90
        0
102
RTVSPost2010PropOp40
 70
     1
102
RTVSPost2010Prop41ColorIndex
 90
       18
102
RTVSPost2010Prop41ColorRGB
 90
        0
102
RTVSPost2010PropOp41
 70
     1
102
RTVSPost2010Prop42
 90
       50
102
RTVSPost2010PropOp42
 70
     1
102
RTVSPost2010Prop43
 90
        3
102
RTVSPost2010PropOp43
 70
     1
102
RTVSPost2010Prop44ColorIndex
 90
        5
102
RTVSPost2010Prop44ColorRGB
 90
      255
102
RTVSPost2010PropOp44
 70
     1
102
RTVSPost2010Prop45
280
     0
102
RTVSPost2010PropOp45
 70
     1
102
RTVSPost2010Prop46
 90
       50
102
RTVSPost2010PropOp46
 70
     1
102
RTVSPost2010Prop47
 90
       50
102
RTVSPost2010PropOp47
 70
     1
102
RTVSPost2010Prop48
 90
       50
102
RTVSPost2010PropOp48
 70
     1
102
RTVSPost2010Prop49
280
     0
102
RTVSPost2010PropOp49
 70
     1
102
RTVSPost2010Prop50
 90
       50
102
RTVSPost2010PropOp50
 70
     1
102
RTVSPost2010Prop51ColorIndex
 90
      256
102
RTVSPost2010Prop51ColorRGB
 90
-16777216
102
RTVSPost2010PropOp51
 70
     0
102
RTVSPost2010Prop52
140
1.0
102
RTVSPost2010PropOp52
 70
     0
102
RTVSPost2010Prop53
 90
        2
102
RTVSPost2010PropOp53
 70
     1
102
RTVSPost2010Prop54
  1
strokes_ogs.tif
102
RTVSPost2010PropOp54
 70
     1
102
RTVSPost2010Prop55
280
     0
102
RTVSPost2010PropOp55
 70
     1
102
RTVSPost2010Prop56
140
1.0
102
RTVSPost2010PropOp56
 70
     1
102
RTVSPost2010Prop57
140
1.0
102
RTVSPost2010PropOp57
 70
     1
102
RTVSPropertyOp0
 70
     1
102
RTVSPropertyOp1
 70
     1
102
RTVSPropertyOp2
 70
     1
102
RTVSPropertyOp3
 70
     1
102
RTVSPropertyOp4
 70
     1
102
RTVSPropertyOp5
 70
     1
102
RTVSPropertyOp6
 70
     1
102
RTVSPropertyOp7
 70
     1
102
RTVSPropertyOp8
 70
     1
102
RTVSPropertyOp9
 70
     1
102
RTVSPropertyOp10
 70
     1
102
RTVSPropertyOp11
 70
     1
102
RTVSPropertyOp12
 70
     1
102
RTVSPropertyOp13
 70
     1
102
RTVSPropertyOp14
 70
     1
102
RTVSPropertyOp15
 70
     1
102
RTVSPropertyOp16
 70
     1
102
RTVSPropertyOp17
 70
     1
102
RTVSPropertyOp18
 70
     1
102
RTVSPropertyOp19
 70
     1
102
RTVSPropertyOp20
 70
     1
102
RTVSPropertyOp21
 70
     1
102
RTVSPropertyOp22
 70
     1
102
RTVSPropertyOp23
 70
     1
102
RTVSPropertyOp24
 70
     1
102
RTVSPropertyOp25
 70
     1
102
RTVSPropertyOp26
 70
     1
102
RTVSPropertyOp27
 70
     1
102
RTVSPropertyOp28
 70
     1
102
RTVSPropertyOp29
 70
     1
102
RTVSPropertyOp30
 70
     1
102
RTVSPropertyOp31
 70
     1
102
RTVSPropertyOp32
 70
     1
102
RTVSPropertyOp33
 70
     1
102
RTVSPropertyOp34
 70
     1
102
RTVSPropertyOp35
 70
     1
102
RTVSPropertyOp36
 70
     1
102
RTVSPropertyOp37
 70
     1
102
RTVSPropertyOp38
 70
     1
102
RTVSPropertyOp39
 70
     1
102
RTVSPropertyOp40
 70
     1
102
RTVSPropertyOp41
 70
     1
102
RTVSPropertyOp42
 70
     1
102
RTVSPropertyOp43
 70
     1
102
RTVSPropertyOp44
 70
     1
102
RTVSPropertyOp45
 70
     1
102
RTVSPropertyOp46
 70
     1
102
RTVSPropertyOp47
 70
     1
102
RTVSPropertyOp48
 70
     1
102
RTVSPropertyOp49
 70
     1
102
RTVSPropertyOp50
 70
     1
102
RTVSPropertyOp51
 70
     0
102
RTVSPropertyOp52
 70
     0
102
RTVSPropertyOp53
 70
     1
102
RTVSPropertyOp54
 70
     1
102
RTVSPropertyOp55
 70
     1
102
RTVSPropertyOp56
 70
     1
102
RTVSPropertyOp57
 70
     1
102
RTVSPropertyOp58
 70
     1
102
RTVSPropertyOp59
 70
     1
102
RTVSPropertyOp60
 70
     1
102
RTVSPropertyOp61
 70
     1
102
RTVSPropertyOp62
 70
     1
  0
XRECORD
  5
96FD
102
{ACAD_REACTORS
330
96FC
102
}
330
96FC
100
AcDbXrecord
280
     1
102
RTVSPost2010Prop28
280
     0
102
RTVSPost2010PropOp28
 70
     1
102
RTVSPost2010Prop29
280
     1
102
RTVSPost2010PropOp29
 70
     1
102
RTVSPost2010Prop30
280
     1
102
RTVSPost2010PropOp30
 70
     1
102
RTVSPost2010Prop31
280
     0
102
RTVSPost2010PropOp31
 70
     1
102
RTVSPost2010Prop32
280
     0
102
RTVSPost2010PropOp32
 70
     1
102
RTVSPost2010Prop33
280
     0
102
RTVSPost2010PropOp33
 70
     1
102
RTVSPost2010Prop34
280
     0
102
RTVSPost2010PropOp34
 70
     1
102
RTVSPost2010Prop35
280
     0
102
RTVSPost2010PropOp35
 70
     1
102
RTVSPost2010Prop36
280
     0
102
RTVSPost2010PropOp36
 70
     1
102
RTVSPost2010Prop37
 90
       50
102
RTVSPost2010PropOp37
 70
     1
102
RTVSPost2010Prop38
140
0.0
102
RTVSPost2010PropOp38
 70
     1
102
RTVSPost2010Prop39
140
1.0
102
RTVSPost2010PropOp39
 70
     1
102
RTVSPost2010Prop40
 90
        0
102
RTVSPost2010PropOp40
 70
     1
102
RTVSPost2010Prop41ColorIndex
 90
       18
102
RTVSPost2010Prop41ColorRGB
 90
        0
102
RTVSPost2010PropOp41
 70
     1
102
RTVSPost2010Prop42
 90
       50
102
RTVSPost2010PropOp42
 70
     1
102
RTVSPost2010Prop43
 90
        3
102
RTVSPost2010PropOp43
 70
     1
102
RTVSPost2010Prop44ColorIndex
 90
        5
102
RTVSPost2010Prop44ColorRGB
 90
      255
102
RTVSPost2010PropOp44
 70
     1
102
RTVSPost2010Prop45
280
     0
102
RTVSPost2010PropOp45
 70
     1
102
RTVSPost2010Prop46
 90
       50
102
RTVSPost2010PropOp46
 70
     1
102
RTVSPost2010Prop47
 90
       50
102
RTVSPost2010PropOp47
 70
     1
102
RTVSPost2010Prop48
 90
       50
102
RTVSPost2010PropOp48
 70
     1
102
RTVSPost2010Prop49
280
     0
102
RTVSPost2010PropOp49
 70
     1
102
RTVSPost2010Prop50
 90
       50
102
RTVSPost2010PropOp50
 70
     1
102
RTVSPost2010Prop51ColorIndex
 90
      256
102
RTVSPost2010Prop51ColorRGB
 90
-16777216
102
RTVSPost2010PropOp51
 70
     0
102
RTVSPost2010Prop52
140
1.0
102
RTVSPost2010PropOp52
 70
     0
102
RTVSPost2010Prop53
 90
        2
102
RTVSPost2010PropOp53
 70
     1
102
RTVSPost2010Prop54
  1
strokes_ogs.tif
102
RTVSPost2010PropOp54
 70
     1
102
RTVSPost2010Prop55
280
     0
102
RTVSPost2010PropOp55
 70
     1
102
RTVSPost2010Prop56
140
1.0
102
RTVSPost2010PropOp56
 70
     1
102
RTVSPost2010Prop57
140
1.0
102
RTVSPost2010PropOp57
 70
     1
102
RTVSPropertyOp0
 70
     1
102
RTVSPropertyOp1
 70
     1
102
RTVSPropertyOp2
 70
     1
102
RTVSPropertyOp3
 70
     1
102
RTVSPropertyOp4
 70
     1
102
RTVSPropertyOp5
 70
     1
102
RTVSPropertyOp6
 70
     1
102
RTVSPropertyOp7
 70
     1
102
RTVSPropertyOp8
 70
     1
102
RTVSPropertyOp9
 70
     1
102
RTVSPropertyOp10
 70
     1
102
RTVSPropertyOp11
 70
     1
102
RTVSPropertyOp12
 70
     1
102
RTVSPropertyOp13
 70
     1
102
RTVSPropertyOp14
 70
     1
102
RTVSPropertyOp15
 70
     1
102
RTVSPropertyOp16
 70
     1
102
RTVSPropertyOp17
 70
     1
102
RTVSPropertyOp18
 70
     1
102
RTVSPropertyOp19
 70
     1
102
RTVSPropertyOp20
 70
     1
102
RTVSPropertyOp21
 70
     1
102
RTVSPropertyOp22
 70
     1
102
RTVSPropertyOp23
 70
     1
102
RTVSPropertyOp24
 70
     1
102
RTVSPropertyOp25
 70
     1
102
RTVSPropertyOp26
 70
     1
102
RTVSPropertyOp27
 70
     1
102
RTVSPropertyOp28
 70
     1
102
RTVSPropertyOp29
 70
     1
102
RTVSPropertyOp30
 70
     1
102
RTVSPropertyOp31
 70
     1
102
RTVSPropertyOp32
 70
     1
102
RTVSPropertyOp33
 70
     1
102
RTVSPropertyOp34
 70
     1
102
RTVSPropertyOp35
 70
     1
102
RTVSPropertyOp36
 70
     1
102
RTVSPropertyOp37
 70
     1
102
RTVSPropertyOp38
 70
     1
102
RTVSPropertyOp39
 70
     1
102
RTVSPropertyOp40
 70
     1
102
RTVSPropertyOp41
 70
     1
102
RTVSPropertyOp42
 70
     1
102
RTVSPropertyOp43
 70
     1
102
RTVSPropertyOp44
 70
     1
102
RTVSPropertyOp45
 70
     1
102
RTVSPropertyOp46
 70
     1
102
RTVSPropertyOp47
 70
     1
102
RTVSPropertyOp48
 70
     1
102
RTVSPropertyOp49
 70
     1
102
RTVSPropertyOp50
 70
     1
102
RTVSPropertyOp51
 70
     0
102
RTVSPropertyOp52
 70
     0
102
RTVSPropertyOp53
 70
     1
102
RTVSPropertyOp54
 70
     1
102
RTVSPropertyOp55
 70
     1
102
RTVSPropertyOp56
 70
     1
102
RTVSPropertyOp57
 70
     1
102
RTVSPropertyOp58
 70
     1
102
RTVSPropertyOp59
 70
     1
102
RTVSPropertyOp60
 70
     1
102
RTVSPropertyOp61
 70
     1
102
RTVSPropertyOp62
 70
     1
  0
XRECORD
  5
96FB
102
{ACAD_REACTORS
330
96FA
102
}
330
96FA
100
AcDbXrecord
280
     1
102
RTVSPost2010Prop28
280
     0
102
RTVSPost2010PropOp28
 70
     1
102
RTVSPost2010Prop29
280
     1
102
RTVSPost2010PropOp29
 70
     1
102
RTVSPost2010Prop30
280
     1
102
RTVSPost2010PropOp30
 70
     1
102
RTVSPost2010Prop31
280
     0
102
RTVSPost2010PropOp31
 70
     1
102
RTVSPost2010Prop32
280
     0
102
RTVSPost2010PropOp32
 70
     1
102
RTVSPost2010Prop33
280
     0
102
RTVSPost2010PropOp33
 70
     1
102
RTVSPost2010Prop34
280
     0
102
RTVSPost2010PropOp34
 70
     1
102
RTVSPost2010Prop35
280
     0
102
RTVSPost2010PropOp35
 70
     1
102
RTVSPost2010Prop36
280
     0
102
RTVSPost2010PropOp36
 70
     1
102
RTVSPost2010Prop37
 90
       50
102
RTVSPost2010PropOp37
 70
     1
102
RTVSPost2010Prop38
140
0.0
102
RTVSPost2010PropOp38
 70
     1
102
RTVSPost2010Prop39
140
1.0
102
RTVSPost2010PropOp39
 70
     1
102
RTVSPost2010Prop40
 90
        0
102
RTVSPost2010PropOp40
 70
     1
102
RTVSPost2010Prop41ColorIndex
 90
       18
102
RTVSPost2010Prop41ColorRGB
 90
        0
102
RTVSPost2010PropOp41
 70
     1
102
RTVSPost2010Prop42
 90
       50
102
RTVSPost2010PropOp42
 70
     1
102
RTVSPost2010Prop43
 90
        3
102
RTVSPost2010PropOp43
 70
     1
102
RTVSPost2010Prop44ColorIndex
 90
        5
102
RTVSPost2010Prop44ColorRGB
 90
      255
102
RTVSPost2010PropOp44
 70
     1
102
RTVSPost2010Prop45
280
     0
102
RTVSPost2010PropOp45
 70
     1
102
RTVSPost2010Prop46
 90
       50
102
RTVSPost2010PropOp46
 70
     1
102
RTVSPost2010Prop47
 90
       50
102
RTVSPost2010PropOp47
 70
     1
102
RTVSPost2010Prop48
 90
       50
102
RTVSPost2010PropOp48
 70
     1
102
RTVSPost2010Prop49
280
     0
102
RTVSPost2010PropOp49
 70
     1
102
RTVSPost2010Prop50
 90
       50
102
RTVSPost2010PropOp50
 70
     1
102
RTVSPost2010Prop51ColorIndex
 90
      256
102
RTVSPost2010Prop51ColorRGB
 90
-16777216
102
RTVSPost2010PropOp51
 70
     0
102
RTVSPost2010Prop52
140
1.0
102
RTVSPost2010PropOp52
 70
     0
102
RTVSPost2010Prop53
 90
        2
102
RTVSPost2010PropOp53
 70
     1
102
RTVSPost2010Prop54
  1
strokes_ogs.tif
102
RTVSPost2010PropOp54
 70
     1
102
RTVSPost2010Prop55
280
     0
102
RTVSPost2010PropOp55
 70
     1
102
RTVSPost2010Prop56
140
1.0
102
RTVSPost2010PropOp56
 70
     1
102
RTVSPost2010Prop57
140
1.0
102
RTVSPost2010PropOp57
 70
     1
102
RTVSPropertyOp0
 70
     1
102
RTVSPropertyOp1
 70
     1
102
RTVSPropertyOp2
 70
     1
102
RTVSPropertyOp3
 70
     1
102
RTVSPropertyOp4
 70
     1
102
RTVSPropertyOp5
 70
     1
102
RTVSPropertyOp6
 70
     1
102
RTVSPropertyOp7
 70
     1
102
RTVSPropertyOp8
 70
     1
102
RTVSPropertyOp9
 70
     1
102
RTVSPropertyOp10
 70
     1
102
RTVSPropertyOp11
 70
     1
102
RTVSPropertyOp12
 70
     1
102
RTVSPropertyOp13
 70
     1
102
RTVSPropertyOp14
 70
     1
102
RTVSPropertyOp15
 70
     1
102
RTVSPropertyOp16
 70
     1
102
RTVSPropertyOp17
 70
     1
102
RTVSPropertyOp18
 70
     1
102
RTVSPropertyOp19
 70
     1
102
RTVSPropertyOp20
 70
     1
102
RTVSPropertyOp21
 70
     1
102
RTVSPropertyOp22
 70
     1
102
RTVSPropertyOp23
 70
     1
102
RTVSPropertyOp24
 70
     1
102
RTVSPropertyOp25
 70
     1
102
RTVSPropertyOp26
 70
     1
102
RTVSPropertyOp27
 70
     1
102
RTVSPropertyOp28
 70
     1
102
RTVSPropertyOp29
 70
     1
102
RTVSPropertyOp30
 70
     1
102
RTVSPropertyOp31
 70
     1
102
RTVSPropertyOp32
 70
     1
102
RTVSPropertyOp33
 70
     1
102
RTVSPropertyOp34
 70
     1
102
RTVSPropertyOp35
 70
     1
102
RTVSPropertyOp36
 70
     1
102
RTVSPropertyOp37
 70
     1
102
RTVSPropertyOp38
 70
     1
102
RTVSPropertyOp39
 70
     1
102
RTVSPropertyOp40
 70
     1
102
RTVSPropertyOp41
 70
     1
102
RTVSPropertyOp42
 70
     1
102
RTVSPropertyOp43
 70
     1
102
RTVSPropertyOp44
 70
     1
102
RTVSPropertyOp45
 70
     1
102
RTVSPropertyOp46
 70
     1
102
RTVSPropertyOp47
 70
     1
102
RTVSPropertyOp48
 70
     1
102
RTVSPropertyOp49
 70
     1
102
RTVSPropertyOp50
 70
     1
102
RTVSPropertyOp51
 70
     0
102
RTVSPropertyOp52
 70
     0
102
RTVSPropertyOp53
 70
     1
102
RTVSPropertyOp54
 70
     1
102
RTVSPropertyOp55
 70
     1
102
RTVSPropertyOp56
 70
     1
102
RTVSPropertyOp57
 70
     1
102
RTVSPropertyOp58
 70
     1
102
RTVSPropertyOp59
 70
     1
102
RTVSPropertyOp60
 70
     1
102
RTVSPropertyOp61
 70
     1
102
RTVSPropertyOp62
 70
     1
  0
XRECORD
  5
96F5
102
{ACAD_REACTORS
330
96F4
102
}
330
96F4
100
AcDbXrecord
280
     1
102
RTVSPost2010Prop28
280
     0
102
RTVSPost2010PropOp28
 70
     1
102
RTVSPost2010Prop29
280
     1
102
RTVSPost2010PropOp29
 70
     1
102
RTVSPost2010Prop30
280
     1
102
RTVSPost2010PropOp30
 70
     1
102
RTVSPost2010Prop31
280
     0
102
RTVSPost2010PropOp31
 70
     1
102
RTVSPost2010Prop32
280
     0
102
RTVSPost2010PropOp32
 70
     1
102
RTVSPost2010Prop33
280
     0
102
RTVSPost2010PropOp33
 70
     1
102
RTVSPost2010Prop34
280
     0
102
RTVSPost2010PropOp34
 70
     1
102
RTVSPost2010Prop35
280
     0
102
RTVSPost2010PropOp35
 70
     1
102
RTVSPost2010Prop36
280
     0
102
RTVSPost2010PropOp36
 70
     1
102
RTVSPost2010Prop37
 90
       50
102
RTVSPost2010PropOp37
 70
     1
102
RTVSPost2010Prop38
140
0.0
102
RTVSPost2010PropOp38
 70
     1
102
RTVSPost2010Prop39
140
1.0
102
RTVSPost2010PropOp39
 70
     1
102
RTVSPost2010Prop40
 90
        0
102
RTVSPost2010PropOp40
 70
     1
102
RTVSPost2010Prop41ColorIndex
 90
       18
102
RTVSPost2010Prop41ColorRGB
 90
        0
102
RTVSPost2010PropOp41
 70
     1
102
RTVSPost2010Prop42
 90
       50
102
RTVSPost2010PropOp42
 70
     1
102
RTVSPost2010Prop43
 90
        3
102
RTVSPost2010PropOp43
 70
     1
102
RTVSPost2010Prop44ColorIndex
 90
        5
102
RTVSPost2010Prop44ColorRGB
 90
      255
102
RTVSPost2010PropOp44
 70
     1
102
RTVSPost2010Prop45
280
     0
102
RTVSPost2010PropOp45
 70
     1
102
RTVSPost2010Prop46
 90
       50
102
RTVSPost2010PropOp46
 70
     1
102
RTVSPost2010Prop47
 90
       50
102
RTVSPost2010PropOp47
 70
     1
102
RTVSPost2010Prop48
 90
       50
102
RTVSPost2010PropOp48
 70
     1
102
RTVSPost2010Prop49
280
     0
102
RTVSPost2010PropOp49
 70
     1
102
RTVSPost2010Prop50
 90
       50
102
RTVSPost2010PropOp50
 70
     1
102
RTVSPost2010Prop51ColorIndex
 90
      256
102
RTVSPost2010Prop51ColorRGB
 90
-16777216
102
RTVSPost2010PropOp51
 70
     0
102
RTVSPost2010Prop52
140
1.0
102
RTVSPost2010PropOp52
 70
     0
102
RTVSPost2010Prop53
 90
        2
102
RTVSPost2010PropOp53
 70
     1
102
RTVSPost2010Prop54
  1
strokes_ogs.tif
102
RTVSPost2010PropOp54
 70
     1
102
RTVSPost2010Prop55
280
     0
102
RTVSPost2010PropOp55
 70
     1
102
RTVSPost2010Prop56
140
1.0
102
RTVSPost2010PropOp56
 70
     1
102
RTVSPost2010Prop57
140
1.0
102
RTVSPost2010PropOp57
 70
     1
102
RTVSPropertyOp0
 70
     1
102
RTVSPropertyOp1
 70
     1
102
RTVSPropertyOp2
 70
     1
102
RTVSPropertyOp3
 70
     1
102
RTVSPropertyOp4
 70
     1
102
RTVSPropertyOp5
 70
     1
102
RTVSPropertyOp6
 70
     1
102
RTVSPropertyOp7
 70
     1
102
RTVSPropertyOp8
 70
     1
102
RTVSPropertyOp9
 70
     1
102
RTVSPropertyOp10
 70
     1
102
RTVSPropertyOp11
 70
     1
102
RTVSPropertyOp12
 70
     1
102
RTVSPropertyOp13
 70
     1
102
RTVSPropertyOp14
 70
     1
102
RTVSPropertyOp15
 70
     1
102
RTVSPropertyOp16
 70
     1
102
RTVSPropertyOp17
 70
     1
102
RTVSPropertyOp18
 70
     1
102
RTVSPropertyOp19
 70
     1
102
RTVSPropertyOp20
 70
     1
102
RTVSPropertyOp21
 70
     1
102
RTVSPropertyOp22
 70
     1
102
RTVSPropertyOp23
 70
     1
102
RTVSPropertyOp24
 70
     1
102
RTVSPropertyOp25
 70
     1
102
RTVSPropertyOp26
 70
     1
102
RTVSPropertyOp27
 70
     1
102
RTVSPropertyOp28
 70
     1
102
RTVSPropertyOp29
 70
     1
102
RTVSPropertyOp30
 70
     1
102
RTVSPropertyOp31
 70
     1
102
RTVSPropertyOp32
 70
     1
102
RTVSPropertyOp33
 70
     1
102
RTVSPropertyOp34
 70
     1
102
RTVSPropertyOp35
 70
     1
102
RTVSPropertyOp36
 70
     1
102
RTVSPropertyOp37
 70
     1
102
RTVSPropertyOp38
 70
     1
102
RTVSPropertyOp39
 70
     1
102
RTVSPropertyOp40
 70
     1
102
RTVSPropertyOp41
 70
     1
102
RTVSPropertyOp42
 70
     1
102
RTVSPropertyOp43
 70
     1
102
RTVSPropertyOp44
 70
     1
102
RTVSPropertyOp45
 70
     1
102
RTVSPropertyOp46
 70
     1
102
RTVSPropertyOp47
 70
     1
102
RTVSPropertyOp48
 70
     1
102
RTVSPropertyOp49
 70
     1
102
RTVSPropertyOp50
 70
     1
102
RTVSPropertyOp51
 70
     0
102
RTVSPropertyOp52
 70
     0
102
RTVSPropertyOp53
 70
     1
102
RTVSPropertyOp54
 70
     1
102
RTVSPropertyOp55
 70
     1
102
RTVSPropertyOp56
 70
     1
102
RTVSPropertyOp57
 70
     1
102
RTVSPropertyOp58
 70
     1
102
RTVSPropertyOp59
 70
     1
102
RTVSPropertyOp60
 70
     1
102
RTVSPropertyOp61
 70
     1
102
RTVSPropertyOp62
 70
     1
  0
XRECORD
  5
96F7
102
{ACAD_REACTORS
330
96F6
102
}
330
96F6
100
AcDbXrecord
280
     1
102
RTVSPost2010Prop28
280
     0
102
RTVSPost2010PropOp28
 70
     1
102
RTVSPost2010Prop29
280
     1
102
RTVSPost2010PropOp29
 70
     1
102
RTVSPost2010Prop30
280
     1
102
RTVSPost2010PropOp30
 70
     1
102
RTVSPost2010Prop31
280
     0
102
RTVSPost2010PropOp31
 70
     1
102
RTVSPost2010Prop32
280
     0
102
RTVSPost2010PropOp32
 70
     1
102
RTVSPost2010Prop33
280
     0
102
RTVSPost2010PropOp33
 70
     1
102
RTVSPost2010Prop34
280
     0
102
RTVSPost2010PropOp34
 70
     1
102
RTVSPost2010Prop35
280
     0
102
RTVSPost2010PropOp35
 70
     1
102
RTVSPost2010Prop36
280
     0
102
RTVSPost2010PropOp36
 70
     1
102
RTVSPost2010Prop37
 90
       50
102
RTVSPost2010PropOp37
 70
     1
102
RTVSPost2010Prop38
140
0.0
102
RTVSPost2010PropOp38
 70
     1
102
RTVSPost2010Prop39
140
1.0
102
RTVSPost2010PropOp39
 70
     1
102
RTVSPost2010Prop40
 90
        0
102
RTVSPost2010PropOp40
 70
     1
102
RTVSPost2010Prop41ColorIndex
 90
       18
102
RTVSPost2010Prop41ColorRGB
 90
        0
102
RTVSPost2010PropOp41
 70
     1
102
RTVSPost2010Prop42
 90
       50
102
RTVSPost2010PropOp42
 70
     1
102
RTVSPost2010Prop43
 90
        3
102
RTVSPost2010PropOp43
 70
     1
102
RTVSPost2010Prop44ColorIndex
 90
        5
102
RTVSPost2010Prop44ColorRGB
 90
      255
102
RTVSPost2010PropOp44
 70
     1
102
RTVSPost2010Prop45
280
     0
102
RTVSPost2010PropOp45
 70
     1
102
RTVSPost2010Prop46
 90
       50
102
RTVSPost2010PropOp46
 70
     1
102
RTVSPost2010Prop47
 90
       50
102
RTVSPost2010PropOp47
 70
     1
102
RTVSPost2010Prop48
 90
       50
102
RTVSPost2010PropOp48
 70
     1
102
RTVSPost2010Prop49
280
     0
102
RTVSPost2010PropOp49
 70
     1
102
RTVSPost2010Prop50
 90
       50
102
RTVSPost2010PropOp50
 70
     1
102
RTVSPost2010Prop51ColorIndex
 90
      256
102
RTVSPost2010Prop51ColorRGB
 90
-16777216
102
RTVSPost2010PropOp51
 70
     0
102
RTVSPost2010Prop52
140
1.0
102
RTVSPost2010PropOp52
 70
     0
102
RTVSPost2010Prop53
 90
        2
102
RTVSPost2010PropOp53
 70
     1
102
RTVSPost2010Prop54
  1
strokes_ogs.tif
102
RTVSPost2010PropOp54
 70
     1
102
RTVSPost2010Prop55
280
     0
102
RTVSPost2010PropOp55
 70
     1
102
RTVSPost2010Prop56
140
1.0
102
RTVSPost2010PropOp56
 70
     1
102
RTVSPost2010Prop57
140
1.0
102
RTVSPost2010PropOp57
 70
     1
102
RTVSPropertyOp0
 70
     1
102
RTVSPropertyOp1
 70
     1
102
RTVSPropertyOp2
 70
     1
102
RTVSPropertyOp3
 70
     1
102
RTVSPropertyOp4
 70
     1
102
RTVSPropertyOp5
 70
     1
102
RTVSPropertyOp6
 70
     1
102
RTVSPropertyOp7
 70
     1
102
RTVSPropertyOp8
 70
     1
102
RTVSPropertyOp9
 70
     1
102
RTVSPropertyOp10
 70
     1
102
RTVSPropertyOp11
 70
     1
102
RTVSPropertyOp12
 70
     1
102
RTVSPropertyOp13
 70
     1
102
RTVSPropertyOp14
 70
     1
102
RTVSPropertyOp15
 70
     1
102
RTVSPropertyOp16
 70
     1
102
RTVSPropertyOp17
 70
     1
102
RTVSPropertyOp18
 70
     1
102
RTVSPropertyOp19
 70
     1
102
RTVSPropertyOp20
 70
     1
102
RTVSPropertyOp21
 70
     1
102
RTVSPropertyOp22
 70
     1
102
RTVSPropertyOp23
 70
     1
102
RTVSPropertyOp24
 70
     1
102
RTVSPropertyOp25
 70
     1
102
RTVSPropertyOp26
 70
     1
102
RTVSPropertyOp27
 70
     1
102
RTVSPropertyOp28
 70
     1
102
RTVSPropertyOp29
 70
     1
102
RTVSPropertyOp30
 70
     1
102
RTVSPropertyOp31
 70
     1
102
RTVSPropertyOp32
 70
     1
102
RTVSPropertyOp33
 70
     1
102
RTVSPropertyOp34
 70
     1
102
RTVSPropertyOp35
 70
     1
102
RTVSPropertyOp36
 70
     1
102
RTVSPropertyOp37
 70
     1
102
RTVSPropertyOp38
 70
     1
102
RTVSPropertyOp39
 70
     1
102
RTVSPropertyOp40
 70
     1
102
RTVSPropertyOp41
 70
     1
102
RTVSPropertyOp42
 70
     1
102
RTVSPropertyOp43
 70
     1
102
RTVSPropertyOp44
 70
     1
102
RTVSPropertyOp45
 70
     1
102
RTVSPropertyOp46
 70
     1
102
RTVSPropertyOp47
 70
     1
102
RTVSPropertyOp48
 70
     1
102
RTVSPropertyOp49
 70
     1
102
RTVSPropertyOp50
 70
     1
102
RTVSPropertyOp51
 70
     0
102
RTVSPropertyOp52
 70
     0
102
RTVSPropertyOp53
 70
     1
102
RTVSPropertyOp54
 70
     1
102
RTVSPropertyOp55
 70
     1
102
RTVSPropertyOp56
 70
     1
102
RTVSPropertyOp57
 70
     1
102
RTVSPropertyOp58
 70
     1
102
RTVSPropertyOp59
 70
     1
102
RTVSPropertyOp60
 70
     1
102
RTVSPropertyOp61
 70
     1
102
RTVSPropertyOp62
 70
     1
  0
XRECORD
  5
96ED
102
{ACAD_REACTORS
330
96EC
102
}
330
96EC
100
AcDbXrecord
280
     1
102
RTVSPost2010Prop28
280
     0
102
RTVSPost2010PropOp28
 70
     1
102
RTVSPost2010Prop29
280
     1
102
RTVSPost2010PropOp29
 70
     1
102
RTVSPost2010Prop30
280
     1
102
RTVSPost2010PropOp30
 70
     1
102
RTVSPost2010Prop31
280
     0
102
RTVSPost2010PropOp31
 70
     1
102
RTVSPost2010Prop32
280
     0
102
RTVSPost2010PropOp32
 70
     1
102
RTVSPost2010Prop33
280
     0
102
RTVSPost2010PropOp33
 70
     1
102
RTVSPost2010Prop34
280
     0
102
RTVSPost2010PropOp34
 70
     1
102
RTVSPost2010Prop35
280
     0
102
RTVSPost2010PropOp35
 70
     1
102
RTVSPost2010Prop36
280
     0
102
RTVSPost2010PropOp36
 70
     1
102
RTVSPost2010Prop37
 90
       50
102
RTVSPost2010PropOp37
 70
     1
102
RTVSPost2010Prop38
140
0.0
102
RTVSPost2010PropOp38
 70
     1
102
RTVSPost2010Prop39
140
1.0
102
RTVSPost2010PropOp39
 70
     1
102
RTVSPost2010Prop40
 90
        0
102
RTVSPost2010PropOp40
 70
     1
102
RTVSPost2010Prop41ColorIndex
 90
       18
102
RTVSPost2010Prop41ColorRGB
 90
        0
102
RTVSPost2010PropOp41
 70
     1
102
RTVSPost2010Prop42
 90
       50
102
RTVSPost2010PropOp42
 70
     1
102
RTVSPost2010Prop43
 90
        3
102
RTVSPost2010PropOp43
 70
     1
102
RTVSPost2010Prop44ColorIndex
 90
        5
102
RTVSPost2010Prop44ColorRGB
 90
      255
102
RTVSPost2010PropOp44
 70
     1
102
RTVSPost2010Prop45
280
     0
102
RTVSPost2010PropOp45
 70
     1
102
RTVSPost2010Prop46
 90
       50
102
RTVSPost2010PropOp46
 70
     1
102
RTVSPost2010Prop47
 90
       50
102
RTVSPost2010PropOp47
 70
     1
102
RTVSPost2010Prop48
 90
       50
102
RTVSPost2010PropOp48
 70
     1
102
RTVSPost2010Prop49
280
     0
102
RTVSPost2010PropOp49
 70
     1
102
RTVSPost2010Prop50
 90
       50
102
RTVSPost2010PropOp50
 70
     1
102
RTVSPost2010Prop51ColorIndex
 90
      256
102
RTVSPost2010Prop51ColorRGB
 90
-16777216
102
RTVSPost2010PropOp51
 70
     0
102
RTVSPost2010Prop52
140
1.0
102
RTVSPost2010PropOp52
 70
     0
102
RTVSPost2010Prop53
 90
        2
102
RTVSPost2010PropOp53
 70
     1
102
RTVSPost2010Prop54
  1
strokes_ogs.tif
102
RTVSPost2010PropOp54
 70
     1
102
RTVSPost2010Prop55
280
     0
102
RTVSPost2010PropOp55
 70
     1
102
RTVSPost2010Prop56
140
1.0
102
RTVSPost2010PropOp56
 70
     1
102
RTVSPost2010Prop57
140
1.0
102
RTVSPost2010PropOp57
 70
     1
102
RTVSPropertyOp0
 70
     1
102
RTVSPropertyOp1
 70
     1
102
RTVSPropertyOp2
 70
     1
102
RTVSPropertyOp3
 70
     1
102
RTVSPropertyOp4
 70
     1
102
RTVSPropertyOp5
 70
     1
102
RTVSPropertyOp6
 70
     1
102
RTVSPropertyOp7
 70
     1
102
RTVSPropertyOp8
 70
     1
102
RTVSPropertyOp9
 70
     1
102
RTVSPropertyOp10
 70
     1
102
RTVSPropertyOp11
 70
     1
102
RTVSPropertyOp12
 70
     1
102
RTVSPropertyOp13
 70
     1
102
RTVSPropertyOp14
 70
     1
102
RTVSPropertyOp15
 70
     1
102
RTVSPropertyOp16
 70
     1
102
RTVSPropertyOp17
 70
     1
102
RTVSPropertyOp18
 70
     1
102
RTVSPropertyOp19
 70
     1
102
RTVSPropertyOp20
 70
     1
102
RTVSPropertyOp21
 70
     1
102
RTVSPropertyOp22
 70
     1
102
RTVSPropertyOp23
 70
     1
102
RTVSPropertyOp24
 70
     1
102
RTVSPropertyOp25
 70
     1
102
RTVSPropertyOp26
 70
     1
102
RTVSPropertyOp27
 70
     1
102
RTVSPropertyOp28
 70
     1
102
RTVSPropertyOp29
 70
     1
102
RTVSPropertyOp30
 70
     1
102
RTVSPropertyOp31
 70
     1
102
RTVSPropertyOp32
 70
     1
102
RTVSPropertyOp33
 70
     1
102
RTVSPropertyOp34
 70
     1
102
RTVSPropertyOp35
 70
     1
102
RTVSPropertyOp36
 70
     1
102
RTVSPropertyOp37
 70
     1
102
RTVSPropertyOp38
 70
     1
102
RTVSPropertyOp39
 70
     1
102
RTVSPropertyOp40
 70
     1
102
RTVSPropertyOp41
 70
     1
102
RTVSPropertyOp42
 70
     1
102
RTVSPropertyOp43
 70
     1
102
RTVSPropertyOp44
 70
     1
102
RTVSPropertyOp45
 70
     1
102
RTVSPropertyOp46
 70
     1
102
RTVSPropertyOp47
 70
     1
102
RTVSPropertyOp48
 70
     1
102
RTVSPropertyOp49
 70
     1
102
RTVSPropertyOp50
 70
     1
102
RTVSPropertyOp51
 70
     0
102
RTVSPropertyOp52
 70
     0
102
RTVSPropertyOp53
 70
     1
102
RTVSPropertyOp54
 70
     1
102
RTVSPropertyOp55
 70
     1
102
RTVSPropertyOp56
 70
     1
102
RTVSPropertyOp57
 70
     1
102
RTVSPropertyOp58
 70
     1
102
RTVSPropertyOp59
 70
     1
102
RTVSPropertyOp60
 70
     1
102
RTVSPropertyOp61
 70
     1
102
RTVSPropertyOp62
 70
     1
  0
XRECORD
  5
96E1
102
{ACAD_REACTORS
330
96E0
102
}
330
96E0
100
AcDbXrecord
280
     1
102
RTVSPost2010Prop28
280
     0
102
RTVSPost2010PropOp28
 70
     1
102
RTVSPost2010Prop29
280
     1
102
RTVSPost2010PropOp29
 70
     1
102
RTVSPost2010Prop30
280
     1
102
RTVSPost2010PropOp30
 70
     1
102
RTVSPost2010Prop31
280
     0
102
RTVSPost2010PropOp31
 70
     1
102
RTVSPost2010Prop32
280
     0
102
RTVSPost2010PropOp32
 70
     1
102
RTVSPost2010Prop33
280
     0
102
RTVSPost2010PropOp33
 70
     1
102
RTVSPost2010Prop34
280
     0
102
RTVSPost2010PropOp34
 70
     1
102
RTVSPost2010Prop35
280
     0
102
RTVSPost2010PropOp35
 70
     1
102
RTVSPost2010Prop36
280
     0
102
RTVSPost2010PropOp36
 70
     1
102
RTVSPost2010Prop37
 90
       50
102
RTVSPost2010PropOp37
 70
     1
102
RTVSPost2010Prop38
140
0.0
102
RTVSPost2010PropOp38
 70
     1
102
RTVSPost2010Prop39
140
1.0
102
RTVSPost2010PropOp39
 70
     1
102
RTVSPost2010Prop40
 90
        0
102
RTVSPost2010PropOp40
 70
     1
102
RTVSPost2010Prop41ColorIndex
 90
       18
102
RTVSPost2010Prop41ColorRGB
 90
        0
102
RTVSPost2010PropOp41
 70
     1
102
RTVSPost2010Prop42
 90
       50
102
RTVSPost2010PropOp42
 70
     1
102
RTVSPost2010Prop43
 90
        3
102
RTVSPost2010PropOp43
 70
     1
102
RTVSPost2010Prop44ColorIndex
 90
        5
102
RTVSPost2010Prop44ColorRGB
 90
      255
102
RTVSPost2010PropOp44
 70
     1
102
RTVSPost2010Prop45
280
     0
102
RTVSPost2010PropOp45
 70
     1
102
RTVSPost2010Prop46
 90
       50
102
RTVSPost2010PropOp46
 70
     1
102
RTVSPost2010Prop47
 90
       50
102
RTVSPost2010PropOp47
 70
     1
102
RTVSPost2010Prop48
 90
       50
102
RTVSPost2010PropOp48
 70
     1
102
RTVSPost2010Prop49
280
     0
102
RTVSPost2010PropOp49
 70
     1
102
RTVSPost2010Prop50
 90
       50
102
RTVSPost2010PropOp50
 70
     1
102
RTVSPost2010Prop51ColorIndex
 90
      256
102
RTVSPost2010Prop51ColorRGB
 90
-16777216
102
RTVSPost2010PropOp51
 70
     0
102
RTVSPost2010Prop52
140
1.0
102
RTVSPost2010PropOp52
 70
     0
102
RTVSPost2010Prop53
 90
        2
102
RTVSPost2010PropOp53
 70
     1
102
RTVSPost2010Prop54
  1
strokes_ogs.tif
102
RTVSPost2010PropOp54
 70
     1
102
RTVSPost2010Prop55
280
     0
102
RTVSPost2010PropOp55
 70
     1
102
RTVSPost2010Prop56
140
1.0
102
RTVSPost2010PropOp56
 70
     1
102
RTVSPost2010Prop57
140
1.0
102
RTVSPost2010PropOp57
 70
     1
102
RTVSPropertyOp0
 70
     1
102
RTVSPropertyOp1
 70
     1
102
RTVSPropertyOp2
 70
     1
102
RTVSPropertyOp3
 70
     1
102
RTVSPropertyOp4
 70
     1
102
RTVSPropertyOp5
 70
     1
102
RTVSPropertyOp6
 70
     1
102
RTVSPropertyOp7
 70
     1
102
RTVSPropertyOp8
 70
     1
102
RTVSPropertyOp9
 70
     1
102
RTVSPropertyOp10
 70
     1
102
RTVSPropertyOp11
 70
     1
102
RTVSPropertyOp12
 70
     1
102
RTVSPropertyOp13
 70
     1
102
RTVSPropertyOp14
 70
     1
102
RTVSPropertyOp15
 70
     1
102
RTVSPropertyOp16
 70
     1
102
RTVSPropertyOp17
 70
     1
102
RTVSPropertyOp18
 70
     1
102
RTVSPropertyOp19
 70
     1
102
RTVSPropertyOp20
 70
     1
102
RTVSPropertyOp21
 70
     1
102
RTVSPropertyOp22
 70
     1
102
RTVSPropertyOp23
 70
     1
102
RTVSPropertyOp24
 70
     1
102
RTVSPropertyOp25
 70
     1
102
RTVSPropertyOp26
 70
     1
102
RTVSPropertyOp27
 70
     1
102
RTVSPropertyOp28
 70
     1
102
RTVSPropertyOp29
 70
     1
102
RTVSPropertyOp30
 70
     1
102
RTVSPropertyOp31
 70
     1
102
RTVSPropertyOp32
 70
     1
102
RTVSPropertyOp33
 70
     1
102
RTVSPropertyOp34
 70
     1
102
RTVSPropertyOp35
 70
     1
102
RTVSPropertyOp36
 70
     1
102
RTVSPropertyOp37
 70
     1
102
RTVSPropertyOp38
 70
     1
102
RTVSPropertyOp39
 70
     1
102
RTVSPropertyOp40
 70
     1
102
RTVSPropertyOp41
 70
     1
102
RTVSPropertyOp42
 70
     1
102
RTVSPropertyOp43
 70
     1
102
RTVSPropertyOp44
 70
     1
102
RTVSPropertyOp45
 70
     1
102
RTVSPropertyOp46
 70
     1
102
RTVSPropertyOp47
 70
     1
102
RTVSPropertyOp48
 70
     1
102
RTVSPropertyOp49
 70
     1
102
RTVSPropertyOp50
 70
     1
102
RTVSPropertyOp51
 70
     0
102
RTVSPropertyOp52
 70
     0
102
RTVSPropertyOp53
 70
     1
102
RTVSPropertyOp54
 70
     1
102
RTVSPropertyOp55
 70
     1
102
RTVSPropertyOp56
 70
     1
102
RTVSPropertyOp57
 70
     1
102
RTVSPropertyOp58
 70
     1
102
RTVSPropertyOp59
 70
     1
102
RTVSPropertyOp60
 70
     1
102
RTVSPropertyOp61
 70
     1
102
RTVSPropertyOp62
 70
     1
  0
XRECORD
  5
96F9
102
{ACAD_REACTORS
330
96F8
102
}
330
96F8
100
AcDbXrecord
280
     1
102
RTVSPost2010Prop28
280
     0
102
RTVSPost2010PropOp28
 70
     1
102
RTVSPost2010Prop29
280
     1
102
RTVSPost2010PropOp29
 70
     1
102
RTVSPost2010Prop30
280
     1
102
RTVSPost2010PropOp30
 70
     1
102
RTVSPost2010Prop31
280
     0
102
RTVSPost2010PropOp31
 70
     1
102
RTVSPost2010Prop32
280
     0
102
RTVSPost2010PropOp32
 70
     1
102
RTVSPost2010Prop33
280
     0
102
RTVSPost2010PropOp33
 70
     1
102
RTVSPost2010Prop34
280
     0
102
RTVSPost2010PropOp34
 70
     1
102
RTVSPost2010Prop35
280
     0
102
RTVSPost2010PropOp35
 70
     1
102
RTVSPost2010Prop36
280
     0
102
RTVSPost2010PropOp36
 70
     1
102
RTVSPost2010Prop37
 90
       50
102
RTVSPost2010PropOp37
 70
     1
102
RTVSPost2010Prop38
140
0.0
102
RTVSPost2010PropOp38
 70
     1
102
RTVSPost2010Prop39
140
1.0
102
RTVSPost2010PropOp39
 70
     1
102
RTVSPost2010Prop40
 90
        0
102
RTVSPost2010PropOp40
 70
     1
102
RTVSPost2010Prop41ColorIndex
 90
       18
102
RTVSPost2010Prop41ColorRGB
 90
        0
102
RTVSPost2010PropOp41
 70
     1
102
RTVSPost2010Prop42
 90
       50
102
RTVSPost2010PropOp42
 70
     1
102
RTVSPost2010Prop43
 90
        3
102
RTVSPost2010PropOp43
 70
     1
102
RTVSPost2010Prop44ColorIndex
 90
        5
102
RTVSPost2010Prop44ColorRGB
 90
      255
102
RTVSPost2010PropOp44
 70
     1
102
RTVSPost2010Prop45
280
     0
102
RTVSPost2010PropOp45
 70
     1
102
RTVSPost2010Prop46
 90
       50
102
RTVSPost2010PropOp46
 70
     1
102
RTVSPost2010Prop47
 90
       50
102
RTVSPost2010PropOp47
 70
     1
102
RTVSPost2010Prop48
 90
       50
102
RTVSPost2010PropOp48
 70
     1
102
RTVSPost2010Prop49
280
     0
102
RTVSPost2010PropOp49
 70
     1
102
RTVSPost2010Prop50
 90
       50
102
RTVSPost2010PropOp50
 70
     1
102
RTVSPost2010Prop51ColorIndex
 90
      256
102
RTVSPost2010Prop51ColorRGB
 90
-16777216
102
RTVSPost2010PropOp51
 70
     0
102
RTVSPost2010Prop52
140
1.0
102
RTVSPost2010PropOp52
 70
     0
102
RTVSPost2010Prop53
 90
        2
102
RTVSPost2010PropOp53
 70
     1
102
RTVSPost2010Prop54
  1
strokes_ogs.tif
102
RTVSPost2010PropOp54
 70
     1
102
RTVSPost2010Prop55
280
     0
102
RTVSPost2010PropOp55
 70
     1
102
RTVSPost2010Prop56
140
1.0
102
RTVSPost2010PropOp56
 70
     1
102
RTVSPost2010Prop57
140
1.0
102
RTVSPost2010PropOp57
 70
     1
102
RTVSPropertyOp0
 70
     1
102
RTVSPropertyOp1
 70
     1
102
RTVSPropertyOp2
 70
     1
102
RTVSPropertyOp3
 70
     1
102
RTVSPropertyOp4
 70
     1
102
RTVSPropertyOp5
 70
     1
102
RTVSPropertyOp6
 70
     1
102
RTVSPropertyOp7
 70
     1
102
RTVSPropertyOp8
 70
     1
102
RTVSPropertyOp9
 70
     1
102
RTVSPropertyOp10
 70
     1
102
RTVSPropertyOp11
 70
     1
102
RTVSPropertyOp12
 70
     1
102
RTVSPropertyOp13
 70
     1
102
RTVSPropertyOp14
 70
     1
102
RTVSPropertyOp15
 70
     1
102
RTVSPropertyOp16
 70
     1
102
RTVSPropertyOp17
 70
     1
102
RTVSPropertyOp18
 70
     1
102
RTVSPropertyOp19
 70
     1
102
RTVSPropertyOp20
 70
     1
102
RTVSPropertyOp21
 70
     1
102
RTVSPropertyOp22
 70
     1
102
RTVSPropertyOp23
 70
     1
102
RTVSPropertyOp24
 70
     1
102
RTVSPropertyOp25
 70
     1
102
RTVSPropertyOp26
 70
     1
102
RTVSPropertyOp27
 70
     1
102
RTVSPropertyOp28
 70
     1
102
RTVSPropertyOp29
 70
     1
102
RTVSPropertyOp30
 70
     1
102
RTVSPropertyOp31
 70
     1
102
RTVSPropertyOp32
 70
     1
102
RTVSPropertyOp33
 70
     1
102
RTVSPropertyOp34
 70
     1
102
RTVSPropertyOp35
 70
     1
102
RTVSPropertyOp36
 70
     1
102
RTVSPropertyOp37
 70
     1
102
RTVSPropertyOp38
 70
     1
102
RTVSPropertyOp39
 70
     1
102
RTVSPropertyOp40
 70
     1
102
RTVSPropertyOp41
 70
     1
102
RTVSPropertyOp42
 70
     1
102
RTVSPropertyOp43
 70
     1
102
RTVSPropertyOp44
 70
     1
102
RTVSPropertyOp45
 70
     1
102
RTVSPropertyOp46
 70
     1
102
RTVSPropertyOp47
 70
     1
102
RTVSPropertyOp48
 70
     1
102
RTVSPropertyOp49
 70
     1
102
RTVSPropertyOp50
 70
     1
102
RTVSPropertyOp51
 70
     0
102
RTVSPropertyOp52
 70
     0
102
RTVSPropertyOp53
 70
     1
102
RTVSPropertyOp54
 70
     1
102
RTVSPropertyOp55
 70
     1
102
RTVSPropertyOp56
 70
     1
102
RTVSPropertyOp57
 70
     1
102
RTVSPropertyOp58
 70
     1
102
RTVSPropertyOp59
 70
     1
102
RTVSPropertyOp60
 70
     1
102
RTVSPropertyOp61
 70
     1
102
RTVSPropertyOp62
 70
     1
  0
ENDSEC
  0
EOF
