  0
SECTION
  2
HEADER
  9
$ACADVER
  1
AC1032
  9
$DWGCODEPAGE
  3
ANSI_932
  9
$LTSCALE
 40
20.0
  9
$FILLMODE
 70
     1
  9
$CLAYER
  8
0
  9
$PDMODE
 70
     0
  9
$SPLFRAME
 70
     0
  9
$SPLINETYPE
 70
     6
  9
$SPLINESEGS
 70
     8
  9
$DIMASZ
 40
2.000000
  9
$DIMEXE
 40
1.500000
  9
$DIMEXO
 40
0.800000
  9
$DIMTAD
 70
     1
  9
$DIMTIH
 70
     0
  9
$DIMTOH
 70
     0
  9
$DIMTVP
 40
0.500000
  9
$DIMTXT
 40
3.100000
  9
$EXTMIN
 10
0.000000
 20
0.000000
 30
0.000000
  9
$EXTMAX
 10
297.000000
 20
420.000000
 30
0.000000
  9
$MEASUREMENT
 70
  1
  9
$LIMMIN
 10
0.000000
 20
0.000000
  9
$LIMMAX
 10
297.000000
 20
420.000000
  9
$HANDSEED
  5
23D
  9
$LWDISPLAY
290
     0
  9
$DIMBLK
  1
_OPEN
  9
$DIMDEC
 70
     2
  9
$DIMADEC
 70
     2
  9
$DIMAUNIT
 70
     0
  9
$DIMZIN
 70
     8
  9
$DIMAZIN
 70
     2
  9
$DIMTOFL
 70
     1
  0
ENDSEC
  0
SECTION
  2
CLASSES
  0
ENDSEC
  0
SECTION
  2
TABLES
  0
TABLE
  2
VPORT
  5
206
100
AcDbSymbolTable
 70
     1
  0
VPORT
  5
207
100
AcDbSymbolTableRecord
100
AcDbViewportTableRecord
  2
*ACTIVE
 70
     0
 12
166.076365
 22
138.928674
 40
241.857346
 41
1.290648
  0
ENDTAB
  0
TABLE
  2
LTYPE
  5
208
100
AcDbSymbolTable
 70
     3
  0
LTYPE
  5
209
100
AcDbSymbolTableRecord
100
AcDbLinetypeTableRecord
  2
BYBLOCK
 70
     0
  3

 72
    65
 73
     0
 40
0.0
  0
LTYPE
  5
20A
100
AcDbSymbolTableRecord
100
AcDbLinetypeTableRecord
  2
BYLAYER
 70
     0
  3

 72
    65
 73
     0
 40
0.0
  0
LTYPE
  5
20B
100
AcDbSymbolTableRecord
100
AcDbLinetypeTableRecord
  2
CONTINUOUS
 70
     0
  3
Solid line (NEC CAE2D for Win R18.0 : 2025.08.27)
 72
    65
 73
     0
 40
0.0
  0
LTYPE
  5
20C
100
AcDbSymbolTableRecord
100
AcDbLinetypeTableRecord
  2
CENTER
 70
     0
  3
____ _ ____ _ ____ _ ____ _ ____ _ ____
 72
    65
 73
     4
 40
2.0
 49
1.25
 74
     0
 49
-0.25
 74
     0
 49
0.25
 74
     0
 49
-0.25
 74
     0
  0
LTYPE
  5
20D
100
AcDbSymbolTableRecord
100
AcDbLinetypeTableRecord
  2
PHANTOM
 70
     0
  3
______  __  __  ______  __  __  ______ 
 72
    65
 73
     6
 40
2.5
 49
1.25
 74
     0
 49
-0.25
 74
     0
 49
0.25
 74
     0
 49
-0.25
 74
     0
 49
0.25
 74
     0
 49
-0.25
 74
     0
  0
ENDTAB
  0
TABLE
  2
LAYER
  5
20E
100
AcDbSymbolTable
 70
    16
  0
LAYER
  5
20F
100
AcDbSymbolTableRecord
100
AcDbLayerTableRecord
  2
0
 70
     0
 62
     7
  6
CONTINUOUS
370
    -3
390

  0
LAYER
  5
210
100
AcDbSymbolTableRecord
100
AcDbLayerTableRecord
  2
A0
 70
     0
 62
     9
  6
CONTINUOUS
370
    -3
390

  0
LAYER
  5
211
100
AcDbSymbolTableRecord
100
AcDbLayerTableRecord
  2
A1
 70
     0
 62
    12
  6
CONTINUOUS
370
    -3
390

  0
LAYER
  5
212
100
AcDbSymbolTableRecord
100
AcDbLayerTableRecord
  2
A2
 70
     0
 62
     9
  6
CONTINUOUS
370
    -3
390

  0
LAYER
  5
213
100
AcDbSymbolTableRecord
100
AcDbLayerTableRecord
  2
A3
 70
     0
 62
    12
  6
CONTINUOUS
370
    -3
390

  0
LAYER
  5
214
100
AcDbSymbolTableRecord
100
AcDbLayerTableRecord
  2
A4
 70
     0
 62
     9
  6
CONTINUOUS
370
    -3
390

  0
LAYER
  5
215
100
AcDbSymbolTableRecord
100
AcDbLayerTableRecord
  2
A5
 70
     0
 62
     8
  6
CONTINUOUS
370
    -3
390

  0
LAYER
  5
216
100
AcDbSymbolTableRecord
100
AcDbLayerTableRecord
  2
A6
 70
     0
 62
    12
  6
CONTINUOUS
370
    -3
390

  0
LAYER
  5
217
100
AcDbSymbolTableRecord
100
AcDbLayerTableRecord
  2
A8
 70
     0
 62
    10
  6
CONTINUOUS
370
    -3
390

  0
LAYER
  5
218
100
AcDbSymbolTableRecord
100
AcDbLayerTableRecord
  2
A9
 70
     0
 62
     9
  6
CONTINUOUS
370
    -3
390

  0
LAYER
  5
219
100
AcDbSymbolTableRecord
100
AcDbLayerTableRecord
  2
A10
 70
     0
 62
     6
  6
CONTINUOUS
370
    -3
390

  0
LAYER
  5
21A
100
AcDbSymbolTableRecord
100
AcDbLayerTableRecord
  2
A20
 70
     0
 62
     1
  6
CONTINUOUS
370
    -3
390

  0
LAYER
  5
21B
100
AcDbSymbolTableRecord
100
AcDbLayerTableRecord
  2
A30
 70
     0
 62
     1
  6
CONTINUOUS
370
    -3
390

  0
LAYER
  5
21C
100
AcDbSymbolTableRecord
100
AcDbLayerTableRecord
  2
A40
 70
     0
 62
     9
  6
CONTINUOUS
370
    -3
390

  0
LAYER
  5
21D
100
AcDbSymbolTableRecord
100
AcDbLayerTableRecord
  2
A50
 70
     0
 62
    12
  6
CONTINUOUS
370
    -3
390

  0
LAYER
  5
21E
100
AcDbSymbolTableRecord
100
AcDbLayerTableRecord
  2
A1023
 70
     0
 62
    16
  6
CONTINUOUS
370
    -3
390

  0
ENDTAB
  0
TABLE
  2
STYLE
  5
21F
100
AcDbSymbolTable
 70
     4
  0
STYLE
  5
220
100
AcDbSymbolTableRecord
100
AcDbTextStyleTableRecord
  2
STANDARD
 70
    64
 40
0.0
 41
1.0
 50
0.0
 71
     0
 42
3.000000000000000
  3
TXT
  4

  0
STYLE
  5
221
100
AcDbSymbolTableRecord
100
AcDbTextStyleTableRecord
  2
ANKTATE
 70
    68
 40
0.0
 41
1.0
 50
0.0
 71
     0
 42
3.000000000000000
  3
TXT
  4

  0
STYLE
  5
222
100
AcDbSymbolTableRecord
100
AcDbTextStyleTableRecord
  2
KNJYOKO
 70
    64
 40
0.0
 41
1.0
 50
0.0
 71
     0
 42
3.000000000000000
  3
TXT
  4
BIGFONT
  0
STYLE
  5
223
100
AcDbSymbolTableRecord
100
AcDbTextStyleTableRecord
  2
KNJTATE
 70
    68
 40
0.0
 41
1.0
 50
0.0
 71
     0
 42
3.000000000000000
  3
TXT
  4
BIGFONT
  0
ENDTAB
  0
TABLE
  2
VIEW
  5
224
100
AcDbSymbolTable
 70
     0
  0
ENDTAB
  0
TABLE
  2
UCS
  5
225
100
AcDbSymbolTable
 70
     0
  0
ENDTAB
  0
TABLE
  2
APPID
  5
226
100
AcDbSymbolTable
 70
     1
  0
APPID
  5
227
100
AcDbSymbolTableRecord
100
AcDbRegAppTableRecord
  2
ACAD
 70
     0
  0
ENDTAB
  0
TABLE
  2
DIMSTYLE
  5
228
100
AcDbSymbolTable
 70
     2
100
AcDbDimStyleTable
  0
DIMSTYLE
105
229
100
AcDbSymbolTableRecord
100
AcDbDimStyleTableRecord
  2
STANDARD
 70
     0
 41
2.000000
 44
1.500000
 42
0.800000
145
0.661290
140
3.100000
144
1.000000
146
0.645161
340
220
  0
DIMSTYLE
105
22A
100
AcDbSymbolTableRecord
100
AcDbDimStyleTableRecord
  2
A001
 70
     0
 41
2.000000
 44
1.500000
 42
0.800000
145
0.661290
140
3.100000
144
1.000000
146
0.645161
 77
     1
 73
     0
 74
     0
271
     2
179
     2
275
     0
 78
     8
 79
     2
172
     1
340
220
  0
ENDTAB
  0
TABLE
  2
BLOCK_RECORD
  5
22B
100
AcDbSymbolTable
 70
    12
  0
BLOCK_RECORD
  5
22C
100
AcDbSymbolTableRecord
100
AcDbBlockTableRecord
  2
*MODEL_SPACE
  0
BLOCK_RECORD
  5
22D
100
AcDbSymbolTableRecord
100
AcDbBlockTableRecord
  2
*PAPER_SPACE
  0
BLOCK_RECORD
  5
22E
100
AcDbSymbolTableRecord
100
AcDbBlockTableRecord
  2
*PAPER_SPACE0
  0
BLOCK_RECORD
  5
1
100
AcDbSymbolTableRecord
100
AcDbBlockTableRecord
  2
_NONE
  0
BLOCK_RECORD
  5
4
100
AcDbSymbolTableRecord
100
AcDbBlockTableRecord
  2
_CLOSED
  0
BLOCK_RECORD
  5
B
100
AcDbSymbolTableRecord
100
AcDbBlockTableRecord
  2
_DOT
  0
BLOCK_RECORD
  5
13
100
AcDbSymbolTableRecord
100
AcDbBlockTableRecord
  2
_OPEN
  0
BLOCK_RECORD
  5
19
100
AcDbSymbolTableRecord
100
AcDbBlockTableRecord
  2
_ORIGIN
  0
BLOCK_RECORD
  5
1E
100
AcDbSymbolTableRecord
100
AcDbBlockTableRecord
  2
_OPEN30
  0
BLOCK_RECORD
  5
24
100
AcDbSymbolTableRecord
100
AcDbBlockTableRecord
  2
_BOXFILLED
  0
BLOCK_RECORD
  5
29
100
AcDbSymbolTableRecord
100
AcDbBlockTableRecord
  2
_BOXBLANK
  0
BLOCK_RECORD
  5
31
100
AcDbSymbolTableRecord
100
AcDbBlockTableRecord
  2
_OBLIQUE
  0
BLOCK_RECORD
  5
35
100
AcDbSymbolTableRecord
100
AcDbBlockTableRecord
  2
_OPEN90
  0
BLOCK_RECORD
  5
3B
100
AcDbSymbolTableRecord
100
AcDbBlockTableRecord
  2
_CLOSEDBLANK
  0
BLOCK_RECORD
  5
41
100
AcDbSymbolTableRecord
100
AcDbBlockTableRecord
  2
_DOTBLANK
  0
ENDTAB
  0
ENDSEC
  0
SECTION
  2
BLOCKS
  0
BLOCK
  5
22F
100
AcDbEntity
  8
0
100
AcDbBlockBegin
  2
*MODEL_SPACE
 70
     0
 10
0.0
 20
0.0
 30
0.0
  3
*MODEL_SPACE
  1

  0
ENDBLK
  5
230
100
AcDbEntity
  8
0
100
AcDbBlockEnd
  0
BLOCK
  5
231
100
AcDbEntity
  8
0
100
AcDbBlockBegin
  2
*PAPER_SPACE
 70
     0
 10
0.0
 20
0.0
 30
0.0
  3
*PAPER_SPACE
  1

  0
ENDBLK
  5
232
100
AcDbEntity
  8
0
100
AcDbBlockEnd
  0
BLOCK
  5
233
100
AcDbEntity
  8
0
100
AcDbBlockBegin
  2
*PAPER_SPACE0
 70
     0
 10
0.0
 20
0.0
 30
0.0
  3
*PAPER_SPACE0
  1

  0
ENDBLK
  5
234
100
AcDbEntity
  8
0
100
AcDbBlockEnd
  0
BLOCK
  5
2
330
1
100
AcDbEntity
  8
0
100
AcDbBlockBegin
  2
_NONE
 70
     0
 10
0.0
 20
0.0
 30
0.0
  3
_NONE
  1

  0
ENDBLK
  5
3
330
1
100
AcDbEntity
  8
0
100
AcDbBlockEnd
  0
BLOCK
  5
5
330
4
100
AcDbEntity
  8
0
100
AcDbBlockBegin
  2
_CLOSED
 70
     0
 10
0.0
 20
0.0
 30
0.0
  3
_CLOSED
  1

  0
LINE
  5
6
330
4
100
AcDbEntity
  8
0
  6
BYBLOCK
 62
     0
370
    -2
100
AcDbLine
 10
-1.0
 20
0.166667
 30
0.0
 11
0.0
 21
0.0
 31
0.0
  0
LINE
  5
7
330
4
100
AcDbEntity
  8
0
  6
BYBLOCK
 62
     0
370
    -2
100
AcDbLine
 10
0.0
 20
0.0
 30
0.0
 11
-1.0
 21
-0.166667
 31
0.0
  0
LINE
  5
8
330
4
100
AcDbEntity
  8
0
  6
BYBLOCK
 62
     0
370
    -2
100
AcDbLine
 10
-1.0
 20
0.166667
 30
0.0
 11
-1.0
 21
-0.166667
 31
0.0
  0
LINE
  5
9
330
4
100
AcDbEntity
  8
0
  6
BYBLOCK
 62
     0
370
    -2
100
AcDbLine
 10
0.0
 20
0.0
 30
0.0
 11
-1.0
 21
0.0
 31
0.0
  0
ENDBLK
  5
A
330
4
100
AcDbEntity
  8
0
100
AcDbBlockEnd
  0
BLOCK
  5
C
330
B
100
AcDbEntity
  8
0
100
AcDbBlockBegin
  2
_DOT
 70
     0
 10
0.0
 20
0.0
 30
0.0
  3
_DOT
  1

  0
POLYLINE
  5
D
330
B
100
AcDbEntity
  8
0
  6
BYBLOCK
 62
     0
370
    -2
100
AcDb2dPolyline
 66
     1
 10
0.0
 20
0.0
 30
0.0
 70
     1
 40
0.5
 41
0.5
  0
VERTEX
  5
E
330
B
100
AcDbEntity
  8
0
  6
BYBLOCK
 62
     0
370
    -2
100
AcDbVertex
100
AcDb2dVertex
 10
-0.25
 20
0.0
 30
0.0
 42
1.0
  0
VERTEX
  5
F
330
B
100
AcDbEntity
  8
0
  6
BYBLOCK
 62
     0
370
    -2
100
AcDbVertex
100
AcDb2dVertex
 10
0.25
 20
0.0
 30
0.0
 42
1.0
  0
SEQEND
  5
10
330
B
100
AcDbEntity
  8
0
  6
BYBLOCK
 62
     0
370
    -2
  0
LINE
  5
11
330
B
100
AcDbEntity
  8
0
  6
BYBLOCK
 62
     0
370
    -2
100
AcDbLine
 10
-0.5
 20
0.0
 30
0.0
 11
-1.0
 21
0.0
 31
0.0
  0
ENDBLK
  5
12
330
B
100
AcDbEntity
  8
0
100
AcDbBlockEnd
  0
BLOCK
  5
14
330
13
100
AcDbEntity
  8
0
100
AcDbBlockBegin
  2
_OPEN
 70
     0
 10
0.0
 20
0.0
 30
0.0
  3
_OPEN
  1

  0
LINE
  5
15
330
13
100
AcDbEntity
  8
0
  6
BYBLOCK
 62
     0
370
    -2
100
AcDbLine
 10
-1.0
 20
0.166667
 30
0.0
 11
0.0
 21
0.0
 31
0.0
  0
LINE
  5
16
330
13
100
AcDbEntity
  8
0
  6
BYBLOCK
 62
     0
370
    -2
100
AcDbLine
 10
0.0
 20
0.0
 30
0.0
 11
-1.0
 21
-0.166667
 31
0.0
  0
LINE
  5
17
330
13
100
AcDbEntity
  8
0
  6
BYBLOCK
 62
     0
370
    -2
100
AcDbLine
 10
0.0
 20
0.0
 30
0.0
 11
-1.0
 21
0.0
 31
0.0
  0
ENDBLK
  5
18
330
13
100
AcDbEntity
  8
0
100
AcDbBlockEnd
  0
BLOCK
  5
1A
330
19
100
AcDbEntity
  8
0
100
AcDbBlockBegin
  2
_ORIGIN
 70
     0
 10
0.0
 20
0.0
 30
0.0
  3
_ORIGIN
  1

  0
CIRCLE
  5
1B
330
19
100
AcDbEntity
  8
0
  6
BYBLOCK
 62
     0
370
    -2
100
AcDbCircle
 10
0.0
 20
0.0
 30
0.0
 40
0.5
  0
LINE
  5
1C
330
19
100
AcDbEntity
  8
0
  6
BYBLOCK
 62
     0
370
    -2
100
AcDbLine
 10
0.0
 20
0.0
 30
0.0
 11
-1.0
 21
0.0
 31
0.0
  0
ENDBLK
  5
1D
330
19
100
AcDbEntity
  8
0
100
AcDbBlockEnd
  0
BLOCK
  5
1F
330
1E
100
AcDbEntity
  8
0
100
AcDbBlockBegin
  2
_OPEN30
 70
     0
 10
0.0
 20
0.0
 30
0.0
  3
_OPEN30
  1

  0
LINE
  5
20
330
1E
100
AcDbEntity
  8
0
  6
BYBLOCK
 62
     0
370
    -2
100
AcDbLine
 10
-1.0
 20
0.267949
 30
0.0
 11
0.0
 21
0.0
 31
0.0
  0
LINE
  5
21
330
1E
100
AcDbEntity
  8
0
  6
BYBLOCK
 62
     0
370
    -2
100
AcDbLine
 10
0.0
 20
0.0
 30
0.0
 11
-1.0
 21
-0.267949
 31
0.0
  0
LINE
  5
22
330
1E
100
AcDbEntity
  8
0
  6
BYBLOCK
 62
     0
370
    -2
100
AcDbLine
 10
0.0
 20
0.0
 30
0.0
 11
-1.0
 21
0.0
 31
0.0
  0
ENDBLK
  5
23
330
1E
100
AcDbEntity
  8
0
100
AcDbBlockEnd
  0
BLOCK
  5
25
330
24
100
AcDbEntity
  8
0
100
AcDbBlockBegin
  2
_BOXFILLED
 70
     0
 10
0.0
 20
0.0
 30
0.0
  3
_BOXFILLED
  1

  0
SOLID
  5
26
330
24
100
AcDbEntity
  8
0
  6
BYBLOCK
 62
     0
370
    -2
100
AcDbTrace
 10
-0.5
 20
0.5
 30
0.0
 11
0.5
 21
0.5
 31
0.0
 12
-0.5
 22
-0.5
 32
0.0
 13
0.5
 23
-0.5
 33
0.0
  0
LINE
  5
27
330
24
100
AcDbEntity
  8
0
  6
BYBLOCK
 62
     0
370
    -2
100
AcDbLine
 10
-0.5
 20
0.0
 30
0.0
 11
-1.0
 21
0.0
 31
0.0
  0
ENDBLK
  5
28
330
24
100
AcDbEntity
  8
0
100
AcDbBlockEnd
  0
BLOCK
  5
2A
330
29
100
AcDbEntity
  8
0
100
AcDbBlockBegin
  2
_BOXBLANK
 70
     0
 10
0.0
 20
0.0
 30
0.0
  3
_BOXBLANK
  1

  0
LINE
  5
2B
330
29
100
AcDbEntity
  8
0
  6
BYBLOCK
 62
     0
370
    -2
100
AcDbLine
 10
-0.5
 20
-0.5
 30
0.0
 11
0.5
 21
-0.5
 31
0.0
  0
LINE
  5
2C
330
29
100
AcDbEntity
  8
0
  6
BYBLOCK
 62
     0
370
    -2
100
AcDbLine
 10
0.5
 20
-0.5
 30
0.0
 11
0.5
 21
0.5
 31
0.0
  0
LINE
  5
2D
330
29
100
AcDbEntity
  8
0
  6
BYBLOCK
 62
     0
370
    -2
100
AcDbLine
 10
0.5
 20
0.5
 30
0.0
 11
-0.5
 21
0.5
 31
0.0
  0
LINE
  5
2E
330
29
100
AcDbEntity
  8
0
  6
BYBLOCK
 62
     0
370
    -2
100
AcDbLine
 10
-0.5
 20
0.5
 30
0.0
 11
-0.5
 21
-0.5
 31
0.0
  0
LINE
  5
2F
330
29
100
AcDbEntity
  8
0
  6
BYBLOCK
 62
     0
370
    -2
100
AcDbLine
 10
-0.5
 20
0.0
 30
0.0
 11
-1.0
 21
0.0
 31
0.0
  0
ENDBLK
  5
30
330
29
100
AcDbEntity
  8
0
100
AcDbBlockEnd
  0
BLOCK
  5
32
330
31
100
AcDbEntity
  8
0
100
AcDbBlockBegin
  2
_OBLIQUE
 70
     0
 10
0.0
 20
0.0
 30
0.0
  3
_OBLIQUE
  1

  0
LINE
  5
33
330
31
100
AcDbEntity
  8
0
  6
BYBLOCK
 62
     0
370
    -2
100
AcDbLine
 10
-0.5
 20
-0.5
 30
0.0
 11
0.5
 21
0.5
 31
0.0
  0
ENDBLK
  5
34
330
31
100
AcDbEntity
  8
0
100
AcDbBlockEnd
  0
BLOCK
  5
36
330
35
100
AcDbEntity
  8
0
100
AcDbBlockBegin
  2
_OPEN90
 70
     0
 10
0.0
 20
0.0
 30
0.0
  3
_OPEN90
  1

  0
LINE
  5
37
330
35
100
AcDbEntity
  8
0
  6
BYBLOCK
 62
     0
370
    -2
100
AcDbLine
 10
-0.5
 20
0.5
 30
0.0
 11
0.0
 21
0.0
 31
0.0
  0
LINE
  5
38
330
35
100
AcDbEntity
  8
0
  6
BYBLOCK
 62
     0
370
    -2
100
AcDbLine
 10
0.0
 20
0.0
 30
0.0
 11
-0.5
 21
-0.5
 31
0.0
  0
LINE
  5
39
330
35
100
AcDbEntity
  8
0
  6
BYBLOCK
 62
     0
370
    -2
100
AcDbLine
 10
0.0
 20
0.0
 30
0.0
 11
-1.0
 21
0.0
 31
0.0
  0
ENDBLK
  5
3A
330
35
100
AcDbEntity
  8
0
100
AcDbBlockEnd
  0
BLOCK
  5
3C
330
3B
100
AcDbEntity
  8
0
100
AcDbBlockBegin
  2
_CLOSEDBLANK
 70
     0
 10
0.0
 20
0.0
 30
0.0
  3
_CLOSEDBLANK
  1

  0
LINE
  5
3D
330
3B
100
AcDbEntity
  8
0
  6
BYBLOCK
 62
     0
370
    -2
100
AcDbLine
 10
-1.0
 20
0.1666666666666666
 30
0.0
 11
0.0
 21
0.0
 31
0.0
  0
LINE
  5
3E
330
3B
100
AcDbEntity
  8
0
  6
BYBLOCK
 62
     0
370
    -2
100
AcDbLine
 10
0.0
 20
0.0
 30
0.0
 11
-1.0
 21
-0.1666666666666666
 31
0.0
  0
LINE
  5
3F
330
3B
100
AcDbEntity
  8
0
  6
BYBLOCK
 62
     0
370
    -2
100
AcDbLine
 10
-1.0
 20
0.1666666666666666
 30
0.0
 11
-1.0
 21
-0.1666666666666666
 31
0.0
  0
ENDBLK
  5
40
330
3B
100
AcDbEntity
  8
0
100
AcDbBlockEnd
  0
BLOCK
  5
42
330
41
100
AcDbEntity
  8
0
100
AcDbBlockBegin
  2
_DOTBLANK
 70
     0
 10
0.0
 20
0.0
 30
0.0
  3
_DOTBLANK
  1

  0
CIRCLE
  5
43
330
41
100
AcDbEntity
  8
0
  6
BYBLOCK
 62
     0
370
    -2
100
AcDbCircle
 10
0.0
 20
0.0
 30
0.0
 40
0.5
  0
LINE
  5
44
330
41
100
AcDbEntity
  8
0
  6
BYBLOCK
 62
     0
370
    -2
100
AcDbLine
 10
-0.5
 20
0.0
 30
0.0
 11
-1.0
 21
0.0
 31
0.0
  0
ENDBLK
  5
45
330
41
100
AcDbEntity
  8
0
100
AcDbBlockEnd
  0
ENDSEC
  0
SECTION
  2
ENTITIES
  0
MTEXT
  5
46
100
AcDbEntity
  8
A8
  6
CONTINUOUS
 62
3
100
AcDbMText
 10
9.999997526638502
 20
18.00000076076889
 30
0.000000000000000
 40
3.000000000000000
 41
0.000000000000000
 44
0.6739999771118164
 71
     7
 72
     1
  1
{\H0.94x;{TYPE No.THA-276-2H}}
 11
1.000000000000000
 21
0.000000000000000
 31
0.000000000000000
  7
STANDARD
  0
POINT
  5
47
100
AcDbEntity
  8
A0
  6
CONTINUOUS
 62
3
100
AcDbPoint
 10
9.999997526638502
 20
18.00000076076889
 30
0.000000000000000
  0
LINE
  5
48
100
AcDbEntity
  8
A1
  6
CONTINUOUS
 62
7
100
AcDbLine
 10
56.65823688298657
 20
199.2119855318261
 30
0.000000000000000
 11
56.65823688287459
 21
82.21198553182603
 31
0.000000000000000
  0
LINE
  5
49
100
AcDbEntity
  8
A1
  6
CONTINUOUS
 62
7
100
AcDbLine
 10
28.65823688298657
 20
199.2119855318529
 30
0.000000000000000
 11
28.65823688287459
 21
82.21198553185282
 31
0.000000000000000
  0
LINE
  5
4A
100
AcDbEntity
  8
A1
  6
CONTINUOUS
 62
7
100
AcDbLine
 10
56.65823688298664
 20
199.2119855318261
 30
0.000000000000000
 11
28.65823688298664
 21
199.2119855318529
 31
0.000000000000000
  0
LINE
  5
4B
100
AcDbEntity
  8
A1
  6
CONTINUOUS
 62
7
100
AcDbLine
 10
56.65823688287465
 20
82.21198553182603
 30
0.000000000000000
 11
28.65823688287466
 21
82.21198553185282
 31
0.000000000000000
  0
LINE
  5
4C
100
AcDbEntity
  8
A1
  6
CONTINUOUS
 62
7
100
AcDbLine
 10
55.65823688298563
 20
198.2119855318270
 30
0.000000000000000
 11
55.65823688287564
 21
83.21198553182698
 31
0.000000000000000
  0
LINE
  5
4D
100
AcDbEntity
  8
A1
  6
CONTINUOUS
 62
7
100
AcDbLine
 10
29.65823688298563
 20
198.2119855318519
 30
0.000000000000000
 11
29.65823688287564
 21
83.21198553185187
 31
0.000000000000000
  0
LINE
  5
4E
100
AcDbEntity
  8
A1
  6
CONTINUOUS
 62
7
100
AcDbLine
 10
55.65823688287554
 20
83.21198553182698
 30
0.000000000000000
 11
29.65823688287542
 21
83.21198553185187
 31
0.000000000000000
  0
LINE
  5
4F
100
AcDbEntity
  8
A1
  6
CONTINUOUS
 62
7
100
AcDbLine
 10
55.65823688298556
 20
198.2119855318270
 30
0.000000000000000
 11
29.65823688298550
 21
198.2119855318519
 31
0.000000000000000
  0
LINE
  5
50
100
AcDbEntity
  8
A1
  6
CONTINUOUS
 62
7
100
AcDbLine
 10
29.65823688298561
 20
198.2119855318519
 30
0.000000000000000
 11
28.65823688298664
 21
199.2119855318529
 31
0.000000000000000
  0
LINE
  5
51
100
AcDbEntity
  8
A1
  6
CONTINUOUS
 62
7
100
AcDbLine
 10
55.65823688298546
 20
198.2119855318270
 30
0.000000000000000
 11
56.65823688298640
 21
199.2119855318261
 31
0.000000000000000
  0
LINE
  5
52
100
AcDbEntity
  8
A1
  6
CONTINUOUS
 62
7
100
AcDbLine
 10
55.65823688287547
 20
83.21198553182698
 30
0.000000000000000
 11
56.65823688287452
 21
82.21198553182600
 31
0.000000000000000
  0
LINE
  5
53
100
AcDbEntity
  8
A1
  6
CONTINUOUS
 62
7
100
AcDbLine
 10
29.65823688287556
 20
83.21198553185192
 30
0.000000000000000
 11
28.65823688287470
 21
82.21198553185283
 31
0.000000000000000
  0
LINE
  5
54
100
AcDbEntity
  8
A1
  6
CONTINUOUS
 62
7
100
AcDbLine
 10
50.20823688298034
 20
185.2119855318323
 30
0.000000000000000
 11
35.10823688298044
 21
185.2119855318467
 31
0.000000000000000
  0
LINE
  5
55
100
AcDbEntity
  8
A1
  6
CONTINUOUS
 62
7
100
AcDbLine
 10
50.20823688297869
 20
174.9119855318322
 30
0.000000000000000
 11
35.10823688297878
 21
174.9119855318467
 31
0.000000000000000
  0
LINE
  5
56
100
AcDbEntity
  8
A1
  6
CONTINUOUS
 62
7
100
AcDbLine
 10
52.15823688297745
 20
167.7119855318305
 30
0.000000000000000
 11
33.15823688297745
 21
167.7119855318487
 31
0.000000000000000
  0
LINE
  5
57
100
AcDbEntity
  8
A1
  6
CONTINUOUS
 62
7
100
AcDbLine
 10
52.15823688296496
 20
95.21198553183031
 30
0.000000000000000
 11
33.15823688296496
 21
95.21198553184848
 31
0.000000000000000
  0
LINE
  5
58
100
AcDbEntity
  8
A1
  6
CONTINUOUS
 62
7
100
AcDbLine
 10
52.15823688297765
 20
167.7119855318302
 30
0.000000000000000
 11
52.15823688296514
 21
95.21198553183034
 31
0.000000000000000
  0
LINE
  5
59
100
AcDbEntity
  8
A1
  6
CONTINUOUS
 62
7
100
AcDbLine
 10
33.15823688297765
 20
167.7119855318485
 30
0.000000000000000
 11
33.15823688296514
 21
95.21198553184851
 31
0.000000000000000
  0
LINE
  5
5A
100
AcDbEntity
  8
A1
  6
CONTINUOUS
 62
7
100
AcDbLine
 10
50.20823688298061
 20
185.2119855318321
 30
0.000000000000000
 11
50.20823688297879
 21
174.9119855318322
 31
0.000000000000000
  0
LINE
  5
5B
100
AcDbEntity
  8
A1
  6
CONTINUOUS
 62
7
100
AcDbLine
 10
35.10823688298064
 20
185.2119855318466
 30
0.000000000000000
 11
35.10823688297882
 21
174.9119855318466
 31
0.000000000000000
  0
LINE
  5
5C
100
AcDbEntity
  8
A1
  6
CONTINUOUS
 62
7
100
AcDbLine
 10
33.10823688298102
 20
187.2119855318486
 30
0.000000000000000
 11
33.10823688297852
 21
172.9119855318486
 31
0.000000000000000
  0
LINE
  5
5D
100
AcDbEntity
  8
A1
  6
CONTINUOUS
 62
7
100
AcDbLine
 10
52.20823688298098
 20
187.2119855318303
 30
0.000000000000000
 11
52.20823688297848
 21
172.9119855318303
 31
0.000000000000000
  0
LINE
  5
5E
100
AcDbEntity
  8
A1
  6
CONTINUOUS
 62
7
100
AcDbLine
 10
52.20823688298088
 20
187.2119855318304
 30
0.000000000000000
 11
33.10823688298091
 21
187.2119855318487
 31
0.000000000000000
  0
LINE
  5
5F
100
AcDbEntity
  8
A1
  6
CONTINUOUS
 62
7
100
AcDbLine
 10
52.20823688297831
 20
172.9119855318304
 30
0.000000000000000
 11
33.10823688297829
 21
172.9119855318487
 31
0.000000000000000
  0
LINE
  5
60
100
AcDbEntity
  8
A1
  6
CONTINUOUS
 62
7
100
AcDbLine
 10
52.20823688297826
 20
172.9119855318303
 30
0.000000000000000
 11
50.20823688297854
 21
174.9119855318323
 31
0.000000000000000
  0
LINE
  5
61
100
AcDbEntity
  8
A1
  6
CONTINUOUS
 62
7
100
AcDbLine
 10
50.20823688298049
 20
185.2119855318322
 30
0.000000000000000
 11
52.20823688298084
 21
187.2119855318302
 31
0.000000000000000
  0
LINE
  5
62
100
AcDbEntity
  8
A1
  6
CONTINUOUS
 62
7
100
AcDbLine
 10
35.10823688298058
 20
185.2119855318468
 30
0.000000000000000
 11
33.10823688298089
 21
187.2119855318487
 31
0.000000000000000
  0
LINE
  5
63
100
AcDbEntity
  8
A1
  6
CONTINUOUS
 62
7
100
AcDbLine
 10
35.10823688297862
 20
174.9119855318468
 30
0.000000000000000
 11
33.10823688297830
 21
172.9119855318486
 31
0.000000000000000
  0
LINE
  5
64
100
AcDbEntity
  8
A1
  6
CONTINUOUS
 62
7
100
AcDbLine
 10
169.6549479892426
 20
198.2119855316326
 30
0.000000000000000
 11
169.6549479891328
 21
83.21198553163254
 31
0.000000000000000
  0
LINE
  5
65
100
AcDbEntity
  8
A1
  6
CONTINUOUS
 62
7
100
AcDbLine
 10
170.6549479891319
 20
82.21198553163160
 30
0.000000000000000
 11
171.6549479891319
 21
82.21198553163063
 31
0.000000000000000
  0
LINE
  5
66
100
AcDbEntity
  8
A1
  6
CONTINUOUS
 62
7
100
AcDbLine
 10
170.6549479892435
 20
199.2119855316316
 30
0.000000000000000
 11
171.6549479892435
 21
199.2119855316307
 31
0.000000000000000
  0
LINE
  5
67
100
AcDbEntity
  8
A1
  6
CONTINUOUS
 62
7
100
AcDbLine
 10
170.6549479891319
 20
82.21198553163167
 30
0.000000000000000
 11
169.6549479891328
 21
83.21198553163264
 31
0.000000000000000
  0
LINE
  5
68
100
AcDbEntity
  8
A1
  6
CONTINUOUS
 62
7
100
AcDbLine
 10
169.6549479892426
 20
198.2119855316325
 30
0.000000000000000
 11
170.6549479892435
 21
199.2119855316316
 31
0.000000000000000
  0
LINE
  5
69
100
AcDbEntity
  8
A1
  6
CONTINUOUS
 62
7
100
AcDbLine
 10
183.6549479892331
 20
188.2119855316193
 30
0.000000000000000
 11
183.6549479891835
 21
136.2119855316193
 31
0.000000000000000
  0
LINE
  5
6A
100
AcDbEntity
  8
A1
  6
CONTINUOUS
 62
7
100
AcDbLine
 10
171.6549479892331
 20
188.2119855316306
 30
0.000000000000000
 11
183.6549479892331
 21
188.2119855316191
 31
0.000000000000000
  0
LINE
  5
6B
100
AcDbEntity
  8
A1
  6
CONTINUOUS
 62
7
100
AcDbLine
 10
171.6549479891422
 20
93.21198553163066
 30
0.000000000000000
 11
180.6549479891422
 21
93.21198553162206
 31
0.000000000000000
  0
LINE
  5
6C
100
AcDbEntity
  8
A1
  6
CONTINUOUS
 62
7
100
AcDbLine
 10
180.6549479891834
 20
136.2119855316220
 30
0.000000000000000
 11
183.6549479891834
 21
136.2119855316191
 31
0.000000000000000
  0
CIRCLE
  5
6D
100
AcDbEntity
  8
A1
  6
CONTINUOUS
 62
7
100
AcDbCircle
 10
174.1549479892091
 20
163.2119855316283
 30
0.000000000000000
 40
2.100000000000000
  0
LINE
  5
6E
100
AcDbEntity
  8
A4
  6
CENTER
 62
1
100
AcDbLine
 10
177.7549479892091
 20
163.2119855316249
 30
0.000000000000000
 11
170.5549479892092
 21
163.2119855316317
 31
0.000000000000000
  0
LINE
  5
6F
100
AcDbEntity
  8
A4
  6
CENTER
 62
1
100
AcDbLine
 10
174.1549479892126
 20
166.8119855316282
 30
0.000000000000000
 11
174.1549479892058
 21
159.6119855316282
 31
0.000000000000000
  0
LINE
  5
70
100
AcDbEntity
  8
A4
  6
CENTER
 62
1
100
AcDbLine
 10
171.6549479892378
 20
193.2119855316307
 30
0.000000000000000
 11
177.6549479892378
 21
193.2119855316249
 31
0.000000000000000
  0
LINE
  5
71
100
AcDbEntity
  8
A1
  6
CONTINUOUS
 62
7
100
AcDbLine
 10
171.6549479891406
 20
91.71198553163063
 30
0.000000000000000
 11
175.6549479891402
 21
91.21198553162681
 31
0.000000000000000
  0
LINE
  5
72
100
AcDbEntity
  8
A1
  6
CONTINUOUS
 62
7
100
AcDbLine
 10
175.6549479891347
 20
85.21198553162684
 30
0.000000000000000
 11
171.6549479891342
 21
84.71198553163067
 31
0.000000000000000
  0
LINE
  5
73
100
AcDbEntity
  8
A1
  6
CONTINUOUS
 62
7
100
AcDbLine
 10
171.6549479892410
 20
196.7119855316307
 30
0.000000000000000
 11
175.6549479892405
 21
196.2119855316268
 31
0.000000000000000
  0
LINE
  5
74
100
AcDbEntity
  8
A1
  6
CONTINUOUS
 62
7
100
AcDbLine
 10
175.6549479892349
 20
190.2119855316269
 30
0.000000000000000
 11
171.6549479892345
 21
189.7119855316307
 31
0.000000000000000
  0
LINE
  5
75
100
AcDbEntity
  8
A1
  6
CONTINUOUS
 62
7
100
AcDbLine
 10
175.6549479891404
 20
91.21198553162685
 30
0.000000000000000
 11
175.6549479891347
 21
85.21198553162687
 31
0.000000000000000
  0
LINE
  5
76
100
AcDbEntity
  8
A1
  6
CONTINUOUS
 62
7
100
AcDbLine
 10
175.6549479892406
 20
196.2119855316268
 30
0.000000000000000
 11
175.6549479892349
 21
190.2119855316269
 31
0.000000000000000
  0
LINE
  5
77
100
AcDbEntity
  8
A1
  6
CONTINUOUS
 62
7
100
AcDbLine
 10
186.1549479892134
 20
167.7119855316169
 30
0.000000000000000
 11
186.1549479892047
 21
158.7119855316169
 31
0.000000000000000
  0
LINE
  5
78
100
AcDbEntity
  8
A4
  6
CENTER
 62
1
100
AcDbLine
 10
185.9549479892092
 20
163.2119855316170
 30
0.000000000000000
 11
192.5549479892091
 21
163.2119855316107
 31
0.000000000000000
  0
LINE
  5
79
100
AcDbEntity
  8
A1
  6
CONTINUOUS
 62
7
100
AcDbLine
 10
183.6549479892069
 20
160.4619855316194
 30
0.000000000000000
 11
186.1549479892065
 21
160.4619855316169
 31
0.000000000000000
  0
LINE
  5
7A
100
AcDbEntity
  8
A1
  6
CONTINUOUS
 62
7
100
AcDbLine
 10
183.6549479892119
 20
165.9619855316193
 30
0.000000000000000
 11
186.1549479892118
 21
165.9619855316169
 31
0.000000000000000
  0
LINE
  5
7B
100
AcDbEntity
  8
A1
  6
CONTINUOUS
 62
7
100
AcDbLine
 10
170.6549479892435
 20
199.2119855316316
 30
0.000000000000000
 11
170.6549479891319
 21
82.21198553163158
 31
0.000000000000000
  0
LINE
  5
7C
100
AcDbEntity
  8
A1
  6
CONTINUOUS
 62
7
100
AcDbLine
 10
171.6549479892435
 20
199.2119855316307
 30
0.000000000000000
 11
171.6549479891319
 21
82.21198553163063
 31
0.000000000000000
  0
LINE
  5
7D
100
AcDbEntity
  8
A1
  6
CONTINUOUS
 62
7
100
AcDbLine
 10
52.15823688297723
 20
165.9619855317373
 30
0.000000000000000
 11
52.05823688296152
 21
165.9619855317372
 31
0.000000000000000
  0
LINE
  5
7E
100
AcDbEntity
  8
A1
  6
CONTINUOUS
 62
7
100
AcDbLine
 10
52.15823688297543
 20
156.2119855317373
 30
0.000000000000000
 11
52.05823688295222
 21
156.2119855317372
 31
0.000000000000000
  0
LINE
  5
7F
100
AcDbEntity
  8
A1
  6
CONTINUOUS
 62
7
100
AcDbLine
 10
33.25823688295212
 20
156.2119855317291
 30
0.000000000000000
 11
33.15823688297540
 21
156.2119855317291
 31
0.000000000000000
  0
LINE
  5
80
100
AcDbEntity
  8
A1
  6
CONTINUOUS
 62
7
100
AcDbLine
 10
33.25823688296150
 20
165.9619855317291
 30
0.000000000000000
 11
33.15823688297722
 21
165.9619855317291
 31
0.000000000000000
  0
LINE
  5
81
100
AcDbEntity
  8
A1
  6
CONTINUOUS
 62
7
100
AcDbLine
 10
52.05823688293970
 20
143.2119855326391
 30
0.000000000000000
 11
52.15823688472364
 21
143.2119855326393
 31
0.000000000000000
  0
LINE
  5
82
100
AcDbEntity
  8
A1
  6
CONTINUOUS
 62
7
100
AcDbLine
 10
33.15823688296213
 20
143.2119855326000
 30
0.000000000000000
 11
33.25823688293981
 21
143.2119855326001
 31
0.000000000000000
  0
LINE
  5
83
100
AcDbEntity
  8
A1
  6
CONTINUOUS
 62
7
100
AcDbLine
 10
51.95823688296518
 20
95.41198553183052
 30
0.000000000000000
 11
52.15823688296499
 21
95.21198553183039
 31
0.000000000000000
  0
LINE
  5
84
100
AcDbEntity
  8
A1
  6
CONTINUOUS
 62
7
100
AcDbLine
 10
33.35823688296496
 20
95.41198553184826
 30
0.000000000000000
 11
33.15823688296484
 21
95.21198553184844
 31
0.000000000000000
  0
LINE
  5
85
100
AcDbEntity
  8
A4
  6
CENTER
 62
1
100
AcDbLine
 10
42.65823688298346
 20
202.2119855319605
 30
0.000000000000000
 11
42.65823688296226
 21
79.21198553196216
 31
0.000000000000000
  0
LINE
  5
86
100
AcDbEntity
  8
A1
  6
CONTINUOUS
 62
7
100
AcDbLine
 10
52.05823688296264
 20
167.2119855318304
 30
0.000000000000000
 11
52.05823688289392
 21
95.41198553183040
 31
0.000000000000000
  0
LINE
  5
87
100
AcDbEntity
  8
A1
  6
CONTINUOUS
 62
7
100
AcDbLine
 10
33.25823688296289
 20
167.2119855318484
 30
0.000000000000000
 11
33.25823688289405
 21
95.41198553184839
 31
0.000000000000000
  0
LINE
  5
88
100
AcDbEntity
  8
A1
  6
CONTINUOUS
 62
7
100
AcDbLine
 10
52.05823688289383
 20
95.41198553183037
 30
0.000000000000000
 11
33.25823688289393
 21
95.41198553184836
 31
0.000000000000000
  0
LINE
  5
89
100
AcDbEntity
  8
A1
  6
CONTINUOUS
 62
7
100
AcDbLine
 10
52.05823688296265
 20
167.2119855318304
 30
0.000000000000000
 11
33.25823688296264
 21
167.2119855318484
 31
0.000000000000000
  0
LINE
  5
8A
100
AcDbEntity
  8
A1
  6
CONTINUOUS
 62
7
100
AcDbLine
 10
52.05823688296212
 20
166.7119855318304
 30
0.000000000000000
 11
33.25823688296211
 21
166.7119855318484
 31
0.000000000000000
  0
LINE
  5
8B
100
AcDbEntity
  8
A5
  6
PHANTOM
 62
6
100
AcDbLine
 10
167.6549479892099
 20
163.9908075481079
 30
0.000000000000000
 11
117.0353865529505
 21
126.4091907827309
 31
0.000000000000000
  0
LINE
  5
8C
100
AcDbEntity
  8
A5
  6
PHANTOM
 62
6
100
AcDbLine
 10
117.0353865529503
 20
126.4091907827310
 30
0.000000000000000
 11
119.7178562030928
 21
122.7961094694922
 31
0.000000000000000
  0
LINE
  5
8D
100
AcDbEntity
  8
A5
  6
PHANTOM
 62
6
100
AcDbLine
 10
165.3128319281788
 20
158.5155210721726
 30
0.000000000000000
 11
137.2905596984830
 21
137.7108703412967
 31
0.000000000000000
  0
LINE
  5
8E
100
AcDbEntity
  8
A5
  6
PHANTOM
 62
6
100
AcDbLine
 10
167.6549479892015
 20
155.2724872920399
 30
0.000000000000000
 11
150.7550931925383
 21
142.7254827677422
 31
0.000000000000000
  0
ARC
  5
8F
100
AcDbEntity
  8
A5
  6
PHANTOM
 62
6
100
AcDbCircle
 10
138.4827684318794
 20
136.1050564243021
 30
0.000000000000000
 40
2.000000000000000
100
AcDbArc
 50
126.5913999999453
 51
216.5913999999453
  0
LINE
  5
90
100
AcDbEntity
  8
A5
  6
PHANTOM
 62
6
100
AcDbLine
 10
146.7815331674059
 20
142.2663305852669
 30
0.000000000000000
 11
138.4827684318792
 21
136.1050564243021
 31
0.000000000000000
  0
ARC
  5
91
100
AcDbEntity
  8
A5
  6
PHANTOM
 62
6
100
AcDbCircle
 10
148.3706757257456
 20
145.9371106017313
 30
0.000000000000000
 40
4.000000000000000
100
AcDbArc
 50
216.5913999999453
 51
306.5913999999453
  0
ARC
  5
92
100
AcDbEntity
  8
A5
  6
PHANTOM
 62
6
100
AcDbCircle
 10
168.2933537616696
 20
154.5009862796861
 30
0.000000000000000
 40
5.000000000000000
100
AcDbArc
 50
97.33561557031980
 51
126.5913999999454
  0
LINE
  5
93
100
AcDbEntity
  8
A1
  6
CONTINUOUS
 62
7
100
AcDbLine
 10
49.15823688298461
 20
185.1619855317518
 30
0.000000000000000
 11
36.15823688298461
 21
185.1619855317642
 31
0.000000000000000
  0
LINE
  5
94
100
AcDbEntity
  8
A1
  6
CONTINUOUS
 62
7
100
AcDbLine
 10
49.15823688297472
 20
174.9619855317518
 30
0.000000000000000
 11
36.15823688297472
 21
174.9619855317642
 31
0.000000000000000
  0
LINE
  5
95
100
AcDbEntity
  8
A1
  6
CONTINUOUS
 62
7
100
AcDbLine
 10
50.15823688298357
 20
184.1619855317508
 30
0.000000000000000
 11
50.15823688297567
 21
175.9619855317508
 31
0.000000000000000
  0
LINE
  5
96
100
AcDbEntity
  8
A1
  6
CONTINUOUS
 62
7
100
AcDbLine
 10
35.15823688298357
 20
184.1619855317652
 30
0.000000000000000
 11
35.15823688297567
 21
175.9619855317652
 31
0.000000000000000
  0
ARC
  5
97
100
AcDbEntity
  8
A1
  6
CONTINUOUS
 62
7
100
AcDbCircle
 10
49.15823688298347
 20
184.1619855317518
 30
0.000000000000000
 40
1.000000000000000
100
AcDbArc
 50
359.9999999999451
 51
449.9999999999450
  0
ARC
  5
98
100
AcDbEntity
  8
A1
  6
CONTINUOUS
 62
7
100
AcDbCircle
 10
49.15823688297557
 20
175.9619855317518
 30
0.000000000000000
 40
1.000000000000000
100
AcDbArc
 50
269.9999999999451
 51
359.9999999999451
  0
ARC
  5
99
100
AcDbEntity
  8
A1
  6
CONTINUOUS
 62
7
100
AcDbCircle
 10
36.15823688297557
 20
175.9619855317642
 30
0.000000000000000
 40
1.000000000000000
100
AcDbArc
 50
179.9999999999452
 51
269.9999999999451
  0
ARC
  5
9A
100
AcDbEntity
  8
A1
  6
CONTINUOUS
 62
7
100
AcDbCircle
 10
36.15823688298347
 20
184.1619855317642
 30
0.000000000000000
 40
1.000000000000000
100
AcDbArc
 50
89.99999999994516
 51
179.9999999999452
  0
LINE
  5
9B
100
AcDbEntity
  8
A1
  6
CONTINUOUS
 62
7
100
AcDbLine
 10
49.15823688297559
 20
175.9619855317518
 30
0.000000000000000
 11
36.15823688298349
 21
184.1619855317642
 31
0.000000000000000
  0
LINE
  5
9C
100
AcDbEntity
  8
A1
  6
CONTINUOUS
 62
7
100
AcDbLine
 10
36.15823688297560
 20
175.9619855317642
 30
0.000000000000000
 11
49.15823688298350
 21
184.1619855317518
 31
0.000000000000000
  0
LINE
  5
9D
100
AcDbEntity
  8
A1
  6
CONTINUOUS
 62
7
100
AcDbLine
 10
167.6549479892220
 20
174.9619855314827
 30
0.000000000000000
 11
169.6549479892203
 21
174.9619855314812
 31
0.000000000000000
  0
LINE
  5
9E
100
AcDbEntity
  8
A1
  6
CONTINUOUS
 62
7
100
AcDbLine
 10
167.6549479892283
 20
185.1619855314828
 30
0.000000000000000
 11
169.6549479892302
 21
185.1619855314812
 31
0.000000000000000
  0
LINE
  5
9F
100
AcDbEntity
  8
A1
  6
CONTINUOUS
 62
7
100
AcDbLine
 10
166.6549479892230
 20
175.9619855314834
 30
0.000000000000000
 11
166.6549479892275
 21
184.1619855314835
 31
0.000000000000000
  0
ARC
  5
A0
100
AcDbEntity
  8
A1
  6
CONTINUOUS
 62
7
100
AcDbCircle
 10
167.6549479892276
 20
184.1619855314829
 30
0.000000000000000
 40
1.000000000000000
100
AcDbArc
 50
89.99999999996743
 51
179.9999999999454
  0
ARC
  5
A1
100
AcDbEntity
  8
A1
  6
CONTINUOUS
 62
7
100
AcDbCircle
 10
167.6549479892229
 20
175.9619855314829
 30
0.000000000000000
 40
1.000000000000000
100
AcDbArc
 50
179.9999999999454
 51
269.9999999999674
  0
ARC
  5
A2
100
AcDbEntity
  8
A1
  6
CONTINUOUS
 62
7
100
AcDbCircle
 10
51.15823688297671
 20
163.2119855318313
 30
0.000000000000000
 40
1.500000000000000
100
AcDbArc
 50
306.8698976449381
 51
311.8103148957700
  0
ARC
  5
A3
100
AcDbEntity
  8
A1
  6
CONTINUOUS
 62
7
100
AcDbCircle
 10
51.15823688297671
 20
163.2119855318313
 30
0.000000000000000
 40
1.500000000000000
100
AcDbArc
 50
48.18968510420981
 51
53.13010235495226
  0
ARC
  5
A4
100
AcDbEntity
  8
A1
  6
CONTINUOUS
 62
7
100
AcDbCircle
 10
34.15823688297671
 20
163.2119855318476
 30
0.000000000000000
 40
1.500000000000000
100
AcDbArc
 50
126.8698976466403
 51
131.8103148957682
  0
ARC
  5
A5
100
AcDbEntity
  8
A1
  6
CONTINUOUS
 62
7
100
AcDbCircle
 10
34.15823688297671
 20
163.2119855318476
 30
0.000000000000000
 40
1.500000000000000
100
AcDbArc
 50
228.1896851042117
 51
233.1301023532500
  0
LINE
  5
A6
100
AcDbEntity
  8
A1
  6
CONTINUOUS
 62
7
100
AcDbLine
 10
47.90823688297728
 20
167.7119855318344
 30
0.000000000000000
 11
47.90823688297728
 21
167.2119855318344
 31
0.000000000000000
  0
LINE
  5
A7
100
AcDbEntity
  8
A1
  6
CONTINUOUS
 62
7
100
AcDbLine
 10
37.40823688297753
 20
167.7119855318445
 30
0.000000000000000
 11
37.40823688297742
 21
167.2119855318444
 31
0.000000000000000
  0
LINE
  5
A8
100
AcDbEntity
  8
A1
  6
CONTINUOUS
 62
7
100
AcDbLine
 10
52.05823688293503
 20
138.2119855326392
 30
0.000000000000000
 11
52.15823688473398
 21
138.2119855326394
 31
0.000000000000000
  0
LINE
  5
A9
100
AcDbEntity
  8
A1
  6
CONTINUOUS
 62
7
100
AcDbLine
 10
33.15823688297252
 20
138.2119855326000
 30
0.000000000000000
 11
33.25823688293508
 21
138.2119855326002
 31
0.000000000000000
  0
LINE
  5
AA
100
AcDbEntity
  8
A1
  6
CONTINUOUS
 62
7
100
AcDbLine
 10
189.6549479892186
 20
173.0119855316135
 30
0.000000000000000
 11
183.6549479892186
 21
173.0119855316191
 31
0.000000000000000
  0
LINE
  5
AB
100
AcDbEntity
  8
A1
  6
CONTINUOUS
 62
7
100
AcDbLine
 10
189.6549479892143
 20
168.5119855316134
 30
0.000000000000000
 11
189.6549479892186
 21
173.0119855316135
 31
0.000000000000000
  0
LINE
  5
AC
100
AcDbEntity
  8
A4
  6
CENTER
 62
1
100
AcDbLine
 10
187.4549479892283
 20
183.2871608039148
 30
0.000000000000000
 11
182.1549479891995
 21
183.2871608039190
 31
0.000000000000000
  0
LINE
  5
AD
100
AcDbEntity
  8
A1
  6
CONTINUOUS
 62
7
100
AcDbLine
 10
187.9549479892058
 20
159.7119855316150
 30
0.000000000000000
 11
188.9339723149534
 21
159.7119855316141
 31
0.000000000000000
  0
LINE
  5
AE
100
AcDbEntity
  8
A1
  6
CONTINUOUS
 62
7
100
AcDbLine
 10
187.9549479892124
 20
166.7119855316150
 30
0.000000000000000
 11
188.9339723149635
 21
166.7119855316141
 31
0.000000000000000
  0
LINE
  5
AF
100
AcDbEntity
  8
A1
  6
CONTINUOUS
 62
7
100
AcDbLine
 10
186.9549479892054
 20
159.4119855316161
 30
0.000000000000000
 11
187.9549479892054
 21
159.4119855316150
 31
0.000000000000000
  0
LINE
  5
B0
100
AcDbEntity
  8
A1
  6
CONTINUOUS
 62
7
100
AcDbLine
 10
186.9549479892126
 20
167.0119855316161
 30
0.000000000000000
 11
187.9549479892128
 21
167.0119855316150
 31
0.000000000000000
  0
LINE
  5
B1
100
AcDbEntity
  8
A1
  6
CONTINUOUS
 62
7
100
AcDbLine
 10
186.1549479892049
 20
158.7119855316168
 30
0.000000000000000
 11
186.9549479892048
 21
158.7119855316161
 31
0.000000000000000
  0
LINE
  5
B2
100
AcDbEntity
  8
A1
  6
CONTINUOUS
 62
7
100
AcDbLine
 10
186.1549479892135
 20
167.7119855316168
 30
0.000000000000000
 11
186.9549479892134
 21
167.7119855316161
 31
0.000000000000000
  0
LINE
  5
B3
100
AcDbEntity
  8
A1
  6
CONTINUOUS
 62
7
100
AcDbLine
 10
186.9549479892133
 20
167.7119855316161
 30
0.000000000000000
 11
186.9549479892047
 21
158.7119855316161
 31
0.000000000000000
  0
LINE
  5
B4
100
AcDbEntity
  8
A1
  6
CONTINUOUS
 62
7
100
AcDbLine
 10
185.9549479892131
 20
167.2786521982835
 30
0.000000000000000
 11
186.1549479892131
 21
167.3453188649501
 31
0.000000000000000
  0
LINE
  5
B5
100
AcDbEntity
  8
A1
  6
CONTINUOUS
 62
7
100
AcDbLine
 10
187.9549479892129
 20
167.0119855316150
 30
0.000000000000000
 11
187.9549479892055
 21
159.4119855316150
 31
0.000000000000000
  0
ARC
  5
B6
100
AcDbEntity
  8
A1
  6
CONTINUOUS
 62
7
100
AcDbCircle
 10
181.5549479892092
 20
163.2119855316273
 30
0.000000000000000
 40
9.000000000000000
100
AcDbArc
 50
343.3984504008779
 51
376.6015495989182
  0
ARC
  5
B7
100
AcDbEntity
  8
A1
  6
CONTINUOUS
 62
7
100
AcDbCircle
 10
188.9339723149544
 20
161.0119855316142
 30
0.000000000000000
 40
1.300000000000000
100
AcDbArc
 50
269.9999999998905
 51
343.3984504008784
  0
ARC
  5
B8
100
AcDbEntity
  8
A1
  6
CONTINUOUS
 62
7
100
AcDbCircle
 10
188.9339723149623
 20
165.4119855316142
 30
0.000000000000000
 40
1.300000000000000
100
AcDbArc
 50
16.60154959891837
 51
89.99999999989048
  0
ARC
  5
B9
100
AcDbEntity
  8
A1
  6
CONTINUOUS
 62
7
100
AcDbCircle
 10
189.0928791705259
 20
163.2158293786850
 30
0.000000000000000
 40
1.462073871501036
100
AcDbArc
 50
269.9999999998905
 51
449.9999999998905
  0
LINE
  5
BA
100
AcDbEntity
  8
A1
  6
CONTINUOUS
 62
7
100
AcDbLine
 10
202.6549479890975
 20
83.41198553159536
 30
0.000000000000000
 11
202.6549479891158
 21
93.01198553159539
 31
0.000000000000000
  0
ARC
  5
BB
100
AcDbEntity
  8
A1
  6
CONTINUOUS
 62
7
100
AcDbCircle
 10
202.6549479891146
 20
92.41198553159535
 30
0.000000000000000
 40
9.000000000000000
100
AcDbArc
 50
269.9999999998905
 51
298.0724869357435
  0
ARC
  5
BC
100
AcDbEntity
  8
A1
  6
CONTINUOUS
 62
7
100
AcDbCircle
 10
206.6549479891003
 20
84.91198553158770
 30
0.000000000000000
 40
0.5000000000000000
100
AcDbArc
 50
298.0724869357435
 51
359.9999999998905
  0
LINE
  5
BD
100
AcDbEntity
  8
A1
  6
CONTINUOUS
 62
7
100
AcDbLine
 10
207.1549479891003
 20
84.91198553158675
 30
0.000000000000000
 11
207.1549479891129
 21
91.51198553158672
 31
0.000000000000000
  0
ARC
  5
BE
100
AcDbEntity
  8
A1
  6
CONTINUOUS
 62
7
100
AcDbCircle
 10
206.6549479891129
 20
91.51198553158767
 30
0.000000000000000
 40
0.5000000000000000
100
AcDbArc
 50
359.9999999998905
 51
421.9275130640374
  0
ARC
  5
BF
100
AcDbEntity
  8
A1
  6
CONTINUOUS
 62
7
100
AcDbCircle
 10
202.6549479890986
 20
84.01198553159531
 30
0.000000000000000
 40
9.000000000000000
100
AcDbArc
 50
61.92751306403747
 51
89.99999999989048
  0
LINE
  5
C0
100
AcDbEntity
  8
A1
  6
CONTINUOUS
 62
7
100
AcDbLine
 10
187.9549479892088
 20
163.0780109354010
 30
0.000000000000000
 11
186.9549479892092
 21
163.3459601278348
 31
0.000000000000000
  0
LINE
  5
C1
100
AcDbEntity
  8
A1
  6
CONTINUOUS
 62
7
100
AcDbLine
 10
207.1549479891066
 20
92.01198553158635
 30
0.000000000000000
 11
208.1549479891066
 21
92.01198553158538
 31
0.000000000000000
  0
LINE
  5
C2
100
AcDbEntity
  8
A1
  6
CONTINUOUS
 62
7
100
AcDbLine
 10
208.1549479891065
 20
92.01198553158538
 30
0.000000000000000
 11
208.1549479890993
 21
84.41198553158536
 31
0.000000000000000
  0
LINE
  5
C3
100
AcDbEntity
  8
A1
  6
CONTINUOUS
 62
7
100
AcDbLine
 10
208.1549479891062
 20
91.71198553158534
 30
0.000000000000000
 11
209.1339723148573
 21
91.71198553158443
 31
0.000000000000000
  0
ARC
  5
C4
100
AcDbEntity
  8
A1
  6
CONTINUOUS
 62
7
100
AcDbCircle
 10
209.1339723148562
 20
90.41198553158445
 30
0.000000000000000
 40
1.300000000000000
100
AcDbArc
 50
16.60154959891837
 51
89.99999999989048
  0
ARC
  5
C5
100
AcDbEntity
  8
A1
  6
CONTINUOUS
 62
7
100
AcDbCircle
 10
201.7549479891029
 20
88.21198553159759
 30
0.000000000000000
 40
9.000000000000000
100
AcDbArc
 50
343.3984504008779
 51
376.6015495989182
  0
ARC
  5
C6
100
AcDbEntity
  8
A1
  6
CONTINUOUS
 62
7
100
AcDbCircle
 10
209.2928791704198
 20
88.21582937865524
 30
0.000000000000000
 40
1.462073871501036
100
AcDbArc
 50
269.9999999998905
 51
449.9999999998905
  0
ARC
  5
C7
100
AcDbEntity
  8
A1
  6
CONTINUOUS
 62
7
100
AcDbCircle
 10
209.1339723148484
 20
86.01198553158447
 30
0.000000000000000
 40
1.300000000000000
100
AcDbArc
 50
269.9999999998905
 51
343.3984504008784
  0
LINE
  5
C8
100
AcDbEntity
  8
A1
  6
CONTINUOUS
 62
7
100
AcDbLine
 10
208.1549479890995
 20
84.71198553158534
 30
0.000000000000000
 11
209.1339723148472
 21
84.71198553158443
 31
0.000000000000000
  0
LINE
  5
C9
100
AcDbEntity
  8
A1
  6
CONTINUOUS
 62
7
100
AcDbLine
 10
207.1549479890993
 20
84.41198553158632
 30
0.000000000000000
 11
208.1549479890993
 21
84.41198553158536
 31
0.000000000000000
  0
LINE
  5
CA
100
AcDbEntity
  8
A1
  6
CONTINUOUS
 62
7
100
AcDbLine
 10
208.1549479891027
 20
88.07801093537124
 30
0.000000000000000
 11
207.1549479891031
 21
88.34596012780517
 31
0.000000000000000
  0
LINE
  5
CB
100
AcDbEntity
  8
A1
  6
CONTINUOUS
 62
7
100
AcDbLine
 10
207.1549479890993
 20
84.41198553158634
 30
0.000000000000000
 11
207.1549479891138
 21
92.01198553158636
 31
0.000000000000000
  0
LINE
  5
CC
100
AcDbEntity
  8
A1
  6
CONTINUOUS
 62
7
100
AcDbLine
 10
202.1549479890992
 20
86.21198553160352
 30
0.000000000000000
 11
202.1549479891068
 21
90.21198553160352
 31
0.000000000000000
  0
LINE
  5
CD
100
AcDbEntity
  8
A1
  6
CONTINUOUS
 62
7
100
AcDbLine
 10
202.1549479890991
 20
86.21198553160352
 30
0.000000000000000
 11
202.6549479891028
 21
86.21198553160303
 31
0.000000000000000
  0
LINE
  5
CE
100
AcDbEntity
  8
A1
  6
CONTINUOUS
 62
7
100
AcDbLine
 10
202.1549479891067
 20
90.21198553160352
 30
0.000000000000000
 11
202.6549479891104
 21
90.21198553160303
 31
0.000000000000000
  0
LINE
  5
CF
100
AcDbEntity
  8
A5
  6
PHANTOM
 62
6
100
AcDbLine
 10
167.6549479892101
 20
163.9908075481080
 30
0.000000000000000
 11
117.4368400321993
 21
126.7072429660801
 31
0.000000000000000
  0
LINE
  5
D0
100
AcDbEntity
  8
A5
  6
PHANTOM
 62
6
100
AcDbLine
 10
117.3334387362996
 20
126.0077373034823
 30
0.000000000000000
 11
118.8236996530450
 21
124.0004699072390
 31
0.000000000000000
  0
LINE
  5
D1
100
AcDbEntity
  8
A5
  6
PHANTOM
 62
6
100
AcDbLine
 10
165.3128319281788
 20
158.5155210721727
 30
0.000000000000000
 11
118.8236996530451
 21
124.0004699072391
 31
0.000000000000000
  0
ARC
  5
D2
100
AcDbEntity
  8
A5
  6
PHANTOM
 62
6
100
AcDbCircle
 10
117.7348922155483
 20
126.3057894868314
 30
0.000000000000000
 40
0.5000000000000000
100
AcDbArc
 50
126.5913999999453
 51
216.5913999999453
  0
LINE
  5
D3
100
AcDbEntity
  8
A5
  6
PHANTOM
 62
6
100
AcDbLine
 10
131.6337558759528
 20
126.0382283732841
 30
0.000000000000000
 11
125.1635449565967
 21
121.2345323264784
 31
0.000000000000000
  0
ARC
  5
D4
100
AcDbEntity
  8
A5
  6
PHANTOM
 62
6
100
AcDbCircle
 10
130.4415471425565
 20
127.6440422902787
 30
0.000000000000000
 40
2.000000000000000
100
AcDbArc
 50
306.5913999999453
 51
396.5913999999452
  0
ARC
  5
D5
100
AcDbEntity
  8
A5
  6
PHANTOM
 62
6
100
AcDbCircle
 10
123.9713362232005
 20
122.8403462434730
 30
0.000000000000000
 40
2.000000000000000
100
AcDbArc
 50
235.0263488228674
 51
306.5913999999453
  0
ARC
  5
D6
100
AcDbEntity
  8
A5
  6
PHANTOM
 62
6
100
AcDbCircle
 10
132.4609662431495
 20
131.6342736740660
 30
0.000000000000000
 40
2.000000000000000
100
AcDbArc
 50
126.5913999999453
 51
216.5913999999453
  0
LINE
  5
D7
100
AcDbEntity
  8
A5
  6
PHANTOM
 62
6
100
AcDbLine
 10
146.7815331674061
 20
142.2663305852670
 30
0.000000000000000
 11
132.4609662431494
 21
131.6342736740659
 31
0.000000000000000
  0
ARC
  5
D8
100
AcDbEntity
  8
A5
  6
PHANTOM
 62
6
100
AcDbCircle
 10
133.6531749765457
 20
130.0284597570713
 30
0.000000000000000
 40
2.000000000000000
100
AcDbArc
 50
126.5913999999453
 51
216.5913999999453
  0
LINE
  5
D9
100
AcDbEntity
  8
A5
  6
PHANTOM
 62
6
100
AcDbLine
 10
132.0473610595512
 20
128.8362510236751
 30
0.000000000000000
 11
130.8551523261547
 21
130.4420649406697
 31
0.000000000000000
  0
LINE
  5
DA
100
AcDbEntity
  8
A5
  6
PHANTOM
 62
6
100
AcDbLine
 10
122.8249368847583
 20
121.2015147827001
 30
0.000000000000000
 11
118.8236996530450
 21
124.0004699072391
 31
0.000000000000000
  0
LINE
  5
DB
100
AcDbEntity
  8
A1
  6
CONTINUOUS
 62
7
100
AcDbLine
 10
180.6549479891422
 20
93.21198553162203
 30
0.000000000000000
 11
180.6549479891833
 21
136.2119855316221
 31
0.000000000000000
  0
LINE
  5
DC
100
AcDbEntity
  8
A1
  6
CONTINUOUS
 62
7
100
AcDbLine
 10
186.9549479892132
 20
167.6119855316159
 30
0.000000000000000
 11
189.6549479892143
 21
168.5119855316133
 31
0.000000000000000
  0
LINE
  5
DD
100
AcDbEntity
  8
A1
  6
CONTINUOUS
 62
7
100
AcDbLine
 10
183.6549479892137
 20
166.5119855316194
 30
0.000000000000000
 11
186.1549479892131
 21
167.3453188649499
 31
0.000000000000000
  0
LINE
  5
DE
100
AcDbEntity
  8
A1
  6
CONTINUOUS
 62
7
100
AcDbLine
 10
293.6527334315642
 20
82.21198553143978
 30
0.000000000000000
 11
321.6527334315642
 21
82.21198553143978
 31
0.000000000000000
  0
LINE
  5
DF
100
AcDbEntity
  8
A4
  6
CENTER
 62
1
100
AcDbLine
 10
302.6527334315632
 20
193.2119855314398
 30
0.000000000000000
 11
312.6527334315632
 21
193.2119855314398
 31
0.000000000000000
  0
LINE
  5
E0
100
AcDbEntity
  8
A4
  6
CENTER
 62
1
100
AcDbLine
 10
302.6527334314809
 20
88.21198553143978
 30
0.000000000000000
 11
312.6527334314809
 21
88.21198553143978
 31
0.000000000000000
  0
LINE
  5
E1
100
AcDbEntity
  8
A4
  6
CENTER
 62
1
100
AcDbLine
 10
299.1527334315397
 20
169.2119855314398
 30
0.000000000000000
 11
299.1527334315397
 21
157.2119855314398
 31
0.000000000000000
  0
LINE
  5
E2
100
AcDbEntity
  8
A4
  6
CENTER
 62
1
100
AcDbLine
 10
316.1527334315397
 20
169.2119855314398
 30
0.000000000000000
 11
316.1527334315397
 21
157.2119855314398
 31
0.000000000000000
  0
LINE
  5
E3
100
AcDbEntity
  8
A1
  6
CONTINUOUS
 62
7
100
AcDbLine
 10
202.1549479891058
 20
89.71198553160352
 30
0.000000000000000
 11
202.6549479891095
 21
89.71198553160303
 31
0.000000000000000
  0
LINE
  5
E4
100
AcDbEntity
  8
A1
  6
CONTINUOUS
 62
7
100
AcDbLine
 10
202.1549479891001
 20
86.71198553160352
 30
0.000000000000000
 11
202.6549479891038
 21
86.71198553160303
 31
0.000000000000000
  0
LINE
  5
E5
100
AcDbEntity
  8
A4
  6
CENTER
 62
1
100
AcDbLine
 10
177.1549479891375
 20
88.21198553162395
 30
0.000000000000000
 11
171.6549479891376
 21
88.21198553163147
 31
0.000000000000000
  0
LINE
  5
E6
100
AcDbEntity
  8
A4
  6
CENTER
 62
1
100
AcDbLine
 10
212.4284961379815
 20
88.21198553157765
 30
0.000000000000000
 11
200.6549479891028
 21
88.21198553160664
 31
0.000000000000000
  0
LINE
  5
E7
100
AcDbEntity
  8
A1
  6
CONTINUOUS
 62
7
100
AcDbLine
 10
175.6549479892757
 20
248.8573468893573
 30
0.000000000000000
 11
175.6549479892757
 21
242.8573468893572
 31
0.000000000000000
  0
LINE
  5
E8
100
AcDbEntity
  8
A1
  6
CONTINUOUS
 62
7
100
AcDbLine
 10
171.6549479892758
 20
242.3573468893572
 30
0.000000000000000
 11
175.6549479892758
 21
242.8573468893572
 31
0.000000000000000
  0
LINE
  5
E9
100
AcDbEntity
  8
A1
  6
CONTINUOUS
 62
7
100
AcDbLine
 10
171.6549479892758
 20
249.3573468893572
 30
0.000000000000000
 11
175.6549479892758
 21
248.8573468893573
 31
0.000000000000000
  0
LINE
  5
EA
100
AcDbEntity
  8
A1
  6
CONTINUOUS
 62
7
100
AcDbLine
 10
169.6549479892757
 20
258.8573468893572
 30
0.000000000000000
 11
169.6549479892757
 21
232.8573468893572
 31
0.000000000000000
  0
LINE
  5
EB
100
AcDbEntity
  8
A1
  6
CONTINUOUS
 62
7
100
AcDbLine
 10
171.6549479892757
 20
259.8573468893571
 30
0.000000000000000
 11
171.6549479892757
 21
231.8573468893573
 31
0.000000000000000
  0
LINE
  5
EC
100
AcDbEntity
  8
A1
  6
CONTINUOUS
 62
7
100
AcDbLine
 10
170.6549479892757
 20
259.8573468893571
 30
0.000000000000000
 11
170.6549479892757
 21
231.8573468893573
 31
0.000000000000000
  0
LINE
  5
ED
100
AcDbEntity
  8
A4
  6
CENTER
 62
1
100
AcDbLine
 10
164.2279479892757
 20
245.8573468893572
 30
0.000000000000000
 11
198.9989479892756
 21
245.8573468893572
 31
0.000000000000000
  0
LINE
  5
EE
100
AcDbEntity
  8
A1
  6
CONTINUOUS
 62
7
100
AcDbLine
 10
170.6549479892757
 20
231.8573468893573
 30
0.000000000000000
 11
171.6549479892757
 21
231.8573468893573
 31
0.000000000000000
  0
LINE
  5
EF
100
AcDbEntity
  8
A1
  6
CONTINUOUS
 62
7
100
AcDbLine
 10
170.6549479892757
 20
259.8573468893571
 30
0.000000000000000
 11
171.6549479892757
 21
259.8573468893571
 31
0.000000000000000
  0
LINE
  5
F0
100
AcDbEntity
  8
A1
  6
CONTINUOUS
 62
7
100
AcDbLine
 10
169.6549479892757
 20
232.8573468893571
 30
0.000000000000000
 11
170.6549479892757
 21
231.8573468893572
 31
0.000000000000000
  0
LINE
  5
F1
100
AcDbEntity
  8
A1
  6
CONTINUOUS
 62
7
100
AcDbLine
 10
170.6549479892758
 20
259.8573468893572
 30
0.000000000000000
 11
169.6549479892758
 21
258.8573468893573
 31
0.000000000000000
  0
LINE
  5
F2
100
AcDbEntity
  8
A1
  6
CONTINUOUS
 62
7
100
AcDbLine
 10
171.6549479892757
 20
257.3573468893572
 30
0.000000000000000
 11
183.6549479892757
 21
257.3573468893572
 31
0.000000000000000
  0
LINE
  5
F3
100
AcDbEntity
  8
A1
  6
CONTINUOUS
 62
7
100
AcDbLine
 10
171.6549479892757
 20
234.3573468893573
 30
0.000000000000000
 11
183.6549479892757
 21
234.3573468893573
 31
0.000000000000000
  0
LINE
  5
F4
100
AcDbEntity
  8
A4
  6
CENTER
 62
1
100
AcDbLine
 10
181.2359479892758
 20
254.3573468893572
 30
0.000000000000000
 11
193.0039479892756
 21
254.3573468893572
 31
0.000000000000000
  0
LINE
  5
F5
100
AcDbEntity
  8
A1
  6
CONTINUOUS
 62
7
100
AcDbLine
 10
186.9549479892756
 20
258.8573468893572
 30
0.000000000000000
 11
186.9549479892756
 21
249.8573468893572
 31
0.000000000000000
  0
LINE
  5
F6
100
AcDbEntity
  8
A1
  6
CONTINUOUS
 62
7
100
AcDbLine
 10
186.1549479892757
 20
258.8573468893572
 30
0.000000000000000
 11
186.9549479892756
 21
258.8573468893572
 31
0.000000000000000
  0
LINE
  5
F7
100
AcDbEntity
  8
A1
  6
CONTINUOUS
 62
7
100
AcDbLine
 10
186.1549479892757
 20
249.8573468893572
 30
0.000000000000000
 11
186.9549479892756
 21
249.8573468893572
 31
0.000000000000000
  0
LINE
  5
F8
100
AcDbEntity
  8
A1
  6
CONTINUOUS
 62
7
100
AcDbLine
 10
187.9549479892757
 20
258.1573468893572
 30
0.000000000000000
 11
187.9549479892757
 21
250.5573468893571
 31
0.000000000000000
  0
LINE
  5
F9
100
AcDbEntity
  8
A1
  6
CONTINUOUS
 62
7
100
AcDbLine
 10
186.9549479892756
 20
258.1573468893572
 30
0.000000000000000
 11
187.9549479892757
 21
258.1573468893572
 31
0.000000000000000
  0
LINE
  5
FA
100
AcDbEntity
  8
A1
  6
CONTINUOUS
 62
7
100
AcDbLine
 10
186.9549479892756
 20
250.5573468893571
 30
0.000000000000000
 11
187.9549479892757
 21
250.5573468893571
 31
0.000000000000000
  0
LINE
  5
FB
100
AcDbEntity
  8
A1
  6
CONTINUOUS
 62
7
100
AcDbLine
 10
186.9549479892756
 20
254.5733468893572
 30
0.000000000000000
 11
187.9549479892757
 21
254.8413468893571
 31
0.000000000000000
  0
LINE
  5
FC
100
AcDbEntity
  8
A1
  6
CONTINUOUS
 62
7
100
AcDbLine
 10
186.9549479892756
 20
253.8733468893573
 30
0.000000000000000
 11
187.9549479892757
 21
254.1413468893572
 31
0.000000000000000
  0
LINE
  5
FD
100
AcDbEntity
  8
A1
  6
CONTINUOUS
 62
7
100
AcDbLine
 10
189.0739479892757
 20
250.9553468893573
 30
0.000000000000000
 11
187.9549479892758
 21
250.8573468893573
 31
0.000000000000000
  0
LINE
  5
FE
100
AcDbEntity
  8
A1
  6
CONTINUOUS
 62
7
100
AcDbLine
 10
189.0739479892758
 20
257.7593468893571
 30
0.000000000000000
 11
187.9549479892758
 21
257.8573468893572
 31
0.000000000000000
  0
LINE
  5
FF
100
AcDbEntity
  8
A4
  6
CENTER
 62
1
100
AcDbLine
 10
181.7339479892757
 20
237.3573468893572
 30
0.000000000000000
 11
193.1699479892758
 21
237.3573468893572
 31
0.000000000000000
  0
LINE
  5
100
100
AcDbEntity
  8
A1
  6
CONTINUOUS
 62
7
100
AcDbLine
 10
186.9549479892756
 20
241.8573468893572
 30
0.000000000000000
 11
186.9549479892756
 21
232.8573468893572
 31
0.000000000000000
  0
LINE
  5
101
100
AcDbEntity
  8
A1
  6
CONTINUOUS
 62
7
100
AcDbLine
 10
186.1549479892757
 20
241.8573468893572
 30
0.000000000000000
 11
186.9549479892756
 21
241.8573468893572
 31
0.000000000000000
  0
LINE
  5
102
100
AcDbEntity
  8
A1
  6
CONTINUOUS
 62
7
100
AcDbLine
 10
186.1549479892757
 20
232.8573468893572
 30
0.000000000000000
 11
186.9549479892756
 21
232.8573468893572
 31
0.000000000000000
  0
LINE
  5
103
100
AcDbEntity
  8
A1
  6
CONTINUOUS
 62
7
100
AcDbLine
 10
187.9549479892757
 20
241.1573468893572
 30
0.000000000000000
 11
187.9549479892757
 21
233.5573468893573
 31
0.000000000000000
  0
LINE
  5
104
100
AcDbEntity
  8
A1
  6
CONTINUOUS
 62
7
100
AcDbLine
 10
186.9549479892756
 20
241.1573468893572
 30
0.000000000000000
 11
187.9549479892757
 21
241.1573468893572
 31
0.000000000000000
  0
LINE
  5
105
100
AcDbEntity
  8
A1
  6
CONTINUOUS
 62
7
100
AcDbLine
 10
186.9549479892756
 20
233.5573468893573
 30
0.000000000000000
 11
187.9549479892757
 21
233.5573468893573
 31
0.000000000000000
  0
LINE
  5
106
100
AcDbEntity
  8
A1
  6
CONTINUOUS
 62
7
100
AcDbLine
 10
186.9549479892756
 20
237.5733468893572
 30
0.000000000000000
 11
187.9549479892757
 21
237.8413468893572
 31
0.000000000000000
  0
LINE
  5
107
100
AcDbEntity
  8
A1
  6
CONTINUOUS
 62
7
100
AcDbLine
 10
186.9549479892756
 20
236.8733468893573
 30
0.000000000000000
 11
187.9549479892757
 21
237.1413468893571
 31
0.000000000000000
  0
LINE
  5
108
100
AcDbEntity
  8
A1
  6
CONTINUOUS
 62
7
100
AcDbLine
 10
189.0739479892758
 20
233.9553468893571
 30
0.000000000000000
 11
187.9549479892757
 21
233.8573468893572
 31
0.000000000000000
  0
LINE
  5
109
100
AcDbEntity
  8
A1
  6
CONTINUOUS
 62
7
100
AcDbLine
 10
189.0739479892758
 20
240.7593468893571
 30
0.000000000000000
 11
187.9549479892758
 21
240.8573468893572
 31
0.000000000000000
  0
LINE
  5
10A
100
AcDbEntity
  8
A1
  6
CONTINUOUS
 62
7
100
AcDbLine
 10
189.6549479892757
 20
248.3573468893573
 30
0.000000000000000
 11
189.6549479892757
 21
243.3573468893572
 31
0.000000000000000
  0
LINE
  5
10B
100
AcDbEntity
  8
A1
  6
CONTINUOUS
 62
7
100
AcDbLine
 10
183.6549479892757
 20
243.3573468893572
 30
0.000000000000000
 11
189.6549479892757
 21
243.3573468893572
 31
0.000000000000000
  0
LINE
  5
10C
100
AcDbEntity
  8
A1
  6
CONTINUOUS
 62
7
100
AcDbLine
 10
183.6549479892757
 20
248.3573468893573
 30
0.000000000000000
 11
189.6549479892757
 21
248.3573468893573
 31
0.000000000000000
  0
LINE
  5
10D
100
AcDbEntity
  8
A1
  6
CONTINUOUS
 62
7
100
AcDbLine
 10
166.6549479892757
 20
253.3573468893572
 30
0.000000000000000
 11
166.6549479892757
 21
238.3573468893573
 31
0.000000000000000
  0
LINE
  5
10E
100
AcDbEntity
  8
A1
  6
CONTINUOUS
 62
7
100
AcDbLine
 10
166.6549479892757
 20
253.3573468893572
 30
0.000000000000000
 11
169.6549479892757
 21
253.3573468893572
 31
0.000000000000000
  0
LINE
  5
10F
100
AcDbEntity
  8
A1
  6
CONTINUOUS
 62
7
100
AcDbLine
 10
166.6549479892757
 20
238.3573468893573
 30
0.000000000000000
 11
169.6549479892757
 21
238.3573468893573
 31
0.000000000000000
  0
ARC
  5
110
100
AcDbEntity
  8
A1
  6
CONTINUOUS
 62
7
100
AcDbCircle
 10
188.9609479892756
 20
256.4643468893572
 30
0.000000000000000
 40
1.300000000000000
100
AcDbArc
 50
15.88080000000000
 51
84.99990000000004
  0
ARC
  5
111
100
AcDbEntity
  8
A1
  6
CONTINUOUS
 62
7
100
AcDbCircle
 10
181.5549479892757
 20
254.3573468893572
 30
0.000000000000000
 40
9.000000000000000
100
AcDbArc
 50
344.1190000000001
 51
375.8808000000000
  0
ARC
  5
112
100
AcDbEntity
  8
A1
  6
CONTINUOUS
 62
7
100
AcDbCircle
 10
188.9609479892756
 20
252.2503468893572
 30
0.000000000000000
 40
1.300000000000000
100
AcDbArc
 50
275.0000000000000
 51
344.1190000000001
  0
ARC
  5
113
100
AcDbEntity
  8
A1
  6
CONTINUOUS
 62
7
100
AcDbCircle
 10
188.9609479892756
 20
239.4643468893571
 30
0.000000000000000
 40
1.300000000000000
100
AcDbArc
 50
15.88080000000000
 51
84.99990000000004
  0
ARC
  5
114
100
AcDbEntity
  8
A1
  6
CONTINUOUS
 62
7
100
AcDbCircle
 10
181.5549479892757
 20
237.3573468893572
 30
0.000000000000000
 40
9.000000000000000
100
AcDbArc
 50
344.1190000000001
 51
375.8808000000000
  0
ARC
  5
115
100
AcDbEntity
  8
A1
  6
CONTINUOUS
 62
7
100
AcDbCircle
 10
188.9609479892756
 20
235.2503468893572
 30
0.000000000000000
 40
1.300000000000000
100
AcDbArc
 50
275.0000000000000
 51
344.1190000000001
  0
LINE
  5
116
100
AcDbEntity
  8
A1
  6
CONTINUOUS
 62
7
100
AcDbLine
 10
186.1549479892757
 20
241.8573468893572
 30
0.000000000000000
 11
186.1549479892757
 21
232.8573468893572
 31
0.000000000000000
  0
LINE
  5
117
100
AcDbEntity
  8
A1
  6
CONTINUOUS
 62
7
100
AcDbLine
 10
186.1549479892757
 20
258.8573468893572
 30
0.000000000000000
 11
186.1549479892757
 21
249.8573468893572
 31
0.000000000000000
  0
LINE
  5
118
100
AcDbEntity
  8
A1
  6
CONTINUOUS
 62
7
100
AcDbLine
 10
183.6549479892757
 20
234.6073468893572
 30
0.000000000000000
 11
186.1549479892757
 21
234.6073468893572
 31
0.000000000000000
  0
LINE
  5
119
100
AcDbEntity
  8
A1
  6
CONTINUOUS
 62
7
100
AcDbLine
 10
183.6549479892757
 20
240.1073468893572
 30
0.000000000000000
 11
186.1549479892757
 21
240.1073468893572
 31
0.000000000000000
  0
LINE
  5
11A
100
AcDbEntity
  8
A1
  6
CONTINUOUS
 62
7
100
AcDbLine
 10
183.6549479892757
 20
251.6073468893572
 30
0.000000000000000
 11
186.1549479892757
 21
251.6073468893572
 31
0.000000000000000
  0
LINE
  5
11B
100
AcDbEntity
  8
A1
  6
CONTINUOUS
 62
7
100
AcDbLine
 10
183.6549479892757
 20
257.1073468893571
 30
0.000000000000000
 11
186.1549479892757
 21
257.1073468893571
 31
0.000000000000000
  0
LINE
  5
11C
100
AcDbEntity
  8
A1
  6
CONTINUOUS
 62
7
100
AcDbLine
 10
183.6549479892757
 20
257.3573468893572
 30
0.000000000000000
 11
183.6549479892757
 21
234.3573468893573
 31
0.000000000000000
  0
LINE
  5
11D
100
AcDbEntity
  8
A1
  6
CONTINUOUS
 62
7
100
AcDbLine
 10
202.6549479891978
 20
188.4119855315968
 30
0.000000000000000
 11
202.6549479892162
 21
198.0119855315968
 31
0.000000000000000
  0
ARC
  5
11E
100
AcDbEntity
  8
A1
  6
CONTINUOUS
 62
7
100
AcDbCircle
 10
202.6549479892150
 20
197.4119855315968
 30
0.000000000000000
 40
9.000000000000000
100
AcDbArc
 50
269.9999999998905
 51
298.0724869357435
  0
ARC
  5
11F
100
AcDbEntity
  8
A1
  6
CONTINUOUS
 62
7
100
AcDbCircle
 10
206.6549479892007
 20
189.9119855315891
 30
0.000000000000000
 40
0.5000000000000000
100
AcDbArc
 50
298.0724869357435
 51
359.9999999998905
  0
LINE
  5
120
100
AcDbEntity
  8
A1
  6
CONTINUOUS
 62
7
100
AcDbLine
 10
207.1549479892007
 20
189.9119855315882
 30
0.000000000000000
 11
207.1549479892133
 21
196.5119855315882
 31
0.000000000000000
  0
ARC
  5
121
100
AcDbEntity
  8
A1
  6
CONTINUOUS
 62
7
100
AcDbCircle
 10
206.6549479892133
 20
196.5119855315891
 30
0.000000000000000
 40
0.5000000000000000
100
AcDbArc
 50
359.9999999998905
 51
421.9275130640374
  0
ARC
  5
122
100
AcDbEntity
  8
A1
  6
CONTINUOUS
 62
7
100
AcDbCircle
 10
202.6549479891990
 20
189.0119855315968
 30
0.000000000000000
 40
9.000000000000000
100
AcDbArc
 50
61.92751306403747
 51
89.99999999989048
  0
LINE
  5
123
100
AcDbEntity
  8
A1
  6
CONTINUOUS
 62
7
100
AcDbLine
 10
207.1549479892070
 20
197.0119855315878
 30
0.000000000000000
 11
208.1549479892070
 21
197.0119855315868
 31
0.000000000000000
  0
LINE
  5
124
100
AcDbEntity
  8
A1
  6
CONTINUOUS
 62
7
100
AcDbLine
 10
208.1549479892068
 20
197.0119855315868
 30
0.000000000000000
 11
208.1549479891996
 21
189.4119855315868
 31
0.000000000000000
  0
LINE
  5
125
100
AcDbEntity
  8
A1
  6
CONTINUOUS
 62
7
100
AcDbLine
 10
208.1549479892066
 20
196.7119855315868
 30
0.000000000000000
 11
209.1339723149577
 21
196.7119855315859
 31
0.000000000000000
  0
ARC
  5
126
100
AcDbEntity
  8
A1
  6
CONTINUOUS
 62
7
100
AcDbCircle
 10
209.1339723149565
 20
195.4119855315859
 30
0.000000000000000
 40
1.300000000000000
100
AcDbArc
 50
16.60154959891837
 51
89.99999999989048
  0
ARC
  5
127
100
AcDbEntity
  8
A1
  6
CONTINUOUS
 62
7
100
AcDbCircle
 10
201.7549479892033
 20
193.2119855315990
 30
0.000000000000000
 40
9.000000000000000
100
AcDbArc
 50
343.3984504008779
 51
376.6015495989182
  0
ARC
  5
128
100
AcDbEntity
  8
A1
  6
CONTINUOUS
 62
7
100
AcDbCircle
 10
209.2928791705201
 20
193.2158293786567
 30
0.000000000000000
 40
1.462073871501036
100
AcDbArc
 50
269.9999999998905
 51
449.9999999998905
  0
ARC
  5
129
100
AcDbEntity
  8
A1
  6
CONTINUOUS
 62
7
100
AcDbCircle
 10
209.1339723149487
 20
191.0119855315859
 30
0.000000000000000
 40
1.300000000000000
100
AcDbArc
 50
269.9999999998905
 51
343.3984504008784
  0
LINE
  5
12A
100
AcDbEntity
  8
A1
  6
CONTINUOUS
 62
7
100
AcDbLine
 10
208.1549479891999
 20
189.7119855315868
 30
0.000000000000000
 11
209.1339723149476
 21
189.7119855315859
 31
0.000000000000000
  0
LINE
  5
12B
100
AcDbEntity
  8
A1
  6
CONTINUOUS
 62
7
100
AcDbLine
 10
207.1549479891997
 20
189.4119855315878
 30
0.000000000000000
 11
208.1549479891997
 21
189.4119855315868
 31
0.000000000000000
  0
LINE
  5
12C
100
AcDbEntity
  8
A1
  6
CONTINUOUS
 62
7
100
AcDbLine
 10
208.1549479892031
 20
193.0780109353727
 30
0.000000000000000
 11
207.1549479892034
 21
193.3459601278066
 31
0.000000000000000
  0
LINE
  5
12D
100
AcDbEntity
  8
A1
  6
CONTINUOUS
 62
7
100
AcDbLine
 10
207.1549479891996
 20
189.4119855315878
 30
0.000000000000000
 11
207.1549479892142
 21
197.0119855315878
 31
0.000000000000000
  0
LINE
  5
12E
100
AcDbEntity
  8
A1
  6
CONTINUOUS
 62
7
100
AcDbLine
 10
202.1549479891995
 20
191.2119855316049
 30
0.000000000000000
 11
202.1549479892072
 21
195.2119855316049
 31
0.000000000000000
  0
LINE
  5
12F
100
AcDbEntity
  8
A1
  6
CONTINUOUS
 62
7
100
AcDbLine
 10
202.1549479891995
 20
191.2119855316050
 30
0.000000000000000
 11
202.6549479892031
 21
191.2119855316045
 31
0.000000000000000
  0
LINE
  5
130
100
AcDbEntity
  8
A1
  6
CONTINUOUS
 62
7
100
AcDbLine
 10
202.1549479892070
 20
195.2119855316050
 30
0.000000000000000
 11
202.6549479892108
 21
195.2119855316045
 31
0.000000000000000
  0
LINE
  5
131
100
AcDbEntity
  8
A1
  6
CONTINUOUS
 62
7
100
AcDbLine
 10
202.1549479892062
 20
194.7119855316050
 30
0.000000000000000
 11
202.6549479892098
 21
194.7119855316045
 31
0.000000000000000
  0
LINE
  5
132
100
AcDbEntity
  8
A1
  6
CONTINUOUS
 62
7
100
AcDbLine
 10
202.1549479892005
 20
191.7119855316050
 30
0.000000000000000
 11
202.6549479892042
 21
191.7119855316045
 31
0.000000000000000
  0
LINE
  5
133
100
AcDbEntity
  8
A4
  6
CENTER
 62
1
100
AcDbLine
 10
212.4284961380819
 20
193.2119855315791
 30
0.000000000000000
 11
200.6549479892032
 21
193.2119855316081
 31
0.000000000000000
  0
LINE
  5
134
100
AcDbEntity
  8
A1
  6
CONTINUOUS
 62
7
100
AcDbLine
 10
202.6549479892481
 20
241.0573468893376
 30
0.000000000000000
 11
202.6549479892664
 21
250.6573468893376
 31
0.000000000000000
  0
ARC
  5
135
100
AcDbEntity
  8
A1
  6
CONTINUOUS
 62
7
100
AcDbCircle
 10
202.6549479892652
 20
250.0573468893376
 30
0.000000000000000
 40
9.000000000000000
100
AcDbArc
 50
269.9999999998905
 51
298.0724869357435
  0
ARC
  5
136
100
AcDbEntity
  8
A1
  6
CONTINUOUS
 62
7
100
AcDbCircle
 10
206.6549479892509
 20
242.5573468893299
 30
0.000000000000000
 40
0.5000000000000000
100
AcDbArc
 50
298.0724869357435
 51
359.9999999998905
  0
LINE
  5
137
100
AcDbEntity
  8
A1
  6
CONTINUOUS
 62
7
100
AcDbLine
 10
207.1549479892509
 20
242.5573468893290
 30
0.000000000000000
 11
207.1549479892635
 21
249.1573468893290
 31
0.000000000000000
  0
ARC
  5
138
100
AcDbEntity
  8
A1
  6
CONTINUOUS
 62
7
100
AcDbCircle
 10
206.6549479892635
 20
249.1573468893299
 30
0.000000000000000
 40
0.5000000000000000
100
AcDbArc
 50
359.9999999998905
 51
421.9275130640374
  0
ARC
  5
139
100
AcDbEntity
  8
A1
  6
CONTINUOUS
 62
7
100
AcDbCircle
 10
202.6549479892492
 20
241.6573468893376
 30
0.000000000000000
 40
9.000000000000000
100
AcDbArc
 50
61.92751306403747
 51
89.99999999989048
  0
LINE
  5
13A
100
AcDbEntity
  8
A1
  6
CONTINUOUS
 62
7
100
AcDbLine
 10
207.1549479892571
 20
249.6573468893286
 30
0.000000000000000
 11
208.1549479892571
 21
249.6573468893276
 31
0.000000000000000
  0
LINE
  5
13B
100
AcDbEntity
  8
A1
  6
CONTINUOUS
 62
7
100
AcDbLine
 10
208.1549479892571
 20
249.6573468893276
 30
0.000000000000000
 11
208.1549479892498
 21
242.0573468893276
 31
0.000000000000000
  0
LINE
  5
13C
100
AcDbEntity
  8
A1
  6
CONTINUOUS
 62
7
100
AcDbLine
 10
208.1549479892568
 20
249.3573468893276
 30
0.000000000000000
 11
209.1339723150079
 21
249.3573468893267
 31
0.000000000000000
  0
ARC
  5
13D
100
AcDbEntity
  8
A1
  6
CONTINUOUS
 62
7
100
AcDbCircle
 10
209.1339723150067
 20
248.0573468893267
 30
0.000000000000000
 40
1.300000000000000
100
AcDbArc
 50
16.60154959891837
 51
89.99999999989048
  0
ARC
  5
13E
100
AcDbEntity
  8
A1
  6
CONTINUOUS
 62
7
100
AcDbCircle
 10
201.7549479892535
 20
245.8573468893398
 30
0.000000000000000
 40
9.000000000000000
100
AcDbArc
 50
343.3984504008779
 51
376.6015495989182
  0
ARC
  5
13F
100
AcDbEntity
  8
A1
  6
CONTINUOUS
 62
7
100
AcDbCircle
 10
209.2928791705703
 20
245.8611907363975
 30
0.000000000000000
 40
1.462073871501036
100
AcDbArc
 50
269.9999999998905
 51
449.9999999998905
  0
ARC
  5
140
100
AcDbEntity
  8
A1
  6
CONTINUOUS
 62
7
100
AcDbCircle
 10
209.1339723149989
 20
243.6573468893267
 30
0.000000000000000
 40
1.300000000000000
100
AcDbArc
 50
269.9999999998905
 51
343.3984504008784
  0
LINE
  5
141
100
AcDbEntity
  8
A1
  6
CONTINUOUS
 62
7
100
AcDbLine
 10
208.1549479892501
 20
242.3573468893276
 30
0.000000000000000
 11
209.1339723149978
 21
242.3573468893267
 31
0.000000000000000
  0
LINE
  5
142
100
AcDbEntity
  8
A1
  6
CONTINUOUS
 62
7
100
AcDbLine
 10
207.1549479892498
 20
242.0573468893286
 30
0.000000000000000
 11
208.1549479892498
 21
242.0573468893276
 31
0.000000000000000
  0
LINE
  5
143
100
AcDbEntity
  8
A1
  6
CONTINUOUS
 62
7
100
AcDbLine
 10
208.1549479892533
 20
245.7233722931135
 30
0.000000000000000
 11
207.1549479892536
 21
245.9913214855475
 31
0.000000000000000
  0
LINE
  5
144
100
AcDbEntity
  8
A1
  6
CONTINUOUS
 62
7
100
AcDbLine
 10
207.1549479892498
 20
242.0573468893286
 30
0.000000000000000
 11
207.1549479892644
 21
249.6573468893286
 31
0.000000000000000
  0
LINE
  5
145
100
AcDbEntity
  8
A1
  6
CONTINUOUS
 62
7
100
AcDbLine
 10
202.1549479892498
 20
243.8573468893457
 30
0.000000000000000
 11
202.1549479892574
 21
247.8573468893457
 31
0.000000000000000
  0
LINE
  5
146
100
AcDbEntity
  8
A1
  6
CONTINUOUS
 62
7
100
AcDbLine
 10
202.1549479892497
 20
243.8573468893458
 30
0.000000000000000
 11
202.6549479892533
 21
243.8573468893453
 31
0.000000000000000
  0
LINE
  5
147
100
AcDbEntity
  8
A1
  6
CONTINUOUS
 62
7
100
AcDbLine
 10
202.1549479892572
 20
247.8573468893458
 30
0.000000000000000
 11
202.6549479892610
 21
247.8573468893453
 31
0.000000000000000
  0
LINE
  5
148
100
AcDbEntity
  8
A1
  6
CONTINUOUS
 62
7
100
AcDbLine
 10
202.1549479892564
 20
247.3573468893458
 30
0.000000000000000
 11
202.6549479892600
 21
247.3573468893453
 31
0.000000000000000
  0
LINE
  5
149
100
AcDbEntity
  8
A1
  6
CONTINUOUS
 62
7
100
AcDbLine
 10
202.1549479892507
 20
244.3573468893458
 30
0.000000000000000
 11
202.6549479892544
 21
244.3573468893453
 31
0.000000000000000
  0
LINE
  5
14A
100
AcDbEntity
  8
A4
  6
CENTER
 62
1
100
AcDbLine
 10
212.4284961381321
 20
245.8573468893198
 30
0.000000000000000
 11
200.6549479892534
 21
245.8573468893488
 31
0.000000000000000
  0
LINE
  5
14B
100
AcDbEntity
  8
A1
  6
CONTINUOUS
 62
7
100
AcDbLine
 10
305.1527334315642
 20
172.1117855314398
 30
0.000000000000000
 11
305.1527334315642
 21
174.2117855314398
 31
0.000000000000000
  0
LINE
  5
14C
100
AcDbEntity
  8
A1
  6
CONTINUOUS
 62
7
100
AcDbLine
 10
310.1527334315642
 20
172.1117855314398
 30
0.000000000000000
 11
310.1527334315642
 21
174.2117855314398
 31
0.000000000000000
  0
ARC
  5
14D
100
AcDbEntity
  8
A1
  6
CONTINUOUS
 62
7
100
AcDbCircle
 10
317.1027334315643
 20
186.2117855314398
 30
0.000000000000000
 40
1.000000000000000
100
AcDbArc
 50
0.000000000000000
 51
90.00000000000000
  0
ARC
  5
14E
100
AcDbEntity
  8
A1
  6
CONTINUOUS
 62
7
100
AcDbCircle
 10
298.2027334315642
 20
186.2117855314398
 30
0.000000000000000
 40
1.000000000000000
100
AcDbArc
 50
90.00000000000000
 51
180.0000000000000
  0
LINE
  5
14F
100
AcDbEntity
  8
A1
  6
CONTINUOUS
 62
7
100
AcDbLine
 10
318.1027334315643
 20
186.2117855314398
 30
0.000000000000000
 11
318.1027334315643
 21
167.2673375314398
 31
0.000000000000000
  0
LINE
  5
150
100
AcDbEntity
  8
A1
  6
CONTINUOUS
 62
7
100
AcDbLine
 10
297.2027334315642
 20
167.2673375314398
 30
0.000000000000000
 11
297.2027334315642
 21
186.2117855314398
 31
0.000000000000000
  0
LINE
  5
151
100
AcDbEntity
  8
A1
  6
CONTINUOUS
 62
7
100
AcDbLine
 10
304.6527334315642
 20
166.2117855314398
 30
0.000000000000000
 11
302.5068354315642
 21
166.2117855314398
 31
0.000000000000000
  0
LINE
  5
152
100
AcDbEntity
  8
A1
  6
CONTINUOUS
 62
7
100
AcDbLine
 10
304.6527334315642
 20
174.2117855314398
 30
0.000000000000000
 11
304.6527334315642
 21
166.2117855314398
 31
0.000000000000000
  0
LINE
  5
153
100
AcDbEntity
  8
A1
  6
CONTINUOUS
 62
7
100
AcDbLine
 10
310.6527334315642
 20
174.2117855314398
 30
0.000000000000000
 11
304.6527334315642
 21
174.2117855314398
 31
0.000000000000000
  0
LINE
  5
154
100
AcDbEntity
  8
A1
  6
CONTINUOUS
 62
7
100
AcDbLine
 10
310.6527334315642
 20
166.2117855314398
 30
0.000000000000000
 11
310.6527334315642
 21
174.2117855314398
 31
0.000000000000000
  0
LINE
  5
155
100
AcDbEntity
  8
A1
  6
CONTINUOUS
 62
7
100
AcDbLine
 10
312.7986314315642
 20
166.2117855314398
 30
0.000000000000000
 11
310.6527334315642
 21
166.2117855314398
 31
0.000000000000000
  0
ELLIPSE
  5
156
100
AcDbEntity
  8
A1
  6
CONTINUOUS
 62
7
100
AcDbEllipse
 10
306.1527334315642
 20
164.7014385314398
 30
0.000000000000000
 11
-1.000000000000063
 21
0.000000000000000
 31
0.000000000000000
210
0.000000000000000
220
0.000000000000000
230
1.000000000000000
 40
0.08463000000000000
 41
0.000000000000000
 42
1.570796326794897
  0
ELLIPSE
  5
157
100
AcDbEntity
  8
A1
  6
CONTINUOUS
 62
7
100
AcDbEllipse
 10
309.1527334315642
 20
164.7014385314398
 30
0.000000000000000
 11
-0.9999999999999988
 21
0.000000000000000
 31
0.000000000000000
210
0.000000000000000
220
0.000000000000000
230
1.000000000000000
 40
0.08463000000000000
 41
1.570796326794897
 42
3.141592653589793
  0
ELLIPSE
  5
158
100
AcDbEntity
  8
A1
  6
CONTINUOUS
 62
7
100
AcDbEllipse
 10
306.1527334315642
 20
168.1574295314398
 30
0.000000000000000
 11
-0.9999999999999968
 21
0.000000000000000
 31
0.000000000000000
210
0.000000000000000
220
0.000000000000000
230
1.000000000000000
 40
0.9486280000000000
 41
0.000000000000000
 42
1.570796326794897
  0
ELLIPSE
  5
159
100
AcDbEntity
  8
A1
  6
CONTINUOUS
 62
7
100
AcDbEllipse
 10
309.1527334315642
 20
168.1574295314398
 30
0.000000000000000
 11
-0.9999999999999966
 21
0.000000000000000
 31
0.000000000000000
210
0.000000000000000
220
0.000000000000000
230
1.000000000000000
 40
0.9486280000000000
 41
1.570796326794897
 42
3.141592653589793
  0
ARC
  5
15A
100
AcDbEntity
  8
A1
  6
CONTINUOUS
 62
7
100
AcDbCircle
 10
306.1527334315642
 20
172.1117855314398
 30
0.000000000000000
 40
1.000000000000000
100
AcDbArc
 50
90.00000000000000
 51
180.0000000000000
  0
ARC
  5
15B
100
AcDbEntity
  8
A1
  6
CONTINUOUS
 62
7
100
AcDbCircle
 10
309.1527334315642
 20
172.1117855314398
 30
0.000000000000000
 40
1.000000000000000
100
AcDbArc
 50
0.000000000000000
 51
90.00000000000000
  0
LINE
  5
15C
100
AcDbEntity
  8
A1
  6
CONTINUOUS
 62
7
100
AcDbLine
 10
312.9027334315642
 20
160.0993105314398
 30
0.000000000000000
 11
312.9027334315642
 21
160.0430385314398
 31
0.000000000000000
  0
LINE
  5
15D
100
AcDbEntity
  8
A1
  6
CONTINUOUS
 62
7
100
AcDbLine
 10
302.4027334315642
 20
160.0993105314398
 30
0.000000000000000
 11
302.4027334315642
 21
160.0430385314398
 31
0.000000000000000
  0
LINE
  5
15E
100
AcDbEntity
  8
A1
  6
CONTINUOUS
 62
7
100
AcDbLine
 10
311.9100934315642
 20
161.7117855314398
 30
0.000000000000000
 11
310.1527334315642
 21
161.7117855314398
 31
0.000000000000000
  0
LINE
  5
15F
100
AcDbEntity
  8
A1
  6
CONTINUOUS
 62
7
100
AcDbLine
 10
305.1527334315642
 20
169.2117855314398
 30
0.000000000000000
 11
304.6527334315642
 21
169.2117855314398
 31
0.000000000000000
  0
LINE
  5
160
100
AcDbEntity
  8
A1
  6
CONTINUOUS
 62
7
100
AcDbLine
 10
310.6527334315642
 20
169.2117855314398
 30
0.000000000000000
 11
310.1527334315642
 21
169.2117855314398
 31
0.000000000000000
  0
LINE
  5
161
100
AcDbEntity
  8
A1
  6
CONTINUOUS
 62
7
100
AcDbLine
 10
305.1527334315642
 20
161.7117855314398
 30
0.000000000000000
 11
303.3953744315643
 21
161.7117855314398
 31
0.000000000000000
  0
LINE
  5
162
100
AcDbEntity
  8
A1
  6
CONTINUOUS
 62
7
100
AcDbLine
 10
310.1527334315642
 20
164.7014385314398
 30
0.000000000000000
 11
310.1527334315642
 21
161.5092965314398
 31
0.000000000000000
  0
LINE
  5
163
100
AcDbEntity
  8
A1
  6
CONTINUOUS
 62
7
100
AcDbLine
 10
306.1527334315642
 20
160.0430385314398
 30
0.000000000000000
 11
302.4027334315642
 21
160.0430385314398
 31
0.000000000000000
  0
LINE
  5
164
100
AcDbEntity
  8
A1
  6
CONTINUOUS
 62
7
100
AcDbLine
 10
302.4027334315642
 20
158.2127755314398
 30
0.000000000000000
 11
302.4027334315642
 21
160.0430385314398
 31
0.000000000000000
  0
LINE
  5
165
100
AcDbEntity
  8
A1
  6
CONTINUOUS
 62
7
100
AcDbLine
 10
312.9027334315642
 20
158.2127755314398
 30
0.000000000000000
 11
302.4027334315642
 21
158.2127755314398
 31
0.000000000000000
  0
LINE
  5
166
100
AcDbEntity
  8
A1
  6
CONTINUOUS
 62
7
100
AcDbLine
 10
312.9027334315642
 20
158.2127755314398
 30
0.000000000000000
 11
312.9027334315642
 21
160.0430385314398
 31
0.000000000000000
  0
LINE
  5
167
100
AcDbEntity
  8
A1
  6
CONTINUOUS
 62
7
100
AcDbLine
 10
312.9027334315642
 20
160.0430385314398
 30
0.000000000000000
 11
309.1527334315642
 21
160.0430385314398
 31
0.000000000000000
  0
LINE
  5
168
100
AcDbEntity
  8
A1
  6
CONTINUOUS
 62
7
100
AcDbLine
 10
309.1527334315642
 20
160.0430385314398
 30
0.000000000000000
 11
309.1527334315642
 21
164.6168085314398
 31
0.000000000000000
  0
LINE
  5
169
100
AcDbEntity
  8
A1
  6
CONTINUOUS
 62
7
100
AcDbLine
 10
305.1527334315642
 20
161.5092965314398
 30
0.000000000000000
 11
305.1527334315642
 21
164.7014385314398
 31
0.000000000000000
  0
LINE
  5
16A
100
AcDbEntity
  8
A1
  6
CONTINUOUS
 62
7
100
AcDbLine
 10
306.1527334315642
 20
164.6168085314398
 30
0.000000000000000
 11
306.1527334315642
 21
160.0430385314398
 31
0.000000000000000
  0
LINE
  5
16B
100
AcDbEntity
  8
A1
  6
CONTINUOUS
 62
7
100
AcDbLine
 10
309.1527334315642
 20
164.6168085314398
 30
0.000000000000000
 11
306.1527334315642
 21
164.6168085314398
 31
0.000000000000000
  0
LINE
  5
16C
100
AcDbEntity
  8
A1
  6
CONTINUOUS
 62
7
100
AcDbLine
 10
305.1527334315642
 20
168.1574295314398
 30
0.000000000000000
 11
305.1527334315642
 21
164.7014385314398
 31
0.000000000000000
  0
LINE
  5
16D
100
AcDbEntity
  8
A1
  6
CONTINUOUS
 62
7
100
AcDbLine
 10
306.1527334315642
 20
164.6168085314398
 30
0.000000000000000
 11
306.1527334315642
 21
167.2088015314398
 31
0.000000000000000
  0
LINE
  5
16E
100
AcDbEntity
  8
A1
  6
CONTINUOUS
 62
7
100
AcDbLine
 10
310.1527334315642
 20
164.7014385314398
 30
0.000000000000000
 11
310.1527334315642
 21
168.1574295314398
 31
0.000000000000000
  0
LINE
  5
16F
100
AcDbEntity
  8
A1
  6
CONTINUOUS
 62
7
100
AcDbLine
 10
309.1527334315642
 20
167.2088015314398
 30
0.000000000000000
 11
309.1527334315642
 21
164.6168085314398
 31
0.000000000000000
  0
LINE
  5
170
100
AcDbEntity
  8
A1
  6
CONTINUOUS
 62
7
100
AcDbLine
 10
305.1527334315642
 20
168.1574295314398
 30
0.000000000000000
 11
305.1527334315642
 21
169.6665945314398
 31
0.000000000000000
  0
LINE
  5
171
100
AcDbEntity
  8
A1
  6
CONTINUOUS
 62
7
100
AcDbLine
 10
309.1527334315642
 20
167.2088015314398
 30
0.000000000000000
 11
306.1527334315642
 21
167.2088015314398
 31
0.000000000000000
  0
LINE
  5
172
100
AcDbEntity
  8
A1
  6
CONTINUOUS
 62
7
100
AcDbLine
 10
306.1527334315642
 20
168.6124405314398
 30
0.000000000000000
 11
306.1527334315642
 21
167.2088015314398
 31
0.000000000000000
  0
LINE
  5
173
100
AcDbEntity
  8
A1
  6
CONTINUOUS
 62
7
100
AcDbLine
 10
309.1527334315642
 20
167.2088015314398
 30
0.000000000000000
 11
309.1527334315642
 21
168.6124405314398
 31
0.000000000000000
  0
LINE
  5
174
100
AcDbEntity
  8
A1
  6
CONTINUOUS
 62
7
100
AcDbLine
 10
310.1527334315642
 20
169.6665945314398
 30
0.000000000000000
 11
310.1527334315642
 21
168.1574295314398
 31
0.000000000000000
  0
LINE
  5
175
100
AcDbEntity
  8
A1
  6
CONTINUOUS
 62
7
100
AcDbLine
 10
309.1527334315642
 20
168.6124405314398
 30
0.000000000000000
 11
306.1527334315642
 21
168.6124405314398
 31
0.000000000000000
  0
LINE
  5
176
100
AcDbEntity
  8
A1
  6
CONTINUOUS
 62
7
100
AcDbLine
 10
310.1527334315642
 20
169.6665945314398
 30
0.000000000000000
 11
310.1527334315642
 21
172.1117855314398
 31
0.000000000000000
  0
LINE
  5
177
100
AcDbEntity
  8
A1
  6
CONTINUOUS
 62
7
100
AcDbLine
 10
309.1527334315642
 20
173.1117855314398
 30
0.000000000000000
 11
306.1527334315642
 21
173.1117855314398
 31
0.000000000000000
  0
LINE
  5
178
100
AcDbEntity
  8
A1
  6
CONTINUOUS
 62
7
100
AcDbLine
 10
305.1527334315642
 20
169.6665945314398
 30
0.000000000000000
 11
305.1527334315642
 21
172.1117855314398
 31
0.000000000000000
  0
ARC
  5
179
100
AcDbEntity
  8
A1
  6
CONTINUOUS
 62
7
100
AcDbCircle
 10
297.1527334315642
 20
94.21198553143978
 30
0.000000000000000
 40
1.000000000000000
100
AcDbArc
 50
180.0000000000000
 51
270.0000000000000
  0
ARC
  5
17A
100
AcDbEntity
  8
A1
  6
CONTINUOUS
 62
7
100
AcDbCircle
 10
318.1527334315642
 20
94.21198553143978
 30
0.000000000000000
 40
1.000000000000000
100
AcDbArc
 50
270.0000000000000
 51
360.0000000000000
  0
ARC
  5
17B
100
AcDbEntity
  8
A1
  6
CONTINUOUS
 62
7
100
AcDbCircle
 10
315.4027334315642
 20
158.2117855314398
 30
0.000000000000000
 40
2.000000000000000
100
AcDbArc
 50
180.0000000000000
 51
270.0000000000000
  0
ARC
  5
17C
100
AcDbEntity
  8
A1
  6
CONTINUOUS
 62
7
100
AcDbCircle
 10
299.9027334315642
 20
158.2117855314398
 30
0.000000000000000
 40
2.000000000000000
100
AcDbArc
 50
270.0000000000000
 51
360.0000000000000
  0
LINE
  5
17D
100
AcDbEntity
  8
A1
  6
CONTINUOUS
 62
7
100
AcDbLine
 10
293.6527334315642
 20
199.2117855314398
 30
0.000000000000000
 11
321.6527334315642
 21
199.2117855314398
 31
0.000000000000000
  0
LINE
  5
17E
100
AcDbEntity
  8
A1
  6
CONTINUOUS
 62
7
100
AcDbLine
 10
293.6527334315642
 20
82.21198553143978
 30
0.000000000000000
 11
293.6527334315642
 21
199.2117855314398
 31
0.000000000000000
  0
LINE
  5
17F
100
AcDbEntity
  8
A1
  6
CONTINUOUS
 62
7
100
AcDbLine
 10
321.6527334315642
 20
82.21198553143978
 30
0.000000000000000
 11
293.6527334315642
 21
82.21198553143978
 31
0.000000000000000
  0
LINE
  5
180
100
AcDbEntity
  8
A1
  6
CONTINUOUS
 62
7
100
AcDbLine
 10
321.6527334315642
 20
199.2117855314398
 30
0.000000000000000
 11
321.6527334315642
 21
82.21198553143978
 31
0.000000000000000
  0
LINE
  5
181
100
AcDbEntity
  8
A1
  6
CONTINUOUS
 62
7
100
AcDbLine
 10
319.1527334315642
 20
94.21198553143978
 30
0.000000000000000
 11
319.1527334315642
 21
136.2119855314398
 31
0.000000000000000
  0
LINE
  5
182
100
AcDbEntity
  8
A1
  6
CONTINUOUS
 62
7
100
AcDbLine
 10
296.1527334315642
 20
94.21198553143978
 30
0.000000000000000
 11
296.1527334315642
 21
136.2119855314398
 31
0.000000000000000
  0
LINE
  5
183
100
AcDbEntity
  8
A1
  6
CONTINUOUS
 62
7
100
AcDbLine
 10
301.6527334315642
 20
95.21198553143978
 30
0.000000000000000
 11
313.6527334315642
 21
95.21198553143978
 31
0.000000000000000
  0
LINE
  5
184
100
AcDbEntity
  8
A1
  6
CONTINUOUS
 62
7
100
AcDbLine
 10
301.6527334315642
 20
93.21198553143978
 30
0.000000000000000
 11
301.6527334315642
 21
95.21198553143978
 31
0.000000000000000
  0
LINE
  5
185
100
AcDbEntity
  8
A1
  6
CONTINUOUS
 62
7
100
AcDbLine
 10
313.6527334315642
 20
93.21198553143978
 30
0.000000000000000
 11
318.1527334315642
 21
93.21198553143978
 31
0.000000000000000
  0
LINE
  5
186
100
AcDbEntity
  8
A1
  6
CONTINUOUS
 62
7
100
AcDbLine
 10
297.1527334315642
 20
93.21198553143978
 30
0.000000000000000
 11
301.6527334315642
 21
93.21198553143978
 31
0.000000000000000
  0
LINE
  5
187
100
AcDbEntity
  8
A1
  6
CONTINUOUS
 62
7
100
AcDbLine
 10
313.6527334315642
 20
95.21198553143978
 30
0.000000000000000
 11
313.6527334315642
 21
93.21198553143978
 31
0.000000000000000
  0
LINE
  5
188
100
AcDbEntity
  8
A1
  6
CONTINUOUS
 62
7
100
AcDbLine
 10
301.9027334315642
 20
158.2117855314398
 30
0.000000000000000
 11
301.9027334315642
 21
156.2117855314398
 31
0.000000000000000
  0
LINE
  5
189
100
AcDbEntity
  8
A1
  6
CONTINUOUS
 62
7
100
AcDbLine
 10
313.4027334315642
 20
156.2117855314398
 30
0.000000000000000
 11
313.4027334315642
 21
158.2117855314398
 31
0.000000000000000
  0
LINE
  5
18A
100
AcDbEntity
  8
A1
  6
CONTINUOUS
 62
7
100
AcDbLine
 10
301.9027334315642
 20
156.2117855314398
 30
0.000000000000000
 11
313.4027334315642
 21
156.2117855314398
 31
0.000000000000000
  0
LINE
  5
18B
100
AcDbEntity
  8
A1
  6
CONTINUOUS
 62
7
100
AcDbLine
 10
296.1527334315642
 20
166.5658875314398
 30
0.000000000000000
 11
296.1527334315642
 21
188.2117855314398
 31
0.000000000000000
  0
LINE
  5
18C
100
AcDbEntity
  8
A1
  6
CONTINUOUS
 62
7
100
AcDbLine
 10
296.1527334315642
 20
136.2119855314398
 30
0.000000000000000
 11
296.1527334315642
 21
159.8576835314398
 31
0.000000000000000
  0
LINE
  5
18D
100
AcDbEntity
  8
A1
  6
CONTINUOUS
 62
7
100
AcDbLine
 10
319.1527334315642
 20
136.2119855314398
 30
0.000000000000000
 11
296.1527334315642
 21
136.2119855314398
 31
0.000000000000000
  0
LINE
  5
18E
100
AcDbEntity
  8
A1
  6
CONTINUOUS
 62
7
100
AcDbLine
 10
319.1527334315642
 20
166.5658875314398
 30
0.000000000000000
 11
319.1527334315642
 21
188.2117855314398
 31
0.000000000000000
  0
LINE
  5
18F
100
AcDbEntity
  8
A1
  6
CONTINUOUS
 62
7
100
AcDbLine
 10
319.1527334315642
 20
136.2119855314398
 30
0.000000000000000
 11
319.1527334315642
 21
159.8576835314398
 31
0.000000000000000
  0
LINE
  5
190
100
AcDbEntity
  8
A1
  6
CONTINUOUS
 62
7
100
AcDbLine
 10
319.1527334315642
 20
188.2117855314398
 30
0.000000000000000
 11
296.1527334315642
 21
188.2117855314398
 31
0.000000000000000
  0
LINE
  5
191
100
AcDbEntity
  8
A1
  6
CONTINUOUS
 62
7
100
AcDbLine
 10
301.9027334315642
 20
158.2117855314398
 30
0.000000000000000
 11
301.9027334315642
 21
159.6498335314398
 31
0.000000000000000
  0
LINE
  5
192
100
AcDbEntity
  8
A1
  6
CONTINUOUS
 62
7
100
AcDbLine
 10
297.1527334315642
 20
187.2117855314398
 30
0.000000000000000
 11
297.1527334315642
 21
167.2429145314398
 31
0.000000000000000
  0
LINE
  5
193
100
AcDbEntity
  8
A1
  6
CONTINUOUS
 62
7
100
AcDbLine
 10
318.1527334315642
 20
187.2117855314398
 30
0.000000000000000
 11
297.1527334315642
 21
187.2117855314398
 31
0.000000000000000
  0
LINE
  5
194
100
AcDbEntity
  8
A1
  6
CONTINUOUS
 62
7
100
AcDbLine
 10
318.1527334315642
 20
167.2429145314398
 30
0.000000000000000
 11
318.1527334315642
 21
187.2117855314398
 31
0.000000000000000
  0
LINE
  5
195
100
AcDbEntity
  8
A1
  6
CONTINUOUS
 62
7
100
AcDbLine
 10
313.4027334315642
 20
158.2117855314398
 30
0.000000000000000
 11
313.4027334315642
 21
159.6498335314398
 31
0.000000000000000
  0
LINE
  5
196
100
AcDbEntity
  8
A1
  6
CONTINUOUS
 62
7
100
AcDbLine
 10
317.1527334315642
 20
156.2117855314398
 30
0.000000000000000
 11
315.4027334315642
 21
156.2117855314398
 31
0.000000000000000
  0
LINE
  5
197
100
AcDbEntity
  8
A1
  6
CONTINUOUS
 62
7
100
AcDbLine
 10
317.1527334315642
 20
138.2117855314398
 30
0.000000000000000
 11
317.1527334315642
 21
156.2117855314398
 31
0.000000000000000
  0
LINE
  5
198
100
AcDbEntity
  8
A1
  6
CONTINUOUS
 62
7
100
AcDbLine
 10
298.1527334315642
 20
138.2117855314398
 30
0.000000000000000
 11
317.1527334315642
 21
138.2117855314398
 31
0.000000000000000
  0
LINE
  5
199
100
AcDbEntity
  8
A1
  6
CONTINUOUS
 62
7
100
AcDbLine
 10
298.1527334315642
 20
156.2117855314398
 30
0.000000000000000
 11
298.1527334315642
 21
138.2117855314398
 31
0.000000000000000
  0
LINE
  5
19A
100
AcDbEntity
  8
A1
  6
CONTINUOUS
 62
7
100
AcDbLine
 10
298.1527334315642
 20
156.2117855314398
 30
0.000000000000000
 11
299.9027334315642
 21
156.2117855314398
 31
0.000000000000000
  0
LINE
  5
19B
100
AcDbEntity
  8
A4
  6
CENTER
 62
1
100
AcDbLine
 10
307.6527334315642
 20
80.71198553143978
 30
0.000000000000000
 11
307.6527334315642
 21
200.7117855314398
 31
0.000000000000000
  0
ARC
  5
19C
100
AcDbEntity
  8
A1
  6
CONTINUOUS
 62
7
100
AcDbCircle
 10
306.6527334315642
 20
88.21218553143976
 30
0.000000000000000
 40
4.799999999999998
100
AcDbArc
 50
90.00000000000000
 51
270.0000000000000
  0
CIRCLE
  5
19D
100
AcDbEntity
  8
A1
  6
CONTINUOUS
 62
7
100
AcDbCircle
 10
307.6527334315642
 20
88.21218553143976
 30
0.000000000000000
 40
3.799999999999998
  0
ARC
  5
19E
100
AcDbEntity
  8
A1
  6
CONTINUOUS
 62
7
100
AcDbCircle
 10
306.6527334315642
 20
88.21218553143976
 30
0.000000000000000
 40
3.594230000000000
100
AcDbArc
 50
94.16050000000001
 51
265.8399999999999
  0
CIRCLE
  5
19F
100
AcDbEntity
  8
A1
  6
CONTINUOUS
 62
7
100
AcDbCircle
 10
307.6527334315642
 20
88.21218553143976
 30
0.000000000000000
 40
3.500000000000000
  0
LINE
  5
1A0
100
AcDbEntity
  8
A1
  6
CONTINUOUS
 62
7
100
AcDbLine
 10
307.2167334315643
 20
89.39048553143977
 30
0.000000000000000
 11
307.2327334315643
 21
90.26978553143977
 31
0.000000000000000
  0
LINE
  5
1A1
100
AcDbEntity
  8
A1
  6
CONTINUOUS
 62
7
100
AcDbLine
 10
306.9807334315643
 20
88.88378553143974
 30
0.000000000000000
 11
307.2177334315641
 21
89.39048553143974
 31
0.000000000000000
  0
LINE
  5
1A2
100
AcDbEntity
  8
A1
  6
CONTINUOUS
 62
7
100
AcDbLine
 10
306.9807334315643
 20
88.88378553143974
 30
0.000000000000000
 11
306.4737334315641
 21
88.64748553143974
 31
0.000000000000000
  0
LINE
  5
1A3
100
AcDbEntity
  8
A1
  6
CONTINUOUS
 62
7
100
AcDbLine
 10
306.4747334315642
 20
88.64748553143976
 30
0.000000000000000
 11
305.5947334315642
 21
88.63218553143976
 31
0.000000000000000
  0
LINE
  5
1A4
100
AcDbEntity
  8
A1
  6
CONTINUOUS
 62
7
100
AcDbLine
 10
306.4747334315644
 20
87.77678553143978
 30
0.000000000000000
 11
305.5947334315645
 21
87.79218553143978
 31
0.000000000000000
  0
ARC
  5
1A5
100
AcDbEntity
  8
A1
  6
CONTINUOUS
 62
7
100
AcDbCircle
 10
307.6527334315642
 20
88.21218553143976
 30
0.000000000000000
 40
2.100000000000000
100
AcDbArc
 50
168.4630000000000
 51
191.5369999999998
  0
LINE
  5
1A6
100
AcDbEntity
  8
A1
  6
CONTINUOUS
 62
7
100
AcDbLine
 10
306.9807334315643
 20
87.54058553143972
 30
0.000000000000000
 11
306.4737334315641
 21
87.77678553143971
 31
0.000000000000000
  0
LINE
  5
1A7
100
AcDbEntity
  8
A1
  6
CONTINUOUS
 62
7
100
AcDbLine
 10
306.9807334315644
 20
87.54058553143976
 30
0.000000000000000
 11
307.2177334315642
 21
87.03388553143978
 31
0.000000000000000
  0
ARC
  5
1A8
100
AcDbEntity
  8
A1
  6
CONTINUOUS
 62
7
100
AcDbCircle
 10
307.6527334315642
 20
88.21218553143976
 30
0.000000000000000
 40
2.100000000000000
100
AcDbArc
 50
258.4629999999999
 51
281.5369999999999
  0
LINE
  5
1A9
100
AcDbEntity
  8
A1
  6
CONTINUOUS
 62
7
100
AcDbLine
 10
307.2177334315642
 20
87.03378553143976
 30
0.000000000000000
 11
307.2327334315644
 21
86.15458553143976
 31
0.000000000000000
  0
LINE
  5
1AA
100
AcDbEntity
  8
A1
  6
CONTINUOUS
 62
7
100
AcDbLine
 10
308.0877334315643
 20
87.03378553143976
 30
0.000000000000000
 11
308.0727334315642
 21
86.15458553143978
 31
0.000000000000000
  0
LINE
  5
1AB
100
AcDbEntity
  8
A1
  6
CONTINUOUS
 62
7
100
AcDbLine
 10
308.3237334315644
 20
87.54058553143973
 30
0.000000000000000
 11
308.0877334315644
 21
87.03388553143976
 31
0.000000000000000
  0
LINE
  5
1AC
100
AcDbEntity
  8
A1
  6
CONTINUOUS
 62
7
100
AcDbLine
 10
308.3237334315642
 20
87.54058553143977
 30
0.000000000000000
 11
308.8307334315641
 21
87.77678553143977
 31
0.000000000000000
  0
LINE
  5
1AD
100
AcDbEntity
  8
A1
  6
CONTINUOUS
 62
7
100
AcDbLine
 10
308.8307334315641
 20
87.77678553143974
 30
0.000000000000000
 11
309.7097334315643
 21
87.79218553143974
 31
0.000000000000000
  0
ARC
  5
1AE
100
AcDbEntity
  8
A1
  6
CONTINUOUS
 62
7
100
AcDbCircle
 10
307.6527334315642
 20
88.21218553143976
 30
0.000000000000000
 40
2.100000000000000
100
AcDbArc
 50
348.4630000000000
 51
371.5370000000000
  0
LINE
  5
1AF
100
AcDbEntity
  8
A1
  6
CONTINUOUS
 62
7
100
AcDbLine
 10
308.8307334315641
 20
88.64748553143973
 30
0.000000000000000
 11
309.7097334315643
 21
88.63218553143973
 31
0.000000000000000
  0
LINE
  5
1B0
100
AcDbEntity
  8
A1
  6
CONTINUOUS
 62
7
100
AcDbLine
 10
308.3237334315642
 20
88.88378553143974
 30
0.000000000000000
 11
308.8307334315641
 21
88.64748553143974
 31
0.000000000000000
  0
LINE
  5
1B1
100
AcDbEntity
  8
A1
  6
CONTINUOUS
 62
7
100
AcDbLine
 10
308.3237334315643
 20
88.88378553143978
 30
0.000000000000000
 11
308.0877334315643
 21
89.39048553143979
 31
0.000000000000000
  0
LINE
  5
1B2
100
AcDbEntity
  8
A1
  6
CONTINUOUS
 62
7
100
AcDbLine
 10
308.0877334315642
 20
89.39048553143975
 30
0.000000000000000
 11
308.0727334315642
 21
90.26978553143975
 31
0.000000000000000
  0
ARC
  5
1B3
100
AcDbEntity
  8
A1
  6
CONTINUOUS
 62
7
100
AcDbCircle
 10
307.6527334315642
 20
88.21218553143976
 30
0.000000000000000
 40
2.100000000000000
100
AcDbArc
 50
78.46299999999998
 51
101.5370000000000
  0
LINE
  5
1B4
100
AcDbEntity
  8
A1
  6
CONTINUOUS
 62
7
100
AcDbLine
 10
306.6527334315642
 20
93.01218553143974
 30
0.000000000000000
 11
308.6527334315642
 21
93.01218553143974
 31
0.000000000000000
  0
ARC
  5
1B5
100
AcDbEntity
  8
A1
  6
CONTINUOUS
 62
7
100
AcDbCircle
 10
308.6527334315642
 20
88.21218553143976
 30
0.000000000000000
 40
4.799999999999998
100
AcDbArc
 50
270.0000000000000
 51
450.0000000000000
  0
ARC
  5
1B6
100
AcDbEntity
  8
A1
  6
CONTINUOUS
 62
7
100
AcDbCircle
 10
308.6527334315642
 20
88.21218553143976
 30
0.000000000000000
 40
3.594230000000000
100
AcDbArc
 50
274.1600000000000
 51
445.8396000000001
  0
LINE
  5
1B7
100
AcDbEntity
  8
A1
  6
CONTINUOUS
 62
7
100
AcDbLine
 10
306.6527334315642
 20
83.41218553143975
 30
0.000000000000000
 11
308.6527334315642
 21
83.41218553143975
 31
0.000000000000000
  0
CIRCLE
  5
1B8
100
AcDbEntity
  8
A1
  6
CONTINUOUS
 62
7
100
AcDbCircle
 10
299.1527334315642
 20
163.2119855314397
 30
0.000000000000000
 40
3.799999999999998
  0
CIRCLE
  5
1B9
100
AcDbEntity
  8
A1
  6
CONTINUOUS
 62
7
100
AcDbCircle
 10
299.1527334315642
 20
163.2119855314397
 30
0.000000000000000
 40
3.500000000000000
  0
CIRCLE
  5
1BA
100
AcDbEntity
  8
A1
  6
CONTINUOUS
 62
7
100
AcDbCircle
 10
299.1527334315642
 20
163.2119855314397
 30
0.000000000000000
 40
4.500000000000000
  0
LINE
  5
1BB
100
AcDbEntity
  8
A1
  6
CONTINUOUS
 62
7
100
AcDbLine
 10
298.4807334315643
 20
163.8839855314397
 30
0.000000000000000
 11
298.7177334315642
 21
164.3909855314396
 31
0.000000000000000
  0
LINE
  5
1BC
100
AcDbEntity
  8
A1
  6
CONTINUOUS
 62
7
100
AcDbLine
 10
298.4807334315644
 20
163.8839855314398
 30
0.000000000000000
 11
297.9747334315643
 21
163.6479855314398
 31
0.000000000000000
  0
LINE
  5
1BD
100
AcDbEntity
  8
A1
  6
CONTINUOUS
 62
7
100
AcDbLine
 10
297.9737334315643
 20
163.6479855314398
 30
0.000000000000000
 11
297.0947334315644
 21
163.6319855314398
 31
0.000000000000000
  0
LINE
  5
1BE
100
AcDbEntity
  8
A1
  6
CONTINUOUS
 62
7
100
AcDbLine
 10
297.9747334315643
 20
162.7769855314398
 30
0.000000000000000
 11
297.0947334315644
 21
162.7919855314397
 31
0.000000000000000
  0
ARC
  5
1BF
100
AcDbEntity
  8
A1
  6
CONTINUOUS
 62
7
100
AcDbCircle
 10
299.1527334315642
 20
163.2119855314397
 30
0.000000000000000
 40
2.100000000000000
100
AcDbArc
 50
168.4630000000000
 51
191.5369999999998
  0
LINE
  5
1C0
100
AcDbEntity
  8
A1
  6
CONTINUOUS
 62
7
100
AcDbLine
 10
298.4807334315643
 20
162.5409855314397
 30
0.000000000000000
 11
297.9747334315643
 21
162.7769855314398
 31
0.000000000000000
  0
LINE
  5
1C1
100
AcDbEntity
  8
A1
  6
CONTINUOUS
 62
7
100
AcDbLine
 10
298.4807334315644
 20
162.5409855314397
 30
0.000000000000000
 11
298.7177334315643
 21
162.0339855314398
 31
0.000000000000000
  0
LINE
  5
1C2
100
AcDbEntity
  8
A1
  6
CONTINUOUS
 62
7
100
AcDbLine
 10
298.7167334315643
 20
162.0339855314397
 30
0.000000000000000
 11
298.7327334315643
 21
161.1549855314396
 31
0.000000000000000
  0
ARC
  5
1C3
100
AcDbEntity
  8
A1
  6
CONTINUOUS
 62
7
100
AcDbCircle
 10
299.1527334315642
 20
163.2119855314397
 30
0.000000000000000
 40
2.100000000000000
100
AcDbArc
 50
258.4629999999999
 51
281.5369999999999
  0
LINE
  5
1C4
100
AcDbEntity
  8
A1
  6
CONTINUOUS
 62
7
100
AcDbLine
 10
299.5877334315643
 20
162.0339855314398
 30
0.000000000000000
 11
299.5727334315642
 21
161.1549855314396
 31
0.000000000000000
  0
LINE
  5
1C5
100
AcDbEntity
  8
A1
  6
CONTINUOUS
 62
7
100
AcDbLine
 10
299.8237334315643
 20
162.5409855314397
 30
0.000000000000000
 11
299.5877334315643
 21
162.0339855314398
 31
0.000000000000000
  0
LINE
  5
1C6
100
AcDbEntity
  8
A1
  6
CONTINUOUS
 62
7
100
AcDbLine
 10
299.8237334315643
 20
162.5409855314397
 30
0.000000000000000
 11
300.3307334315643
 21
162.7769855314398
 31
0.000000000000000
  0
LINE
  5
1C7
100
AcDbEntity
  8
A1
  6
CONTINUOUS
 62
7
100
AcDbLine
 10
300.3307334315642
 20
162.7769855314398
 30
0.000000000000000
 11
301.2097334315643
 21
162.7919855314397
 31
0.000000000000000
  0
ARC
  5
1C8
100
AcDbEntity
  8
A1
  6
CONTINUOUS
 62
7
100
AcDbCircle
 10
299.1527334315642
 20
163.2119855314397
 30
0.000000000000000
 40
2.100000000000000
100
AcDbArc
 50
348.4630000000000
 51
371.5370000000000
  0
LINE
  5
1C9
100
AcDbEntity
  8
A1
  6
CONTINUOUS
 62
7
100
AcDbLine
 10
300.3307334315643
 20
163.6479855314398
 30
0.000000000000000
 11
301.2097334315643
 21
163.6319855314398
 31
0.000000000000000
  0
LINE
  5
1CA
100
AcDbEntity
  8
A1
  6
CONTINUOUS
 62
7
100
AcDbLine
 10
299.8237334315642
 20
163.8839855314397
 30
0.000000000000000
 11
300.3307334315642
 21
163.6479855314397
 31
0.000000000000000
  0
LINE
  5
1CB
100
AcDbEntity
  8
A1
  6
CONTINUOUS
 62
7
100
AcDbLine
 10
299.8247334315643
 20
163.8839855314398
 30
0.000000000000000
 11
299.5877334315643
 21
164.3909855314397
 31
0.000000000000000
  0
LINE
  5
1CC
100
AcDbEntity
  8
A1
  6
CONTINUOUS
 62
7
100
AcDbLine
 10
299.5877334315643
 20
164.3909855314397
 30
0.000000000000000
 11
299.5727334315642
 21
165.2699855314398
 31
0.000000000000000
  0
ARC
  5
1CD
100
AcDbEntity
  8
A1
  6
CONTINUOUS
 62
7
100
AcDbCircle
 10
299.1527334315642
 20
163.2119855314397
 30
0.000000000000000
 40
2.100000000000000
100
AcDbArc
 50
78.46299999999998
 51
101.5370000000000
  0
LINE
  5
1CE
100
AcDbEntity
  8
A1
  6
CONTINUOUS
 62
7
100
AcDbLine
 10
298.7167334315642
 20
164.3909855314396
 30
0.000000000000000
 11
298.7327334315642
 21
165.2699855314397
 31
0.000000000000000
  0
CIRCLE
  5
1CF
100
AcDbEntity
  8
A1
  6
CONTINUOUS
 62
7
100
AcDbCircle
 10
316.1527334315642
 20
163.2119855314397
 30
0.000000000000000
 40
4.500000000000000
  0
CIRCLE
  5
1D0
100
AcDbEntity
  8
A1
  6
CONTINUOUS
 62
7
100
AcDbCircle
 10
316.1527334315642
 20
163.2119855314397
 30
0.000000000000000
 40
3.799999999999998
  0
CIRCLE
  5
1D1
100
AcDbEntity
  8
A1
  6
CONTINUOUS
 62
7
100
AcDbCircle
 10
316.1527334315642
 20
163.2119855314397
 30
0.000000000000000
 40
3.500000000000000
  0
LINE
  5
1D2
100
AcDbEntity
  8
A1
  6
CONTINUOUS
 62
7
100
AcDbLine
 10
316.8237334315643
 20
162.5409855314397
 30
0.000000000000000
 11
316.5877334315643
 21
162.0339855314398
 31
0.000000000000000
  0
LINE
  5
1D3
100
AcDbEntity
  8
A1
  6
CONTINUOUS
 62
7
100
AcDbLine
 10
316.8237334315642
 20
162.5409855314396
 30
0.000000000000000
 11
317.3307334315643
 21
162.7769855314398
 31
0.000000000000000
  0
LINE
  5
1D4
100
AcDbEntity
  8
A1
  6
CONTINUOUS
 62
7
100
AcDbLine
 10
317.3307334315643
 20
162.7769855314397
 30
0.000000000000000
 11
318.2097334315643
 21
162.7919855314397
 31
0.000000000000000
  0
ARC
  5
1D5
100
AcDbEntity
  8
A1
  6
CONTINUOUS
 62
7
100
AcDbCircle
 10
316.1527334315642
 20
163.2119855314397
 30
0.000000000000000
 40
2.100000000000000
100
AcDbArc
 50
348.4630000000000
 51
371.5370000000000
  0
LINE
  5
1D6
100
AcDbEntity
  8
A1
  6
CONTINUOUS
 62
7
100
AcDbLine
 10
317.3307334315643
 20
163.6479855314398
 30
0.000000000000000
 11
318.2097334315643
 21
163.6319855314398
 31
0.000000000000000
  0
LINE
  5
1D7
100
AcDbEntity
  8
A1
  6
CONTINUOUS
 62
7
100
AcDbLine
 10
316.8237334315642
 20
163.8839855314397
 30
0.000000000000000
 11
317.3307334315642
 21
163.6479855314398
 31
0.000000000000000
  0
LINE
  5
1D8
100
AcDbEntity
  8
A1
  6
CONTINUOUS
 62
7
100
AcDbLine
 10
316.8237334315642
 20
163.8839855314397
 30
0.000000000000000
 11
316.5877334315643
 21
164.3909855314397
 31
0.000000000000000
  0
LINE
  5
1D9
100
AcDbEntity
  8
A1
  6
CONTINUOUS
 62
7
100
AcDbLine
 10
316.5877334315643
 20
164.3909855314397
 30
0.000000000000000
 11
316.5727334315641
 21
165.2699855314398
 31
0.000000000000000
  0
ARC
  5
1DA
100
AcDbEntity
  8
A1
  6
CONTINUOUS
 62
7
100
AcDbCircle
 10
316.1527334315642
 20
163.2119855314397
 30
0.000000000000000
 40
2.100000000000000
100
AcDbArc
 50
78.46299999999998
 51
101.5370000000000
  0
LINE
  5
1DB
100
AcDbEntity
  8
A1
  6
CONTINUOUS
 62
7
100
AcDbLine
 10
315.7177334315643
 20
164.3909855314396
 30
0.000000000000000
 11
315.7327334315644
 21
165.2699855314397
 31
0.000000000000000
  0
LINE
  5
1DC
100
AcDbEntity
  8
A1
  6
CONTINUOUS
 62
7
100
AcDbLine
 10
315.4807334315643
 20
163.8839855314397
 30
0.000000000000000
 11
314.9747334315643
 21
163.6479855314397
 31
0.000000000000000
  0
LINE
  5
1DD
100
AcDbEntity
  8
A1
  6
CONTINUOUS
 62
7
100
AcDbLine
 10
315.4807334315644
 20
163.8839855314397
 30
0.000000000000000
 11
315.7167334315644
 21
164.3909855314397
 31
0.000000000000000
  0
LINE
  5
1DE
100
AcDbEntity
  8
A1
  6
CONTINUOUS
 62
7
100
AcDbLine
 10
314.9737334315644
 20
163.6479855314398
 30
0.000000000000000
 11
314.0947334315643
 21
163.6319855314398
 31
0.000000000000000
  0
ARC
  5
1DF
100
AcDbEntity
  8
A1
  6
CONTINUOUS
 62
7
100
AcDbCircle
 10
316.1527334315642
 20
163.2119855314397
 30
0.000000000000000
 40
2.100000000000000
100
AcDbArc
 50
168.4630000000000
 51
191.5369999999998
  0
LINE
  5
1E0
100
AcDbEntity
  8
A1
  6
CONTINUOUS
 62
7
100
AcDbLine
 10
314.9747334315643
 20
162.7769855314398
 30
0.000000000000000
 11
314.0947334315644
 21
162.7919855314397
 31
0.000000000000000
  0
LINE
  5
1E1
100
AcDbEntity
  8
A1
  6
CONTINUOUS
 62
7
100
AcDbLine
 10
315.4807334315644
 20
162.5409855314396
 30
0.000000000000000
 11
314.9747334315642
 21
162.7769855314398
 31
0.000000000000000
  0
LINE
  5
1E2
100
AcDbEntity
  8
A1
  6
CONTINUOUS
 62
7
100
AcDbLine
 10
315.4807334315644
 20
162.5409855314397
 30
0.000000000000000
 11
315.7177334315643
 21
162.0339855314398
 31
0.000000000000000
  0
LINE
  5
1E3
100
AcDbEntity
  8
A1
  6
CONTINUOUS
 62
7
100
AcDbLine
 10
315.7167334315643
 20
162.0339855314397
 30
0.000000000000000
 11
315.7327334315643
 21
161.1549855314396
 31
0.000000000000000
  0
ARC
  5
1E4
100
AcDbEntity
  8
A1
  6
CONTINUOUS
 62
7
100
AcDbCircle
 10
316.1527334315642
 20
163.2119855314397
 30
0.000000000000000
 40
2.100000000000000
100
AcDbArc
 50
258.4629999999999
 51
281.5369999999999
  0
LINE
  5
1E5
100
AcDbEntity
  8
A1
  6
CONTINUOUS
 62
7
100
AcDbLine
 10
316.5877334315643
 20
162.0339855314398
 30
0.000000000000000
 11
316.5727334315642
 21
161.1549855314397
 31
0.000000000000000
  0
ARC
  5
1E6
100
AcDbEntity
  8
A1
  6
CONTINUOUS
 62
7
100
AcDbCircle
 10
306.6527334315642
 20
193.2119855314398
 30
0.000000000000000
 40
4.799999999999998
100
AcDbArc
 50
90.00000000000000
 51
270.0000000000000
  0
ARC
  5
1E7
100
AcDbEntity
  8
A1
  6
CONTINUOUS
 62
7
100
AcDbCircle
 10
306.6527334315642
 20
193.2119855314398
 30
0.000000000000000
 40
3.594230000000000
100
AcDbArc
 50
94.16050000000001
 51
265.8399999999999
  0
CIRCLE
  5
1E8
100
AcDbEntity
  8
A1
  6
CONTINUOUS
 62
7
100
AcDbCircle
 10
307.6527334315642
 20
193.2119855314398
 30
0.000000000000000
 40
3.799999999999998
  0
CIRCLE
  5
1E9
100
AcDbEntity
  8
A1
  6
CONTINUOUS
 62
7
100
AcDbCircle
 10
307.6527334315642
 20
193.2119855314398
 30
0.000000000000000
 40
3.500000000000000
  0
LINE
  5
1EA
100
AcDbEntity
  8
A1
  6
CONTINUOUS
 62
7
100
AcDbLine
 10
306.9807334315643
 20
193.8839855314397
 30
0.000000000000000
 11
306.4737334315642
 21
193.6479855314398
 31
0.000000000000000
  0
LINE
  5
1EB
100
AcDbEntity
  8
A1
  6
CONTINUOUS
 62
7
100
AcDbLine
 10
307.2177334315641
 20
194.3909855314396
 30
0.000000000000000
 11
307.2327334315643
 21
195.2699855314397
 31
0.000000000000000
  0
LINE
  5
1EC
100
AcDbEntity
  8
A1
  6
CONTINUOUS
 62
7
100
AcDbLine
 10
306.9807334315643
 20
193.8839855314397
 30
0.000000000000000
 11
307.2167334315643
 21
194.3909855314395
 31
0.000000000000000
  0
LINE
  5
1ED
100
AcDbEntity
  8
A1
  6
CONTINUOUS
 62
7
100
AcDbLine
 10
308.0877334315642
 20
194.3909855314396
 30
0.000000000000000
 11
308.0727334315641
 21
195.2699855314397
 31
0.000000000000000
  0
LINE
  5
1EE
100
AcDbEntity
  8
A1
  6
CONTINUOUS
 62
7
100
AcDbLine
 10
308.3237334315642
 20
193.8839855314397
 30
0.000000000000000
 11
308.0877334315642
 21
194.3909855314396
 31
0.000000000000000
  0
LINE
  5
1EF
100
AcDbEntity
  8
A1
  6
CONTINUOUS
 62
7
100
AcDbLine
 10
308.3237334315643
 20
193.8839855314397
 30
0.000000000000000
 11
308.8307334315642
 21
193.6479855314397
 31
0.000000000000000
  0
LINE
  5
1F0
100
AcDbEntity
  8
A1
  6
CONTINUOUS
 62
7
100
AcDbLine
 10
308.8307334315641
 20
193.6479855314398
 30
0.000000000000000
 11
309.7097334315643
 21
193.6319855314397
 31
0.000000000000000
  0
ARC
  5
1F1
100
AcDbEntity
  8
A1
  6
CONTINUOUS
 62
7
100
AcDbCircle
 10
307.6527334315642
 20
193.2119855314398
 30
0.000000000000000
 40
2.100000000000000
100
AcDbArc
 50
78.46299999999998
 51
101.5370000000000
  0
LINE
  5
1F2
100
AcDbEntity
  8
A1
  6
CONTINUOUS
 62
7
100
AcDbLine
 10
306.4737334315642
 20
193.6479855314398
 30
0.000000000000000
 11
305.5947334315644
 21
193.6319855314397
 31
0.000000000000000
  0
ARC
  5
1F3
100
AcDbEntity
  8
A1
  6
CONTINUOUS
 62
7
100
AcDbCircle
 10
307.6527334315642
 20
193.2119855314398
 30
0.000000000000000
 40
2.100000000000000
100
AcDbArc
 50
168.4630000000000
 51
191.5369999999998
  0
LINE
  5
1F4
100
AcDbEntity
  8
A1
  6
CONTINUOUS
 62
7
100
AcDbLine
 10
306.4747334315643
 20
192.7769855314395
 30
0.000000000000000
 11
305.5947334315644
 21
192.7919855314396
 31
0.000000000000000
  0
LINE
  5
1F5
100
AcDbEntity
  8
A1
  6
CONTINUOUS
 62
7
100
AcDbLine
 10
306.9807334315643
 20
192.5409855314397
 30
0.000000000000000
 11
306.4747334315642
 21
192.7769855314395
 31
0.000000000000000
  0
LINE
  5
1F6
100
AcDbEntity
  8
A1
  6
CONTINUOUS
 62
7
100
AcDbLine
 10
306.9807334315644
 20
192.5409855314398
 30
0.000000000000000
 11
307.2177334315642
 21
192.0339855314398
 31
0.000000000000000
  0
LINE
  5
1F7
100
AcDbEntity
  8
A1
  6
CONTINUOUS
 62
7
100
AcDbLine
 10
307.2167334315643
 20
192.0339855314398
 30
0.000000000000000
 11
307.2327334315643
 21
191.1549855314396
 31
0.000000000000000
  0
ARC
  5
1F8
100
AcDbEntity
  8
A1
  6
CONTINUOUS
 62
7
100
AcDbCircle
 10
307.6527334315642
 20
193.2119855314398
 30
0.000000000000000
 40
2.100000000000000
100
AcDbArc
 50
258.4629999999999
 51
281.5369999999999
  0
LINE
  5
1F9
100
AcDbEntity
  8
A1
  6
CONTINUOUS
 62
7
100
AcDbLine
 10
308.0877334315642
 20
192.0339855314398
 30
0.000000000000000
 11
308.0727334315642
 21
191.1549855314396
 31
0.000000000000000
  0
LINE
  5
1FA
100
AcDbEntity
  8
A1
  6
CONTINUOUS
 62
7
100
AcDbLine
 10
308.3237334315642
 20
192.5409855314397
 30
0.000000000000000
 11
308.0877334315642
 21
192.0339855314397
 31
0.000000000000000
  0
LINE
  5
1FB
100
AcDbEntity
  8
A1
  6
CONTINUOUS
 62
7
100
AcDbLine
 10
308.8307334315642
 20
192.7769855314395
 30
0.000000000000000
 11
309.7097334315643
 21
192.7919855314397
 31
0.000000000000000
  0
LINE
  5
1FC
100
AcDbEntity
  8
A1
  6
CONTINUOUS
 62
7
100
AcDbLine
 10
308.3237334315643
 20
192.5409855314398
 30
0.000000000000000
 11
308.8307334315642
 21
192.7769855314396
 31
0.000000000000000
  0
ARC
  5
1FD
100
AcDbEntity
  8
A1
  6
CONTINUOUS
 62
7
100
AcDbCircle
 10
307.6527334315642
 20
193.2119855314398
 30
0.000000000000000
 40
2.100000000000000
100
AcDbArc
 50
348.4630000000000
 51
371.5370000000000
  0
ARC
  5
1FE
100
AcDbEntity
  8
A1
  6
CONTINUOUS
 62
7
100
AcDbCircle
 10
308.6527334315642
 20
193.2119855314398
 30
0.000000000000000
 40
3.594230000000000
100
AcDbArc
 50
274.1600000000000
 51
445.8396000000001
  0
ARC
  5
1FF
100
AcDbEntity
  8
A1
  6
CONTINUOUS
 62
7
100
AcDbCircle
 10
308.6527334315642
 20
193.2119855314398
 30
0.000000000000000
 40
4.799999999999998
100
AcDbArc
 50
270.0000000000000
 51
450.0000000000000
  0
LINE
  5
200
100
AcDbEntity
  8
A1
  6
CONTINUOUS
 62
7
100
AcDbLine
 10
306.6527334315642
 20
198.0119855314398
 30
0.000000000000000
 11
308.6527334315642
 21
198.0119855314398
 31
0.000000000000000
  0
LINE
  5
201
100
AcDbEntity
  8
A1
  6
CONTINUOUS
 62
7
100
AcDbLine
 10
306.6527334315642
 20
188.4119855314397
 30
0.000000000000000
 11
308.6527334315642
 21
188.4119855314397
 31
0.000000000000000
  0
LINE
  5
202
100
AcDbEntity
  8
A4
  6
CENTER
 62
1
100
AcDbLine
 10
322.1527334315642
 20
163.2119855314397
 30
0.000000000000000
 11
310.1527334315642
 21
163.2119855314397
 31
0.000000000000000
  0
LINE
  5
203
100
AcDbEntity
  8
A4
  6
CENTER
 62
1
100
AcDbLine
 10
316.1527334315642
 20
169.2119855314397
 30
0.000000000000000
 11
316.1527334315642
 21
157.2119855314397
 31
0.000000000000000
  0
LINE
  5
204
100
AcDbEntity
  8
A4
  6
CENTER
 62
1
100
AcDbLine
 10
305.1527334315642
 20
163.2119855314397
 30
0.000000000000000
 11
293.1527334315642
 21
163.2119855314397
 31
0.000000000000000
  0
LINE
  5
205
100
AcDbEntity
  8
A4
  6
CENTER
 62
1
100
AcDbLine
 10
299.1527334315642
 20
169.2119855314397
 30
0.000000000000000
 11
299.1527334315642
 21
157.2119855314397
 31
0.000000000000000
  0
ENDSEC
  0
SECTION
  2
OBJECTS
  0
DICTIONARY
  5
235
100
AcDbDictionary
  3
ACAD_GROUP
350
236
  3
ACAD_LAYOUT
350
237
  3
ACAD_MLINESTYLE
350
238
  0
DICTIONARY
  5
236
102
{ACAD_REACTORS
330
235
102
}
330
235
100
AcDbDictionary
  0
DICTIONARY
  5
237
102
{ACAD_REACTORS
330
235
102
}
330
235
100
AcDbDictionary
  3
Model
350
239
  3
ﾚｲｱｳﾄ1
350
23A
  3
ﾚｲｱｳﾄ2
350
23B
  0
DICTIONARY
  5
238
102
{ACAD_REACTORS
330
235
102
}
330
235
100
AcDbDictionary
  3
STANDARD
350
23C
  0
LAYOUT
  5
239
102
{ACAD_REACTORS
330
237
102
}
330
237
100
AcDbPlotSettings
 70
11952
  4
A3
 44
297.000000
 45
420.000000
 73
  1
 72
  1
100
AcDbLayout
  1
Model
 71
0
330
22C
  0
LAYOUT
  5
23A
102
{ACAD_REACTORS
330
237
102
}
330
237
100
AcDbPlotSettings
100
AcDbLayout
  1
ﾚｲｱｳﾄ1
 71
1
330
22D
  0
LAYOUT
  5
23B
102
{ACAD_REACTORS
330
237
102
}
330
237
100
AcDbPlotSettings
100
AcDbLayout
  1
ﾚｲｱｳﾄ2
 71
2
330
22E
  0
MLINESTYLE
  5
23C
102
{ACAD_REACTORS
330
238
102
}
330
238
100
AcDbMlineStyle
  2
STANDARD
 70
     0
  3

 62
   256
 51
90.00
 52
90.00
 71
     2
 49
0.50
 62
   256
  6
BYLAYER
 49
-0.50
 62
   256
  6
BYLAYER
  0
ENDSEC
  0
EOF
