  0
SECTION
  2
HEADER
  9
$ACADVER
  1
AC1032
  9
$DWGCODEPAGE
  3
ANSI_932
  9
$LTSCALE
 40
20.0
  9
$FILLMODE
 70
     1
  9
$CLAYER
  8
0
  9
$PDMODE
 70
     0
  9
$SPLFRAME
 70
     0
  9
$SPLINETYPE
 70
     6
  9
$SPLINESEGS
 70
     8
  9
$DIMASZ
 40
2.000000
  9
$DIMEXE
 40
1.500000
  9
$DIMEXO
 40
0.800000
  9
$DIMTAD
 70
     1
  9
$DIMTIH
 70
     0
  9
$DIMTOH
 70
     0
  9
$DIMTVP
 40
0.500000
  9
$DIMTXT
 40
3.100000
  9
$EXTMIN
 10
0.000000
 20
0.000000
 30
0.000000
  9
$EXTMAX
 10
297.000000
 20
420.000000
 30
0.000000
  9
$MEASUREMENT
 70
  1
  9
$LIMMIN
 10
0.000000
 20
0.000000
  9
$LIMMAX
 10
297.000000
 20
420.000000
  9
$HANDSEED
  5
1B8
  9
$LWDISPLAY
290
     0
  9
$DIMBLK
  1
_OPEN
  9
$DIMDEC
 70
     2
  9
$DIMADEC
 70
     2
  9
$DIMAUNIT
 70
     0
  9
$DIMZIN
 70
     8
  9
$DIMAZIN
 70
     2
  9
$DIMTOFL
 70
     1
  0
ENDSEC
  0
SECTION
  2
CLASSES
  0
ENDSEC
  0
SECTION
  2
TABLES
  0
TABLE
  2
VPORT
  5
180
100
AcDbSymbolTable
 70
     1
  0
VPORT
  5
181
100
AcDbSymbolTableRecord
100
AcDbViewportTableRecord
  2
*ACTIVE
 70
     0
 12
97.365096
 22
886.434505
 40
1747.693768
 41
0.169937
  0
ENDTAB
  0
TABLE
  2
LTYPE
  5
182
100
AcDbSymbolTable
 70
     3
  0
LTYPE
  5
183
100
AcDbSymbolTableRecord
100
AcDbLinetypeTableRecord
  2
BYBLOCK
 70
     0
  3

 72
    65
 73
     0
 40
0.0
  0
LTYPE
  5
184
100
AcDbSymbolTableRecord
100
AcDbLinetypeTableRecord
  2
BYLAYER
 70
     0
  3

 72
    65
 73
     0
 40
0.0
  0
LTYPE
  5
185
100
AcDbSymbolTableRecord
100
AcDbLinetypeTableRecord
  2
CONTINUOUS
 70
     0
  3
Solid line (NEC CAE2D for Win R18.0 : 2025.08.20)
 72
    65
 73
     0
 40
0.0
  0
LTYPE
  5
186
100
AcDbSymbolTableRecord
100
AcDbLinetypeTableRecord
  2
DASHED
 70
     0
  3
__ __ __ __ __ __ __ __ __ __ __ __ __ _
 72
    65
 73
     2
 40
0.75
 49
0.5
 74
     0
 49
-0.25
 74
     0
  0
LTYPE
  5
187
100
AcDbSymbolTableRecord
100
AcDbLinetypeTableRecord
  2
CENTER
 70
     0
  3
____ _ ____ _ ____ _ ____ _ ____ _ ____
 72
    65
 73
     4
 40
2.0
 49
1.25
 74
     0
 49
-0.25
 74
     0
 49
0.25
 74
     0
 49
-0.25
 74
     0
  0
ENDTAB
  0
TABLE
  2
LAYER
  5
188
100
AcDbSymbolTable
 70
    17
  0
LAYER
  5
189
100
AcDbSymbolTableRecord
100
AcDbLayerTableRecord
  2
0
 70
     0
 62
     7
  6
CONTINUOUS
370
    -3
390

  0
LAYER
  5
18A
100
AcDbSymbolTableRecord
100
AcDbLayerTableRecord
  2
DXF0
 70
     0
 62
     7
  6
CONTINUOUS
370
    -3
390

  0
LAYER
  5
18B
100
AcDbSymbolTableRecord
100
AcDbLayerTableRecord
  2
A0
 70
     0
 62
     9
  6
CONTINUOUS
370
    -3
390

  0
LAYER
  5
18C
100
AcDbSymbolTableRecord
100
AcDbLayerTableRecord
  2
A1
 70
     0
 62
    12
  6
CONTINUOUS
370
    -3
390

  0
LAYER
  5
18D
100
AcDbSymbolTableRecord
100
AcDbLayerTableRecord
  2
A3
 70
     0
 62
    12
  6
CONTINUOUS
370
    -3
390

  0
LAYER
  5
18E
100
AcDbSymbolTableRecord
100
AcDbLayerTableRecord
  2
A4
 70
     0
 62
     9
  6
CONTINUOUS
370
    -3
390

  0
LAYER
  5
18F
100
AcDbSymbolTableRecord
100
AcDbLayerTableRecord
  2
A5
 70
     0
 62
     8
  6
CONTINUOUS
370
    -3
390

  0
LAYER
  5
190
100
AcDbSymbolTableRecord
100
AcDbLayerTableRecord
  2
A6
 70
     0
 62
    12
  6
CONTINUOUS
370
    -3
390

  0
LAYER
  5
191
100
AcDbSymbolTableRecord
100
AcDbLayerTableRecord
  2
A8
 70
     0
 62
    10
  6
CONTINUOUS
370
    -3
390

  0
LAYER
  5
192
100
AcDbSymbolTableRecord
100
AcDbLayerTableRecord
  2
A9
 70
     0
 62
     9
  6
CONTINUOUS
370
    -3
390

  0
LAYER
  5
193
100
AcDbSymbolTableRecord
100
AcDbLayerTableRecord
  2
A10
 70
     0
 62
     6
  6
CONTINUOUS
370
    -3
390

  0
LAYER
  5
194
100
AcDbSymbolTableRecord
100
AcDbLayerTableRecord
  2
A20
 70
     0
 62
     1
  6
CONTINUOUS
370
    -3
390

  0
LAYER
  5
195
100
AcDbSymbolTableRecord
100
AcDbLayerTableRecord
  2
A30
 70
     0
 62
     1
  6
CONTINUOUS
370
    -3
390

  0
LAYER
  5
196
100
AcDbSymbolTableRecord
100
AcDbLayerTableRecord
  2
A40
 70
     0
 62
     9
  6
CONTINUOUS
370
    -3
390

  0
LAYER
  5
197
100
AcDbSymbolTableRecord
100
AcDbLayerTableRecord
  2
A50
 70
     0
 62
    12
  6
CONTINUOUS
370
    -3
390

  0
LAYER
  5
198
100
AcDbSymbolTableRecord
100
AcDbLayerTableRecord
  2
A1023
 70
     0
 62
     8
  6
CONTINUOUS
370
    -3
390

  0
LAYER
  5
199
100
AcDbSymbolTableRecord
100
AcDbLayerTableRecord
  2
DXF1023
 70
     0
 62
    16
  6
CONTINUOUS
370
    -3
390

  0
ENDTAB
  0
TABLE
  2
STYLE
  5
19A
100
AcDbSymbolTable
 70
     4
  0
STYLE
  5
19B
100
AcDbSymbolTableRecord
100
AcDbTextStyleTableRecord
  2
STANDARD
 70
    64
 40
0.0
 41
1.0
 50
0.0
 71
     0
 42
3.000000000000000
  3
TXT
  4

  0
STYLE
  5
19C
100
AcDbSymbolTableRecord
100
AcDbTextStyleTableRecord
  2
ANKTATE
 70
    68
 40
0.0
 41
1.0
 50
0.0
 71
     0
 42
3.000000000000000
  3
TXT
  4

  0
STYLE
  5
19D
100
AcDbSymbolTableRecord
100
AcDbTextStyleTableRecord
  2
KNJYOKO
 70
    64
 40
0.0
 41
1.0
 50
0.0
 71
     0
 42
3.000000000000000
  3
TXT
  4
BIGFONT
  0
STYLE
  5
19E
100
AcDbSymbolTableRecord
100
AcDbTextStyleTableRecord
  2
KNJTATE
 70
    68
 40
0.0
 41
1.0
 50
0.0
 71
     0
 42
3.000000000000000
  3
TXT
  4
BIGFONT
  0
ENDTAB
  0
TABLE
  2
VIEW
  5
19F
100
AcDbSymbolTable
 70
     0
  0
ENDTAB
  0
TABLE
  2
UCS
  5
1A0
100
AcDbSymbolTable
 70
     0
  0
ENDTAB
  0
TABLE
  2
APPID
  5
1A1
100
AcDbSymbolTable
 70
     1
  0
APPID
  5
1A2
100
AcDbSymbolTableRecord
100
AcDbRegAppTableRecord
  2
ACAD
 70
     0
  0
ENDTAB
  0
TABLE
  2
DIMSTYLE
  5
1A3
100
AcDbSymbolTable
 70
     2
100
AcDbDimStyleTable
  0
DIMSTYLE
105
1A4
100
AcDbSymbolTableRecord
100
AcDbDimStyleTableRecord
  2
STANDARD
 70
     0
 41
2.000000
 44
1.500000
 42
0.800000
145
0.661290
140
3.100000
144
1.000000
146
0.645161
340
19B
  0
DIMSTYLE
105
1A5
100
AcDbSymbolTableRecord
100
AcDbDimStyleTableRecord
  2
DXF001
 70
     0
 41
2.000000
 44
1.500000
 42
0.800000
145
0.661290
140
3.100000
144
1.000000
146
0.645161
 77
     1
 73
     0
 74
     0
271
     2
179
     2
275
     0
 78
     8
 79
     2
172
     1
340
19B
  0
ENDTAB
  0
TABLE
  2
BLOCK_RECORD
  5
1A6
100
AcDbSymbolTable
 70
    12
  0
BLOCK_RECORD
  5
1A7
100
AcDbSymbolTableRecord
100
AcDbBlockTableRecord
  2
*MODEL_SPACE
  0
BLOCK_RECORD
  5
1A8
100
AcDbSymbolTableRecord
100
AcDbBlockTableRecord
  2
*PAPER_SPACE
  0
BLOCK_RECORD
  5
1A9
100
AcDbSymbolTableRecord
100
AcDbBlockTableRecord
  2
*PAPER_SPACE0
  0
BLOCK_RECORD
  5
1
100
AcDbSymbolTableRecord
100
AcDbBlockTableRecord
  2
_NONE
  0
BLOCK_RECORD
  5
4
100
AcDbSymbolTableRecord
100
AcDbBlockTableRecord
  2
_CLOSED
  0
BLOCK_RECORD
  5
B
100
AcDbSymbolTableRecord
100
AcDbBlockTableRecord
  2
_DOT
  0
BLOCK_RECORD
  5
13
100
AcDbSymbolTableRecord
100
AcDbBlockTableRecord
  2
_OPEN
  0
BLOCK_RECORD
  5
19
100
AcDbSymbolTableRecord
100
AcDbBlockTableRecord
  2
_ORIGIN
  0
BLOCK_RECORD
  5
1E
100
AcDbSymbolTableRecord
100
AcDbBlockTableRecord
  2
_OPEN30
  0
BLOCK_RECORD
  5
24
100
AcDbSymbolTableRecord
100
AcDbBlockTableRecord
  2
_BOXFILLED
  0
BLOCK_RECORD
  5
29
100
AcDbSymbolTableRecord
100
AcDbBlockTableRecord
  2
_BOXBLANK
  0
BLOCK_RECORD
  5
31
100
AcDbSymbolTableRecord
100
AcDbBlockTableRecord
  2
_OBLIQUE
  0
BLOCK_RECORD
  5
35
100
AcDbSymbolTableRecord
100
AcDbBlockTableRecord
  2
_OPEN90
  0
BLOCK_RECORD
  5
3B
100
AcDbSymbolTableRecord
100
AcDbBlockTableRecord
  2
_CLOSEDBLANK
  0
BLOCK_RECORD
  5
41
100
AcDbSymbolTableRecord
100
AcDbBlockTableRecord
  2
_DOTBLANK
  0
ENDTAB
  0
ENDSEC
  0
SECTION
  2
BLOCKS
  0
BLOCK
  5
1AA
100
AcDbEntity
  8
0
100
AcDbBlockBegin
  2
*MODEL_SPACE
 70
     0
 10
0.0
 20
0.0
 30
0.0
  3
*MODEL_SPACE
  1

  0
ENDBLK
  5
1AB
100
AcDbEntity
  8
0
100
AcDbBlockEnd
  0
BLOCK
  5
1AC
100
AcDbEntity
  8
0
100
AcDbBlockBegin
  2
*PAPER_SPACE
 70
     0
 10
0.0
 20
0.0
 30
0.0
  3
*PAPER_SPACE
  1

  0
ENDBLK
  5
1AD
100
AcDbEntity
  8
0
100
AcDbBlockEnd
  0
BLOCK
  5
1AE
100
AcDbEntity
  8
0
100
AcDbBlockBegin
  2
*PAPER_SPACE0
 70
     0
 10
0.0
 20
0.0
 30
0.0
  3
*PAPER_SPACE0
  1

  0
ENDBLK
  5
1AF
100
AcDbEntity
  8
0
100
AcDbBlockEnd
  0
BLOCK
  5
2
330
1
100
AcDbEntity
  8
0
100
AcDbBlockBegin
  2
_NONE
 70
     0
 10
0.0
 20
0.0
 30
0.0
  3
_NONE
  1

  0
ENDBLK
  5
3
330
1
100
AcDbEntity
  8
0
100
AcDbBlockEnd
  0
BLOCK
  5
5
330
4
100
AcDbEntity
  8
0
100
AcDbBlockBegin
  2
_CLOSED
 70
     0
 10
0.0
 20
0.0
 30
0.0
  3
_CLOSED
  1

  0
LINE
  5
6
330
4
100
AcDbEntity
  8
0
  6
BYBLOCK
 62
     0
370
    -2
100
AcDbLine
 10
-1.0
 20
0.166667
 30
0.0
 11
0.0
 21
0.0
 31
0.0
  0
LINE
  5
7
330
4
100
AcDbEntity
  8
0
  6
BYBLOCK
 62
     0
370
    -2
100
AcDbLine
 10
0.0
 20
0.0
 30
0.0
 11
-1.0
 21
-0.166667
 31
0.0
  0
LINE
  5
8
330
4
100
AcDbEntity
  8
0
  6
BYBLOCK
 62
     0
370
    -2
100
AcDbLine
 10
-1.0
 20
0.166667
 30
0.0
 11
-1.0
 21
-0.166667
 31
0.0
  0
LINE
  5
9
330
4
100
AcDbEntity
  8
0
  6
BYBLOCK
 62
     0
370
    -2
100
AcDbLine
 10
0.0
 20
0.0
 30
0.0
 11
-1.0
 21
0.0
 31
0.0
  0
ENDBLK
  5
A
330
4
100
AcDbEntity
  8
0
100
AcDbBlockEnd
  0
BLOCK
  5
C
330
B
100
AcDbEntity
  8
0
100
AcDbBlockBegin
  2
_DOT
 70
     0
 10
0.0
 20
0.0
 30
0.0
  3
_DOT
  1

  0
POLYLINE
  5
D
330
B
100
AcDbEntity
  8
0
  6
BYBLOCK
 62
     0
370
    -2
100
AcDb2dPolyline
 66
     1
 10
0.0
 20
0.0
 30
0.0
 70
     1
 40
0.5
 41
0.5
  0
VERTEX
  5
E
330
B
100
AcDbEntity
  8
0
  6
BYBLOCK
 62
     0
370
    -2
100
AcDbVertex
100
AcDb2dVertex
 10
-0.25
 20
0.0
 30
0.0
 42
1.0
  0
VERTEX
  5
F
330
B
100
AcDbEntity
  8
0
  6
BYBLOCK
 62
     0
370
    -2
100
AcDbVertex
100
AcDb2dVertex
 10
0.25
 20
0.0
 30
0.0
 42
1.0
  0
SEQEND
  5
10
330
B
100
AcDbEntity
  8
0
  6
BYBLOCK
 62
     0
370
    -2
  0
LINE
  5
11
330
B
100
AcDbEntity
  8
0
  6
BYBLOCK
 62
     0
370
    -2
100
AcDbLine
 10
-0.5
 20
0.0
 30
0.0
 11
-1.0
 21
0.0
 31
0.0
  0
ENDBLK
  5
12
330
B
100
AcDbEntity
  8
0
100
AcDbBlockEnd
  0
BLOCK
  5
14
330
13
100
AcDbEntity
  8
0
100
AcDbBlockBegin
  2
_OPEN
 70
     0
 10
0.0
 20
0.0
 30
0.0
  3
_OPEN
  1

  0
LINE
  5
15
330
13
100
AcDbEntity
  8
0
  6
BYBLOCK
 62
     0
370
    -2
100
AcDbLine
 10
-1.0
 20
0.166667
 30
0.0
 11
0.0
 21
0.0
 31
0.0
  0
LINE
  5
16
330
13
100
AcDbEntity
  8
0
  6
BYBLOCK
 62
     0
370
    -2
100
AcDbLine
 10
0.0
 20
0.0
 30
0.0
 11
-1.0
 21
-0.166667
 31
0.0
  0
LINE
  5
17
330
13
100
AcDbEntity
  8
0
  6
BYBLOCK
 62
     0
370
    -2
100
AcDbLine
 10
0.0
 20
0.0
 30
0.0
 11
-1.0
 21
0.0
 31
0.0
  0
ENDBLK
  5
18
330
13
100
AcDbEntity
  8
0
100
AcDbBlockEnd
  0
BLOCK
  5
1A
330
19
100
AcDbEntity
  8
0
100
AcDbBlockBegin
  2
_ORIGIN
 70
     0
 10
0.0
 20
0.0
 30
0.0
  3
_ORIGIN
  1

  0
CIRCLE
  5
1B
330
19
100
AcDbEntity
  8
0
  6
BYBLOCK
 62
     0
370
    -2
100
AcDbCircle
 10
0.0
 20
0.0
 30
0.0
 40
0.5
  0
LINE
  5
1C
330
19
100
AcDbEntity
  8
0
  6
BYBLOCK
 62
     0
370
    -2
100
AcDbLine
 10
0.0
 20
0.0
 30
0.0
 11
-1.0
 21
0.0
 31
0.0
  0
ENDBLK
  5
1D
330
19
100
AcDbEntity
  8
0
100
AcDbBlockEnd
  0
BLOCK
  5
1F
330
1E
100
AcDbEntity
  8
0
100
AcDbBlockBegin
  2
_OPEN30
 70
     0
 10
0.0
 20
0.0
 30
0.0
  3
_OPEN30
  1

  0
LINE
  5
20
330
1E
100
AcDbEntity
  8
0
  6
BYBLOCK
 62
     0
370
    -2
100
AcDbLine
 10
-1.0
 20
0.267949
 30
0.0
 11
0.0
 21
0.0
 31
0.0
  0
LINE
  5
21
330
1E
100
AcDbEntity
  8
0
  6
BYBLOCK
 62
     0
370
    -2
100
AcDbLine
 10
0.0
 20
0.0
 30
0.0
 11
-1.0
 21
-0.267949
 31
0.0
  0
LINE
  5
22
330
1E
100
AcDbEntity
  8
0
  6
BYBLOCK
 62
     0
370
    -2
100
AcDbLine
 10
0.0
 20
0.0
 30
0.0
 11
-1.0
 21
0.0
 31
0.0
  0
ENDBLK
  5
23
330
1E
100
AcDbEntity
  8
0
100
AcDbBlockEnd
  0
BLOCK
  5
25
330
24
100
AcDbEntity
  8
0
100
AcDbBlockBegin
  2
_BOXFILLED
 70
     0
 10
0.0
 20
0.0
 30
0.0
  3
_BOXFILLED
  1

  0
SOLID
  5
26
330
24
100
AcDbEntity
  8
0
  6
BYBLOCK
 62
     0
370
    -2
100
AcDbTrace
 10
-0.5
 20
0.5
 30
0.0
 11
0.5
 21
0.5
 31
0.0
 12
-0.5
 22
-0.5
 32
0.0
 13
0.5
 23
-0.5
 33
0.0
  0
LINE
  5
27
330
24
100
AcDbEntity
  8
0
  6
BYBLOCK
 62
     0
370
    -2
100
AcDbLine
 10
-0.5
 20
0.0
 30
0.0
 11
-1.0
 21
0.0
 31
0.0
  0
ENDBLK
  5
28
330
24
100
AcDbEntity
  8
0
100
AcDbBlockEnd
  0
BLOCK
  5
2A
330
29
100
AcDbEntity
  8
0
100
AcDbBlockBegin
  2
_BOXBLANK
 70
     0
 10
0.0
 20
0.0
 30
0.0
  3
_BOXBLANK
  1

  0
LINE
  5
2B
330
29
100
AcDbEntity
  8
0
  6
BYBLOCK
 62
     0
370
    -2
100
AcDbLine
 10
-0.5
 20
-0.5
 30
0.0
 11
0.5
 21
-0.5
 31
0.0
  0
LINE
  5
2C
330
29
100
AcDbEntity
  8
0
  6
BYBLOCK
 62
     0
370
    -2
100
AcDbLine
 10
0.5
 20
-0.5
 30
0.0
 11
0.5
 21
0.5
 31
0.0
  0
LINE
  5
2D
330
29
100
AcDbEntity
  8
0
  6
BYBLOCK
 62
     0
370
    -2
100
AcDbLine
 10
0.5
 20
0.5
 30
0.0
 11
-0.5
 21
0.5
 31
0.0
  0
LINE
  5
2E
330
29
100
AcDbEntity
  8
0
  6
BYBLOCK
 62
     0
370
    -2
100
AcDbLine
 10
-0.5
 20
0.5
 30
0.0
 11
-0.5
 21
-0.5
 31
0.0
  0
LINE
  5
2F
330
29
100
AcDbEntity
  8
0
  6
BYBLOCK
 62
     0
370
    -2
100
AcDbLine
 10
-0.5
 20
0.0
 30
0.0
 11
-1.0
 21
0.0
 31
0.0
  0
ENDBLK
  5
30
330
29
100
AcDbEntity
  8
0
100
AcDbBlockEnd
  0
BLOCK
  5
32
330
31
100
AcDbEntity
  8
0
100
AcDbBlockBegin
  2
_OBLIQUE
 70
     0
 10
0.0
 20
0.0
 30
0.0
  3
_OBLIQUE
  1

  0
LINE
  5
33
330
31
100
AcDbEntity
  8
0
  6
BYBLOCK
 62
     0
370
    -2
100
AcDbLine
 10
-0.5
 20
-0.5
 30
0.0
 11
0.5
 21
0.5
 31
0.0
  0
ENDBLK
  5
34
330
31
100
AcDbEntity
  8
0
100
AcDbBlockEnd
  0
BLOCK
  5
36
330
35
100
AcDbEntity
  8
0
100
AcDbBlockBegin
  2
_OPEN90
 70
     0
 10
0.0
 20
0.0
 30
0.0
  3
_OPEN90
  1

  0
LINE
  5
37
330
35
100
AcDbEntity
  8
0
  6
BYBLOCK
 62
     0
370
    -2
100
AcDbLine
 10
-0.5
 20
0.5
 30
0.0
 11
0.0
 21
0.0
 31
0.0
  0
LINE
  5
38
330
35
100
AcDbEntity
  8
0
  6
BYBLOCK
 62
     0
370
    -2
100
AcDbLine
 10
0.0
 20
0.0
 30
0.0
 11
-0.5
 21
-0.5
 31
0.0
  0
LINE
  5
39
330
35
100
AcDbEntity
  8
0
  6
BYBLOCK
 62
     0
370
    -2
100
AcDbLine
 10
0.0
 20
0.0
 30
0.0
 11
-1.0
 21
0.0
 31
0.0
  0
ENDBLK
  5
3A
330
35
100
AcDbEntity
  8
0
100
AcDbBlockEnd
  0
BLOCK
  5
3C
330
3B
100
AcDbEntity
  8
0
100
AcDbBlockBegin
  2
_CLOSEDBLANK
 70
     0
 10
0.0
 20
0.0
 30
0.0
  3
_CLOSEDBLANK
  1

  0
LINE
  5
3D
330
3B
100
AcDbEntity
  8
0
  6
BYBLOCK
 62
     0
370
    -2
100
AcDbLine
 10
-1.0
 20
0.1666666666666666
 30
0.0
 11
0.0
 21
0.0
 31
0.0
  0
LINE
  5
3E
330
3B
100
AcDbEntity
  8
0
  6
BYBLOCK
 62
     0
370
    -2
100
AcDbLine
 10
0.0
 20
0.0
 30
0.0
 11
-1.0
 21
-0.1666666666666666
 31
0.0
  0
LINE
  5
3F
330
3B
100
AcDbEntity
  8
0
  6
BYBLOCK
 62
     0
370
    -2
100
AcDbLine
 10
-1.0
 20
0.1666666666666666
 30
0.0
 11
-1.0
 21
-0.1666666666666666
 31
0.0
  0
ENDBLK
  5
40
330
3B
100
AcDbEntity
  8
0
100
AcDbBlockEnd
  0
BLOCK
  5
42
330
41
100
AcDbEntity
  8
0
100
AcDbBlockBegin
  2
_DOTBLANK
 70
     0
 10
0.0
 20
0.0
 30
0.0
  3
_DOTBLANK
  1

  0
CIRCLE
  5
43
330
41
100
AcDbEntity
  8
0
  6
BYBLOCK
 62
     0
370
    -2
100
AcDbCircle
 10
0.0
 20
0.0
 30
0.0
 40
0.5
  0
LINE
  5
44
330
41
100
AcDbEntity
  8
0
  6
BYBLOCK
 62
     0
370
    -2
100
AcDbLine
 10
-0.5
 20
0.0
 30
0.0
 11
-1.0
 21
0.0
 31
0.0
  0
ENDBLK
  5
45
330
41
100
AcDbEntity
  8
0
100
AcDbBlockEnd
  0
ENDSEC
  0
SECTION
  2
ENTITIES
  0
MTEXT
  5
46
100
AcDbEntity
  8
A10
  6
CONTINUOUS
 62
3
100
AcDbMText
 10
9.999997526638502
 20
18.00000076076889
 30
0.000000000000000
 40
3.000000000000000
 41
0.000000000000000
 44
0.6739999771118164
 71
     7
 72
     1
  1
{\H0.93x;{TYPE No.THA-277}}
 11
1.000000000000000
 21
0.000000000000000
 31
0.000000000000000
  7
STANDARD
  0
POINT
  5
47
100
AcDbEntity
  8
A10
  6
CONTINUOUS
 62
3
100
AcDbPoint
 10
9.999997526638502
 20
18.00000076076889
 30
0.000000000000000
  0
POINT
  5
48
100
AcDbEntity
  8
A10
  6
CONTINUOUS
 62
3
100
AcDbPoint
 10
-36.74755029431866
 20
913.7704910032786
 30
0.000000000000000
  0
LINE
  5
49
100
AcDbEntity
  8
A1
  6
CONTINUOUS
 62
7
100
AcDbLine
 10
235.9642102270318
 20
1036.935002708715
 30
0.000000000000000
 11
235.9642102269848
 21
987.8658585282722
 31
0.000000000000000
  0
LINE
  5
4A
100
AcDbEntity
  8
A4
  6
CENTER
 62
1
100
AcDbLine
 10
245.8642102270751
 20
1011.935002708705
 30
0.000000000000000
 11
227.0642102270077
 21
1011.935002708723
 31
0.000000000000000
  0
ARC
  5
4B
100
AcDbEntity
  8
A1
  6
CONTINUOUS
 62
7
100
AcDbCircle
 10
132.3688711677092
 20
1011.935002708717
 30
0.000000000000000
 40
19.90000000000003
100
AcDbArc
 50
0.000000000000000
 51
45.00000000000000
  0
ARC
  5
4C
100
AcDbEntity
  8
A1
  6
CONTINUOUS
 62
7
100
AcDbCircle
 10
144.3896864478805
 20
1023.955817988888
 30
0.000000000000000
 40
2.900000000000000
100
AcDbArc
 50
45.00000000000000
 51
180.0000000000000
  0
LINE
  5
4D
100
AcDbEntity
  8
A1
  6
CONTINUOUS
 62
7
100
AcDbLine
 10
135.8680362724728
 20
1019.535387144363
 30
0.000000000000000
 11
138.2676518368270
 21
1021.935002708717
 31
0.000000000000000
  0
LINE
  5
4E
100
AcDbEntity
  8
A1
  6
CONTINUOUS
 62
7
100
AcDbLine
 10
141.9955738981850
 20
1010.935002708717
 30
0.000000000000000
 11
140.2053244470951
 21
1010.935002708717
 31
0.000000000000000
  0
LINE
  5
4F
100
AcDbEntity
  8
A1
  6
CONTINUOUS
 62
7
100
AcDbLine
 10
140.9896864478801
 20
1021.935002708717
 30
0.000000000000000
 11
138.2676518368271
 21
1021.935002708717
 31
0.000000000000000
  0
LINE
  5
50
100
AcDbEntity
  8
A1
  6
CONTINUOUS
 62
7
100
AcDbLine
 10
141.4896864478803
 20
1023.955817988888
 30
0.000000000000000
 11
141.4896864478800
 21
1022.435002708717
 31
0.000000000000000
  0
ARC
  5
51
100
AcDbEntity
  8
A1
  6
CONTINUOUS
 62
7
100
AcDbCircle
 10
132.3688711677092
 20
1011.935002708717
 30
0.000000000000000
 40
5.900000000000000
100
AcDbArc
 50
7.272139554939613
 51
51.54156983773716
  0
ARC
  5
52
100
AcDbEntity
  8
A1
  6
CONTINUOUS
 62
7
100
AcDbCircle
 10
137.2822498348459
 20
1018.121173581990
 30
0.000000000000000
 40
2.000000000000000
100
AcDbArc
 50
135.0000000000000
 51
231.5415698377372
  0
ARC
  5
53
100
AcDbEntity
  8
A1
  6
CONTINUOUS
 62
7
100
AcDbCircle
 10
140.2053244470951
 20
1012.935002708717
 30
0.000000000000000
 40
2.000000000000000
100
AcDbArc
 50
187.2721395549391
 51
270.0000000000000
  0
ARC
  5
54
100
AcDbEntity
  8
A1
  6
CONTINUOUS
 62
7
100
AcDbCircle
 10
141.9955738981850
 20
1012.935002708717
 30
0.000000000000000
 40
2.000000000000000
100
AcDbArc
 50
270.0000000000000
 51
315.0000000000000
  0
ARC
  5
55
100
AcDbEntity
  8
A1
  6
CONTINUOUS
 62
7
100
AcDbCircle
 10
140.9896864478801
 20
1022.435002708717
 30
0.000000000000000
 40
0.5000000000000000
100
AcDbArc
 50
270.0000000000000
 51
360.0000000000000
  0
LINE
  5
56
100
AcDbEntity
  8
A1
  6
CONTINUOUS
 62
7
100
AcDbLine
 10
233.6642102270316
 20
1036.935002708717
 30
0.000000000000000
 11
233.6642102269981
 21
1001.935002708825
 31
0.000000000000000
  0
LINE
  5
57
100
AcDbEntity
  8
A1
  6
CONTINUOUS
 62
7
100
AcDbLine
 10
233.6642102269982
 20
1001.935002708825
 30
0.000000000000000
 11
235.9642102269393
 21
1001.935002708827
 31
0.000000000000000
  0
LINE
  5
58
100
AcDbEntity
  8
A1
  6
CONTINUOUS
 62
7
100
AcDbLine
 10
167.3688711677092
 20
1031.935002708717
 30
0.000000000000000
 11
167.3688711677092
 21
1002.935002708717
 31
0.000000000000000
  0
LINE
  5
59
100
AcDbEntity
  8
A1
  6
CONTINUOUS
 62
7
100
AcDbLine
 10
92.36887116770916
 20
1016.935002708717
 30
0.000000000000000
 11
92.36887116770916
 21
1006.935002708717
 31
0.000000000000000
  0
LINE
  5
5A
100
AcDbEntity
  8
A1
  6
CONTINUOUS
 62
7
100
AcDbLine
 10
97.36887116770916
 20
1001.935002708717
 30
0.000000000000000
 11
166.3688711677092
 21
1001.935002708717
 31
0.000000000000000
  0
LINE
  5
5B
100
AcDbEntity
  8
A1
  6
CONTINUOUS
 62
7
100
AcDbLine
 10
97.36887116770916
 20
1021.935002708717
 30
0.000000000000000
 11
112.3688711677092
 21
1021.935002708717
 31
0.000000000000000
  0
LINE
  5
5C
100
AcDbEntity
  8
A1
  6
CONTINUOUS
 62
7
100
AcDbLine
 10
122.3688711677092
 20
1036.935002708717
 30
0.000000000000000
 11
162.3688711677092
 21
1036.935002708717
 31
0.000000000000000
  0
LINE
  5
5D
100
AcDbEntity
  8
A1
  6
CONTINUOUS
 62
7
100
AcDbLine
 10
117.3688711677092
 20
1031.935002708717
 30
0.000000000000000
 11
117.3688711677092
 21
1026.935002708717
 31
0.000000000000000
  0
ARC
  5
5E
100
AcDbEntity
  8
A1
  6
CONTINUOUS
 62
7
100
AcDbCircle
 10
97.36887116770916
 20
1006.935002708717
 30
0.000000000000000
 40
5.000000000000000
100
AcDbArc
 50
180.0000000000000
 51
270.0000000000000
  0
ARC
  5
5F
100
AcDbEntity
  8
A1
  6
CONTINUOUS
 62
7
100
AcDbCircle
 10
97.36887116770916
 20
1016.935002708717
 30
0.000000000000000
 40
5.000000000000000
100
AcDbArc
 50
90.00000000000000
 51
180.0000000000000
  0
ARC
  5
60
100
AcDbEntity
  8
A1
  6
CONTINUOUS
 62
7
100
AcDbCircle
 10
112.3688711677092
 20
1026.935002708717
 30
0.000000000000000
 40
5.000000000000000
100
AcDbArc
 50
270.0000000000000
 51
360.0000000000000
  0
ARC
  5
61
100
AcDbEntity
  8
A1
  6
CONTINUOUS
 62
7
100
AcDbCircle
 10
122.3688711677092
 20
1031.935002708717
 30
0.000000000000000
 40
5.000000000000000
100
AcDbArc
 50
90.00000000000000
 51
180.0000000000000
  0
ARC
  5
62
100
AcDbEntity
  8
A1
  6
CONTINUOUS
 62
7
100
AcDbCircle
 10
162.3688711677092
 20
1031.935002708717
 30
0.000000000000000
 40
5.000000000000000
100
AcDbArc
 50
0.000000000000000
 51
90.00000000000000
  0
ARC
  5
63
100
AcDbEntity
  8
A1
  6
CONTINUOUS
 62
7
100
AcDbCircle
 10
166.3688711677092
 20
1002.935002708717
 30
0.000000000000000
 40
1.000000000000000
100
AcDbArc
 50
270.0000000000000
 51
360.0000000000000
  0
LINE
  5
64
100
AcDbEntity
  8
A4
  6
CENTER
 62
1
100
AcDbLine
 10
167.3688711677092
 20
1031.935002708717
 30
0.000000000000000
 11
155.3688711677092
 21
1031.935002708717
 31
0.000000000000000
  0
LINE
  5
65
100
AcDbEntity
  8
A1
  6
CONTINUOUS
 62
7
100
AcDbLine
 10
100.3688711677091
 20
41.93500270871709
 30
0.000000000000000
 11
94.36887116770910
 21
41.93500270871709
 31
0.000000000000000
  0
LINE
  5
66
100
AcDbEntity
  8
A3
  6
DASHED
 62
2
100
AcDbLine
 10
164.0688711677092
 20
1023.935002708717
 30
0.000000000000000
 11
158.6688711677092
 21
1023.935002708717
 31
0.000000000000000
  0
ARC
  5
67
100
AcDbEntity
  8
A3
  6
DASHED
 62
2
100
AcDbCircle
 10
164.0688711677092
 20
1025.935002708717
 30
0.000000000000000
 40
2.000000000000000
100
AcDbArc
 50
270.0000000000000
 51
360.0000000000000
  0
ARC
  5
68
100
AcDbEntity
  8
A3
  6
DASHED
 62
2
100
AcDbCircle
 10
158.6688711677092
 20
1025.935002708717
 30
0.000000000000000
 40
2.000000000000000
100
AcDbArc
 50
180.0000000000000
 51
270.0000000000000
  0
ARC
  5
69
100
AcDbEntity
  8
A1
  6
CONTINUOUS
 62
7
100
AcDbCircle
 10
172.3688711677092
 20
1058.865519922966
 30
0.000000000000000
 40
8.000000000000000
100
AcDbArc
 50
180.0000000000000
 51
213.9012619968661
  0
ARC
  5
6A
100
AcDbEntity
  8
A1
  6
CONTINUOUS
 62
7
100
AcDbCircle
 10
150.3688711677092
 20
1058.865519922966
 30
0.000000000000000
 40
8.000000000000000
100
AcDbArc
 50
326.0987380031339
 51
360.0000000000000
  0
LINE
  5
6B
100
AcDbEntity
  8
A1
  6
CONTINUOUS
 62
7
100
AcDbLine
 10
166.0688711677092
 20
1053.287886016012
 30
0.000000000000000
 11
166.0688711677092
 21
1035.298037052877
 31
0.000000000000000
  0
LINE
  5
6C
100
AcDbEntity
  8
A3
  6
DASHED
 62
2
100
AcDbLine
 10
166.0688711677092
 20
1035.298037052877
 30
0.000000000000000
 11
166.0688711677092
 21
1025.935002708717
 31
0.000000000000000
  0
LINE
  5
6D
100
AcDbEntity
  8
A1
  6
CONTINUOUS
 62
7
100
AcDbLine
 10
156.6688711677092
 20
1053.287886016012
 30
0.000000000000000
 11
156.6688711677092
 21
1036.935002708717
 31
0.000000000000000
  0
LINE
  5
6E
100
AcDbEntity
  8
A3
  6
DASHED
 62
2
100
AcDbLine
 10
156.6688711677092
 20
1036.935002708717
 30
0.000000000000000
 11
156.6688711677092
 21
1025.935002708717
 31
0.000000000000000
  0
LINE
  5
6F
100
AcDbEntity
  8
A3
  6
DASHED
 62
2
100
AcDbLine
 10
100.0688711677092
 20
1019.935002708717
 30
0.000000000000000
 11
94.66887116770911
 21
1019.935002708717
 31
0.000000000000000
  0
ARC
  5
70
100
AcDbEntity
  8
A3
  6
DASHED
 62
2
100
AcDbCircle
 10
100.0688711677092
 20
1017.935002708717
 30
0.000000000000000
 40
2.000000000000000
100
AcDbArc
 50
0.000000000000000
 51
90.00000000000000
  0
ARC
  5
71
100
AcDbEntity
  8
A3
  6
DASHED
 62
2
100
AcDbCircle
 10
94.66887116770911
 20
1017.935002708717
 30
0.000000000000000
 40
2.000000000000000
100
AcDbArc
 50
90.00000000000000
 51
180.0000000000000
  0
ARC
  5
72
100
AcDbEntity
  8
A1
  6
CONTINUOUS
 62
7
100
AcDbCircle
 10
108.3688711677092
 20
985.0044854944686
 30
0.000000000000000
 40
8.000000000000000
100
AcDbArc
 50
146.0987380031335
 51
180.0000000000000
  0
ARC
  5
73
100
AcDbEntity
  8
A1
  6
CONTINUOUS
 62
7
100
AcDbCircle
 10
86.36887116770916
 20
985.0044854944686
 30
0.000000000000000
 40
8.000000000000000
100
AcDbArc
 50
0.000000000000000
 51
33.90126199686654
  0
LINE
  5
74
100
AcDbEntity
  8
A3
  6
DASHED
 62
2
100
AcDbLine
 10
92.66887116770911
 20
1017.935002708717
 30
0.000000000000000
 11
92.66887116770911
 21
1005.229130497794
 31
0.000000000000000
  0
LINE
  5
75
100
AcDbEntity
  8
A1
  6
CONTINUOUS
 62
7
100
AcDbLine
 10
92.66887116770911
 20
1005.229130497794
 30
0.000000000000000
 11
92.66887116770911
 21
990.5821194014225
 31
0.000000000000000
  0
LINE
  5
76
100
AcDbEntity
  8
A3
  6
DASHED
 62
2
100
AcDbLine
 10
102.0688711677092
 20
1017.935002708717
 30
0.000000000000000
 11
102.0688711677092
 21
1001.935002708717
 31
0.000000000000000
  0
LINE
  5
77
100
AcDbEntity
  8
A1
  6
CONTINUOUS
 62
7
100
AcDbLine
 10
102.0688711677092
 20
1001.935002708717
 30
0.000000000000000
 11
102.0688711677092
 21
990.5821194014225
 31
0.000000000000000
  0
LINE
  5
78
100
AcDbEntity
  8
A1
  6
CONTINUOUS
 62
7
100
AcDbLine
 10
95.86887116770914
 20
36.93500270871709
 30
0.000000000000000
 11
94.36887116770914
 21
41.93500270871708
 31
0.000000000000000
  0
LINE
  5
79
100
AcDbEntity
  8
A1
  6
CONTINUOUS
 62
7
100
AcDbLine
 10
100.3688711677091
 20
41.93500270871706
 30
0.000000000000000
 11
98.86887116770906
 21
36.93500270871705
 31
0.000000000000000
  0
LINE
  5
7A
100
AcDbEntity
  8
A1
  6
CONTINUOUS
 62
7
100
AcDbLine
 10
94.36887116770916
 20
79.76926364337623
 30
0.000000000000000
 11
94.36887116770916
 21
985.0044854944686
 31
0.000000000000000
  0
LINE
  5
7B
100
AcDbEntity
  8
A1
  6
CONTINUOUS
 62
7
100
AcDbLine
 10
94.36887116770910
 20
41.93500270871709
 30
0.000000000000000
 11
94.36887116770910
 21
79.76926364337629
 31
0.000000000000000
  0
LINE
  5
7C
100
AcDbEntity
  8
A1
  6
CONTINUOUS
 62
7
100
AcDbLine
 10
100.3688711677092
 20
951.1007417740682
 30
0.000000000000000
 11
100.3688711677092
 21
985.0044854944686
 31
0.000000000000000
  0
LINE
  5
7D
100
AcDbEntity
  8
A1
  6
CONTINUOUS
 62
7
100
AcDbLine
 10
100.3688711677091
 20
41.93500270871709
 30
0.000000000000000
 11
100.3688711677091
 21
951.1007417740682
 31
0.000000000000000
  0
LINE
  5
7E
100
AcDbEntity
  8
A1
  6
CONTINUOUS
 62
7
100
AcDbLine
 10
101.9612876086709
 20
989.9350027087171
 30
0.000000000000000
 11
92.77645472674752
 21
989.9350027087171
 31
0.000000000000000
  0
ARC
  5
7F
100
AcDbEntity
  8
A1
  6
CONTINUOUS
 62
7
100
AcDbCircle
 10
97.36887116770916
 20
988.5669854944833
 30
0.000000000000000
 40
3.562500000004541
100
AcDbArc
 50
197.9452532298624
 51
342.0547467701376
  0
ARC
  5
80
100
AcDbEntity
  8
A1
  6
CONTINUOUS
 62
7
100
AcDbCircle
 10
100.0688711677092
 20
990.5821194014225
 30
0.000000000000000
 40
2.000000000000000
100
AcDbArc
 50
326.0987380031339
 51
360.0000000000000
  0
ARC
  5
81
100
AcDbEntity
  8
A1
  6
CONTINUOUS
 62
7
100
AcDbCircle
 10
94.66887116770911
 20
990.5821194014225
 30
0.000000000000000
 40
2.000000000000000
100
AcDbArc
 50
180.0000000000000
 51
213.9012619968662
  0
ARC
  5
82
100
AcDbEntity
  8
A1
  6
CONTINUOUS
 62
7
100
AcDbCircle
 10
161.3688711677092
 20
1055.303019922951
 30
0.000000000000000
 40
3.562500000004541
100
AcDbArc
 50
17.94525322986239
 51
162.0547467701376
  0
LINE
  5
83
100
AcDbEntity
  8
A1
  6
CONTINUOUS
 62
7
100
AcDbLine
 10
156.7764547267475
 20
1053.935002708717
 30
0.000000000000000
 11
165.9612876086709
 21
1053.935002708717
 31
0.000000000000000
  0
ARC
  5
84
100
AcDbEntity
  8
A1
  6
CONTINUOUS
 62
7
100
AcDbCircle
 10
158.6688711677092
 20
1053.287886016012
 30
0.000000000000000
 40
2.000000000000000
100
AcDbArc
 50
146.0987380031338
 51
180.0000000000000
  0
ARC
  5
85
100
AcDbEntity
  8
A1
  6
CONTINUOUS
 62
7
100
AcDbCircle
 10
164.0688711677092
 20
1053.287886016012
 30
0.000000000000000
 40
2.000000000000000
100
AcDbArc
 50
0.000000000000000
 51
33.90126199686620
  0
ARC
  5
86
100
AcDbEntity
  8
A1
  6
CONTINUOUS
 62
7
100
AcDbCircle
 10
230.8125577064292
 20
989.9349941014792
 30
0.000000000000000
 40
5.551652520903794
100
AcDbArc
 50
297.3626126330095
 51
338.1173843634988
  0
ARC
  5
87
100
AcDbEntity
  8
A1
  6
CONTINUOUS
 62
7
100
AcDbCircle
 10
241.8642102270937
 20
1032.135002708524
 30
0.000000000000000
 40
2.000000000000000
100
AcDbArc
 50
60.00000000017957
 51
90.00000000017970
  0
ARC
  5
88
100
AcDbEntity
  8
A1
  6
CONTINUOUS
 62
7
100
AcDbCircle
 10
241.8642102270949
 20
1031.735002708524
 30
0.000000000000000
 40
1.999999999999972
100
AcDbArc
 50
270.0000000001797
 51
300.0000000001799
  0
LINE
  5
89
100
AcDbEntity
  8
A4
  6
CENTER
 62
1
100
AcDbLine
 10
228.2642102270942
 20
1031.935002708481
 30
0.000000000000000
 11
245.8642102270942
 21
1031.935002708536
 31
0.000000000000000
  0
LINE
  5
8A
100
AcDbEntity
  8
A1
  6
CONTINUOUS
 62
7
100
AcDbLine
 10
236.3642102271193
 20
1023.935002708551
 30
0.000000000000000
 11
239.3642102270918
 21
1023.935002708563
 31
0.000000000000000
  0
LINE
  5
8B
100
AcDbEntity
  8
A1
  6
CONTINUOUS
 62
7
100
AcDbLine
 10
236.3642102271193
 20
1023.935002708554
 30
0.000000000000000
 11
236.3642102270253
 21
1053.935002708551
 31
0.000000000000000
  0
LINE
  5
8C
100
AcDbEntity
  8
A1
  6
CONTINUOUS
 62
7
100
AcDbLine
 10
236.8949033684675
 20
1053.935002708553
 30
0.000000000000000
 11
238.9140424611203
 21
1053.935002708561
 31
0.000000000000000
  0
ARC
  5
8D
100
AcDbEntity
  8
A1
  6
CONTINUOUS
 62
7
100
AcDbCircle
 10
230.8125577061282
 20
1053.935011315709
 30
0.000000000000000
 40
5.551652520903794
100
AcDbArc
 50
0.000000000000000
 51
62.63738736752958
  0
LINE
  5
8E
100
AcDbEntity
  8
A1
  6
CONTINUOUS
 62
7
100
AcDbLine
 10
242.8642102271003
 20
1030.002951900958
 30
0.000000000000000
 11
242.8642102270882
 21
1033.867053516096
 31
0.000000000000000
  0
LINE
  5
8F
100
AcDbEntity
  8
A1
  6
CONTINUOUS
 62
7
100
AcDbLine
 10
239.3642102271012
 20
1029.735002708516
 30
0.000000000000000
 11
241.8642102271012
 21
1029.735002708524
 31
0.000000000000000
  0
LINE
  5
90
100
AcDbEntity
  8
A1
  6
CONTINUOUS
 62
7
100
AcDbLine
 10
239.3642102270874
 20
1034.135002708516
 30
0.000000000000000
 11
241.8642102270874
 21
1034.135002708524
 31
0.000000000000000
  0
LINE
  5
91
100
AcDbEntity
  8
A4
  6
CENTER
 62
1
100
AcDbLine
 10
149.3688711677092
 20
1017.935002708717
 30
0.000000000000000
 11
149.3688711677092
 21
1005.935002708717
 31
0.000000000000000
  0
LINE
  5
92
100
AcDbEntity
  8
A4
  6
CENTER
 62
1
100
AcDbLine
 10
132.3688711677092
 20
1017.935002708717
 30
0.000000000000000
 11
132.3688711677092
 21
1005.935002708717
 31
0.000000000000000
  0
LINE
  5
93
100
AcDbEntity
  8
A1
  6
CONTINUOUS
 62
7
100
AcDbLine
 10
98.86887116770910
 20
36.93500270871709
 30
0.000000000000000
 11
95.86887116770910
 21
36.93500270871709
 31
0.000000000000000
  0
LINE
  5
94
100
AcDbEntity
  8
A1
  6
CONTINUOUS
 62
7
100
AcDbLine
 10
236.3642102270786
 20
1036.935002708715
 30
0.000000000000000
 11
233.6642102270317
 21
1036.935002708717
 31
0.000000000000000
  0
LINE
  5
95
100
AcDbEntity
  8
A4
  6
CENTER
 62
1
100
AcDbLine
 10
91.36887116770913
 20
1011.935002708717
 30
0.000000000000000
 11
169.3688711677093
 21
1011.935002708717
 31
0.000000000000000
  0
LINE
  5
96
100
AcDbEntity
  8
A1
  6
CONTINUOUS
 62
7
100
AcDbLine
 10
158.3688711677092
 20
1058.865519922966
 30
0.000000000000000
 11
158.3688711677092
 21
1066.435002708717
 31
0.000000000000000
  0
LINE
  5
97
100
AcDbEntity
  8
A1
  6
CONTINUOUS
 62
7
100
AcDbLine
 10
158.3688711677092
 20
1066.435002708717
 30
0.000000000000000
 11
158.3688711677092
 21
1076.935002708717
 31
0.000000000000000
  0
LINE
  5
98
100
AcDbEntity
  8
A1
  6
CONTINUOUS
 62
7
100
AcDbLine
 10
158.3688711677092
 20
1075.750760684798
 30
0.000000000000000
 11
158.3688711677092
 21
1082.181274757491
 31
0.000000000000000
  0
LINE
  5
99
100
AcDbEntity
  8
A1
  6
CONTINUOUS
 62
7
100
AcDbLine
 10
164.3688711677092
 20
1058.865519922966
 30
0.000000000000000
 11
164.3688711677092
 21
1077.321012540855
 31
0.000000000000000
  0
LINE
  5
9A
100
AcDbEntity
  8
A1
  6
CONTINUOUS
 62
7
100
AcDbLine
 10
164.3688711677092
 20
1078.661131583003
 30
0.000000000000000
 11
164.3688711677092
 21
1082.181274757497
 31
0.000000000000000
  0
LINE
  5
9B
100
AcDbEntity
  8
A1
  6
CONTINUOUS
 62
7
100
AcDbLine
 10
233.3642102270096
 20
1058.865519922895
 30
0.000000000000000
 11
233.3642102269364
 21
1082.181274757494
 31
0.000000000000000
  0
LINE
  5
9C
100
AcDbEntity
  8
A1
  6
CONTINUOUS
 62
7
100
AcDbLine
 10
239.3642102271192
 20
1023.935002708563
 30
0.000000000000000
 11
239.3642102269364
 21
1082.181274757494
 31
0.000000000000000
  0
CIRCLE
  5
9D
100
AcDbEntity
  8
A1
  6
CONTINUOUS
 62
7
100
AcDbCircle
 10
97.36887116770916
 20
1011.935002708717
 30
0.000000000000000
 40
4.500000000000000
  0
CIRCLE
  5
9E
100
AcDbEntity
  8
A1
  6
CONTINUOUS
 62
7
100
AcDbCircle
 10
161.3688711677092
 20
1031.935002708717
 30
0.000000000000000
 40
4.500000000000000
  0
LINE
  5
9F
100
AcDbEntity
  8
A1
  6
CONTINUOUS
 62
7
100
AcDbLine
 10
233.2642102270942
 20
1027.435002708506
 30
0.000000000000000
 11
233.2642102270942
 21
1036.435002708506
 31
0.000000000000000
  0
LINE
  5
A0
100
AcDbEntity
  8
A1
  6
CONTINUOUS
 62
7
100
AcDbLine
 10
232.7642102270942
 20
1027.435002708506
 30
0.000000000000000
 11
232.7642102270942
 21
1036.435002708506
 31
0.000000000000000
  0
LINE
  5
A1
100
AcDbEntity
  8
A1
  6
CONTINUOUS
 62
7
100
AcDbLine
 10
232.7642102270942
 20
1027.435002708506
 30
0.000000000000000
 11
233.2642102270942
 21
1027.435002708506
 31
0.000000000000000
  0
LINE
  5
A2
100
AcDbEntity
  8
A1
  6
CONTINUOUS
 62
7
100
AcDbLine
 10
232.7642102270942
 20
1036.435002708506
 30
0.000000000000000
 11
233.2642102270942
 21
1036.435002708506
 31
0.000000000000000
  0
ARC
  5
A3
100
AcDbEntity
  8
A1
  6
CONTINUOUS
 62
7
100
AcDbCircle
 10
235.7829602270942
 20
1031.935002708506
 30
0.000000000000000
 40
5.418749999999998
100
AcDbArc
 50
123.8550261282941
 51
236.1449738717059
  0
LINE
  5
A4
100
AcDbEntity
  8
A1
  6
CONTINUOUS
 62
7
100
AcDbLine
 10
233.2642102270942
 20
1034.335002708506
 30
0.000000000000000
 11
233.6642102270291
 21
1034.335002708506
 31
0.000000000000000
  0
LINE
  5
A5
100
AcDbEntity
  8
A1
  6
CONTINUOUS
 62
7
100
AcDbLine
 10
235.9642102270292
 20
1034.335002708506
 30
0.000000000000000
 11
236.3642102270942
 21
1034.335002708506
 31
0.000000000000000
  0
LINE
  5
A6
100
AcDbEntity
  8
A1
  6
CONTINUOUS
 62
7
100
AcDbLine
 10
233.2642102270942
 20
1029.535002708506
 30
0.000000000000000
 11
233.6642102270245
 21
1029.535002708506
 31
0.000000000000000
  0
LINE
  5
A7
100
AcDbEntity
  8
A1
  6
CONTINUOUS
 62
7
100
AcDbLine
 10
235.9642102270246
 20
1029.535002708506
 30
0.000000000000000
 11
236.3642102270942
 21
1029.535002708506
 31
0.000000000000000
  0
LINE
  5
A8
100
AcDbEntity
  8
A4
  6
CENTER
 62
1
100
AcDbLine
 10
140.8688711677156
 20
1000.672902811323
 30
0.000000000000000
 11
140.8688711677397
 21
1050.935002708717
 31
0.000000000000000
  0
POINT
  5
A9
100
AcDbEntity
  8
A10
  6
CONTINUOUS
 62
3
100
AcDbPoint
 10
211.4871230203438
 20
1070.462259619308
 30
0.000000000000000
  0
LINE
  5
AA
100
AcDbEntity
  8
A1
  6
CONTINUOUS
 62
7
100
AcDbLine
 10
235.9642102270155
 20
1019.935002708717
 30
0.000000000000000
 11
239.3642102271192
 21
1019.935002708717
 31
0.000000000000000
  0
LINE
  5
AB
100
AcDbEntity
  8
A1
  6
CONTINUOUS
 62
7
100
AcDbLine
 10
239.3642102271192
 20
1019.935002708717
 30
0.000000000000000
 11
239.3642102271192
 21
984.9350027087125
 31
0.000000000000000
  0
LINE
  5
AC
100
AcDbEntity
  8
A1
  6
CONTINUOUS
 62
7
100
AcDbLine
 10
238.4642102269635
 20
987.8658585282878
 30
0.000000000000000
 11
236.8649896342934
 21
987.8658585282893
 31
0.000000000000000
  0
ARC
  5
AD
100
AcDbEntity
  8
A1
  6
CONTINUOUS
 62
7
100
AcDbCircle
 10
241.8642102270746
 20
1012.135002708765
 30
0.000000000000000
 40
2.000000000000000
100
AcDbArc
 50
60.00000000017957
 51
90.00000000017970
  0
ARC
  5
AE
100
AcDbEntity
  8
A1
  6
CONTINUOUS
 62
7
100
AcDbCircle
 10
241.8642102270758
 20
1011.735002708765
 30
0.000000000000000
 40
1.999999999999972
100
AcDbArc
 50
270.0000000001797
 51
300.0000000001799
  0
LINE
  5
AF
100
AcDbEntity
  8
A1
  6
CONTINUOUS
 62
7
100
AcDbLine
 10
242.8642102270812
 20
1010.002951901199
 30
0.000000000000000
 11
242.8642102270691
 21
1013.867053516337
 31
0.000000000000000
  0
LINE
  5
B0
100
AcDbEntity
  8
A1
  6
CONTINUOUS
 62
7
100
AcDbLine
 10
239.3642102270820
 20
1009.735002708757
 30
0.000000000000000
 11
241.8642102270820
 21
1009.735002708765
 31
0.000000000000000
  0
LINE
  5
B1
100
AcDbEntity
  8
A1
  6
CONTINUOUS
 62
7
100
AcDbLine
 10
239.3642102270682
 20
1014.135002708757
 30
0.000000000000000
 11
241.8642102270682
 21
1014.135002708765
 31
0.000000000000000
  0
LINE
  5
B2
100
AcDbEntity
  8
A1
  6
CONTINUOUS
 62
7
100
AcDbLine
 10
233.2642102270751
 20
1007.435002708748
 30
0.000000000000000
 11
233.2642102270751
 21
1016.435002708748
 31
0.000000000000000
  0
LINE
  5
B3
100
AcDbEntity
  8
A1
  6
CONTINUOUS
 62
7
100
AcDbLine
 10
232.7642102270751
 20
1007.435002708748
 30
0.000000000000000
 11
232.7642102270751
 21
1016.435002708748
 31
0.000000000000000
  0
LINE
  5
B4
100
AcDbEntity
  8
A1
  6
CONTINUOUS
 62
7
100
AcDbLine
 10
232.7642102270751
 20
1007.435002708748
 30
0.000000000000000
 11
233.2642102270751
 21
1007.435002708748
 31
0.000000000000000
  0
LINE
  5
B5
100
AcDbEntity
  8
A1
  6
CONTINUOUS
 62
7
100
AcDbLine
 10
232.7642102270751
 20
1016.435002708748
 30
0.000000000000000
 11
233.2642102270751
 21
1016.435002708748
 31
0.000000000000000
  0
ARC
  5
B6
100
AcDbEntity
  8
A1
  6
CONTINUOUS
 62
7
100
AcDbCircle
 10
235.7829602270751
 20
1011.935002708748
 30
0.000000000000000
 40
5.418749999999998
100
AcDbArc
 50
123.8550261282941
 51
236.1449738717059
  0
LINE
  5
B7
100
AcDbEntity
  8
A1
  6
CONTINUOUS
 62
7
100
AcDbLine
 10
233.2642102270751
 20
1014.335002708748
 30
0.000000000000000
 11
233.6642102270100
 21
1014.335002708748
 31
0.000000000000000
  0
LINE
  5
B8
100
AcDbEntity
  8
A1
  6
CONTINUOUS
 62
7
100
AcDbLine
 10
235.9642102270101
 20
1014.335002708748
 30
0.000000000000000
 11
236.3642102270751
 21
1014.335002708748
 31
0.000000000000000
  0
LINE
  5
B9
100
AcDbEntity
  8
A1
  6
CONTINUOUS
 62
7
100
AcDbLine
 10
233.2642102270751
 20
1009.535002708748
 30
0.000000000000000
 11
233.6642102270054
 21
1009.535002708748
 31
0.000000000000000
  0
LINE
  5
BA
100
AcDbEntity
  8
A1
  6
CONTINUOUS
 62
7
100
AcDbLine
 10
235.9642102270055
 20
1009.535002708748
 30
0.000000000000000
 11
236.3642102270751
 21
1009.535002708748
 31
0.000000000000000
  0
CIRCLE
  5
BB
100
AcDbEntity
  8
A1
  6
CONTINUOUS
 62
7
100
AcDbCircle
 10
132.3688711677092
 20
1011.935002708717
 30
0.000000000000000
 40
2.900000000000000
  0
ARC
  5
BC
100
AcDbEntity
  8
A1
  6
CONTINUOUS
 62
7
100
AcDbCircle
 10
149.3688711677092
 20
1011.935002708717
 30
0.000000000000000
 40
2.900000000000000
100
AcDbArc
 50
176.7362445007886
 51
360.0000000000000
  0
LINE
  5
BD
100
AcDbEntity
  8
A1
  6
CONTINUOUS
 62
7
100
AcDbLine
 10
-41.23401818588445
 20
1036.935002708806
 30
0.000000000000000
 11
-41.23401818588445
 21
987.8658585283629
 31
0.000000000000000
  0
LINE
  5
BE
100
AcDbEntity
  8
A4
  6
CENTER
 62
1
100
AcDbLine
 10
-51.13401818595172
 20
1011.935002708806
 30
0.000000000000000
 11
-32.33401818588436
 21
1011.935002708806
 31
0.000000000000000
  0
LINE
  5
BF
100
AcDbEntity
  8
A1
  6
CONTINUOUS
 62
7
100
AcDbLine
 10
-38.93401818588426
 20
1036.935002708806
 30
0.000000000000000
 11
-38.93401818588424
 21
1001.935002708914
 31
0.000000000000000
  0
LINE
  5
C0
100
AcDbEntity
  8
A1
  6
CONTINUOUS
 62
7
100
AcDbLine
 10
-38.93401818588433
 20
1001.935002708914
 30
0.000000000000000
 11
-41.23401818582551
 21
1001.935002708918
 31
0.000000000000000
  0
ARC
  5
C1
100
AcDbEntity
  8
A1
  6
CONTINUOUS
 62
7
100
AcDbCircle
 10
-36.08236566532687
 20
989.9349941015651
 30
0.000000000000000
 40
5.551652520903794
100
AcDbArc
 50
201.8826156364463
 51
242.6373873669357
  0
ARC
  5
C2
100
AcDbEntity
  8
A1
  6
CONTINUOUS
 62
7
100
AcDbCircle
 10
-47.13401818595093
 20
1032.135002708620
 30
0.000000000000000
 40
2.000000000000000
100
AcDbArc
 50
89.99999999976551
 51
119.9999999997656
  0
ARC
  5
C3
100
AcDbEntity
  8
A1
  6
CONTINUOUS
 62
7
100
AcDbCircle
 10
-47.13401818595258
 20
1031.735002708620
 30
0.000000000000000
 40
1.999999999999972
100
AcDbArc
 50
239.9999999997652
 51
269.9999999997654
  0
LINE
  5
C4
100
AcDbEntity
  8
A4
  6
CENTER
 62
1
100
AcDbLine
 10
-33.53401818595172
 20
1031.935002708565
 30
0.000000000000000
 11
-51.13401818595175
 21
1031.935002708636
 31
0.000000000000000
  0
LINE
  5
C5
100
AcDbEntity
  8
A1
  6
CONTINUOUS
 62
7
100
AcDbLine
 10
-41.63401818598442
 20
1023.935002708642
 30
0.000000000000000
 11
-44.63401818595690
 21
1023.935002708657
 31
0.000000000000000
  0
LINE
  5
C6
100
AcDbEntity
  8
A1
  6
CONTINUOUS
 62
7
100
AcDbLine
 10
-41.63401818598446
 20
1023.935002708645
 30
0.000000000000000
 11
-41.63401818586167
 21
1053.935002708642
 31
0.000000000000000
  0
LINE
  5
C7
100
AcDbEntity
  8
A1
  6
CONTINUOUS
 62
7
100
AcDbLine
 10
-42.16471132730387
 20
1053.935002708645
 30
0.000000000000000
 11
-44.18385041995671
 21
1053.935002708655
 31
0.000000000000000
  0
ARC
  5
C8
100
AcDbEntity
  8
A1
  6
CONTINUOUS
 62
7
100
AcDbCircle
 10
-36.08236566496458
 20
1053.935011315795
 30
0.000000000000000
 40
5.551652520903794
100
AcDbArc
 50
117.3626126324156
 51
179.9999999999452
  0
LINE
  5
C9
100
AcDbEntity
  8
A1
  6
CONTINUOUS
 62
7
100
AcDbLine
 10
-48.13401818595963
 20
1030.002951901055
 30
0.000000000000000
 11
-48.13401818594381
 21
1033.867053516193
 31
0.000000000000000
  0
LINE
  5
CA
100
AcDbEntity
  8
A1
  6
CONTINUOUS
 62
7
100
AcDbLine
 10
-44.63401818596072
 20
1029.735002708610
 30
0.000000000000000
 11
-47.13401818596072
 21
1029.735002708620
 31
0.000000000000000
  0
LINE
  5
CB
100
AcDbEntity
  8
A1
  6
CONTINUOUS
 62
7
100
AcDbLine
 10
-44.63401818594271
 20
1034.135002708610
 30
0.000000000000000
 11
-47.13401818594271
 21
1034.135002708620
 31
0.000000000000000
  0
LINE
  5
CC
100
AcDbEntity
  8
A1
  6
CONTINUOUS
 62
7
100
AcDbLine
 10
-41.63401818593124
 20
1036.935002708806
 30
0.000000000000000
 11
-38.93401818588436
 21
1036.935002708806
 31
0.000000000000000
  0
LINE
  5
CD
100
AcDbEntity
  8
A1
  6
CONTINUOUS
 62
7
100
AcDbLine
 10
-38.63401818584136
 20
1058.865519922983
 30
0.000000000000000
 11
-38.63401818336748
 21
1662.688730659519
 31
0.000000000000000
  0
LINE
  5
CE
100
AcDbEntity
  8
A1
  6
CONTINUOUS
 62
7
100
AcDbLine
 10
-44.63401818598438
 20
1023.935002708657
 30
0.000000000000000
 11
-44.63401818574584
 21
1082.181274757588
 31
0.000000000000000
  0
LINE
  5
CF
100
AcDbEntity
  8
A1
  6
CONTINUOUS
 62
7
100
AcDbLine
 10
-38.53401818595598
 20
1027.435002708595
 30
0.000000000000000
 11
-38.53401818594737
 21
1036.435002708595
 31
0.000000000000000
  0
LINE
  5
D0
100
AcDbEntity
  8
A1
  6
CONTINUOUS
 62
7
100
AcDbLine
 10
-38.03401818595598
 20
1027.435002708594
 30
0.000000000000000
 11
-38.03401818594737
 21
1036.435002708594
 31
0.000000000000000
  0
LINE
  5
D1
100
AcDbEntity
  8
A1
  6
CONTINUOUS
 62
7
100
AcDbLine
 10
-38.03401818595598
 20
1027.435002708594
 30
0.000000000000000
 11
-38.53401818595598
 21
1027.435002708595
 31
0.000000000000000
  0
LINE
  5
D2
100
AcDbEntity
  8
A1
  6
CONTINUOUS
 62
7
100
AcDbLine
 10
-38.03401818594737
 20
1036.435002708594
 30
0.000000000000000
 11
-38.53401818594737
 21
1036.435002708595
 31
0.000000000000000
  0
ARC
  5
D3
100
AcDbEntity
  8
A1
  6
CONTINUOUS
 62
7
100
AcDbCircle
 10
-41.05276818595163
 20
1031.935002708597
 30
0.000000000000000
 40
5.418749999999998
100
AcDbArc
 50
303.8550261282392
 51
416.1449738716511
  0
LINE
  5
D4
100
AcDbEntity
  8
A1
  6
CONTINUOUS
 62
7
100
AcDbLine
 10
-38.53401818594938
 20
1034.335002708594
 30
0.000000000000000
 11
-38.93401818588433
 21
1034.335002708595
 31
0.000000000000000
  0
LINE
  5
D5
100
AcDbEntity
  8
A1
  6
CONTINUOUS
 62
7
100
AcDbLine
 10
-41.23401818588439
 20
1034.335002708597
 30
0.000000000000000
 11
-41.63401818594940
 21
1034.335002708597
 31
0.000000000000000
  0
LINE
  5
D6
100
AcDbEntity
  8
A1
  6
CONTINUOUS
 62
7
100
AcDbLine
 10
-38.53401818595397
 20
1029.535002708594
 30
0.000000000000000
 11
-38.93401818588426
 21
1029.535002708595
 31
0.000000000000000
  0
LINE
  5
D7
100
AcDbEntity
  8
A1
  6
CONTINUOUS
 62
7
100
AcDbLine
 10
-41.23401818588432
 20
1029.535002708597
 30
0.000000000000000
 11
-41.63401818595399
 21
1029.535002708597
 31
0.000000000000000
  0
POINT
  5
D8
100
AcDbEntity
  8
A10
  6
CONTINUOUS
 62
3
100
AcDbPoint
 10
69.99061931515425
 20
1070.462259619376
 30
0.000000000000000
  0
LINE
  5
D9
100
AcDbEntity
  8
A1
  6
CONTINUOUS
 62
7
100
AcDbLine
 10
-41.23401818588442
 20
1019.935002708808
 30
0.000000000000000
 11
-44.63401818598819
 21
1019.935002708811
 31
0.000000000000000
  0
LINE
  5
DA
100
AcDbEntity
  8
A1
  6
CONTINUOUS
 62
7
100
AcDbLine
 10
-44.63401818598819
 20
1019.935002708811
 30
0.000000000000000
 11
-44.63401818602167
 21
984.9350027088067
 31
0.000000000000000
  0
LINE
  5
DB
100
AcDbEntity
  8
A1
  6
CONTINUOUS
 62
7
100
AcDbLine
 10
-44.63401818576821
 20
1686.935002708569
 30
0.000000000000000
 11
-38.63401818576821
 21
1686.935002708563
 31
0.000000000000000
  0
LINE
  5
DC
100
AcDbEntity
  8
A1
  6
CONTINUOUS
 62
7
100
AcDbLine
 10
-43.13401818576341
 20
1691.935002708567
 30
0.000000000000000
 11
-44.63401818576807
 21
1686.935002708569
 31
0.000000000000000
  0
LINE
  5
DD
100
AcDbEntity
  8
A1
  6
CONTINUOUS
 62
7
100
AcDbLine
 10
-40.13401818576324
 20
1691.935002708565
 30
0.000000000000000
 11
-38.63401818576801
 21
1686.935002708563
 31
0.000000000000000
  0
LINE
  5
DE
100
AcDbEntity
  8
A1
  6
CONTINUOUS
 62
7
100
AcDbLine
 10
-38.63401818579141
 20
1662.688730659519
 30
0.000000000000000
 11
-38.63401818576821
 21
1686.935002708563
 31
0.000000000000000
  0
LINE
  5
DF
100
AcDbEntity
  8
A1
  6
CONTINUOUS
 62
7
100
AcDbLine
 10
-44.63401818634685
 20
1082.181274757588
 30
0.000000000000000
 11
-44.63401818576821
 21
1686.935002708569
 31
0.000000000000000
  0
LINE
  5
E0
100
AcDbEntity
  8
A1
  6
CONTINUOUS
 62
7
100
AcDbLine
 10
-43.13401818576343
 20
1691.935002708567
 30
0.000000000000000
 11
-40.13401818576343
 21
1691.935002708565
 31
0.000000000000000
  0
LINE
  5
E1
100
AcDbEntity
  8
A1
  6
CONTINUOUS
 62
7
100
AcDbLine
 10
-43.73401818586312
 20
987.8658585283810
 30
0.000000000000000
 11
-42.13479759319300
 21
987.8658585283810
 31
0.000000000000000
  0
LINE
  5
E2
100
AcDbEntity
  8
A1
  6
CONTINUOUS
 62
7
100
AcDbLine
 10
-38.63401818653386
 20
947.1007417739669
 30
0.000000000000000
 11
-38.63401818680732
 21
909.2664808394974
 31
0.000000000000000
  0
LINE
  5
E3
100
AcDbEntity
  8
A1
  6
CONTINUOUS
 62
7
100
AcDbLine
 10
-38.63401818625999
 20
985.0044854944056
 30
0.000000000000000
 11
-38.63401818650502
 21
951.1007417739670
 31
0.000000000000000
  0
ARC
  5
E4
100
AcDbEntity
  8
A1
  6
CONTINUOUS
 62
7
100
AcDbCircle
 10
-47.13401818595099
 20
1012.135002708861
 30
0.000000000000000
 40
2.000000000000000
100
AcDbArc
 50
89.99999999976551
 51
119.9999999997656
  0
ARC
  5
E5
100
AcDbEntity
  8
A1
  6
CONTINUOUS
 62
7
100
AcDbCircle
 10
-47.13401818595261
 20
1011.735002708861
 30
0.000000000000000
 40
1.999999999999972
100
AcDbArc
 50
239.9999999997652
 51
269.9999999997654
  0
LINE
  5
E6
100
AcDbEntity
  8
A1
  6
CONTINUOUS
 62
7
100
AcDbLine
 10
-48.13401818595963
 20
1010.002951901296
 30
0.000000000000000
 11
-48.13401818594382
 21
1013.867053516434
 31
0.000000000000000
  0
LINE
  5
E7
100
AcDbEntity
  8
A1
  6
CONTINUOUS
 62
7
100
AcDbLine
 10
-44.63401818596073
 20
1009.735002708851
 30
0.000000000000000
 11
-47.13401818596073
 21
1009.735002708861
 31
0.000000000000000
  0
LINE
  5
E8
100
AcDbEntity
  8
A1
  6
CONTINUOUS
 62
7
100
AcDbLine
 10
-44.63401818594271
 20
1014.135002708851
 30
0.000000000000000
 11
-47.13401818594271
 21
1014.135002708861
 31
0.000000000000000
  0
LINE
  5
E9
100
AcDbEntity
  8
A1
  6
CONTINUOUS
 62
7
100
AcDbLine
 10
-38.53401818595601
 20
1007.435002708836
 30
0.000000000000000
 11
-38.53401818594740
 21
1016.435002708836
 31
0.000000000000000
  0
LINE
  5
EA
100
AcDbEntity
  8
A1
  6
CONTINUOUS
 62
7
100
AcDbLine
 10
-38.03401818595601
 20
1007.435002708835
 30
0.000000000000000
 11
-38.03401818594740
 21
1016.435002708835
 31
0.000000000000000
  0
LINE
  5
EB
100
AcDbEntity
  8
A1
  6
CONTINUOUS
 62
7
100
AcDbLine
 10
-38.03401818595601
 20
1007.435002708835
 30
0.000000000000000
 11
-38.53401818595601
 21
1007.435002708836
 31
0.000000000000000
  0
LINE
  5
EC
100
AcDbEntity
  8
A1
  6
CONTINUOUS
 62
7
100
AcDbLine
 10
-38.03401818594740
 20
1016.435002708835
 30
0.000000000000000
 11
-38.53401818594740
 21
1016.435002708836
 31
0.000000000000000
  0
ARC
  5
ED
100
AcDbEntity
  8
A1
  6
CONTINUOUS
 62
7
100
AcDbCircle
 10
-41.05276818595166
 20
1011.935002708838
 30
0.000000000000000
 40
5.418749999999998
100
AcDbArc
 50
303.8550261282392
 51
416.1449738716511
  0
LINE
  5
EE
100
AcDbEntity
  8
A1
  6
CONTINUOUS
 62
7
100
AcDbLine
 10
-38.53401818594941
 20
1014.335002708836
 30
0.000000000000000
 11
-38.93401818588436
 21
1014.335002708836
 31
0.000000000000000
  0
LINE
  5
EF
100
AcDbEntity
  8
A1
  6
CONTINUOUS
 62
7
100
AcDbLine
 10
-41.23401818588443
 20
1014.335002708838
 30
0.000000000000000
 11
-41.63401818594944
 21
1014.335002708839
 31
0.000000000000000
  0
LINE
  5
F0
100
AcDbEntity
  8
A1
  6
CONTINUOUS
 62
7
100
AcDbLine
 10
-38.53401818595400
 20
1009.535002708836
 30
0.000000000000000
 11
-38.93401818588429
 21
1009.535002708836
 31
0.000000000000000
  0
LINE
  5
F1
100
AcDbEntity
  8
A1
  6
CONTINUOUS
 62
7
100
AcDbLine
 10
-41.23401818588436
 20
1009.535002708838
 30
0.000000000000000
 11
-41.63401818595403
 21
1009.535002708839
 31
0.000000000000000
  0
POINT
  5
F2
100
AcDbEntity
  8
A10
  6
CONTINUOUS
 62
3
100
AcDbPoint
 10
92.36887116770916
 20
1006.935002708717
 30
0.000000000000000
  0
LINE
  5
F3
100
AcDbEntity
  8
A1
  6
CONTINUOUS
 62
7
100
AcDbLine
 10
92.36887116673280
 20
1750.581389303227
 30
0.000000000000000
 11
92.36887116673280
 21
1752.881389303227
 31
0.000000000000000
  0
LINE
  5
F4
100
AcDbEntity
  8
A1
  6
CONTINUOUS
 62
7
100
AcDbLine
 10
167.3688711666750
 20
1750.581389303226
 30
0.000000000000000
 11
167.3688711666750
 21
1752.881389303226
 31
0.000000000000000
  0
LINE
  5
F5
100
AcDbEntity
  8
A1
  6
CONTINUOUS
 62
7
100
AcDbLine
 10
92.66887116673276
 20
1753.281389303227
 30
0.000000000000000
 11
92.66887116673276
 21
1756.281389303227
 31
0.000000000000000
  0
ARC
  5
F6
100
AcDbEntity
  8
A1
  6
CONTINUOUS
 62
7
100
AcDbCircle
 10
97.36887116675078
 20
1752.700139303218
 30
0.000000000000000
 40
5.418749999999998
100
AcDbArc
 50
213.8550261283489
 51
326.1449738717608
  0
LINE
  5
F7
100
AcDbEntity
  8
A1
  6
CONTINUOUS
 62
7
100
AcDbLine
 10
101.8688711667537
 20
1749.681389303222
 30
0.000000000000000
 11
92.86887116675368
 21
1749.681389303214
 31
0.000000000000000
  0
LINE
  5
F8
100
AcDbEntity
  8
A1
  6
CONTINUOUS
 62
7
100
AcDbLine
 10
101.8688711667532
 20
1750.181389303222
 30
0.000000000000000
 11
92.86887116675319
 21
1750.181389303214
 31
0.000000000000000
  0
LINE
  5
F9
100
AcDbEntity
  8
A1
  6
CONTINUOUS
 62
7
100
AcDbLine
 10
92.86887116675368
 20
1749.681389303214
 30
0.000000000000000
 11
92.86887116675319
 21
1750.181389303214
 31
0.000000000000000
  0
LINE
  5
FA
100
AcDbEntity
  8
A1
  6
CONTINUOUS
 62
7
100
AcDbLine
 10
101.8688711667537
 20
1749.681389303222
 30
0.000000000000000
 11
101.8688711667532
 21
1750.181389303222
 31
0.000000000000000
  0
LINE
  5
FB
100
AcDbEntity
  8
A1
  6
CONTINUOUS
 62
7
100
AcDbLine
 10
95.16887116673792
 20
1756.281389303209
 30
0.000000000000000
 11
95.16887116672768
 21
1758.781389303209
 31
0.000000000000000
  0
ARC
  5
FC
100
AcDbEntity
  8
A1
  6
CONTINUOUS
 62
7
100
AcDbCircle
 10
97.16887116672774
 20
1758.781389303217
 30
0.000000000000000
 40
2.000000000000000
100
AcDbArc
 50
150.0000000002344
 51
180.0000000002345
  0
LINE
  5
FD
100
AcDbEntity
  8
A1
  6
CONTINUOUS
 62
7
100
AcDbLine
 10
99.30092197429248
 20
1759.781389303226
 30
0.000000000000000
 11
95.43682035915475
 21
1759.781389303210
 31
0.000000000000000
  0
LINE
  5
FE
100
AcDbEntity
  8
A1
  6
CONTINUOUS
 62
7
100
AcDbLine
 10
99.56887116673791
 20
1756.281389303227
 30
0.000000000000000
 11
99.56887116672767
 21
1758.781389303227
 31
0.000000000000000
  0
ARC
  5
FF
100
AcDbEntity
  8
A1
  6
CONTINUOUS
 62
7
100
AcDbCircle
 10
97.56887116672777
 20
1758.781389303219
 30
0.000000000000000
 40
1.999999999999972
100
AcDbArc
 50
2.345977133047490e-10
 51
30.00000000023476
  0
CIRCLE
  5
100
100
AcDbEntity
  8
A3
  6
DASHED
 62
2
100
AcDbCircle
 10
97.36887116673282
 20
1753.281389303227
 30
0.000000000000000
 40
3.000000000000000
  0
LINE
  5
101
100
AcDbEntity
  8
A4
  6
CENTER
 62
1
100
AcDbLine
 10
101.8688711667328
 20
1753.281389303227
 30
0.000000000000000
 11
92.86887116673282
 21
1753.281389303227
 31
0.000000000000000
  0
CIRCLE
  5
102
100
AcDbEntity
  8
A3
  6
DASHED
 62
2
100
AcDbCircle
 10
97.36887116673282
 20
1753.281389303227
 30
0.000000000000000
 40
1.500000000000000
  0
ARC
  5
103
100
AcDbEntity
  8
A1
  6
CONTINUOUS
 62
7
100
AcDbCircle
 10
161.3688711667508
 20
1752.700139303218
 30
0.000000000000000
 40
5.418749999999998
100
AcDbArc
 50
213.8550261283489
 51
326.1449738717608
  0
LINE
  5
104
100
AcDbEntity
  8
A1
  6
CONTINUOUS
 62
7
100
AcDbLine
 10
165.8688711667536
 20
1749.681389303222
 30
0.000000000000000
 11
156.8688711667537
 21
1749.681389303213
 31
0.000000000000000
  0
LINE
  5
105
100
AcDbEntity
  8
A1
  6
CONTINUOUS
 62
7
100
AcDbLine
 10
165.8688711667532
 20
1750.181389303222
 30
0.000000000000000
 11
156.8688711667532
 21
1750.181389303213
 31
0.000000000000000
  0
LINE
  5
106
100
AcDbEntity
  8
A1
  6
CONTINUOUS
 62
7
100
AcDbLine
 10
156.8688711667537
 20
1749.681389303213
 30
0.000000000000000
 11
156.8688711667532
 21
1750.181389303213
 31
0.000000000000000
  0
LINE
  5
107
100
AcDbEntity
  8
A1
  6
CONTINUOUS
 62
7
100
AcDbLine
 10
165.8688711667536
 20
1749.681389303222
 30
0.000000000000000
 11
165.8688711667532
 21
1750.181389303222
 31
0.000000000000000
  0
LINE
  5
108
100
AcDbEntity
  8
A1
  6
CONTINUOUS
 62
7
100
AcDbLine
 10
159.1688711667379
 20
1756.281389303209
 30
0.000000000000000
 11
159.1688711667277
 21
1758.781389303209
 31
0.000000000000000
  0
ARC
  5
109
100
AcDbEntity
  8
A1
  6
CONTINUOUS
 62
7
100
AcDbCircle
 10
161.1688711667277
 20
1758.781389303217
 30
0.000000000000000
 40
2.000000000000000
100
AcDbArc
 50
150.0000000002344
 51
180.0000000002345
  0
LINE
  5
10A
100
AcDbEntity
  8
A1
  6
CONTINUOUS
 62
7
100
AcDbLine
 10
163.3009219742925
 20
1759.781389303226
 30
0.000000000000000
 11
159.4368203591548
 21
1759.781389303210
 31
0.000000000000000
  0
LINE
  5
10B
100
AcDbEntity
  8
A1
  6
CONTINUOUS
 62
7
100
AcDbLine
 10
163.5688711667379
 20
1756.281389303227
 30
0.000000000000000
 11
163.5688711667277
 21
1758.781389303227
 31
0.000000000000000
  0
ARC
  5
10C
100
AcDbEntity
  8
A1
  6
CONTINUOUS
 62
7
100
AcDbCircle
 10
161.5688711667278
 20
1758.781389303219
 30
0.000000000000000
 40
1.999999999999972
100
AcDbArc
 50
2.345977133047490e-10
 51
30.00000000023476
  0
CIRCLE
  5
10D
100
AcDbEntity
  8
A1
  6
CONTINUOUS
 62
7
100
AcDbCircle
 10
161.3688711667328
 20
1753.281389303227
 30
0.000000000000000
 40
3.000000000000000
  0
CIRCLE
  5
10E
100
AcDbEntity
  8
A1
  6
CONTINUOUS
 62
7
100
AcDbCircle
 10
161.3688711667328
 20
1753.281389303227
 30
0.000000000000000
 40
1.500000000000000
  0
LINE
  5
10F
100
AcDbEntity
  8
A1
  6
CONTINUOUS
 62
7
100
AcDbLine
 10
166.0688711667329
 20
1753.281389303228
 30
0.000000000000000
 11
166.0688711667329
 21
1756.281389303226
 31
0.000000000000000
  0
LINE
  5
110
100
AcDbEntity
  8
A1
  6
CONTINUOUS
 62
7
100
AcDbLine
 10
92.66887116673277
 20
1756.281389303227
 30
0.000000000000000
 11
102.0688711667328
 21
1756.281389303227
 31
0.000000000000000
  0
LINE
  5
111
100
AcDbEntity
  8
A1
  6
CONTINUOUS
 62
7
100
AcDbLine
 10
156.6688711667328
 20
1756.281389303226
 30
0.000000000000000
 11
166.0688711667329
 21
1756.281389303226
 31
0.000000000000000
  0
LINE
  5
112
100
AcDbEntity
  8
A1
  6
CONTINUOUS
 62
7
100
AcDbLine
 10
156.6688711667328
 20
1753.281389303227
 30
0.000000000000000
 11
156.6688711667328
 21
1756.281389303226
 31
0.000000000000000
  0
LINE
  5
113
100
AcDbEntity
  8
A1
  6
CONTINUOUS
 62
7
100
AcDbLine
 10
92.36887116673277
 20
1752.881389303227
 30
0.000000000000000
 11
100.3420849161965
 21
1752.881389303227
 31
0.000000000000000
  0
LINE
  5
114
100
AcDbEntity
  8
A1
  6
CONTINUOUS
 62
7
100
AcDbLine
 10
100.3420849161965
 20
1752.881389303227
 30
0.000000000000000
 11
158.3956574172688
 21
1752.881389303226
 31
0.000000000000000
  0
LINE
  5
115
100
AcDbEntity
  8
A1
  6
CONTINUOUS
 62
7
100
AcDbLine
 10
92.36887116673277
 20
1750.581389303227
 30
0.000000000000000
 11
96.06120148367062
 21
1750.581389303227
 31
0.000000000000000
  0
POINT
  5
116
100
AcDbEntity
  8
A10
  6
CONTINUOUS
 62
3
100
AcDbPoint
 10
91.36887116770913
 20
1011.935002708717
 30
0.000000000000000
  0
LINE
  5
117
100
AcDbEntity
  8
A4
  6
CENTER
 62
1
100
AcDbLine
 10
97.36887116770913
 20
35.43500270871705
 30
0.000000000000000
 11
97.36887116770916
 21
1022.935002708717
 31
0.000000000000000
  0
LINE
  5
118
100
AcDbEntity
  8
A1
  6
CONTINUOUS
 62
7
100
AcDbLine
 10
-38.63401818586257
 20
41.93500270880576
 30
0.000000000000000
 11
-44.63401818586257
 21
41.93500270880576
 31
0.000000000000000
  0
LINE
  5
119
100
AcDbEntity
  8
A1
  6
CONTINUOUS
 62
7
100
AcDbLine
 10
-43.13401818586247
 20
36.93500270880575
 30
0.000000000000000
 11
-44.63401818586247
 21
41.93500270880576
 31
0.000000000000000
  0
LINE
  5
11A
100
AcDbEntity
  8
A1
  6
CONTINUOUS
 62
7
100
AcDbLine
 10
-38.63401818586253
 20
41.93500270880573
 30
0.000000000000000
 11
-40.13401818586253
 21
36.93500270880573
 31
0.000000000000000
  0
LINE
  5
11B
100
AcDbEntity
  8
A1
  6
CONTINUOUS
 62
7
100
AcDbLine
 10
-44.63401818586251
 20
79.76926364346491
 30
0.000000000000000
 11
-44.63401818586251
 21
985.0044854945572
 31
0.000000000000000
  0
LINE
  5
11C
100
AcDbEntity
  8
A1
  6
CONTINUOUS
 62
7
100
AcDbLine
 10
-44.63401818586257
 20
41.93500270880576
 30
0.000000000000000
 11
-44.63401818586257
 21
79.76926364346497
 31
0.000000000000000
  0
LINE
  5
11D
100
AcDbEntity
  8
A1
  6
CONTINUOUS
 62
7
100
AcDbLine
 10
-38.63401818586257
 20
41.93500270880576
 30
0.000000000000000
 11
-38.63401818586257
 21
951.1007417741569
 31
0.000000000000000
  0
LINE
  5
11E
100
AcDbEntity
  8
A1
  6
CONTINUOUS
 62
7
100
AcDbLine
 10
-40.13401818586257
 20
36.93500270880576
 30
0.000000000000000
 11
-43.13401818586257
 21
36.93500270880576
 31
0.000000000000000
  0
LINE
  5
11F
100
AcDbEntity
  8
A1
  6
CONTINUOUS
 62
7
100
AcDbLine
 10
239.3642102273572
 20
41.93500270856566
 30
0.000000000000000
 11
233.3642102273572
 21
41.93500270856566
 31
0.000000000000000
  0
LINE
  5
120
100
AcDbEntity
  8
A1
  6
CONTINUOUS
 62
7
100
AcDbLine
 10
234.8642102273571
 20
36.93500270856564
 30
0.000000000000000
 11
233.3642102273571
 21
41.93500270856563
 31
0.000000000000000
  0
LINE
  5
121
100
AcDbEntity
  8
A1
  6
CONTINUOUS
 62
7
100
AcDbLine
 10
239.3642102273571
 20
41.93500270856564
 30
0.000000000000000
 11
237.8642102273571
 21
36.93500270856563
 31
0.000000000000000
  0
LINE
  5
122
100
AcDbEntity
  8
A1
  6
CONTINUOUS
 62
7
100
AcDbLine
 10
233.3642102273573
 20
79.76926364322480
 30
0.000000000000000
 11
233.3642102273573
 21
985.0044854943171
 31
0.000000000000000
  0
LINE
  5
123
100
AcDbEntity
  8
A1
  6
CONTINUOUS
 62
7
100
AcDbLine
 10
233.3642102273572
 20
41.93500270856566
 30
0.000000000000000
 11
233.3642102273572
 21
79.76926364322486
 31
0.000000000000000
  0
LINE
  5
124
100
AcDbEntity
  8
A1
  6
CONTINUOUS
 62
7
100
AcDbLine
 10
239.3642102273573
 20
951.1007417739168
 30
0.000000000000000
 11
239.3642102273573
 21
985.0044854943171
 31
0.000000000000000
  0
LINE
  5
125
100
AcDbEntity
  8
A1
  6
CONTINUOUS
 62
7
100
AcDbLine
 10
239.3642102273572
 20
41.93500270856566
 30
0.000000000000000
 11
239.3642102273572
 21
951.1007417739168
 31
0.000000000000000
  0
LINE
  5
126
100
AcDbEntity
  8
A1
  6
CONTINUOUS
 62
7
100
AcDbLine
 10
237.8642102273572
 20
36.93500270856566
 30
0.000000000000000
 11
234.8642102273572
 21
36.93500270856566
 31
0.000000000000000
  0
LINE
  5
127
100
AcDbEntity
  8
A4
  6
CENTER
 62
1
100
AcDbLine
 10
236.3642102273572
 20
35.43500270856562
 30
0.000000000000000
 11
236.3642102269859
 21
1117.145740233816
 31
0.000000000000000
  0
LINE
  5
128
100
AcDbEntity
  8
A4
  6
CENTER
 62
1
100
AcDbLine
 10
-41.63401818586254
 20
35.43500270880572
 30
0.000000000000000
 11
-41.63401818576330
 21
1693.435002708566
 31
0.000000000000000
  0
LINE
  5
129
100
AcDbEntity
  8
A1
  6
CONTINUOUS
 62
7
100
AcDbLine
 10
164.3688711678195
 20
1058.865519922786
 30
0.000000000000000
 11
164.3688711702934
 21
1662.688730659322
 31
0.000000000000000
  0
LINE
  5
12A
100
AcDbEntity
  8
A1
  6
CONTINUOUS
 62
7
100
AcDbLine
 10
158.3688711678927
 20
1686.935002708372
 30
0.000000000000000
 11
164.3688711678927
 21
1686.935002708366
 31
0.000000000000000
  0
LINE
  5
12B
100
AcDbEntity
  8
A1
  6
CONTINUOUS
 62
7
100
AcDbLine
 10
159.8688711678975
 20
1691.935002708370
 30
0.000000000000000
 11
158.3688711678928
 21
1686.935002708372
 31
0.000000000000000
  0
LINE
  5
12C
100
AcDbEntity
  8
A1
  6
CONTINUOUS
 62
7
100
AcDbLine
 10
162.8688711678976
 20
1691.935002708367
 30
0.000000000000000
 11
164.3688711678929
 21
1686.935002708366
 31
0.000000000000000
  0
LINE
  5
12D
100
AcDbEntity
  8
A1
  6
CONTINUOUS
 62
7
100
AcDbLine
 10
164.3688711678695
 20
1662.688730659322
 30
0.000000000000000
 11
164.3688711678927
 21
1686.935002708366
 31
0.000000000000000
  0
LINE
  5
12E
100
AcDbEntity
  8
A1
  6
CONTINUOUS
 62
7
100
AcDbLine
 10
158.3688711673141
 20
1082.181274757391
 30
0.000000000000000
 11
158.3688711678927
 21
1686.935002708372
 31
0.000000000000000
  0
LINE
  5
12F
100
AcDbEntity
  8
A1
  6
CONTINUOUS
 62
7
100
AcDbLine
 10
159.8688711678975
 20
1691.935002708370
 30
0.000000000000000
 11
162.8688711678975
 21
1691.935002708368
 31
0.000000000000000
  0
LINE
  5
130
100
AcDbEntity
  8
A4
  6
CENTER
 62
1
100
AcDbLine
 10
161.3688711677092
 20
1020.935002708717
 30
0.000000000000000
 11
161.3688711678975
 21
1693.435002708369
 31
0.000000000000000
  0
LINE
  5
131
100
AcDbEntity
  8
A1
  6
CONTINUOUS
 62
7
100
AcDbLine
 10
239.3642102269669
 20
1058.865519922983
 30
0.000000000000000
 11
239.3642102294408
 21
1662.688730659519
 31
0.000000000000000
  0
LINE
  5
132
100
AcDbEntity
  8
A1
  6
CONTINUOUS
 62
7
100
AcDbLine
 10
233.3642102270400
 20
1686.935002708569
 30
0.000000000000000
 11
239.3642102270400
 21
1686.935002708563
 31
0.000000000000000
  0
LINE
  5
133
100
AcDbEntity
  8
A1
  6
CONTINUOUS
 62
7
100
AcDbLine
 10
234.8642102270449
 20
1691.935002708567
 30
0.000000000000000
 11
233.3642102270402
 21
1686.935002708569
 31
0.000000000000000
  0
LINE
  5
134
100
AcDbEntity
  8
A1
  6
CONTINUOUS
 62
7
100
AcDbLine
 10
237.8642102270448
 20
1691.935002708564
 30
0.000000000000000
 11
239.3642102270400
 21
1686.935002708562
 31
0.000000000000000
  0
LINE
  5
135
100
AcDbEntity
  8
A1
  6
CONTINUOUS
 62
7
100
AcDbLine
 10
239.3642102270169
 20
1662.688730659519
 30
0.000000000000000
 11
239.3642102270400
 21
1686.935002708563
 31
0.000000000000000
  0
LINE
  5
136
100
AcDbEntity
  8
A1
  6
CONTINUOUS
 62
7
100
AcDbLine
 10
233.3642102264614
 20
1082.181274757588
 30
0.000000000000000
 11
233.3642102270400
 21
1686.935002708569
 31
0.000000000000000
  0
LINE
  5
137
100
AcDbEntity
  8
A1
  6
CONTINUOUS
 62
7
100
AcDbLine
 10
234.8642102270449
 20
1691.935002708567
 30
0.000000000000000
 11
237.8642102270449
 21
1691.935002708565
 31
0.000000000000000
  0
LINE
  5
138
100
AcDbEntity
  8
A4
  6
CENTER
 62
1
100
AcDbLine
 10
236.3642102269457
 20
35.43500270880572
 30
0.000000000000000
 11
236.3642102270450
 21
1693.435002708566
 31
0.000000000000000
  0
ARC
  5
139
100
AcDbEntity
  8
A1
  6
CONTINUOUS
 62
7
100
AcDbCircle
 10
145.4691546485085
 20
1012.157383931247
 30
0.000000000000000
 40
1.006052014279951
100
AcDbArc
 50
356.7362445007889
 51
495.0000000000012
  0
LINE
  5
13A
100
AcDbEntity
  8
A1
  6
CONTINUOUS
 62
7
100
AcDbLine
 10
143.4097874605582
 20
1011.520789146344
 30
0.000000000000000
 11
144.7577684469848
 21
1012.868770132771
 31
0.000000000000000
  0
LINE
  5
13B
100
AcDbEntity
  8
A1
  6
CONTINUOUS
 62
7
100
AcDbLine
 10
102.0688711667328
 20
1756.281389303227
 30
0.000000000000000
 11
102.0688711667328
 21
1753.281389303227
 31
0.000000000000000
  0
LINE
  5
13C
100
AcDbEntity
  8
A1
  6
CONTINUOUS
 62
7
100
AcDbLine
 10
102.0688711667328
 20
1753.281389303227
 30
0.000000000000000
 11
94.36887116673282
 21
1753.281389303227
 31
0.000000000000000
  0
LINE
  5
13D
100
AcDbEntity
  8
A4
  6
CENTER
 62
1
100
AcDbLine
 10
97.36887116673282
 20
1760.281389303227
 30
0.000000000000000
 11
97.36887116673282
 21
1746.521424161366
 31
0.000000000000000
  0
LINE
  5
13E
100
AcDbEntity
  8
A1
  6
CONTINUOUS
 62
7
100
AcDbLine
 10
94.36887116673282
 20
1753.281389303227
 30
0.000000000000000
 11
92.66887116673254
 21
1753.281389303227
 31
0.000000000000000
  0
LINE
  5
13F
100
AcDbEntity
  8
A1
  6
CONTINUOUS
 62
7
100
AcDbLine
 10
158.3688711667328
 20
1753.281389303227
 30
0.000000000000000
 11
156.6688711667326
 21
1753.281389303227
 31
0.000000000000000
  0
LINE
  5
140
100
AcDbEntity
  8
A1
  6
CONTINUOUS
 62
7
100
AcDbLine
 10
163.7688711667531
 20
1750.181389303220
 30
0.000000000000000
 11
163.7688711667527
 21
1750.581389303226
 31
0.000000000000000
  0
LINE
  5
141
100
AcDbEntity
  8
A1
  6
CONTINUOUS
 62
7
100
AcDbLine
 10
158.9688711667532
 20
1750.181389303215
 30
0.000000000000000
 11
158.9688711667528
 21
1750.581389303226
 31
0.000000000000000
  0
LINE
  5
142
100
AcDbEntity
  8
A4
  6
CENTER
 62
1
100
AcDbLine
 10
161.3688711667328
 20
1760.281389303227
 30
0.000000000000000
 11
161.3688711667328
 21
1746.521424161366
 31
0.000000000000000
  0
LINE
  5
143
100
AcDbEntity
  8
A1
  6
CONTINUOUS
 62
7
100
AcDbLine
 10
164.3688711667328
 20
1753.281389303228
 30
0.000000000000000
 11
166.0688711667158
 21
1753.281389303228
 31
0.000000000000000
  0
LINE
  5
144
100
AcDbEntity
  8
A1
  6
CONTINUOUS
 62
7
100
AcDbLine
 10
164.3420849161965
 20
1752.881389303226
 30
0.000000000000000
 11
167.3688711666751
 21
1752.881389303226
 31
0.000000000000000
  0
LINE
  5
145
100
AcDbEntity
  8
A1
  6
CONTINUOUS
 62
7
100
AcDbLine
 10
96.06120148367067
 20
1750.581389303227
 30
0.000000000000000
 11
160.0612014836710
 21
1750.581389303226
 31
0.000000000000000
  0
LINE
  5
146
100
AcDbEntity
  8
A1
  6
CONTINUOUS
 62
7
100
AcDbLine
 10
162.6765408497940
 20
1750.581389303226
 30
0.000000000000000
 11
167.3688711666750
 21
1750.581389303226
 31
0.000000000000000
  0
LINE
  5
147
100
AcDbEntity
  8
A4
  6
CENTER
 62
1
100
AcDbLine
 10
156.8688711667328
 20
1753.281389303227
 30
0.000000000000000
 11
165.8688711667328
 21
1753.281389303227
 31
0.000000000000000
  0
LINE
  5
148
100
AcDbEntity
  8
A1
  6
CONTINUOUS
 62
7
100
AcDbLine
 10
92.36887116673280
 20
22.28762144150966
 30
0.000000000000000
 11
92.36887116673280
 21
19.98762144150970
 31
0.000000000000000
  0
LINE
  5
149
100
AcDbEntity
  8
A1
  6
CONTINUOUS
 62
7
100
AcDbLine
 10
167.3688711666750
 20
22.28762144151011
 30
0.000000000000000
 11
167.3688711666750
 21
19.98762144151016
 31
0.000000000000000
  0
LINE
  5
14A
100
AcDbEntity
  8
A1
  6
CONTINUOUS
 62
7
100
AcDbLine
 10
92.66887116673276
 20
19.58762144150961
 30
0.000000000000000
 11
92.66887116673276
 21
16.58762144150961
 31
0.000000000000000
  0
ARC
  5
14B
100
AcDbEntity
  8
A1
  6
CONTINUOUS
 62
7
100
AcDbCircle
 10
97.36887116675078
 20
20.16887144151889
 30
0.000000000000000
 40
5.418749999999998
100
AcDbArc
 50
33.85502612823921
 51
146.1449738716511
  0
LINE
  5
14C
100
AcDbEntity
  8
A1
  6
CONTINUOUS
 62
7
100
AcDbLine
 10
101.8688711667537
 20
23.18762144151437
 30
0.000000000000000
 11
92.86887116675368
 21
23.18762144152298
 31
0.000000000000000
  0
LINE
  5
14D
100
AcDbEntity
  8
A1
  6
CONTINUOUS
 62
7
100
AcDbLine
 10
101.8688711667532
 20
22.68762144151437
 30
0.000000000000000
 11
92.86887116675321
 21
22.68762144152298
 31
0.000000000000000
  0
LINE
  5
14E
100
AcDbEntity
  8
A1
  6
CONTINUOUS
 62
7
100
AcDbLine
 10
92.86887116675368
 20
23.18762144152298
 30
0.000000000000000
 11
92.86887116675321
 21
22.68762144152298
 31
0.000000000000000
  0
LINE
  5
14F
100
AcDbEntity
  8
A1
  6
CONTINUOUS
 62
7
100
AcDbLine
 10
101.8688711667537
 20
23.18762144151437
 30
0.000000000000000
 11
101.8688711667532
 21
22.68762144151437
 31
0.000000000000000
  0
LINE
  5
150
100
AcDbEntity
  8
A1
  6
CONTINUOUS
 62
7
100
AcDbLine
 10
95.16887116673793
 20
16.58762144152777
 30
0.000000000000000
 11
95.16887116672770
 21
14.08762144152777
 31
0.000000000000000
  0
ARC
  5
151
100
AcDbEntity
  8
A1
  6
CONTINUOUS
 62
7
100
AcDbCircle
 10
97.16887116672774
 20
14.08762144151939
 30
0.000000000000000
 40
2.000000000000000
100
AcDbArc
 50
179.9999999997655
 51
209.9999999997656
  0
LINE
  5
152
100
AcDbEntity
  8
A1
  6
CONTINUOUS
 62
7
100
AcDbLine
 10
99.30092197429248
 20
13.08762144151085
 30
0.000000000000000
 11
95.43682035915475
 21
13.08762144152667
 31
0.000000000000000
  0
LINE
  5
153
100
AcDbEntity
  8
A1
  6
CONTINUOUS
 62
7
100
AcDbLine
 10
99.56887116673792
 20
16.58762144150976
 30
0.000000000000000
 11
99.56887116672769
 21
14.08762144150976
 31
0.000000000000000
  0
ARC
  5
154
100
AcDbEntity
  8
A1
  6
CONTINUOUS
 62
7
100
AcDbCircle
 10
97.56887116672777
 20
14.08762144151780
 30
0.000000000000000
 40
1.999999999999972
100
AcDbArc
 50
329.9999999997652
 51
359.9999999997655
  0
CIRCLE
  5
155
100
AcDbEntity
  8
A1
  6
CONTINUOUS
 62
7
100
AcDbCircle
 10
97.36887116673282
 20
19.58762144150961
 30
0.000000000000000
 40
3.000000000000000
  0
LINE
  5
156
100
AcDbEntity
  8
A4
  6
CENTER
 62
1
100
AcDbLine
 10
101.8688711667328
 20
19.58762144150961
 30
0.000000000000000
 11
92.86887116673282
 21
19.58762144150961
 31
0.000000000000000
  0
CIRCLE
  5
157
100
AcDbEntity
  8
A1
  6
CONTINUOUS
 62
7
100
AcDbCircle
 10
97.36887116673282
 20
19.58762144150961
 30
0.000000000000000
 40
1.500000000000000
  0
ARC
  5
158
100
AcDbEntity
  8
A1
  6
CONTINUOUS
 62
7
100
AcDbCircle
 10
161.3688711667508
 20
20.16887144151889
 30
0.000000000000000
 40
5.418749999999998
100
AcDbArc
 50
33.85502612823921
 51
146.1449738716511
  0
LINE
  5
159
100
AcDbEntity
  8
A1
  6
CONTINUOUS
 62
7
100
AcDbLine
 10
165.8688711667536
 20
23.18762144151452
 30
0.000000000000000
 11
156.8688711667537
 21
23.18762144152313
 31
0.000000000000000
  0
LINE
  5
15A
100
AcDbEntity
  8
A1
  6
CONTINUOUS
 62
7
100
AcDbLine
 10
165.8688711667532
 20
22.68762144151452
 30
0.000000000000000
 11
156.8688711667532
 21
22.68762144152313
 31
0.000000000000000
  0
LINE
  5
15B
100
AcDbEntity
  8
A1
  6
CONTINUOUS
 62
7
100
AcDbLine
 10
156.8688711667537
 20
23.18762144152313
 30
0.000000000000000
 11
156.8688711667532
 21
22.68762144152313
 31
0.000000000000000
  0
LINE
  5
15C
100
AcDbEntity
  8
A1
  6
CONTINUOUS
 62
7
100
AcDbLine
 10
165.8688711667536
 20
23.18762144151452
 30
0.000000000000000
 11
165.8688711667532
 21
22.68762144151452
 31
0.000000000000000
  0
LINE
  5
15D
100
AcDbEntity
  8
A1
  6
CONTINUOUS
 62
7
100
AcDbLine
 10
159.1688711667379
 20
16.58762144152775
 30
0.000000000000000
 11
159.1688711667277
 21
14.08762144152775
 31
0.000000000000000
  0
ARC
  5
15E
100
AcDbEntity
  8
A1
  6
CONTINUOUS
 62
7
100
AcDbCircle
 10
161.1688711667277
 20
14.08762144151939
 30
0.000000000000000
 40
2.000000000000000
100
AcDbArc
 50
179.9999999997655
 51
209.9999999997656
  0
LINE
  5
15F
100
AcDbEntity
  8
A1
  6
CONTINUOUS
 62
7
100
AcDbLine
 10
163.3009219742925
 20
13.08762144151084
 30
0.000000000000000
 11
159.4368203591548
 21
13.08762144152665
 31
0.000000000000000
  0
LINE
  5
160
100
AcDbEntity
  8
A1
  6
CONTINUOUS
 62
7
100
AcDbLine
 10
163.5688711667379
 20
16.58762144150974
 30
0.000000000000000
 11
163.5688711667277
 21
14.08762144150974
 31
0.000000000000000
  0
ARC
  5
161
100
AcDbEntity
  8
A1
  6
CONTINUOUS
 62
7
100
AcDbCircle
 10
161.5688711667278
 20
14.08762144151780
 30
0.000000000000000
 40
1.999999999999972
100
AcDbArc
 50
329.9999999997652
 51
359.9999999997655
  0
CIRCLE
  5
162
100
AcDbEntity
  8
A3
  6
DASHED
 62
2
100
AcDbCircle
 10
161.3688711667328
 20
19.58762144150961
 30
0.000000000000000
 40
3.000000000000000
  0
CIRCLE
  5
163
100
AcDbEntity
  8
A3
  6
DASHED
 62
2
100
AcDbCircle
 10
161.3688711667328
 20
19.58762144150961
 30
0.000000000000000
 40
1.500000000000000
  0
LINE
  5
164
100
AcDbEntity
  8
A1
  6
CONTINUOUS
 62
7
100
AcDbLine
 10
166.0688711667329
 20
19.58762144150825
 30
0.000000000000000
 11
166.0688711667329
 21
16.58762144151007
 31
0.000000000000000
  0
LINE
  5
165
100
AcDbEntity
  8
A1
  6
CONTINUOUS
 62
7
100
AcDbLine
 10
92.66887116673277
 20
16.58762144150965
 30
0.000000000000000
 11
102.0688711667328
 21
16.58762144150970
 31
0.000000000000000
  0
LINE
  5
166
100
AcDbEntity
  8
A1
  6
CONTINUOUS
 62
7
100
AcDbLine
 10
156.6688711667328
 20
16.58762144150998
 30
0.000000000000000
 11
166.0688711667329
 21
16.58762144151003
 31
0.000000000000000
  0
LINE
  5
167
100
AcDbEntity
  8
A1
  6
CONTINUOUS
 62
7
100
AcDbLine
 10
156.6688711667328
 20
19.58762144150961
 30
0.000000000000000
 11
156.6688711667328
 21
16.58762144151007
 31
0.000000000000000
  0
LINE
  5
168
100
AcDbEntity
  8
A1
  6
CONTINUOUS
 62
7
100
AcDbLine
 10
92.36887116673279
 20
19.98762144150973
 30
0.000000000000000
 11
94.39565741726912
 21
19.98762144150975
 31
0.000000000000000
  0
LINE
  5
169
100
AcDbEntity
  8
A1
  6
CONTINUOUS
 62
7
100
AcDbLine
 10
100.3420849161965
 20
19.98762144150978
 30
0.000000000000000
 11
164.3420849161965
 21
19.98762144151012
 31
0.000000000000000
  0
LINE
  5
16A
100
AcDbEntity
  8
A1
  6
CONTINUOUS
 62
7
100
AcDbLine
 10
92.36887116673277
 20
22.28762144150969
 30
0.000000000000000
 11
96.06120148367062
 21
22.28762144150971
 31
0.000000000000000
  0
LINE
  5
16B
100
AcDbEntity
  8
A1
  6
CONTINUOUS
 62
7
100
AcDbLine
 10
102.0688711667328
 20
16.58762144150983
 30
0.000000000000000
 11
102.0688711667328
 21
19.58762144150983
 31
0.000000000000000
  0
LINE
  5
16C
100
AcDbEntity
  8
A1
  6
CONTINUOUS
 62
7
100
AcDbLine
 10
102.0688711667328
 20
19.58762144150961
 30
0.000000000000000
 11
100.3688711667328
 21
19.58762144150961
 31
0.000000000000000
  0
LINE
  5
16D
100
AcDbEntity
  8
A4
  6
CENTER
 62
1
100
AcDbLine
 10
97.36887116673282
 20
12.58762144150961
 30
0.000000000000000
 11
97.36887116673282
 21
26.34758658337051
 31
0.000000000000000
  0
LINE
  5
16E
100
AcDbEntity
  8
A1
  6
CONTINUOUS
 62
7
100
AcDbLine
 10
99.76887116675316
 20
22.68762144151636
 30
0.000000000000000
 11
99.76887116675277
 21
22.28762144150968
 31
0.000000000000000
  0
LINE
  5
16F
100
AcDbEntity
  8
A1
  6
CONTINUOUS
 62
7
100
AcDbLine
 10
94.96887116675322
 20
22.68762144152097
 30
0.000000000000000
 11
94.96887116675283
 21
22.28762144150974
 31
0.000000000000000
  0
LINE
  5
170
100
AcDbEntity
  8
A1
  6
CONTINUOUS
 62
7
100
AcDbLine
 10
94.36887116673282
 20
19.58762144150970
 30
0.000000000000000
 11
92.66887116673254
 21
19.58762144150962
 31
0.000000000000000
  0
LINE
  5
171
100
AcDbEntity
  8
A1
  6
CONTINUOUS
 62
7
100
AcDbLine
 10
158.3688711667328
 20
19.58762144150961
 30
0.000000000000000
 11
156.6688711667326
 21
19.58762144150961
 31
0.000000000000000
  0
LINE
  5
172
100
AcDbEntity
  8
A4
  6
CENTER
 62
1
100
AcDbLine
 10
161.3688711667328
 20
12.58762144150961
 30
0.000000000000000
 11
161.3688711667328
 21
26.34758658337051
 31
0.000000000000000
  0
LINE
  5
173
100
AcDbEntity
  8
A1
  6
CONTINUOUS
 62
7
100
AcDbLine
 10
158.3688711667328
 20
19.58762144150935
 30
0.000000000000000
 11
166.0688711667158
 21
19.58762144150832
 31
0.000000000000000
  0
LINE
  5
174
100
AcDbEntity
  8
A1
  6
CONTINUOUS
 62
7
100
AcDbLine
 10
164.3420849161965
 20
19.98762144151016
 30
0.000000000000000
 11
167.3688711666751
 21
19.98762144151016
 31
0.000000000000000
  0
LINE
  5
175
100
AcDbEntity
  8
A1
  6
CONTINUOUS
 62
7
100
AcDbLine
 10
98.67654084979500
 20
22.28762144150971
 30
0.000000000000000
 11
160.0612014836710
 21
22.28762144151016
 31
0.000000000000000
  0
LINE
  5
176
100
AcDbEntity
  8
A1
  6
CONTINUOUS
 62
7
100
AcDbLine
 10
160.0612014836710
 20
22.28762144151011
 30
0.000000000000000
 11
167.3688711666750
 21
22.28762144151011
 31
0.000000000000000
  0
LINE
  5
177
100
AcDbEntity
  8
A4
  6
CENTER
 62
1
100
AcDbLine
 10
156.8688711667328
 20
19.58762144150961
 30
0.000000000000000
 11
165.8688711667328
 21
19.58762144150961
 31
0.000000000000000
  0
LINE
  5
178
100
AcDbEntity
  8
A1
  6
CONTINUOUS
 62
7
100
AcDbLine
 10
163.7688711667505
 20
19.98762144151011
 30
0.000000000000000
 11
163.7688711667501
 21
19.58762144150862
 31
0.000000000000000
  0
LINE
  5
179
100
AcDbEntity
  8
A1
  6
CONTINUOUS
 62
7
100
AcDbLine
 10
163.7688711667531
 20
22.68762144151646
 30
0.000000000000000
 11
163.7688711667527
 21
22.28762144151011
 31
0.000000000000000
  0
LINE
  5
17A
100
AcDbEntity
  8
A1
  6
CONTINUOUS
 62
7
100
AcDbLine
 10
158.9688711667505
 20
19.98762144151009
 30
0.000000000000000
 11
158.9688711667501
 21
19.58762144150961
 31
0.000000000000000
  0
LINE
  5
17B
100
AcDbEntity
  8
A1
  6
CONTINUOUS
 62
7
100
AcDbLine
 10
158.9688711667532
 20
22.68762144152101
 30
0.000000000000000
 11
158.9688711667528
 21
22.28762144151015
 31
0.000000000000000
  0
LINE
  5
17C
100
AcDbEntity
  8
A1
  6
CONTINUOUS
 62
7
100
AcDbLine
 10
99.76887116675316
 20
1750.181389303220
 30
0.000000000000000
 11
99.76887116675277
 21
1750.581389303227
 31
0.000000000000000
  0
LINE
  5
17D
100
AcDbEntity
  8
A1
  6
CONTINUOUS
 62
7
100
AcDbLine
 10
99.76887116675057
 20
1752.881389303227
 30
0.000000000000000
 11
99.76887116675019
 21
1753.281389303227
 31
0.000000000000000
  0
LINE
  5
17E
100
AcDbEntity
  8
A1
  6
CONTINUOUS
 62
7
100
AcDbLine
 10
94.96887116675322
 20
1750.181389303216
 30
0.000000000000000
 11
94.96887116675283
 21
1750.581389303227
 31
0.000000000000000
  0
LINE
  5
17F
100
AcDbEntity
  8
A1
  6
CONTINUOUS
 62
7
100
AcDbLine
 10
94.96887116675063
 20
1752.881389303227
 30
0.000000000000000
 11
94.96887116675025
 21
1753.281389303227
 31
0.000000000000000
  0
ENDSEC
  0
SECTION
  2
OBJECTS
  0
DICTIONARY
  5
1B0
100
AcDbDictionary
  3
ACAD_GROUP
350
1B1
  3
ACAD_LAYOUT
350
1B2
  3
ACAD_MLINESTYLE
350
1B3
  0
DICTIONARY
  5
1B1
102
{ACAD_REACTORS
330
1B0
102
}
330
1B0
100
AcDbDictionary
  0
DICTIONARY
  5
1B2
102
{ACAD_REACTORS
330
1B0
102
}
330
1B0
100
AcDbDictionary
  3
Model
350
1B4
  3
ﾚｲｱｳﾄ1
350
1B5
  3
ﾚｲｱｳﾄ2
350
1B6
  0
DICTIONARY
  5
1B3
102
{ACAD_REACTORS
330
1B0
102
}
330
1B0
100
AcDbDictionary
  3
STANDARD
350
1B7
  0
LAYOUT
  5
1B4
102
{ACAD_REACTORS
330
1B2
102
}
330
1B2
100
AcDbPlotSettings
 70
11952
  4
A3
 44
297.000000
 45
420.000000
 73
  1
 72
  1
100
AcDbLayout
  1
Model
 71
0
330
1A7
  0
LAYOUT
  5
1B5
102
{ACAD_REACTORS
330
1B2
102
}
330
1B2
100
AcDbPlotSettings
100
AcDbLayout
  1
ﾚｲｱｳﾄ1
 71
1
330
1A8
  0
LAYOUT
  5
1B6
102
{ACAD_REACTORS
330
1B2
102
}
330
1B2
100
AcDbPlotSettings
100
AcDbLayout
  1
ﾚｲｱｳﾄ2
 71
2
330
1A9
  0
MLINESTYLE
  5
1B7
102
{ACAD_REACTORS
330
1B3
102
}
330
1B3
100
AcDbMlineStyle
  2
STANDARD
 70
     0
  3

 62
   256
 51
90.00
 52
90.00
 71
     2
 49
0.50
 62
   256
  6
BYLAYER
 49
-0.50
 62
   256
  6
BYLAYER
  0
ENDSEC
  0
EOF
