  0
SECTION
  2
HEADER
  9
$ACADVER
  1
AC1015
  9
$ACADMAINTVER
 70
    20
  9
$DWGCODEPAGE
  3
ANSI_932
  9
$INSBASE
 10
0.0
 20
0.0
 30
0.0
  9
$EXTMIN
 10
9.985253999999999
 20
9.999999999999998
 30
0.0
  9
$EXTMAX
 10
435.0387539999998
 20
777.831639
 30
0.0
  9
$LIMMIN
 10
0.0
 20
0.0
  9
$LIMMAX
 10
1131.4
 20
779.980303
  9
$ORTHOMODE
 70
     1
  9
$REGENMODE
 70
     1
  9
$FILLMODE
 70
     1
  9
$QTEXTMODE
 70
     0
  9
$MIRRTEXT
 70
     1
  9
$LTSCALE
 40
20.0
  9
$ATTMODE
 70
     1
  9
$TEXTSIZE
 40
5.0
  9
$TRACEWID
 40
1.0
  9
$TEXTSTYLE
  7
STANDARD
  9
$CLAYER
  8
0
  9
$CELTYPE
  6
BYLAYER
  9
$CECOLOR
 62
   256
  9
$CELTSCALE
 40
1.0
  9
$DISPSILH
 70
     0
  9
$DIMSCALE
 40
1.0
  9
$DIMASZ
 40
3.0
  9
$DIMEXO
 40
1.0
  9
$DIMDLI
 40
10.0
  9
$DIMRND
 40
0.0
  9
$DIMDLE
 40
0.0
  9
$DIMEXE
 40
1.0
  9
$DIMTP
 40
0.0
  9
$DIMTM
 40
0.0
  9
$DIMTXT
 40
3.2
  9
$DIMCEN
 40
0.0
  9
$DIMTSZ
 40
0.0
  9
$DIMTOL
 70
     0
  9
$DIMLIM
 70
     0
  9
$DIMTIH
 70
     0
  9
$DIMTOH
 70
     0
  9
$DIMSE1
 70
     0
  9
$DIMSE2
 70
     0
  9
$DIMTAD
 70
     3
  9
$DIMZIN
 70
     8
  9
$DIMBLK
  1

  9
$DIMASO
 70
     1
  9
$DIMSHO
 70
     1
  9
$DIMPOST
  1

  9
$DIMAPOST
  1

  9
$DIMALT
 70
     0
  9
$DIMALTD
 70
     2
  9
$DIMALTF
 40
25.4
  9
$DIMLFAC
 40
1.0
  9
$DIMTOFL
 70
     1
  9
$DIMTVP
 40
0.0
  9
$DIMTIX
 70
     0
  9
$DIMSOXD
 70
     0
  9
$DIMSAH
 70
     1
  9
$DIMBLK1
  1

  9
$DIMBLK2
  1

  9
$DIMSTYLE
  2
STANDARD
  9
$DIMCLRD
 70
     0
  9
$DIMCLRE
 70
     0
  9
$DIMCLRT
 70
     0
  9
$DIMTFAC
 40
1.0
  9
$DIMGAP
 40
1.0
  9
$DIMJUST
 70
     0
  9
$DIMSD1
 70
     0
  9
$DIMSD2
 70
     0
  9
$DIMTOLJ
 70
     1
  9
$DIMTZIN
 70
     0
  9
$DIMALTZ
 70
     0
  9
$DIMALTTZ
 70
     0
  9
$DIMUPT
 70
     0
  9
$DIMDEC
 70
     4
  9
$DIMTDEC
 70
     4
  9
$DIMALTU
 70
     2
  9
$DIMALTTD
 70
     2
  9
$DIMTXSTY
  7
STANDARD
  9
$DIMAUNIT
 70
     0
  9
$DIMADEC
 70
     0
  9
$DIMALTRND
 40
0.0
  9
$DIMAZIN
 70
     0
  9
$DIMDSEP
 70
    46
  9
$DIMATFIT
 70
     3
  9
$DIMFRAC
 70
     0
  9
$DIMLDRBLK
  1

  9
$DIMLUNIT
 70
     2
  9
$DIMLWD
 70
    -2
  9
$DIMLWE
 70
    -2
  9
$DIMTMOVE
 70
     0
  9
$LUNITS
 70
     2
  9
$LUPREC
 70
     4
  9
$SKETCHINC
 40
1.0
  9
$FILLETRAD
 40
1.199999999999999
  9
$AUNITS
 70
     0
  9
$AUPREC
 70
     2
  9
$MENU
  1
.
  9
$ELEVATION
 40
0.0
  9
$PELEVATION
 40
0.0
  9
$THICKNESS
 40
0.0
  9
$LIMCHECK
 70
     0
  9
$CHAMFERA
 40
10.0
  9
$CHAMFERB
 40
10.0
  9
$CHAMFERC
 40
0.0
  9
$CHAMFERD
 40
0.0
  9
$SKPOLY
 70
     0
  9
$TDCREATE
 40
2450737.659814005
  9
$TDUCREATE
 40
2450737.284814005
  9
$TDUPDATE
 40
2457192.640107269
  9
$TDUUPDATE
 40
2457192.265107269
  9
$TDINDWG
 40
0.0000165394
  9
$TDUSRTIMER
 40
0.0000160417
  9
$USRTIMER
 70
     1
  9
$ANGBASE
 50
0.0
  9
$ANGDIR
 70
     0
  9
$PDMODE
 70
     0
  9
$PDSIZE
 40
0.0
  9
$PLINEWID
 40
0.0
  9
$SPLFRAME
 70
     0
  9
$SPLINETYPE
 70
     6
  9
$SPLINESEGS
 70
     8
  9
$HANDSEED
  5
955D
  9
$SURFTAB1
 70
     6
  9
$SURFTAB2
 70
     6
  9
$SURFTYPE
 70
     6
  9
$SURFU
 70
     6
  9
$SURFV
 70
     6
  9
$UCSBASE
  2

  9
$UCSNAME
  2

  9
$UCSORG
 10
0.0
 20
0.0
 30
0.0
  9
$UCSXDIR
 10
1.0
 20
0.0
 30
0.0
  9
$UCSYDIR
 10
0.0
 20
1.0
 30
0.0
  9
$UCSORTHOREF
  2

  9
$UCSORTHOVIEW
 70
     0
  9
$UCSORGTOP
 10
0.0
 20
0.0
 30
0.0
  9
$UCSORGBOTTOM
 10
0.0
 20
0.0
 30
0.0
  9
$UCSORGLEFT
 10
0.0
 20
0.0
 30
0.0
  9
$UCSORGRIGHT
 10
0.0
 20
0.0
 30
0.0
  9
$UCSORGFRONT
 10
0.0
 20
0.0
 30
0.0
  9
$UCSORGBACK
 10
0.0
 20
0.0
 30
0.0
  9
$PUCSBASE
  2

  9
$PUCSNAME
  2

  9
$PUCSORG
 10
0.0
 20
0.0
 30
0.0
  9
$PUCSXDIR
 10
1.0
 20
0.0
 30
0.0
  9
$PUCSYDIR
 10
0.0
 20
1.0
 30
0.0
  9
$PUCSORTHOREF
  2

  9
$PUCSORTHOVIEW
 70
     0
  9
$PUCSORGTOP
 10
0.0
 20
0.0
 30
0.0
  9
$PUCSORGBOTTOM
 10
0.0
 20
0.0
 30
0.0
  9
$PUCSORGLEFT
 10
0.0
 20
0.0
 30
0.0
  9
$PUCSORGRIGHT
 10
0.0
 20
0.0
 30
0.0
  9
$PUCSORGFRONT
 10
0.0
 20
0.0
 30
0.0
  9
$PUCSORGBACK
 10
0.0
 20
0.0
 30
0.0
  9
$USERI1
 70
     0
  9
$USERI2
 70
     0
  9
$USERI3
 70
     0
  9
$USERI4
 70
     0
  9
$USERI5
 70
     0
  9
$USERR1
 40
0.0
  9
$USERR2
 40
0.0
  9
$USERR3
 40
0.0
  9
$USERR4
 40
0.0
  9
$USERR5
 40
0.0
  9
$WORLDVIEW
 70
     1
  9
$SHADEDGE
 70
     3
  9
$SHADEDIF
 70
    70
  9
$TILEMODE
 70
     1
  9
$MAXACTVP
 70
    16
  9
$PINSBASE
 10
0.0
 20
0.0
 30
0.0
  9
$PLIMCHECK
 70
     0
  9
$PEXTMIN
 10
1.000000000000000E+20
 20
1.000000000000000E+20
 30
1.000000000000000E+20
  9
$PEXTMAX
 10
-1.000000000000000E+20
 20
-1.000000000000000E+20
 30
-1.000000000000000E+20
  9
$PLIMMIN
 10
0.0
 20
0.0
  9
$PLIMMAX
 10
420.0
 20
297.0
  9
$UNITMODE
 70
     0
  9
$VISRETAIN
 70
     0
  9
$PLINEGEN
 70
     0
  9
$PSLTSCALE
 70
     0
  9
$TREEDEPTH
 70
  3020
  9
$CMLSTYLE
  2
STANDARD
  9
$CMLJUST
 70
     0
  9
$CMLSCALE
 40
1.0
  9
$PROXYGRAPHICS
 70
     1
  9
$MEASUREMENT
 70
     0
  9
$CELWEIGHT
370
    -1
  9
$ENDCAPS
280
     0
  9
$JOINSTYLE
280
     0
  9
$LWDISPLAY
290
     0
  9
$INSUNITS
 70
     0
  9
$HYPERLINKBASE
  1

  9
$STYLESHEET
  1

  9
$XEDIT
290
     1
  9
$CEPSNTYPE
380
     0
  9
$PSTYLEMODE
290
     1
  9
$FINGERPRINTGUID
  2
{AFCCF4B9-6DD6-4802-AEF9-F8F96B9D554D}
  9
$VERSIONGUID
  2
{A6290163-7A16-4C8C-8122-D4CD5A49EE16}
  9
$EXTNAMES
290
     1
  9
$PSVPSCALE
 40
0.0
  9
$OLESTARTUP
290
     0
  0
ENDSEC
  0
SECTION
  2
CLASSES
  0
CLASS
  1
ACDBDICTIONARYWDFLT
  2
AcDbDictionaryWithDefault
  3
ObjectDBX Classes
 90
        0
280
     0
281
     0
  0
CLASS
  1
ACDBPLACEHOLDER
  2
AcDbPlaceHolder
  3
ObjectDBX Classes
 90
        0
280
     0
281
     0
  0
CLASS
  1
LAYOUT
  2
AcDbLayout
  3
ObjectDBX Classes
 90
        0
280
     0
281
     0
  0
CLASS
  1
DICTIONARYVAR
  2
AcDbDictionaryVar
  3
ObjectDBX Classes
 90
        0
280
     0
281
     0
  0
CLASS
  1
MATERIAL
  2
AcDbMaterial
  3
ObjectDBX Classes
 90
     1153
280
     0
281
     0
  0
CLASS
  1
VISUALSTYLE
  2
AcDbVisualStyle
  3
ObjectDBX Classes
 90
     4095
280
     0
281
     0
  0
CLASS
  1
TABLESTYLE
  2
AcDbTableStyle
  3
ObjectDBX Classes
 90
     4095
280
     0
281
     0
  0
CLASS
  1
SCALE
  2
AcDbScale
  3
ObjectDBX Classes
 90
     1153
280
     0
281
     0
  0
CLASS
  1
MLEADERSTYLE
  2
AcDbMLeaderStyle
  3
ACDB_MLEADERSTYLE_CLASS
 90
     4095
280
     0
281
     0
  0
CLASS
  1
ACDBSECTIONVIEWSTYLE
  2
AcDbSectionViewStyle
  3
ObjectDBX Classes
 90
     1025
280
     0
281
     0
  0
CLASS
  1
ACDBDETAILVIEWSTYLE
  2
AcDbDetailViewStyle
  3
ObjectDBX Classes
 90
     1025
280
     0
281
     0
  0
CLASS
  1
CELLSTYLEMAP
  2
AcDbCellStyleMap
  3
ObjectDBX Classes
 90
     1152
280
     0
281
     0
  0
ENDSEC
  0
SECTION
  2
TABLES
  0
TABLE
  2
VPORT
  5
9288
330
0
100
AcDbSymbolTable
 70
     1
  0
VPORT
  5
94A6
330
9288
100
AcDbSymbolTableRecord
100
AcDbViewportTableRecord
  2
*ACTIVE
 70
     0
 10
0.0
 20
0.0
 11
1.0
 21
1.0
 12
455.1184552475945
 22
393.9176664430114
 13
0.0
 23
0.0
 14
10.0
 24
10.0
 15
10.0
 25
10.0
 16
0.0
 26
0.0
 36
1.0
 17
0.0
 27
0.0
 37
0.0
 40
776.4767069297887
 41
1.899603698811096
 42
50.0
 43
0.0
 44
0.0
 50
0.0
 51
0.0
 71
     0
 72
   100
 73
     1
 74
     0
 75
     0
 76
     0
 77
     0
 78
     0
281
     0
 65
     1
110
0.0
120
0.0
130
0.0
111
1.0
121
0.0
131
0.0
112
0.0
122
1.0
132
0.0
 79
     0
146
0.0
1001
ACAD_NAV_VCDISPLAY
1070
     3
  0
ENDTAB
  0
TABLE
  2
LTYPE
  5
9285
330
0
100
AcDbSymbolTable
 70
     4
  0
LTYPE
  5
9293
330
9285
100
AcDbSymbolTableRecord
100
AcDbLinetypeTableRecord
  2
BYBLOCK
 70
     0
  3

 72
    65
 73
     0
 40
0.0
  0
LTYPE
  5
9294
330
9285
100
AcDbSymbolTableRecord
100
AcDbLinetypeTableRecord
  2
BYLAYER
 70
     0
  3

 72
    65
 73
     0
 40
0.0
  0
LTYPE
  5
9295
330
9285
100
AcDbSymbolTableRecord
100
AcDbLinetypeTableRecord
  2
CONTINUOUS
 70
     0
  3
Solid line
 72
    65
 73
     0
 40
0.0
  0
LTYPE
  5
92A3
330
9285
100
AcDbSymbolTableRecord
100
AcDbLinetypeTableRecord
  2
DASHED
 70
     0
  3
__ __ __ __ __ __ __ __ __ __ __ __ __ __ __ __
 72
    65
 73
     2
 40
0.75
 49
0.5
 74
     0
 49
-0.25
 74
     0
  0
LTYPE
  5
92A4
330
9285
100
AcDbSymbolTableRecord
100
AcDbLinetypeTableRecord
  2
CENTER
 70
     0
  3
____ _ ____ _ ____ _ ____ _ ____ _ ____ _ ____ 
 72
    65
 73
     4
 40
2.0
 49
1.25
 74
     0
 49
-0.25
 74
     0
 49
0.25
 74
     0
 49
-0.25
 74
     0
  0
LTYPE
  5
92A5
330
9285
100
AcDbSymbolTableRecord
100
AcDbLinetypeTableRecord
  2
PHANTOM
 70
     0
  3
______  __  __  ______  __  __  ______  __  __ 
 72
    65
 73
     6
 40
2.5
 49
1.25
 74
     0
 49
-0.25
 74
     0
 49
0.25
 74
     0
 49
-0.25
 74
     0
 49
0.25
 74
     0
 49
-0.25
 74
     0
  0
ENDTAB
  0
TABLE
  2
LAYER
  5
9282
330
0
100
AcDbSymbolTable
 70
     8
  0
LAYER
  5
9290
102
{ACAD_XDICTIONARY
360
9501
102
}
330
9282
100
AcDbSymbolTableRecord
100
AcDbLayerTableRecord
  2
0
 70
     0
 62
     7
  6
CONTINUOUS
370
    -3
390
94AF
  0
LAYER
  5
92A6
102
{ACAD_XDICTIONARY
360
9503
102
}
330
9282
100
AcDbSymbolTableRecord
100
AcDbLayerTableRecord
  2
4
 70
     0
 62
     1
  6
CENTER
370
    -3
390
94AF
  0
LAYER
  5
92A7
102
{ACAD_XDICTIONARY
360
9505
102
}
330
9282
100
AcDbSymbolTableRecord
100
AcDbLayerTableRecord
  2
5
 70
     0
 62
     6
  6
PHANTOM
370
    -3
390
94AF
  0
LAYER
  5
92A8
102
{ACAD_XDICTIONARY
360
9507
102
}
330
9282
100
AcDbSymbolTableRecord
100
AcDbLayerTableRecord
  2
1
 70
     0
 62
     7
  6
CONTINUOUS
370
    -3
390
94AF
  0
LAYER
  5
92A9
102
{ACAD_XDICTIONARY
360
9509
102
}
330
9282
100
AcDbSymbolTableRecord
100
AcDbLayerTableRecord
  2
2
 70
     0
 62
     4
  6
CONTINUOUS
370
    -3
390
94AF
  0
LAYER
  5
92AA
102
{ACAD_XDICTIONARY
360
950B
102
}
330
9282
100
AcDbSymbolTableRecord
100
AcDbLayerTableRecord
  2
3
 70
     0
 62
     2
  6
DASHED
370
    -3
390
94AF
  0
LAYER
  5
92AB
102
{ACAD_XDICTIONARY
360
950D
102
}
330
9282
100
AcDbSymbolTableRecord
100
AcDbLayerTableRecord
  2
6
 70
     0
 62
     5
  6
CONTINUOUS
370
    -3
390
94AF
  0
LAYER
  5
92AC
102
{ACAD_XDICTIONARY
360
950F
102
}
330
9282
100
AcDbSymbolTableRecord
100
AcDbLayerTableRecord
  2
7
 70
     0
 62
     3
  6
CONTINUOUS
370
    -3
390
94AF
  0
ENDTAB
  0
TABLE
  2
STYLE
  5
9283
330
0
100
AcDbSymbolTable
 70
     1
  0
STYLE
  5
9291
330
9283
100
AcDbSymbolTableRecord
100
AcDbTextStyleTableRecord
  2
STANDARD
 70
     0
 40
0.0
 41
1.0
 50
0.0
 71
     0
 42
5.0
  3
txt
  4

  0
ENDTAB
  0
TABLE
  2
VIEW
  5
9286
330
0
100
AcDbSymbolTable
 70
     0
  0
ENDTAB
  0
TABLE
  2
UCS
  5
9287
330
0
100
AcDbSymbolTable
 70
     0
  0
ENDTAB
  0
TABLE
  2
APPID
  5
9289
330
0
100
AcDbSymbolTable
 70
     3
  0
APPID
  5
9292
330
9289
100
AcDbSymbolTableRecord
100
AcDbRegAppTableRecord
  2
ACAD
 70
     0
  0
APPID
  5
951B
330
9289
100
AcDbSymbolTableRecord
100
AcDbRegAppTableRecord
  2
ACAD_NAV_VCDISPLAY
 70
     0
  0
APPID
  5
9554
330
9289
100
AcDbSymbolTableRecord
100
AcDbRegAppTableRecord
  2
ACAD_MLEADERVER
 70
     0
  0
ENDTAB
  0
TABLE
  2
DIMSTYLE
  5
928A
330
0
100
AcDbSymbolTable
 70
     1
100
AcDbDimStyleTable
 71
     0
  0
DIMSTYLE
105
92AE
330
928A
100
AcDbSymbolTableRecord
100
AcDbDimStyleTableRecord
  2
STANDARD
 70
     0
 41
3.0
 42
1.0
 43
10.0
 44
1.0
 73
     0
 74
     0
 77
     3
 78
     8
140
3.2
141
0.0
147
1.0
172
     1
173
     1
284
     8
285
     8
286
     8
340
9291
  0
ENDTAB
  0
TABLE
  2
BLOCK_RECORD
  5
9281
330
0
100
AcDbSymbolTable
 70
     0
  0
BLOCK_RECORD
  5
929E
102
{ACAD_XDICTIONARY
360
94A9
102
}
330
9281
100
AcDbSymbolTableRecord
100
AcDbBlockTableRecord
  2
*MODEL_SPACE
340
94FD
  0
BLOCK_RECORD
  5
929A
102
{ACAD_XDICTIONARY
360
94A7
102
}
330
9281
100
AcDbSymbolTableRecord
100
AcDbBlockTableRecord
  2
*PAPER_SPACE
340
94FE
  0
ENDTAB
  0
ENDSEC
  0
SECTION
  2
BLOCKS
  0
BLOCK
  5
929F
330
929E
100
AcDbEntity
  8
0
100
AcDbBlockBegin
  2
*MODEL_SPACE
 70
     0
 10
0.0
 20
0.0
 30
0.0
  3
*MODEL_SPACE
  1

  0
ENDBLK
  5
92A0
330
929E
100
AcDbEntity
  8
0
100
AcDbBlockEnd
  0
BLOCK
  5
929B
330
929A
100
AcDbEntity
 67
     1
  8
0
100
AcDbBlockBegin
  2
*PAPER_SPACE
 70
     0
 10
0.0
 20
0.0
 30
0.0
  3
*PAPER_SPACE
  1

  0
ENDBLK
  5
929C
330
929A
100
AcDbEntity
 67
     1
  8
0
100
AcDbBlockEnd
  0
ENDSEC
  0
SECTION
  2
ENTITIES
  0
TEXT
  5
92B6
330
929E
100
AcDbEntity
  8
7
  6
Continuous
100
AcDbText
 10
10.0
 20
18.0
 30
0.0
 40
3.0
  1
TYPE No.THA-280-2
100
AcDbText
  0
TEXT
  5
92B7
330
929E
100
AcDbEntity
  8
7
  6
Continuous
100
AcDbText
 10
10.0
 20
26.0
 30
0.0
 40
3.0
  1
CODE No.3235
100
AcDbText
  0
TEXT
  5
92B8
330
929E
100
AcDbEntity
  8
1
  6
Continuous
100
AcDbText
 10
10.0
 20
10.0
 30
0.0
 40
1.399999999999999
  1
LAYER
100
AcDbText
  0
TEXT
  5
92B9
330
929E
100
AcDbEntity
  8
1
  6
Continuous
100
AcDbText
 10
17.97951099999998
 20
10.04873699999998
 30
0.0
 40
1.399999999999999
  1
1
100
AcDbText
  0
TEXT
  5
92BA
330
929E
100
AcDbEntity
  8
7
  6
Continuous
100
AcDbText
 10
29.97951099999999
 20
10.04873699999998
 30
0.0
 40
1.399999999999999
  1
7
100
AcDbText
  0
TEXT
  5
92BB
330
929E
100
AcDbEntity
  8
4
  6
CENTER
100
AcDbText
 10
23.97951099999999
 20
10.04873699999998
 30
0.0
 40
1.399999999999999
  1
4
100
AcDbText
  0
TEXT
  5
92BC
330
929E
100
AcDbEntity
  8
3
  6
DASHED
100
AcDbText
 10
21.979511
 20
10.04873699999998
 30
0.0
 40
1.399999999999999
  1
3
100
AcDbText
  0
TEXT
  5
92BD
330
929E
100
AcDbEntity
  8
2
  6
Continuous
100
AcDbText
 10
19.97951099999999
 20
10.04873699999998
 30
0.0
 40
1.399999999999999
  1
2
100
AcDbText
  0
TEXT
  5
92BE
330
929E
100
AcDbEntity
  8
6
  6
Continuous
100
AcDbText
 10
27.979511
 20
10.04873699999998
 30
0.0
 40
1.399999999999999
  1
6
100
AcDbText
  0
TEXT
  5
92BF
330
929E
100
AcDbEntity
  8
5
  6
PHANTOM
100
AcDbText
 10
25.97951099999999
 20
10.04873699999998
 30
0.0
 40
1.399999999999999
  1
5
100
AcDbText
  0
LINE
  5
92C0
330
929E
100
AcDbEntity
  8
1
  6
Continuous
100
AcDbLine
 10
118.9307539999999
 20
390.023639
 30
0.0
 11
185.430754
 21
390.023639
 31
0.0
  0
LINE
  5
92C1
330
929E
100
AcDbEntity
  8
1
  6
Continuous
100
AcDbLine
 10
113.430754
 20
384.523639
 30
0.0
 11
113.430754
 21
333.5236389999999
 31
0.0
  0
LINE
  5
92C2
330
929E
100
AcDbEntity
  8
1
  6
Continuous
100
AcDbLine
 10
118.9307539999999
 20
328.023639
 30
0.0
 11
185.430754
 21
328.023639
 31
0.0
  0
LINE
  5
92C3
330
929E
100
AcDbEntity
  8
1
  6
Continuous
100
AcDbLine
 10
193.430754
 20
382.023639
 30
0.0
 11
193.430754
 21
336.023639
 31
0.0
  0
LINE
  5
92C4
330
929E
100
AcDbEntity
  8
1
  6
Continuous
100
AcDbLine
 10
247.236754
 20
385.023639
 30
0.0
 11
247.236754
 21
333.023639
 31
0.0
  0
LINE
  5
92C5
330
929E
100
AcDbEntity
  8
1
  6
Continuous
100
AcDbLine
 10
250.2367539999999
 20
390.023639
 30
0.0
 11
250.2367539999999
 21
328.023639
 31
0.0
  0
LINE
  5
92C6
330
929E
100
AcDbEntity
  8
4
  6
CENTER
100
AcDbLine
 10
106.0717539999999
 20
359.023639
 30
0.0
 11
210.6237539999999
 21
359.023639
 31
0.0
  0
LINE
  5
92C7
330
929E
100
AcDbEntity
  8
1
  6
Continuous
100
AcDbLine
 10
122.9307539999999
 20
337.023639
 30
0.0
 11
181.930754
 21
337.023639
 31
0.0
  0
LINE
  5
92C8
330
929E
100
AcDbEntity
  8
1
  6
Continuous
100
AcDbLine
 10
122.9307539999999
 20
381.023639
 30
0.0
 11
181.930754
 21
381.023639
 31
0.0
  0
LINE
  5
92C9
330
929E
100
AcDbEntity
  8
4
  6
CENTER
100
AcDbLine
 10
127.4307539999999
 20
395.350639
 30
0.0
 11
127.4307539999999
 21
322.4046389999998
 31
0.0
  0
LINE
  5
92CA
330
929E
100
AcDbEntity
  8
1
  6
Continuous
100
AcDbLine
 10
120.430754
 20
378.523639
 30
0.0
 11
120.430754
 21
339.5236389999999
 31
0.0
  0
LINE
  5
92CB
330
929E
100
AcDbEntity
  8
1
  6
Continuous
100
AcDbLine
 10
185.430754
 20
377.5236389999998
 30
0.0
 11
185.430754
 21
340.523639
 31
0.0
  0
LINE
  5
92CC
330
929E
100
AcDbEntity
  8
1
  6
Continuous
100
AcDbLine
 10
118.430754
 20
719.813639
 30
0.0
 11
188.430754
 21
719.813639
 31
0.0
  0
LINE
  5
92CD
330
929E
100
AcDbEntity
  8
1
  6
Continuous
100
AcDbLine
 10
113.430754
 20
722.8136389999997
 30
0.0
 11
193.430754
 21
722.8136389999997
 31
0.0
  0
LINE
  5
92CE
330
929E
100
AcDbEntity
  8
4
  6
CENTER
100
AcDbLine
 10
127.4307539999999
 20
722.0636389999997
 30
0.0
 11
127.4307539999999
 21
730.0636389999997
 31
0.0
  0
LINE
  5
92CF
330
929E
100
AcDbEntity
  8
4
  6
CENTER
100
AcDbLine
 10
123.4307539999999
 20
726.0636389999997
 30
0.0
 11
131.430754
 21
726.0636389999997
 31
0.0
  0
LINE
  5
92D0
330
929E
100
AcDbEntity
  8
1
  6
Continuous
100
AcDbLine
 10
117.9307539999999
 20
739.8136389999997
 30
0.0
 11
139.2487539999999
 21
739.8136389999997
 31
0.0
  0
LINE
  5
92D1
330
929E
100
AcDbEntity
  8
1
  6
Continuous
100
AcDbLine
 10
117.9307539999999
 20
722.8136389999997
 30
0.0
 11
117.9307539999999
 21
739.8136389999997
 31
0.0
  0
LINE
  5
92D2
330
929E
100
AcDbEntity
  8
1
  6
Continuous
100
AcDbLine
 10
183.3267539999999
 20
732.9046389999997
 30
0.0
 11
186.9987539999999
 21
722.8136389999997
 31
0.0
  0
LINE
  5
92D3
330
929E
100
AcDbEntity
  8
4
  6
CENTER
100
AcDbLine
 10
241.5127539999998
 20
359.023639
 30
0.0
 11
273.8707539999999
 21
359.023639
 31
0.0
  0
LINE
  5
92D4
330
929E
100
AcDbEntity
  8
4
  6
CENTER
100
AcDbLine
 10
253.486754
 20
394.982639
 30
0.0
 11
253.486754
 21
324.244639
 31
0.0
  0
LINE
  5
92D5
330
929E
100
AcDbEntity
  8
1
  6
Continuous
100
AcDbLine
 10
267.236754
 20
384.023639
 30
0.0
 11
267.236754
 21
334.023639
 31
0.0
  0
LINE
  5
92D6
330
929E
100
AcDbEntity
  8
1
  6
Continuous
100
AcDbLine
 10
250.2367539999999
 20
334.023639
 30
0.0
 11
267.236754
 21
334.023639
 31
0.0
  0
LINE
  5
92D7
330
929E
100
AcDbEntity
  8
1
  6
Continuous
100
AcDbLine
 10
250.2367539999999
 20
384.023639
 30
0.0
 11
267.236754
 21
384.023639
 31
0.0
  0
LINE
  5
92D8
330
929E
100
AcDbEntity
  8
1
  6
Continuous
100
AcDbLine
 10
421.542754
 20
390.023639
 30
0.0
 11
385.992754
 21
390.023639
 31
0.0
  0
LINE
  5
92D9
330
929E
100
AcDbEntity
  8
1
  6
Continuous
100
AcDbLine
 10
421.542754
 20
328.023639
 30
0.0
 11
385.992754
 21
328.023639
 31
0.0
  0
LINE
  5
92DA
330
929E
100
AcDbEntity
  8
1
  6
Continuous
100
AcDbLine
 10
347.042754
 20
382.023639
 30
0.0
 11
347.042754
 21
336.023639
 31
0.0
  0
LINE
  5
92DB
330
929E
100
AcDbEntity
  8
4
  6
CENTER
100
AcDbLine
 10
435.0387539999998
 20
359.023639
 30
0.0
 11
340.817754
 21
359.023639
 31
0.0
  0
LINE
  5
92DC
330
929E
100
AcDbEntity
  8
4
  6
CENTER
100
AcDbLine
 10
413.042754
 20
395.350639
 30
0.0
 11
413.042754
 21
322.4046389999998
 31
0.0
  0
LINE
  5
92DD
330
929E
100
AcDbEntity
  8
1
  6
Continuous
100
AcDbLine
 10
422.542754
 20
384.023639
 30
0.0
 11
421.042754
 21
384.023639
 31
0.0
  0
LINE
  5
92DE
330
929E
100
AcDbEntity
  8
1
  6
Continuous
100
AcDbLine
 10
422.542754
 20
334.023639
 30
0.0
 11
421.042754
 21
334.023639
 31
0.0
  0
LINE
  5
92DF
330
929E
100
AcDbEntity
  8
1
  6
Continuous
100
AcDbLine
 10
353.474754
 20
379.823639
 30
0.0
 11
353.474754
 21
338.223639
 31
0.0
  0
LINE
  5
92E0
330
929E
100
AcDbEntity
  8
5
  6
PHANTOM
100
AcDbLine
 10
123.822754
 20
719.813639
 30
0.0
 11
139.267754
 21
693.0606389999996
 31
0.0
  0
LINE
  5
92E1
330
929E
100
AcDbEntity
  8
5
  6
PHANTOM
100
AcDbLine
 10
128.598754
 20
717.5406389999999
 30
0.0
 11
141.929754
 21
694.4496389999997
 31
0.0
  0
LINE
  5
92E2
330
929E
100
AcDbEntity
  8
1
  6
Continuous
100
AcDbLine
 10
166.430754
 20
377.0236389999998
 30
0.0
 11
166.430754
 21
341.023639
 31
0.0
  0
LINE
  5
92E3
330
929E
100
AcDbEntity
  8
1
  6
Continuous
100
AcDbLine
 10
121.9307539999999
 20
379.023639
 30
0.0
 11
121.9307539999999
 21
339.023639
 31
0.0
  0
LINE
  5
92E4
330
929E
100
AcDbEntity
  8
1
  6
Continuous
100
AcDbLine
 10
123.4307539999999
 20
380.523639
 30
0.0
 11
162.930754
 21
380.523639
 31
0.0
  0
LINE
  5
92E5
330
929E
100
AcDbEntity
  8
1
  6
Continuous
100
AcDbLine
 10
123.4307539999999
 20
337.5236389999999
 30
0.0
 11
162.930754
 21
337.5236389999999
 31
0.0
  0
LINE
  5
92E6
330
929E
100
AcDbEntity
  8
1
  6
Continuous
100
AcDbLine
 10
179.060754
 20
379.251639
 30
0.0
 11
179.060754
 21
362.084639
 31
0.0
  0
LINE
  5
92E7
330
929E
100
AcDbEntity
  8
1
  6
Continuous
100
AcDbLine
 10
179.060754
 20
355.016639
 30
0.0
 11
179.060754
 21
339.195639
 31
0.0
  0
LINE
  5
92E8
330
929E
100
AcDbEntity
  8
1
  6
Continuous
100
AcDbLine
 10
359.042754
 20
386.523639
 30
0.0
 11
359.042754
 21
331.5236389999999
 31
0.0
  0
LINE
  5
92E9
330
929E
100
AcDbEntity
  8
1
  6
Continuous
100
AcDbLine
 10
421.042754
 20
386.523639
 30
0.0
 11
421.042754
 21
331.5236389999999
 31
0.0
  0
LINE
  5
92EA
330
929E
100
AcDbEntity
  8
1
  6
Continuous
100
AcDbLine
 10
421.042754
 20
386.523639
 30
0.0
 11
359.042754
 21
386.523639
 31
0.0
  0
LINE
  5
92EB
330
929E
100
AcDbEntity
  8
1
  6
Continuous
100
AcDbLine
 10
421.042754
 20
331.5236389999999
 30
0.0
 11
359.042754
 21
331.5236389999999
 31
0.0
  0
LINE
  5
92EC
330
929E
100
AcDbEntity
  8
1
  6
Continuous
100
AcDbLine
 10
359.042754
 20
384.023639
 30
0.0
 11
357.6747539999999
 21
384.023639
 31
0.0
  0
LINE
  5
92ED
330
929E
100
AcDbEntity
  8
1
  6
Continuous
100
AcDbLine
 10
359.042754
 20
334.023639
 30
0.0
 11
357.6747539999999
 21
334.023639
 31
0.0
  0
LINE
  5
92EE
330
929E
100
AcDbEntity
  8
1
  6
Continuous
100
AcDbLine
 10
393.214754
 20
378.8516389999998
 30
0.0
 11
393.720754
 21
379.088639
 31
0.0
  0
LINE
  5
92EF
330
929E
100
AcDbEntity
  8
1
  6
Continuous
100
AcDbLine
 10
393.720754
 20
379.088639
 30
0.0
 11
394.600754
 21
379.1036389999999
 31
0.0
  0
LINE
  5
92F0
330
929E
100
AcDbEntity
  8
1
  6
Continuous
100
AcDbLine
 10
393.7217539999999
 20
379.9586389999998
 30
0.0
 11
394.600754
 21
379.943639
 31
0.0
  0
LINE
  5
92F1
330
929E
100
AcDbEntity
  8
1
  6
Continuous
100
AcDbLine
 10
393.214754
 20
380.195639
 30
0.0
 11
393.720754
 21
379.9586389999998
 31
0.0
  0
LINE
  5
92F2
330
929E
100
AcDbEntity
  8
1
  6
Continuous
100
AcDbLine
 10
391.871754
 20
380.195639
 30
0.0
 11
392.107754
 21
380.701639
 31
0.0
  0
LINE
  5
92F3
330
929E
100
AcDbEntity
  8
1
  6
Continuous
100
AcDbLine
 10
392.107754
 20
380.701639
 30
0.0
 11
392.1227539999999
 21
381.581639
 31
0.0
  0
LINE
  5
92F4
330
929E
100
AcDbEntity
  8
1
  6
Continuous
100
AcDbLine
 10
392.9787539999999
 20
380.701639
 30
0.0
 11
392.962754
 21
381.581639
 31
0.0
  0
LINE
  5
92F5
330
929E
100
AcDbEntity
  8
1
  6
Continuous
100
AcDbLine
 10
393.214754
 20
380.195639
 30
0.0
 11
392.9787539999999
 21
380.701639
 31
0.0
  0
LINE
  5
92F6
330
929E
100
AcDbEntity
  8
1
  6
Continuous
100
AcDbLine
 10
391.871754
 20
378.8516389999998
 30
0.0
 11
391.3647539999999
 21
379.088639
 31
0.0
  0
LINE
  5
92F7
330
929E
100
AcDbEntity
  8
1
  6
Continuous
100
AcDbLine
 10
391.3647539999999
 20
379.088639
 30
0.0
 11
390.485754
 21
379.1036389999999
 31
0.0
  0
LINE
  5
92F8
330
929E
100
AcDbEntity
  8
1
  6
Continuous
100
AcDbLine
 10
391.3647539999999
 20
379.9586389999998
 30
0.0
 11
390.485754
 21
379.943639
 31
0.0
  0
LINE
  5
92F9
330
929E
100
AcDbEntity
  8
1
  6
Continuous
100
AcDbLine
 10
391.871754
 20
380.195639
 30
0.0
 11
391.3647539999999
 21
379.9586389999998
 31
0.0
  0
LINE
  5
92FA
330
929E
100
AcDbEntity
  8
1
  6
Continuous
100
AcDbLine
 10
393.214754
 20
378.8516389999998
 30
0.0
 11
392.9787539999999
 21
378.345639
 31
0.0
  0
LINE
  5
92FB
330
929E
100
AcDbEntity
  8
1
  6
Continuous
100
AcDbLine
 10
392.9787539999999
 20
378.345639
 30
0.0
 11
392.962754
 21
377.465639
 31
0.0
  0
LINE
  5
92FC
330
929E
100
AcDbEntity
  8
1
  6
Continuous
100
AcDbLine
 10
392.107754
 20
378.345639
 30
0.0
 11
392.1227539999999
 21
377.465639
 31
0.0
  0
LINE
  5
92FD
330
929E
100
AcDbEntity
  8
1
  6
Continuous
100
AcDbLine
 10
391.871754
 20
378.8516389999998
 30
0.0
 11
392.107754
 21
378.345639
 31
0.0
  0
LINE
  5
92FE
330
929E
100
AcDbEntity
  8
4
  6
CENTER
100
AcDbLine
 10
398.0427539999998
 20
379.5236389999999
 30
0.0
 11
387.042754
 21
379.5236389999999
 31
0.0
  0
LINE
  5
92FF
330
929E
100
AcDbEntity
  8
4
  6
CENTER
100
AcDbLine
 10
392.542754
 20
385.023639
 30
0.0
 11
392.542754
 21
374.023639
 31
0.0
  0
LINE
  5
9300
330
929E
100
AcDbEntity
  8
1
  6
Continuous
100
AcDbLine
 10
393.214754
 20
337.8516389999999
 30
0.0
 11
393.7217539999999
 21
338.088639
 31
0.0
  0
LINE
  5
9301
330
929E
100
AcDbEntity
  8
1
  6
Continuous
100
AcDbLine
 10
393.720754
 20
338.088639
 30
0.0
 11
394.600754
 21
338.1036389999998
 31
0.0
  0
LINE
  5
9302
330
929E
100
AcDbEntity
  8
1
  6
Continuous
100
AcDbLine
 10
393.7217539999999
 20
338.958639
 30
0.0
 11
394.600754
 21
338.943639
 31
0.0
  0
LINE
  5
9303
330
929E
100
AcDbEntity
  8
1
  6
Continuous
100
AcDbLine
 10
393.214754
 20
339.195639
 30
0.0
 11
393.7217539999999
 21
338.958639
 31
0.0
  0
LINE
  5
9304
330
929E
100
AcDbEntity
  8
1
  6
Continuous
100
AcDbLine
 10
391.871754
 20
339.195639
 30
0.0
 11
392.107754
 21
339.701639
 31
0.0
  0
LINE
  5
9305
330
929E
100
AcDbEntity
  8
1
  6
Continuous
100
AcDbLine
 10
392.107754
 20
339.701639
 30
0.0
 11
392.1227539999999
 21
340.581639
 31
0.0
  0
LINE
  5
9306
330
929E
100
AcDbEntity
  8
1
  6
Continuous
100
AcDbLine
 10
392.9787539999999
 20
339.701639
 30
0.0
 11
392.962754
 21
340.581639
 31
0.0
  0
LINE
  5
9307
330
929E
100
AcDbEntity
  8
1
  6
Continuous
100
AcDbLine
 10
393.214754
 20
339.195639
 30
0.0
 11
392.977754
 21
339.701639
 31
0.0
  0
LINE
  5
9308
330
929E
100
AcDbEntity
  8
1
  6
Continuous
100
AcDbLine
 10
391.871754
 20
337.8516389999999
 30
0.0
 11
391.3647539999999
 21
338.088639
 31
0.0
  0
LINE
  5
9309
330
929E
100
AcDbEntity
  8
1
  6
Continuous
100
AcDbLine
 10
391.3647539999999
 20
338.088639
 30
0.0
 11
390.485754
 21
338.1036389999998
 31
0.0
  0
LINE
  5
930A
330
929E
100
AcDbEntity
  8
1
  6
Continuous
100
AcDbLine
 10
391.3647539999999
 20
338.958639
 30
0.0
 11
390.485754
 21
338.943639
 31
0.0
  0
LINE
  5
930B
330
929E
100
AcDbEntity
  8
1
  6
Continuous
100
AcDbLine
 10
391.8707539999999
 20
339.195639
 30
0.0
 11
391.3647539999999
 21
338.958639
 31
0.0
  0
LINE
  5
930C
330
929E
100
AcDbEntity
  8
1
  6
Continuous
100
AcDbLine
 10
393.214754
 20
337.8516389999999
 30
0.0
 11
392.9787539999999
 21
337.345639
 31
0.0
  0
LINE
  5
930D
330
929E
100
AcDbEntity
  8
1
  6
Continuous
100
AcDbLine
 10
392.9787539999999
 20
337.345639
 30
0.0
 11
392.962754
 21
336.465639
 31
0.0
  0
LINE
  5
930E
330
929E
100
AcDbEntity
  8
1
  6
Continuous
100
AcDbLine
 10
392.107754
 20
337.345639
 30
0.0
 11
392.1227539999999
 21
336.465639
 31
0.0
  0
LINE
  5
930F
330
929E
100
AcDbEntity
  8
1
  6
Continuous
100
AcDbLine
 10
391.871754
 20
337.8516389999999
 30
0.0
 11
392.107754
 21
337.345639
 31
0.0
  0
LINE
  5
9310
330
929E
100
AcDbEntity
  8
4
  6
CENTER
100
AcDbLine
 10
398.0427539999998
 20
338.523639
 30
0.0
 11
387.042754
 21
338.523639
 31
0.0
  0
LINE
  5
9311
330
929E
100
AcDbEntity
  8
4
  6
CENTER
100
AcDbLine
 10
392.542754
 20
344.0236389999999
 30
0.0
 11
392.542754
 21
333.023639
 31
0.0
  0
LINE
  5
9312
330
929E
100
AcDbEntity
  8
1
  6
Continuous
100
AcDbLine
 10
275.075754
 20
331.5236389999999
 30
0.0
 11
292.075754
 21
331.5236389999999
 31
0.0
  0
LINE
  5
9313
330
929E
100
AcDbEntity
  8
1
  6
Continuous
100
AcDbLine
 10
275.075754
 20
386.523639
 30
0.0
 11
292.075754
 21
386.523639
 31
0.0
  0
LINE
  5
9314
330
929E
100
AcDbEntity
  8
1
  6
Continuous
100
AcDbLine
 10
275.075754
 20
386.523639
 30
0.0
 11
275.075754
 21
385.323639
 31
0.0
  0
LINE
  5
9315
330
929E
100
AcDbEntity
  8
1
  6
Continuous
100
AcDbLine
 10
293.275754
 20
385.323639
 30
0.0
 11
293.275754
 21
332.7236389999999
 31
0.0
  0
LINE
  5
9316
330
929E
100
AcDbEntity
  8
1
  6
Continuous
100
AcDbLine
 10
275.075754
 20
385.323639
 30
0.0
 11
292.075754
 21
385.323639
 31
0.0
  0
LINE
  5
9317
330
929E
100
AcDbEntity
  8
1
  6
Continuous
100
AcDbLine
 10
275.075754
 20
332.7236389999999
 30
0.0
 11
292.075754
 21
332.7236389999999
 31
0.0
  0
LINE
  5
9318
330
929E
100
AcDbEntity
  8
1
  6
Continuous
100
AcDbLine
 10
292.075754
 20
385.323639
 30
0.0
 11
292.075754
 21
332.7236389999999
 31
0.0
  0
LINE
  5
9319
330
929E
100
AcDbEntity
  8
1
  6
Continuous
100
AcDbLine
 10
275.075754
 20
332.7236389999999
 30
0.0
 11
275.075754
 21
331.5236389999999
 31
0.0
  0
LINE
  5
931A
330
929E
100
AcDbEntity
  8
4
  6
CENTER
100
AcDbLine
 10
262.236754
 20
338.523639
 30
0.0
 11
272.236754
 21
338.523639
 31
0.0
  0
LINE
  5
931B
330
929E
100
AcDbEntity
  8
4
  6
CENTER
100
AcDbLine
 10
262.236754
 20
379.5236389999999
 30
0.0
 11
272.236754
 21
379.5236389999999
 31
0.0
  0
LINE
  5
931C
330
929E
100
AcDbEntity
  8
4
  6
CENTER
100
AcDbLine
 10
287.0757539999999
 20
338.523639
 30
0.0
 11
299.8757539999999
 21
338.523639
 31
0.0
  0
LINE
  5
931D
330
929E
100
AcDbEntity
  8
4
  6
CENTER
100
AcDbLine
 10
287.0757539999999
 20
379.5236389999999
 30
0.0
 11
299.8757539999999
 21
379.5236389999999
 31
0.0
  0
LINE
  5
931E
330
929E
100
AcDbEntity
  8
1
  6
Continuous
100
AcDbLine
 10
181.430754
 20
753.4256389999996
 30
0.0
 11
181.430754
 21
770.625639
 31
0.0
  0
LINE
  5
931F
330
929E
100
AcDbEntity
  8
1
  6
Continuous
100
AcDbLine
 10
119.430754
 20
753.4256389999996
 30
0.0
 11
119.430754
 21
770.625639
 31
0.0
  0
LINE
  5
9320
330
929E
100
AcDbEntity
  8
1
  6
Continuous
100
AcDbLine
 10
181.430754
 20
770.625639
 30
0.0
 11
119.430754
 21
770.625639
 31
0.0
  0
LINE
  5
9321
330
929E
100
AcDbEntity
  8
1
  6
Continuous
100
AcDbLine
 10
180.430754
 20
752.4256389999997
 30
0.0
 11
161.430754
 21
752.4256389999997
 31
0.0
  0
LINE
  5
9322
330
929E
100
AcDbEntity
  8
4
  6
CENTER
100
AcDbLine
 10
147.930754
 20
765.625639
 30
0.0
 11
147.930754
 21
777.831639
 31
0.0
  0
LINE
  5
9323
330
929E
100
AcDbEntity
  8
1
  6
Continuous
100
AcDbLine
 10
160.430754
 20
753.4256389999996
 30
0.0
 11
160.430754
 21
762.9256389999997
 31
0.0
  0
LINE
  5
9324
330
929E
100
AcDbEntity
  8
1
  6
Continuous
100
AcDbLine
 10
152.430754
 20
753.4256389999996
 30
0.0
 11
152.430754
 21
762.9256389999997
 31
0.0
  0
LINE
  5
9325
330
929E
100
AcDbEntity
  8
1
  6
Continuous
100
AcDbLine
 10
151.430754
 20
752.4256389999997
 30
0.0
 11
120.430754
 21
752.4256389999997
 31
0.0
  0
LINE
  5
9326
330
929E
100
AcDbEntity
  8
1
  6
Continuous
100
AcDbLine
 10
294.275754
 20
342.323639
 30
0.0
 11
294.275754
 21
334.7236389999999
 31
0.0
  0
LINE
  5
9327
330
929E
100
AcDbEntity
  8
1
  6
Continuous
100
AcDbLine
 10
293.275754
 20
342.323639
 30
0.0
 11
294.275754
 21
342.323639
 31
0.0
  0
LINE
  5
9328
330
929E
100
AcDbEntity
  8
1
  6
Continuous
100
AcDbLine
 10
293.275754
 20
334.7236389999999
 30
0.0
 11
294.275754
 21
334.7236389999999
 31
0.0
  0
LINE
  5
9329
330
929E
100
AcDbEntity
  8
1
  6
Continuous
100
AcDbLine
 10
293.275754
 20
338.739639
 30
0.0
 11
294.275754
 21
339.0076389999999
 31
0.0
  0
LINE
  5
932A
330
929E
100
AcDbEntity
  8
1
  6
Continuous
100
AcDbLine
 10
293.275754
 20
338.039639
 30
0.0
 11
294.275754
 21
338.3076389999998
 31
0.0
  0
LINE
  5
932B
330
929E
100
AcDbEntity
  8
1
  6
Continuous
100
AcDbLine
 10
295.395754
 20
335.121639
 30
0.0
 11
294.275754
 21
335.023639
 31
0.0
  0
LINE
  5
932C
330
929E
100
AcDbEntity
  8
1
  6
Continuous
100
AcDbLine
 10
295.395754
 20
341.925639
 30
0.0
 11
294.275754
 21
342.0236389999999
 31
0.0
  0
LINE
  5
932D
330
929E
100
AcDbEntity
  8
1
  6
Continuous
100
AcDbLine
 10
151.730754
 20
771.6256389999998
 30
0.0
 11
144.1307539999999
 21
771.6256389999998
 31
0.0
  0
LINE
  5
932E
330
929E
100
AcDbEntity
  8
1
  6
Continuous
100
AcDbLine
 10
151.730754
 20
770.625639
 30
0.0
 11
151.730754
 21
771.6256389999998
 31
0.0
  0
LINE
  5
932F
330
929E
100
AcDbEntity
  8
1
  6
Continuous
100
AcDbLine
 10
144.1307539999999
 20
770.625639
 30
0.0
 11
144.1307539999999
 21
771.6256389999998
 31
0.0
  0
LINE
  5
9330
330
929E
100
AcDbEntity
  8
1
  6
Continuous
100
AcDbLine
 10
147.7147539999999
 20
770.625639
 30
0.0
 11
147.446754
 21
771.6256389999998
 31
0.0
  0
LINE
  5
9331
330
929E
100
AcDbEntity
  8
1
  6
Continuous
100
AcDbLine
 10
148.4147539999999
 20
770.625639
 30
0.0
 11
148.1467539999999
 21
771.6256389999998
 31
0.0
  0
LINE
  5
9332
330
929E
100
AcDbEntity
  8
1
  6
Continuous
100
AcDbLine
 10
144.5287539999999
 20
772.7446389999998
 30
0.0
 11
144.430754
 21
771.6256389999998
 31
0.0
  0
LINE
  5
9333
330
929E
100
AcDbEntity
  8
1
  6
Continuous
100
AcDbLine
 10
151.3327539999998
 20
772.7446389999998
 30
0.0
 11
151.430754
 21
771.6256389999998
 31
0.0
  0
LINE
  5
9334
330
929E
100
AcDbEntity
  8
1
  6
Continuous
100
AcDbLine
 10
294.275754
 20
383.323639
 30
0.0
 11
294.275754
 21
375.723639
 31
0.0
  0
LINE
  5
9335
330
929E
100
AcDbEntity
  8
1
  6
Continuous
100
AcDbLine
 10
293.275754
 20
383.323639
 30
0.0
 11
294.275754
 21
383.323639
 31
0.0
  0
LINE
  5
9336
330
929E
100
AcDbEntity
  8
1
  6
Continuous
100
AcDbLine
 10
293.275754
 20
375.723639
 30
0.0
 11
294.275754
 21
375.723639
 31
0.0
  0
LINE
  5
9337
330
929E
100
AcDbEntity
  8
1
  6
Continuous
100
AcDbLine
 10
293.275754
 20
379.739639
 30
0.0
 11
294.275754
 21
380.007639
 31
0.0
  0
LINE
  5
9338
330
929E
100
AcDbEntity
  8
1
  6
Continuous
100
AcDbLine
 10
293.275754
 20
379.039639
 30
0.0
 11
294.275754
 21
379.3076389999998
 31
0.0
  0
LINE
  5
9339
330
929E
100
AcDbEntity
  8
1
  6
Continuous
100
AcDbLine
 10
295.395754
 20
376.121639
 30
0.0
 11
294.275754
 21
376.023639
 31
0.0
  0
LINE
  5
933A
330
929E
100
AcDbEntity
  8
1
  6
Continuous
100
AcDbLine
 10
295.395754
 20
382.9256389999998
 30
0.0
 11
294.275754
 21
383.0236389999998
 31
0.0
  0
LINE
  5
933B
330
929E
100
AcDbEntity
  8
1
  6
Continuous
100
AcDbLine
 10
34.78525399999998
 20
331.5236389999999
 30
0.0
 11
17.78525399999999
 21
331.5236389999999
 31
0.0
  0
LINE
  5
933C
330
929E
100
AcDbEntity
  8
1
  6
Continuous
100
AcDbLine
 10
34.78525399999998
 20
386.523639
 30
0.0
 11
17.78525399999999
 21
386.523639
 31
0.0
  0
LINE
  5
933D
330
929E
100
AcDbEntity
  8
1
  6
Continuous
100
AcDbLine
 10
34.78525399999998
 20
386.523639
 30
0.0
 11
34.78525399999998
 21
385.323639
 31
0.0
  0
LINE
  5
933E
330
929E
100
AcDbEntity
  8
1
  6
Continuous
100
AcDbLine
 10
16.585254
 20
385.323639
 30
0.0
 11
16.585254
 21
332.7236389999999
 31
0.0
  0
LINE
  5
933F
330
929E
100
AcDbEntity
  8
1
  6
Continuous
100
AcDbLine
 10
34.78525399999998
 20
385.323639
 30
0.0
 11
17.78525399999999
 21
385.323639
 31
0.0
  0
LINE
  5
9340
330
929E
100
AcDbEntity
  8
1
  6
Continuous
100
AcDbLine
 10
34.78525399999998
 20
332.7236389999999
 30
0.0
 11
17.78525399999999
 21
332.7236389999999
 31
0.0
  0
LINE
  5
9341
330
929E
100
AcDbEntity
  8
1
  6
Continuous
100
AcDbLine
 10
17.78525399999999
 20
385.323639
 30
0.0
 11
17.78525399999999
 21
332.7236389999999
 31
0.0
  0
LINE
  5
9342
330
929E
100
AcDbEntity
  8
1
  6
Continuous
100
AcDbLine
 10
34.78525399999998
 20
332.7236389999999
 30
0.0
 11
34.78525399999998
 21
331.5236389999999
 31
0.0
  0
LINE
  5
9343
330
929E
100
AcDbEntity
  8
1
  6
Continuous
100
AcDbLine
 10
15.585254
 20
342.323639
 30
0.0
 11
15.585254
 21
334.7236389999999
 31
0.0
  0
LINE
  5
9344
330
929E
100
AcDbEntity
  8
1
  6
Continuous
100
AcDbLine
 10
16.585254
 20
342.323639
 30
0.0
 11
15.585254
 21
342.323639
 31
0.0
  0
LINE
  5
9345
330
929E
100
AcDbEntity
  8
1
  6
Continuous
100
AcDbLine
 10
16.585254
 20
334.7236389999999
 30
0.0
 11
15.585254
 21
334.7236389999999
 31
0.0
  0
LINE
  5
9346
330
929E
100
AcDbEntity
  8
1
  6
Continuous
100
AcDbLine
 10
15.585354
 20
338.739639
 30
0.0
 11
16.58535399999999
 21
339.0076389999999
 31
0.0
  0
LINE
  5
9347
330
929E
100
AcDbEntity
  8
1
  6
Continuous
100
AcDbLine
 10
15.585354
 20
338.039639
 30
0.0
 11
16.58535399999999
 21
338.3076389999998
 31
0.0
  0
LINE
  5
9348
330
929E
100
AcDbEntity
  8
1
  6
Continuous
100
AcDbLine
 10
14.465854
 20
335.121639
 30
0.0
 11
15.585254
 21
335.023639
 31
0.0
  0
LINE
  5
9349
330
929E
100
AcDbEntity
  8
1
  6
Continuous
100
AcDbLine
 10
14.465854
 20
341.925639
 30
0.0
 11
15.585354
 21
342.0236389999999
 31
0.0
  0
LINE
  5
934A
330
929E
100
AcDbEntity
  8
1
  6
Continuous
100
AcDbLine
 10
15.585254
 20
383.323639
 30
0.0
 11
15.585254
 21
375.723639
 31
0.0
  0
LINE
  5
934B
330
929E
100
AcDbEntity
  8
1
  6
Continuous
100
AcDbLine
 10
16.585254
 20
383.323639
 30
0.0
 11
15.585254
 21
383.323639
 31
0.0
  0
LINE
  5
934C
330
929E
100
AcDbEntity
  8
1
  6
Continuous
100
AcDbLine
 10
16.585254
 20
375.723639
 30
0.0
 11
15.585254
 21
375.723639
 31
0.0
  0
LINE
  5
934D
330
929E
100
AcDbEntity
  8
1
  6
Continuous
100
AcDbLine
 10
15.585354
 20
379.739639
 30
0.0
 11
16.58535399999999
 21
380.007639
 31
0.0
  0
LINE
  5
934E
330
929E
100
AcDbEntity
  8
1
  6
Continuous
100
AcDbLine
 10
15.585354
 20
379.039639
 30
0.0
 11
16.58535399999999
 21
379.3076389999998
 31
0.0
  0
LINE
  5
934F
330
929E
100
AcDbEntity
  8
1
  6
Continuous
100
AcDbLine
 10
14.465854
 20
376.121639
 30
0.0
 11
15.585254
 21
376.023639
 31
0.0
  0
LINE
  5
9350
330
929E
100
AcDbEntity
  8
1
  6
Continuous
100
AcDbLine
 10
14.465854
 20
382.9256389999998
 30
0.0
 11
15.585354
 21
383.0236389999998
 31
0.0
  0
LINE
  5
9351
330
929E
100
AcDbEntity
  8
4
  6
CENTER
100
AcDbLine
 10
22.78525399999999
 20
338.523639
 30
0.0
 11
9.985253999999999
 21
338.523639
 31
0.0
  0
LINE
  5
9352
330
929E
100
AcDbEntity
  8
4
  6
CENTER
100
AcDbLine
 10
22.78525399999999
 20
379.5236389999999
 30
0.0
 11
9.985253999999999
 21
379.5236389999999
 31
0.0
  0
LINE
  5
9353
330
929E
100
AcDbEntity
  8
1
  6
Continuous
100
AcDbLine
 10
421.042754
 20
330.523639
 30
0.0
 11
385.992754
 21
330.523639
 31
0.0
  0
LINE
  5
9354
330
929E
100
AcDbEntity
  8
1
  6
Continuous
100
AcDbLine
 10
349.542754
 20
381.2236389999998
 30
0.0
 11
349.542754
 21
336.823639
 31
0.0
  0
LINE
  5
9355
330
929E
100
AcDbEntity
  8
1
  6
Continuous
100
AcDbLine
 10
421.042754
 20
387.5236389999998
 30
0.0
 11
385.992754
 21
387.5236389999998
 31
0.0
  0
LINE
  5
9356
330
929E
100
AcDbEntity
  8
1
  6
Continuous
100
AcDbLine
 10
62.624654
 20
385.023639
 30
0.0
 11
62.624654
 21
333.023639
 31
0.0
  0
LINE
  5
9357
330
929E
100
AcDbEntity
  8
1
  6
Continuous
100
AcDbLine
 10
59.62465400000001
 20
390.023639
 30
0.0
 11
59.62465400000001
 21
328.023639
 31
0.0
  0
LINE
  5
9358
330
929E
100
AcDbEntity
  8
4
  6
CENTER
100
AcDbLine
 10
68.34905400000001
 20
359.023639
 30
0.0
 11
35.99015399999998
 21
359.023639
 31
0.0
  0
LINE
  5
9359
330
929E
100
AcDbEntity
  8
4
  6
CENTER
100
AcDbLine
 10
56.374654
 20
394.982639
 30
0.0
 11
56.374654
 21
324.244639
 31
0.0
  0
LINE
  5
935A
330
929E
100
AcDbEntity
  8
1
  6
Continuous
100
AcDbLine
 10
42.62465399999999
 20
384.023639
 30
0.0
 11
42.62465399999999
 21
334.023639
 31
0.0
  0
LINE
  5
935B
330
929E
100
AcDbEntity
  8
1
  6
Continuous
100
AcDbLine
 10
59.62465400000001
 20
334.023639
 30
0.0
 11
42.62465399999999
 21
334.023639
 31
0.0
  0
LINE
  5
935C
330
929E
100
AcDbEntity
  8
1
  6
Continuous
100
AcDbLine
 10
59.62465400000001
 20
384.023639
 30
0.0
 11
42.62465399999999
 21
384.023639
 31
0.0
  0
LINE
  5
935D
330
929E
100
AcDbEntity
  8
1
  6
Continuous
100
AcDbLine
 10
52.87465400000001
 20
362.7736389999999
 30
0.0
 11
52.87465400000001
 21
355.273639
 31
0.0
  0
LINE
  5
935E
330
929E
100
AcDbEntity
  8
1
  6
Continuous
100
AcDbLine
 10
45.62465399999999
 20
373.523639
 30
0.0
 11
45.62465399999999
 21
369.523639
 31
0.0
  0
LINE
  5
935F
330
929E
100
AcDbEntity
  8
1
  6
Continuous
100
AcDbLine
 10
48.624654
 20
373.523639
 30
0.0
 11
48.624654
 21
369.523639
 31
0.0
  0
LINE
  5
9360
330
929E
100
AcDbEntity
  8
1
  6
Continuous
100
AcDbLine
 10
48.124654
 20
369.0236389999999
 30
0.0
 11
46.124654
 21
369.0236389999999
 31
0.0
  0
LINE
  5
9361
330
929E
100
AcDbEntity
  8
1
  6
Continuous
100
AcDbLine
 10
48.124654
 20
349.023639
 30
0.0
 11
46.124654
 21
349.023639
 31
0.0
  0
LINE
  5
9362
330
929E
100
AcDbEntity
  8
1
  6
Continuous
100
AcDbLine
 10
48.124654
 20
344.0236389999999
 30
0.0
 11
46.124654
 21
344.0236389999999
 31
0.0
  0
LINE
  5
9363
330
929E
100
AcDbEntity
  8
1
  6
Continuous
100
AcDbLine
 10
48.124654
 20
374.023639
 30
0.0
 11
46.124654
 21
374.023639
 31
0.0
  0
LINE
  5
9364
330
929E
100
AcDbEntity
  8
1
  6
Continuous
100
AcDbLine
 10
48.624654
 20
348.523639
 30
0.0
 11
48.624654
 21
344.523639
 31
0.0
  0
LINE
  5
9365
330
929E
100
AcDbEntity
  8
1
  6
Continuous
100
AcDbLine
 10
45.62465399999999
 20
348.523639
 30
0.0
 11
45.62465399999999
 21
344.523639
 31
0.0
  0
LINE
  5
9366
330
929E
100
AcDbEntity
  8
1
  6
Continuous
100
AcDbLine
 10
52.87465400000001
 20
362.7736389999999
 30
0.0
 11
42.62465399999999
 21
362.7736389999999
 31
0.0
  0
LINE
  5
9367
330
929E
100
AcDbEntity
  8
1
  6
Continuous
100
AcDbLine
 10
52.87465400000001
 20
355.273639
 30
0.0
 11
42.62465399999999
 21
355.273639
 31
0.0
  0
LINE
  5
9368
330
929E
100
AcDbEntity
  8
4
  6
CENTER
100
AcDbLine
 10
47.62465399999999
 20
338.523639
 30
0.0
 11
37.62465399999999
 21
338.523639
 31
0.0
  0
LINE
  5
9369
330
929E
100
AcDbEntity
  8
4
  6
CENTER
100
AcDbLine
 10
47.62465399999999
 20
379.5236389999999
 30
0.0
 11
37.62465399999999
 21
379.5236389999999
 31
0.0
  0
LINE
  5
936A
330
929E
100
AcDbEntity
  8
4
  6
CENTER
100
AcDbLine
 10
261.736754
 20
40.612439
 30
0.0
 11
261.736754
 21
676.081639
 31
0.0
  0
LINE
  5
936B
330
929E
100
AcDbEntity
  8
1
  6
Continuous
100
AcDbLine
 10
255.236754
 20
57.023639
 30
0.0
 11
268.236754
 21
57.023639
 31
0.0
  0
LINE
  5
936C
330
929E
100
AcDbEntity
  8
1
  6
Continuous
100
AcDbLine
 10
255.236754
 20
62.023639
 30
0.0
 11
268.236754
 21
62.023639
 31
0.0
  0
LINE
  5
936D
330
929E
100
AcDbEntity
  8
1
  6
Continuous
100
AcDbLine
 10
255.236754
 20
87.02363899999998
 30
0.0
 11
268.236754
 21
87.02363899999998
 31
0.0
  0
LINE
  5
936E
330
929E
100
AcDbEntity
  8
1
  6
Continuous
100
AcDbLine
 10
255.236754
 20
57.023639
 30
0.0
 11
255.236754
 21
87.02363899999998
 31
0.0
  0
LINE
  5
936F
330
929E
100
AcDbEntity
  8
1
  6
Continuous
100
AcDbLine
 10
268.236754
 20
57.023639
 30
0.0
 11
268.236754
 21
87.02363899999998
 31
0.0
  0
LINE
  5
9370
330
929E
100
AcDbEntity
  8
1
  6
Continuous
100
AcDbLine
 10
257.236754
 20
47.523639
 30
0.0
 11
257.236754
 21
57.023639
 31
0.0
  0
LINE
  5
9371
330
929E
100
AcDbEntity
  8
1
  6
Continuous
100
AcDbLine
 10
266.236754
 20
55.316539
 30
0.0
 11
266.236754
 21
57.023639
 31
0.0
  0
LINE
  5
9372
330
929E
100
AcDbEntity
  8
1
  6
Continuous
100
AcDbLine
 10
258.090754
 20
47.170139
 30
0.0
 11
266.236754
 21
55.316539
 31
0.0
  0
LINE
  5
9373
330
929E
100
AcDbEntity
  8
1
  6
Continuous
100
AcDbLine
 10
422.542754
 20
362.7736389999999
 30
0.0
 11
421.042754
 21
362.7736389999999
 31
0.0
  0
LINE
  5
9374
330
929E
100
AcDbEntity
  8
1
  6
Continuous
100
AcDbLine
 10
422.542754
 20
355.273639
 30
0.0
 11
421.042754
 21
355.273639
 31
0.0
  0
LINE
  5
9375
330
929E
100
AcDbEntity
  8
1
  6
Continuous
100
AcDbLine
 10
422.542754
 20
384.023639
 30
0.0
 11
422.542754
 21
334.023639
 31
0.0
  0
LINE
  5
9376
330
929E
100
AcDbEntity
  8
1
  6
Continuous
100
AcDbLine
 10
424.5427539999998
 20
384.023639
 30
0.0
 11
424.5427539999998
 21
334.023639
 31
0.0
  0
LINE
  5
9377
330
929E
100
AcDbEntity
  8
1
  6
Continuous
100
AcDbLine
 10
427.042754
 20
384.523639
 30
0.0
 11
427.042754
 21
333.5236389999999
 31
0.0
  0
LINE
  5
9378
330
929E
100
AcDbEntity
  8
1
  6
Continuous
100
AcDbLine
 10
138.9807539999999
 20
738.8136389999997
 30
0.0
 11
138.9807539999999
 21
729.8136389999997
 31
0.0
  0
LINE
  5
9379
330
929E
100
AcDbEntity
  8
1
  6
Continuous
100
AcDbLine
 10
173.9807539999999
 20
738.8136389999997
 30
0.0
 11
173.9807539999999
 21
729.8136389999997
 31
0.0
  0
LINE
  5
937A
330
929E
100
AcDbEntity
  8
1
  6
Continuous
100
AcDbLine
 10
140.9807539999999
 20
740.8136389999997
 30
0.0
 11
171.9807539999999
 21
740.8136389999997
 31
0.0
  0
LINE
  5
937B
330
929E
100
AcDbEntity
  8
1
  6
Continuous
100
AcDbLine
 10
140.9807539999999
 20
727.8136389999997
 30
0.0
 11
171.9807539999999
 21
727.8136389999997
 31
0.0
  0
LINE
  5
937C
330
929E
100
AcDbEntity
  8
4
  6
CENTER
100
AcDbLine
 10
156.4807539999998
 20
744.2036389999997
 30
0.0
 11
156.4807539999998
 21
724.903639
 31
0.0
  0
LINE
  5
937D
330
929E
100
AcDbEntity
  8
4
  6
CENTER
100
AcDbLine
 10
136.106754
 20
734.3136389999997
 30
0.0
 11
177.841754
 21
734.3136389999997
 31
0.0
  0
LINE
  5
937E
330
929E
100
AcDbEntity
  8
1
  6
Continuous
100
AcDbLine
 10
152.980754
 20
729.8136389999997
 30
0.0
 11
159.980754
 21
729.8136389999997
 31
0.0
  0
LINE
  5
937F
330
929E
100
AcDbEntity
  8
1
  6
Continuous
100
AcDbLine
 10
152.980754
 20
738.8136389999997
 30
0.0
 11
159.980754
 21
738.8136389999997
 31
0.0
  0
LINE
  5
9380
330
929E
100
AcDbEntity
  8
1
  6
Continuous
100
AcDbLine
 10
160.980754
 20
737.8136389999997
 30
0.0
 11
160.980754
 21
730.8136389999997
 31
0.0
  0
LINE
  5
9381
330
929E
100
AcDbEntity
  8
1
  6
Continuous
100
AcDbLine
 10
151.9807539999999
 20
737.8136389999997
 30
0.0
 11
151.9807539999999
 21
730.8136389999997
 31
0.0
  0
LINE
  5
9382
330
929E
100
AcDbEntity
  8
4
  6
CENTER
100
AcDbLine
 10
168.9807539999998
 20
730.3136389999997
 30
0.0
 11
168.9807539999998
 21
738.3136389999997
 31
0.0
  0
LINE
  5
9383
330
929E
100
AcDbEntity
  8
4
  6
CENTER
100
AcDbLine
 10
143.9807539999998
 20
730.3136389999997
 30
0.0
 11
143.9807539999998
 21
738.3136389999997
 31
0.0
  0
LINE
  5
9384
330
929E
100
AcDbEntity
  8
1
  6
Continuous
100
AcDbLine
 10
151.880754
 20
729.7136389999997
 30
0.0
 11
161.080754
 21
729.7136389999997
 31
0.0
  0
LINE
  5
9385
330
929E
100
AcDbEntity
  8
1
  6
Continuous
100
AcDbLine
 10
151.880754
 20
738.9136389999999
 30
0.0
 11
161.080754
 21
738.9136389999999
 31
0.0
  0
LINE
  5
9386
330
929E
100
AcDbEntity
  8
1
  6
Continuous
100
AcDbLine
 10
151.880754
 20
738.9136389999999
 30
0.0
 11
151.880754
 21
729.7136389999997
 31
0.0
  0
LINE
  5
9387
330
929E
100
AcDbEntity
  8
1
  6
Continuous
100
AcDbLine
 10
161.080754
 20
738.9136389999999
 30
0.0
 11
161.080754
 21
729.7136389999997
 31
0.0
  0
LINE
  5
9388
330
929E
100
AcDbEntity
  8
5
  6
PHANTOM
100
AcDbLine
 10
152.980754
 20
53.523639
 30
0.0
 11
159.980754
 21
53.523639
 31
0.0
  0
LINE
  5
9389
330
929E
100
AcDbEntity
  8
5
  6
PHANTOM
100
AcDbLine
 10
138.9807539999999
 20
47.023639
 30
0.0
 11
173.9807539999999
 21
47.023639
 31
0.0
  0
LINE
  5
938A
330
929E
100
AcDbEntity
  8
1
  6
Continuous
100
AcDbLine
 10
138.9807539999999
 20
62.023639
 30
0.0
 11
148.9807539999999
 21
62.023639
 31
0.0
  0
LINE
  5
938B
330
929E
100
AcDbEntity
  8
1
  6
Continuous
100
AcDbLine
 10
150.9807539999999
 20
87.02363899999998
 30
0.0
 11
161.980754
 21
87.02363899999998
 31
0.0
  0
LINE
  5
938C
330
929E
100
AcDbEntity
  8
4
  6
CENTER
100
AcDbLine
 10
156.4807539999998
 20
33.655312
 30
0.0
 11
156.4807539999998
 21
684.8995989999997
 31
0.0
  0
LINE
  5
938D
330
929E
100
AcDbEntity
  8
5
  6
PHANTOM
100
AcDbLine
 10
173.9807539999999
 20
47.023639
 30
0.0
 11
173.9807539999999
 21
52.023639
 31
0.0
  0
LINE
  5
938E
330
929E
100
AcDbEntity
  8
5
  6
PHANTOM
100
AcDbLine
 10
138.9807539999999
 20
47.023639
 30
0.0
 11
138.9807539999999
 21
52.023639
 31
0.0
  0
LINE
  5
938F
330
929E
100
AcDbEntity
  8
1
  6
Continuous
100
AcDbLine
 10
162.9807539999999
 20
63.023639
 30
0.0
 11
162.9807539999999
 21
86.023639
 31
0.0
  0
LINE
  5
9390
330
929E
100
AcDbEntity
  8
1
  6
Continuous
100
AcDbLine
 10
149.9807539999999
 20
63.023639
 30
0.0
 11
149.9807539999999
 21
86.023639
 31
0.0
  0
LINE
  5
9391
330
929E
100
AcDbEntity
  8
1
  6
Continuous
100
AcDbLine
 10
163.9807539999999
 20
62.023639
 30
0.0
 11
173.9807539999999
 21
62.023639
 31
0.0
  0
LINE
  5
9392
330
929E
100
AcDbEntity
  8
4
  6
CENTER
100
AcDbLine
 10
143.9807539999998
 20
53.473539
 30
0.0
 11
143.9807539999998
 21
65.394739
 31
0.0
  0
LINE
  5
9393
330
929E
100
AcDbEntity
  8
4
  6
CENTER
100
AcDbLine
 10
168.9807539999998
 20
53.473539
 30
0.0
 11
168.9807539999998
 21
65.394739
 31
0.0
  0
LINE
  5
9394
330
929E
100
AcDbEntity
  8
1
  6
Continuous
100
AcDbLine
 10
152.980754
 20
671.023639
 30
0.0
 11
159.980754
 21
671.023639
 31
0.0
  0
LINE
  5
9395
330
929E
100
AcDbEntity
  8
1
  6
Continuous
100
AcDbLine
 10
151.9807539999999
 20
670.023639
 30
0.0
 11
151.9807539999999
 21
661.0236389999998
 31
0.0
  0
LINE
  5
9396
330
929E
100
AcDbEntity
  8
1
  6
Continuous
100
AcDbLine
 10
160.980754
 20
670.023639
 30
0.0
 11
160.980754
 21
661.0236389999998
 31
0.0
  0
LINE
  5
9397
330
929E
100
AcDbEntity
  8
1
  6
Continuous
100
AcDbLine
 10
138.9807539999999
 20
661.0236389999998
 30
0.0
 11
173.9807539999999
 21
661.0236389999998
 31
0.0
  0
LINE
  5
9398
330
929E
100
AcDbEntity
  8
1
  6
Continuous
100
AcDbLine
 10
138.9807539999999
 20
656.023639
 30
0.0
 11
148.9807539999999
 21
656.023639
 31
0.0
  0
LINE
  5
9399
330
929E
100
AcDbEntity
  8
1
  6
Continuous
100
AcDbLine
 10
150.9807539999999
 20
631.023639
 30
0.0
 11
161.980754
 21
631.023639
 31
0.0
  0
LINE
  5
939A
330
929E
100
AcDbEntity
  8
1
  6
Continuous
100
AcDbLine
 10
173.9807539999999
 20
661.0236389999998
 30
0.0
 11
173.9807539999999
 21
656.023639
 31
0.0
  0
LINE
  5
939B
330
929E
100
AcDbEntity
  8
1
  6
Continuous
100
AcDbLine
 10
138.9807539999999
 20
661.0236389999998
 30
0.0
 11
138.9807539999999
 21
656.023639
 31
0.0
  0
LINE
  5
939C
330
929E
100
AcDbEntity
  8
1
  6
Continuous
100
AcDbLine
 10
162.9807539999999
 20
655.023639
 30
0.0
 11
162.9807539999999
 21
632.0236389999998
 31
0.0
  0
LINE
  5
939D
330
929E
100
AcDbEntity
  8
1
  6
Continuous
100
AcDbLine
 10
149.9807539999999
 20
655.023639
 30
0.0
 11
149.9807539999999
 21
632.0236389999998
 31
0.0
  0
LINE
  5
939E
330
929E
100
AcDbEntity
  8
1
  6
Continuous
100
AcDbLine
 10
163.9807539999999
 20
656.023639
 30
0.0
 11
173.9807539999999
 21
656.023639
 31
0.0
  0
LINE
  5
939F
330
929E
100
AcDbEntity
  8
4
  6
CENTER
100
AcDbLine
 10
143.9807539999998
 20
664.5736389999997
 30
0.0
 11
143.9807539999998
 21
652.652639
 31
0.0
  0
LINE
  5
93A0
330
929E
100
AcDbEntity
  8
4
  6
CENTER
100
AcDbLine
 10
168.9807539999998
 20
664.5736389999997
 30
0.0
 11
168.9807539999998
 21
652.652639
 31
0.0
  0
LINE
  5
93A1
330
929E
100
AcDbEntity
  8
1
  6
Continuous
100
AcDbLine
 10
381.992754
 20
328.023639
 30
0.0
 11
355.042754
 21
328.023639
 31
0.0
  0
LINE
  5
93A2
330
929E
100
AcDbEntity
  8
1
  6
Continuous
100
AcDbLine
 10
381.992754
 20
330.523639
 30
0.0
 11
355.842754
 21
330.523639
 31
0.0
  0
LINE
  5
93A3
330
929E
100
AcDbEntity
  8
1
  6
Continuous
100
AcDbLine
 10
381.992754
 20
387.5236389999998
 30
0.0
 11
355.842754
 21
387.5236389999998
 31
0.0
  0
LINE
  5
93A4
330
929E
100
AcDbEntity
  8
1
  6
Continuous
100
AcDbLine
 10
381.992754
 20
390.023639
 30
0.0
 11
355.042754
 21
390.023639
 31
0.0
  0
LINE
  5
93A5
330
929E
100
AcDbEntity
  8
1
  6
Continuous
100
AcDbLine
 10
380.4927539999998
 20
47.023639
 30
0.0
 11
387.4927539999998
 21
47.023639
 31
0.0
  0
LINE
  5
93A6
330
929E
100
AcDbEntity
  8
1
  6
Continuous
100
AcDbLine
 10
379.4927539999998
 20
48.023639
 30
0.0
 11
379.4927539999998
 21
57.023639
 31
0.0
  0
LINE
  5
93A7
330
929E
100
AcDbEntity
  8
1
  6
Continuous
100
AcDbLine
 10
388.4927539999998
 20
48.023639
 30
0.0
 11
388.4927539999998
 21
57.023639
 31
0.0
  0
LINE
  5
93A8
330
929E
100
AcDbEntity
  8
1
  6
Continuous
100
AcDbLine
 10
366.4927539999998
 20
57.023639
 30
0.0
 11
401.492754
 21
57.023639
 31
0.0
  0
LINE
  5
93A9
330
929E
100
AcDbEntity
  8
1
  6
Continuous
100
AcDbLine
 10
366.4927539999998
 20
62.023639
 30
0.0
 11
376.4927539999998
 21
62.023639
 31
0.0
  0
LINE
  5
93AA
330
929E
100
AcDbEntity
  8
1
  6
Continuous
100
AcDbLine
 10
378.4927539999998
 20
87.02363899999998
 30
0.0
 11
389.4927539999998
 21
87.02363899999998
 31
0.0
  0
LINE
  5
93AB
330
929E
100
AcDbEntity
  8
4
  6
CENTER
100
AcDbLine
 10
383.992754
 20
40.612439
 30
0.0
 11
383.992754
 21
676.081639
 31
0.0
  0
LINE
  5
93AC
330
929E
100
AcDbEntity
  8
1
  6
Continuous
100
AcDbLine
 10
401.492754
 20
57.023639
 30
0.0
 11
401.492754
 21
62.023639
 31
0.0
  0
LINE
  5
93AD
330
929E
100
AcDbEntity
  8
1
  6
Continuous
100
AcDbLine
 10
366.4927539999998
 20
57.023639
 30
0.0
 11
366.4927539999998
 21
62.023639
 31
0.0
  0
LINE
  5
93AE
330
929E
100
AcDbEntity
  8
1
  6
Continuous
100
AcDbLine
 10
390.492754
 20
63.023639
 30
0.0
 11
390.492754
 21
86.023639
 31
0.0
  0
LINE
  5
93AF
330
929E
100
AcDbEntity
  8
1
  6
Continuous
100
AcDbLine
 10
377.492754
 20
63.023639
 30
0.0
 11
377.492754
 21
86.023639
 31
0.0
  0
LINE
  5
93B0
330
929E
100
AcDbEntity
  8
1
  6
Continuous
100
AcDbLine
 10
391.4927539999998
 20
62.023639
 30
0.0
 11
401.492754
 21
62.023639
 31
0.0
  0
LINE
  5
93B1
330
929E
100
AcDbEntity
  8
4
  6
CENTER
100
AcDbLine
 10
371.492754
 20
53.473539
 30
0.0
 11
371.492754
 21
65.394739
 31
0.0
  0
LINE
  5
93B2
330
929E
100
AcDbEntity
  8
4
  6
CENTER
100
AcDbLine
 10
396.492754
 20
53.473539
 30
0.0
 11
396.492754
 21
65.394739
 31
0.0
  0
LINE
  5
93B3
330
929E
100
AcDbEntity
  8
1
  6
Continuous
100
AcDbLine
 10
380.4927539999998
 20
671.023639
 30
0.0
 11
387.4927539999998
 21
671.023639
 31
0.0
  0
LINE
  5
93B4
330
929E
100
AcDbEntity
  8
1
  6
Continuous
100
AcDbLine
 10
379.4927539999998
 20
670.023639
 30
0.0
 11
379.4927539999998
 21
661.0236389999998
 31
0.0
  0
LINE
  5
93B5
330
929E
100
AcDbEntity
  8
1
  6
Continuous
100
AcDbLine
 10
388.4927539999998
 20
670.023639
 30
0.0
 11
388.4927539999998
 21
661.0236389999998
 31
0.0
  0
LINE
  5
93B6
330
929E
100
AcDbEntity
  8
1
  6
Continuous
100
AcDbLine
 10
366.4927539999998
 20
661.0236389999998
 30
0.0
 11
401.492754
 21
661.0236389999998
 31
0.0
  0
LINE
  5
93B7
330
929E
100
AcDbEntity
  8
1
  6
Continuous
100
AcDbLine
 10
366.4927539999998
 20
656.023639
 30
0.0
 11
376.4927539999998
 21
656.023639
 31
0.0
  0
LINE
  5
93B8
330
929E
100
AcDbEntity
  8
1
  6
Continuous
100
AcDbLine
 10
378.4927539999998
 20
631.023639
 30
0.0
 11
389.4927539999998
 21
631.023639
 31
0.0
  0
LINE
  5
93B9
330
929E
100
AcDbEntity
  8
1
  6
Continuous
100
AcDbLine
 10
401.492754
 20
661.0236389999998
 30
0.0
 11
401.492754
 21
656.023639
 31
0.0
  0
LINE
  5
93BA
330
929E
100
AcDbEntity
  8
1
  6
Continuous
100
AcDbLine
 10
366.4927539999998
 20
661.0236389999998
 30
0.0
 11
366.4927539999998
 21
656.023639
 31
0.0
  0
LINE
  5
93BB
330
929E
100
AcDbEntity
  8
1
  6
Continuous
100
AcDbLine
 10
390.492754
 20
655.023639
 30
0.0
 11
390.492754
 21
632.0236389999998
 31
0.0
  0
LINE
  5
93BC
330
929E
100
AcDbEntity
  8
1
  6
Continuous
100
AcDbLine
 10
377.492754
 20
655.023639
 30
0.0
 11
377.492754
 21
632.0236389999998
 31
0.0
  0
LINE
  5
93BD
330
929E
100
AcDbEntity
  8
1
  6
Continuous
100
AcDbLine
 10
391.4927539999998
 20
656.023639
 30
0.0
 11
401.492754
 21
656.023639
 31
0.0
  0
LINE
  5
93BE
330
929E
100
AcDbEntity
  8
4
  6
CENTER
100
AcDbLine
 10
371.492754
 20
664.5736389999997
 30
0.0
 11
371.492754
 21
652.652639
 31
0.0
  0
LINE
  5
93BF
330
929E
100
AcDbEntity
  8
4
  6
CENTER
100
AcDbLine
 10
396.492754
 20
664.5736389999997
 30
0.0
 11
396.492754
 21
652.652639
 31
0.0
  0
LINE
  5
93C0
330
929E
100
AcDbEntity
  8
1
  6
Continuous
100
AcDbLine
 10
255.236754
 20
661.0236389999998
 30
0.0
 11
268.236754
 21
661.0236389999998
 31
0.0
  0
LINE
  5
93C1
330
929E
100
AcDbEntity
  8
1
  6
Continuous
100
AcDbLine
 10
255.236754
 20
656.023639
 30
0.0
 11
268.236754
 21
656.023639
 31
0.0
  0
LINE
  5
93C2
330
929E
100
AcDbEntity
  8
1
  6
Continuous
100
AcDbLine
 10
255.236754
 20
631.023639
 30
0.0
 11
268.236754
 21
631.023639
 31
0.0
  0
LINE
  5
93C3
330
929E
100
AcDbEntity
  8
1
  6
Continuous
100
AcDbLine
 10
255.236754
 20
661.0236389999998
 30
0.0
 11
255.236754
 21
631.023639
 31
0.0
  0
LINE
  5
93C4
330
929E
100
AcDbEntity
  8
1
  6
Continuous
100
AcDbLine
 10
268.236754
 20
661.0236389999998
 30
0.0
 11
268.236754
 21
631.023639
 31
0.0
  0
LINE
  5
93C5
330
929E
100
AcDbEntity
  8
1
  6
Continuous
100
AcDbLine
 10
257.236754
 20
670.523639
 30
0.0
 11
257.236754
 21
661.0236389999998
 31
0.0
  0
LINE
  5
93C6
330
929E
100
AcDbEntity
  8
1
  6
Continuous
100
AcDbLine
 10
266.236754
 20
662.730639
 30
0.0
 11
266.236754
 21
661.0236389999998
 31
0.0
  0
LINE
  5
93C7
330
929E
100
AcDbEntity
  8
1
  6
Continuous
100
AcDbLine
 10
258.090754
 20
670.8776389999997
 30
0.0
 11
266.236754
 21
662.730639
 31
0.0
  0
LINE
  5
93C8
330
929E
100
AcDbEntity
  8
4
  6
CENTER
100
AcDbLine
 10
48.124654
 20
34.521839
 30
0.0
 11
48.124654
 21
683.303639
 31
0.0
  0
LINE
  5
93C9
330
929E
100
AcDbEntity
  8
5
  6
PHANTOM
100
AcDbLine
 10
54.62465400000001
 20
47.023639
 30
0.0
 11
41.624654
 21
47.023639
 31
0.0
  0
LINE
  5
93CA
330
929E
100
AcDbEntity
  8
1
  6
Continuous
100
AcDbLine
 10
54.62465400000001
 20
62.023639
 30
0.0
 11
41.624654
 21
62.023639
 31
0.0
  0
LINE
  5
93CB
330
929E
100
AcDbEntity
  8
1
  6
Continuous
100
AcDbLine
 10
54.62465400000001
 20
87.02363899999998
 30
0.0
 11
41.624654
 21
87.02363899999998
 31
0.0
  0
LINE
  5
93CC
330
929E
100
AcDbEntity
  8
5
  6
PHANTOM
100
AcDbLine
 10
54.62465400000001
 20
47.023639
 30
0.0
 11
54.62465400000001
 21
51.183839
 31
0.0
  0
LINE
  5
93CD
330
929E
100
AcDbEntity
  8
5
  6
PHANTOM
100
AcDbLine
 10
52.624654
 20
37.52363900000001
 30
0.0
 11
52.624654
 21
47.023639
 31
0.0
  0
LINE
  5
93CE
330
929E
100
AcDbEntity
  8
5
  6
PHANTOM
100
AcDbLine
 10
43.624654
 20
45.316539
 30
0.0
 11
43.624654
 21
47.023639
 31
0.0
  0
LINE
  5
93CF
330
929E
100
AcDbEntity
  8
5
  6
PHANTOM
100
AcDbLine
 10
51.771054
 20
37.17013899999999
 30
0.0
 11
43.624654
 21
45.316539
 31
0.0
  0
LINE
  5
93D0
330
929E
100
AcDbEntity
  8
5
  6
PHANTOM
100
AcDbLine
 10
54.62465400000001
 20
671.023639
 30
0.0
 11
41.624654
 21
671.023639
 31
0.0
  0
LINE
  5
93D1
330
929E
100
AcDbEntity
  8
1
  6
Continuous
100
AcDbLine
 10
54.62465400000001
 20
656.023639
 30
0.0
 11
41.624654
 21
656.023639
 31
0.0
  0
LINE
  5
93D2
330
929E
100
AcDbEntity
  8
1
  6
Continuous
100
AcDbLine
 10
54.62465400000001
 20
631.023639
 30
0.0
 11
41.624654
 21
631.023639
 31
0.0
  0
LINE
  5
93D3
330
929E
100
AcDbEntity
  8
5
  6
PHANTOM
100
AcDbLine
 10
54.62465400000001
 20
671.023639
 30
0.0
 11
54.62465400000001
 21
666.1956389999998
 31
0.0
  0
LINE
  5
93D4
330
929E
100
AcDbEntity
  8
5
  6
PHANTOM
100
AcDbLine
 10
41.624654
 20
671.023639
 30
0.0
 11
41.624654
 21
666.1956389999998
 31
0.0
  0
LINE
  5
93D5
330
929E
100
AcDbEntity
  8
5
  6
PHANTOM
100
AcDbLine
 10
52.624654
 20
680.523639
 30
0.0
 11
52.624654
 21
671.023639
 31
0.0
  0
LINE
  5
93D6
330
929E
100
AcDbEntity
  8
5
  6
PHANTOM
100
AcDbLine
 10
43.624654
 20
672.7306389999998
 30
0.0
 11
43.624654
 21
671.023639
 31
0.0
  0
LINE
  5
93D7
330
929E
100
AcDbEntity
  8
5
  6
PHANTOM
100
AcDbLine
 10
51.771054
 20
680.8776389999998
 30
0.0
 11
43.624654
 21
672.7306389999998
 31
0.0
  0
LINE
  5
93D8
330
929E
100
AcDbEntity
  8
1
  6
Continuous
100
AcDbLine
 10
50.12465399999999
 20
87.02363899999998
 30
0.0
 11
50.12465399999999
 21
334.023639
 31
0.0
  0
LINE
  5
93D9
330
929E
100
AcDbEntity
  8
1
  6
Continuous
100
AcDbLine
 10
46.124654
 20
87.02363899999998
 30
0.0
 11
46.124654
 21
334.023639
 31
0.0
  0
LINE
  5
93DA
330
929E
100
AcDbEntity
  8
1
  6
Continuous
100
AcDbLine
 10
158.4807539999999
 20
87.02363899999998
 30
0.0
 11
158.4807539999999
 21
328.023639
 31
0.0
  0
LINE
  5
93DB
330
929E
100
AcDbEntity
  8
1
  6
Continuous
100
AcDbLine
 10
154.4807539999998
 20
87.02363899999998
 30
0.0
 11
154.4807539999998
 21
328.023639
 31
0.0
  0
LINE
  5
93DC
330
929E
100
AcDbEntity
  8
1
  6
Continuous
100
AcDbLine
 10
259.736754
 20
87.02363899999998
 30
0.0
 11
259.736754
 21
334.023639
 31
0.0
  0
LINE
  5
93DD
330
929E
100
AcDbEntity
  8
1
  6
Continuous
100
AcDbLine
 10
263.736754
 20
87.02363899999998
 30
0.0
 11
263.736754
 21
334.023639
 31
0.0
  0
LINE
  5
93DE
330
929E
100
AcDbEntity
  8
1
  6
Continuous
100
AcDbLine
 10
381.992754
 20
87.02363899999998
 30
0.0
 11
381.992754
 21
331.5236389999999
 31
0.0
  0
LINE
  5
93DF
330
929E
100
AcDbEntity
  8
1
  6
Continuous
100
AcDbLine
 10
385.992754
 20
87.02363899999998
 30
0.0
 11
385.992754
 21
331.5236389999999
 31
0.0
  0
LINE
  5
93E0
330
929E
100
AcDbEntity
  8
1
  6
Continuous
100
AcDbLine
 10
50.12465399999999
 20
631.023639
 30
0.0
 11
50.12465399999999
 21
384.023639
 31
0.0
  0
LINE
  5
93E1
330
929E
100
AcDbEntity
  8
1
  6
Continuous
100
AcDbLine
 10
46.124654
 20
631.023639
 30
0.0
 11
46.124654
 21
384.023639
 31
0.0
  0
LINE
  5
93E2
330
929E
100
AcDbEntity
  8
1
  6
Continuous
100
AcDbLine
 10
154.4807539999998
 20
631.023639
 30
0.0
 11
154.4807539999998
 21
390.023639
 31
0.0
  0
LINE
  5
93E3
330
929E
100
AcDbEntity
  8
1
  6
Continuous
100
AcDbLine
 10
158.4807539999999
 20
631.023639
 30
0.0
 11
158.4807539999999
 21
390.023639
 31
0.0
  0
LINE
  5
93E4
330
929E
100
AcDbEntity
  8
1
  6
Continuous
100
AcDbLine
 10
263.736754
 20
631.023639
 30
0.0
 11
263.736754
 21
384.023639
 31
0.0
  0
LINE
  5
93E5
330
929E
100
AcDbEntity
  8
1
  6
Continuous
100
AcDbLine
 10
259.736754
 20
631.023639
 30
0.0
 11
259.736754
 21
384.023639
 31
0.0
  0
LINE
  5
93E6
330
929E
100
AcDbEntity
  8
1
  6
Continuous
100
AcDbLine
 10
385.992754
 20
631.023639
 30
0.0
 11
385.992754
 21
386.523639
 31
0.0
  0
LINE
  5
93E7
330
929E
100
AcDbEntity
  8
1
  6
Continuous
100
AcDbLine
 10
381.992754
 20
631.023639
 30
0.0
 11
381.992754
 21
386.523639
 31
0.0
  0
LINE
  5
93E8
330
929E
100
AcDbEntity
  8
5
  6
PHANTOM
100
AcDbLine
 10
151.9807539999999
 20
38.023639
 30
0.0
 11
151.9807539999999
 21
47.023639
 31
0.0
  0
LINE
  5
93E9
330
929E
100
AcDbEntity
  8
5
  6
PHANTOM
100
AcDbLine
 10
152.980754
 20
37.023639
 30
0.0
 11
159.980754
 21
37.023639
 31
0.0
  0
LINE
  5
93EA
330
929E
100
AcDbEntity
  8
5
  6
PHANTOM
100
AcDbLine
 10
160.980754
 20
38.023639
 30
0.0
 11
160.980754
 21
47.023639
 31
0.0
  0
LINE
  5
93EB
330
929E
100
AcDbEntity
  8
1
  6
Continuous
100
AcDbLine
 10
138.9807539999999
 20
57.023639
 30
0.0
 11
138.9807539999999
 21
62.023639
 31
0.0
  0
LINE
  5
93EC
330
929E
100
AcDbEntity
  8
1
  6
Continuous
100
AcDbLine
 10
138.9807539999999
 20
57.023639
 30
0.0
 11
173.9807539999999
 21
57.023639
 31
0.0
  0
LINE
  5
93ED
330
929E
100
AcDbEntity
  8
1
  6
Continuous
100
AcDbLine
 10
173.9807539999999
 20
57.023639
 30
0.0
 11
173.9807539999999
 21
62.023639
 31
0.0
  0
LINE
  5
93EE
330
929E
100
AcDbEntity
  8
1
  6
Continuous
100
AcDbLine
 10
160.980754
 20
48.023639
 30
0.0
 11
160.980754
 21
57.023639
 31
0.0
  0
LINE
  5
93EF
330
929E
100
AcDbEntity
  8
1
  6
Continuous
100
AcDbLine
 10
152.980754
 20
47.023639
 30
0.0
 11
159.980754
 21
47.023639
 31
0.0
  0
LINE
  5
93F0
330
929E
100
AcDbEntity
  8
1
  6
Continuous
100
AcDbLine
 10
151.9807539999999
 20
48.023639
 30
0.0
 11
151.9807539999999
 21
57.023639
 31
0.0
  0
LINE
  5
93F1
330
929E
100
AcDbEntity
  8
5
  6
PHANTOM
100
AcDbLine
 10
152.980754
 20
664.5236389999999
 30
0.0
 11
159.980754
 21
664.5236389999999
 31
0.0
  0
LINE
  5
93F2
330
929E
100
AcDbEntity
  8
5
  6
PHANTOM
100
AcDbLine
 10
173.9807539999999
 20
671.023639
 30
0.0
 11
173.9807539999999
 21
666.023639
 31
0.0
  0
LINE
  5
93F3
330
929E
100
AcDbEntity
  8
5
  6
PHANTOM
100
AcDbLine
 10
138.9807539999999
 20
671.023639
 30
0.0
 11
173.9807539999999
 21
671.023639
 31
0.0
  0
LINE
  5
93F4
330
929E
100
AcDbEntity
  8
5
  6
PHANTOM
100
AcDbLine
 10
160.980754
 20
680.023639
 30
0.0
 11
160.980754
 21
671.023639
 31
0.0
  0
LINE
  5
93F5
330
929E
100
AcDbEntity
  8
5
  6
PHANTOM
100
AcDbLine
 10
152.980754
 20
681.023639
 30
0.0
 11
159.980754
 21
681.023639
 31
0.0
  0
LINE
  5
93F6
330
929E
100
AcDbEntity
  8
5
  6
PHANTOM
100
AcDbLine
 10
151.9807539999999
 20
680.023639
 30
0.0
 11
151.9807539999999
 21
671.023639
 31
0.0
  0
LINE
  5
93F7
330
929E
100
AcDbEntity
  8
5
  6
PHANTOM
100
AcDbLine
 10
138.9807539999999
 20
671.023639
 30
0.0
 11
138.9807539999999
 21
666.023639
 31
0.0
  0
LINE
  5
93F8
330
929E
100
AcDbEntity
  8
1
  6
Continuous
100
AcDbLine
 10
41.624654
 20
661.0236389999998
 30
0.0
 11
41.624654
 21
631.023639
 31
0.0
  0
LINE
  5
93F9
330
929E
100
AcDbEntity
  8
1
  6
Continuous
100
AcDbLine
 10
54.62465400000001
 20
661.0236389999998
 30
0.0
 11
41.624654
 21
661.0236389999998
 31
0.0
  0
LINE
  5
93FA
330
929E
100
AcDbEntity
  8
1
  6
Continuous
100
AcDbLine
 10
54.62465400000001
 20
661.0236389999998
 30
0.0
 11
54.62465400000001
 21
631.023639
 31
0.0
  0
LINE
  5
93FB
330
929E
100
AcDbEntity
  8
5
  6
PHANTOM
100
AcDbLine
 10
52.624654
 20
661.0236389999998
 30
0.0
 11
52.624654
 21
654.523639
 31
0.0
  0
LINE
  5
93FC
330
929E
100
AcDbEntity
  8
5
  6
PHANTOM
100
AcDbLine
 10
51.771054
 20
664.3776389999998
 30
0.0
 11
43.624654
 21
656.2306389999998
 31
0.0
  0
LINE
  5
93FD
330
929E
100
AcDbEntity
  8
5
  6
PHANTOM
100
AcDbLine
 10
43.624654
 20
656.2306389999998
 30
0.0
 11
43.624654
 21
654.523639
 31
0.0
  0
LINE
  5
93FE
330
929E
100
AcDbEntity
  8
1
  6
Continuous
100
AcDbLine
 10
52.624654
 20
670.523639
 30
0.0
 11
52.624654
 21
661.0236389999998
 31
0.0
  0
LINE
  5
93FF
330
929E
100
AcDbEntity
  8
1
  6
Continuous
100
AcDbLine
 10
51.771054
 20
670.8776389999997
 30
0.0
 11
43.624654
 21
662.730639
 31
0.0
  0
LINE
  5
9400
330
929E
100
AcDbEntity
  8
1
  6
Continuous
100
AcDbLine
 10
43.624654
 20
662.730639
 30
0.0
 11
43.624654
 21
661.0236389999998
 31
0.0
  0
LINE
  5
9401
330
929E
100
AcDbEntity
  8
1
  6
Continuous
100
AcDbLine
 10
43.624654
 20
55.316539
 30
0.0
 11
43.624654
 21
57.023639
 31
0.0
  0
LINE
  5
9402
330
929E
100
AcDbEntity
  8
1
  6
Continuous
100
AcDbLine
 10
51.771054
 20
47.170139
 30
0.0
 11
43.624654
 21
55.316539
 31
0.0
  0
LINE
  5
9403
330
929E
100
AcDbEntity
  8
1
  6
Continuous
100
AcDbLine
 10
52.624654
 20
47.523639
 30
0.0
 11
52.624654
 21
57.023639
 31
0.0
  0
LINE
  5
9404
330
929E
100
AcDbEntity
  8
5
  6
PHANTOM
100
AcDbLine
 10
43.624654
 20
61.816539
 30
0.0
 11
43.624654
 21
63.523639
 31
0.0
  0
LINE
  5
9405
330
929E
100
AcDbEntity
  8
5
  6
PHANTOM
100
AcDbLine
 10
51.771054
 20
53.67013899999999
 30
0.0
 11
43.624654
 21
61.816539
 31
0.0
  0
LINE
  5
9406
330
929E
100
AcDbEntity
  8
5
  6
PHANTOM
100
AcDbLine
 10
52.624654
 20
57.023639
 30
0.0
 11
52.624654
 21
63.523639
 31
0.0
  0
LINE
  5
9407
330
929E
100
AcDbEntity
  8
1
  6
Continuous
100
AcDbLine
 10
41.624654
 20
57.023639
 30
0.0
 11
41.624654
 21
87.02363899999998
 31
0.0
  0
LINE
  5
9408
330
929E
100
AcDbEntity
  8
1
  6
Continuous
100
AcDbLine
 10
54.62465400000001
 20
57.023639
 30
0.0
 11
54.62465400000001
 21
87.02363899999998
 31
0.0
  0
LINE
  5
9409
330
929E
100
AcDbEntity
  8
1
  6
Continuous
100
AcDbLine
 10
54.62465400000001
 20
57.023639
 30
0.0
 11
41.624654
 21
57.023639
 31
0.0
  0
LINE
  5
940A
330
929E
100
AcDbEntity
  8
5
  6
PHANTOM
100
AcDbLine
 10
41.624654
 20
47.023639
 30
0.0
 11
41.624654
 21
51.183839
 31
0.0
  0
LINE
  5
940B
330
929E
100
AcDbEntity
  8
4
  6
CENTER
100
AcDbLine
 10
147.930754
 20
735.383639
 30
0.0
 11
147.930754
 21
744.0306389999997
 31
0.0
  0
LINE
  5
940C
330
929E
100
AcDbEntity
  8
1
  6
Continuous
100
AcDbLine
 10
125.4307539999999
 20
381.023639
 30
0.0
 11
125.4307539999999
 21
380.523639
 31
0.0
  0
LINE
  5
940D
330
929E
100
AcDbEntity
  8
1
  6
Continuous
100
AcDbLine
 10
129.430754
 20
381.023639
 30
0.0
 11
129.430754
 21
380.523639
 31
0.0
  0
LINE
  5
940E
330
929E
100
AcDbEntity
  8
1
  6
Continuous
100
AcDbLine
 10
129.430754
 20
337.5236389999999
 30
0.0
 11
129.430754
 21
337.023639
 31
0.0
  0
LINE
  5
940F
330
929E
100
AcDbEntity
  8
1
  6
Continuous
100
AcDbLine
 10
125.4307539999999
 20
337.5236389999999
 30
0.0
 11
125.4307539999999
 21
337.023639
 31
0.0
  0
LINE
  5
9410
330
929E
100
AcDbEntity
  8
1
  6
Continuous
100
AcDbLine
 10
44.624654
 20
362.7736389999999
 30
0.0
 11
44.624654
 21
355.273639
 31
0.0
  0
ARC
  5
9411
330
929E
100
AcDbEntity
  8
1
  6
Continuous
100
AcDbCircle
 10
118.9307539999999
 20
384.523639
 30
0.0
 40
5.5
100
AcDbArc
 50
90.0
 51
180.0
  0
ARC
  5
9412
330
929E
100
AcDbEntity
  8
1
  6
Continuous
100
AcDbCircle
 10
118.9307539999999
 20
333.5236389999999
 30
0.0
 40
5.5
100
AcDbArc
 50
180.0
 51
270.0
  0
ARC
  5
9413
330
929E
100
AcDbEntity
  8
1
  6
Continuous
100
AcDbCircle
 10
122.9307539999999
 20
378.523639
 30
0.0
 40
2.5
100
AcDbArc
 50
90.0
 51
180.0
  0
ARC
  5
9414
330
929E
100
AcDbEntity
  8
1
  6
Continuous
100
AcDbCircle
 10
122.9307539999999
 20
339.5236389999999
 30
0.0
 40
2.5
100
AcDbArc
 50
180.0
 51
270.0
  0
ARC
  5
9415
330
929E
100
AcDbEntity
  8
1
  6
Continuous
100
AcDbCircle
 10
181.930754
 20
377.5236389999998
 30
0.0
 40
3.5
100
AcDbArc
 50
0.0
 51
90.0
  0
ARC
  5
9416
330
929E
100
AcDbEntity
  8
1
  6
Continuous
100
AcDbCircle
 10
181.930754
 20
340.523639
 30
0.0
 40
3.5
100
AcDbArc
 50
270.0
 51
0.0
  0
CIRCLE
  5
9417
330
929E
100
AcDbEntity
  8
1
  6
Continuous
100
AcDbCircle
 10
127.4307539999999
 20
726.0636389999997
 30
0.0
 40
2.049999999999998
  0
ARC
  5
9418
330
929E
100
AcDbEntity
  8
1
  6
Continuous
100
AcDbCircle
 10
250.2367539999999
 20
387.5236389999998
 30
0.0
 40
2.5
100
AcDbArc
 50
90.0
 51
126.8699999999999
  0
ARC
  5
9419
330
929E
100
AcDbEntity
  8
1
  6
Continuous
100
AcDbCircle
 10
254.7367539999999
 20
385.023639
 30
0.0
 40
7.5
100
AcDbArc
 50
143.13
 51
180.0
  0
ARC
  5
941A
330
929E
100
AcDbEntity
  8
1
  6
Continuous
100
AcDbCircle
 10
118.430754
 20
727.3136389999997
 30
0.0
 40
7.5
100
AcDbArc
 50
233.13
 51
270.0
  0
ARC
  5
941B
330
929E
100
AcDbEntity
  8
1
  6
Continuous
100
AcDbCircle
 10
115.9307539999999
 20
722.8136389999997
 30
0.0
 40
2.5
100
AcDbArc
 50
180.0
 51
216.87
  0
ARC
  5
941C
330
929E
100
AcDbEntity
  8
1
  6
Continuous
100
AcDbCircle
 10
173.459754
 20
729.3136389999999
 30
0.0
 40
10.5
100
AcDbArc
 50
20.0
 51
88.60859999999998
  0
ARC
  5
941D
330
929E
100
AcDbEntity
  8
1
  6
Continuous
100
AcDbCircle
 10
188.430754
 20
727.3136389999997
 30
0.0
 40
7.5
100
AcDbArc
 50
270.0
 51
306.87
  0
ARC
  5
941E
330
929E
100
AcDbEntity
  8
1
  6
Continuous
100
AcDbCircle
 10
190.930754
 20
722.8136389999997
 30
0.0
 40
2.5
100
AcDbArc
 50
323.13
 51
0.0
  0
ARC
  5
941F
330
929E
100
AcDbEntity
  8
1
  6
Continuous
100
AcDbCircle
 10
254.7367539999999
 20
333.023639
 30
0.0
 40
7.5
100
AcDbArc
 50
180.0
 51
216.87
  0
ARC
  5
9420
330
929E
100
AcDbEntity
  8
1
  6
Continuous
100
AcDbCircle
 10
250.2367539999999
 20
330.523639
 30
0.0
 40
2.5
100
AcDbArc
 50
233.13
 51
270.0
  0
ARC
  5
9421
330
929E
100
AcDbEntity
  8
1
  6
Continuous
100
AcDbCircle
 10
421.542754
 20
384.523639
 30
0.0
 40
5.5
100
AcDbArc
 50
0.0
 51
90.0
  0
ARC
  5
9422
330
929E
100
AcDbEntity
  8
1
  6
Continuous
100
AcDbCircle
 10
421.542754
 20
333.5236389999999
 30
0.0
 40
5.5
100
AcDbArc
 50
270.0
 51
0.0
  0
ARC
  5
9423
330
929E
100
AcDbEntity
  8
1
  6
Continuous
100
AcDbCircle
 10
355.042754
 20
382.023639
 30
0.0
 40
8.0
100
AcDbArc
 50
90.0
 51
180.0
  0
ARC
  5
9424
330
929E
100
AcDbEntity
  8
1
  6
Continuous
100
AcDbCircle
 10
355.042754
 20
336.023639
 30
0.0
 40
8.0
100
AcDbArc
 50
180.0
 51
270.0
  0
ARC
  5
9425
330
929E
100
AcDbEntity
  8
1
  6
Continuous
100
AcDbCircle
 10
185.430754
 20
382.023639
 30
0.0
 40
8.0
100
AcDbArc
 50
0.0
 51
90.0
  0
ARC
  5
9426
330
929E
100
AcDbEntity
  8
1
  6
Continuous
100
AcDbCircle
 10
185.430754
 20
336.023639
 30
0.0
 40
8.0
100
AcDbArc
 50
270.0
 51
0.0
  0
ARC
  5
9427
330
929E
100
AcDbEntity
  8
5
  6
PHANTOM
100
AcDbCircle
 10
143.365754
 20
691.9626389999997
 30
0.0
 40
1.5
100
AcDbArc
 50
304.654
 51
85.15009999999998
  0
ARC
  5
9428
330
929E
100
AcDbEntity
  8
5
  6
PHANTOM
100
AcDbCircle
 10
142.797754
 20
692.784639
 30
0.0
 40
2.5
100
AcDbArc
 50
233.619
 51
304.654
  0
ARC
  5
9429
330
929E
100
AcDbEntity
  8
5
  6
PHANTOM
100
AcDbCircle
 10
145.762754
 20
696.8106389999997
 30
0.0
 40
7.5
100
AcDbArc
 50
210.0
 51
233.619
  0
ARC
  5
942A
330
929E
100
AcDbEntity
  8
5
  6
PHANTOM
100
AcDbCircle
 10
143.661754
 20
695.4496389999997
 30
0.0
 40
2.0
100
AcDbArc
 50
210.0
 51
265.1499999999999
  0
ARC
  5
942B
330
929E
100
AcDbEntity
  8
5
  6
PHANTOM
100
AcDbCircle
 10
130.7637539999997
 20
718.7906390000001
 30
0.0
 40
2.5
100
AcDbArc
 50
155.8529999999998
 51
210.0
  0
ARC
  5
942C
330
929E
100
AcDbEntity
  8
1
  6
Continuous
100
AcDbCircle
 10
123.4307539999999
 20
379.023639
 30
0.0
 40
1.5
100
AcDbArc
 50
90.0
 51
180.0
  0
ARC
  5
942D
330
929E
100
AcDbEntity
  8
1
  6
Continuous
100
AcDbCircle
 10
123.4307539999999
 20
339.023639
 30
0.0
 40
1.5
100
AcDbArc
 50
180.0
 51
270.0
  0
ARC
  5
942E
330
929E
100
AcDbEntity
  8
1
  6
Continuous
100
AcDbCircle
 10
162.930754
 20
377.0236389999998
 30
0.0
 40
3.5
100
AcDbArc
 50
0.0
 51
90.0
  0
ARC
  5
942F
330
929E
100
AcDbEntity
  8
1
  6
Continuous
100
AcDbCircle
 10
162.930754
 20
341.023639
 30
0.0
 40
3.5
100
AcDbArc
 50
270.0
 51
0.0
  0
ARC
  5
9430
330
929E
100
AcDbEntity
  8
1
  6
Continuous
100
AcDbCircle
 10
392.542754
 20
379.5236389999999
 30
0.0
 40
2.1
100
AcDbArc
 50
348.463
 51
11.537
  0
ARC
  5
9431
330
929E
100
AcDbEntity
  8
1
  6
Continuous
100
AcDbCircle
 10
392.542754
 20
379.5236389999999
 30
0.0
 40
2.1
100
AcDbArc
 50
78.46299999999998
 51
101.537
  0
ARC
  5
9432
330
929E
100
AcDbEntity
  8
1
  6
Continuous
100
AcDbCircle
 10
392.542754
 20
379.5236389999999
 30
0.0
 40
2.1
100
AcDbArc
 50
168.463
 51
191.5369999999998
  0
ARC
  5
9433
330
929E
100
AcDbEntity
  8
1
  6
Continuous
100
AcDbCircle
 10
392.542754
 20
379.5236389999999
 30
0.0
 40
2.1
100
AcDbArc
 50
258.4629999999999
 51
281.5369999999999
  0
CIRCLE
  5
9434
330
929E
100
AcDbEntity
  8
1
  6
Continuous
100
AcDbCircle
 10
392.542754
 20
379.5236389999999
 30
0.0
 40
3.5
  0
CIRCLE
  5
9435
330
929E
100
AcDbEntity
  8
1
  6
Continuous
100
AcDbCircle
 10
392.542754
 20
379.5236389999999
 30
0.0
 40
3.799999999999998
  0
CIRCLE
  5
9436
330
929E
100
AcDbEntity
  8
1
  6
Continuous
100
AcDbCircle
 10
392.542754
 20
338.523639
 30
0.0
 40
3.799999999999998
  0
ARC
  5
9437
330
929E
100
AcDbEntity
  8
1
  6
Continuous
100
AcDbCircle
 10
392.542754
 20
338.523639
 30
0.0
 40
2.1
100
AcDbArc
 50
348.463
 51
11.537
  0
ARC
  5
9438
330
929E
100
AcDbEntity
  8
1
  6
Continuous
100
AcDbCircle
 10
392.542754
 20
338.523639
 30
0.0
 40
2.1
100
AcDbArc
 50
78.46299999999998
 51
101.537
  0
ARC
  5
9439
330
929E
100
AcDbEntity
  8
1
  6
Continuous
100
AcDbCircle
 10
392.542754
 20
338.523639
 30
0.0
 40
2.1
100
AcDbArc
 50
168.463
 51
191.5369999999998
  0
ARC
  5
943A
330
929E
100
AcDbEntity
  8
1
  6
Continuous
100
AcDbCircle
 10
392.542754
 20
338.523639
 30
0.0
 40
2.1
100
AcDbArc
 50
258.4629999999999
 51
281.5369999999999
  0
CIRCLE
  5
943B
330
929E
100
AcDbEntity
  8
1
  6
Continuous
100
AcDbCircle
 10
392.542754
 20
338.523639
 30
0.0
 40
3.5
  0
ARC
  5
943C
330
929E
100
AcDbEntity
  8
1
  6
Continuous
100
AcDbCircle
 10
180.430754
 20
753.4256389999996
 30
0.0
 40
1.0
100
AcDbArc
 50
270.0
 51
0.0
  0
ARC
  5
943D
330
929E
100
AcDbEntity
  8
1
  6
Continuous
100
AcDbCircle
 10
120.430754
 20
753.4256389999996
 30
0.0
 40
1.0
100
AcDbArc
 50
180.0
 51
270.0
  0
ARC
  5
943E
330
929E
100
AcDbEntity
  8
1
  6
Continuous
100
AcDbCircle
 10
156.430754
 20
762.9256389999997
 30
0.0
 40
4.0
100
AcDbArc
 50
0.0
 51
180.0
  0
ARC
  5
943F
330
929E
100
AcDbEntity
  8
1
  6
Continuous
100
AcDbCircle
 10
161.430754
 20
753.4256389999996
 30
0.0
 40
1.0
100
AcDbArc
 50
180.0
 51
270.0
  0
ARC
  5
9440
330
929E
100
AcDbEntity
  8
1
  6
Continuous
100
AcDbCircle
 10
151.430754
 20
753.4256389999996
 30
0.0
 40
1.0
100
AcDbArc
 50
270.0
 51
0.0
  0
ARC
  5
9441
330
929E
100
AcDbEntity
  8
1
  6
Continuous
100
AcDbCircle
 10
295.2817539999998
 20
340.6306389999999
 30
0.0
 40
1.3
100
AcDbArc
 50
15.8808
 51
84.99990000000002
  0
ARC
  5
9442
330
929E
100
AcDbEntity
  8
1
  6
Continuous
100
AcDbCircle
 10
287.8757539999999
 20
338.523639
 30
0.0
 40
9.0
100
AcDbArc
 50
344.1190000000001
 51
15.8808
  0
ARC
  5
9443
330
929E
100
AcDbEntity
  8
1
  6
Continuous
100
AcDbCircle
 10
295.2817539999998
 20
336.4166389999998
 30
0.0
 40
1.3
100
AcDbArc
 50
275.0
 51
344.1190000000001
  0
ARC
  5
9444
330
929E
100
AcDbEntity
  8
1
  6
Continuous
100
AcDbCircle
 10
150.037754
 20
772.6316389999997
 30
0.0
 40
1.3
100
AcDbArc
 50
5.000059999999998
 51
74.11920000000002
  0
ARC
  5
9445
330
929E
100
AcDbEntity
  8
1
  6
Continuous
100
AcDbCircle
 10
147.930754
 20
765.2256389999998
 30
0.0
 40
9.0
100
AcDbArc
 50
74.11920000000002
 51
105.881
  0
ARC
  5
9446
330
929E
100
AcDbEntity
  8
1
  6
Continuous
100
AcDbCircle
 10
145.823754
 20
772.6316389999997
 30
0.0
 40
1.3
100
AcDbArc
 50
105.881
 51
175.0
  0
ARC
  5
9447
330
929E
100
AcDbEntity
  8
1
  6
Continuous
100
AcDbCircle
 10
295.2817539999998
 20
381.6306389999999
 30
0.0
 40
1.3
100
AcDbArc
 50
15.8808
 51
84.99990000000002
  0
ARC
  5
9448
330
929E
100
AcDbEntity
  8
1
  6
Continuous
100
AcDbCircle
 10
287.8757539999999
 20
379.5236389999999
 30
0.0
 40
9.0
100
AcDbArc
 50
344.1190000000001
 51
15.8808
  0
ARC
  5
9449
330
929E
100
AcDbEntity
  8
1
  6
Continuous
100
AcDbCircle
 10
295.2817539999998
 20
377.4166389999999
 30
0.0
 40
1.3
100
AcDbArc
 50
275.0
 51
344.1190000000001
  0
ARC
  5
944A
330
929E
100
AcDbEntity
  8
1
  6
Continuous
100
AcDbCircle
 10
14.579154
 20
340.6306389999999
 30
0.0
 40
1.3
100
AcDbArc
 50
95.00010000000001
 51
164.119
  0
ARC
  5
944B
330
929E
100
AcDbEntity
  8
1
  6
Continuous
100
AcDbCircle
 10
21.985254
 20
338.523639
 30
0.0
 40
9.0
100
AcDbArc
 50
164.119
 51
195.8809999999998
  0
ARC
  5
944C
330
929E
100
AcDbEntity
  8
1
  6
Continuous
100
AcDbCircle
 10
14.579154
 20
336.4166389999998
 30
0.0
 40
1.3
100
AcDbArc
 50
195.8809999999998
 51
265.0
  0
ARC
  5
944D
330
929E
100
AcDbEntity
  8
1
  6
Continuous
100
AcDbCircle
 10
14.579154
 20
381.6306389999999
 30
0.0
 40
1.3
100
AcDbArc
 50
95.00010000000001
 51
164.119
  0
ARC
  5
944E
330
929E
100
AcDbEntity
  8
1
  6
Continuous
100
AcDbCircle
 10
21.985254
 20
379.5236389999999
 30
0.0
 40
9.0
100
AcDbArc
 50
164.119
 51
195.8809999999998
  0
ARC
  5
944F
330
929E
100
AcDbEntity
  8
1
  6
Continuous
100
AcDbCircle
 10
14.579154
 20
377.4166389999999
 30
0.0
 40
1.3
100
AcDbArc
 50
195.8809999999998
 51
265.0
  0
ARC
  5
9450
330
929E
100
AcDbEntity
  8
1
  6
Continuous
100
AcDbCircle
 10
355.842754
 20
381.2236389999998
 30
0.0
 40
6.299999999999998
100
AcDbArc
 50
90.0
 51
180.0
  0
ARC
  5
9451
330
929E
100
AcDbEntity
  8
1
  6
Continuous
100
AcDbCircle
 10
355.842754
 20
336.823639
 30
0.0
 40
6.299999999999998
100
AcDbArc
 50
180.0
 51
270.0
  0
ARC
  5
9452
330
929E
100
AcDbEntity
  8
1
  6
Continuous
100
AcDbCircle
 10
421.042754
 20
384.023639
 30
0.0
 40
3.5
100
AcDbArc
 50
0.0
 51
90.0
  0
ARC
  5
9453
330
929E
100
AcDbEntity
  8
1
  6
Continuous
100
AcDbCircle
 10
421.042754
 20
334.023639
 30
0.0
 40
3.5
100
AcDbArc
 50
270.0
 51
0.0
  0
ARC
  5
9454
330
929E
100
AcDbEntity
  8
1
  6
Continuous
100
AcDbCircle
 10
357.6747539999999
 20
379.823639
 30
0.0
 40
4.2
100
AcDbArc
 50
90.0
 51
180.0
  0
ARC
  5
9455
330
929E
100
AcDbEntity
  8
1
  6
Continuous
100
AcDbCircle
 10
357.6747539999999
 20
338.223639
 30
0.0
 40
4.2
100
AcDbArc
 50
180.0
 51
270.0
  0
ARC
  5
9456
330
929E
100
AcDbEntity
  8
1
  6
Continuous
100
AcDbCircle
 10
59.62465400000001
 20
387.5236389999998
 30
0.0
 40
2.5
100
AcDbArc
 50
53.13009999999999
 51
90.0
  0
ARC
  5
9457
330
929E
100
AcDbEntity
  8
1
  6
Continuous
100
AcDbCircle
 10
55.124654
 20
385.023639
 30
0.0
 40
7.5
100
AcDbArc
 50
0.0
 51
36.8699
  0
ARC
  5
9458
330
929E
100
AcDbEntity
  8
1
  6
Continuous
100
AcDbCircle
 10
55.124654
 20
333.023639
 30
0.0
 40
7.5
100
AcDbArc
 50
323.13
 51
0.0
  0
ARC
  5
9459
330
929E
100
AcDbEntity
  8
1
  6
Continuous
100
AcDbCircle
 10
59.62465400000001
 20
330.523639
 30
0.0
 40
2.5
100
AcDbArc
 50
270.0
 51
306.87
  0
ARC
  5
945A
330
929E
100
AcDbEntity
  8
1
  6
Continuous
100
AcDbCircle
 10
46.124654
 20
348.523639
 30
0.0
 40
0.5
100
AcDbArc
 50
90.0
 51
180.0
  0
ARC
  5
945B
330
929E
100
AcDbEntity
  8
1
  6
Continuous
100
AcDbCircle
 10
46.124654
 20
344.523639
 30
0.0
 40
0.5
100
AcDbArc
 50
180.0
 51
270.0
  0
ARC
  5
945C
330
929E
100
AcDbEntity
  8
1
  6
Continuous
100
AcDbCircle
 10
48.124654
 20
344.523639
 30
0.0
 40
0.5
100
AcDbArc
 50
270.0
 51
0.0
  0
ARC
  5
945D
330
929E
100
AcDbEntity
  8
1
  6
Continuous
100
AcDbCircle
 10
48.124654
 20
348.523639
 30
0.0
 40
0.5
100
AcDbArc
 50
0.0
 51
90.0
  0
ARC
  5
945E
330
929E
100
AcDbEntity
  8
1
  6
Continuous
100
AcDbCircle
 10
46.124654
 20
373.523639
 30
0.0
 40
0.5
100
AcDbArc
 50
90.0
 51
180.0
  0
ARC
  5
945F
330
929E
100
AcDbEntity
  8
1
  6
Continuous
100
AcDbCircle
 10
46.124654
 20
369.523639
 30
0.0
 40
0.5
100
AcDbArc
 50
180.0
 51
270.0
  0
ARC
  5
9460
330
929E
100
AcDbEntity
  8
1
  6
Continuous
100
AcDbCircle
 10
48.124654
 20
369.523639
 30
0.0
 40
0.5
100
AcDbArc
 50
270.0
 51
0.0
  0
ARC
  5
9461
330
929E
100
AcDbEntity
  8
1
  6
Continuous
100
AcDbCircle
 10
48.124654
 20
373.523639
 30
0.0
 40
0.5
100
AcDbArc
 50
0.0
 51
90.0
  0
ARC
  5
9462
330
929E
100
AcDbEntity
  8
1
  6
Continuous
100
AcDbCircle
 10
257.736754
 20
47.523639
 30
0.0
 40
0.5
100
AcDbArc
 50
180.0
 51
315.0
  0
ARC
  5
9463
330
929E
100
AcDbEntity
  8
1
  6
Continuous
100
AcDbCircle
 10
140.9807539999999
 20
738.8136389999997
 30
0.0
 40
2.0
100
AcDbArc
 50
90.0
 51
180.0
  0
ARC
  5
9464
330
929E
100
AcDbEntity
  8
1
  6
Continuous
100
AcDbCircle
 10
171.9807539999999
 20
738.8136389999997
 30
0.0
 40
2.0
100
AcDbArc
 50
0.000003
 51
90.0
  0
ARC
  5
9465
330
929E
100
AcDbEntity
  8
1
  6
Continuous
100
AcDbCircle
 10
171.9807539999999
 20
729.8136389999997
 30
0.0
 40
2.0
100
AcDbArc
 50
270.0
 51
0.000003
  0
ARC
  5
9466
330
929E
100
AcDbEntity
  8
1
  6
Continuous
100
AcDbCircle
 10
140.9807539999999
 20
729.8136389999997
 30
0.0
 40
2.0
100
AcDbArc
 50
180.0
 51
270.0
  0
ARC
  5
9467
330
929E
100
AcDbEntity
  8
1
  6
Continuous
100
AcDbCircle
 10
152.980754
 20
737.8136389999997
 30
0.0
 40
1.0
100
AcDbArc
 50
90.0
 51
180.0
  0
ARC
  5
9468
330
929E
100
AcDbEntity
  8
1
  6
Continuous
100
AcDbCircle
 10
159.980754
 20
737.8136389999997
 30
0.0
 40
1.0
100
AcDbArc
 50
0.000003
 51
90.0
  0
ARC
  5
9469
330
929E
100
AcDbEntity
  8
1
  6
Continuous
100
AcDbCircle
 10
159.980754
 20
730.8136389999997
 30
0.0
 40
1.0
100
AcDbArc
 50
270.0
 51
0.000003
  0
ARC
  5
946A
330
929E
100
AcDbEntity
  8
1
  6
Continuous
100
AcDbCircle
 10
152.980754
 20
730.8136389999997
 30
0.0
 40
1.0
100
AcDbArc
 50
180.0
 51
270.0
  0
CIRCLE
  5
946B
330
929E
100
AcDbEntity
  8
2
  6
Continuous
100
AcDbCircle
 10
168.9807539999998
 20
734.3136389999997
 30
0.0
 40
1.5
  0
CIRCLE
  5
946C
330
929E
100
AcDbEntity
  8
2
  6
Continuous
100
AcDbCircle
 10
143.9807539999998
 20
734.3136389999997
 30
0.0
 40
1.5
  0
CIRCLE
  5
946D
330
929E
100
AcDbEntity
  8
1
  6
Continuous
100
AcDbCircle
 10
168.9807539999998
 20
734.3136389999997
 30
0.0
 40
1.2295
  0
CIRCLE
  5
946E
330
929E
100
AcDbEntity
  8
1
  6
Continuous
100
AcDbCircle
 10
143.9807539999998
 20
734.3136389999997
 30
0.0
 40
1.2295
  0
ARC
  5
946F
330
929E
100
AcDbEntity
  8
5
  6
PHANTOM
100
AcDbCircle
 10
152.980754
 20
54.523639
 30
0.0
 40
1.0
100
AcDbArc
 50
180.0
 51
270.0
  0
ARC
  5
9470
330
929E
100
AcDbEntity
  8
5
  6
PHANTOM
100
AcDbCircle
 10
159.980754
 20
54.523639
 30
0.0
 40
1.0
100
AcDbArc
 50
270.0
 51
0.0
  0
ARC
  5
9471
330
929E
100
AcDbEntity
  8
1
  6
Continuous
100
AcDbCircle
 10
163.9807539999999
 20
63.023639
 30
0.0
 40
1.0
100
AcDbArc
 50
180.0
 51
270.0
  0
ARC
  5
9472
330
929E
100
AcDbEntity
  8
1
  6
Continuous
100
AcDbCircle
 10
148.9807539999999
 20
63.023639
 30
0.0
 40
1.0
100
AcDbArc
 50
270.0
 51
0.0
  0
ARC
  5
9473
330
929E
100
AcDbEntity
  8
1
  6
Continuous
100
AcDbCircle
 10
161.980754
 20
86.023639
 30
0.0
 40
1.0
100
AcDbArc
 50
0.0
 51
90.0
  0
ARC
  5
9474
330
929E
100
AcDbEntity
  8
1
  6
Continuous
100
AcDbCircle
 10
150.9807539999999
 20
86.023639
 30
0.0
 40
1.0
100
AcDbArc
 50
90.0
 51
180.0
  0
ARC
  5
9475
330
929E
100
AcDbEntity
  8
1
  6
Continuous
100
AcDbCircle
 10
150.9807539999999
 20
632.0236389999998
 30
0.0
 40
1.0
100
AcDbArc
 50
180.0
 51
270.0
  0
ARC
  5
9476
330
929E
100
AcDbEntity
  8
1
  6
Continuous
100
AcDbCircle
 10
152.980754
 20
670.023639
 30
0.0
 40
1.0
100
AcDbArc
 50
90.0
 51
180.0
  0
ARC
  5
9477
330
929E
100
AcDbEntity
  8
1
  6
Continuous
100
AcDbCircle
 10
159.980754
 20
670.023639
 30
0.0
 40
1.0
100
AcDbArc
 50
0.000003
 51
90.0
  0
ARC
  5
9478
330
929E
100
AcDbEntity
  8
1
  6
Continuous
100
AcDbCircle
 10
163.9807539999999
 20
655.023639
 30
0.0
 40
1.0
100
AcDbArc
 50
90.0
 51
180.0
  0
ARC
  5
9479
330
929E
100
AcDbEntity
  8
1
  6
Continuous
100
AcDbCircle
 10
148.9807539999999
 20
655.023639
 30
0.0
 40
1.0
100
AcDbArc
 50
0.000003
 51
90.0
  0
ARC
  5
947A
330
929E
100
AcDbEntity
  8
1
  6
Continuous
100
AcDbCircle
 10
161.980754
 20
632.0236389999998
 30
0.0
 40
1.0
100
AcDbArc
 50
270.0
 51
0.000003
  0
ARC
  5
947B
330
929E
100
AcDbEntity
  8
1
  6
Continuous
100
AcDbCircle
 10
380.4927539999998
 20
48.023639
 30
0.0
 40
1.0
100
AcDbArc
 50
180.0
 51
270.0
  0
ARC
  5
947C
330
929E
100
AcDbEntity
  8
1
  6
Continuous
100
AcDbCircle
 10
387.4927539999998
 20
48.023639
 30
0.0
 40
1.0
100
AcDbArc
 50
270.0
 51
0.0
  0
ARC
  5
947D
330
929E
100
AcDbEntity
  8
1
  6
Continuous
100
AcDbCircle
 10
391.4927539999998
 20
63.023639
 30
0.0
 40
1.0
100
AcDbArc
 50
180.0
 51
270.0
  0
ARC
  5
947E
330
929E
100
AcDbEntity
  8
1
  6
Continuous
100
AcDbCircle
 10
376.4927539999998
 20
63.023639
 30
0.0
 40
1.0
100
AcDbArc
 50
270.0
 51
0.0
  0
ARC
  5
947F
330
929E
100
AcDbEntity
  8
1
  6
Continuous
100
AcDbCircle
 10
389.4927539999998
 20
86.023639
 30
0.0
 40
1.0
100
AcDbArc
 50
0.0
 51
90.0
  0
ARC
  5
9480
330
929E
100
AcDbEntity
  8
1
  6
Continuous
100
AcDbCircle
 10
378.4927539999998
 20
86.023639
 30
0.0
 40
1.0
100
AcDbArc
 50
90.0
 51
180.0
  0
ARC
  5
9481
330
929E
100
AcDbEntity
  8
1
  6
Continuous
100
AcDbCircle
 10
378.4927539999998
 20
632.0236389999998
 30
0.0
 40
1.0
100
AcDbArc
 50
180.0
 51
270.0
  0
ARC
  5
9482
330
929E
100
AcDbEntity
  8
1
  6
Continuous
100
AcDbCircle
 10
380.4927539999998
 20
670.023639
 30
0.0
 40
1.0
100
AcDbArc
 50
90.0
 51
180.0
  0
ARC
  5
9483
330
929E
100
AcDbEntity
  8
1
  6
Continuous
100
AcDbCircle
 10
387.4927539999998
 20
670.023639
 30
0.0
 40
1.0
100
AcDbArc
 50
0.000003
 51
90.0
  0
ARC
  5
9484
330
929E
100
AcDbEntity
  8
1
  6
Continuous
100
AcDbCircle
 10
391.4927539999998
 20
655.023639
 30
0.0
 40
1.0
100
AcDbArc
 50
90.0
 51
180.0
  0
ARC
  5
9485
330
929E
100
AcDbEntity
  8
1
  6
Continuous
100
AcDbCircle
 10
376.4927539999998
 20
655.023639
 30
0.0
 40
1.0
100
AcDbArc
 50
0.000003
 51
90.0
  0
ARC
  5
9486
330
929E
100
AcDbEntity
  8
1
  6
Continuous
100
AcDbCircle
 10
389.4927539999998
 20
632.0236389999998
 30
0.0
 40
1.0
100
AcDbArc
 50
270.0
 51
0.000003
  0
ARC
  5
9487
330
929E
100
AcDbEntity
  8
1
  6
Continuous
100
AcDbCircle
 10
257.736754
 20
670.523639
 30
0.0
 40
0.5
100
AcDbArc
 50
45.0
 51
180.0
  0
ARC
  5
9488
330
929E
100
AcDbEntity
  8
5
  6
PHANTOM
100
AcDbCircle
 10
52.124654
 20
37.52363900000001
 30
0.0
 40
0.5
100
AcDbArc
 50
225.0
 51
0.0
  0
ARC
  5
9489
330
929E
100
AcDbEntity
  8
5
  6
PHANTOM
100
AcDbCircle
 10
52.124654
 20
680.523639
 30
0.0
 40
0.5
100
AcDbArc
 50
0.000003
 51
135.0
  0
ARC
  5
948A
330
929E
100
AcDbEntity
  8
5
  6
PHANTOM
100
AcDbCircle
 10
159.980754
 20
38.023639
 30
0.0
 40
1.0
100
AcDbArc
 50
270.0
 51
0.0
  0
ARC
  5
948B
330
929E
100
AcDbEntity
  8
5
  6
PHANTOM
100
AcDbCircle
 10
152.980754
 20
38.023639
 30
0.0
 40
1.0
100
AcDbArc
 50
180.0
 51
270.0
  0
ARC
  5
948C
330
929E
100
AcDbEntity
  8
1
  6
Continuous
100
AcDbCircle
 10
159.980754
 20
48.023639
 30
0.0
 40
1.0
100
AcDbArc
 50
270.0
 51
0.0
  0
ARC
  5
948D
330
929E
100
AcDbEntity
  8
1
  6
Continuous
100
AcDbCircle
 10
152.980754
 20
48.023639
 30
0.0
 40
1.0
100
AcDbArc
 50
180.0
 51
270.0
  0
ARC
  5
948E
330
929E
100
AcDbEntity
  8
5
  6
PHANTOM
100
AcDbCircle
 10
152.980754
 20
663.523639
 30
0.0
 40
1.0
100
AcDbArc
 50
90.0
 51
180.0
  0
ARC
  5
948F
330
929E
100
AcDbEntity
  8
5
  6
PHANTOM
100
AcDbCircle
 10
159.980754
 20
663.523639
 30
0.0
 40
1.0
100
AcDbArc
 50
0.000003
 51
90.0
  0
ARC
  5
9490
330
929E
100
AcDbEntity
  8
5
  6
PHANTOM
100
AcDbCircle
 10
159.980754
 20
680.023639
 30
0.0
 40
1.0
100
AcDbArc
 50
0.000003
 51
90.0
  0
ARC
  5
9491
330
929E
100
AcDbEntity
  8
5
  6
PHANTOM
100
AcDbCircle
 10
152.980754
 20
680.023639
 30
0.0
 40
1.0
100
AcDbArc
 50
90.0
 51
180.0
  0
ARC
  5
9492
330
929E
100
AcDbEntity
  8
5
  6
PHANTOM
100
AcDbCircle
 10
52.124654
 20
664.023639
 30
0.0
 40
0.5
100
AcDbArc
 50
0.000003
 51
135.0
  0
ARC
  5
9493
330
929E
100
AcDbEntity
  8
1
  6
Continuous
100
AcDbCircle
 10
52.124654
 20
670.523639
 30
0.0
 40
0.5
100
AcDbArc
 50
0.000003
 51
135.0
  0
ARC
  5
9494
330
929E
100
AcDbEntity
  8
1
  6
Continuous
100
AcDbCircle
 10
52.124654
 20
47.523639
 30
0.0
 40
0.5
100
AcDbArc
 50
225.0
 51
0.0
  0
ARC
  5
9495
330
929E
100
AcDbEntity
  8
5
  6
PHANTOM
100
AcDbCircle
 10
52.124654
 20
54.023639
 30
0.0
 40
0.5
100
AcDbArc
 50
225.0
 51
0.0
  0
CIRCLE
  5
9496
330
929E
100
AcDbEntity
  8
1
  6
Continuous
100
AcDbCircle
 10
127.4307539999999
 20
726.0636389999997
 30
0.0
 40
2.0
  0
ARC
  5
9497
330
929E
100
AcDbEntity
  8
1
  6
Continuous
100
AcDbCircle
 10
292.075754
 20
385.323639
 30
0.0
 40
1.199999999999999
100
AcDbArc
 50
0.0
 51
90.0
  0
ARC
  5
9498
330
929E
100
AcDbEntity
  8
1
  6
Continuous
100
AcDbCircle
 10
292.075754
 20
332.7236389999999
 30
0.0
 40
1.199999999999999
100
AcDbArc
 50
270.0
 51
0.0
  0
ARC
  5
9499
330
929E
100
AcDbEntity
  8
1
  6
Continuous
100
AcDbCircle
 10
17.78525399999999
 20
385.323639
 30
0.0
 40
1.199999999999999
100
AcDbArc
 50
90.0
 51
180.0
  0
ARC
  5
949A
330
929E
100
AcDbEntity
  8
1
  6
Continuous
100
AcDbCircle
 10
17.78525399999999
 20
332.7236389999999
 30
0.0
 40
1.199999999999999
100
AcDbArc
 50
180.0
 51
270.0
  0
ENDSEC
  0
SECTION
  2
OBJECTS
  0
DICTIONARY
  5
928C
330
0
100
AcDbDictionary
281
     1
  3
ACAD_CIP_PREVIOUS_PRODUCT_INFO
350
9500
  3
ACAD_COLOR
350
94E2
  3
ACAD_DETAILVIEWSTYLE
350
94FB
  3
ACAD_GROUP
350
928D
  3
ACAD_LAYOUT
350
9299
  3
ACAD_MATERIAL
350
94B0
  3
ACAD_MLEADERSTYLE
350
94F7
  3
ACAD_MLINESTYLE
350
9296
  3
ACAD_PLOTSETTINGS
350
9298
  3
ACAD_PLOTSTYLENAME
350
94AE
  3
ACAD_SCALELIST
350
94E5
  3
ACAD_SECTIONVIEWSTYLE
350
94F9
  3
ACAD_TABLESTYLE
350
94E3
  3
ACAD_VISUALSTYLE
350
94C9
  3
ACDB_RECOMPOSE_DATA
350
951E
  3
AcDbVariableDictionary
350
9511
  3
DWGPROPS
350
951F
  0
DICTIONARY
  5
9501
330
9290
100
AcDbDictionary
280
     1
281
     1
  3
ADSK_XREC_LAYER_RECONCILED
360
9502
  0
DICTIONARY
  5
9503
330
92A6
100
AcDbDictionary
280
     1
281
     1
  3
ADSK_XREC_LAYER_RECONCILED
360
9504
  0
DICTIONARY
  5
9505
330
92A7
100
AcDbDictionary
280
     1
281
     1
  3
ADSK_XREC_LAYER_RECONCILED
360
9506
  0
DICTIONARY
  5
9507
330
92A8
100
AcDbDictionary
280
     1
281
     1
  3
ADSK_XREC_LAYER_RECONCILED
360
9508
  0
DICTIONARY
  5
9509
330
92A9
100
AcDbDictionary
280
     1
281
     1
  3
ADSK_XREC_LAYER_RECONCILED
360
950A
  0
DICTIONARY
  5
950B
330
92AA
100
AcDbDictionary
280
     1
281
     1
  3
ADSK_XREC_LAYER_RECONCILED
360
950C
  0
DICTIONARY
  5
950D
330
92AB
100
AcDbDictionary
280
     1
281
     1
  3
ADSK_XREC_LAYER_RECONCILED
360
950E
  0
DICTIONARY
  5
950F
330
92AC
100
AcDbDictionary
280
     1
281
     1
  3
ADSK_XREC_LAYER_RECONCILED
360
9510
  0
DICTIONARY
  5
94A9
330
929E
100
AcDbDictionary
281
     1
  3
ACAD_LAYOUTSELFREF
350
94AA
  0
DICTIONARY
  5
94A7
330
929A
100
AcDbDictionary
281
     1
  3
ACAD_LAYOUTSELFREF
350
94A8
  0
XRECORD
  5
9500
102
{ACAD_REACTORS
330
928C
102
}
330
928C
100
AcDbXrecord
280
     1
300
ACDLT
300
2014
300
ACDLT_F_S
  0
DICTIONARY
  5
94E2
102
{ACAD_REACTORS
330
928C
102
}
330
928C
100
AcDbDictionary
281
     1
  0
DICTIONARY
  5
94FB
102
{ACAD_REACTORS
330
928C
102
}
330
928C
100
AcDbDictionary
281
     1
  3
Imperial24
350
94FC
  0
DICTIONARY
  5
928D
102
{ACAD_REACTORS
330
928C
102
}
330
928C
100
AcDbDictionary
281
     1
  0
DICTIONARY
  5
9299
102
{ACAD_REACTORS
330
928C
102
}
330
928C
100
AcDbDictionary
281
     1
  3
Model
350
94FD
  3
レイアウト1
350
94FE
  0
DICTIONARY
  5
94B0
102
{ACAD_REACTORS
330
928C
102
}
330
928C
100
AcDbDictionary
281
     1
  3
ByBlock
350
94B9
  3
ByLayer
350
94B1
  3
Global
350
94C1
  0
DICTIONARY
  5
94F7
102
{ACAD_REACTORS
330
928C
102
}
330
928C
100
AcDbDictionary
281
     1
  3
Standard
350
94F8
  0
DICTIONARY
  5
9296
102
{ACAD_REACTORS
330
928C
102
}
330
928C
100
AcDbDictionary
281
     1
  3
STANDARD
350
9297
  0
DICTIONARY
  5
9298
102
{ACAD_REACTORS
330
928C
102
}
330
928C
100
AcDbDictionary
281
     1
  0
ACDBDICTIONARYWDFLT
  5
94AE
102
{ACAD_REACTORS
330
928C
102
}
330
928C
100
AcDbDictionary
281
     1
  3
Normal
350
94AF
100
AcDbDictionaryWithDefault
340
94AF
  0
DICTIONARY
  5
94E5
102
{ACAD_REACTORS
330
928C
102
}
330
928C
100
AcDbDictionary
281
     1
  3
A0
350
94E6
  3
A1
350
94E7
  3
A2
350
94E8
  3
A3
350
94E9
  3
A4
350
94EA
  3
A5
350
94EB
  3
A6
350
94EC
  3
A7
350
94ED
  3
A8
350
94EE
  3
A9
350
94EF
  3
B0
350
94F0
  3
B1
350
94F1
  3
B2
350
94F2
  3
B3
350
94F3
  3
B4
350
94F4
  3
B5
350
94F5
  3
B6
350
94F6
  0
DICTIONARY
  5
94F9
102
{ACAD_REACTORS
330
928C
102
}
330
928C
100
AcDbDictionary
281
     1
  3
Imperial24
350
94FA
  0
DICTIONARY
  5
94E3
102
{ACAD_REACTORS
330
928C
102
}
330
928C
100
AcDbDictionary
281
     1
  3
Standard
350
94E4
  0
DICTIONARY
  5
94C9
102
{ACAD_REACTORS
330
928C
102
}
330
928C
100
AcDbDictionary
281
     1
  3
2dWireframe
350
94CF
  3
Basic
350
94CE
  3
Brighten
350
94D5
  3
ColorChange
350
94D9
  3
Conceptual
350
94D2
  3
Dim
350
94D4
  3
EdgeColorOff
350
94E1
  3
Facepattern
350
94D8
  3
Flat
350
94CA
  3
FlatWithEdges
350
94CB
  3
Gouraud
350
94CC
  3
GouraudWithEdges
350
94CD
  3
Hidden
350
94D1
  3
JitterOff
350
94DF
  3
Linepattern
350
94D7
  3
OverhangOff
350
94E0
  3
Realistic
350
94D3
  3
Shaded
350
94DE
  3
Shaded with edges
350
94DD
  3
Shades of Gray
350
94DA
  3
Sketchy
350
94DB
  3
Thicken
350
94D6
  3
Wireframe
350
94D0
  3
X-Ray
350
94DC
  0
XRECORD
  5
951E
102
{ACAD_REACTORS
330
928C
102
}
330
928C
100
AcDbXrecord
280
     1
 90
        1
330
94E4
  0
DICTIONARY
  5
9511
102
{ACAD_REACTORS
330
928C
102
}
330
928C
100
AcDbDictionary
281
     1
  3
CANNOSCALE
350
9516
  3
CMLEADERSTYLE
350
9513
  3
CTABLESTYLE
350
9512
  3
CVIEWDETAILSTYLE
350
9514
  3
CVIEWSECTIONSTYLE
350
9515
  3
DIMASSOC
350
9519
  3
INDEXCTL
350
9518
  3
SORTENTS
350
9517
  3
XCLIPFRAME
350
951A
  0
XRECORD
  5
951F
102
{ACAD_REACTORS
330
928C
102
}
330
928C
100
AcDbXrecord
280
     1
  1
DWGPROPS COOKIE
  2

  3

  4

  6

  7

  8
Yoshitsune
  9

300
=
301
=
302
=
303
=
304
=
305
=
306
=
307
=
308
=
309
=
 40
0.0000158796296296
 41
2450737.659814005
 42
2457192.640107269
  1

 90
        0
  0
XRECORD
  5
9502
102
{ACAD_REACTORS
330
9501
102
}
330
9501
100
AcDbXrecord
280
     1
290
     1
  0
XRECORD
  5
9504
102
{ACAD_REACTORS
330
9503
102
}
330
9503
100
AcDbXrecord
280
     1
290
     1
  0
XRECORD
  5
9506
102
{ACAD_REACTORS
330
9505
102
}
330
9505
100
AcDbXrecord
280
     1
290
     1
  0
XRECORD
  5
9508
102
{ACAD_REACTORS
330
9507
102
}
330
9507
100
AcDbXrecord
280
     1
290
     1
  0
XRECORD
  5
950A
102
{ACAD_REACTORS
330
9509
102
}
330
9509
100
AcDbXrecord
280
     1
290
     1
  0
XRECORD
  5
950C
102
{ACAD_REACTORS
330
950B
102
}
330
950B
100
AcDbXrecord
280
     1
290
     1
  0
XRECORD
  5
950E
102
{ACAD_REACTORS
330
950D
102
}
330
950D
100
AcDbXrecord
280
     1
290
     1
  0
XRECORD
  5
9510
102
{ACAD_REACTORS
330
950F
102
}
330
950F
100
AcDbXrecord
280
     1
290
     1
  0
XRECORD
  5
94AA
102
{ACAD_REACTORS
330
94A9
102
}
330
94A9
100
AcDbXrecord
280
     1
340
929E
  0
XRECORD
  5
94A8
102
{ACAD_REACTORS
330
94A7
102
}
330
94A7
100
AcDbXrecord
280
     1
340
929A
  0
ACDBDETAILVIEWSTYLE
  5
94FC
102
{ACAD_XDICTIONARY
360
9557
102
}
102
{ACAD_REACTORS
330
94FB
102
}
330
94FB
100
AcDbModelDocViewStyle
 70
     0
  3
Imperial24
290
     0
100
AcDbDetailViewStyle
 70
     0
 71
     0
 90
        3
 71
     1
340
9291
 40
0.24
340
0
 40
0.24
300

 40
0.36
280
     3
 71
     2
340
9295
 90
       25
 71
     3
340
9291
 40
0.24
 90
        1
 40
0.75
 90
        1
300
%<\AcVar ViewType \f "%tc1">% %<\AcVar ViewDetailId>%\PSCALE %<\AcVar ViewScale \f "%sn">%
 71
     4
340
9295
 90
       25
340
9295
 90
       25
280
     0
  0
LAYOUT
  5
94FD
102
{ACAD_XDICTIONARY
360
9559
102
}
102
{ACAD_REACTORS
330
9299
102
}
330
9299
100
AcDbPlotSettings
  1

  2
Canon LBP9100C
  4

  6

 40
0.0
 41
0.0
 42
0.0
 43
0.0
 44
0.0
 45
0.0
 46
0.0
 47
0.0
 48
0.0
 49
0.0
140
0.0
141
0.0
142
1.0
143
1.0
 70
  1712
 72
     0
 73
     0
 74
     0
  7

 75
     0
147
1.0
148
0.0
149
0.0
100
AcDbLayout
  1
Model
 70
     1
 71
     0
 10
0.0
 20
0.0
 11
12.0
 21
9.0
 12
0.0
 22
0.0
 32
0.0
 14
0.0
 24
0.0
 34
0.0
 15
0.0
 25
0.0
 35
0.0
146
0.0
 13
0.0
 23
0.0
 33
0.0
 16
1.0
 26
0.0
 36
0.0
 17
0.0
 27
1.0
 37
0.0
 76
     0
330
929E
331
94A6
  0
LAYOUT
  5
94FE
102
{ACAD_XDICTIONARY
360
955B
102
}
102
{ACAD_REACTORS
330
9299
102
}
330
9299
100
AcDbPlotSettings
  1

  2
Canon LBP9100C
  4

  6

 40
0.0
 41
0.0
 42
0.0
 43
0.0
 44
0.0
 45
0.0
 46
0.0
 47
0.0
 48
0.0
 49
0.0
140
0.0
141
0.0
142
1.0
143
1.0
 70
   688
 72
     0
 73
     0
 74
     5
  7

 75
    16
147
1.0
148
0.0
149
0.0
100
AcDbLayout
  1
レイアウト1
 70
     0
 71
     1
 10
0.0
 20
0.0
 11
420.0
 21
297.0
 12
0.0
 22
0.0
 32
0.0
 14
1.000000000000000E+20
 24
1.000000000000000E+20
 34
1.000000000000000E+20
 15
-1.000000000000000E+20
 25
-1.000000000000000E+20
 35
-1.000000000000000E+20
146
0.0
 13
0.0
 23
0.0
 33
0.0
 16
1.0
 26
0.0
 36
0.0
 17
0.0
 27
1.0
 37
0.0
 76
     0
330
929A
  0
MATERIAL
  5
94B9
102
{ACAD_XDICTIONARY
360
94BA
102
}
102
{ACAD_REACTORS
330
94B0
102
}
330
94B0
100
AcDbMaterial
  1
ByBlock
 72
     0
 43
0.0208333333333333
 43
0.0
 43
0.0
 43
0.0
 43
0.0
 43
0.0208333333333333
 43
0.0
 43
0.0
 43
0.0
 43
0.0
 43
1.0
 43
0.0
 43
0.0
 43
0.0
 43
0.0
 43
1.0
 77
     0
 47
0.0208333333333333
 47
0.0
 47
0.0
 47
0.0
 47
0.0
 47
0.0208333333333333
 47
0.0
 47
0.0
 47
0.0
 47
0.0
 47
1.0
 47
0.0
 47
0.0
 47
0.0
 47
0.0
 47
1.0
171
     0
 49
0.0208333333333333
 49
0.0
 49
0.0
 49
0.0
 49
0.0
 49
0.0208333333333333
 49
0.0
 49
0.0
 49
0.0
 49
0.0
 49
1.0
 49
0.0
 49
0.0
 49
0.0
 49
0.0
 49
1.0
175
     0
142
0.0208333333333333
142
0.0
142
0.0
142
0.0
142
0.0
142
0.0208333333333333
142
0.0
142
0.0
142
0.0
142
0.0
142
1.0
142
0.0
142
0.0
142
0.0
142
0.0
142
1.0
179
     0
144
0.0208333333333333
144
0.0
144
0.0
144
0.0
144
0.0
144
0.0208333333333333
144
0.0
144
0.0
144
0.0
144
0.0
144
1.0
144
0.0
144
0.0
144
0.0
144
0.0
144
1.0
147
0.0208333333333333
147
0.0
147
0.0
147
0.0
147
0.0
147
0.0208333333333333
147
0.0
147
0.0
147
0.0
147
0.0
147
1.0
147
0.0
147
0.0
147
0.0
147
0.0
147
1.0
  0
MATERIAL
  5
94B1
102
{ACAD_XDICTIONARY
360
94B2
102
}
102
{ACAD_REACTORS
330
94B0
102
}
330
94B0
100
AcDbMaterial
  1
ByLayer
 72
     0
 43
0.0208333333333333
 43
0.0
 43
0.0
 43
0.0
 43
0.0
 43
0.0208333333333333
 43
0.0
 43
0.0
 43
0.0
 43
0.0
 43
1.0
 43
0.0
 43
0.0
 43
0.0
 43
0.0
 43
1.0
 77
     0
 47
0.0208333333333333
 47
0.0
 47
0.0
 47
0.0
 47
0.0
 47
0.0208333333333333
 47
0.0
 47
0.0
 47
0.0
 47
0.0
 47
1.0
 47
0.0
 47
0.0
 47
0.0
 47
0.0
 47
1.0
171
     0
 49
0.0208333333333333
 49
0.0
 49
0.0
 49
0.0
 49
0.0
 49
0.0208333333333333
 49
0.0
 49
0.0
 49
0.0
 49
0.0
 49
1.0
 49
0.0
 49
0.0
 49
0.0
 49
0.0
 49
1.0
175
     0
142
0.0208333333333333
142
0.0
142
0.0
142
0.0
142
0.0
142
0.0208333333333333
142
0.0
142
0.0
142
0.0
142
0.0
142
1.0
142
0.0
142
0.0
142
0.0
142
0.0
142
1.0
179
     0
144
0.0208333333333333
144
0.0
144
0.0
144
0.0
144
0.0
144
0.0208333333333333
144
0.0
144
0.0
144
0.0
144
0.0
144
1.0
144
0.0
144
0.0
144
0.0
144
0.0
144
1.0
147
0.0208333333333333
147
0.0
147
0.0
147
0.0
147
0.0
147
0.0208333333333333
147
0.0
147
0.0
147
0.0
147
0.0
147
1.0
147
0.0
147
0.0
147
0.0
147
0.0
147
1.0
  0
MATERIAL
  5
94C1
102
{ACAD_XDICTIONARY
360
94C2
102
}
102
{ACAD_REACTORS
330
94B0
102
}
330
94B0
100
AcDbMaterial
  1
Global
 72
     0
 43
0.0208333333333333
 43
0.0
 43
0.0
 43
0.0
 43
0.0
 43
0.0208333333333333
 43
0.0
 43
0.0
 43
0.0
 43
0.0
 43
1.0
 43
0.0
 43
0.0
 43
0.0
 43
0.0
 43
1.0
 77
     0
 47
0.0208333333333333
 47
0.0
 47
0.0
 47
0.0
 47
0.0
 47
0.0208333333333333
 47
0.0
 47
0.0
 47
0.0
 47
0.0
 47
1.0
 47
0.0
 47
0.0
 47
0.0
 47
0.0
 47
1.0
171
     0
 49
0.0208333333333333
 49
0.0
 49
0.0
 49
0.0
 49
0.0
 49
0.0208333333333333
 49
0.0
 49
0.0
 49
0.0
 49
0.0
 49
1.0
 49
0.0
 49
0.0
 49
0.0
 49
0.0
 49
1.0
175
     0
142
0.0208333333333333
142
0.0
142
0.0
142
0.0
142
0.0
142
0.0208333333333333
142
0.0
142
0.0
142
0.0
142
0.0
142
1.0
142
0.0
142
0.0
142
0.0
142
0.0
142
1.0
179
     0
144
0.0208333333333333
144
0.0
144
0.0
144
0.0
144
0.0
144
0.0208333333333333
144
0.0
144
0.0
144
0.0
144
0.0
144
1.0
144
0.0
144
0.0
144
0.0
144
0.0
144
1.0
147
0.0208333333333333
147
0.0
147
0.0
147
0.0
147
0.0
147
0.0208333333333333
147
0.0
147
0.0
147
0.0
147
0.0
147
1.0
147
0.0
147
0.0
147
0.0
147
0.0
147
1.0
  0
MLEADERSTYLE
  5
94F8
102
{ACAD_REACTORS
330
94F7
102
}
330
94F7
100
AcDbMLeaderStyle
170
     2
171
     1
172
     0
 90
        2
 40
0.0
 41
0.0
173
     1
 91
-1056964608
340
9293
 92
       -2
290
     1
 42
0.09
291
     1
 43
0.36
  3
Standard
 44
0.18
300

342
9291
174
     1
178
     6
175
     1
176
     0
 93
-1056964608
 45
0.18
292
     0
297
     0
 46
0.18
 94
-1056964608
 47
1.0
 49
1.0
140
1.0
293
     1
141
0.0
294
     1
177
     0
142
1.0
295
     0
296
     0
143
0.125
1001
ACAD_MLEADERVER
1070
     2
  0
MLINESTYLE
  5
9297
102
{ACAD_REACTORS
330
9296
102
}
330
9296
100
AcDbMlineStyle
  2
STANDARD
 70
     0
  3

 62
   256
 51
90.0
 52
90.0
 71
     2
 49
0.5
 62
   256
  6
BYLAYER
 49
-0.5
 62
   256
  6
BYLAYER
  0
ACDBPLACEHOLDER
  5
94AF
102
{ACAD_REACTORS
330
94AE
102
}
330
94AE
  0
SCALE
  5
94E6
102
{ACAD_REACTORS
330
94E5
102
}
330
94E5
100
AcDbScale
 70
     0
300
1:1
140
1.0
141
1.0
290
     1
  0
SCALE
  5
94E7
102
{ACAD_REACTORS
330
94E5
102
}
330
94E5
100
AcDbScale
 70
     0
300
1/128" = 1'-0"
140
0.0078125
141
12.0
290
     0
  0
SCALE
  5
94E8
102
{ACAD_REACTORS
330
94E5
102
}
330
94E5
100
AcDbScale
 70
     0
300
1/64" = 1'-0"
140
0.015625
141
12.0
290
     0
  0
SCALE
  5
94E9
102
{ACAD_REACTORS
330
94E5
102
}
330
94E5
100
AcDbScale
 70
     0
300
1/32" = 1'-0"
140
0.03125
141
12.0
290
     0
  0
SCALE
  5
94EA
102
{ACAD_REACTORS
330
94E5
102
}
330
94E5
100
AcDbScale
 70
     0
300
1/16" = 1'-0"
140
0.0625
141
12.0
290
     0
  0
SCALE
  5
94EB
102
{ACAD_REACTORS
330
94E5
102
}
330
94E5
100
AcDbScale
 70
     0
300
3/32" = 1'-0"
140
0.09375
141
12.0
290
     0
  0
SCALE
  5
94EC
102
{ACAD_REACTORS
330
94E5
102
}
330
94E5
100
AcDbScale
 70
     0
300
1/8" = 1'-0"
140
0.125
141
12.0
290
     0
  0
SCALE
  5
94ED
102
{ACAD_REACTORS
330
94E5
102
}
330
94E5
100
AcDbScale
 70
     0
300
3/16" = 1'-0"
140
0.1875
141
12.0
290
     0
  0
SCALE
  5
94EE
102
{ACAD_REACTORS
330
94E5
102
}
330
94E5
100
AcDbScale
 70
     0
300
1/4" = 1'-0"
140
0.25
141
12.0
290
     0
  0
SCALE
  5
94EF
102
{ACAD_REACTORS
330
94E5
102
}
330
94E5
100
AcDbScale
 70
     0
300
3/8" = 1'-0"
140
0.375
141
12.0
290
     0
  0
SCALE
  5
94F0
102
{ACAD_REACTORS
330
94E5
102
}
330
94E5
100
AcDbScale
 70
     0
300
1/2" = 1'-0"
140
0.5
141
12.0
290
     0
  0
SCALE
  5
94F1
102
{ACAD_REACTORS
330
94E5
102
}
330
94E5
100
AcDbScale
 70
     0
300
3/4" = 1'-0"
140
0.75
141
12.0
290
     0
  0
SCALE
  5
94F2
102
{ACAD_REACTORS
330
94E5
102
}
330
94E5
100
AcDbScale
 70
     0
300
1" = 1'-0"
140
1.0
141
12.0
290
     0
  0
SCALE
  5
94F3
102
{ACAD_REACTORS
330
94E5
102
}
330
94E5
100
AcDbScale
 70
     0
300
1-1/2" = 1'-0"
140
1.5
141
12.0
290
     0
  0
SCALE
  5
94F4
102
{ACAD_REACTORS
330
94E5
102
}
330
94E5
100
AcDbScale
 70
     0
300
3" = 1'-0"
140
3.0
141
12.0
290
     0
  0
SCALE
  5
94F5
102
{ACAD_REACTORS
330
94E5
102
}
330
94E5
100
AcDbScale
 70
     0
300
6" = 1'-0"
140
6.0
141
12.0
290
     0
  0
SCALE
  5
94F6
102
{ACAD_REACTORS
330
94E5
102
}
330
94E5
100
AcDbScale
 70
     0
300
1'-0" = 1'-0"
140
12.0
141
12.0
290
     0
  0
ACDBSECTIONVIEWSTYLE
  5
94FA
102
{ACAD_XDICTIONARY
360
9555
102
}
102
{ACAD_REACTORS
330
94F9
102
}
330
94F9
100
AcDbModelDocViewStyle
 70
     0
  3
Imperial24
290
     0
100
AcDbSectionViewStyle
 70
     0
 71
     0
 90
       78
 71
     1
340
9291
 40
0.24
340
0
340
0
 40
0.24
300
I, O, Q, S, X, Z
 40
0.48
 90
        3
 40
0.18
 90
        1
 71
     2
340
9295
 90
       25
340
9295
 90
       50
 40
0.24
 40
0.0
 40
0.24
 71
     3
340
9291
 40
0.24
 90
        1
 40
0.75
 90
        1
300
%<\AcVar ViewType \f "%tc1">% %<\AcVar ViewSectionStartId>%-%<\AcVar ViewSectionEndId>%\PSCALE %<\AcVar ViewScale \f "%sn">%
 71
     4
300
ANSI31
 40
1.0
 90
        0
290
     0
290
     0
 90
        6
 40
0.0
 40
1.570796326794896
 40
0.2617993877991494
 40
1.308996938995747
 40
-0.2617993877991494
 40
1.832595714594046
  0
TABLESTYLE
  5
94E4
102
{ACAD_XDICTIONARY
360
951C
102
}
102
{ACAD_REACTORS
330
94E3
102
}
330
94E3
100
AcDbTableStyle
  3
Standard
 70
     0
 71
     0
 40
0.06
 41
0.06
280
     0
281
     0
  7
STANDARD
140
0.18
170
     2
 62
     0
 63
     7
283
     0
274
    -2
284
     1
 64
     0
275
    -2
285
     1
 65
     0
276
    -2
286
     1
 66
     0
277
    -2
287
     1
 67
     0
278
    -2
288
     1
 68
     0
279
    -2
289
     1
 69
     0
  7
STANDARD
140
0.25
170
     5
 62
     0
 63
     7
283
     0
274
    -2
284
     1
 64
     0
275
    -2
285
     1
 65
     0
276
    -2
286
     1
 66
     0
277
    -2
287
     1
 67
     0
278
    -2
288
     1
 68
     0
279
    -2
289
     1
 69
     0
  7
STANDARD
140
0.18
170
     5
 62
     0
 63
     7
283
     0
274
    -2
284
     1
 64
     0
275
    -2
285
     1
 65
     0
276
    -2
286
     1
 66
     0
277
    -2
287
     1
 67
     0
278
    -2
288
     1
 68
     0
279
    -2
289
     1
 69
     0
  0
VISUALSTYLE
  5
94CF
102
{ACAD_XDICTIONARY
360
952D
102
}
102
{ACAD_REACTORS
330
94C9
102
}
330
94C9
100
AcDbVisualStyle
  2
2dWireframe
 70
     4
 71
     0
 72
     2
 73
     0
 90
        0
 40
-0.6
 41
-30.0
 62
     5
 63
     7
 74
     1
 91
        4
 64
     7
 65
   257
 75
     1
175
     1
 42
1.0
 92
        0
 66
   257
 43
1.0
 76
     1
 77
     6
 78
     2
 67
     7
 79
     5
170
     0
171
     0
290
     0
174
     0
 93
        1
 44
0.0
173
     0
291
     0
 45
0.0
1001
ACAD
1000
AcDbSavedByObjectVersion
1070
     0
  0
VISUALSTYLE
  5
94CE
102
{ACAD_XDICTIONARY
360
952B
102
}
102
{ACAD_REACTORS
330
94C9
102
}
330
94C9
100
AcDbVisualStyle
  2
Basic
 70
     7
 71
     1
 72
     0
 73
     1
 90
        0
 40
-0.6
 41
-30.0
 62
     5
 63
     7
 74
     0
 91
        4
 64
     7
 65
   257
 75
     1
175
     1
 42
1.0
 92
        8
 66
     7
 43
1.0
 76
     1
 77
     6
 78
     2
 67
     7
 79
     5
170
     0
171
     0
290
     0
174
     0
 93
        1
 44
0.0
173
     0
291
     1
 45
0.0
1001
ACAD
1000
AcDbSavedByObjectVersion
1070
     0
  0
VISUALSTYLE
  5
94D5
102
{ACAD_XDICTIONARY
360
9539
102
}
102
{ACAD_REACTORS
330
94C9
102
}
330
94C9
100
AcDbVisualStyle
  2
Brighten
 70
    12
 71
     2
 72
     2
 73
     0
 90
        0
 40
-0.6
 41
-30.0
 62
     5
 63
     7
 74
     1
 91
        4
 64
     7
 65
   257
 75
     1
175
     1
 42
1.0
 92
        8
 66
     7
 43
1.0
 76
     1
 77
     6
 78
     2
 67
     7
 79
     5
170
     0
171
     0
290
     0
174
     0
 93
        1
 44
50.0
173
     0
291
     1
 45
0.0
1001
ACAD
1000
AcDbSavedByObjectVersion
1070
     0
  0
VISUALSTYLE
  5
94D9
102
{ACAD_XDICTIONARY
360
9541
102
}
102
{ACAD_REACTORS
330
94C9
102
}
330
94C9
100
AcDbVisualStyle
  2
ColorChange
 70
    16
 71
     2
 72
     2
 73
     3
 90
        0
 40
-0.6
 41
-30.0
 62
     5
 63
     8
 74
     1
 91
        4
 64
     7
 65
   257
 75
     1
175
     1
 42
1.0
 92
        8
 66
     8
 43
1.0
 76
     1
 77
     6
 78
     2
 67
     7
 79
     5
170
     0
171
     0
290
     0
174
     0
 93
        1
 44
0.0
173
     0
291
     1
 45
0.0
1001
ACAD
1000
AcDbSavedByObjectVersion
1070
     0
  0
VISUALSTYLE
  5
94D2
102
{ACAD_XDICTIONARY
360
9533
102
}
102
{ACAD_REACTORS
330
94C9
102
}
330
94C9
100
AcDbVisualStyle
  2
Conceptual
 70
     9
 71
     3
 72
     2
 73
     0
 90
        0
 40
-0.6
 41
-30.0
 62
     5
 63
     7
 74
     2
 91
        2
 64
     7
 65
   257
 75
     1
175
     1
 42
179.0
 92
        8
 66
     7
 43
1.0
 76
     1
 77
     6
 78
     2
 67
     7
 79
     3
170
     0
171
     0
290
     0
174
     0
 93
        1
 44
0.0
173
     0
291
     0
 45
0.0
1001
ACAD
1000
AcDbSavedByObjectVersion
1070
     0
  0
VISUALSTYLE
  5
94D4
102
{ACAD_XDICTIONARY
360
9537
102
}
102
{ACAD_REACTORS
330
94C9
102
}
330
94C9
100
AcDbVisualStyle
  2
Dim
 70
    11
 71
     2
 72
     2
 73
     0
 90
        0
 40
-0.6
 41
-30.0
 62
     5
 63
     7
 74
     1
 91
        4
 64
     7
 65
   257
 75
     1
175
     1
 42
1.0
 92
        8
 66
     7
 43
1.0
 76
     1
 77
     6
 78
     2
 67
     7
 79
     5
170
     0
171
     0
290
     0
174
     0
 93
        1
 44
-50.0
173
     0
291
     1
 45
0.0
1001
ACAD
1000
AcDbSavedByObjectVersion
1070
     0
  0
VISUALSTYLE
  5
94E1
102
{ACAD_XDICTIONARY
360
9551
102
}
102
{ACAD_REACTORS
330
94C9
102
}
330
94C9
100
AcDbVisualStyle
  2
EdgeColorOff
 70
    22
 71
     2
 72
     2
 73
     0
 90
        0
 40
-0.6
 41
-30.0
 62
     5
 63
     7
 74
     1
 91
        4
 64
     7
 65
   257
 75
     1
175
     1
 42
1.0
 92
        8
 66
     7
 43
1.0
 76
     1
 77
     6
 78
     2
 67
     7
 79
     5
170
     0
171
     0
290
     0
174
     0
 93
        1
 44
0.0
173
     0
291
     1
 45
0.0
1001
ACAD
1000
AcDbSavedByObjectVersion
1070
     0
  0
VISUALSTYLE
  5
94D8
102
{ACAD_XDICTIONARY
360
953F
102
}
102
{ACAD_REACTORS
330
94C9
102
}
330
94C9
100
AcDbVisualStyle
  2
Facepattern
 70
    15
 71
     2
 72
     2
 73
     0
 90
        0
 40
-0.6
 41
-30.0
 62
     5
 63
     7
 74
     1
 91
        4
 64
     7
 65
   257
 75
     1
175
     1
 42
1.0
 92
        8
 66
     7
 43
1.0
 76
     1
 77
     6
 78
     2
 67
     7
 79
     5
170
     0
171
     0
290
     0
174
     0
 93
        1
 44
0.0
173
     0
291
     1
 45
0.0
1001
ACAD
1000
AcDbSavedByObjectVersion
1070
     0
  0
VISUALSTYLE
  5
94CA
102
{ACAD_XDICTIONARY
360
9523
102
}
102
{ACAD_REACTORS
330
94C9
102
}
330
94C9
100
AcDbVisualStyle
  2
Flat
 70
     0
 71
     2
 72
     1
 73
     1
 90
        2
 40
-0.6
 41
30.0
 62
     5
 63
     7
 74
     0
 91
        0
 64
     7
 65
   257
 75
     1
175
     1
 42
1.0
 92
        8
 66
     7
 43
1.0
 76
     1
 77
     6
 78
     2
 67
     7
 79
     5
170
     0
171
     0
290
     0
174
     0
 93
       13
 44
0.0
173
     0
291
     1
 45
0.0
1001
ACAD
1000
AcDbSavedByObjectVersion
1070
     0
  0
VISUALSTYLE
  5
94CB
102
{ACAD_XDICTIONARY
360
9525
102
}
102
{ACAD_REACTORS
330
94C9
102
}
330
94C9
100
AcDbVisualStyle
  2
FlatWithEdges
 70
     1
 71
     2
 72
     1
 73
     1
 90
        2
 40
-0.6
 41
30.0
 62
     5
 63
     7
 74
     1
 91
        0
 64
     7
 65
   257
 75
     1
175
     1
 42
1.0
 92
        0
 66
   257
 43
1.0
 76
     1
 77
     6
 78
     2
 67
     7
 79
     5
170
     0
171
     0
290
     0
174
     0
 93
       13
 44
0.0
173
     0
291
     1
 45
0.0
1001
ACAD
1000
AcDbSavedByObjectVersion
1070
     0
  0
VISUALSTYLE
  5
94CC
102
{ACAD_XDICTIONARY
360
9527
102
}
102
{ACAD_REACTORS
330
94C9
102
}
330
94C9
100
AcDbVisualStyle
  2
Gouraud
 70
     2
 71
     2
 72
     2
 73
     1
 90
        2
 40
-0.6
 41
30.0
 62
     5
 63
     7
 74
     0
 91
        0
 64
     7
 65
   257
 75
     1
175
     1
 42
1.0
 92
        0
 66
     7
 43
1.0
 76
     1
 77
     6
 78
     2
 67
     7
 79
     5
170
     0
171
     0
290
     0
174
     0
 93
       13
 44
0.0
173
     0
291
     1
 45
0.0
1001
ACAD
1000
AcDbSavedByObjectVersion
1070
     0
  0
VISUALSTYLE
  5
94CD
102
{ACAD_XDICTIONARY
360
9529
102
}
102
{ACAD_REACTORS
330
94C9
102
}
330
94C9
100
AcDbVisualStyle
  2
GouraudWithEdges
 70
     3
 71
     2
 72
     2
 73
     1
 90
        2
 40
-0.6
 41
30.0
 62
     5
 63
     7
 74
     1
 91
        0
 64
     7
 65
   257
 75
     1
175
     1
 42
1.0
 92
        0
 66
   257
 43
1.0
 76
     1
 77
     6
 78
     2
 67
     7
 79
     5
170
     0
171
     0
290
     0
174
     0
 93
       13
 44
0.0
173
     0
291
     1
 45
0.0
1001
ACAD
1000
AcDbSavedByObjectVersion
1070
     0
  0
VISUALSTYLE
  5
94D1
102
{ACAD_XDICTIONARY
360
9531
102
}
102
{ACAD_REACTORS
330
94C9
102
}
330
94C9
100
AcDbVisualStyle
  2
Hidden
 70
     6
 71
     1
 72
     2
 73
     2
 90
        0
 40
-0.6
 41
-30.0
 62
     5
 63
     7
 74
     2
 91
        2
 64
     7
 65
   257
 75
     2
175
     1
 42
40.0
 92
        0
 66
   257
 43
1.0
 76
     1
 77
     6
 78
     2
 67
     7
 79
     3
170
     0
171
     0
290
     0
174
     0
 93
        1
 44
0.0
173
     0
291
     0
 45
0.0
1001
ACAD
1000
AcDbSavedByObjectVersion
1070
     0
  0
VISUALSTYLE
  5
94DF
102
{ACAD_XDICTIONARY
360
954D
102
}
102
{ACAD_REACTORS
330
94C9
102
}
330
94C9
100
AcDbVisualStyle
  2
JitterOff
 70
    20
 71
     2
 72
     2
 73
     0
 90
        0
 40
-0.6
 41
-30.0
 62
     5
 63
     7
 74
     1
 91
        4
 64
     7
 65
   257
 75
     1
175
     1
 42
1.0
 92
       10
 66
     7
 43
1.0
 76
     1
 77
     6
 78
     2
 67
     7
 79
     5
170
     0
171
     0
290
     0
174
     0
 93
        1
 44
0.0
173
     0
291
     1
 45
0.0
1001
ACAD
1000
AcDbSavedByObjectVersion
1070
     0
  0
VISUALSTYLE
  5
94D7
102
{ACAD_XDICTIONARY
360
953D
102
}
102
{ACAD_REACTORS
330
94C9
102
}
330
94C9
100
AcDbVisualStyle
  2
Linepattern
 70
    14
 71
     2
 72
     2
 73
     0
 90
        0
 40
-0.6
 41
-30.0
 62
     5
 63
     7
 74
     1
 91
        4
 64
     7
 65
   257
 75
     7
175
     7
 42
1.0
 92
        8
 66
     7
 43
1.0
 76
     1
 77
     6
 78
     2
 67
     7
 79
     5
170
     0
171
     0
290
     0
174
     0
 93
        1
 44
0.0
173
     0
291
     1
 45
0.0
1001
ACAD
1000
AcDbSavedByObjectVersion
1070
     0
  0
VISUALSTYLE
  5
94E0
102
{ACAD_XDICTIONARY
360
954F
102
}
102
{ACAD_REACTORS
330
94C9
102
}
330
94C9
100
AcDbVisualStyle
  2
OverhangOff
 70
    21
 71
     2
 72
     2
 73
     0
 90
        0
 40
-0.6
 41
-30.0
 62
     5
 63
     7
 74
     1
 91
        4
 64
     7
 65
   257
 75
     1
175
     1
 42
1.0
 92
        9
 66
     7
 43
1.0
 76
     1
 77
     6
 78
     2
 67
     7
 79
     5
170
     0
171
     0
290
     0
174
     0
 93
        1
 44
0.0
173
     0
291
     1
 45
0.0
1001
ACAD
1000
AcDbSavedByObjectVersion
1070
     0
  0
VISUALSTYLE
  5
94D3
102
{ACAD_XDICTIONARY
360
9535
102
}
102
{ACAD_REACTORS
330
94C9
102
}
330
94C9
100
AcDbVisualStyle
  2
Realistic
 70
     8
 71
     2
 72
     3
 73
     0
 90
        2
 40
-0.6
 41
30.0
 62
     5
 63
     7
 74
     0
 91
        0
 64
     7
 65
   257
 75
     1
175
     1
 42
1.0
 92
        8
 66
   257
 43
1.0
 76
     1
 77
     6
 78
     2
 67
     7
 79
     3
170
     0
171
     0
290
     0
174
     0
 93
       13
 44
0.0
173
     0
291
     0
 45
0.0
1001
ACAD
1000
AcDbSavedByObjectVersion
1070
     0
  0
VISUALSTYLE
  5
94DE
102
{ACAD_XDICTIONARY
360
954B
102
}
102
{ACAD_REACTORS
330
94C9
102
}
330
94C9
100
AcDbVisualStyle
  2
Shaded
 70
    27
 71
     2
 72
     2
 73
     1
 90
        2
 40
-0.6
 41
30.0
 62
     5
 63
     7
 74
     0
 91
        4
 64
     7
 65
   257
 75
     1
175
     1
 42
1.0
 92
        8
 66
   257
 43
1.0
 76
     1
 77
     6
 78
     2
 67
     8
 79
     3
170
     0
171
     0
290
     0
174
     0
 93
        5
 44
0.0
173
     0
291
     0
 45
0.0
1001
ACAD
1000
AcDbSavedByObjectVersion
1070
     0
  0
VISUALSTYLE
  5
94DD
102
{ACAD_XDICTIONARY
360
9549
102
}
102
{ACAD_REACTORS
330
94C9
102
}
330
94C9
100
AcDbVisualStyle
  2
Shaded with edges
 70
    26
 71
     2
 72
     2
 73
     1
 90
        2
 40
-0.6
 41
30.0
 62
     5
 63
     7
 74
     1
 91
       10
 64
     7
 65
   257
 75
     2
175
     1
 42
1.0
 92
        8
 66
   257
 43
1.0
 76
     1
 77
     6
 78
     2
 67
     7
 79
     3
170
     0
171
     0
290
     0
174
     0
 93
        5
 44
0.0
173
     0
291
     0
 45
0.0
1001
ACAD
1000
AcDbSavedByObjectVersion
1070
     0
  0
VISUALSTYLE
  5
94DA
102
{ACAD_XDICTIONARY
360
9543
102
}
102
{ACAD_REACTORS
330
94C9
102
}
330
94C9
100
AcDbVisualStyle
  2
Shades of Gray
 70
    23
 71
     2
 72
     2
 73
     3
 90
        0
 40
-0.6
 41
-30.0
 62
     5
 63
     7
 74
     2
 91
        2
 64
     7
 65
     7
 75
     1
175
     1
 42
40.0
 92
        8
 66
     7
 43
1.0
 76
     1
 77
     6
 78
     2
 67
     7
 79
     3
170
     0
171
     0
290
     0
174
     0
 93
        1
 44
0.0
173
     0
291
     0
 45
0.0
1001
ACAD
1000
AcDbSavedByObjectVersion
1070
     0
  0
VISUALSTYLE
  5
94DB
102
{ACAD_XDICTIONARY
360
9545
102
}
102
{ACAD_REACTORS
330
94C9
102
}
330
94C9
100
AcDbVisualStyle
  2
Sketchy
 70
    24
 71
     1
 72
     2
 73
     2
 90
        0
 40
-0.6
 41
-30.0
 62
     5
 63
     7
 74
     2
 91
        2
 64
     7
 65
     7
 75
     1
175
     1
 42
40.0
 92
       11
 66
     7
 43
1.0
 76
     1
 77
     6
 78
     2
 67
     7
 79
     6
170
     0
171
     0
290
     0
174
     0
 93
        1
 44
0.0
173
     0
291
     0
 45
0.0
1001
ACAD
1000
AcDbSavedByObjectVersion
1070
     0
  0
VISUALSTYLE
  5
94D6
102
{ACAD_XDICTIONARY
360
953B
102
}
102
{ACAD_REACTORS
330
94C9
102
}
330
94C9
100
AcDbVisualStyle
  2
Thicken
 70
    13
 71
     2
 72
     2
 73
     0
 90
        0
 40
-0.6
 41
-30.0
 62
     5
 63
     7
 74
     1
 91
        4
 64
     7
 65
   257
 75
     1
175
     1
 42
1.0
 92
       12
 66
     7
 43
1.0
 76
     1
 77
     6
 78
     2
 67
     7
 79
     5
170
     0
171
     0
290
     0
174
     0
 93
        1
 44
0.0
173
     0
291
     1
 45
0.0
1001
ACAD
1000
AcDbSavedByObjectVersion
1070
     0
  0
VISUALSTYLE
  5
94D0
102
{ACAD_XDICTIONARY
360
952F
102
}
102
{ACAD_REACTORS
330
94C9
102
}
330
94C9
100
AcDbVisualStyle
  2
Wireframe
 70
     5
 71
     0
 72
     2
 73
     0
 90
        0
 40
-0.6
 41
-30.0
 62
     5
 63
     7
 74
     1
 91
        4
 64
     7
 65
   257
 75
     1
175
     1
 42
1.0
 92
        0
 66
   257
 43
1.0
 76
     1
 77
     6
 78
     2
 67
     7
 79
     3
170
     0
171
     0
290
     0
174
     0
 93
        1
 44
0.0
173
     0
291
     0
 45
0.0
1001
ACAD
1000
AcDbSavedByObjectVersion
1070
     0
  0
VISUALSTYLE
  5
94DC
102
{ACAD_XDICTIONARY
360
9547
102
}
102
{ACAD_REACTORS
330
94C9
102
}
330
94C9
100
AcDbVisualStyle
  2
X-Ray
 70
    25
 71
     2
 72
     2
 73
     1
 90
        1
 40
0.5
 41
-30.0
 62
     5
 63
     7
 74
     1
 91
        0
 64
     7
 65
   257
 75
     1
175
     1
 42
1.0
 92
        8
 66
     7
 43
1.0
 76
     1
 77
     6
 78
     2
 67
     7
 79
     3
170
     0
171
     0
290
     0
174
     0
 93
       13
 44
0.0
173
     0
291
     0
 45
0.0
1001
ACAD
1000
AcDbSavedByObjectVersion
1070
     0
  0
DICTIONARYVAR
  5
9516
102
{ACAD_REACTORS
330
9511
102
}
330
9511
100
DictionaryVariables
280
     0
  1
1:1
  0
DICTIONARYVAR
  5
9513
102
{ACAD_REACTORS
330
9511
102
}
330
9511
100
DictionaryVariables
280
     0
  1
STANDARD
  0
DICTIONARYVAR
  5
9512
102
{ACAD_REACTORS
330
9511
102
}
330
9511
100
DictionaryVariables
280
     0
  1
STANDARD
  0
DICTIONARYVAR
  5
9514
102
{ACAD_REACTORS
330
9511
102
}
330
9511
100
DictionaryVariables
280
     0
  1
Imperial24
  0
DICTIONARYVAR
  5
9515
102
{ACAD_REACTORS
330
9511
102
}
330
9511
100
DictionaryVariables
280
     0
  1
Imperial24
  0
DICTIONARYVAR
  5
9519
102
{ACAD_REACTORS
330
9511
102
}
330
9511
100
DictionaryVariables
280
     0
  1
1
  0
DICTIONARYVAR
  5
9518
102
{ACAD_REACTORS
330
9511
102
}
330
9511
100
DictionaryVariables
280
     0
  1
0
  0
DICTIONARYVAR
  5
9517
102
{ACAD_REACTORS
330
9511
102
}
330
9511
100
DictionaryVariables
280
     0
  1
127
  0
DICTIONARYVAR
  5
951A
102
{ACAD_REACTORS
330
9511
102
}
330
9511
100
DictionaryVariables
280
     0
  1
2
  0
DICTIONARY
  5
9557
330
94FC
100
AcDbDictionary
280
     1
281
     1
  3
ACAD_XREC_ROUNDTRIP
360
9558
  0
DICTIONARY
  5
9559
330
94FD
100
AcDbDictionary
280
     1
281
     1
  3
ACAD_XREC_ROUNDTRIP
360
955A
  0
DICTIONARY
  5
955B
330
94FE
100
AcDbDictionary
280
     1
281
     1
  3
ACAD_XREC_ROUNDTRIP
360
955C
  0
DICTIONARY
  5
94BA
330
94B9
100
AcDbDictionary
280
     1
281
     1
  3
ACAD_XREC_ROUNDTRIP
360
9521
  3
BUMPTILE
360
94BC
  3
DIFFUSETILE
360
94BB
  3
OPACITYTILE
360
94BF
  3
REFLECTIONTILE
360
94BE
  3
REFRACTIONTILE
360
94C0
  3
SPECULARTILE
360
94BD
  0
DICTIONARY
  5
94B2
330
94B1
100
AcDbDictionary
280
     1
281
     1
  3
ACAD_XREC_ROUNDTRIP
360
9520
  3
BUMPTILE
360
94B4
  3
DIFFUSETILE
360
94B3
  3
OPACITYTILE
360
94B7
  3
REFLECTIONTILE
360
94B6
  3
REFRACTIONTILE
360
94B8
  3
SPECULARTILE
360
94B5
  0
DICTIONARY
  5
94C2
330
94C1
100
AcDbDictionary
280
     1
281
     1
  3
ACAD_XREC_ROUNDTRIP
360
9522
  3
BUMPTILE
360
94C4
  3
DIFFUSETILE
360
94C3
  3
OPACITYTILE
360
94C7
  3
REFLECTIONTILE
360
94C6
  3
REFRACTIONTILE
360
94C8
  3
SPECULARTILE
360
94C5
  0
DICTIONARY
  5
9555
330
94FA
100
AcDbDictionary
280
     1
281
     1
  3
ACAD_XREC_ROUNDTRIP
360
9556
  0
DICTIONARY
  5
951C
330
94E4
100
AcDbDictionary
280
     1
281
     1
  3
ACAD_ROUNDTRIP_2008_TABLESTYLE_CELLSTYLEMAP
360
951D
  3
ACAD_XREC_ROUNDTRIP
360
9553
  0
DICTIONARY
  5
952D
330
94CF
100
AcDbDictionary
280
     1
281
     1
  3
ACAD_XREC_ROUNDTRIP
360
952E
  0
DICTIONARY
  5
952B
330
94CE
100
AcDbDictionary
280
     1
281
     1
  3
ACAD_XREC_ROUNDTRIP
360
952C
  0
DICTIONARY
  5
9539
330
94D5
100
AcDbDictionary
280
     1
281
     1
  3
ACAD_XREC_ROUNDTRIP
360
953A
  0
DICTIONARY
  5
9541
330
94D9
100
AcDbDictionary
280
     1
281
     1
  3
ACAD_XREC_ROUNDTRIP
360
9542
  0
DICTIONARY
  5
9533
330
94D2
100
AcDbDictionary
280
     1
281
     1
  3
ACAD_XREC_ROUNDTRIP
360
9534
  0
DICTIONARY
  5
9537
330
94D4
100
AcDbDictionary
280
     1
281
     1
  3
ACAD_XREC_ROUNDTRIP
360
9538
  0
DICTIONARY
  5
9551
330
94E1
100
AcDbDictionary
280
     1
281
     1
  3
ACAD_XREC_ROUNDTRIP
360
9552
  0
DICTIONARY
  5
953F
330
94D8
100
AcDbDictionary
280
     1
281
     1
  3
ACAD_XREC_ROUNDTRIP
360
9540
  0
DICTIONARY
  5
9523
330
94CA
100
AcDbDictionary
280
     1
281
     1
  3
ACAD_XREC_ROUNDTRIP
360
9524
  0
DICTIONARY
  5
9525
330
94CB
100
AcDbDictionary
280
     1
281
     1
  3
ACAD_XREC_ROUNDTRIP
360
9526
  0
DICTIONARY
  5
9527
330
94CC
100
AcDbDictionary
280
     1
281
     1
  3
ACAD_XREC_ROUNDTRIP
360
9528
  0
DICTIONARY
  5
9529
330
94CD
100
AcDbDictionary
280
     1
281
     1
  3
ACAD_XREC_ROUNDTRIP
360
952A
  0
DICTIONARY
  5
9531
330
94D1
100
AcDbDictionary
280
     1
281
     1
  3
ACAD_XREC_ROUNDTRIP
360
9532
  0
DICTIONARY
  5
954D
330
94DF
100
AcDbDictionary
280
     1
281
     1
  3
ACAD_XREC_ROUNDTRIP
360
954E
  0
DICTIONARY
  5
953D
330
94D7
100
AcDbDictionary
280
     1
281
     1
  3
ACAD_XREC_ROUNDTRIP
360
953E
  0
DICTIONARY
  5
954F
330
94E0
100
AcDbDictionary
280
     1
281
     1
  3
ACAD_XREC_ROUNDTRIP
360
9550
  0
DICTIONARY
  5
9535
330
94D3
100
AcDbDictionary
280
     1
281
     1
  3
ACAD_XREC_ROUNDTRIP
360
9536
  0
DICTIONARY
  5
954B
330
94DE
100
AcDbDictionary
280
     1
281
     1
  3
ACAD_XREC_ROUNDTRIP
360
954C
  0
DICTIONARY
  5
9549
330
94DD
100
AcDbDictionary
280
     1
281
     1
  3
ACAD_XREC_ROUNDTRIP
360
954A
  0
DICTIONARY
  5
9543
330
94DA
100
AcDbDictionary
280
     1
281
     1
  3
ACAD_XREC_ROUNDTRIP
360
9544
  0
DICTIONARY
  5
9545
330
94DB
100
AcDbDictionary
280
     1
281
     1
  3
ACAD_XREC_ROUNDTRIP
360
9546
  0
DICTIONARY
  5
953B
330
94D6
100
AcDbDictionary
280
     1
281
     1
  3
ACAD_XREC_ROUNDTRIP
360
953C
  0
DICTIONARY
  5
952F
330
94D0
100
AcDbDictionary
280
     1
281
     1
  3
ACAD_XREC_ROUNDTRIP
360
9530
  0
DICTIONARY
  5
9547
330
94DC
100
AcDbDictionary
280
     1
281
     1
  3
ACAD_XREC_ROUNDTRIP
360
9548
  0
XRECORD
  5
9558
102
{ACAD_REACTORS
330
9557
102
}
330
9557
100
AcDbXrecord
280
     1
102
DISPLAYNAME
  1
Imperial24
102
FLAGS
 90
        0
  0
XRECORD
  5
955A
102
{ACAD_REACTORS
330
9559
102
}
330
9559
100
AcDbXrecord
280
     1
102
SHADEPLOT
 70
     0
102
SHADEPLOTRESLEVEL
 70
     2
102
SHADEPLOTCUSTOMDPI
 70
   300
  0
XRECORD
  5
955C
102
{ACAD_REACTORS
330
955B
102
}
330
955B
100
AcDbXrecord
280
     1
102
SHADEPLOT
 70
     0
102
SHADEPLOTRESLEVEL
 70
     2
102
SHADEPLOTCUSTOMDPI
 70
   300
  0
XRECORD
  5
9521
102
{ACAD_REACTORS
330
94BA
102
}
330
94BA
100
AcDbXrecord
280
     1
102
MATERIAL
148
0.0
149
0.0
149
0.0
 93
        0
 94
      127
282
     0
 72
     0
 77
     0
171
     0
175
     0
179
     0
273
     0
  0
XRECORD
  5
94BC
102
{ACAD_REACTORS
330
94BA
102
}
330
94BA
100
AcDbXrecord
280
     1
270
     1
271
     1
  0
XRECORD
  5
94BB
102
{ACAD_REACTORS
330
94BA
102
}
330
94BA
100
AcDbXrecord
280
     1
270
     1
271
     1
  0
XRECORD
  5
94BF
102
{ACAD_REACTORS
330
94BA
102
}
330
94BA
100
AcDbXrecord
280
     1
270
     1
271
     1
  0
XRECORD
  5
94BE
102
{ACAD_REACTORS
330
94BA
102
}
330
94BA
100
AcDbXrecord
280
     1
270
     1
271
     1
  0
XRECORD
  5
94C0
102
{ACAD_REACTORS
330
94BA
102
}
330
94BA
100
AcDbXrecord
280
     1
270
     1
271
     1
  0
XRECORD
  5
94BD
102
{ACAD_REACTORS
330
94BA
102
}
330
94BA
100
AcDbXrecord
280
     1
270
     1
271
     1
  0
XRECORD
  5
9520
102
{ACAD_REACTORS
330
94B2
102
}
330
94B2
100
AcDbXrecord
280
     1
102
MATERIAL
148
0.0
149
0.0
149
0.0
 93
        0
 94
      127
282
     0
 72
     0
 77
     0
171
     0
175
     0
179
     0
273
     0
  0
XRECORD
  5
94B4
102
{ACAD_REACTORS
330
94B2
102
}
330
94B2
100
AcDbXrecord
280
     1
270
     1
271
     1
  0
XRECORD
  5
94B3
102
{ACAD_REACTORS
330
94B2
102
}
330
94B2
100
AcDbXrecord
280
     1
270
     1
271
     1
  0
XRECORD
  5
94B7
102
{ACAD_REACTORS
330
94B2
102
}
330
94B2
100
AcDbXrecord
280
     1
270
     1
271
     1
  0
XRECORD
  5
94B6
102
{ACAD_REACTORS
330
94B2
102
}
330
94B2
100
AcDbXrecord
280
     1
270
     1
271
     1
  0
XRECORD
  5
94B8
102
{ACAD_REACTORS
330
94B2
102
}
330
94B2
100
AcDbXrecord
280
     1
270
     1
271
     1
  0
XRECORD
  5
94B5
102
{ACAD_REACTORS
330
94B2
102
}
330
94B2
100
AcDbXrecord
280
     1
270
     1
271
     1
  0
XRECORD
  5
9522
102
{ACAD_REACTORS
330
94C2
102
}
330
94C2
100
AcDbXrecord
280
     1
102
MATERIAL
148
0.0
149
0.0
149
0.0
 93
        0
 94
      127
282
     0
 72
     0
 77
     0
171
     0
175
     0
179
     0
273
     0
  0
XRECORD
  5
94C4
102
{ACAD_REACTORS
330
94C2
102
}
330
94C2
100
AcDbXrecord
280
     1
270
     1
271
     1
  0
XRECORD
  5
94C3
102
{ACAD_REACTORS
330
94C2
102
}
330
94C2
100
AcDbXrecord
280
     1
270
     1
271
     1
  0
XRECORD
  5
94C7
102
{ACAD_REACTORS
330
94C2
102
}
330
94C2
100
AcDbXrecord
280
     1
270
     1
271
     1
  0
XRECORD
  5
94C6
102
{ACAD_REACTORS
330
94C2
102
}
330
94C2
100
AcDbXrecord
280
     1
270
     1
271
     1
  0
XRECORD
  5
94C8
102
{ACAD_REACTORS
330
94C2
102
}
330
94C2
100
AcDbXrecord
280
     1
270
     1
271
     1
  0
XRECORD
  5
94C5
102
{ACAD_REACTORS
330
94C2
102
}
330
94C2
100
AcDbXrecord
280
     1
270
     1
271
     1
  0
XRECORD
  5
9556
102
{ACAD_REACTORS
330
9555
102
}
330
9555
100
AcDbXrecord
280
     1
102
DISPLAYNAME
  1
Imperial24
102
FLAGS
 90
        0
  0
CELLSTYLEMAP
  5
951D
102
{ACAD_REACTORS
330
951C
102
}
330
951C
100
AcDbCellStyleMap
 90
        3
300
CELLSTYLE
  1
TABLEFORMAT_BEGIN
 90
        5
170
     1
 91
        0
 92
    32768
 62
   257
 93
        1
300
CONTENTFORMAT
  1
CONTENTFORMAT_BEGIN
 90
        0
 91
        0
 92
      512
 93
        0
300

 40
0.0
140
1.0
 94
        5
 62
     0
340
9291
144
0.25
309
CONTENTFORMAT_END
171
     0
 94
        0
309
TABLEFORMAT_END
  1
CELLSTYLE_BEGIN
 90
        1
 91
        1
300
_TITLE
309
CELLSTYLE_END
300
CELLSTYLE
  1
TABLEFORMAT_BEGIN
 90
        5
170
     1
 91
        0
 92
        0
 62
   257
 93
        1
300
CONTENTFORMAT
  1
CONTENTFORMAT_BEGIN
 90
        0
 91
        0
 92
      512
 93
        0
300

 40
0.0
140
1.0
 94
        5
 62
     0
340
9291
144
0.18
309
CONTENTFORMAT_END
171
     0
 94
        0
309
TABLEFORMAT_END
  1
CELLSTYLE_BEGIN
 90
        2
 91
        1
300
_HEADER
309
CELLSTYLE_END
300
CELLSTYLE
  1
TABLEFORMAT_BEGIN
 90
        5
170
     1
 91
        0
 92
        0
 62
   257
 93
        1
300
CONTENTFORMAT
  1
CONTENTFORMAT_BEGIN
 90
        0
 91
        0
 92
      512
 93
        0
300

 40
0.0
140
1.0
 94
        2
 62
     0
340
9291
144
0.18
309
CONTENTFORMAT_END
171
     0
 94
        0
309
TABLEFORMAT_END
  1
CELLSTYLE_BEGIN
 90
        3
 91
        2
300
_DATA
309
CELLSTYLE_END
  0
XRECORD
  5
9553
102
{ACAD_REACTORS
330
951C
102
}
330
951C
100
AcDbXrecord
280
     1
102
ACAD_ROUNDTRIP_PRE2007_TABLESTYLE
 90
      512
 91
        0
  1

 92
      512
 93
        0
  2

 94
      512
 95
        0
  3

  0
XRECORD
  5
952E
102
{ACAD_REACTORS
330
952D
102
}
330
952D
100
AcDbXrecord
280
     1
102
RTVSPost2010Prop28
280
     1
102
RTVSPost2010PropOp28
 70
     1
102
RTVSPost2010Prop29
280
     1
102
RTVSPost2010PropOp29
 70
     1
102
RTVSPost2010Prop30
280
     0
102
RTVSPost2010PropOp30
 70
     1
102
RTVSPost2010Prop31
280
     0
102
RTVSPost2010PropOp31
 70
     1
102
RTVSPost2010Prop32
280
     0
102
RTVSPost2010PropOp32
 70
     1
102
RTVSPost2010Prop33
280
     0
102
RTVSPost2010PropOp33
 70
     1
102
RTVSPost2010Prop34
280
     0
102
RTVSPost2010PropOp34
 70
     1
102
RTVSPost2010Prop35
280
     0
102
RTVSPost2010PropOp35
 70
     1
102
RTVSPost2010Prop36
280
     0
102
RTVSPost2010PropOp36
 70
     1
102
RTVSPost2010Prop37
 90
       50
102
RTVSPost2010PropOp37
 70
     1
102
RTVSPost2010Prop38
140
0.0
102
RTVSPost2010PropOp38
 70
     1
102
RTVSPost2010Prop39
140
1.0
102
RTVSPost2010PropOp39
 70
     1
102
RTVSPost2010Prop40
 90
        0
102
RTVSPost2010PropOp40
 70
     1
102
RTVSPost2010Prop41ColorIndex
 90
       18
102
RTVSPost2010Prop41ColorRGB
 90
        0
102
RTVSPost2010PropOp41
 70
     1
102
RTVSPost2010Prop42
 90
       50
102
RTVSPost2010PropOp42
 70
     1
102
RTVSPost2010Prop43
 90
        3
102
RTVSPost2010PropOp43
 70
     1
102
RTVSPost2010Prop44ColorIndex
 90
        5
102
RTVSPost2010Prop44ColorRGB
 90
      255
102
RTVSPost2010PropOp44
 70
     1
102
RTVSPost2010Prop45
280
     0
102
RTVSPost2010PropOp45
 70
     1
102
RTVSPost2010Prop46
 90
       50
102
RTVSPost2010PropOp46
 70
     1
102
RTVSPost2010Prop47
 90
       50
102
RTVSPost2010PropOp47
 70
     1
102
RTVSPost2010Prop48
 90
       50
102
RTVSPost2010PropOp48
 70
     1
102
RTVSPost2010Prop49
280
     0
102
RTVSPost2010PropOp49
 70
     1
102
RTVSPost2010Prop50
 90
       50
102
RTVSPost2010PropOp50
 70
     1
102
RTVSPost2010Prop51ColorIndex
 90
      256
102
RTVSPost2010Prop51ColorRGB
 90
-16777216
102
RTVSPost2010PropOp51
 70
     0
102
RTVSPost2010Prop52
140
1.0
102
RTVSPost2010PropOp52
 70
     0
102
RTVSPost2010Prop53
 90
        2
102
RTVSPost2010PropOp53
 70
     1
102
RTVSPost2010Prop54
  1
strokes_ogs.tif
102
RTVSPost2010PropOp54
 70
     1
102
RTVSPost2010Prop55
280
     0
102
RTVSPost2010PropOp55
 70
     1
102
RTVSPost2010Prop56
140
1.0
102
RTVSPost2010PropOp56
 70
     1
102
RTVSPost2010Prop57
140
1.0
102
RTVSPost2010PropOp57
 70
     1
102
RTVSPropertyOp0
 70
     1
102
RTVSPropertyOp1
 70
     1
102
RTVSPropertyOp2
 70
     1
102
RTVSPropertyOp3
 70
     1
102
RTVSPropertyOp4
 70
     1
102
RTVSPropertyOp5
 70
     1
102
RTVSPropertyOp6
 70
     1
102
RTVSPropertyOp7
 70
     1
102
RTVSPropertyOp8
 70
     1
102
RTVSPropertyOp9
 70
     1
102
RTVSPropertyOp10
 70
     1
102
RTVSPropertyOp11
 70
     1
102
RTVSPropertyOp12
 70
     1
102
RTVSPropertyOp13
 70
     1
102
RTVSPropertyOp14
 70
     1
102
RTVSPropertyOp15
 70
     1
102
RTVSPropertyOp16
 70
     1
102
RTVSPropertyOp17
 70
     1
102
RTVSPropertyOp18
 70
     1
102
RTVSPropertyOp19
 70
     1
102
RTVSPropertyOp20
 70
     1
102
RTVSPropertyOp21
 70
     1
102
RTVSPropertyOp22
 70
     1
102
RTVSPropertyOp23
 70
     1
102
RTVSPropertyOp24
 70
     1
102
RTVSPropertyOp25
 70
     1
102
RTVSPropertyOp26
 70
     1
102
RTVSPropertyOp27
 70
     1
102
RTVSPropertyOp28
 70
     1
102
RTVSPropertyOp29
 70
     1
102
RTVSPropertyOp30
 70
     1
102
RTVSPropertyOp31
 70
     1
102
RTVSPropertyOp32
 70
     1
102
RTVSPropertyOp33
 70
     1
102
RTVSPropertyOp34
 70
     1
102
RTVSPropertyOp35
 70
     1
102
RTVSPropertyOp36
 70
     1
102
RTVSPropertyOp37
 70
     1
102
RTVSPropertyOp38
 70
     1
102
RTVSPropertyOp39
 70
     1
102
RTVSPropertyOp40
 70
     1
102
RTVSPropertyOp41
 70
     1
102
RTVSPropertyOp42
 70
     1
102
RTVSPropertyOp43
 70
     1
102
RTVSPropertyOp44
 70
     1
102
RTVSPropertyOp45
 70
     1
102
RTVSPropertyOp46
 70
     1
102
RTVSPropertyOp47
 70
     1
102
RTVSPropertyOp48
 70
     1
102
RTVSPropertyOp49
 70
     1
102
RTVSPropertyOp50
 70
     1
102
RTVSPropertyOp51
 70
     0
102
RTVSPropertyOp52
 70
     0
102
RTVSPropertyOp53
 70
     1
102
RTVSPropertyOp54
 70
     1
102
RTVSPropertyOp55
 70
     1
102
RTVSPropertyOp56
 70
     1
102
RTVSPropertyOp57
 70
     1
102
RTVSPropertyOp58
 70
     1
102
RTVSPropertyOp59
 70
     1
102
RTVSPropertyOp60
 70
     1
102
RTVSPropertyOp61
 70
     1
102
RTVSPropertyOp62
 70
     1
  0
XRECORD
  5
952C
102
{ACAD_REACTORS
330
952B
102
}
330
952B
100
AcDbXrecord
280
     1
102
RTVSPost2010Prop28
280
     0
102
RTVSPost2010PropOp28
 70
     1
102
RTVSPost2010Prop29
280
     1
102
RTVSPost2010PropOp29
 70
     1
102
RTVSPost2010Prop30
280
     1
102
RTVSPost2010PropOp30
 70
     1
102
RTVSPost2010Prop31
280
     0
102
RTVSPost2010PropOp31
 70
     1
102
RTVSPost2010Prop32
280
     0
102
RTVSPost2010PropOp32
 70
     1
102
RTVSPost2010Prop33
280
     0
102
RTVSPost2010PropOp33
 70
     1
102
RTVSPost2010Prop34
280
     0
102
RTVSPost2010PropOp34
 70
     1
102
RTVSPost2010Prop35
280
     0
102
RTVSPost2010PropOp35
 70
     1
102
RTVSPost2010Prop36
280
     0
102
RTVSPost2010PropOp36
 70
     1
102
RTVSPost2010Prop37
 90
       50
102
RTVSPost2010PropOp37
 70
     1
102
RTVSPost2010Prop38
140
0.0
102
RTVSPost2010PropOp38
 70
     1
102
RTVSPost2010Prop39
140
1.0
102
RTVSPost2010PropOp39
 70
     1
102
RTVSPost2010Prop40
 90
        0
102
RTVSPost2010PropOp40
 70
     1
102
RTVSPost2010Prop41ColorIndex
 90
       18
102
RTVSPost2010Prop41ColorRGB
 90
        0
102
RTVSPost2010PropOp41
 70
     1
102
RTVSPost2010Prop42
 90
       50
102
RTVSPost2010PropOp42
 70
     1
102
RTVSPost2010Prop43
 90
        3
102
RTVSPost2010PropOp43
 70
     1
102
RTVSPost2010Prop44ColorIndex
 90
        5
102
RTVSPost2010Prop44ColorRGB
 90
      255
102
RTVSPost2010PropOp44
 70
     1
102
RTVSPost2010Prop45
280
     0
102
RTVSPost2010PropOp45
 70
     1
102
RTVSPost2010Prop46
 90
       50
102
RTVSPost2010PropOp46
 70
     1
102
RTVSPost2010Prop47
 90
       50
102
RTVSPost2010PropOp47
 70
     1
102
RTVSPost2010Prop48
 90
       50
102
RTVSPost2010PropOp48
 70
     1
102
RTVSPost2010Prop49
280
     0
102
RTVSPost2010PropOp49
 70
     1
102
RTVSPost2010Prop50
 90
       50
102
RTVSPost2010PropOp50
 70
     1
102
RTVSPost2010Prop51ColorIndex
 90
      256
102
RTVSPost2010Prop51ColorRGB
 90
-16777216
102
RTVSPost2010PropOp51
 70
     0
102
RTVSPost2010Prop52
140
1.0
102
RTVSPost2010PropOp52
 70
     0
102
RTVSPost2010Prop53
 90
        2
102
RTVSPost2010PropOp53
 70
     1
102
RTVSPost2010Prop54
  1
strokes_ogs.tif
102
RTVSPost2010PropOp54
 70
     1
102
RTVSPost2010Prop55
280
     0
102
RTVSPost2010PropOp55
 70
     1
102
RTVSPost2010Prop56
140
1.0
102
RTVSPost2010PropOp56
 70
     1
102
RTVSPost2010Prop57
140
1.0
102
RTVSPost2010PropOp57
 70
     1
102
RTVSPropertyOp0
 70
     1
102
RTVSPropertyOp1
 70
     1
102
RTVSPropertyOp2
 70
     1
102
RTVSPropertyOp3
 70
     1
102
RTVSPropertyOp4
 70
     1
102
RTVSPropertyOp5
 70
     1
102
RTVSPropertyOp6
 70
     1
102
RTVSPropertyOp7
 70
     1
102
RTVSPropertyOp8
 70
     1
102
RTVSPropertyOp9
 70
     1
102
RTVSPropertyOp10
 70
     1
102
RTVSPropertyOp11
 70
     1
102
RTVSPropertyOp12
 70
     1
102
RTVSPropertyOp13
 70
     1
102
RTVSPropertyOp14
 70
     1
102
RTVSPropertyOp15
 70
     1
102
RTVSPropertyOp16
 70
     1
102
RTVSPropertyOp17
 70
     1
102
RTVSPropertyOp18
 70
     1
102
RTVSPropertyOp19
 70
     1
102
RTVSPropertyOp20
 70
     1
102
RTVSPropertyOp21
 70
     1
102
RTVSPropertyOp22
 70
     1
102
RTVSPropertyOp23
 70
     1
102
RTVSPropertyOp24
 70
     1
102
RTVSPropertyOp25
 70
     1
102
RTVSPropertyOp26
 70
     1
102
RTVSPropertyOp27
 70
     1
102
RTVSPropertyOp28
 70
     1
102
RTVSPropertyOp29
 70
     1
102
RTVSPropertyOp30
 70
     1
102
RTVSPropertyOp31
 70
     1
102
RTVSPropertyOp32
 70
     1
102
RTVSPropertyOp33
 70
     1
102
RTVSPropertyOp34
 70
     1
102
RTVSPropertyOp35
 70
     1
102
RTVSPropertyOp36
 70
     1
102
RTVSPropertyOp37
 70
     1
102
RTVSPropertyOp38
 70
     1
102
RTVSPropertyOp39
 70
     1
102
RTVSPropertyOp40
 70
     1
102
RTVSPropertyOp41
 70
     1
102
RTVSPropertyOp42
 70
     1
102
RTVSPropertyOp43
 70
     1
102
RTVSPropertyOp44
 70
     1
102
RTVSPropertyOp45
 70
     1
102
RTVSPropertyOp46
 70
     1
102
RTVSPropertyOp47
 70
     1
102
RTVSPropertyOp48
 70
     1
102
RTVSPropertyOp49
 70
     1
102
RTVSPropertyOp50
 70
     1
102
RTVSPropertyOp51
 70
     0
102
RTVSPropertyOp52
 70
     0
102
RTVSPropertyOp53
 70
     1
102
RTVSPropertyOp54
 70
     1
102
RTVSPropertyOp55
 70
     1
102
RTVSPropertyOp56
 70
     1
102
RTVSPropertyOp57
 70
     1
102
RTVSPropertyOp58
 70
     1
102
RTVSPropertyOp59
 70
     1
102
RTVSPropertyOp60
 70
     1
102
RTVSPropertyOp61
 70
     1
102
RTVSPropertyOp62
 70
     1
  0
XRECORD
  5
953A
102
{ACAD_REACTORS
330
9539
102
}
330
9539
100
AcDbXrecord
280
     1
102
RTVSPost2010Prop28
280
     0
102
RTVSPost2010PropOp28
 70
     1
102
RTVSPost2010Prop29
280
     1
102
RTVSPost2010PropOp29
 70
     1
102
RTVSPost2010Prop30
280
     1
102
RTVSPost2010PropOp30
 70
     1
102
RTVSPost2010Prop31
280
     0
102
RTVSPost2010PropOp31
 70
     1
102
RTVSPost2010Prop32
280
     0
102
RTVSPost2010PropOp32
 70
     1
102
RTVSPost2010Prop33
280
     0
102
RTVSPost2010PropOp33
 70
     1
102
RTVSPost2010Prop34
280
     0
102
RTVSPost2010PropOp34
 70
     1
102
RTVSPost2010Prop35
280
     0
102
RTVSPost2010PropOp35
 70
     1
102
RTVSPost2010Prop36
280
     0
102
RTVSPost2010PropOp36
 70
     1
102
RTVSPost2010Prop37
 90
       50
102
RTVSPost2010PropOp37
 70
     1
102
RTVSPost2010Prop38
140
0.0
102
RTVSPost2010PropOp38
 70
     1
102
RTVSPost2010Prop39
140
1.0
102
RTVSPost2010PropOp39
 70
     1
102
RTVSPost2010Prop40
 90
        0
102
RTVSPost2010PropOp40
 70
     1
102
RTVSPost2010Prop41ColorIndex
 90
       18
102
RTVSPost2010Prop41ColorRGB
 90
        0
102
RTVSPost2010PropOp41
 70
     1
102
RTVSPost2010Prop42
 90
       50
102
RTVSPost2010PropOp42
 70
     1
102
RTVSPost2010Prop43
 90
        3
102
RTVSPost2010PropOp43
 70
     1
102
RTVSPost2010Prop44ColorIndex
 90
        5
102
RTVSPost2010Prop44ColorRGB
 90
      255
102
RTVSPost2010PropOp44
 70
     1
102
RTVSPost2010Prop45
280
     0
102
RTVSPost2010PropOp45
 70
     1
102
RTVSPost2010Prop46
 90
       50
102
RTVSPost2010PropOp46
 70
     1
102
RTVSPost2010Prop47
 90
       50
102
RTVSPost2010PropOp47
 70
     1
102
RTVSPost2010Prop48
 90
       50
102
RTVSPost2010PropOp48
 70
     1
102
RTVSPost2010Prop49
280
     0
102
RTVSPost2010PropOp49
 70
     1
102
RTVSPost2010Prop50
 90
       50
102
RTVSPost2010PropOp50
 70
     1
102
RTVSPost2010Prop51ColorIndex
 90
      256
102
RTVSPost2010Prop51ColorRGB
 90
-16777216
102
RTVSPost2010PropOp51
 70
     0
102
RTVSPost2010Prop52
140
1.0
102
RTVSPost2010PropOp52
 70
     0
102
RTVSPost2010Prop53
 90
        2
102
RTVSPost2010PropOp53
 70
     1
102
RTVSPost2010Prop54
  1
strokes_ogs.tif
102
RTVSPost2010PropOp54
 70
     1
102
RTVSPost2010Prop55
280
     0
102
RTVSPost2010PropOp55
 70
     1
102
RTVSPost2010Prop56
140
1.0
102
RTVSPost2010PropOp56
 70
     1
102
RTVSPost2010Prop57
140
1.0
102
RTVSPost2010PropOp57
 70
     1
102
RTVSPropertyOp0
 70
     1
102
RTVSPropertyOp1
 70
     1
102
RTVSPropertyOp2
 70
     1
102
RTVSPropertyOp3
 70
     1
102
RTVSPropertyOp4
 70
     1
102
RTVSPropertyOp5
 70
     1
102
RTVSPropertyOp6
 70
     1
102
RTVSPropertyOp7
 70
     1
102
RTVSPropertyOp8
 70
     1
102
RTVSPropertyOp9
 70
     1
102
RTVSPropertyOp10
 70
     1
102
RTVSPropertyOp11
 70
     1
102
RTVSPropertyOp12
 70
     1
102
RTVSPropertyOp13
 70
     1
102
RTVSPropertyOp14
 70
     1
102
RTVSPropertyOp15
 70
     1
102
RTVSPropertyOp16
 70
     1
102
RTVSPropertyOp17
 70
     1
102
RTVSPropertyOp18
 70
     1
102
RTVSPropertyOp19
 70
     1
102
RTVSPropertyOp20
 70
     1
102
RTVSPropertyOp21
 70
     1
102
RTVSPropertyOp22
 70
     1
102
RTVSPropertyOp23
 70
     1
102
RTVSPropertyOp24
 70
     1
102
RTVSPropertyOp25
 70
     1
102
RTVSPropertyOp26
 70
     1
102
RTVSPropertyOp27
 70
     1
102
RTVSPropertyOp28
 70
     1
102
RTVSPropertyOp29
 70
     1
102
RTVSPropertyOp30
 70
     1
102
RTVSPropertyOp31
 70
     1
102
RTVSPropertyOp32
 70
     1
102
RTVSPropertyOp33
 70
     1
102
RTVSPropertyOp34
 70
     1
102
RTVSPropertyOp35
 70
     1
102
RTVSPropertyOp36
 70
     1
102
RTVSPropertyOp37
 70
     1
102
RTVSPropertyOp38
 70
     1
102
RTVSPropertyOp39
 70
     1
102
RTVSPropertyOp40
 70
     1
102
RTVSPropertyOp41
 70
     1
102
RTVSPropertyOp42
 70
     1
102
RTVSPropertyOp43
 70
     1
102
RTVSPropertyOp44
 70
     1
102
RTVSPropertyOp45
 70
     1
102
RTVSPropertyOp46
 70
     1
102
RTVSPropertyOp47
 70
     1
102
RTVSPropertyOp48
 70
     1
102
RTVSPropertyOp49
 70
     1
102
RTVSPropertyOp50
 70
     1
102
RTVSPropertyOp51
 70
     0
102
RTVSPropertyOp52
 70
     0
102
RTVSPropertyOp53
 70
     1
102
RTVSPropertyOp54
 70
     1
102
RTVSPropertyOp55
 70
     1
102
RTVSPropertyOp56
 70
     1
102
RTVSPropertyOp57
 70
     1
102
RTVSPropertyOp58
 70
     1
102
RTVSPropertyOp59
 70
     1
102
RTVSPropertyOp60
 70
     1
102
RTVSPropertyOp61
 70
     1
102
RTVSPropertyOp62
 70
     1
  0
XRECORD
  5
9542
102
{ACAD_REACTORS
330
9541
102
}
330
9541
100
AcDbXrecord
280
     1
102
RTVSPost2010Prop28
280
     0
102
RTVSPost2010PropOp28
 70
     1
102
RTVSPost2010Prop29
280
     1
102
RTVSPost2010PropOp29
 70
     1
102
RTVSPost2010Prop30
280
     1
102
RTVSPost2010PropOp30
 70
     1
102
RTVSPost2010Prop31
280
     0
102
RTVSPost2010PropOp31
 70
     1
102
RTVSPost2010Prop32
280
     0
102
RTVSPost2010PropOp32
 70
     1
102
RTVSPost2010Prop33
280
     0
102
RTVSPost2010PropOp33
 70
     1
102
RTVSPost2010Prop34
280
     0
102
RTVSPost2010PropOp34
 70
     1
102
RTVSPost2010Prop35
280
     0
102
RTVSPost2010PropOp35
 70
     1
102
RTVSPost2010Prop36
280
     0
102
RTVSPost2010PropOp36
 70
     1
102
RTVSPost2010Prop37
 90
       50
102
RTVSPost2010PropOp37
 70
     1
102
RTVSPost2010Prop38
140
0.0
102
RTVSPost2010PropOp38
 70
     1
102
RTVSPost2010Prop39
140
1.0
102
RTVSPost2010PropOp39
 70
     1
102
RTVSPost2010Prop40
 90
        0
102
RTVSPost2010PropOp40
 70
     1
102
RTVSPost2010Prop41ColorIndex
 90
       18
102
RTVSPost2010Prop41ColorRGB
 90
        0
102
RTVSPost2010PropOp41
 70
     1
102
RTVSPost2010Prop42
 90
       50
102
RTVSPost2010PropOp42
 70
     1
102
RTVSPost2010Prop43
 90
        3
102
RTVSPost2010PropOp43
 70
     1
102
RTVSPost2010Prop44ColorIndex
 90
        5
102
RTVSPost2010Prop44ColorRGB
 90
      255
102
RTVSPost2010PropOp44
 70
     1
102
RTVSPost2010Prop45
280
     0
102
RTVSPost2010PropOp45
 70
     1
102
RTVSPost2010Prop46
 90
       50
102
RTVSPost2010PropOp46
 70
     1
102
RTVSPost2010Prop47
 90
       50
102
RTVSPost2010PropOp47
 70
     1
102
RTVSPost2010Prop48
 90
       50
102
RTVSPost2010PropOp48
 70
     1
102
RTVSPost2010Prop49
280
     0
102
RTVSPost2010PropOp49
 70
     1
102
RTVSPost2010Prop50
 90
       50
102
RTVSPost2010PropOp50
 70
     1
102
RTVSPost2010Prop51ColorIndex
 90
      256
102
RTVSPost2010Prop51ColorRGB
 90
-16777216
102
RTVSPost2010PropOp51
 70
     0
102
RTVSPost2010Prop52
140
1.0
102
RTVSPost2010PropOp52
 70
     0
102
RTVSPost2010Prop53
 90
        2
102
RTVSPost2010PropOp53
 70
     1
102
RTVSPost2010Prop54
  1
strokes_ogs.tif
102
RTVSPost2010PropOp54
 70
     1
102
RTVSPost2010Prop55
280
     0
102
RTVSPost2010PropOp55
 70
     1
102
RTVSPost2010Prop56
140
1.0
102
RTVSPost2010PropOp56
 70
     1
102
RTVSPost2010Prop57
140
1.0
102
RTVSPost2010PropOp57
 70
     1
102
RTVSPropertyOp0
 70
     1
102
RTVSPropertyOp1
 70
     1
102
RTVSPropertyOp2
 70
     1
102
RTVSPropertyOp3
 70
     1
102
RTVSPropertyOp4
 70
     1
102
RTVSPropertyOp5
 70
     1
102
RTVSPropertyOp6
 70
     1
102
RTVSPropertyOp7
 70
     1
102
RTVSPropertyOp8
 70
     1
102
RTVSPropertyOp9
 70
     1
102
RTVSPropertyOp10
 70
     1
102
RTVSPropertyOp11
 70
     1
102
RTVSPropertyOp12
 70
     1
102
RTVSPropertyOp13
 70
     1
102
RTVSPropertyOp14
 70
     1
102
RTVSPropertyOp15
 70
     1
102
RTVSPropertyOp16
 70
     1
102
RTVSPropertyOp17
 70
     1
102
RTVSPropertyOp18
 70
     1
102
RTVSPropertyOp19
 70
     1
102
RTVSPropertyOp20
 70
     1
102
RTVSPropertyOp21
 70
     1
102
RTVSPropertyOp22
 70
     1
102
RTVSPropertyOp23
 70
     1
102
RTVSPropertyOp24
 70
     1
102
RTVSPropertyOp25
 70
     1
102
RTVSPropertyOp26
 70
     1
102
RTVSPropertyOp27
 70
     1
102
RTVSPropertyOp28
 70
     1
102
RTVSPropertyOp29
 70
     1
102
RTVSPropertyOp30
 70
     1
102
RTVSPropertyOp31
 70
     1
102
RTVSPropertyOp32
 70
     1
102
RTVSPropertyOp33
 70
     1
102
RTVSPropertyOp34
 70
     1
102
RTVSPropertyOp35
 70
     1
102
RTVSPropertyOp36
 70
     1
102
RTVSPropertyOp37
 70
     1
102
RTVSPropertyOp38
 70
     1
102
RTVSPropertyOp39
 70
     1
102
RTVSPropertyOp40
 70
     1
102
RTVSPropertyOp41
 70
     1
102
RTVSPropertyOp42
 70
     1
102
RTVSPropertyOp43
 70
     1
102
RTVSPropertyOp44
 70
     1
102
RTVSPropertyOp45
 70
     1
102
RTVSPropertyOp46
 70
     1
102
RTVSPropertyOp47
 70
     1
102
RTVSPropertyOp48
 70
     1
102
RTVSPropertyOp49
 70
     1
102
RTVSPropertyOp50
 70
     1
102
RTVSPropertyOp51
 70
     0
102
RTVSPropertyOp52
 70
     0
102
RTVSPropertyOp53
 70
     1
102
RTVSPropertyOp54
 70
     1
102
RTVSPropertyOp55
 70
     1
102
RTVSPropertyOp56
 70
     1
102
RTVSPropertyOp57
 70
     1
102
RTVSPropertyOp58
 70
     1
102
RTVSPropertyOp59
 70
     1
102
RTVSPropertyOp60
 70
     1
102
RTVSPropertyOp61
 70
     1
102
RTVSPropertyOp62
 70
     1
  0
XRECORD
  5
9534
102
{ACAD_REACTORS
330
9533
102
}
330
9533
100
AcDbXrecord
280
     1
102
RTVSPost2010Prop28
280
     0
102
RTVSPost2010PropOp28
 70
     1
102
RTVSPost2010Prop29
280
     1
102
RTVSPost2010PropOp29
 70
     1
102
RTVSPost2010Prop30
280
     1
102
RTVSPost2010PropOp30
 70
     1
102
RTVSPost2010Prop31
280
     0
102
RTVSPost2010PropOp31
 70
     1
102
RTVSPost2010Prop32
280
     0
102
RTVSPost2010PropOp32
 70
     1
102
RTVSPost2010Prop33
280
     0
102
RTVSPost2010PropOp33
 70
     1
102
RTVSPost2010Prop34
280
     0
102
RTVSPost2010PropOp34
 70
     1
102
RTVSPost2010Prop35
280
     0
102
RTVSPost2010PropOp35
 70
     1
102
RTVSPost2010Prop36
280
     0
102
RTVSPost2010PropOp36
 70
     1
102
RTVSPost2010Prop37
 90
       50
102
RTVSPost2010PropOp37
 70
     1
102
RTVSPost2010Prop38
140
0.0
102
RTVSPost2010PropOp38
 70
     1
102
RTVSPost2010Prop39
140
1.0
102
RTVSPost2010PropOp39
 70
     1
102
RTVSPost2010Prop40
 90
        0
102
RTVSPost2010PropOp40
 70
     1
102
RTVSPost2010Prop41ColorIndex
 90
       18
102
RTVSPost2010Prop41ColorRGB
 90
        0
102
RTVSPost2010PropOp41
 70
     1
102
RTVSPost2010Prop42
 90
       50
102
RTVSPost2010PropOp42
 70
     1
102
RTVSPost2010Prop43
 90
        3
102
RTVSPost2010PropOp43
 70
     1
102
RTVSPost2010Prop44ColorIndex
 90
        5
102
RTVSPost2010Prop44ColorRGB
 90
      255
102
RTVSPost2010PropOp44
 70
     1
102
RTVSPost2010Prop45
280
     0
102
RTVSPost2010PropOp45
 70
     1
102
RTVSPost2010Prop46
 90
       50
102
RTVSPost2010PropOp46
 70
     1
102
RTVSPost2010Prop47
 90
       50
102
RTVSPost2010PropOp47
 70
     1
102
RTVSPost2010Prop48
 90
       50
102
RTVSPost2010PropOp48
 70
     1
102
RTVSPost2010Prop49
280
     0
102
RTVSPost2010PropOp49
 70
     1
102
RTVSPost2010Prop50
 90
       50
102
RTVSPost2010PropOp50
 70
     1
102
RTVSPost2010Prop51ColorIndex
 90
      256
102
RTVSPost2010Prop51ColorRGB
 90
-16777216
102
RTVSPost2010PropOp51
 70
     0
102
RTVSPost2010Prop52
140
1.0
102
RTVSPost2010PropOp52
 70
     0
102
RTVSPost2010Prop53
 90
        2
102
RTVSPost2010PropOp53
 70
     1
102
RTVSPost2010Prop54
  1
strokes_ogs.tif
102
RTVSPost2010PropOp54
 70
     1
102
RTVSPost2010Prop55
280
     0
102
RTVSPost2010PropOp55
 70
     1
102
RTVSPost2010Prop56
140
1.0
102
RTVSPost2010PropOp56
 70
     1
102
RTVSPost2010Prop57
140
1.0
102
RTVSPost2010PropOp57
 70
     1
102
RTVSPropertyOp0
 70
     1
102
RTVSPropertyOp1
 70
     1
102
RTVSPropertyOp2
 70
     1
102
RTVSPropertyOp3
 70
     1
102
RTVSPropertyOp4
 70
     1
102
RTVSPropertyOp5
 70
     1
102
RTVSPropertyOp6
 70
     1
102
RTVSPropertyOp7
 70
     1
102
RTVSPropertyOp8
 70
     1
102
RTVSPropertyOp9
 70
     1
102
RTVSPropertyOp10
 70
     1
102
RTVSPropertyOp11
 70
     1
102
RTVSPropertyOp12
 70
     1
102
RTVSPropertyOp13
 70
     1
102
RTVSPropertyOp14
 70
     1
102
RTVSPropertyOp15
 70
     1
102
RTVSPropertyOp16
 70
     1
102
RTVSPropertyOp17
 70
     1
102
RTVSPropertyOp18
 70
     1
102
RTVSPropertyOp19
 70
     1
102
RTVSPropertyOp20
 70
     1
102
RTVSPropertyOp21
 70
     1
102
RTVSPropertyOp22
 70
     1
102
RTVSPropertyOp23
 70
     1
102
RTVSPropertyOp24
 70
     1
102
RTVSPropertyOp25
 70
     1
102
RTVSPropertyOp26
 70
     1
102
RTVSPropertyOp27
 70
     1
102
RTVSPropertyOp28
 70
     1
102
RTVSPropertyOp29
 70
     1
102
RTVSPropertyOp30
 70
     1
102
RTVSPropertyOp31
 70
     1
102
RTVSPropertyOp32
 70
     1
102
RTVSPropertyOp33
 70
     1
102
RTVSPropertyOp34
 70
     1
102
RTVSPropertyOp35
 70
     1
102
RTVSPropertyOp36
 70
     1
102
RTVSPropertyOp37
 70
     1
102
RTVSPropertyOp38
 70
     1
102
RTVSPropertyOp39
 70
     1
102
RTVSPropertyOp40
 70
     1
102
RTVSPropertyOp41
 70
     1
102
RTVSPropertyOp42
 70
     1
102
RTVSPropertyOp43
 70
     1
102
RTVSPropertyOp44
 70
     1
102
RTVSPropertyOp45
 70
     1
102
RTVSPropertyOp46
 70
     1
102
RTVSPropertyOp47
 70
     1
102
RTVSPropertyOp48
 70
     1
102
RTVSPropertyOp49
 70
     1
102
RTVSPropertyOp50
 70
     1
102
RTVSPropertyOp51
 70
     0
102
RTVSPropertyOp52
 70
     0
102
RTVSPropertyOp53
 70
     1
102
RTVSPropertyOp54
 70
     1
102
RTVSPropertyOp55
 70
     1
102
RTVSPropertyOp56
 70
     1
102
RTVSPropertyOp57
 70
     1
102
RTVSPropertyOp58
 70
     1
102
RTVSPropertyOp59
 70
     1
102
RTVSPropertyOp60
 70
     1
102
RTVSPropertyOp61
 70
     1
102
RTVSPropertyOp62
 70
     1
  0
XRECORD
  5
9538
102
{ACAD_REACTORS
330
9537
102
}
330
9537
100
AcDbXrecord
280
     1
102
RTVSPost2010Prop28
280
     0
102
RTVSPost2010PropOp28
 70
     1
102
RTVSPost2010Prop29
280
     1
102
RTVSPost2010PropOp29
 70
     1
102
RTVSPost2010Prop30
280
     1
102
RTVSPost2010PropOp30
 70
     1
102
RTVSPost2010Prop31
280
     0
102
RTVSPost2010PropOp31
 70
     1
102
RTVSPost2010Prop32
280
     0
102
RTVSPost2010PropOp32
 70
     1
102
RTVSPost2010Prop33
280
     0
102
RTVSPost2010PropOp33
 70
     1
102
RTVSPost2010Prop34
280
     0
102
RTVSPost2010PropOp34
 70
     1
102
RTVSPost2010Prop35
280
     0
102
RTVSPost2010PropOp35
 70
     1
102
RTVSPost2010Prop36
280
     0
102
RTVSPost2010PropOp36
 70
     1
102
RTVSPost2010Prop37
 90
       50
102
RTVSPost2010PropOp37
 70
     1
102
RTVSPost2010Prop38
140
0.0
102
RTVSPost2010PropOp38
 70
     1
102
RTVSPost2010Prop39
140
1.0
102
RTVSPost2010PropOp39
 70
     1
102
RTVSPost2010Prop40
 90
        0
102
RTVSPost2010PropOp40
 70
     1
102
RTVSPost2010Prop41ColorIndex
 90
       18
102
RTVSPost2010Prop41ColorRGB
 90
        0
102
RTVSPost2010PropOp41
 70
     1
102
RTVSPost2010Prop42
 90
       50
102
RTVSPost2010PropOp42
 70
     1
102
RTVSPost2010Prop43
 90
        3
102
RTVSPost2010PropOp43
 70
     1
102
RTVSPost2010Prop44ColorIndex
 90
        5
102
RTVSPost2010Prop44ColorRGB
 90
      255
102
RTVSPost2010PropOp44
 70
     1
102
RTVSPost2010Prop45
280
     0
102
RTVSPost2010PropOp45
 70
     1
102
RTVSPost2010Prop46
 90
       50
102
RTVSPost2010PropOp46
 70
     1
102
RTVSPost2010Prop47
 90
       50
102
RTVSPost2010PropOp47
 70
     1
102
RTVSPost2010Prop48
 90
       50
102
RTVSPost2010PropOp48
 70
     1
102
RTVSPost2010Prop49
280
     0
102
RTVSPost2010PropOp49
 70
     1
102
RTVSPost2010Prop50
 90
       50
102
RTVSPost2010PropOp50
 70
     1
102
RTVSPost2010Prop51ColorIndex
 90
      256
102
RTVSPost2010Prop51ColorRGB
 90
-16777216
102
RTVSPost2010PropOp51
 70
     0
102
RTVSPost2010Prop52
140
1.0
102
RTVSPost2010PropOp52
 70
     0
102
RTVSPost2010Prop53
 90
        2
102
RTVSPost2010PropOp53
 70
     1
102
RTVSPost2010Prop54
  1
strokes_ogs.tif
102
RTVSPost2010PropOp54
 70
     1
102
RTVSPost2010Prop55
280
     0
102
RTVSPost2010PropOp55
 70
     1
102
RTVSPost2010Prop56
140
1.0
102
RTVSPost2010PropOp56
 70
     1
102
RTVSPost2010Prop57
140
1.0
102
RTVSPost2010PropOp57
 70
     1
102
RTVSPropertyOp0
 70
     1
102
RTVSPropertyOp1
 70
     1
102
RTVSPropertyOp2
 70
     1
102
RTVSPropertyOp3
 70
     1
102
RTVSPropertyOp4
 70
     1
102
RTVSPropertyOp5
 70
     1
102
RTVSPropertyOp6
 70
     1
102
RTVSPropertyOp7
 70
     1
102
RTVSPropertyOp8
 70
     1
102
RTVSPropertyOp9
 70
     1
102
RTVSPropertyOp10
 70
     1
102
RTVSPropertyOp11
 70
     1
102
RTVSPropertyOp12
 70
     1
102
RTVSPropertyOp13
 70
     1
102
RTVSPropertyOp14
 70
     1
102
RTVSPropertyOp15
 70
     1
102
RTVSPropertyOp16
 70
     1
102
RTVSPropertyOp17
 70
     1
102
RTVSPropertyOp18
 70
     1
102
RTVSPropertyOp19
 70
     1
102
RTVSPropertyOp20
 70
     1
102
RTVSPropertyOp21
 70
     1
102
RTVSPropertyOp22
 70
     1
102
RTVSPropertyOp23
 70
     1
102
RTVSPropertyOp24
 70
     1
102
RTVSPropertyOp25
 70
     1
102
RTVSPropertyOp26
 70
     1
102
RTVSPropertyOp27
 70
     1
102
RTVSPropertyOp28
 70
     1
102
RTVSPropertyOp29
 70
     1
102
RTVSPropertyOp30
 70
     1
102
RTVSPropertyOp31
 70
     1
102
RTVSPropertyOp32
 70
     1
102
RTVSPropertyOp33
 70
     1
102
RTVSPropertyOp34
 70
     1
102
RTVSPropertyOp35
 70
     1
102
RTVSPropertyOp36
 70
     1
102
RTVSPropertyOp37
 70
     1
102
RTVSPropertyOp38
 70
     1
102
RTVSPropertyOp39
 70
     1
102
RTVSPropertyOp40
 70
     1
102
RTVSPropertyOp41
 70
     1
102
RTVSPropertyOp42
 70
     1
102
RTVSPropertyOp43
 70
     1
102
RTVSPropertyOp44
 70
     1
102
RTVSPropertyOp45
 70
     1
102
RTVSPropertyOp46
 70
     1
102
RTVSPropertyOp47
 70
     1
102
RTVSPropertyOp48
 70
     1
102
RTVSPropertyOp49
 70
     1
102
RTVSPropertyOp50
 70
     1
102
RTVSPropertyOp51
 70
     0
102
RTVSPropertyOp52
 70
     0
102
RTVSPropertyOp53
 70
     1
102
RTVSPropertyOp54
 70
     1
102
RTVSPropertyOp55
 70
     1
102
RTVSPropertyOp56
 70
     1
102
RTVSPropertyOp57
 70
     1
102
RTVSPropertyOp58
 70
     1
102
RTVSPropertyOp59
 70
     1
102
RTVSPropertyOp60
 70
     1
102
RTVSPropertyOp61
 70
     1
102
RTVSPropertyOp62
 70
     1
  0
XRECORD
  5
9552
102
{ACAD_REACTORS
330
9551
102
}
330
9551
100
AcDbXrecord
280
     1
102
RTVSPost2010Prop28
280
     0
102
RTVSPost2010PropOp28
 70
     1
102
RTVSPost2010Prop29
280
     1
102
RTVSPost2010PropOp29
 70
     1
102
RTVSPost2010Prop30
280
     1
102
RTVSPost2010PropOp30
 70
     1
102
RTVSPost2010Prop31
280
     0
102
RTVSPost2010PropOp31
 70
     1
102
RTVSPost2010Prop32
280
     0
102
RTVSPost2010PropOp32
 70
     1
102
RTVSPost2010Prop33
280
     0
102
RTVSPost2010PropOp33
 70
     1
102
RTVSPost2010Prop34
280
     0
102
RTVSPost2010PropOp34
 70
     1
102
RTVSPost2010Prop35
280
     0
102
RTVSPost2010PropOp35
 70
     1
102
RTVSPost2010Prop36
280
     0
102
RTVSPost2010PropOp36
 70
     1
102
RTVSPost2010Prop37
 90
       50
102
RTVSPost2010PropOp37
 70
     0
102
RTVSPost2010Prop38
140
0.0
102
RTVSPost2010PropOp38
 70
     0
102
RTVSPost2010Prop39
140
1.0
102
RTVSPost2010PropOp39
 70
     0
102
RTVSPost2010Prop40
 90
        0
102
RTVSPost2010PropOp40
 70
     0
102
RTVSPost2010Prop41ColorIndex
 90
       18
102
RTVSPost2010Prop41ColorRGB
 90
        0
102
RTVSPost2010PropOp41
 70
     0
102
RTVSPost2010Prop42
 90
       50
102
RTVSPost2010PropOp42
 70
     0
102
RTVSPost2010Prop43
 90
        3
102
RTVSPost2010PropOp43
 70
     0
102
RTVSPost2010Prop44ColorIndex
 90
        5
102
RTVSPost2010Prop44ColorRGB
 90
      255
102
RTVSPost2010PropOp44
 70
     0
102
RTVSPost2010Prop45
280
     0
102
RTVSPost2010PropOp45
 70
     1
102
RTVSPost2010Prop46
 90
       50
102
RTVSPost2010PropOp46
 70
     0
102
RTVSPost2010Prop47
 90
       50
102
RTVSPost2010PropOp47
 70
     0
102
RTVSPost2010Prop48
 90
       50
102
RTVSPost2010PropOp48
 70
     0
102
RTVSPost2010Prop49
280
     0
102
RTVSPost2010PropOp49
 70
     1
102
RTVSPost2010Prop50
 90
       50
102
RTVSPost2010PropOp50
 70
     0
102
RTVSPost2010Prop51ColorIndex
 90
      256
102
RTVSPost2010Prop51ColorRGB
 90
-16777216
102
RTVSPost2010PropOp51
 70
     0
102
RTVSPost2010Prop52
140
1.0
102
RTVSPost2010PropOp52
 70
     0
102
RTVSPost2010Prop53
 90
        2
102
RTVSPost2010PropOp53
 70
     0
102
RTVSPost2010Prop54
  1
strokes_ogs.tif
102
RTVSPost2010PropOp54
 70
     0
102
RTVSPost2010Prop55
280
     0
102
RTVSPost2010PropOp55
 70
     1
102
RTVSPost2010Prop56
140
1.0
102
RTVSPost2010PropOp56
 70
     0
102
RTVSPost2010Prop57
140
1.0
102
RTVSPost2010PropOp57
 70
     0
102
RTVSPropertyOp0
 70
     0
102
RTVSPropertyOp1
 70
     0
102
RTVSPropertyOp2
 70
     0
102
RTVSPropertyOp3
 70
     0
102
RTVSPropertyOp4
 70
     0
102
RTVSPropertyOp5
 70
     0
102
RTVSPropertyOp6
 70
     0
102
RTVSPropertyOp7
 70
     0
102
RTVSPropertyOp8
 70
     0
102
RTVSPropertyOp9
 70
     0
102
RTVSPropertyOp10
 70
     0
102
RTVSPropertyOp11
 70
     0
102
RTVSPropertyOp12
 70
     0
102
RTVSPropertyOp13
 70
     0
102
RTVSPropertyOp14
 70
     2
102
RTVSPropertyOp15
 70
     0
102
RTVSPropertyOp16
 70
     0
102
RTVSPropertyOp17
 70
     0
102
RTVSPropertyOp18
 70
     0
102
RTVSPropertyOp19
 70
     0
102
RTVSPropertyOp20
 70
     0
102
RTVSPropertyOp21
 70
     0
102
RTVSPropertyOp22
 70
     0
102
RTVSPropertyOp23
 70
     0
102
RTVSPropertyOp24
 70
     0
102
RTVSPropertyOp25
 70
     0
102
RTVSPropertyOp26
 70
     0
102
RTVSPropertyOp27
 70
     0
102
RTVSPropertyOp28
 70
     1
102
RTVSPropertyOp29
 70
     1
102
RTVSPropertyOp30
 70
     1
102
RTVSPropertyOp31
 70
     1
102
RTVSPropertyOp32
 70
     1
102
RTVSPropertyOp33
 70
     1
102
RTVSPropertyOp34
 70
     1
102
RTVSPropertyOp35
 70
     1
102
RTVSPropertyOp36
 70
     1
102
RTVSPropertyOp37
 70
     0
102
RTVSPropertyOp38
 70
     0
102
RTVSPropertyOp39
 70
     0
102
RTVSPropertyOp40
 70
     0
102
RTVSPropertyOp41
 70
     0
102
RTVSPropertyOp42
 70
     0
102
RTVSPropertyOp43
 70
     0
102
RTVSPropertyOp44
 70
     0
102
RTVSPropertyOp45
 70
     1
102
RTVSPropertyOp46
 70
     0
102
RTVSPropertyOp47
 70
     0
102
RTVSPropertyOp48
 70
     0
102
RTVSPropertyOp49
 70
     1
102
RTVSPropertyOp50
 70
     0
102
RTVSPropertyOp51
 70
     0
102
RTVSPropertyOp52
 70
     0
102
RTVSPropertyOp53
 70
     0
102
RTVSPropertyOp54
 70
     0
102
RTVSPropertyOp55
 70
     1
102
RTVSPropertyOp56
 70
     0
102
RTVSPropertyOp57
 70
     0
102
RTVSPropertyOp58
 70
     0
102
RTVSPropertyOp59
 70
     0
102
RTVSPropertyOp60
 70
     0
102
RTVSPropertyOp61
 70
     0
102
RTVSPropertyOp62
 70
     0
  0
XRECORD
  5
9540
102
{ACAD_REACTORS
330
953F
102
}
330
953F
100
AcDbXrecord
280
     1
102
RTVSPost2010Prop28
280
     0
102
RTVSPost2010PropOp28
 70
     1
102
RTVSPost2010Prop29
280
     1
102
RTVSPost2010PropOp29
 70
     1
102
RTVSPost2010Prop30
280
     1
102
RTVSPost2010PropOp30
 70
     1
102
RTVSPost2010Prop31
280
     0
102
RTVSPost2010PropOp31
 70
     1
102
RTVSPost2010Prop32
280
     0
102
RTVSPost2010PropOp32
 70
     1
102
RTVSPost2010Prop33
280
     0
102
RTVSPost2010PropOp33
 70
     1
102
RTVSPost2010Prop34
280
     0
102
RTVSPost2010PropOp34
 70
     1
102
RTVSPost2010Prop35
280
     0
102
RTVSPost2010PropOp35
 70
     1
102
RTVSPost2010Prop36
280
     0
102
RTVSPost2010PropOp36
 70
     1
102
RTVSPost2010Prop37
 90
       50
102
RTVSPost2010PropOp37
 70
     1
102
RTVSPost2010Prop38
140
0.0
102
RTVSPost2010PropOp38
 70
     1
102
RTVSPost2010Prop39
140
1.0
102
RTVSPost2010PropOp39
 70
     1
102
RTVSPost2010Prop40
 90
        0
102
RTVSPost2010PropOp40
 70
     1
102
RTVSPost2010Prop41ColorIndex
 90
       18
102
RTVSPost2010Prop41ColorRGB
 90
        0
102
RTVSPost2010PropOp41
 70
     1
102
RTVSPost2010Prop42
 90
       50
102
RTVSPost2010PropOp42
 70
     1
102
RTVSPost2010Prop43
 90
        3
102
RTVSPost2010PropOp43
 70
     1
102
RTVSPost2010Prop44ColorIndex
 90
        5
102
RTVSPost2010Prop44ColorRGB
 90
      255
102
RTVSPost2010PropOp44
 70
     1
102
RTVSPost2010Prop45
280
     0
102
RTVSPost2010PropOp45
 70
     1
102
RTVSPost2010Prop46
 90
       50
102
RTVSPost2010PropOp46
 70
     1
102
RTVSPost2010Prop47
 90
       50
102
RTVSPost2010PropOp47
 70
     1
102
RTVSPost2010Prop48
 90
       50
102
RTVSPost2010PropOp48
 70
     1
102
RTVSPost2010Prop49
280
     0
102
RTVSPost2010PropOp49
 70
     1
102
RTVSPost2010Prop50
 90
       50
102
RTVSPost2010PropOp50
 70
     1
102
RTVSPost2010Prop51ColorIndex
 90
      256
102
RTVSPost2010Prop51ColorRGB
 90
-16777216
102
RTVSPost2010PropOp51
 70
     0
102
RTVSPost2010Prop52
140
1.0
102
RTVSPost2010PropOp52
 70
     0
102
RTVSPost2010Prop53
 90
        2
102
RTVSPost2010PropOp53
 70
     1
102
RTVSPost2010Prop54
  1
strokes_ogs.tif
102
RTVSPost2010PropOp54
 70
     1
102
RTVSPost2010Prop55
280
     0
102
RTVSPost2010PropOp55
 70
     1
102
RTVSPost2010Prop56
140
1.0
102
RTVSPost2010PropOp56
 70
     1
102
RTVSPost2010Prop57
140
1.0
102
RTVSPost2010PropOp57
 70
     1
102
RTVSPropertyOp0
 70
     1
102
RTVSPropertyOp1
 70
     1
102
RTVSPropertyOp2
 70
     1
102
RTVSPropertyOp3
 70
     1
102
RTVSPropertyOp4
 70
     1
102
RTVSPropertyOp5
 70
     1
102
RTVSPropertyOp6
 70
     1
102
RTVSPropertyOp7
 70
     1
102
RTVSPropertyOp8
 70
     1
102
RTVSPropertyOp9
 70
     1
102
RTVSPropertyOp10
 70
     1
102
RTVSPropertyOp11
 70
     1
102
RTVSPropertyOp12
 70
     1
102
RTVSPropertyOp13
 70
     1
102
RTVSPropertyOp14
 70
     1
102
RTVSPropertyOp15
 70
     1
102
RTVSPropertyOp16
 70
     1
102
RTVSPropertyOp17
 70
     1
102
RTVSPropertyOp18
 70
     1
102
RTVSPropertyOp19
 70
     1
102
RTVSPropertyOp20
 70
     1
102
RTVSPropertyOp21
 70
     1
102
RTVSPropertyOp22
 70
     1
102
RTVSPropertyOp23
 70
     1
102
RTVSPropertyOp24
 70
     1
102
RTVSPropertyOp25
 70
     1
102
RTVSPropertyOp26
 70
     1
102
RTVSPropertyOp27
 70
     1
102
RTVSPropertyOp28
 70
     1
102
RTVSPropertyOp29
 70
     1
102
RTVSPropertyOp30
 70
     1
102
RTVSPropertyOp31
 70
     1
102
RTVSPropertyOp32
 70
     1
102
RTVSPropertyOp33
 70
     1
102
RTVSPropertyOp34
 70
     1
102
RTVSPropertyOp35
 70
     1
102
RTVSPropertyOp36
 70
     1
102
RTVSPropertyOp37
 70
     1
102
RTVSPropertyOp38
 70
     1
102
RTVSPropertyOp39
 70
     1
102
RTVSPropertyOp40
 70
     1
102
RTVSPropertyOp41
 70
     1
102
RTVSPropertyOp42
 70
     1
102
RTVSPropertyOp43
 70
     1
102
RTVSPropertyOp44
 70
     1
102
RTVSPropertyOp45
 70
     1
102
RTVSPropertyOp46
 70
     1
102
RTVSPropertyOp47
 70
     1
102
RTVSPropertyOp48
 70
     1
102
RTVSPropertyOp49
 70
     1
102
RTVSPropertyOp50
 70
     1
102
RTVSPropertyOp51
 70
     0
102
RTVSPropertyOp52
 70
     0
102
RTVSPropertyOp53
 70
     1
102
RTVSPropertyOp54
 70
     1
102
RTVSPropertyOp55
 70
     1
102
RTVSPropertyOp56
 70
     1
102
RTVSPropertyOp57
 70
     1
102
RTVSPropertyOp58
 70
     1
102
RTVSPropertyOp59
 70
     1
102
RTVSPropertyOp60
 70
     1
102
RTVSPropertyOp61
 70
     1
102
RTVSPropertyOp62
 70
     1
  0
XRECORD
  5
9524
102
{ACAD_REACTORS
330
9523
102
}
330
9523
100
AcDbXrecord
280
     1
102
RTVSPost2010Prop28
280
     0
102
RTVSPost2010PropOp28
 70
     1
102
RTVSPost2010Prop29
280
     1
102
RTVSPost2010PropOp29
 70
     1
102
RTVSPost2010Prop30
280
     1
102
RTVSPost2010PropOp30
 70
     1
102
RTVSPost2010Prop31
280
     0
102
RTVSPost2010PropOp31
 70
     1
102
RTVSPost2010Prop32
280
     0
102
RTVSPost2010PropOp32
 70
     1
102
RTVSPost2010Prop33
280
     0
102
RTVSPost2010PropOp33
 70
     1
102
RTVSPost2010Prop34
280
     0
102
RTVSPost2010PropOp34
 70
     1
102
RTVSPost2010Prop35
280
     0
102
RTVSPost2010PropOp35
 70
     1
102
RTVSPost2010Prop36
280
     0
102
RTVSPost2010PropOp36
 70
     1
102
RTVSPost2010Prop37
 90
       50
102
RTVSPost2010PropOp37
 70
     1
102
RTVSPost2010Prop38
140
0.0
102
RTVSPost2010PropOp38
 70
     1
102
RTVSPost2010Prop39
140
1.0
102
RTVSPost2010PropOp39
 70
     1
102
RTVSPost2010Prop40
 90
        0
102
RTVSPost2010PropOp40
 70
     1
102
RTVSPost2010Prop41ColorIndex
 90
       18
102
RTVSPost2010Prop41ColorRGB
 90
        0
102
RTVSPost2010PropOp41
 70
     1
102
RTVSPost2010Prop42
 90
       50
102
RTVSPost2010PropOp42
 70
     1
102
RTVSPost2010Prop43
 90
        3
102
RTVSPost2010PropOp43
 70
     1
102
RTVSPost2010Prop44ColorIndex
 90
        5
102
RTVSPost2010Prop44ColorRGB
 90
      255
102
RTVSPost2010PropOp44
 70
     1
102
RTVSPost2010Prop45
280
     0
102
RTVSPost2010PropOp45
 70
     1
102
RTVSPost2010Prop46
 90
       50
102
RTVSPost2010PropOp46
 70
     1
102
RTVSPost2010Prop47
 90
       50
102
RTVSPost2010PropOp47
 70
     1
102
RTVSPost2010Prop48
 90
       50
102
RTVSPost2010PropOp48
 70
     1
102
RTVSPost2010Prop49
280
     0
102
RTVSPost2010PropOp49
 70
     1
102
RTVSPost2010Prop50
 90
       50
102
RTVSPost2010PropOp50
 70
     1
102
RTVSPost2010Prop51ColorIndex
 90
      256
102
RTVSPost2010Prop51ColorRGB
 90
-16777216
102
RTVSPost2010PropOp51
 70
     0
102
RTVSPost2010Prop52
140
1.0
102
RTVSPost2010PropOp52
 70
     0
102
RTVSPost2010Prop53
 90
        2
102
RTVSPost2010PropOp53
 70
     1
102
RTVSPost2010Prop54
  1
strokes_ogs.tif
102
RTVSPost2010PropOp54
 70
     1
102
RTVSPost2010Prop55
280
     0
102
RTVSPost2010PropOp55
 70
     1
102
RTVSPost2010Prop56
140
1.0
102
RTVSPost2010PropOp56
 70
     1
102
RTVSPost2010Prop57
140
1.0
102
RTVSPost2010PropOp57
 70
     1
102
RTVSPropertyOp0
 70
     1
102
RTVSPropertyOp1
 70
     1
102
RTVSPropertyOp2
 70
     1
102
RTVSPropertyOp3
 70
     1
102
RTVSPropertyOp4
 70
     1
102
RTVSPropertyOp5
 70
     1
102
RTVSPropertyOp6
 70
     1
102
RTVSPropertyOp7
 70
     1
102
RTVSPropertyOp8
 70
     1
102
RTVSPropertyOp9
 70
     1
102
RTVSPropertyOp10
 70
     1
102
RTVSPropertyOp11
 70
     1
102
RTVSPropertyOp12
 70
     1
102
RTVSPropertyOp13
 70
     1
102
RTVSPropertyOp14
 70
     1
102
RTVSPropertyOp15
 70
     1
102
RTVSPropertyOp16
 70
     1
102
RTVSPropertyOp17
 70
     1
102
RTVSPropertyOp18
 70
     1
102
RTVSPropertyOp19
 70
     1
102
RTVSPropertyOp20
 70
     1
102
RTVSPropertyOp21
 70
     1
102
RTVSPropertyOp22
 70
     1
102
RTVSPropertyOp23
 70
     1
102
RTVSPropertyOp24
 70
     1
102
RTVSPropertyOp25
 70
     1
102
RTVSPropertyOp26
 70
     1
102
RTVSPropertyOp27
 70
     1
102
RTVSPropertyOp28
 70
     1
102
RTVSPropertyOp29
 70
     1
102
RTVSPropertyOp30
 70
     1
102
RTVSPropertyOp31
 70
     1
102
RTVSPropertyOp32
 70
     1
102
RTVSPropertyOp33
 70
     1
102
RTVSPropertyOp34
 70
     1
102
RTVSPropertyOp35
 70
     1
102
RTVSPropertyOp36
 70
     1
102
RTVSPropertyOp37
 70
     1
102
RTVSPropertyOp38
 70
     1
102
RTVSPropertyOp39
 70
     1
102
RTVSPropertyOp40
 70
     1
102
RTVSPropertyOp41
 70
     1
102
RTVSPropertyOp42
 70
     1
102
RTVSPropertyOp43
 70
     1
102
RTVSPropertyOp44
 70
     1
102
RTVSPropertyOp45
 70
     1
102
RTVSPropertyOp46
 70
     1
102
RTVSPropertyOp47
 70
     1
102
RTVSPropertyOp48
 70
     1
102
RTVSPropertyOp49
 70
     1
102
RTVSPropertyOp50
 70
     1
102
RTVSPropertyOp51
 70
     0
102
RTVSPropertyOp52
 70
     0
102
RTVSPropertyOp53
 70
     1
102
RTVSPropertyOp54
 70
     1
102
RTVSPropertyOp55
 70
     1
102
RTVSPropertyOp56
 70
     1
102
RTVSPropertyOp57
 70
     1
102
RTVSPropertyOp58
 70
     1
102
RTVSPropertyOp59
 70
     1
102
RTVSPropertyOp60
 70
     1
102
RTVSPropertyOp61
 70
     1
102
RTVSPropertyOp62
 70
     1
  0
XRECORD
  5
9526
102
{ACAD_REACTORS
330
9525
102
}
330
9525
100
AcDbXrecord
280
     1
102
RTVSPost2010Prop28
280
     0
102
RTVSPost2010PropOp28
 70
     1
102
RTVSPost2010Prop29
280
     1
102
RTVSPost2010PropOp29
 70
     1
102
RTVSPost2010Prop30
280
     1
102
RTVSPost2010PropOp30
 70
     1
102
RTVSPost2010Prop31
280
     0
102
RTVSPost2010PropOp31
 70
     1
102
RTVSPost2010Prop32
280
     0
102
RTVSPost2010PropOp32
 70
     1
102
RTVSPost2010Prop33
280
     0
102
RTVSPost2010PropOp33
 70
     1
102
RTVSPost2010Prop34
280
     0
102
RTVSPost2010PropOp34
 70
     1
102
RTVSPost2010Prop35
280
     0
102
RTVSPost2010PropOp35
 70
     1
102
RTVSPost2010Prop36
280
     0
102
RTVSPost2010PropOp36
 70
     1
102
RTVSPost2010Prop37
 90
       50
102
RTVSPost2010PropOp37
 70
     1
102
RTVSPost2010Prop38
140
0.0
102
RTVSPost2010PropOp38
 70
     1
102
RTVSPost2010Prop39
140
1.0
102
RTVSPost2010PropOp39
 70
     1
102
RTVSPost2010Prop40
 90
        0
102
RTVSPost2010PropOp40
 70
     1
102
RTVSPost2010Prop41ColorIndex
 90
       18
102
RTVSPost2010Prop41ColorRGB
 90
        0
102
RTVSPost2010PropOp41
 70
     1
102
RTVSPost2010Prop42
 90
       50
102
RTVSPost2010PropOp42
 70
     1
102
RTVSPost2010Prop43
 90
        3
102
RTVSPost2010PropOp43
 70
     1
102
RTVSPost2010Prop44ColorIndex
 90
        5
102
RTVSPost2010Prop44ColorRGB
 90
      255
102
RTVSPost2010PropOp44
 70
     1
102
RTVSPost2010Prop45
280
     0
102
RTVSPost2010PropOp45
 70
     1
102
RTVSPost2010Prop46
 90
       50
102
RTVSPost2010PropOp46
 70
     1
102
RTVSPost2010Prop47
 90
       50
102
RTVSPost2010PropOp47
 70
     1
102
RTVSPost2010Prop48
 90
       50
102
RTVSPost2010PropOp48
 70
     1
102
RTVSPost2010Prop49
280
     0
102
RTVSPost2010PropOp49
 70
     1
102
RTVSPost2010Prop50
 90
       50
102
RTVSPost2010PropOp50
 70
     1
102
RTVSPost2010Prop51ColorIndex
 90
      256
102
RTVSPost2010Prop51ColorRGB
 90
-16777216
102
RTVSPost2010PropOp51
 70
     0
102
RTVSPost2010Prop52
140
1.0
102
RTVSPost2010PropOp52
 70
     0
102
RTVSPost2010Prop53
 90
        2
102
RTVSPost2010PropOp53
 70
     1
102
RTVSPost2010Prop54
  1
strokes_ogs.tif
102
RTVSPost2010PropOp54
 70
     1
102
RTVSPost2010Prop55
280
     0
102
RTVSPost2010PropOp55
 70
     1
102
RTVSPost2010Prop56
140
1.0
102
RTVSPost2010PropOp56
 70
     1
102
RTVSPost2010Prop57
140
1.0
102
RTVSPost2010PropOp57
 70
     1
102
RTVSPropertyOp0
 70
     1
102
RTVSPropertyOp1
 70
     1
102
RTVSPropertyOp2
 70
     1
102
RTVSPropertyOp3
 70
     1
102
RTVSPropertyOp4
 70
     1
102
RTVSPropertyOp5
 70
     1
102
RTVSPropertyOp6
 70
     1
102
RTVSPropertyOp7
 70
     1
102
RTVSPropertyOp8
 70
     1
102
RTVSPropertyOp9
 70
     1
102
RTVSPropertyOp10
 70
     1
102
RTVSPropertyOp11
 70
     1
102
RTVSPropertyOp12
 70
     1
102
RTVSPropertyOp13
 70
     1
102
RTVSPropertyOp14
 70
     1
102
RTVSPropertyOp15
 70
     1
102
RTVSPropertyOp16
 70
     1
102
RTVSPropertyOp17
 70
     1
102
RTVSPropertyOp18
 70
     1
102
RTVSPropertyOp19
 70
     1
102
RTVSPropertyOp20
 70
     1
102
RTVSPropertyOp21
 70
     1
102
RTVSPropertyOp22
 70
     1
102
RTVSPropertyOp23
 70
     1
102
RTVSPropertyOp24
 70
     1
102
RTVSPropertyOp25
 70
     1
102
RTVSPropertyOp26
 70
     1
102
RTVSPropertyOp27
 70
     1
102
RTVSPropertyOp28
 70
     1
102
RTVSPropertyOp29
 70
     1
102
RTVSPropertyOp30
 70
     1
102
RTVSPropertyOp31
 70
     1
102
RTVSPropertyOp32
 70
     1
102
RTVSPropertyOp33
 70
     1
102
RTVSPropertyOp34
 70
     1
102
RTVSPropertyOp35
 70
     1
102
RTVSPropertyOp36
 70
     1
102
RTVSPropertyOp37
 70
     1
102
RTVSPropertyOp38
 70
     1
102
RTVSPropertyOp39
 70
     1
102
RTVSPropertyOp40
 70
     1
102
RTVSPropertyOp41
 70
     1
102
RTVSPropertyOp42
 70
     1
102
RTVSPropertyOp43
 70
     1
102
RTVSPropertyOp44
 70
     1
102
RTVSPropertyOp45
 70
     1
102
RTVSPropertyOp46
 70
     1
102
RTVSPropertyOp47
 70
     1
102
RTVSPropertyOp48
 70
     1
102
RTVSPropertyOp49
 70
     1
102
RTVSPropertyOp50
 70
     1
102
RTVSPropertyOp51
 70
     0
102
RTVSPropertyOp52
 70
     0
102
RTVSPropertyOp53
 70
     1
102
RTVSPropertyOp54
 70
     1
102
RTVSPropertyOp55
 70
     1
102
RTVSPropertyOp56
 70
     1
102
RTVSPropertyOp57
 70
     1
102
RTVSPropertyOp58
 70
     1
102
RTVSPropertyOp59
 70
     1
102
RTVSPropertyOp60
 70
     1
102
RTVSPropertyOp61
 70
     1
102
RTVSPropertyOp62
 70
     1
  0
XRECORD
  5
9528
102
{ACAD_REACTORS
330
9527
102
}
330
9527
100
AcDbXrecord
280
     1
102
RTVSPost2010Prop28
280
     0
102
RTVSPost2010PropOp28
 70
     1
102
RTVSPost2010Prop29
280
     1
102
RTVSPost2010PropOp29
 70
     1
102
RTVSPost2010Prop30
280
     1
102
RTVSPost2010PropOp30
 70
     1
102
RTVSPost2010Prop31
280
     0
102
RTVSPost2010PropOp31
 70
     1
102
RTVSPost2010Prop32
280
     0
102
RTVSPost2010PropOp32
 70
     1
102
RTVSPost2010Prop33
280
     0
102
RTVSPost2010PropOp33
 70
     1
102
RTVSPost2010Prop34
280
     0
102
RTVSPost2010PropOp34
 70
     1
102
RTVSPost2010Prop35
280
     0
102
RTVSPost2010PropOp35
 70
     1
102
RTVSPost2010Prop36
280
     0
102
RTVSPost2010PropOp36
 70
     1
102
RTVSPost2010Prop37
 90
       50
102
RTVSPost2010PropOp37
 70
     1
102
RTVSPost2010Prop38
140
0.0
102
RTVSPost2010PropOp38
 70
     1
102
RTVSPost2010Prop39
140
1.0
102
RTVSPost2010PropOp39
 70
     1
102
RTVSPost2010Prop40
 90
        0
102
RTVSPost2010PropOp40
 70
     1
102
RTVSPost2010Prop41ColorIndex
 90
       18
102
RTVSPost2010Prop41ColorRGB
 90
        0
102
RTVSPost2010PropOp41
 70
     1
102
RTVSPost2010Prop42
 90
       50
102
RTVSPost2010PropOp42
 70
     1
102
RTVSPost2010Prop43
 90
        3
102
RTVSPost2010PropOp43
 70
     1
102
RTVSPost2010Prop44ColorIndex
 90
        5
102
RTVSPost2010Prop44ColorRGB
 90
      255
102
RTVSPost2010PropOp44
 70
     1
102
RTVSPost2010Prop45
280
     0
102
RTVSPost2010PropOp45
 70
     1
102
RTVSPost2010Prop46
 90
       50
102
RTVSPost2010PropOp46
 70
     1
102
RTVSPost2010Prop47
 90
       50
102
RTVSPost2010PropOp47
 70
     1
102
RTVSPost2010Prop48
 90
       50
102
RTVSPost2010PropOp48
 70
     1
102
RTVSPost2010Prop49
280
     0
102
RTVSPost2010PropOp49
 70
     1
102
RTVSPost2010Prop50
 90
       50
102
RTVSPost2010PropOp50
 70
     1
102
RTVSPost2010Prop51ColorIndex
 90
      256
102
RTVSPost2010Prop51ColorRGB
 90
-16777216
102
RTVSPost2010PropOp51
 70
     0
102
RTVSPost2010Prop52
140
1.0
102
RTVSPost2010PropOp52
 70
     0
102
RTVSPost2010Prop53
 90
        2
102
RTVSPost2010PropOp53
 70
     1
102
RTVSPost2010Prop54
  1
strokes_ogs.tif
102
RTVSPost2010PropOp54
 70
     1
102
RTVSPost2010Prop55
280
     0
102
RTVSPost2010PropOp55
 70
     1
102
RTVSPost2010Prop56
140
1.0
102
RTVSPost2010PropOp56
 70
     1
102
RTVSPost2010Prop57
140
1.0
102
RTVSPost2010PropOp57
 70
     1
102
RTVSPropertyOp0
 70
     1
102
RTVSPropertyOp1
 70
     1
102
RTVSPropertyOp2
 70
     1
102
RTVSPropertyOp3
 70
     1
102
RTVSPropertyOp4
 70
     1
102
RTVSPropertyOp5
 70
     1
102
RTVSPropertyOp6
 70
     1
102
RTVSPropertyOp7
 70
     1
102
RTVSPropertyOp8
 70
     1
102
RTVSPropertyOp9
 70
     1
102
RTVSPropertyOp10
 70
     1
102
RTVSPropertyOp11
 70
     1
102
RTVSPropertyOp12
 70
     1
102
RTVSPropertyOp13
 70
     1
102
RTVSPropertyOp14
 70
     1
102
RTVSPropertyOp15
 70
     1
102
RTVSPropertyOp16
 70
     1
102
RTVSPropertyOp17
 70
     1
102
RTVSPropertyOp18
 70
     1
102
RTVSPropertyOp19
 70
     1
102
RTVSPropertyOp20
 70
     1
102
RTVSPropertyOp21
 70
     1
102
RTVSPropertyOp22
 70
     1
102
RTVSPropertyOp23
 70
     1
102
RTVSPropertyOp24
 70
     1
102
RTVSPropertyOp25
 70
     1
102
RTVSPropertyOp26
 70
     1
102
RTVSPropertyOp27
 70
     1
102
RTVSPropertyOp28
 70
     1
102
RTVSPropertyOp29
 70
     1
102
RTVSPropertyOp30
 70
     1
102
RTVSPropertyOp31
 70
     1
102
RTVSPropertyOp32
 70
     1
102
RTVSPropertyOp33
 70
     1
102
RTVSPropertyOp34
 70
     1
102
RTVSPropertyOp35
 70
     1
102
RTVSPropertyOp36
 70
     1
102
RTVSPropertyOp37
 70
     1
102
RTVSPropertyOp38
 70
     1
102
RTVSPropertyOp39
 70
     1
102
RTVSPropertyOp40
 70
     1
102
RTVSPropertyOp41
 70
     1
102
RTVSPropertyOp42
 70
     1
102
RTVSPropertyOp43
 70
     1
102
RTVSPropertyOp44
 70
     1
102
RTVSPropertyOp45
 70
     1
102
RTVSPropertyOp46
 70
     1
102
RTVSPropertyOp47
 70
     1
102
RTVSPropertyOp48
 70
     1
102
RTVSPropertyOp49
 70
     1
102
RTVSPropertyOp50
 70
     1
102
RTVSPropertyOp51
 70
     0
102
RTVSPropertyOp52
 70
     0
102
RTVSPropertyOp53
 70
     1
102
RTVSPropertyOp54
 70
     1
102
RTVSPropertyOp55
 70
     1
102
RTVSPropertyOp56
 70
     1
102
RTVSPropertyOp57
 70
     1
102
RTVSPropertyOp58
 70
     1
102
RTVSPropertyOp59
 70
     1
102
RTVSPropertyOp60
 70
     1
102
RTVSPropertyOp61
 70
     1
102
RTVSPropertyOp62
 70
     1
  0
XRECORD
  5
952A
102
{ACAD_REACTORS
330
9529
102
}
330
9529
100
AcDbXrecord
280
     1
102
RTVSPost2010Prop28
280
     0
102
RTVSPost2010PropOp28
 70
     1
102
RTVSPost2010Prop29
280
     1
102
RTVSPost2010PropOp29
 70
     1
102
RTVSPost2010Prop30
280
     1
102
RTVSPost2010PropOp30
 70
     1
102
RTVSPost2010Prop31
280
     0
102
RTVSPost2010PropOp31
 70
     1
102
RTVSPost2010Prop32
280
     0
102
RTVSPost2010PropOp32
 70
     1
102
RTVSPost2010Prop33
280
     0
102
RTVSPost2010PropOp33
 70
     1
102
RTVSPost2010Prop34
280
     0
102
RTVSPost2010PropOp34
 70
     1
102
RTVSPost2010Prop35
280
     0
102
RTVSPost2010PropOp35
 70
     1
102
RTVSPost2010Prop36
280
     0
102
RTVSPost2010PropOp36
 70
     1
102
RTVSPost2010Prop37
 90
       50
102
RTVSPost2010PropOp37
 70
     1
102
RTVSPost2010Prop38
140
0.0
102
RTVSPost2010PropOp38
 70
     1
102
RTVSPost2010Prop39
140
1.0
102
RTVSPost2010PropOp39
 70
     1
102
RTVSPost2010Prop40
 90
        0
102
RTVSPost2010PropOp40
 70
     1
102
RTVSPost2010Prop41ColorIndex
 90
       18
102
RTVSPost2010Prop41ColorRGB
 90
        0
102
RTVSPost2010PropOp41
 70
     1
102
RTVSPost2010Prop42
 90
       50
102
RTVSPost2010PropOp42
 70
     1
102
RTVSPost2010Prop43
 90
        3
102
RTVSPost2010PropOp43
 70
     1
102
RTVSPost2010Prop44ColorIndex
 90
        5
102
RTVSPost2010Prop44ColorRGB
 90
      255
102
RTVSPost2010PropOp44
 70
     1
102
RTVSPost2010Prop45
280
     0
102
RTVSPost2010PropOp45
 70
     1
102
RTVSPost2010Prop46
 90
       50
102
RTVSPost2010PropOp46
 70
     1
102
RTVSPost2010Prop47
 90
       50
102
RTVSPost2010PropOp47
 70
     1
102
RTVSPost2010Prop48
 90
       50
102
RTVSPost2010PropOp48
 70
     1
102
RTVSPost2010Prop49
280
     0
102
RTVSPost2010PropOp49
 70
     1
102
RTVSPost2010Prop50
 90
       50
102
RTVSPost2010PropOp50
 70
     1
102
RTVSPost2010Prop51ColorIndex
 90
      256
102
RTVSPost2010Prop51ColorRGB
 90
-16777216
102
RTVSPost2010PropOp51
 70
     0
102
RTVSPost2010Prop52
140
1.0
102
RTVSPost2010PropOp52
 70
     0
102
RTVSPost2010Prop53
 90
        2
102
RTVSPost2010PropOp53
 70
     1
102
RTVSPost2010Prop54
  1
strokes_ogs.tif
102
RTVSPost2010PropOp54
 70
     1
102
RTVSPost2010Prop55
280
     0
102
RTVSPost2010PropOp55
 70
     1
102
RTVSPost2010Prop56
140
1.0
102
RTVSPost2010PropOp56
 70
     1
102
RTVSPost2010Prop57
140
1.0
102
RTVSPost2010PropOp57
 70
     1
102
RTVSPropertyOp0
 70
     1
102
RTVSPropertyOp1
 70
     1
102
RTVSPropertyOp2
 70
     1
102
RTVSPropertyOp3
 70
     1
102
RTVSPropertyOp4
 70
     1
102
RTVSPropertyOp5
 70
     1
102
RTVSPropertyOp6
 70
     1
102
RTVSPropertyOp7
 70
     1
102
RTVSPropertyOp8
 70
     1
102
RTVSPropertyOp9
 70
     1
102
RTVSPropertyOp10
 70
     1
102
RTVSPropertyOp11
 70
     1
102
RTVSPropertyOp12
 70
     1
102
RTVSPropertyOp13
 70
     1
102
RTVSPropertyOp14
 70
     1
102
RTVSPropertyOp15
 70
     1
102
RTVSPropertyOp16
 70
     1
102
RTVSPropertyOp17
 70
     1
102
RTVSPropertyOp18
 70
     1
102
RTVSPropertyOp19
 70
     1
102
RTVSPropertyOp20
 70
     1
102
RTVSPropertyOp21
 70
     1
102
RTVSPropertyOp22
 70
     1
102
RTVSPropertyOp23
 70
     1
102
RTVSPropertyOp24
 70
     1
102
RTVSPropertyOp25
 70
     1
102
RTVSPropertyOp26
 70
     1
102
RTVSPropertyOp27
 70
     1
102
RTVSPropertyOp28
 70
     1
102
RTVSPropertyOp29
 70
     1
102
RTVSPropertyOp30
 70
     1
102
RTVSPropertyOp31
 70
     1
102
RTVSPropertyOp32
 70
     1
102
RTVSPropertyOp33
 70
     1
102
RTVSPropertyOp34
 70
     1
102
RTVSPropertyOp35
 70
     1
102
RTVSPropertyOp36
 70
     1
102
RTVSPropertyOp37
 70
     1
102
RTVSPropertyOp38
 70
     1
102
RTVSPropertyOp39
 70
     1
102
RTVSPropertyOp40
 70
     1
102
RTVSPropertyOp41
 70
     1
102
RTVSPropertyOp42
 70
     1
102
RTVSPropertyOp43
 70
     1
102
RTVSPropertyOp44
 70
     1
102
RTVSPropertyOp45
 70
     1
102
RTVSPropertyOp46
 70
     1
102
RTVSPropertyOp47
 70
     1
102
RTVSPropertyOp48
 70
     1
102
RTVSPropertyOp49
 70
     1
102
RTVSPropertyOp50
 70
     1
102
RTVSPropertyOp51
 70
     0
102
RTVSPropertyOp52
 70
     0
102
RTVSPropertyOp53
 70
     1
102
RTVSPropertyOp54
 70
     1
102
RTVSPropertyOp55
 70
     1
102
RTVSPropertyOp56
 70
     1
102
RTVSPropertyOp57
 70
     1
102
RTVSPropertyOp58
 70
     1
102
RTVSPropertyOp59
 70
     1
102
RTVSPropertyOp60
 70
     1
102
RTVSPropertyOp61
 70
     1
102
RTVSPropertyOp62
 70
     1
  0
XRECORD
  5
9532
102
{ACAD_REACTORS
330
9531
102
}
330
9531
100
AcDbXrecord
280
     1
102
RTVSPost2010Prop28
280
     0
102
RTVSPost2010PropOp28
 70
     1
102
RTVSPost2010Prop29
280
     1
102
RTVSPost2010PropOp29
 70
     1
102
RTVSPost2010Prop30
280
     1
102
RTVSPost2010PropOp30
 70
     1
102
RTVSPost2010Prop31
280
     0
102
RTVSPost2010PropOp31
 70
     1
102
RTVSPost2010Prop32
280
     0
102
RTVSPost2010PropOp32
 70
     1
102
RTVSPost2010Prop33
280
     0
102
RTVSPost2010PropOp33
 70
     1
102
RTVSPost2010Prop34
280
     0
102
RTVSPost2010PropOp34
 70
     1
102
RTVSPost2010Prop35
280
     0
102
RTVSPost2010PropOp35
 70
     1
102
RTVSPost2010Prop36
280
     0
102
RTVSPost2010PropOp36
 70
     1
102
RTVSPost2010Prop37
 90
       50
102
RTVSPost2010PropOp37
 70
     1
102
RTVSPost2010Prop38
140
0.0
102
RTVSPost2010PropOp38
 70
     1
102
RTVSPost2010Prop39
140
1.0
102
RTVSPost2010PropOp39
 70
     1
102
RTVSPost2010Prop40
 90
        0
102
RTVSPost2010PropOp40
 70
     1
102
RTVSPost2010Prop41ColorIndex
 90
       18
102
RTVSPost2010Prop41ColorRGB
 90
        0
102
RTVSPost2010PropOp41
 70
     1
102
RTVSPost2010Prop42
 90
       50
102
RTVSPost2010PropOp42
 70
     1
102
RTVSPost2010Prop43
 90
        3
102
RTVSPost2010PropOp43
 70
     1
102
RTVSPost2010Prop44ColorIndex
 90
        5
102
RTVSPost2010Prop44ColorRGB
 90
      255
102
RTVSPost2010PropOp44
 70
     1
102
RTVSPost2010Prop45
280
     0
102
RTVSPost2010PropOp45
 70
     1
102
RTVSPost2010Prop46
 90
       50
102
RTVSPost2010PropOp46
 70
     1
102
RTVSPost2010Prop47
 90
       50
102
RTVSPost2010PropOp47
 70
     1
102
RTVSPost2010Prop48
 90
       50
102
RTVSPost2010PropOp48
 70
     1
102
RTVSPost2010Prop49
280
     0
102
RTVSPost2010PropOp49
 70
     1
102
RTVSPost2010Prop50
 90
       50
102
RTVSPost2010PropOp50
 70
     1
102
RTVSPost2010Prop51ColorIndex
 90
      256
102
RTVSPost2010Prop51ColorRGB
 90
-16777216
102
RTVSPost2010PropOp51
 70
     0
102
RTVSPost2010Prop52
140
1.0
102
RTVSPost2010PropOp52
 70
     0
102
RTVSPost2010Prop53
 90
        2
102
RTVSPost2010PropOp53
 70
     1
102
RTVSPost2010Prop54
  1
strokes_ogs.tif
102
RTVSPost2010PropOp54
 70
     1
102
RTVSPost2010Prop55
280
     0
102
RTVSPost2010PropOp55
 70
     1
102
RTVSPost2010Prop56
140
1.0
102
RTVSPost2010PropOp56
 70
     1
102
RTVSPost2010Prop57
140
1.0
102
RTVSPost2010PropOp57
 70
     1
102
RTVSPropertyOp0
 70
     1
102
RTVSPropertyOp1
 70
     1
102
RTVSPropertyOp2
 70
     1
102
RTVSPropertyOp3
 70
     1
102
RTVSPropertyOp4
 70
     1
102
RTVSPropertyOp5
 70
     1
102
RTVSPropertyOp6
 70
     1
102
RTVSPropertyOp7
 70
     1
102
RTVSPropertyOp8
 70
     1
102
RTVSPropertyOp9
 70
     1
102
RTVSPropertyOp10
 70
     1
102
RTVSPropertyOp11
 70
     1
102
RTVSPropertyOp12
 70
     1
102
RTVSPropertyOp13
 70
     1
102
RTVSPropertyOp14
 70
     1
102
RTVSPropertyOp15
 70
     1
102
RTVSPropertyOp16
 70
     1
102
RTVSPropertyOp17
 70
     1
102
RTVSPropertyOp18
 70
     1
102
RTVSPropertyOp19
 70
     1
102
RTVSPropertyOp20
 70
     1
102
RTVSPropertyOp21
 70
     1
102
RTVSPropertyOp22
 70
     1
102
RTVSPropertyOp23
 70
     1
102
RTVSPropertyOp24
 70
     1
102
RTVSPropertyOp25
 70
     1
102
RTVSPropertyOp26
 70
     1
102
RTVSPropertyOp27
 70
     1
102
RTVSPropertyOp28
 70
     1
102
RTVSPropertyOp29
 70
     1
102
RTVSPropertyOp30
 70
     1
102
RTVSPropertyOp31
 70
     1
102
RTVSPropertyOp32
 70
     1
102
RTVSPropertyOp33
 70
     1
102
RTVSPropertyOp34
 70
     1
102
RTVSPropertyOp35
 70
     1
102
RTVSPropertyOp36
 70
     1
102
RTVSPropertyOp37
 70
     1
102
RTVSPropertyOp38
 70
     1
102
RTVSPropertyOp39
 70
     1
102
RTVSPropertyOp40
 70
     1
102
RTVSPropertyOp41
 70
     1
102
RTVSPropertyOp42
 70
     1
102
RTVSPropertyOp43
 70
     1
102
RTVSPropertyOp44
 70
     1
102
RTVSPropertyOp45
 70
     1
102
RTVSPropertyOp46
 70
     1
102
RTVSPropertyOp47
 70
     1
102
RTVSPropertyOp48
 70
     1
102
RTVSPropertyOp49
 70
     1
102
RTVSPropertyOp50
 70
     1
102
RTVSPropertyOp51
 70
     0
102
RTVSPropertyOp52
 70
     0
102
RTVSPropertyOp53
 70
     1
102
RTVSPropertyOp54
 70
     1
102
RTVSPropertyOp55
 70
     1
102
RTVSPropertyOp56
 70
     1
102
RTVSPropertyOp57
 70
     1
102
RTVSPropertyOp58
 70
     1
102
RTVSPropertyOp59
 70
     1
102
RTVSPropertyOp60
 70
     1
102
RTVSPropertyOp61
 70
     1
102
RTVSPropertyOp62
 70
     1
  0
XRECORD
  5
954E
102
{ACAD_REACTORS
330
954D
102
}
330
954D
100
AcDbXrecord
280
     1
102
RTVSPost2010Prop28
280
     0
102
RTVSPost2010PropOp28
 70
     1
102
RTVSPost2010Prop29
280
     1
102
RTVSPost2010PropOp29
 70
     1
102
RTVSPost2010Prop30
280
     1
102
RTVSPost2010PropOp30
 70
     1
102
RTVSPost2010Prop31
280
     0
102
RTVSPost2010PropOp31
 70
     1
102
RTVSPost2010Prop32
280
     0
102
RTVSPost2010PropOp32
 70
     1
102
RTVSPost2010Prop33
280
     0
102
RTVSPost2010PropOp33
 70
     1
102
RTVSPost2010Prop34
280
     0
102
RTVSPost2010PropOp34
 70
     1
102
RTVSPost2010Prop35
280
     0
102
RTVSPost2010PropOp35
 70
     1
102
RTVSPost2010Prop36
280
     0
102
RTVSPost2010PropOp36
 70
     1
102
RTVSPost2010Prop37
 90
       50
102
RTVSPost2010PropOp37
 70
     0
102
RTVSPost2010Prop38
140
0.0
102
RTVSPost2010PropOp38
 70
     0
102
RTVSPost2010Prop39
140
1.0
102
RTVSPost2010PropOp39
 70
     0
102
RTVSPost2010Prop40
 90
        0
102
RTVSPost2010PropOp40
 70
     0
102
RTVSPost2010Prop41ColorIndex
 90
       18
102
RTVSPost2010Prop41ColorRGB
 90
        0
102
RTVSPost2010PropOp41
 70
     0
102
RTVSPost2010Prop42
 90
       50
102
RTVSPost2010PropOp42
 70
     0
102
RTVSPost2010Prop43
 90
        3
102
RTVSPost2010PropOp43
 70
     0
102
RTVSPost2010Prop44ColorIndex
 90
        5
102
RTVSPost2010Prop44ColorRGB
 90
      255
102
RTVSPost2010PropOp44
 70
     0
102
RTVSPost2010Prop45
280
     0
102
RTVSPost2010PropOp45
 70
     1
102
RTVSPost2010Prop46
 90
       50
102
RTVSPost2010PropOp46
 70
     0
102
RTVSPost2010Prop47
 90
       50
102
RTVSPost2010PropOp47
 70
     0
102
RTVSPost2010Prop48
 90
       50
102
RTVSPost2010PropOp48
 70
     0
102
RTVSPost2010Prop49
280
     0
102
RTVSPost2010PropOp49
 70
     1
102
RTVSPost2010Prop50
 90
       50
102
RTVSPost2010PropOp50
 70
     0
102
RTVSPost2010Prop51ColorIndex
 90
      256
102
RTVSPost2010Prop51ColorRGB
 90
-16777216
102
RTVSPost2010PropOp51
 70
     0
102
RTVSPost2010Prop52
140
1.0
102
RTVSPost2010PropOp52
 70
     0
102
RTVSPost2010Prop53
 90
        2
102
RTVSPost2010PropOp53
 70
     0
102
RTVSPost2010Prop54
  1
strokes_ogs.tif
102
RTVSPost2010PropOp54
 70
     0
102
RTVSPost2010Prop55
280
     0
102
RTVSPost2010PropOp55
 70
     1
102
RTVSPost2010Prop56
140
1.0
102
RTVSPost2010PropOp56
 70
     0
102
RTVSPost2010Prop57
140
1.0
102
RTVSPost2010PropOp57
 70
     0
102
RTVSPropertyOp0
 70
     0
102
RTVSPropertyOp1
 70
     0
102
RTVSPropertyOp2
 70
     0
102
RTVSPropertyOp3
 70
     0
102
RTVSPropertyOp4
 70
     0
102
RTVSPropertyOp5
 70
     0
102
RTVSPropertyOp6
 70
     0
102
RTVSPropertyOp7
 70
     0
102
RTVSPropertyOp8
 70
     0
102
RTVSPropertyOp9
 70
     0
102
RTVSPropertyOp10
 70
     0
102
RTVSPropertyOp11
 70
     0
102
RTVSPropertyOp12
 70
     0
102
RTVSPropertyOp13
 70
     0
102
RTVSPropertyOp14
 70
     2
102
RTVSPropertyOp15
 70
     0
102
RTVSPropertyOp16
 70
     0
102
RTVSPropertyOp17
 70
     0
102
RTVSPropertyOp18
 70
     0
102
RTVSPropertyOp19
 70
     0
102
RTVSPropertyOp20
 70
     0
102
RTVSPropertyOp21
 70
     0
102
RTVSPropertyOp22
 70
     0
102
RTVSPropertyOp23
 70
     0
102
RTVSPropertyOp24
 70
     0
102
RTVSPropertyOp25
 70
     0
102
RTVSPropertyOp26
 70
     0
102
RTVSPropertyOp27
 70
     0
102
RTVSPropertyOp28
 70
     1
102
RTVSPropertyOp29
 70
     1
102
RTVSPropertyOp30
 70
     1
102
RTVSPropertyOp31
 70
     1
102
RTVSPropertyOp32
 70
     1
102
RTVSPropertyOp33
 70
     1
102
RTVSPropertyOp34
 70
     1
102
RTVSPropertyOp35
 70
     1
102
RTVSPropertyOp36
 70
     1
102
RTVSPropertyOp37
 70
     0
102
RTVSPropertyOp38
 70
     0
102
RTVSPropertyOp39
 70
     0
102
RTVSPropertyOp40
 70
     0
102
RTVSPropertyOp41
 70
     0
102
RTVSPropertyOp42
 70
     0
102
RTVSPropertyOp43
 70
     0
102
RTVSPropertyOp44
 70
     0
102
RTVSPropertyOp45
 70
     1
102
RTVSPropertyOp46
 70
     0
102
RTVSPropertyOp47
 70
     0
102
RTVSPropertyOp48
 70
     0
102
RTVSPropertyOp49
 70
     1
102
RTVSPropertyOp50
 70
     0
102
RTVSPropertyOp51
 70
     0
102
RTVSPropertyOp52
 70
     0
102
RTVSPropertyOp53
 70
     0
102
RTVSPropertyOp54
 70
     0
102
RTVSPropertyOp55
 70
     1
102
RTVSPropertyOp56
 70
     0
102
RTVSPropertyOp57
 70
     0
102
RTVSPropertyOp58
 70
     0
102
RTVSPropertyOp59
 70
     0
102
RTVSPropertyOp60
 70
     0
102
RTVSPropertyOp61
 70
     0
102
RTVSPropertyOp62
 70
     0
  0
XRECORD
  5
953E
102
{ACAD_REACTORS
330
953D
102
}
330
953D
100
AcDbXrecord
280
     1
102
RTVSPost2010Prop28
280
     0
102
RTVSPost2010PropOp28
 70
     1
102
RTVSPost2010Prop29
280
     1
102
RTVSPost2010PropOp29
 70
     1
102
RTVSPost2010Prop30
280
     1
102
RTVSPost2010PropOp30
 70
     1
102
RTVSPost2010Prop31
280
     0
102
RTVSPost2010PropOp31
 70
     1
102
RTVSPost2010Prop32
280
     0
102
RTVSPost2010PropOp32
 70
     1
102
RTVSPost2010Prop33
280
     0
102
RTVSPost2010PropOp33
 70
     1
102
RTVSPost2010Prop34
280
     0
102
RTVSPost2010PropOp34
 70
     1
102
RTVSPost2010Prop35
280
     0
102
RTVSPost2010PropOp35
 70
     1
102
RTVSPost2010Prop36
280
     0
102
RTVSPost2010PropOp36
 70
     1
102
RTVSPost2010Prop37
 90
       50
102
RTVSPost2010PropOp37
 70
     1
102
RTVSPost2010Prop38
140
0.0
102
RTVSPost2010PropOp38
 70
     1
102
RTVSPost2010Prop39
140
1.0
102
RTVSPost2010PropOp39
 70
     1
102
RTVSPost2010Prop40
 90
        0
102
RTVSPost2010PropOp40
 70
     1
102
RTVSPost2010Prop41ColorIndex
 90
       18
102
RTVSPost2010Prop41ColorRGB
 90
        0
102
RTVSPost2010PropOp41
 70
     1
102
RTVSPost2010Prop42
 90
       50
102
RTVSPost2010PropOp42
 70
     1
102
RTVSPost2010Prop43
 90
        3
102
RTVSPost2010PropOp43
 70
     1
102
RTVSPost2010Prop44ColorIndex
 90
        5
102
RTVSPost2010Prop44ColorRGB
 90
      255
102
RTVSPost2010PropOp44
 70
     1
102
RTVSPost2010Prop45
280
     0
102
RTVSPost2010PropOp45
 70
     1
102
RTVSPost2010Prop46
 90
       50
102
RTVSPost2010PropOp46
 70
     1
102
RTVSPost2010Prop47
 90
       50
102
RTVSPost2010PropOp47
 70
     1
102
RTVSPost2010Prop48
 90
       50
102
RTVSPost2010PropOp48
 70
     1
102
RTVSPost2010Prop49
280
     0
102
RTVSPost2010PropOp49
 70
     1
102
RTVSPost2010Prop50
 90
       50
102
RTVSPost2010PropOp50
 70
     1
102
RTVSPost2010Prop51ColorIndex
 90
      256
102
RTVSPost2010Prop51ColorRGB
 90
-16777216
102
RTVSPost2010PropOp51
 70
     0
102
RTVSPost2010Prop52
140
1.0
102
RTVSPost2010PropOp52
 70
     0
102
RTVSPost2010Prop53
 90
        2
102
RTVSPost2010PropOp53
 70
     1
102
RTVSPost2010Prop54
  1
strokes_ogs.tif
102
RTVSPost2010PropOp54
 70
     1
102
RTVSPost2010Prop55
280
     0
102
RTVSPost2010PropOp55
 70
     1
102
RTVSPost2010Prop56
140
1.0
102
RTVSPost2010PropOp56
 70
     1
102
RTVSPost2010Prop57
140
1.0
102
RTVSPost2010PropOp57
 70
     1
102
RTVSPropertyOp0
 70
     1
102
RTVSPropertyOp1
 70
     1
102
RTVSPropertyOp2
 70
     1
102
RTVSPropertyOp3
 70
     1
102
RTVSPropertyOp4
 70
     1
102
RTVSPropertyOp5
 70
     1
102
RTVSPropertyOp6
 70
     1
102
RTVSPropertyOp7
 70
     1
102
RTVSPropertyOp8
 70
     1
102
RTVSPropertyOp9
 70
     1
102
RTVSPropertyOp10
 70
     1
102
RTVSPropertyOp11
 70
     1
102
RTVSPropertyOp12
 70
     1
102
RTVSPropertyOp13
 70
     1
102
RTVSPropertyOp14
 70
     1
102
RTVSPropertyOp15
 70
     1
102
RTVSPropertyOp16
 70
     1
102
RTVSPropertyOp17
 70
     1
102
RTVSPropertyOp18
 70
     1
102
RTVSPropertyOp19
 70
     1
102
RTVSPropertyOp20
 70
     1
102
RTVSPropertyOp21
 70
     1
102
RTVSPropertyOp22
 70
     1
102
RTVSPropertyOp23
 70
     1
102
RTVSPropertyOp24
 70
     1
102
RTVSPropertyOp25
 70
     1
102
RTVSPropertyOp26
 70
     1
102
RTVSPropertyOp27
 70
     1
102
RTVSPropertyOp28
 70
     1
102
RTVSPropertyOp29
 70
     1
102
RTVSPropertyOp30
 70
     1
102
RTVSPropertyOp31
 70
     1
102
RTVSPropertyOp32
 70
     1
102
RTVSPropertyOp33
 70
     1
102
RTVSPropertyOp34
 70
     1
102
RTVSPropertyOp35
 70
     1
102
RTVSPropertyOp36
 70
     1
102
RTVSPropertyOp37
 70
     1
102
RTVSPropertyOp38
 70
     1
102
RTVSPropertyOp39
 70
     1
102
RTVSPropertyOp40
 70
     1
102
RTVSPropertyOp41
 70
     1
102
RTVSPropertyOp42
 70
     1
102
RTVSPropertyOp43
 70
     1
102
RTVSPropertyOp44
 70
     1
102
RTVSPropertyOp45
 70
     1
102
RTVSPropertyOp46
 70
     1
102
RTVSPropertyOp47
 70
     1
102
RTVSPropertyOp48
 70
     1
102
RTVSPropertyOp49
 70
     1
102
RTVSPropertyOp50
 70
     1
102
RTVSPropertyOp51
 70
     0
102
RTVSPropertyOp52
 70
     0
102
RTVSPropertyOp53
 70
     1
102
RTVSPropertyOp54
 70
     1
102
RTVSPropertyOp55
 70
     1
102
RTVSPropertyOp56
 70
     1
102
RTVSPropertyOp57
 70
     1
102
RTVSPropertyOp58
 70
     1
102
RTVSPropertyOp59
 70
     1
102
RTVSPropertyOp60
 70
     1
102
RTVSPropertyOp61
 70
     1
102
RTVSPropertyOp62
 70
     1
  0
XRECORD
  5
9550
102
{ACAD_REACTORS
330
954F
102
}
330
954F
100
AcDbXrecord
280
     1
102
RTVSPost2010Prop28
280
     0
102
RTVSPost2010PropOp28
 70
     1
102
RTVSPost2010Prop29
280
     1
102
RTVSPost2010PropOp29
 70
     1
102
RTVSPost2010Prop30
280
     1
102
RTVSPost2010PropOp30
 70
     1
102
RTVSPost2010Prop31
280
     0
102
RTVSPost2010PropOp31
 70
     1
102
RTVSPost2010Prop32
280
     0
102
RTVSPost2010PropOp32
 70
     1
102
RTVSPost2010Prop33
280
     0
102
RTVSPost2010PropOp33
 70
     1
102
RTVSPost2010Prop34
280
     0
102
RTVSPost2010PropOp34
 70
     1
102
RTVSPost2010Prop35
280
     0
102
RTVSPost2010PropOp35
 70
     1
102
RTVSPost2010Prop36
280
     0
102
RTVSPost2010PropOp36
 70
     1
102
RTVSPost2010Prop37
 90
       50
102
RTVSPost2010PropOp37
 70
     0
102
RTVSPost2010Prop38
140
0.0
102
RTVSPost2010PropOp38
 70
     0
102
RTVSPost2010Prop39
140
1.0
102
RTVSPost2010PropOp39
 70
     0
102
RTVSPost2010Prop40
 90
        0
102
RTVSPost2010PropOp40
 70
     0
102
RTVSPost2010Prop41ColorIndex
 90
       18
102
RTVSPost2010Prop41ColorRGB
 90
        0
102
RTVSPost2010PropOp41
 70
     0
102
RTVSPost2010Prop42
 90
       50
102
RTVSPost2010PropOp42
 70
     0
102
RTVSPost2010Prop43
 90
        3
102
RTVSPost2010PropOp43
 70
     0
102
RTVSPost2010Prop44ColorIndex
 90
        5
102
RTVSPost2010Prop44ColorRGB
 90
      255
102
RTVSPost2010PropOp44
 70
     0
102
RTVSPost2010Prop45
280
     0
102
RTVSPost2010PropOp45
 70
     1
102
RTVSPost2010Prop46
 90
       50
102
RTVSPost2010PropOp46
 70
     0
102
RTVSPost2010Prop47
 90
       50
102
RTVSPost2010PropOp47
 70
     0
102
RTVSPost2010Prop48
 90
       50
102
RTVSPost2010PropOp48
 70
     0
102
RTVSPost2010Prop49
280
     0
102
RTVSPost2010PropOp49
 70
     1
102
RTVSPost2010Prop50
 90
       50
102
RTVSPost2010PropOp50
 70
     0
102
RTVSPost2010Prop51ColorIndex
 90
      256
102
RTVSPost2010Prop51ColorRGB
 90
-16777216
102
RTVSPost2010PropOp51
 70
     0
102
RTVSPost2010Prop52
140
1.0
102
RTVSPost2010PropOp52
 70
     0
102
RTVSPost2010Prop53
 90
        2
102
RTVSPost2010PropOp53
 70
     0
102
RTVSPost2010Prop54
  1
strokes_ogs.tif
102
RTVSPost2010PropOp54
 70
     0
102
RTVSPost2010Prop55
280
     0
102
RTVSPost2010PropOp55
 70
     1
102
RTVSPost2010Prop56
140
1.0
102
RTVSPost2010PropOp56
 70
     0
102
RTVSPost2010Prop57
140
1.0
102
RTVSPost2010PropOp57
 70
     0
102
RTVSPropertyOp0
 70
     0
102
RTVSPropertyOp1
 70
     0
102
RTVSPropertyOp2
 70
     0
102
RTVSPropertyOp3
 70
     0
102
RTVSPropertyOp4
 70
     0
102
RTVSPropertyOp5
 70
     0
102
RTVSPropertyOp6
 70
     0
102
RTVSPropertyOp7
 70
     0
102
RTVSPropertyOp8
 70
     0
102
RTVSPropertyOp9
 70
     0
102
RTVSPropertyOp10
 70
     0
102
RTVSPropertyOp11
 70
     0
102
RTVSPropertyOp12
 70
     0
102
RTVSPropertyOp13
 70
     0
102
RTVSPropertyOp14
 70
     2
102
RTVSPropertyOp15
 70
     0
102
RTVSPropertyOp16
 70
     0
102
RTVSPropertyOp17
 70
     0
102
RTVSPropertyOp18
 70
     0
102
RTVSPropertyOp19
 70
     0
102
RTVSPropertyOp20
 70
     0
102
RTVSPropertyOp21
 70
     0
102
RTVSPropertyOp22
 70
     0
102
RTVSPropertyOp23
 70
     0
102
RTVSPropertyOp24
 70
     0
102
RTVSPropertyOp25
 70
     0
102
RTVSPropertyOp26
 70
     0
102
RTVSPropertyOp27
 70
     0
102
RTVSPropertyOp28
 70
     1
102
RTVSPropertyOp29
 70
     1
102
RTVSPropertyOp30
 70
     1
102
RTVSPropertyOp31
 70
     1
102
RTVSPropertyOp32
 70
     1
102
RTVSPropertyOp33
 70
     1
102
RTVSPropertyOp34
 70
     1
102
RTVSPropertyOp35
 70
     1
102
RTVSPropertyOp36
 70
     1
102
RTVSPropertyOp37
 70
     0
102
RTVSPropertyOp38
 70
     0
102
RTVSPropertyOp39
 70
     0
102
RTVSPropertyOp40
 70
     0
102
RTVSPropertyOp41
 70
     0
102
RTVSPropertyOp42
 70
     0
102
RTVSPropertyOp43
 70
     0
102
RTVSPropertyOp44
 70
     0
102
RTVSPropertyOp45
 70
     1
102
RTVSPropertyOp46
 70
     0
102
RTVSPropertyOp47
 70
     0
102
RTVSPropertyOp48
 70
     0
102
RTVSPropertyOp49
 70
     1
102
RTVSPropertyOp50
 70
     0
102
RTVSPropertyOp51
 70
     0
102
RTVSPropertyOp52
 70
     0
102
RTVSPropertyOp53
 70
     0
102
RTVSPropertyOp54
 70
     0
102
RTVSPropertyOp55
 70
     1
102
RTVSPropertyOp56
 70
     0
102
RTVSPropertyOp57
 70
     0
102
RTVSPropertyOp58
 70
     0
102
RTVSPropertyOp59
 70
     0
102
RTVSPropertyOp60
 70
     0
102
RTVSPropertyOp61
 70
     0
102
RTVSPropertyOp62
 70
     0
  0
XRECORD
  5
9536
102
{ACAD_REACTORS
330
9535
102
}
330
9535
100
AcDbXrecord
280
     1
102
RTVSPost2010Prop28
280
     0
102
RTVSPost2010PropOp28
 70
     1
102
RTVSPost2010Prop29
280
     1
102
RTVSPost2010PropOp29
 70
     1
102
RTVSPost2010Prop30
280
     1
102
RTVSPost2010PropOp30
 70
     1
102
RTVSPost2010Prop31
280
     0
102
RTVSPost2010PropOp31
 70
     1
102
RTVSPost2010Prop32
280
     0
102
RTVSPost2010PropOp32
 70
     1
102
RTVSPost2010Prop33
280
     0
102
RTVSPost2010PropOp33
 70
     1
102
RTVSPost2010Prop34
280
     0
102
RTVSPost2010PropOp34
 70
     1
102
RTVSPost2010Prop35
280
     0
102
RTVSPost2010PropOp35
 70
     1
102
RTVSPost2010Prop36
280
     0
102
RTVSPost2010PropOp36
 70
     1
102
RTVSPost2010Prop37
 90
       50
102
RTVSPost2010PropOp37
 70
     1
102
RTVSPost2010Prop38
140
0.0
102
RTVSPost2010PropOp38
 70
     1
102
RTVSPost2010Prop39
140
1.0
102
RTVSPost2010PropOp39
 70
     1
102
RTVSPost2010Prop40
 90
        0
102
RTVSPost2010PropOp40
 70
     1
102
RTVSPost2010Prop41ColorIndex
 90
       18
102
RTVSPost2010Prop41ColorRGB
 90
        0
102
RTVSPost2010PropOp41
 70
     1
102
RTVSPost2010Prop42
 90
       50
102
RTVSPost2010PropOp42
 70
     1
102
RTVSPost2010Prop43
 90
        3
102
RTVSPost2010PropOp43
 70
     1
102
RTVSPost2010Prop44ColorIndex
 90
        5
102
RTVSPost2010Prop44ColorRGB
 90
      255
102
RTVSPost2010PropOp44
 70
     1
102
RTVSPost2010Prop45
280
     0
102
RTVSPost2010PropOp45
 70
     1
102
RTVSPost2010Prop46
 90
       50
102
RTVSPost2010PropOp46
 70
     1
102
RTVSPost2010Prop47
 90
       50
102
RTVSPost2010PropOp47
 70
     1
102
RTVSPost2010Prop48
 90
       50
102
RTVSPost2010PropOp48
 70
     1
102
RTVSPost2010Prop49
280
     0
102
RTVSPost2010PropOp49
 70
     1
102
RTVSPost2010Prop50
 90
       50
102
RTVSPost2010PropOp50
 70
     1
102
RTVSPost2010Prop51ColorIndex
 90
      256
102
RTVSPost2010Prop51ColorRGB
 90
-16777216
102
RTVSPost2010PropOp51
 70
     0
102
RTVSPost2010Prop52
140
1.0
102
RTVSPost2010PropOp52
 70
     0
102
RTVSPost2010Prop53
 90
        2
102
RTVSPost2010PropOp53
 70
     1
102
RTVSPost2010Prop54
  1
strokes_ogs.tif
102
RTVSPost2010PropOp54
 70
     1
102
RTVSPost2010Prop55
280
     0
102
RTVSPost2010PropOp55
 70
     1
102
RTVSPost2010Prop56
140
1.0
102
RTVSPost2010PropOp56
 70
     1
102
RTVSPost2010Prop57
140
1.0
102
RTVSPost2010PropOp57
 70
     1
102
RTVSPropertyOp0
 70
     1
102
RTVSPropertyOp1
 70
     1
102
RTVSPropertyOp2
 70
     1
102
RTVSPropertyOp3
 70
     1
102
RTVSPropertyOp4
 70
     1
102
RTVSPropertyOp5
 70
     1
102
RTVSPropertyOp6
 70
     1
102
RTVSPropertyOp7
 70
     1
102
RTVSPropertyOp8
 70
     1
102
RTVSPropertyOp9
 70
     1
102
RTVSPropertyOp10
 70
     1
102
RTVSPropertyOp11
 70
     1
102
RTVSPropertyOp12
 70
     1
102
RTVSPropertyOp13
 70
     1
102
RTVSPropertyOp14
 70
     1
102
RTVSPropertyOp15
 70
     1
102
RTVSPropertyOp16
 70
     1
102
RTVSPropertyOp17
 70
     1
102
RTVSPropertyOp18
 70
     1
102
RTVSPropertyOp19
 70
     1
102
RTVSPropertyOp20
 70
     1
102
RTVSPropertyOp21
 70
     1
102
RTVSPropertyOp22
 70
     1
102
RTVSPropertyOp23
 70
     1
102
RTVSPropertyOp24
 70
     1
102
RTVSPropertyOp25
 70
     1
102
RTVSPropertyOp26
 70
     1
102
RTVSPropertyOp27
 70
     1
102
RTVSPropertyOp28
 70
     1
102
RTVSPropertyOp29
 70
     1
102
RTVSPropertyOp30
 70
     1
102
RTVSPropertyOp31
 70
     1
102
RTVSPropertyOp32
 70
     1
102
RTVSPropertyOp33
 70
     1
102
RTVSPropertyOp34
 70
     1
102
RTVSPropertyOp35
 70
     1
102
RTVSPropertyOp36
 70
     1
102
RTVSPropertyOp37
 70
     1
102
RTVSPropertyOp38
 70
     1
102
RTVSPropertyOp39
 70
     1
102
RTVSPropertyOp40
 70
     1
102
RTVSPropertyOp41
 70
     1
102
RTVSPropertyOp42
 70
     1
102
RTVSPropertyOp43
 70
     1
102
RTVSPropertyOp44
 70
     1
102
RTVSPropertyOp45
 70
     1
102
RTVSPropertyOp46
 70
     1
102
RTVSPropertyOp47
 70
     1
102
RTVSPropertyOp48
 70
     1
102
RTVSPropertyOp49
 70
     1
102
RTVSPropertyOp50
 70
     1
102
RTVSPropertyOp51
 70
     0
102
RTVSPropertyOp52
 70
     0
102
RTVSPropertyOp53
 70
     1
102
RTVSPropertyOp54
 70
     1
102
RTVSPropertyOp55
 70
     1
102
RTVSPropertyOp56
 70
     1
102
RTVSPropertyOp57
 70
     1
102
RTVSPropertyOp58
 70
     1
102
RTVSPropertyOp59
 70
     1
102
RTVSPropertyOp60
 70
     1
102
RTVSPropertyOp61
 70
     1
102
RTVSPropertyOp62
 70
     1
  0
XRECORD
  5
954C
102
{ACAD_REACTORS
330
954B
102
}
330
954B
100
AcDbXrecord
280
     1
102
RTVSPost2010Prop28
280
     0
102
RTVSPost2010PropOp28
 70
     1
102
RTVSPost2010Prop29
280
     1
102
RTVSPost2010PropOp29
 70
     1
102
RTVSPost2010Prop30
280
     1
102
RTVSPost2010PropOp30
 70
     1
102
RTVSPost2010Prop31
280
     0
102
RTVSPost2010PropOp31
 70
     1
102
RTVSPost2010Prop32
280
     0
102
RTVSPost2010PropOp32
 70
     1
102
RTVSPost2010Prop33
280
     0
102
RTVSPost2010PropOp33
 70
     1
102
RTVSPost2010Prop34
280
     0
102
RTVSPost2010PropOp34
 70
     1
102
RTVSPost2010Prop35
280
     0
102
RTVSPost2010PropOp35
 70
     1
102
RTVSPost2010Prop36
280
     0
102
RTVSPost2010PropOp36
 70
     1
102
RTVSPost2010Prop37
 90
       50
102
RTVSPost2010PropOp37
 70
     1
102
RTVSPost2010Prop38
140
0.0
102
RTVSPost2010PropOp38
 70
     1
102
RTVSPost2010Prop39
140
1.0
102
RTVSPost2010PropOp39
 70
     1
102
RTVSPost2010Prop40
 90
        0
102
RTVSPost2010PropOp40
 70
     1
102
RTVSPost2010Prop41ColorIndex
 90
       18
102
RTVSPost2010Prop41ColorRGB
 90
        0
102
RTVSPost2010PropOp41
 70
     1
102
RTVSPost2010Prop42
 90
       50
102
RTVSPost2010PropOp42
 70
     1
102
RTVSPost2010Prop43
 90
        3
102
RTVSPost2010PropOp43
 70
     1
102
RTVSPost2010Prop44ColorIndex
 90
        5
102
RTVSPost2010Prop44ColorRGB
 90
      255
102
RTVSPost2010PropOp44
 70
     1
102
RTVSPost2010Prop45
280
     0
102
RTVSPost2010PropOp45
 70
     1
102
RTVSPost2010Prop46
 90
       50
102
RTVSPost2010PropOp46
 70
     1
102
RTVSPost2010Prop47
 90
       50
102
RTVSPost2010PropOp47
 70
     1
102
RTVSPost2010Prop48
 90
       50
102
RTVSPost2010PropOp48
 70
     1
102
RTVSPost2010Prop49
280
     0
102
RTVSPost2010PropOp49
 70
     1
102
RTVSPost2010Prop50
 90
       50
102
RTVSPost2010PropOp50
 70
     1
102
RTVSPost2010Prop51ColorIndex
 90
      256
102
RTVSPost2010Prop51ColorRGB
 90
-16777216
102
RTVSPost2010PropOp51
 70
     0
102
RTVSPost2010Prop52
140
1.0
102
RTVSPost2010PropOp52
 70
     0
102
RTVSPost2010Prop53
 90
        2
102
RTVSPost2010PropOp53
 70
     1
102
RTVSPost2010Prop54
  1
strokes_ogs.tif
102
RTVSPost2010PropOp54
 70
     1
102
RTVSPost2010Prop55
280
     0
102
RTVSPost2010PropOp55
 70
     1
102
RTVSPost2010Prop56
140
1.0
102
RTVSPost2010PropOp56
 70
     1
102
RTVSPost2010Prop57
140
1.0
102
RTVSPost2010PropOp57
 70
     1
102
RTVSPropertyOp0
 70
     1
102
RTVSPropertyOp1
 70
     1
102
RTVSPropertyOp2
 70
     1
102
RTVSPropertyOp3
 70
     1
102
RTVSPropertyOp4
 70
     1
102
RTVSPropertyOp5
 70
     1
102
RTVSPropertyOp6
 70
     1
102
RTVSPropertyOp7
 70
     1
102
RTVSPropertyOp8
 70
     1
102
RTVSPropertyOp9
 70
     1
102
RTVSPropertyOp10
 70
     1
102
RTVSPropertyOp11
 70
     1
102
RTVSPropertyOp12
 70
     1
102
RTVSPropertyOp13
 70
     1
102
RTVSPropertyOp14
 70
     1
102
RTVSPropertyOp15
 70
     1
102
RTVSPropertyOp16
 70
     1
102
RTVSPropertyOp17
 70
     1
102
RTVSPropertyOp18
 70
     1
102
RTVSPropertyOp19
 70
     1
102
RTVSPropertyOp20
 70
     1
102
RTVSPropertyOp21
 70
     1
102
RTVSPropertyOp22
 70
     1
102
RTVSPropertyOp23
 70
     1
102
RTVSPropertyOp24
 70
     1
102
RTVSPropertyOp25
 70
     1
102
RTVSPropertyOp26
 70
     1
102
RTVSPropertyOp27
 70
     1
102
RTVSPropertyOp28
 70
     1
102
RTVSPropertyOp29
 70
     1
102
RTVSPropertyOp30
 70
     1
102
RTVSPropertyOp31
 70
     1
102
RTVSPropertyOp32
 70
     1
102
RTVSPropertyOp33
 70
     1
102
RTVSPropertyOp34
 70
     1
102
RTVSPropertyOp35
 70
     1
102
RTVSPropertyOp36
 70
     1
102
RTVSPropertyOp37
 70
     1
102
RTVSPropertyOp38
 70
     1
102
RTVSPropertyOp39
 70
     1
102
RTVSPropertyOp40
 70
     1
102
RTVSPropertyOp41
 70
     1
102
RTVSPropertyOp42
 70
     1
102
RTVSPropertyOp43
 70
     1
102
RTVSPropertyOp44
 70
     1
102
RTVSPropertyOp45
 70
     1
102
RTVSPropertyOp46
 70
     1
102
RTVSPropertyOp47
 70
     1
102
RTVSPropertyOp48
 70
     1
102
RTVSPropertyOp49
 70
     1
102
RTVSPropertyOp50
 70
     1
102
RTVSPropertyOp51
 70
     0
102
RTVSPropertyOp52
 70
     0
102
RTVSPropertyOp53
 70
     1
102
RTVSPropertyOp54
 70
     1
102
RTVSPropertyOp55
 70
     1
102
RTVSPropertyOp56
 70
     1
102
RTVSPropertyOp57
 70
     1
102
RTVSPropertyOp58
 70
     1
102
RTVSPropertyOp59
 70
     1
102
RTVSPropertyOp60
 70
     1
102
RTVSPropertyOp61
 70
     1
102
RTVSPropertyOp62
 70
     1
  0
XRECORD
  5
954A
102
{ACAD_REACTORS
330
9549
102
}
330
9549
100
AcDbXrecord
280
     1
102
RTVSPost2010Prop28
280
     0
102
RTVSPost2010PropOp28
 70
     1
102
RTVSPost2010Prop29
280
     1
102
RTVSPost2010PropOp29
 70
     1
102
RTVSPost2010Prop30
280
     1
102
RTVSPost2010PropOp30
 70
     1
102
RTVSPost2010Prop31
280
     0
102
RTVSPost2010PropOp31
 70
     1
102
RTVSPost2010Prop32
280
     0
102
RTVSPost2010PropOp32
 70
     1
102
RTVSPost2010Prop33
280
     0
102
RTVSPost2010PropOp33
 70
     1
102
RTVSPost2010Prop34
280
     0
102
RTVSPost2010PropOp34
 70
     1
102
RTVSPost2010Prop35
280
     0
102
RTVSPost2010PropOp35
 70
     1
102
RTVSPost2010Prop36
280
     0
102
RTVSPost2010PropOp36
 70
     1
102
RTVSPost2010Prop37
 90
       50
102
RTVSPost2010PropOp37
 70
     1
102
RTVSPost2010Prop38
140
0.0
102
RTVSPost2010PropOp38
 70
     1
102
RTVSPost2010Prop39
140
1.0
102
RTVSPost2010PropOp39
 70
     1
102
RTVSPost2010Prop40
 90
        0
102
RTVSPost2010PropOp40
 70
     1
102
RTVSPost2010Prop41ColorIndex
 90
       18
102
RTVSPost2010Prop41ColorRGB
 90
        0
102
RTVSPost2010PropOp41
 70
     1
102
RTVSPost2010Prop42
 90
       50
102
RTVSPost2010PropOp42
 70
     1
102
RTVSPost2010Prop43
 90
        3
102
RTVSPost2010PropOp43
 70
     1
102
RTVSPost2010Prop44ColorIndex
 90
        5
102
RTVSPost2010Prop44ColorRGB
 90
      255
102
RTVSPost2010PropOp44
 70
     1
102
RTVSPost2010Prop45
280
     0
102
RTVSPost2010PropOp45
 70
     1
102
RTVSPost2010Prop46
 90
       50
102
RTVSPost2010PropOp46
 70
     1
102
RTVSPost2010Prop47
 90
       50
102
RTVSPost2010PropOp47
 70
     1
102
RTVSPost2010Prop48
 90
       50
102
RTVSPost2010PropOp48
 70
     1
102
RTVSPost2010Prop49
280
     0
102
RTVSPost2010PropOp49
 70
     1
102
RTVSPost2010Prop50
 90
       50
102
RTVSPost2010PropOp50
 70
     1
102
RTVSPost2010Prop51ColorIndex
 90
      256
102
RTVSPost2010Prop51ColorRGB
 90
-16777216
102
RTVSPost2010PropOp51
 70
     0
102
RTVSPost2010Prop52
140
1.0
102
RTVSPost2010PropOp52
 70
     0
102
RTVSPost2010Prop53
 90
        2
102
RTVSPost2010PropOp53
 70
     1
102
RTVSPost2010Prop54
  1
strokes_ogs.tif
102
RTVSPost2010PropOp54
 70
     1
102
RTVSPost2010Prop55
280
     0
102
RTVSPost2010PropOp55
 70
     1
102
RTVSPost2010Prop56
140
1.0
102
RTVSPost2010PropOp56
 70
     1
102
RTVSPost2010Prop57
140
1.0
102
RTVSPost2010PropOp57
 70
     1
102
RTVSPropertyOp0
 70
     1
102
RTVSPropertyOp1
 70
     1
102
RTVSPropertyOp2
 70
     1
102
RTVSPropertyOp3
 70
     1
102
RTVSPropertyOp4
 70
     1
102
RTVSPropertyOp5
 70
     1
102
RTVSPropertyOp6
 70
     1
102
RTVSPropertyOp7
 70
     1
102
RTVSPropertyOp8
 70
     1
102
RTVSPropertyOp9
 70
     1
102
RTVSPropertyOp10
 70
     1
102
RTVSPropertyOp11
 70
     1
102
RTVSPropertyOp12
 70
     1
102
RTVSPropertyOp13
 70
     1
102
RTVSPropertyOp14
 70
     1
102
RTVSPropertyOp15
 70
     1
102
RTVSPropertyOp16
 70
     1
102
RTVSPropertyOp17
 70
     1
102
RTVSPropertyOp18
 70
     1
102
RTVSPropertyOp19
 70
     1
102
RTVSPropertyOp20
 70
     1
102
RTVSPropertyOp21
 70
     1
102
RTVSPropertyOp22
 70
     1
102
RTVSPropertyOp23
 70
     1
102
RTVSPropertyOp24
 70
     1
102
RTVSPropertyOp25
 70
     1
102
RTVSPropertyOp26
 70
     1
102
RTVSPropertyOp27
 70
     1
102
RTVSPropertyOp28
 70
     1
102
RTVSPropertyOp29
 70
     1
102
RTVSPropertyOp30
 70
     1
102
RTVSPropertyOp31
 70
     1
102
RTVSPropertyOp32
 70
     1
102
RTVSPropertyOp33
 70
     1
102
RTVSPropertyOp34
 70
     1
102
RTVSPropertyOp35
 70
     1
102
RTVSPropertyOp36
 70
     1
102
RTVSPropertyOp37
 70
     1
102
RTVSPropertyOp38
 70
     1
102
RTVSPropertyOp39
 70
     1
102
RTVSPropertyOp40
 70
     1
102
RTVSPropertyOp41
 70
     1
102
RTVSPropertyOp42
 70
     1
102
RTVSPropertyOp43
 70
     1
102
RTVSPropertyOp44
 70
     1
102
RTVSPropertyOp45
 70
     1
102
RTVSPropertyOp46
 70
     1
102
RTVSPropertyOp47
 70
     1
102
RTVSPropertyOp48
 70
     1
102
RTVSPropertyOp49
 70
     1
102
RTVSPropertyOp50
 70
     1
102
RTVSPropertyOp51
 70
     0
102
RTVSPropertyOp52
 70
     0
102
RTVSPropertyOp53
 70
     1
102
RTVSPropertyOp54
 70
     1
102
RTVSPropertyOp55
 70
     1
102
RTVSPropertyOp56
 70
     1
102
RTVSPropertyOp57
 70
     1
102
RTVSPropertyOp58
 70
     1
102
RTVSPropertyOp59
 70
     1
102
RTVSPropertyOp60
 70
     1
102
RTVSPropertyOp61
 70
     1
102
RTVSPropertyOp62
 70
     1
  0
XRECORD
  5
9544
102
{ACAD_REACTORS
330
9543
102
}
330
9543
100
AcDbXrecord
280
     1
102
RTVSPost2010Prop28
280
     0
102
RTVSPost2010PropOp28
 70
     1
102
RTVSPost2010Prop29
280
     1
102
RTVSPost2010PropOp29
 70
     1
102
RTVSPost2010Prop30
280
     1
102
RTVSPost2010PropOp30
 70
     1
102
RTVSPost2010Prop31
280
     0
102
RTVSPost2010PropOp31
 70
     1
102
RTVSPost2010Prop32
280
     0
102
RTVSPost2010PropOp32
 70
     1
102
RTVSPost2010Prop33
280
     0
102
RTVSPost2010PropOp33
 70
     1
102
RTVSPost2010Prop34
280
     0
102
RTVSPost2010PropOp34
 70
     1
102
RTVSPost2010Prop35
280
     0
102
RTVSPost2010PropOp35
 70
     1
102
RTVSPost2010Prop36
280
     0
102
RTVSPost2010PropOp36
 70
     1
102
RTVSPost2010Prop37
 90
       50
102
RTVSPost2010PropOp37
 70
     1
102
RTVSPost2010Prop38
140
0.0
102
RTVSPost2010PropOp38
 70
     1
102
RTVSPost2010Prop39
140
1.0
102
RTVSPost2010PropOp39
 70
     1
102
RTVSPost2010Prop40
 90
        0
102
RTVSPost2010PropOp40
 70
     1
102
RTVSPost2010Prop41ColorIndex
 90
       18
102
RTVSPost2010Prop41ColorRGB
 90
        0
102
RTVSPost2010PropOp41
 70
     1
102
RTVSPost2010Prop42
 90
       50
102
RTVSPost2010PropOp42
 70
     1
102
RTVSPost2010Prop43
 90
        3
102
RTVSPost2010PropOp43
 70
     1
102
RTVSPost2010Prop44ColorIndex
 90
        5
102
RTVSPost2010Prop44ColorRGB
 90
      255
102
RTVSPost2010PropOp44
 70
     1
102
RTVSPost2010Prop45
280
     0
102
RTVSPost2010PropOp45
 70
     1
102
RTVSPost2010Prop46
 90
       50
102
RTVSPost2010PropOp46
 70
     1
102
RTVSPost2010Prop47
 90
       50
102
RTVSPost2010PropOp47
 70
     1
102
RTVSPost2010Prop48
 90
       50
102
RTVSPost2010PropOp48
 70
     1
102
RTVSPost2010Prop49
280
     0
102
RTVSPost2010PropOp49
 70
     1
102
RTVSPost2010Prop50
 90
       50
102
RTVSPost2010PropOp50
 70
     1
102
RTVSPost2010Prop51ColorIndex
 90
      256
102
RTVSPost2010Prop51ColorRGB
 90
-16777216
102
RTVSPost2010PropOp51
 70
     0
102
RTVSPost2010Prop52
140
1.0
102
RTVSPost2010PropOp52
 70
     0
102
RTVSPost2010Prop53
 90
        2
102
RTVSPost2010PropOp53
 70
     1
102
RTVSPost2010Prop54
  1
strokes_ogs.tif
102
RTVSPost2010PropOp54
 70
     1
102
RTVSPost2010Prop55
280
     0
102
RTVSPost2010PropOp55
 70
     1
102
RTVSPost2010Prop56
140
1.0
102
RTVSPost2010PropOp56
 70
     1
102
RTVSPost2010Prop57
140
1.0
102
RTVSPost2010PropOp57
 70
     1
102
RTVSPropertyOp0
 70
     1
102
RTVSPropertyOp1
 70
     1
102
RTVSPropertyOp2
 70
     1
102
RTVSPropertyOp3
 70
     1
102
RTVSPropertyOp4
 70
     1
102
RTVSPropertyOp5
 70
     1
102
RTVSPropertyOp6
 70
     1
102
RTVSPropertyOp7
 70
     1
102
RTVSPropertyOp8
 70
     1
102
RTVSPropertyOp9
 70
     1
102
RTVSPropertyOp10
 70
     1
102
RTVSPropertyOp11
 70
     1
102
RTVSPropertyOp12
 70
     1
102
RTVSPropertyOp13
 70
     1
102
RTVSPropertyOp14
 70
     1
102
RTVSPropertyOp15
 70
     1
102
RTVSPropertyOp16
 70
     1
102
RTVSPropertyOp17
 70
     1
102
RTVSPropertyOp18
 70
     1
102
RTVSPropertyOp19
 70
     1
102
RTVSPropertyOp20
 70
     1
102
RTVSPropertyOp21
 70
     1
102
RTVSPropertyOp22
 70
     1
102
RTVSPropertyOp23
 70
     1
102
RTVSPropertyOp24
 70
     1
102
RTVSPropertyOp25
 70
     1
102
RTVSPropertyOp26
 70
     1
102
RTVSPropertyOp27
 70
     1
102
RTVSPropertyOp28
 70
     1
102
RTVSPropertyOp29
 70
     1
102
RTVSPropertyOp30
 70
     1
102
RTVSPropertyOp31
 70
     1
102
RTVSPropertyOp32
 70
     1
102
RTVSPropertyOp33
 70
     1
102
RTVSPropertyOp34
 70
     1
102
RTVSPropertyOp35
 70
     1
102
RTVSPropertyOp36
 70
     1
102
RTVSPropertyOp37
 70
     1
102
RTVSPropertyOp38
 70
     1
102
RTVSPropertyOp39
 70
     1
102
RTVSPropertyOp40
 70
     1
102
RTVSPropertyOp41
 70
     1
102
RTVSPropertyOp42
 70
     1
102
RTVSPropertyOp43
 70
     1
102
RTVSPropertyOp44
 70
     1
102
RTVSPropertyOp45
 70
     1
102
RTVSPropertyOp46
 70
     1
102
RTVSPropertyOp47
 70
     1
102
RTVSPropertyOp48
 70
     1
102
RTVSPropertyOp49
 70
     1
102
RTVSPropertyOp50
 70
     1
102
RTVSPropertyOp51
 70
     0
102
RTVSPropertyOp52
 70
     0
102
RTVSPropertyOp53
 70
     1
102
RTVSPropertyOp54
 70
     1
102
RTVSPropertyOp55
 70
     1
102
RTVSPropertyOp56
 70
     1
102
RTVSPropertyOp57
 70
     1
102
RTVSPropertyOp58
 70
     1
102
RTVSPropertyOp59
 70
     1
102
RTVSPropertyOp60
 70
     1
102
RTVSPropertyOp61
 70
     1
102
RTVSPropertyOp62
 70
     1
  0
XRECORD
  5
9546
102
{ACAD_REACTORS
330
9545
102
}
330
9545
100
AcDbXrecord
280
     1
102
RTVSPost2010Prop28
280
     0
102
RTVSPost2010PropOp28
 70
     1
102
RTVSPost2010Prop29
280
     1
102
RTVSPost2010PropOp29
 70
     1
102
RTVSPost2010Prop30
280
     1
102
RTVSPost2010PropOp30
 70
     1
102
RTVSPost2010Prop31
280
     0
102
RTVSPost2010PropOp31
 70
     1
102
RTVSPost2010Prop32
280
     0
102
RTVSPost2010PropOp32
 70
     1
102
RTVSPost2010Prop33
280
     0
102
RTVSPost2010PropOp33
 70
     1
102
RTVSPost2010Prop34
280
     0
102
RTVSPost2010PropOp34
 70
     1
102
RTVSPost2010Prop35
280
     0
102
RTVSPost2010PropOp35
 70
     1
102
RTVSPost2010Prop36
280
     0
102
RTVSPost2010PropOp36
 70
     1
102
RTVSPost2010Prop37
 90
       50
102
RTVSPost2010PropOp37
 70
     1
102
RTVSPost2010Prop38
140
0.0
102
RTVSPost2010PropOp38
 70
     1
102
RTVSPost2010Prop39
140
1.0
102
RTVSPost2010PropOp39
 70
     1
102
RTVSPost2010Prop40
 90
        0
102
RTVSPost2010PropOp40
 70
     1
102
RTVSPost2010Prop41ColorIndex
 90
       18
102
RTVSPost2010Prop41ColorRGB
 90
        0
102
RTVSPost2010PropOp41
 70
     1
102
RTVSPost2010Prop42
 90
       50
102
RTVSPost2010PropOp42
 70
     1
102
RTVSPost2010Prop43
 90
        3
102
RTVSPost2010PropOp43
 70
     1
102
RTVSPost2010Prop44ColorIndex
 90
        5
102
RTVSPost2010Prop44ColorRGB
 90
      255
102
RTVSPost2010PropOp44
 70
     1
102
RTVSPost2010Prop45
280
     0
102
RTVSPost2010PropOp45
 70
     1
102
RTVSPost2010Prop46
 90
       50
102
RTVSPost2010PropOp46
 70
     1
102
RTVSPost2010Prop47
 90
       50
102
RTVSPost2010PropOp47
 70
     1
102
RTVSPost2010Prop48
 90
       50
102
RTVSPost2010PropOp48
 70
     1
102
RTVSPost2010Prop49
280
     0
102
RTVSPost2010PropOp49
 70
     1
102
RTVSPost2010Prop50
 90
       50
102
RTVSPost2010PropOp50
 70
     1
102
RTVSPost2010Prop51ColorIndex
 90
      256
102
RTVSPost2010Prop51ColorRGB
 90
-16777216
102
RTVSPost2010PropOp51
 70
     0
102
RTVSPost2010Prop52
140
1.0
102
RTVSPost2010PropOp52
 70
     0
102
RTVSPost2010Prop53
 90
        2
102
RTVSPost2010PropOp53
 70
     1
102
RTVSPost2010Prop54
  1
strokes_ogs.tif
102
RTVSPost2010PropOp54
 70
     1
102
RTVSPost2010Prop55
280
     0
102
RTVSPost2010PropOp55
 70
     1
102
RTVSPost2010Prop56
140
1.0
102
RTVSPost2010PropOp56
 70
     1
102
RTVSPost2010Prop57
140
1.0
102
RTVSPost2010PropOp57
 70
     1
102
RTVSPropertyOp0
 70
     1
102
RTVSPropertyOp1
 70
     1
102
RTVSPropertyOp2
 70
     1
102
RTVSPropertyOp3
 70
     1
102
RTVSPropertyOp4
 70
     1
102
RTVSPropertyOp5
 70
     1
102
RTVSPropertyOp6
 70
     1
102
RTVSPropertyOp7
 70
     1
102
RTVSPropertyOp8
 70
     1
102
RTVSPropertyOp9
 70
     1
102
RTVSPropertyOp10
 70
     1
102
RTVSPropertyOp11
 70
     1
102
RTVSPropertyOp12
 70
     1
102
RTVSPropertyOp13
 70
     1
102
RTVSPropertyOp14
 70
     1
102
RTVSPropertyOp15
 70
     1
102
RTVSPropertyOp16
 70
     1
102
RTVSPropertyOp17
 70
     1
102
RTVSPropertyOp18
 70
     1
102
RTVSPropertyOp19
 70
     1
102
RTVSPropertyOp20
 70
     1
102
RTVSPropertyOp21
 70
     1
102
RTVSPropertyOp22
 70
     1
102
RTVSPropertyOp23
 70
     1
102
RTVSPropertyOp24
 70
     1
102
RTVSPropertyOp25
 70
     1
102
RTVSPropertyOp26
 70
     1
102
RTVSPropertyOp27
 70
     1
102
RTVSPropertyOp28
 70
     1
102
RTVSPropertyOp29
 70
     1
102
RTVSPropertyOp30
 70
     1
102
RTVSPropertyOp31
 70
     1
102
RTVSPropertyOp32
 70
     1
102
RTVSPropertyOp33
 70
     1
102
RTVSPropertyOp34
 70
     1
102
RTVSPropertyOp35
 70
     1
102
RTVSPropertyOp36
 70
     1
102
RTVSPropertyOp37
 70
     1
102
RTVSPropertyOp38
 70
     1
102
RTVSPropertyOp39
 70
     1
102
RTVSPropertyOp40
 70
     1
102
RTVSPropertyOp41
 70
     1
102
RTVSPropertyOp42
 70
     1
102
RTVSPropertyOp43
 70
     1
102
RTVSPropertyOp44
 70
     1
102
RTVSPropertyOp45
 70
     1
102
RTVSPropertyOp46
 70
     1
102
RTVSPropertyOp47
 70
     1
102
RTVSPropertyOp48
 70
     1
102
RTVSPropertyOp49
 70
     1
102
RTVSPropertyOp50
 70
     1
102
RTVSPropertyOp51
 70
     0
102
RTVSPropertyOp52
 70
     0
102
RTVSPropertyOp53
 70
     1
102
RTVSPropertyOp54
 70
     1
102
RTVSPropertyOp55
 70
     1
102
RTVSPropertyOp56
 70
     1
102
RTVSPropertyOp57
 70
     1
102
RTVSPropertyOp58
 70
     1
102
RTVSPropertyOp59
 70
     1
102
RTVSPropertyOp60
 70
     1
102
RTVSPropertyOp61
 70
     1
102
RTVSPropertyOp62
 70
     1
  0
XRECORD
  5
953C
102
{ACAD_REACTORS
330
953B
102
}
330
953B
100
AcDbXrecord
280
     1
102
RTVSPost2010Prop28
280
     0
102
RTVSPost2010PropOp28
 70
     1
102
RTVSPost2010Prop29
280
     1
102
RTVSPost2010PropOp29
 70
     1
102
RTVSPost2010Prop30
280
     1
102
RTVSPost2010PropOp30
 70
     1
102
RTVSPost2010Prop31
280
     0
102
RTVSPost2010PropOp31
 70
     1
102
RTVSPost2010Prop32
280
     0
102
RTVSPost2010PropOp32
 70
     1
102
RTVSPost2010Prop33
280
     0
102
RTVSPost2010PropOp33
 70
     1
102
RTVSPost2010Prop34
280
     0
102
RTVSPost2010PropOp34
 70
     1
102
RTVSPost2010Prop35
280
     0
102
RTVSPost2010PropOp35
 70
     1
102
RTVSPost2010Prop36
280
     0
102
RTVSPost2010PropOp36
 70
     1
102
RTVSPost2010Prop37
 90
       50
102
RTVSPost2010PropOp37
 70
     1
102
RTVSPost2010Prop38
140
0.0
102
RTVSPost2010PropOp38
 70
     1
102
RTVSPost2010Prop39
140
1.0
102
RTVSPost2010PropOp39
 70
     1
102
RTVSPost2010Prop40
 90
        0
102
RTVSPost2010PropOp40
 70
     1
102
RTVSPost2010Prop41ColorIndex
 90
       18
102
RTVSPost2010Prop41ColorRGB
 90
        0
102
RTVSPost2010PropOp41
 70
     1
102
RTVSPost2010Prop42
 90
       50
102
RTVSPost2010PropOp42
 70
     1
102
RTVSPost2010Prop43
 90
        3
102
RTVSPost2010PropOp43
 70
     1
102
RTVSPost2010Prop44ColorIndex
 90
        5
102
RTVSPost2010Prop44ColorRGB
 90
      255
102
RTVSPost2010PropOp44
 70
     1
102
RTVSPost2010Prop45
280
     0
102
RTVSPost2010PropOp45
 70
     1
102
RTVSPost2010Prop46
 90
       50
102
RTVSPost2010PropOp46
 70
     1
102
RTVSPost2010Prop47
 90
       50
102
RTVSPost2010PropOp47
 70
     1
102
RTVSPost2010Prop48
 90
       50
102
RTVSPost2010PropOp48
 70
     1
102
RTVSPost2010Prop49
280
     0
102
RTVSPost2010PropOp49
 70
     1
102
RTVSPost2010Prop50
 90
       50
102
RTVSPost2010PropOp50
 70
     1
102
RTVSPost2010Prop51ColorIndex
 90
      256
102
RTVSPost2010Prop51ColorRGB
 90
-16777216
102
RTVSPost2010PropOp51
 70
     0
102
RTVSPost2010Prop52
140
1.0
102
RTVSPost2010PropOp52
 70
     0
102
RTVSPost2010Prop53
 90
        2
102
RTVSPost2010PropOp53
 70
     1
102
RTVSPost2010Prop54
  1
strokes_ogs.tif
102
RTVSPost2010PropOp54
 70
     1
102
RTVSPost2010Prop55
280
     0
102
RTVSPost2010PropOp55
 70
     1
102
RTVSPost2010Prop56
140
1.0
102
RTVSPost2010PropOp56
 70
     1
102
RTVSPost2010Prop57
140
1.0
102
RTVSPost2010PropOp57
 70
     1
102
RTVSPropertyOp0
 70
     1
102
RTVSPropertyOp1
 70
     1
102
RTVSPropertyOp2
 70
     1
102
RTVSPropertyOp3
 70
     1
102
RTVSPropertyOp4
 70
     1
102
RTVSPropertyOp5
 70
     1
102
RTVSPropertyOp6
 70
     1
102
RTVSPropertyOp7
 70
     1
102
RTVSPropertyOp8
 70
     1
102
RTVSPropertyOp9
 70
     1
102
RTVSPropertyOp10
 70
     1
102
RTVSPropertyOp11
 70
     1
102
RTVSPropertyOp12
 70
     1
102
RTVSPropertyOp13
 70
     1
102
RTVSPropertyOp14
 70
     1
102
RTVSPropertyOp15
 70
     1
102
RTVSPropertyOp16
 70
     1
102
RTVSPropertyOp17
 70
     1
102
RTVSPropertyOp18
 70
     1
102
RTVSPropertyOp19
 70
     1
102
RTVSPropertyOp20
 70
     1
102
RTVSPropertyOp21
 70
     1
102
RTVSPropertyOp22
 70
     1
102
RTVSPropertyOp23
 70
     1
102
RTVSPropertyOp24
 70
     1
102
RTVSPropertyOp25
 70
     1
102
RTVSPropertyOp26
 70
     1
102
RTVSPropertyOp27
 70
     1
102
RTVSPropertyOp28
 70
     1
102
RTVSPropertyOp29
 70
     1
102
RTVSPropertyOp30
 70
     1
102
RTVSPropertyOp31
 70
     1
102
RTVSPropertyOp32
 70
     1
102
RTVSPropertyOp33
 70
     1
102
RTVSPropertyOp34
 70
     1
102
RTVSPropertyOp35
 70
     1
102
RTVSPropertyOp36
 70
     1
102
RTVSPropertyOp37
 70
     1
102
RTVSPropertyOp38
 70
     1
102
RTVSPropertyOp39
 70
     1
102
RTVSPropertyOp40
 70
     1
102
RTVSPropertyOp41
 70
     1
102
RTVSPropertyOp42
 70
     1
102
RTVSPropertyOp43
 70
     1
102
RTVSPropertyOp44
 70
     1
102
RTVSPropertyOp45
 70
     1
102
RTVSPropertyOp46
 70
     1
102
RTVSPropertyOp47
 70
     1
102
RTVSPropertyOp48
 70
     1
102
RTVSPropertyOp49
 70
     1
102
RTVSPropertyOp50
 70
     1
102
RTVSPropertyOp51
 70
     0
102
RTVSPropertyOp52
 70
     0
102
RTVSPropertyOp53
 70
     1
102
RTVSPropertyOp54
 70
     1
102
RTVSPropertyOp55
 70
     1
102
RTVSPropertyOp56
 70
     1
102
RTVSPropertyOp57
 70
     1
102
RTVSPropertyOp58
 70
     1
102
RTVSPropertyOp59
 70
     1
102
RTVSPropertyOp60
 70
     1
102
RTVSPropertyOp61
 70
     1
102
RTVSPropertyOp62
 70
     1
  0
XRECORD
  5
9530
102
{ACAD_REACTORS
330
952F
102
}
330
952F
100
AcDbXrecord
280
     1
102
RTVSPost2010Prop28
280
     0
102
RTVSPost2010PropOp28
 70
     1
102
RTVSPost2010Prop29
280
     1
102
RTVSPost2010PropOp29
 70
     1
102
RTVSPost2010Prop30
280
     1
102
RTVSPost2010PropOp30
 70
     1
102
RTVSPost2010Prop31
280
     0
102
RTVSPost2010PropOp31
 70
     1
102
RTVSPost2010Prop32
280
     0
102
RTVSPost2010PropOp32
 70
     1
102
RTVSPost2010Prop33
280
     0
102
RTVSPost2010PropOp33
 70
     1
102
RTVSPost2010Prop34
280
     0
102
RTVSPost2010PropOp34
 70
     1
102
RTVSPost2010Prop35
280
     0
102
RTVSPost2010PropOp35
 70
     1
102
RTVSPost2010Prop36
280
     0
102
RTVSPost2010PropOp36
 70
     1
102
RTVSPost2010Prop37
 90
       50
102
RTVSPost2010PropOp37
 70
     1
102
RTVSPost2010Prop38
140
0.0
102
RTVSPost2010PropOp38
 70
     1
102
RTVSPost2010Prop39
140
1.0
102
RTVSPost2010PropOp39
 70
     1
102
RTVSPost2010Prop40
 90
        0
102
RTVSPost2010PropOp40
 70
     1
102
RTVSPost2010Prop41ColorIndex
 90
       18
102
RTVSPost2010Prop41ColorRGB
 90
        0
102
RTVSPost2010PropOp41
 70
     1
102
RTVSPost2010Prop42
 90
       50
102
RTVSPost2010PropOp42
 70
     1
102
RTVSPost2010Prop43
 90
        3
102
RTVSPost2010PropOp43
 70
     1
102
RTVSPost2010Prop44ColorIndex
 90
        5
102
RTVSPost2010Prop44ColorRGB
 90
      255
102
RTVSPost2010PropOp44
 70
     1
102
RTVSPost2010Prop45
280
     0
102
RTVSPost2010PropOp45
 70
     1
102
RTVSPost2010Prop46
 90
       50
102
RTVSPost2010PropOp46
 70
     1
102
RTVSPost2010Prop47
 90
       50
102
RTVSPost2010PropOp47
 70
     1
102
RTVSPost2010Prop48
 90
       50
102
RTVSPost2010PropOp48
 70
     1
102
RTVSPost2010Prop49
280
     0
102
RTVSPost2010PropOp49
 70
     1
102
RTVSPost2010Prop50
 90
       50
102
RTVSPost2010PropOp50
 70
     1
102
RTVSPost2010Prop51ColorIndex
 90
      256
102
RTVSPost2010Prop51ColorRGB
 90
-16777216
102
RTVSPost2010PropOp51
 70
     0
102
RTVSPost2010Prop52
140
1.0
102
RTVSPost2010PropOp52
 70
     0
102
RTVSPost2010Prop53
 90
        2
102
RTVSPost2010PropOp53
 70
     1
102
RTVSPost2010Prop54
  1
strokes_ogs.tif
102
RTVSPost2010PropOp54
 70
     1
102
RTVSPost2010Prop55
280
     0
102
RTVSPost2010PropOp55
 70
     1
102
RTVSPost2010Prop56
140
1.0
102
RTVSPost2010PropOp56
 70
     1
102
RTVSPost2010Prop57
140
1.0
102
RTVSPost2010PropOp57
 70
     1
102
RTVSPropertyOp0
 70
     1
102
RTVSPropertyOp1
 70
     1
102
RTVSPropertyOp2
 70
     1
102
RTVSPropertyOp3
 70
     1
102
RTVSPropertyOp4
 70
     1
102
RTVSPropertyOp5
 70
     1
102
RTVSPropertyOp6
 70
     1
102
RTVSPropertyOp7
 70
     1
102
RTVSPropertyOp8
 70
     1
102
RTVSPropertyOp9
 70
     1
102
RTVSPropertyOp10
 70
     1
102
RTVSPropertyOp11
 70
     1
102
RTVSPropertyOp12
 70
     1
102
RTVSPropertyOp13
 70
     1
102
RTVSPropertyOp14
 70
     1
102
RTVSPropertyOp15
 70
     1
102
RTVSPropertyOp16
 70
     1
102
RTVSPropertyOp17
 70
     1
102
RTVSPropertyOp18
 70
     1
102
RTVSPropertyOp19
 70
     1
102
RTVSPropertyOp20
 70
     1
102
RTVSPropertyOp21
 70
     1
102
RTVSPropertyOp22
 70
     1
102
RTVSPropertyOp23
 70
     1
102
RTVSPropertyOp24
 70
     1
102
RTVSPropertyOp25
 70
     1
102
RTVSPropertyOp26
 70
     1
102
RTVSPropertyOp27
 70
     1
102
RTVSPropertyOp28
 70
     1
102
RTVSPropertyOp29
 70
     1
102
RTVSPropertyOp30
 70
     1
102
RTVSPropertyOp31
 70
     1
102
RTVSPropertyOp32
 70
     1
102
RTVSPropertyOp33
 70
     1
102
RTVSPropertyOp34
 70
     1
102
RTVSPropertyOp35
 70
     1
102
RTVSPropertyOp36
 70
     1
102
RTVSPropertyOp37
 70
     1
102
RTVSPropertyOp38
 70
     1
102
RTVSPropertyOp39
 70
     1
102
RTVSPropertyOp40
 70
     1
102
RTVSPropertyOp41
 70
     1
102
RTVSPropertyOp42
 70
     1
102
RTVSPropertyOp43
 70
     1
102
RTVSPropertyOp44
 70
     1
102
RTVSPropertyOp45
 70
     1
102
RTVSPropertyOp46
 70
     1
102
RTVSPropertyOp47
 70
     1
102
RTVSPropertyOp48
 70
     1
102
RTVSPropertyOp49
 70
     1
102
RTVSPropertyOp50
 70
     1
102
RTVSPropertyOp51
 70
     0
102
RTVSPropertyOp52
 70
     0
102
RTVSPropertyOp53
 70
     1
102
RTVSPropertyOp54
 70
     1
102
RTVSPropertyOp55
 70
     1
102
RTVSPropertyOp56
 70
     1
102
RTVSPropertyOp57
 70
     1
102
RTVSPropertyOp58
 70
     1
102
RTVSPropertyOp59
 70
     1
102
RTVSPropertyOp60
 70
     1
102
RTVSPropertyOp61
 70
     1
102
RTVSPropertyOp62
 70
     1
  0
XRECORD
  5
9548
102
{ACAD_REACTORS
330
9547
102
}
330
9547
100
AcDbXrecord
280
     1
102
RTVSPost2010Prop28
280
     0
102
RTVSPost2010PropOp28
 70
     1
102
RTVSPost2010Prop29
280
     1
102
RTVSPost2010PropOp29
 70
     1
102
RTVSPost2010Prop30
280
     1
102
RTVSPost2010PropOp30
 70
     1
102
RTVSPost2010Prop31
280
     0
102
RTVSPost2010PropOp31
 70
     1
102
RTVSPost2010Prop32
280
     0
102
RTVSPost2010PropOp32
 70
     1
102
RTVSPost2010Prop33
280
     0
102
RTVSPost2010PropOp33
 70
     1
102
RTVSPost2010Prop34
280
     0
102
RTVSPost2010PropOp34
 70
     1
102
RTVSPost2010Prop35
280
     0
102
RTVSPost2010PropOp35
 70
     1
102
RTVSPost2010Prop36
280
     0
102
RTVSPost2010PropOp36
 70
     1
102
RTVSPost2010Prop37
 90
       50
102
RTVSPost2010PropOp37
 70
     1
102
RTVSPost2010Prop38
140
0.0
102
RTVSPost2010PropOp38
 70
     1
102
RTVSPost2010Prop39
140
1.0
102
RTVSPost2010PropOp39
 70
     1
102
RTVSPost2010Prop40
 90
        0
102
RTVSPost2010PropOp40
 70
     1
102
RTVSPost2010Prop41ColorIndex
 90
       18
102
RTVSPost2010Prop41ColorRGB
 90
        0
102
RTVSPost2010PropOp41
 70
     1
102
RTVSPost2010Prop42
 90
       50
102
RTVSPost2010PropOp42
 70
     1
102
RTVSPost2010Prop43
 90
        3
102
RTVSPost2010PropOp43
 70
     1
102
RTVSPost2010Prop44ColorIndex
 90
        5
102
RTVSPost2010Prop44ColorRGB
 90
      255
102
RTVSPost2010PropOp44
 70
     1
102
RTVSPost2010Prop45
280
     0
102
RTVSPost2010PropOp45
 70
     1
102
RTVSPost2010Prop46
 90
       50
102
RTVSPost2010PropOp46
 70
     1
102
RTVSPost2010Prop47
 90
       50
102
RTVSPost2010PropOp47
 70
     1
102
RTVSPost2010Prop48
 90
       50
102
RTVSPost2010PropOp48
 70
     1
102
RTVSPost2010Prop49
280
     0
102
RTVSPost2010PropOp49
 70
     1
102
RTVSPost2010Prop50
 90
       50
102
RTVSPost2010PropOp50
 70
     1
102
RTVSPost2010Prop51ColorIndex
 90
      256
102
RTVSPost2010Prop51ColorRGB
 90
-16777216
102
RTVSPost2010PropOp51
 70
     0
102
RTVSPost2010Prop52
140
1.0
102
RTVSPost2010PropOp52
 70
     0
102
RTVSPost2010Prop53
 90
        2
102
RTVSPost2010PropOp53
 70
     1
102
RTVSPost2010Prop54
  1
strokes_ogs.tif
102
RTVSPost2010PropOp54
 70
     1
102
RTVSPost2010Prop55
280
     0
102
RTVSPost2010PropOp55
 70
     1
102
RTVSPost2010Prop56
140
1.0
102
RTVSPost2010PropOp56
 70
     1
102
RTVSPost2010Prop57
140
1.0
102
RTVSPost2010PropOp57
 70
     1
102
RTVSPropertyOp0
 70
     1
102
RTVSPropertyOp1
 70
     1
102
RTVSPropertyOp2
 70
     1
102
RTVSPropertyOp3
 70
     1
102
RTVSPropertyOp4
 70
     1
102
RTVSPropertyOp5
 70
     1
102
RTVSPropertyOp6
 70
     1
102
RTVSPropertyOp7
 70
     1
102
RTVSPropertyOp8
 70
     1
102
RTVSPropertyOp9
 70
     1
102
RTVSPropertyOp10
 70
     1
102
RTVSPropertyOp11
 70
     1
102
RTVSPropertyOp12
 70
     1
102
RTVSPropertyOp13
 70
     1
102
RTVSPropertyOp14
 70
     1
102
RTVSPropertyOp15
 70
     1
102
RTVSPropertyOp16
 70
     1
102
RTVSPropertyOp17
 70
     1
102
RTVSPropertyOp18
 70
     1
102
RTVSPropertyOp19
 70
     1
102
RTVSPropertyOp20
 70
     1
102
RTVSPropertyOp21
 70
     1
102
RTVSPropertyOp22
 70
     1
102
RTVSPropertyOp23
 70
     1
102
RTVSPropertyOp24
 70
     1
102
RTVSPropertyOp25
 70
     1
102
RTVSPropertyOp26
 70
     1
102
RTVSPropertyOp27
 70
     1
102
RTVSPropertyOp28
 70
     1
102
RTVSPropertyOp29
 70
     1
102
RTVSPropertyOp30
 70
     1
102
RTVSPropertyOp31
 70
     1
102
RTVSPropertyOp32
 70
     1
102
RTVSPropertyOp33
 70
     1
102
RTVSPropertyOp34
 70
     1
102
RTVSPropertyOp35
 70
     1
102
RTVSPropertyOp36
 70
     1
102
RTVSPropertyOp37
 70
     1
102
RTVSPropertyOp38
 70
     1
102
RTVSPropertyOp39
 70
     1
102
RTVSPropertyOp40
 70
     1
102
RTVSPropertyOp41
 70
     1
102
RTVSPropertyOp42
 70
     1
102
RTVSPropertyOp43
 70
     1
102
RTVSPropertyOp44
 70
     1
102
RTVSPropertyOp45
 70
     1
102
RTVSPropertyOp46
 70
     1
102
RTVSPropertyOp47
 70
     1
102
RTVSPropertyOp48
 70
     1
102
RTVSPropertyOp49
 70
     1
102
RTVSPropertyOp50
 70
     1
102
RTVSPropertyOp51
 70
     0
102
RTVSPropertyOp52
 70
     0
102
RTVSPropertyOp53
 70
     1
102
RTVSPropertyOp54
 70
     1
102
RTVSPropertyOp55
 70
     1
102
RTVSPropertyOp56
 70
     1
102
RTVSPropertyOp57
 70
     1
102
RTVSPropertyOp58
 70
     1
102
RTVSPropertyOp59
 70
     1
102
RTVSPropertyOp60
 70
     1
102
RTVSPropertyOp61
 70
     1
102
RTVSPropertyOp62
 70
     1
  0
ENDSEC
  0
EOF
