  0
SECTION
  2
HEADER
  9
$ACADVER
  1
AC1015
  9
$ACADMAINTVER
 70
    20
  9
$DWGCODEPAGE
  3
ANSI_932
  9
$INSBASE
 10
0.0
 20
0.0
 30
0.0
  9
$EXTMIN
 10
10.0
 20
9.999999999999998
 30
0.0
  9
$EXTMAX
 10
521.809343
 20
777.1396469999999
 30
0.0
  9
$LIMMIN
 10
0.0
 20
0.0
  9
$LIMMAX
 10
1131.4
 20
779.980303
  9
$ORTHOMODE
 70
     1
  9
$REGENMODE
 70
     1
  9
$FILLMODE
 70
     1
  9
$QTEXTMODE
 70
     0
  9
$MIRRTEXT
 70
     1
  9
$LTSCALE
 40
20.0
  9
$ATTMODE
 70
     1
  9
$TEXTSIZE
 40
5.0
  9
$TRACEWID
 40
1.0
  9
$TEXTSTYLE
  7
STANDARD
  9
$CLAYER
  8
0
  9
$CELTYPE
  6
BYLAYER
  9
$CECOLOR
 62
   256
  9
$CELTSCALE
 40
1.0
  9
$DISPSILH
 70
     0
  9
$DIMSCALE
 40
1.0
  9
$DIMASZ
 40
3.0
  9
$DIMEXO
 40
1.0
  9
$DIMDLI
 40
10.0
  9
$DIMRND
 40
0.0
  9
$DIMDLE
 40
0.0
  9
$DIMEXE
 40
1.0
  9
$DIMTP
 40
0.0
  9
$DIMTM
 40
0.0
  9
$DIMTXT
 40
3.2
  9
$DIMCEN
 40
0.0
  9
$DIMTSZ
 40
0.0
  9
$DIMTOL
 70
     0
  9
$DIMLIM
 70
     0
  9
$DIMTIH
 70
     0
  9
$DIMTOH
 70
     0
  9
$DIMSE1
 70
     0
  9
$DIMSE2
 70
     0
  9
$DIMTAD
 70
     3
  9
$DIMZIN
 70
     8
  9
$DIMBLK
  1

  9
$DIMASO
 70
     1
  9
$DIMSHO
 70
     1
  9
$DIMPOST
  1

  9
$DIMAPOST
  1

  9
$DIMALT
 70
     0
  9
$DIMALTD
 70
     2
  9
$DIMALTF
 40
25.4
  9
$DIMLFAC
 40
1.0
  9
$DIMTOFL
 70
     1
  9
$DIMTVP
 40
0.0
  9
$DIMTIX
 70
     0
  9
$DIMSOXD
 70
     0
  9
$DIMSAH
 70
     1
  9
$DIMBLK1
  1

  9
$DIMBLK2
  1

  9
$DIMSTYLE
  2
STANDARD
  9
$DIMCLRD
 70
     0
  9
$DIMCLRE
 70
     0
  9
$DIMCLRT
 70
     0
  9
$DIMTFAC
 40
1.0
  9
$DIMGAP
 40
1.0
  9
$DIMJUST
 70
     0
  9
$DIMSD1
 70
     0
  9
$DIMSD2
 70
     0
  9
$DIMTOLJ
 70
     1
  9
$DIMTZIN
 70
     0
  9
$DIMALTZ
 70
     0
  9
$DIMALTTZ
 70
     0
  9
$DIMUPT
 70
     0
  9
$DIMDEC
 70
     4
  9
$DIMTDEC
 70
     4
  9
$DIMALTU
 70
     2
  9
$DIMALTTD
 70
     2
  9
$DIMTXSTY
  7
STANDARD
  9
$DIMAUNIT
 70
     0
  9
$DIMADEC
 70
     0
  9
$DIMALTRND
 40
0.0
  9
$DIMAZIN
 70
     0
  9
$DIMDSEP
 70
    46
  9
$DIMATFIT
 70
     3
  9
$DIMFRAC
 70
     0
  9
$DIMLDRBLK
  1

  9
$DIMLUNIT
 70
     2
  9
$DIMLWD
 70
    -2
  9
$DIMLWE
 70
    -2
  9
$DIMTMOVE
 70
     0
  9
$LUNITS
 70
     2
  9
$LUPREC
 70
     4
  9
$SKETCHINC
 40
1.0
  9
$FILLETRAD
 40
0.0
  9
$AUNITS
 70
     0
  9
$AUPREC
 70
     2
  9
$MENU
  1
.
  9
$ELEVATION
 40
0.0
  9
$PELEVATION
 40
0.0
  9
$THICKNESS
 40
0.0
  9
$LIMCHECK
 70
     0
  9
$CHAMFERA
 40
10.0
  9
$CHAMFERB
 40
10.0
  9
$CHAMFERC
 40
0.0
  9
$CHAMFERD
 40
0.0
  9
$SKPOLY
 70
     0
  9
$TDCREATE
 40
2450737.660391320
  9
$TDUCREATE
 40
2450737.285391320
  9
$TDUPDATE
 40
2457192.640117142
  9
$TDUUPDATE
 40
2457192.265117142
  9
$TDINDWG
 40
0.0000156481
  9
$TDUSRTIMER
 40
0.0000153472
  9
$USRTIMER
 70
     1
  9
$ANGBASE
 50
0.0
  9
$ANGDIR
 70
     0
  9
$PDMODE
 70
     0
  9
$PDSIZE
 40
0.0
  9
$PLINEWID
 40
0.0
  9
$SPLFRAME
 70
     0
  9
$SPLINETYPE
 70
     6
  9
$SPLINESEGS
 70
     8
  9
$HANDSEED
  5
9F21
  9
$SURFTAB1
 70
     6
  9
$SURFTAB2
 70
     6
  9
$SURFTYPE
 70
     6
  9
$SURFU
 70
     6
  9
$SURFV
 70
     6
  9
$UCSBASE
  2

  9
$UCSNAME
  2

  9
$UCSORG
 10
0.0
 20
0.0
 30
0.0
  9
$UCSXDIR
 10
1.0
 20
0.0
 30
0.0
  9
$UCSYDIR
 10
0.0
 20
1.0
 30
0.0
  9
$UCSORTHOREF
  2

  9
$UCSORTHOVIEW
 70
     0
  9
$UCSORGTOP
 10
0.0
 20
0.0
 30
0.0
  9
$UCSORGBOTTOM
 10
0.0
 20
0.0
 30
0.0
  9
$UCSORGLEFT
 10
0.0
 20
0.0
 30
0.0
  9
$UCSORGRIGHT
 10
0.0
 20
0.0
 30
0.0
  9
$UCSORGFRONT
 10
0.0
 20
0.0
 30
0.0
  9
$UCSORGBACK
 10
0.0
 20
0.0
 30
0.0
  9
$PUCSBASE
  2

  9
$PUCSNAME
  2

  9
$PUCSORG
 10
0.0
 20
0.0
 30
0.0
  9
$PUCSXDIR
 10
1.0
 20
0.0
 30
0.0
  9
$PUCSYDIR
 10
0.0
 20
1.0
 30
0.0
  9
$PUCSORTHOREF
  2

  9
$PUCSORTHOVIEW
 70
     0
  9
$PUCSORGTOP
 10
0.0
 20
0.0
 30
0.0
  9
$PUCSORGBOTTOM
 10
0.0
 20
0.0
 30
0.0
  9
$PUCSORGLEFT
 10
0.0
 20
0.0
 30
0.0
  9
$PUCSORGRIGHT
 10
0.0
 20
0.0
 30
0.0
  9
$PUCSORGFRONT
 10
0.0
 20
0.0
 30
0.0
  9
$PUCSORGBACK
 10
0.0
 20
0.0
 30
0.0
  9
$USERI1
 70
     0
  9
$USERI2
 70
     0
  9
$USERI3
 70
     0
  9
$USERI4
 70
     0
  9
$USERI5
 70
     0
  9
$USERR1
 40
0.0
  9
$USERR2
 40
0.0
  9
$USERR3
 40
0.0
  9
$USERR4
 40
0.0
  9
$USERR5
 40
0.0
  9
$WORLDVIEW
 70
     1
  9
$SHADEDGE
 70
     3
  9
$SHADEDIF
 70
    70
  9
$TILEMODE
 70
     1
  9
$MAXACTVP
 70
    16
  9
$PINSBASE
 10
0.0
 20
0.0
 30
0.0
  9
$PLIMCHECK
 70
     0
  9
$PEXTMIN
 10
1.000000000000000E+20
 20
1.000000000000000E+20
 30
1.000000000000000E+20
  9
$PEXTMAX
 10
-1.000000000000000E+20
 20
-1.000000000000000E+20
 30
-1.000000000000000E+20
  9
$PLIMMIN
 10
0.0
 20
0.0
  9
$PLIMMAX
 10
420.0
 20
297.0
  9
$UNITMODE
 70
     0
  9
$VISRETAIN
 70
     0
  9
$PLINEGEN
 70
     0
  9
$PSLTSCALE
 70
     0
  9
$TREEDEPTH
 70
  3020
  9
$CMLSTYLE
  2
STANDARD
  9
$CMLJUST
 70
     0
  9
$CMLSCALE
 40
1.0
  9
$PROXYGRAPHICS
 70
     1
  9
$MEASUREMENT
 70
     0
  9
$CELWEIGHT
370
    -1
  9
$ENDCAPS
280
     0
  9
$JOINSTYLE
280
     0
  9
$LWDISPLAY
290
     0
  9
$INSUNITS
 70
     0
  9
$HYPERLINKBASE
  1

  9
$STYLESHEET
  1

  9
$XEDIT
290
     1
  9
$CEPSNTYPE
380
     0
  9
$PSTYLEMODE
290
     1
  9
$FINGERPRINTGUID
  2
{3B01E67F-4852-40D4-B127-1CD5F9D2CAA5}
  9
$VERSIONGUID
  2
{54F707C6-F017-4F51-A815-6D2071415E18}
  9
$EXTNAMES
290
     1
  9
$PSVPSCALE
 40
0.0
  9
$OLESTARTUP
290
     0
  0
ENDSEC
  0
SECTION
  2
CLASSES
  0
CLASS
  1
ACDBDICTIONARYWDFLT
  2
AcDbDictionaryWithDefault
  3
ObjectDBX Classes
 90
        0
280
     0
281
     0
  0
CLASS
  1
ACDBPLACEHOLDER
  2
AcDbPlaceHolder
  3
ObjectDBX Classes
 90
        0
280
     0
281
     0
  0
CLASS
  1
LAYOUT
  2
AcDbLayout
  3
ObjectDBX Classes
 90
        0
280
     0
281
     0
  0
CLASS
  1
DICTIONARYVAR
  2
AcDbDictionaryVar
  3
ObjectDBX Classes
 90
        0
280
     0
281
     0
  0
CLASS
  1
MATERIAL
  2
AcDbMaterial
  3
ObjectDBX Classes
 90
     1153
280
     0
281
     0
  0
CLASS
  1
VISUALSTYLE
  2
AcDbVisualStyle
  3
ObjectDBX Classes
 90
     4095
280
     0
281
     0
  0
CLASS
  1
TABLESTYLE
  2
AcDbTableStyle
  3
ObjectDBX Classes
 90
     4095
280
     0
281
     0
  0
CLASS
  1
SCALE
  2
AcDbScale
  3
ObjectDBX Classes
 90
     1153
280
     0
281
     0
  0
CLASS
  1
MLEADERSTYLE
  2
AcDbMLeaderStyle
  3
ACDB_MLEADERSTYLE_CLASS
 90
     4095
280
     0
281
     0
  0
CLASS
  1
ACDBSECTIONVIEWSTYLE
  2
AcDbSectionViewStyle
  3
ObjectDBX Classes
 90
     1025
280
     0
281
     0
  0
CLASS
  1
ACDBDETAILVIEWSTYLE
  2
AcDbDetailViewStyle
  3
ObjectDBX Classes
 90
     1025
280
     0
281
     0
  0
CLASS
  1
CELLSTYLEMAP
  2
AcDbCellStyleMap
  3
ObjectDBX Classes
 90
     1152
280
     0
281
     0
  0
ENDSEC
  0
SECTION
  2
TABLES
  0
TABLE
  2
VPORT
  5
9BE1
330
0
100
AcDbSymbolTable
 70
     1
  0
VPORT
  5
9E6A
330
9BE1
100
AcDbSymbolTableRecord
100
AcDbViewportTableRecord
  2
*ACTIVE
 70
     0
 10
0.0
 20
0.0
 11
1.0
 21
1.0
 12
498.2774516116305
 22
393.5606197951041
 13
0.0
 23
0.0
 14
10.0
 24
10.0
 15
10.0
 25
10.0
 16
0.0
 26
0.0
 36
1.0
 17
0.0
 27
0.0
 37
0.0
 40
775.7546269162907
 41
1.899603698811096
 42
50.0
 43
0.0
 44
0.0
 50
0.0
 51
0.0
 71
     0
 72
   100
 73
     1
 74
     0
 75
     0
 76
     0
 77
     0
 78
     0
281
     0
 65
     1
110
0.0
120
0.0
130
0.0
111
1.0
121
0.0
131
0.0
112
0.0
122
1.0
132
0.0
 79
     0
146
0.0
1001
ACAD_NAV_VCDISPLAY
1070
     3
  0
ENDTAB
  0
TABLE
  2
LTYPE
  5
9BDE
330
0
100
AcDbSymbolTable
 70
     4
  0
LTYPE
  5
9BEC
330
9BDE
100
AcDbSymbolTableRecord
100
AcDbLinetypeTableRecord
  2
BYBLOCK
 70
     0
  3

 72
    65
 73
     0
 40
0.0
  0
LTYPE
  5
9BED
330
9BDE
100
AcDbSymbolTableRecord
100
AcDbLinetypeTableRecord
  2
BYLAYER
 70
     0
  3

 72
    65
 73
     0
 40
0.0
  0
LTYPE
  5
9BEE
330
9BDE
100
AcDbSymbolTableRecord
100
AcDbLinetypeTableRecord
  2
CONTINUOUS
 70
     0
  3
Solid line
 72
    65
 73
     0
 40
0.0
  0
LTYPE
  5
9BFC
330
9BDE
100
AcDbSymbolTableRecord
100
AcDbLinetypeTableRecord
  2
DASHED
 70
     0
  3
__ __ __ __ __ __ __ __ __ __ __ __ __ __ __ __
 72
    65
 73
     2
 40
0.75
 49
0.5
 74
     0
 49
-0.25
 74
     0
  0
LTYPE
  5
9BFD
330
9BDE
100
AcDbSymbolTableRecord
100
AcDbLinetypeTableRecord
  2
CENTER
 70
     0
  3
____ _ ____ _ ____ _ ____ _ ____ _ ____ _ ____ 
 72
    65
 73
     4
 40
2.0
 49
1.25
 74
     0
 49
-0.25
 74
     0
 49
0.25
 74
     0
 49
-0.25
 74
     0
  0
LTYPE
  5
9BFE
330
9BDE
100
AcDbSymbolTableRecord
100
AcDbLinetypeTableRecord
  2
PHANTOM
 70
     0
  3
______  __  __  ______  __  __  ______  __  __ 
 72
    65
 73
     6
 40
2.5
 49
1.25
 74
     0
 49
-0.25
 74
     0
 49
0.25
 74
     0
 49
-0.25
 74
     0
 49
0.25
 74
     0
 49
-0.25
 74
     0
  0
ENDTAB
  0
TABLE
  2
LAYER
  5
9BDB
330
0
100
AcDbSymbolTable
 70
     8
  0
LAYER
  5
9BE9
102
{ACAD_XDICTIONARY
360
9EC5
102
}
330
9BDB
100
AcDbSymbolTableRecord
100
AcDbLayerTableRecord
  2
0
 70
     0
 62
     7
  6
CONTINUOUS
370
    -3
390
9E73
  0
LAYER
  5
9BFF
102
{ACAD_XDICTIONARY
360
9EC7
102
}
330
9BDB
100
AcDbSymbolTableRecord
100
AcDbLayerTableRecord
  2
4
 70
     0
 62
     1
  6
CENTER
370
    -3
390
9E73
  0
LAYER
  5
9C00
102
{ACAD_XDICTIONARY
360
9EC9
102
}
330
9BDB
100
AcDbSymbolTableRecord
100
AcDbLayerTableRecord
  2
5
 70
     0
 62
     6
  6
PHANTOM
370
    -3
390
9E73
  0
LAYER
  5
9C01
102
{ACAD_XDICTIONARY
360
9ECB
102
}
330
9BDB
100
AcDbSymbolTableRecord
100
AcDbLayerTableRecord
  2
1
 70
     0
 62
     7
  6
CONTINUOUS
370
    -3
390
9E73
  0
LAYER
  5
9C02
102
{ACAD_XDICTIONARY
360
9ECD
102
}
330
9BDB
100
AcDbSymbolTableRecord
100
AcDbLayerTableRecord
  2
2
 70
     0
 62
     4
  6
CONTINUOUS
370
    -3
390
9E73
  0
LAYER
  5
9C03
102
{ACAD_XDICTIONARY
360
9ECF
102
}
330
9BDB
100
AcDbSymbolTableRecord
100
AcDbLayerTableRecord
  2
3
 70
     0
 62
     2
  6
DASHED
370
    -3
390
9E73
  0
LAYER
  5
9C04
102
{ACAD_XDICTIONARY
360
9ED1
102
}
330
9BDB
100
AcDbSymbolTableRecord
100
AcDbLayerTableRecord
  2
6
 70
     0
 62
     5
  6
CONTINUOUS
370
    -3
390
9E73
  0
LAYER
  5
9C05
102
{ACAD_XDICTIONARY
360
9ED3
102
}
330
9BDB
100
AcDbSymbolTableRecord
100
AcDbLayerTableRecord
  2
7
 70
     0
 62
     3
  6
CONTINUOUS
370
    -3
390
9E73
  0
ENDTAB
  0
TABLE
  2
STYLE
  5
9BDC
330
0
100
AcDbSymbolTable
 70
     1
  0
STYLE
  5
9BEA
330
9BDC
100
AcDbSymbolTableRecord
100
AcDbTextStyleTableRecord
  2
STANDARD
 70
     0
 40
0.0
 41
1.0
 50
0.0
 71
     0
 42
5.0
  3
txt
  4

  0
ENDTAB
  0
TABLE
  2
VIEW
  5
9BDF
330
0
100
AcDbSymbolTable
 70
     0
  0
ENDTAB
  0
TABLE
  2
UCS
  5
9BE0
330
0
100
AcDbSymbolTable
 70
     0
  0
ENDTAB
  0
TABLE
  2
APPID
  5
9BE2
330
0
100
AcDbSymbolTable
 70
     3
  0
APPID
  5
9BEB
330
9BE2
100
AcDbSymbolTableRecord
100
AcDbRegAppTableRecord
  2
ACAD
 70
     0
  0
APPID
  5
9EDF
330
9BE2
100
AcDbSymbolTableRecord
100
AcDbRegAppTableRecord
  2
ACAD_NAV_VCDISPLAY
 70
     0
  0
APPID
  5
9F18
330
9BE2
100
AcDbSymbolTableRecord
100
AcDbRegAppTableRecord
  2
ACAD_MLEADERVER
 70
     0
  0
ENDTAB
  0
TABLE
  2
DIMSTYLE
  5
9BE3
330
0
100
AcDbSymbolTable
 70
     1
100
AcDbDimStyleTable
 71
     0
  0
DIMSTYLE
105
9C07
330
9BE3
100
AcDbSymbolTableRecord
100
AcDbDimStyleTableRecord
  2
STANDARD
 70
     0
 41
3.0
 42
1.0
 43
10.0
 44
1.0
 73
     0
 74
     0
 77
     3
 78
     8
140
3.2
141
0.0
147
1.0
172
     1
173
     1
284
     8
285
     8
286
     8
340
9BEA
  0
ENDTAB
  0
TABLE
  2
BLOCK_RECORD
  5
9BDA
330
0
100
AcDbSymbolTable
 70
     0
  0
BLOCK_RECORD
  5
9BF7
102
{ACAD_XDICTIONARY
360
9E6D
102
}
330
9BDA
100
AcDbSymbolTableRecord
100
AcDbBlockTableRecord
  2
*MODEL_SPACE
340
9EC1
  0
BLOCK_RECORD
  5
9BF3
102
{ACAD_XDICTIONARY
360
9E6B
102
}
330
9BDA
100
AcDbSymbolTableRecord
100
AcDbBlockTableRecord
  2
*PAPER_SPACE
340
9EC2
  0
ENDTAB
  0
ENDSEC
  0
SECTION
  2
BLOCKS
  0
BLOCK
  5
9BF8
330
9BF7
100
AcDbEntity
  8
0
100
AcDbBlockBegin
  2
*MODEL_SPACE
 70
     0
 10
0.0
 20
0.0
 30
0.0
  3
*MODEL_SPACE
  1

  0
ENDBLK
  5
9BF9
330
9BF7
100
AcDbEntity
  8
0
100
AcDbBlockEnd
  0
BLOCK
  5
9BF4
330
9BF3
100
AcDbEntity
 67
     1
  8
0
100
AcDbBlockBegin
  2
*PAPER_SPACE
 70
     0
 10
0.0
 20
0.0
 30
0.0
  3
*PAPER_SPACE
  1

  0
ENDBLK
  5
9BF5
330
9BF3
100
AcDbEntity
 67
     1
  8
0
100
AcDbBlockEnd
  0
ENDSEC
  0
SECTION
  2
ENTITIES
  0
TEXT
  5
9C0F
330
9BF7
100
AcDbEntity
  8
7
  6
Continuous
100
AcDbText
 10
10.0
 20
18.0
 30
0.0
 40
3.0
  1
TYPE No.THA-280-3
100
AcDbText
  0
TEXT
  5
9C10
330
9BF7
100
AcDbEntity
  8
7
  6
Continuous
100
AcDbText
 10
10.0
 20
26.0
 30
0.0
 40
3.0
  1
CODE No.3236
100
AcDbText
  0
TEXT
  5
9C11
330
9BF7
100
AcDbEntity
  8
1
  6
Continuous
100
AcDbText
 10
10.0
 20
10.0
 30
0.0
 40
1.399999999999999
  1
LAYER
100
AcDbText
  0
TEXT
  5
9C12
330
9BF7
100
AcDbEntity
  8
1
  6
Continuous
100
AcDbText
 10
17.97951099999998
 20
10.04873699999998
 30
0.0
 40
1.399999999999999
  1
1
100
AcDbText
  0
TEXT
  5
9C13
330
9BF7
100
AcDbEntity
  8
7
  6
Continuous
100
AcDbText
 10
29.97951099999999
 20
10.04873699999998
 30
0.0
 40
1.399999999999999
  1
7
100
AcDbText
  0
TEXT
  5
9C14
330
9BF7
100
AcDbEntity
  8
4
  6
CENTER
100
AcDbText
 10
23.97951099999999
 20
10.04873699999998
 30
0.0
 40
1.399999999999999
  1
4
100
AcDbText
  0
TEXT
  5
9C15
330
9BF7
100
AcDbEntity
  8
3
  6
DASHED
100
AcDbText
 10
21.979511
 20
10.04873699999998
 30
0.0
 40
1.399999999999999
  1
3
100
AcDbText
  0
TEXT
  5
9C16
330
9BF7
100
AcDbEntity
  8
2
  6
Continuous
100
AcDbText
 10
19.97951099999999
 20
10.04873699999998
 30
0.0
 40
1.399999999999999
  1
2
100
AcDbText
  0
TEXT
  5
9C17
330
9BF7
100
AcDbEntity
  8
6
  6
Continuous
100
AcDbText
 10
27.979511
 20
10.04873699999998
 30
0.0
 40
1.399999999999999
  1
6
100
AcDbText
  0
TEXT
  5
9C18
330
9BF7
100
AcDbEntity
  8
5
  6
PHANTOM
100
AcDbText
 10
25.97951099999999
 20
10.04873699999998
 30
0.0
 40
1.399999999999999
  1
5
100
AcDbText
  0
LINE
  5
9C19
330
9BF7
100
AcDbEntity
  8
1
  6
Continuous
100
AcDbLine
 10
173.756643
 20
389.3316469999999
 30
0.0
 11
240.256643
 21
389.3316469999999
 31
0.0
  0
LINE
  5
9C1A
330
9BF7
100
AcDbEntity
  8
1
  6
Continuous
100
AcDbLine
 10
168.256643
 20
383.8316469999999
 30
0.0
 11
168.256643
 21
332.8316469999998
 31
0.0
  0
LINE
  5
9C1B
330
9BF7
100
AcDbEntity
  8
1
  6
Continuous
100
AcDbLine
 10
173.756643
 20
327.3316469999999
 30
0.0
 11
240.256643
 21
327.3316469999999
 31
0.0
  0
LINE
  5
9C1C
330
9BF7
100
AcDbEntity
  8
1
  6
Continuous
100
AcDbLine
 10
248.256643
 20
381.3316469999999
 30
0.0
 11
248.256643
 21
335.3316469999999
 31
0.0
  0
LINE
  5
9C1D
330
9BF7
100
AcDbEntity
  8
1
  6
Continuous
100
AcDbLine
 10
302.062643
 20
384.3316469999999
 30
0.0
 11
302.062643
 21
332.3316469999999
 31
0.0
  0
LINE
  5
9C1E
330
9BF7
100
AcDbEntity
  8
1
  6
Continuous
100
AcDbLine
 10
305.0626429999999
 20
389.3316469999999
 30
0.0
 11
305.0626429999999
 21
327.3316469999999
 31
0.0
  0
LINE
  5
9C1F
330
9BF7
100
AcDbEntity
  8
4
  6
CENTER
100
AcDbLine
 10
106.6236429999999
 20
358.3316469999999
 30
0.0
 11
265.449643
 21
358.3316469999999
 31
0.0
  0
LINE
  5
9C20
330
9BF7
100
AcDbEntity
  8
1
  6
Continuous
100
AcDbLine
 10
177.756643
 20
336.331647
 30
0.0
 11
236.756643
 21
336.331647
 31
0.0
  0
LINE
  5
9C21
330
9BF7
100
AcDbEntity
  8
1
  6
Continuous
100
AcDbLine
 10
177.756643
 20
380.331647
 30
0.0
 11
236.756643
 21
380.331647
 31
0.0
  0
LINE
  5
9C22
330
9BF7
100
AcDbEntity
  8
4
  6
CENTER
100
AcDbLine
 10
182.256643
 20
394.6586469999999
 30
0.0
 11
182.256643
 21
321.712647
 31
0.0
  0
LINE
  5
9C23
330
9BF7
100
AcDbEntity
  8
1
  6
Continuous
100
AcDbLine
 10
175.2566429999999
 20
377.831647
 30
0.0
 11
175.2566429999999
 21
338.8316469999999
 31
0.0
  0
LINE
  5
9C24
330
9BF7
100
AcDbEntity
  8
1
  6
Continuous
100
AcDbLine
 10
240.256643
 20
376.8316469999998
 30
0.0
 11
240.256643
 21
339.8316469999999
 31
0.0
  0
LINE
  5
9C25
330
9BF7
100
AcDbEntity
  8
1
  6
Continuous
100
AcDbLine
 10
173.256643
 20
719.1216469999999
 30
0.0
 11
243.256643
 21
719.1216469999999
 31
0.0
  0
LINE
  5
9C26
330
9BF7
100
AcDbEntity
  8
1
  6
Continuous
100
AcDbLine
 10
168.256643
 20
722.1216469999997
 30
0.0
 11
248.256643
 21
722.1216469999997
 31
0.0
  0
LINE
  5
9C27
330
9BF7
100
AcDbEntity
  8
4
  6
CENTER
100
AcDbLine
 10
182.256643
 20
721.3716469999996
 30
0.0
 11
182.256643
 21
729.3716469999997
 31
0.0
  0
LINE
  5
9C28
330
9BF7
100
AcDbEntity
  8
4
  6
CENTER
100
AcDbLine
 10
178.2566429999999
 20
725.3716469999996
 30
0.0
 11
186.256643
 21
725.3716469999996
 31
0.0
  0
LINE
  5
9C29
330
9BF7
100
AcDbEntity
  8
1
  6
Continuous
100
AcDbLine
 10
172.7566429999999
 20
739.1216469999997
 30
0.0
 11
194.0746429999999
 21
739.1216469999997
 31
0.0
  0
LINE
  5
9C2A
330
9BF7
100
AcDbEntity
  8
1
  6
Continuous
100
AcDbLine
 10
172.7566429999999
 20
722.1216469999997
 30
0.0
 11
172.7566429999999
 21
739.1216469999997
 31
0.0
  0
LINE
  5
9C2B
330
9BF7
100
AcDbEntity
  8
1
  6
Continuous
100
AcDbLine
 10
238.152643
 20
732.2126469999997
 30
0.0
 11
241.8246429999999
 21
722.1216469999997
 31
0.0
  0
LINE
  5
9C2C
330
9BF7
100
AcDbEntity
  8
4
  6
CENTER
100
AcDbLine
 10
296.3386429999999
 20
358.3316469999999
 30
0.0
 11
328.696643
 21
358.3316469999999
 31
0.0
  0
LINE
  5
9C2D
330
9BF7
100
AcDbEntity
  8
4
  6
CENTER
100
AcDbLine
 10
308.312643
 20
394.290647
 30
0.0
 11
308.312643
 21
323.5526469999999
 31
0.0
  0
LINE
  5
9C2E
330
9BF7
100
AcDbEntity
  8
1
  6
Continuous
100
AcDbLine
 10
322.0626429999999
 20
383.3316469999999
 30
0.0
 11
322.0626429999999
 21
333.3316469999999
 31
0.0
  0
LINE
  5
9C2F
330
9BF7
100
AcDbEntity
  8
1
  6
Continuous
100
AcDbLine
 10
305.0626429999999
 20
333.3316469999999
 30
0.0
 11
322.0626429999999
 21
333.3316469999999
 31
0.0
  0
LINE
  5
9C30
330
9BF7
100
AcDbEntity
  8
1
  6
Continuous
100
AcDbLine
 10
305.0626429999999
 20
383.3316469999999
 30
0.0
 11
322.0626429999999
 21
383.3316469999999
 31
0.0
  0
LINE
  5
9C31
330
9BF7
100
AcDbEntity
  8
1
  6
Continuous
100
AcDbLine
 10
456.3686429999998
 20
389.3316469999999
 30
0.0
 11
420.8186429999998
 21
389.3316469999999
 31
0.0
  0
LINE
  5
9C32
330
9BF7
100
AcDbEntity
  8
1
  6
Continuous
100
AcDbLine
 10
456.3686429999998
 20
327.3316469999999
 30
0.0
 11
420.8186429999998
 21
327.3316469999999
 31
0.0
  0
LINE
  5
9C33
330
9BF7
100
AcDbEntity
  8
1
  6
Continuous
100
AcDbLine
 10
381.8686429999999
 20
381.3316469999999
 30
0.0
 11
381.8686429999999
 21
335.3316469999999
 31
0.0
  0
LINE
  5
9C34
330
9BF7
100
AcDbEntity
  8
4
  6
CENTER
100
AcDbLine
 10
521.809343
 20
358.3316469999999
 30
0.0
 11
375.6436429999998
 21
358.3316469999999
 31
0.0
  0
LINE
  5
9C35
330
9BF7
100
AcDbEntity
  8
4
  6
CENTER
100
AcDbLine
 10
447.8686429999998
 20
394.6586469999999
 30
0.0
 11
447.8686429999998
 21
321.712647
 31
0.0
  0
LINE
  5
9C36
330
9BF7
100
AcDbEntity
  8
1
  6
Continuous
100
AcDbLine
 10
457.3686429999998
 20
383.3316469999999
 30
0.0
 11
455.8686429999998
 21
383.3316469999999
 31
0.0
  0
LINE
  5
9C37
330
9BF7
100
AcDbEntity
  8
1
  6
Continuous
100
AcDbLine
 10
457.3686429999998
 20
333.3316469999999
 30
0.0
 11
455.8686429999998
 21
333.3316469999999
 31
0.0
  0
LINE
  5
9C38
330
9BF7
100
AcDbEntity
  8
1
  6
Continuous
100
AcDbLine
 10
388.300643
 20
379.1316469999999
 30
0.0
 11
388.300643
 21
337.531647
 31
0.0
  0
LINE
  5
9C39
330
9BF7
100
AcDbEntity
  8
5
  6
PHANTOM
100
AcDbLine
 10
178.648643
 20
719.1216469999999
 30
0.0
 11
194.0936429999999
 21
692.3686469999997
 31
0.0
  0
LINE
  5
9C3A
330
9BF7
100
AcDbEntity
  8
5
  6
PHANTOM
100
AcDbLine
 10
183.424643
 20
716.848647
 30
0.0
 11
196.7556429999999
 21
693.757647
 31
0.0
  0
LINE
  5
9C3B
330
9BF7
100
AcDbEntity
  8
1
  6
Continuous
100
AcDbLine
 10
221.256643
 20
376.3316469999999
 30
0.0
 11
221.256643
 21
340.331647
 31
0.0
  0
LINE
  5
9C3C
330
9BF7
100
AcDbEntity
  8
1
  6
Continuous
100
AcDbLine
 10
176.756643
 20
378.3316469999999
 30
0.0
 11
176.756643
 21
338.331647
 31
0.0
  0
LINE
  5
9C3D
330
9BF7
100
AcDbEntity
  8
1
  6
Continuous
100
AcDbLine
 10
178.2566429999999
 20
379.8316469999999
 30
0.0
 11
217.756643
 21
379.8316469999999
 31
0.0
  0
LINE
  5
9C3E
330
9BF7
100
AcDbEntity
  8
1
  6
Continuous
100
AcDbLine
 10
178.2566429999999
 20
336.8316469999999
 30
0.0
 11
217.756643
 21
336.8316469999999
 31
0.0
  0
LINE
  5
9C3F
330
9BF7
100
AcDbEntity
  8
1
  6
Continuous
100
AcDbLine
 10
233.8866429999999
 20
378.5596469999999
 30
0.0
 11
233.8866429999999
 21
361.392647
 31
0.0
  0
LINE
  5
9C40
330
9BF7
100
AcDbEntity
  8
1
  6
Continuous
100
AcDbLine
 10
233.8866429999999
 20
354.3246470000001
 30
0.0
 11
233.8866429999999
 21
338.503647
 31
0.0
  0
LINE
  5
9C41
330
9BF7
100
AcDbEntity
  8
1
  6
Continuous
100
AcDbLine
 10
393.868643
 20
385.8316469999999
 30
0.0
 11
393.868643
 21
330.8316469999998
 31
0.0
  0
LINE
  5
9C42
330
9BF7
100
AcDbEntity
  8
1
  6
Continuous
100
AcDbLine
 10
455.8686429999998
 20
385.8316469999999
 30
0.0
 11
455.8686429999998
 21
330.8316469999998
 31
0.0
  0
LINE
  5
9C43
330
9BF7
100
AcDbEntity
  8
1
  6
Continuous
100
AcDbLine
 10
455.8686429999998
 20
385.8316469999999
 30
0.0
 11
393.868643
 21
385.8316469999999
 31
0.0
  0
LINE
  5
9C44
330
9BF7
100
AcDbEntity
  8
1
  6
Continuous
100
AcDbLine
 10
455.8686429999998
 20
330.8316469999998
 30
0.0
 11
393.868643
 21
330.8316469999998
 31
0.0
  0
LINE
  5
9C45
330
9BF7
100
AcDbEntity
  8
1
  6
Continuous
100
AcDbLine
 10
393.868643
 20
383.3316469999999
 30
0.0
 11
392.500643
 21
383.3316469999999
 31
0.0
  0
LINE
  5
9C46
330
9BF7
100
AcDbEntity
  8
1
  6
Continuous
100
AcDbLine
 10
393.868643
 20
333.3316469999999
 30
0.0
 11
392.500643
 21
333.3316469999999
 31
0.0
  0
LINE
  5
9C47
330
9BF7
100
AcDbEntity
  8
1
  6
Continuous
100
AcDbLine
 10
428.040643
 20
378.159647
 30
0.0
 11
428.547643
 21
378.3966469999999
 31
0.0
  0
LINE
  5
9C48
330
9BF7
100
AcDbEntity
  8
1
  6
Continuous
100
AcDbLine
 10
428.5466429999998
 20
378.3966469999999
 30
0.0
 11
429.4266429999998
 21
378.411647
 31
0.0
  0
LINE
  5
9C49
330
9BF7
100
AcDbEntity
  8
1
  6
Continuous
100
AcDbLine
 10
428.5466429999998
 20
379.2666469999999
 30
0.0
 11
429.4266429999998
 21
379.2516469999998
 31
0.0
  0
LINE
  5
9C4A
330
9BF7
100
AcDbEntity
  8
1
  6
Continuous
100
AcDbLine
 10
428.040643
 20
379.5036469999998
 30
0.0
 11
428.547643
 21
379.2666469999999
 31
0.0
  0
LINE
  5
9C4B
330
9BF7
100
AcDbEntity
  8
1
  6
Continuous
100
AcDbLine
 10
426.6976429999998
 20
379.5036469999998
 30
0.0
 11
426.933643
 21
380.0096469999999
 31
0.0
  0
LINE
  5
9C4C
330
9BF7
100
AcDbEntity
  8
1
  6
Continuous
100
AcDbLine
 10
426.933643
 20
380.0096469999999
 30
0.0
 11
426.9486429999998
 21
380.889647
 31
0.0
  0
LINE
  5
9C4D
330
9BF7
100
AcDbEntity
  8
1
  6
Continuous
100
AcDbLine
 10
427.8046429999998
 20
380.0096469999999
 30
0.0
 11
427.7886429999998
 21
380.889647
 31
0.0
  0
LINE
  5
9C4E
330
9BF7
100
AcDbEntity
  8
1
  6
Continuous
100
AcDbLine
 10
428.040643
 20
379.5036469999998
 30
0.0
 11
427.8046429999998
 21
380.0096469999999
 31
0.0
  0
LINE
  5
9C4F
330
9BF7
100
AcDbEntity
  8
1
  6
Continuous
100
AcDbLine
 10
426.6976429999998
 20
378.159647
 30
0.0
 11
426.1906429999998
 21
378.3966469999999
 31
0.0
  0
LINE
  5
9C50
330
9BF7
100
AcDbEntity
  8
1
  6
Continuous
100
AcDbLine
 10
426.1906429999998
 20
378.3966469999999
 30
0.0
 11
425.3116429999998
 21
378.411647
 31
0.0
  0
LINE
  5
9C51
330
9BF7
100
AcDbEntity
  8
1
  6
Continuous
100
AcDbLine
 10
426.1906429999998
 20
379.2666469999999
 30
0.0
 11
425.3116429999998
 21
379.2516469999998
 31
0.0
  0
LINE
  5
9C52
330
9BF7
100
AcDbEntity
  8
1
  6
Continuous
100
AcDbLine
 10
426.6976429999998
 20
379.5036469999998
 30
0.0
 11
426.1906429999998
 21
379.2666469999999
 31
0.0
  0
LINE
  5
9C53
330
9BF7
100
AcDbEntity
  8
1
  6
Continuous
100
AcDbLine
 10
428.040643
 20
378.159647
 30
0.0
 11
427.8046429999998
 21
377.6536469999999
 31
0.0
  0
LINE
  5
9C54
330
9BF7
100
AcDbEntity
  8
1
  6
Continuous
100
AcDbLine
 10
427.8036429999998
 20
377.6536469999999
 30
0.0
 11
427.7886429999998
 21
376.773647
 31
0.0
  0
LINE
  5
9C55
330
9BF7
100
AcDbEntity
  8
1
  6
Continuous
100
AcDbLine
 10
426.933643
 20
377.6536469999999
 30
0.0
 11
426.9486429999998
 21
376.773647
 31
0.0
  0
LINE
  5
9C56
330
9BF7
100
AcDbEntity
  8
1
  6
Continuous
100
AcDbLine
 10
426.6976429999998
 20
378.159647
 30
0.0
 11
426.933643
 21
377.6536469999999
 31
0.0
  0
LINE
  5
9C57
330
9BF7
100
AcDbEntity
  8
4
  6
CENTER
100
AcDbLine
 10
432.8686429999998
 20
378.8316469999998
 30
0.0
 11
421.8686429999998
 21
378.8316469999998
 31
0.0
  0
LINE
  5
9C58
330
9BF7
100
AcDbEntity
  8
4
  6
CENTER
100
AcDbLine
 10
427.3686429999998
 20
384.3316469999999
 30
0.0
 11
427.3686429999998
 21
373.3316469999999
 31
0.0
  0
LINE
  5
9C59
330
9BF7
100
AcDbEntity
  8
1
  6
Continuous
100
AcDbLine
 10
428.040643
 20
337.159647
 30
0.0
 11
428.547643
 21
337.3966469999999
 31
0.0
  0
LINE
  5
9C5A
330
9BF7
100
AcDbEntity
  8
1
  6
Continuous
100
AcDbLine
 10
428.5466429999998
 20
337.3966469999999
 30
0.0
 11
429.4266429999998
 21
337.411647
 31
0.0
  0
LINE
  5
9C5B
330
9BF7
100
AcDbEntity
  8
1
  6
Continuous
100
AcDbLine
 10
428.5466429999998
 20
338.2666469999999
 30
0.0
 11
429.4266429999998
 21
338.251647
 31
0.0
  0
LINE
  5
9C5C
330
9BF7
100
AcDbEntity
  8
1
  6
Continuous
100
AcDbLine
 10
428.040643
 20
338.503647
 30
0.0
 11
428.547643
 21
338.2666469999999
 31
0.0
  0
LINE
  5
9C5D
330
9BF7
100
AcDbEntity
  8
1
  6
Continuous
100
AcDbLine
 10
426.6976429999998
 20
338.503647
 30
0.0
 11
426.933643
 21
339.0096469999999
 31
0.0
  0
LINE
  5
9C5E
330
9BF7
100
AcDbEntity
  8
1
  6
Continuous
100
AcDbLine
 10
426.933643
 20
339.0096469999999
 30
0.0
 11
426.9486429999998
 21
339.889647
 31
0.0
  0
LINE
  5
9C5F
330
9BF7
100
AcDbEntity
  8
1
  6
Continuous
100
AcDbLine
 10
427.8046429999998
 20
339.0096469999999
 30
0.0
 11
427.7886429999998
 21
339.889647
 31
0.0
  0
LINE
  5
9C60
330
9BF7
100
AcDbEntity
  8
1
  6
Continuous
100
AcDbLine
 10
428.040643
 20
338.503647
 30
0.0
 11
427.8036429999998
 21
339.0096469999999
 31
0.0
  0
LINE
  5
9C61
330
9BF7
100
AcDbEntity
  8
1
  6
Continuous
100
AcDbLine
 10
426.6976429999998
 20
337.159647
 30
0.0
 11
426.1906429999998
 21
337.3966469999999
 31
0.0
  0
LINE
  5
9C62
330
9BF7
100
AcDbEntity
  8
1
  6
Continuous
100
AcDbLine
 10
426.1906429999998
 20
337.3966469999999
 30
0.0
 11
425.3116429999998
 21
337.411647
 31
0.0
  0
LINE
  5
9C63
330
9BF7
100
AcDbEntity
  8
1
  6
Continuous
100
AcDbLine
 10
426.1906429999998
 20
338.2666469999999
 30
0.0
 11
425.3116429999998
 21
338.251647
 31
0.0
  0
LINE
  5
9C64
330
9BF7
100
AcDbEntity
  8
1
  6
Continuous
100
AcDbLine
 10
426.6976429999998
 20
338.503647
 30
0.0
 11
426.1906429999998
 21
338.2666469999999
 31
0.0
  0
LINE
  5
9C65
330
9BF7
100
AcDbEntity
  8
1
  6
Continuous
100
AcDbLine
 10
428.040643
 20
337.159647
 30
0.0
 11
427.8046429999998
 21
336.6536469999999
 31
0.0
  0
LINE
  5
9C66
330
9BF7
100
AcDbEntity
  8
1
  6
Continuous
100
AcDbLine
 10
427.8036429999998
 20
336.6536469999999
 30
0.0
 11
427.7886429999998
 21
335.7736469999999
 31
0.0
  0
LINE
  5
9C67
330
9BF7
100
AcDbEntity
  8
1
  6
Continuous
100
AcDbLine
 10
426.933643
 20
336.6536469999999
 30
0.0
 11
426.9486429999998
 21
335.7736469999999
 31
0.0
  0
LINE
  5
9C68
330
9BF7
100
AcDbEntity
  8
1
  6
Continuous
100
AcDbLine
 10
426.6976429999998
 20
337.159647
 30
0.0
 11
426.933643
 21
336.6536469999999
 31
0.0
  0
LINE
  5
9C69
330
9BF7
100
AcDbEntity
  8
4
  6
CENTER
100
AcDbLine
 10
432.8686429999998
 20
337.8316469999999
 30
0.0
 11
421.8686429999998
 21
337.8316469999999
 31
0.0
  0
LINE
  5
9C6A
330
9BF7
100
AcDbEntity
  8
4
  6
CENTER
100
AcDbLine
 10
427.3686429999998
 20
343.3316469999998
 30
0.0
 11
427.3686429999998
 21
332.3316469999999
 31
0.0
  0
LINE
  5
9C6B
330
9BF7
100
AcDbEntity
  8
1
  6
Continuous
100
AcDbLine
 10
329.9016429999999
 20
330.8316469999998
 30
0.0
 11
346.9016429999999
 21
330.8316469999998
 31
0.0
  0
LINE
  5
9C6C
330
9BF7
100
AcDbEntity
  8
1
  6
Continuous
100
AcDbLine
 10
329.9016429999999
 20
385.8316469999999
 30
0.0
 11
346.9016429999999
 21
385.8316469999999
 31
0.0
  0
LINE
  5
9C6D
330
9BF7
100
AcDbEntity
  8
1
  6
Continuous
100
AcDbLine
 10
329.9016429999999
 20
385.8316469999999
 30
0.0
 11
329.9016429999999
 21
384.6316470000001
 31
0.0
  0
LINE
  5
9C6E
330
9BF7
100
AcDbEntity
  8
1
  6
Continuous
100
AcDbLine
 10
348.101643
 20
384.6316470000001
 30
0.0
 11
348.101643
 21
332.031647
 31
0.0
  0
LINE
  5
9C6F
330
9BF7
100
AcDbEntity
  8
1
  6
Continuous
100
AcDbLine
 10
329.9016429999999
 20
384.6316470000001
 30
0.0
 11
346.9016429999999
 21
384.6316470000001
 31
0.0
  0
LINE
  5
9C70
330
9BF7
100
AcDbEntity
  8
1
  6
Continuous
100
AcDbLine
 10
329.9016429999999
 20
332.031647
 30
0.0
 11
346.9016429999999
 21
332.031647
 31
0.0
  0
LINE
  5
9C71
330
9BF7
100
AcDbEntity
  8
1
  6
Continuous
100
AcDbLine
 10
346.9016429999999
 20
384.6316470000001
 30
0.0
 11
346.9016429999999
 21
332.031647
 31
0.0
  0
LINE
  5
9C72
330
9BF7
100
AcDbEntity
  8
1
  6
Continuous
100
AcDbLine
 10
329.9016429999999
 20
332.031647
 30
0.0
 11
329.9016429999999
 21
330.8316469999998
 31
0.0
  0
LINE
  5
9C73
330
9BF7
100
AcDbEntity
  8
4
  6
CENTER
100
AcDbLine
 10
317.0626429999999
 20
337.8316469999999
 30
0.0
 11
327.062643
 21
337.8316469999999
 31
0.0
  0
LINE
  5
9C74
330
9BF7
100
AcDbEntity
  8
4
  6
CENTER
100
AcDbLine
 10
317.0626429999999
 20
378.8316469999998
 30
0.0
 11
327.062643
 21
378.8316469999998
 31
0.0
  0
LINE
  5
9C75
330
9BF7
100
AcDbEntity
  8
4
  6
CENTER
100
AcDbLine
 10
341.9016429999999
 20
337.8316469999999
 30
0.0
 11
354.7016429999998
 21
337.8316469999999
 31
0.0
  0
LINE
  5
9C76
330
9BF7
100
AcDbEntity
  8
4
  6
CENTER
100
AcDbLine
 10
341.9016429999999
 20
378.8316469999998
 30
0.0
 11
354.7016429999998
 21
378.8316469999998
 31
0.0
  0
LINE
  5
9C77
330
9BF7
100
AcDbEntity
  8
1
  6
Continuous
100
AcDbLine
 10
236.256643
 20
752.733647
 30
0.0
 11
236.256643
 21
769.9336469999997
 31
0.0
  0
LINE
  5
9C78
330
9BF7
100
AcDbEntity
  8
1
  6
Continuous
100
AcDbLine
 10
174.256643
 20
752.733647
 30
0.0
 11
174.256643
 21
769.9336469999997
 31
0.0
  0
LINE
  5
9C79
330
9BF7
100
AcDbEntity
  8
1
  6
Continuous
100
AcDbLine
 10
236.256643
 20
769.9336469999997
 30
0.0
 11
174.256643
 21
769.9336469999997
 31
0.0
  0
LINE
  5
9C7A
330
9BF7
100
AcDbEntity
  8
1
  6
Continuous
100
AcDbLine
 10
235.256643
 20
751.733647
 30
0.0
 11
216.256643
 21
751.733647
 31
0.0
  0
LINE
  5
9C7B
330
9BF7
100
AcDbEntity
  8
4
  6
CENTER
100
AcDbLine
 10
202.7566429999999
 20
764.9336469999997
 30
0.0
 11
202.7566429999999
 21
777.1396469999999
 31
0.0
  0
LINE
  5
9C7C
330
9BF7
100
AcDbEntity
  8
1
  6
Continuous
100
AcDbLine
 10
215.256643
 20
752.733647
 30
0.0
 11
215.256643
 21
762.233647
 31
0.0
  0
LINE
  5
9C7D
330
9BF7
100
AcDbEntity
  8
1
  6
Continuous
100
AcDbLine
 10
207.256643
 20
752.733647
 30
0.0
 11
207.256643
 21
762.233647
 31
0.0
  0
LINE
  5
9C7E
330
9BF7
100
AcDbEntity
  8
1
  6
Continuous
100
AcDbLine
 10
206.2566429999999
 20
751.733647
 30
0.0
 11
175.2566429999999
 21
751.733647
 31
0.0
  0
LINE
  5
9C7F
330
9BF7
100
AcDbEntity
  8
1
  6
Continuous
100
AcDbLine
 10
349.101643
 20
341.6316469999999
 30
0.0
 11
349.101643
 21
334.031647
 31
0.0
  0
LINE
  5
9C80
330
9BF7
100
AcDbEntity
  8
1
  6
Continuous
100
AcDbLine
 10
348.101643
 20
341.6316469999999
 30
0.0
 11
349.101643
 21
341.6316469999999
 31
0.0
  0
LINE
  5
9C81
330
9BF7
100
AcDbEntity
  8
1
  6
Continuous
100
AcDbLine
 10
348.101643
 20
334.031647
 30
0.0
 11
349.101643
 21
334.031647
 31
0.0
  0
LINE
  5
9C82
330
9BF7
100
AcDbEntity
  8
1
  6
Continuous
100
AcDbLine
 10
348.101643
 20
338.047647
 30
0.0
 11
349.101643
 21
338.315647
 31
0.0
  0
LINE
  5
9C83
330
9BF7
100
AcDbEntity
  8
1
  6
Continuous
100
AcDbLine
 10
348.101643
 20
337.3476469999999
 30
0.0
 11
349.101643
 21
337.615647
 31
0.0
  0
LINE
  5
9C84
330
9BF7
100
AcDbEntity
  8
1
  6
Continuous
100
AcDbLine
 10
350.2216429999998
 20
334.4296469999999
 30
0.0
 11
349.101643
 21
334.3316469999999
 31
0.0
  0
LINE
  5
9C85
330
9BF7
100
AcDbEntity
  8
1
  6
Continuous
100
AcDbLine
 10
350.2216429999998
 20
341.233647
 30
0.0
 11
349.101643
 21
341.3316469999998
 31
0.0
  0
LINE
  5
9C86
330
9BF7
100
AcDbEntity
  8
1
  6
Continuous
100
AcDbLine
 10
206.5566429999999
 20
770.9336469999997
 30
0.0
 11
198.9566429999999
 21
770.9336469999997
 31
0.0
  0
LINE
  5
9C87
330
9BF7
100
AcDbEntity
  8
1
  6
Continuous
100
AcDbLine
 10
206.5566429999999
 20
769.9336469999997
 30
0.0
 11
206.5566429999999
 21
770.9336469999997
 31
0.0
  0
LINE
  5
9C88
330
9BF7
100
AcDbEntity
  8
1
  6
Continuous
100
AcDbLine
 10
198.9566429999999
 20
769.9336469999997
 30
0.0
 11
198.9566429999999
 21
770.9336469999997
 31
0.0
  0
LINE
  5
9C89
330
9BF7
100
AcDbEntity
  8
1
  6
Continuous
100
AcDbLine
 10
202.5406429999999
 20
769.9336469999997
 30
0.0
 11
202.272643
 21
770.9336469999997
 31
0.0
  0
LINE
  5
9C8A
330
9BF7
100
AcDbEntity
  8
1
  6
Continuous
100
AcDbLine
 10
203.2406429999999
 20
769.9336469999997
 30
0.0
 11
202.972643
 21
770.9336469999997
 31
0.0
  0
LINE
  5
9C8B
330
9BF7
100
AcDbEntity
  8
1
  6
Continuous
100
AcDbLine
 10
199.3546429999999
 20
772.052647
 30
0.0
 11
199.256643
 21
770.9336469999997
 31
0.0
  0
LINE
  5
9C8C
330
9BF7
100
AcDbEntity
  8
1
  6
Continuous
100
AcDbLine
 10
206.1586429999999
 20
772.052647
 30
0.0
 11
206.2566429999999
 21
770.9336469999997
 31
0.0
  0
LINE
  5
9C8D
330
9BF7
100
AcDbEntity
  8
1
  6
Continuous
100
AcDbLine
 10
349.101643
 20
382.631647
 30
0.0
 11
349.101643
 21
375.031647
 31
0.0
  0
LINE
  5
9C8E
330
9BF7
100
AcDbEntity
  8
1
  6
Continuous
100
AcDbLine
 10
348.101643
 20
382.631647
 30
0.0
 11
349.101643
 21
382.631647
 31
0.0
  0
LINE
  5
9C8F
330
9BF7
100
AcDbEntity
  8
1
  6
Continuous
100
AcDbLine
 10
348.101643
 20
375.031647
 30
0.0
 11
349.101643
 21
375.031647
 31
0.0
  0
LINE
  5
9C90
330
9BF7
100
AcDbEntity
  8
1
  6
Continuous
100
AcDbLine
 10
348.101643
 20
379.0476469999999
 30
0.0
 11
349.101643
 21
379.315647
 31
0.0
  0
LINE
  5
9C91
330
9BF7
100
AcDbEntity
  8
1
  6
Continuous
100
AcDbLine
 10
348.101643
 20
378.347647
 30
0.0
 11
349.101643
 21
378.615647
 31
0.0
  0
LINE
  5
9C92
330
9BF7
100
AcDbEntity
  8
1
  6
Continuous
100
AcDbLine
 10
350.2216429999998
 20
375.4296469999999
 30
0.0
 11
349.101643
 21
375.3316469999999
 31
0.0
  0
LINE
  5
9C93
330
9BF7
100
AcDbEntity
  8
1
  6
Continuous
100
AcDbLine
 10
350.2216429999998
 20
382.233647
 30
0.0
 11
349.101643
 21
382.3316469999999
 31
0.0
  0
LINE
  5
9C94
330
9BF7
100
AcDbEntity
  8
1
  6
Continuous
100
AcDbLine
 10
37.611143
 20
330.8316469999998
 30
0.0
 11
20.61114299999999
 21
330.8316469999998
 31
0.0
  0
LINE
  5
9C95
330
9BF7
100
AcDbEntity
  8
1
  6
Continuous
100
AcDbLine
 10
37.611143
 20
385.8316469999999
 30
0.0
 11
20.61114299999999
 21
385.8316469999999
 31
0.0
  0
LINE
  5
9C96
330
9BF7
100
AcDbEntity
  8
1
  6
Continuous
100
AcDbLine
 10
37.611143
 20
385.8316469999999
 30
0.0
 11
37.611143
 21
384.6316470000001
 31
0.0
  0
LINE
  5
9C97
330
9BF7
100
AcDbEntity
  8
1
  6
Continuous
100
AcDbLine
 10
19.41114299999998
 20
384.6316470000001
 30
0.0
 11
19.41114299999998
 21
332.031647
 31
0.0
  0
LINE
  5
9C98
330
9BF7
100
AcDbEntity
  8
1
  6
Continuous
100
AcDbLine
 10
37.611143
 20
384.6316470000001
 30
0.0
 11
20.61114299999999
 21
384.6316470000001
 31
0.0
  0
LINE
  5
9C99
330
9BF7
100
AcDbEntity
  8
1
  6
Continuous
100
AcDbLine
 10
37.611143
 20
332.031647
 30
0.0
 11
20.61114299999999
 21
332.031647
 31
0.0
  0
LINE
  5
9C9A
330
9BF7
100
AcDbEntity
  8
1
  6
Continuous
100
AcDbLine
 10
20.61114299999999
 20
384.6316470000001
 30
0.0
 11
20.61114299999999
 21
332.031647
 31
0.0
  0
LINE
  5
9C9B
330
9BF7
100
AcDbEntity
  8
1
  6
Continuous
100
AcDbLine
 10
37.611143
 20
332.031647
 30
0.0
 11
37.611143
 21
330.8316469999998
 31
0.0
  0
LINE
  5
9C9C
330
9BF7
100
AcDbEntity
  8
1
  6
Continuous
100
AcDbLine
 10
18.411143
 20
341.6316469999999
 30
0.0
 11
18.411143
 21
334.031647
 31
0.0
  0
LINE
  5
9C9D
330
9BF7
100
AcDbEntity
  8
1
  6
Continuous
100
AcDbLine
 10
19.41114299999998
 20
341.6316469999999
 30
0.0
 11
18.411143
 21
341.6316469999999
 31
0.0
  0
LINE
  5
9C9E
330
9BF7
100
AcDbEntity
  8
1
  6
Continuous
100
AcDbLine
 10
19.41114299999998
 20
334.031647
 30
0.0
 11
18.411143
 21
334.031647
 31
0.0
  0
LINE
  5
9C9F
330
9BF7
100
AcDbEntity
  8
1
  6
Continuous
100
AcDbLine
 10
18.41124299999998
 20
338.047647
 30
0.0
 11
19.411243
 21
338.315647
 31
0.0
  0
LINE
  5
9CA0
330
9BF7
100
AcDbEntity
  8
1
  6
Continuous
100
AcDbLine
 10
18.41124299999998
 20
337.3476469999999
 30
0.0
 11
19.411243
 21
337.615647
 31
0.0
  0
LINE
  5
9CA1
330
9BF7
100
AcDbEntity
  8
1
  6
Continuous
100
AcDbLine
 10
17.291743
 20
334.4296469999999
 30
0.0
 11
18.411143
 21
334.3316469999999
 31
0.0
  0
LINE
  5
9CA2
330
9BF7
100
AcDbEntity
  8
1
  6
Continuous
100
AcDbLine
 10
17.291743
 20
341.233647
 30
0.0
 11
18.41124299999998
 21
341.3316469999998
 31
0.0
  0
LINE
  5
9CA3
330
9BF7
100
AcDbEntity
  8
1
  6
Continuous
100
AcDbLine
 10
18.411143
 20
382.631647
 30
0.0
 11
18.411143
 21
375.031647
 31
0.0
  0
LINE
  5
9CA4
330
9BF7
100
AcDbEntity
  8
1
  6
Continuous
100
AcDbLine
 10
19.41114299999998
 20
382.631647
 30
0.0
 11
18.411143
 21
382.631647
 31
0.0
  0
LINE
  5
9CA5
330
9BF7
100
AcDbEntity
  8
1
  6
Continuous
100
AcDbLine
 10
19.41114299999998
 20
375.031647
 30
0.0
 11
18.411143
 21
375.031647
 31
0.0
  0
LINE
  5
9CA6
330
9BF7
100
AcDbEntity
  8
1
  6
Continuous
100
AcDbLine
 10
18.41124299999998
 20
379.0476469999999
 30
0.0
 11
19.411243
 21
379.315647
 31
0.0
  0
LINE
  5
9CA7
330
9BF7
100
AcDbEntity
  8
1
  6
Continuous
100
AcDbLine
 10
18.411143
 20
378.347647
 30
0.0
 11
19.41114299999998
 21
378.615647
 31
0.0
  0
LINE
  5
9CA8
330
9BF7
100
AcDbEntity
  8
1
  6
Continuous
100
AcDbLine
 10
17.291743
 20
375.4296469999999
 30
0.0
 11
18.411143
 21
375.3316469999999
 31
0.0
  0
LINE
  5
9CA9
330
9BF7
100
AcDbEntity
  8
1
  6
Continuous
100
AcDbLine
 10
17.291743
 20
382.233647
 30
0.0
 11
18.41124299999998
 21
382.3316469999999
 31
0.0
  0
LINE
  5
9CAA
330
9BF7
100
AcDbEntity
  8
4
  6
CENTER
100
AcDbLine
 10
25.61114299999999
 20
337.8316469999999
 30
0.0
 11
12.811143
 21
337.8316469999999
 31
0.0
  0
LINE
  5
9CAB
330
9BF7
100
AcDbEntity
  8
4
  6
CENTER
100
AcDbLine
 10
25.61114299999999
 20
378.8316469999998
 30
0.0
 11
12.811143
 21
378.8316469999998
 31
0.0
  0
LINE
  5
9CAC
330
9BF7
100
AcDbEntity
  8
1
  6
Continuous
100
AcDbLine
 10
455.8686429999998
 20
329.8316469999999
 30
0.0
 11
420.8186429999998
 21
329.8316469999999
 31
0.0
  0
LINE
  5
9CAD
330
9BF7
100
AcDbEntity
  8
1
  6
Continuous
100
AcDbLine
 10
384.368643
 20
380.531647
 30
0.0
 11
384.368643
 21
336.1316469999999
 31
0.0
  0
LINE
  5
9CAE
330
9BF7
100
AcDbEntity
  8
1
  6
Continuous
100
AcDbLine
 10
455.8686429999998
 20
386.8316469999999
 30
0.0
 11
420.8186429999998
 21
386.8316469999999
 31
0.0
  0
LINE
  5
9CAF
330
9BF7
100
AcDbEntity
  8
1
  6
Continuous
100
AcDbLine
 10
65.45054300000001
 20
384.3316469999999
 30
0.0
 11
65.45054300000001
 21
332.3316469999999
 31
0.0
  0
LINE
  5
9CB0
330
9BF7
100
AcDbEntity
  8
1
  6
Continuous
100
AcDbLine
 10
62.450543
 20
389.3316469999999
 30
0.0
 11
62.450543
 21
327.3316469999999
 31
0.0
  0
LINE
  5
9CB1
330
9BF7
100
AcDbEntity
  8
4
  6
CENTER
100
AcDbLine
 10
71.174943
 20
358.3316469999999
 30
0.0
 11
38.816043
 21
358.3316469999999
 31
0.0
  0
LINE
  5
9CB2
330
9BF7
100
AcDbEntity
  8
4
  6
CENTER
100
AcDbLine
 10
59.200543
 20
394.290647
 30
0.0
 11
59.200543
 21
323.5526469999999
 31
0.0
  0
LINE
  5
9CB3
330
9BF7
100
AcDbEntity
  8
1
  6
Continuous
100
AcDbLine
 10
45.45054299999999
 20
383.3316469999999
 30
0.0
 11
45.45054299999999
 21
375.563647
 31
0.0
  0
LINE
  5
9CB4
330
9BF7
100
AcDbEntity
  8
1
  6
Continuous
100
AcDbLine
 10
62.450543
 20
333.3316469999999
 30
0.0
 11
45.45054299999999
 21
333.3316469999999
 31
0.0
  0
LINE
  5
9CB5
330
9BF7
100
AcDbEntity
  8
1
  6
Continuous
100
AcDbLine
 10
62.450543
 20
383.3316469999999
 30
0.0
 11
45.45054299999999
 21
383.3316469999999
 31
0.0
  0
LINE
  5
9CB6
330
9BF7
100
AcDbEntity
  8
4
  6
CENTER
100
AcDbLine
 10
50.450543
 20
337.8316469999999
 30
0.0
 11
40.45054299999999
 21
337.8316469999999
 31
0.0
  0
LINE
  5
9CB7
330
9BF7
100
AcDbEntity
  8
4
  6
CENTER
100
AcDbLine
 10
50.450543
 20
378.8316469999998
 30
0.0
 11
40.45054299999999
 21
378.8316469999998
 31
0.0
  0
LINE
  5
9CB8
330
9BF7
100
AcDbEntity
  8
4
  6
CENTER
100
AcDbLine
 10
316.5626429999999
 20
39.92044699999999
 30
0.0
 11
316.5626429999999
 21
675.3896469999999
 31
0.0
  0
LINE
  5
9CB9
330
9BF7
100
AcDbEntity
  8
1
  6
Continuous
100
AcDbLine
 10
310.0626429999999
 20
56.331647
 30
0.0
 11
323.062643
 21
56.331647
 31
0.0
  0
LINE
  5
9CBA
330
9BF7
100
AcDbEntity
  8
1
  6
Continuous
100
AcDbLine
 10
310.0626429999999
 20
61.331647
 30
0.0
 11
323.062643
 21
61.331647
 31
0.0
  0
LINE
  5
9CBB
330
9BF7
100
AcDbEntity
  8
1
  6
Continuous
100
AcDbLine
 10
310.0626429999999
 20
86.331647
 30
0.0
 11
323.062643
 21
86.331647
 31
0.0
  0
LINE
  5
9CBC
330
9BF7
100
AcDbEntity
  8
1
  6
Continuous
100
AcDbLine
 10
310.0626429999999
 20
56.331647
 30
0.0
 11
310.0626429999999
 21
86.331647
 31
0.0
  0
LINE
  5
9CBD
330
9BF7
100
AcDbEntity
  8
1
  6
Continuous
100
AcDbLine
 10
323.062643
 20
56.331647
 30
0.0
 11
323.062643
 21
86.331647
 31
0.0
  0
LINE
  5
9CBE
330
9BF7
100
AcDbEntity
  8
1
  6
Continuous
100
AcDbLine
 10
312.0626429999999
 20
46.83164699999998
 30
0.0
 11
312.0626429999999
 21
56.331647
 31
0.0
  0
LINE
  5
9CBF
330
9BF7
100
AcDbEntity
  8
1
  6
Continuous
100
AcDbLine
 10
321.062643
 20
54.624547
 30
0.0
 11
321.062643
 21
56.331647
 31
0.0
  0
LINE
  5
9CC0
330
9BF7
100
AcDbEntity
  8
1
  6
Continuous
100
AcDbLine
 10
312.916643
 20
46.478147
 30
0.0
 11
321.062643
 21
54.624547
 31
0.0
  0
LINE
  5
9CC1
330
9BF7
100
AcDbEntity
  8
1
  6
Continuous
100
AcDbLine
 10
457.3686429999998
 20
362.0816469999998
 30
0.0
 11
455.8686429999998
 21
362.0816469999998
 31
0.0
  0
LINE
  5
9CC2
330
9BF7
100
AcDbEntity
  8
1
  6
Continuous
100
AcDbLine
 10
457.3686429999998
 20
354.5816469999999
 30
0.0
 11
455.8686429999998
 21
354.5816469999999
 31
0.0
  0
LINE
  5
9CC3
330
9BF7
100
AcDbEntity
  8
1
  6
Continuous
100
AcDbLine
 10
459.3686429999998
 20
383.3316469999999
 30
0.0
 11
459.3686429999998
 21
362.373147
 31
0.0
  0
LINE
  5
9CC4
330
9BF7
100
AcDbEntity
  8
1
  6
Continuous
100
AcDbLine
 10
461.8686429999998
 20
383.8316469999999
 30
0.0
 11
461.8686429999998
 21
359.8316469999998
 31
0.0
  0
LINE
  5
9CC5
330
9BF7
100
AcDbEntity
  8
1
  6
Continuous
100
AcDbLine
 10
193.8066429999999
 20
738.1216469999997
 30
0.0
 11
193.8066429999999
 21
729.1216469999997
 31
0.0
  0
LINE
  5
9CC6
330
9BF7
100
AcDbEntity
  8
1
  6
Continuous
100
AcDbLine
 10
228.806643
 20
738.1216469999997
 30
0.0
 11
228.806643
 21
729.1216469999997
 31
0.0
  0
LINE
  5
9CC7
330
9BF7
100
AcDbEntity
  8
1
  6
Continuous
100
AcDbLine
 10
195.8066429999998
 20
740.1216469999996
 30
0.0
 11
226.806643
 21
740.1216469999996
 31
0.0
  0
LINE
  5
9CC8
330
9BF7
100
AcDbEntity
  8
1
  6
Continuous
100
AcDbLine
 10
195.8066429999998
 20
727.1216469999997
 30
0.0
 11
226.806643
 21
727.1216469999997
 31
0.0
  0
LINE
  5
9CC9
330
9BF7
100
AcDbEntity
  8
4
  6
CENTER
100
AcDbLine
 10
211.3066429999999
 20
743.5116469999996
 30
0.0
 11
211.3066429999999
 21
724.2116469999999
 31
0.0
  0
LINE
  5
9CCA
330
9BF7
100
AcDbEntity
  8
1
  6
Continuous
100
AcDbLine
 10
207.8066429999998
 20
729.1216469999997
 30
0.0
 11
214.806643
 21
729.1216469999997
 31
0.0
  0
LINE
  5
9CCB
330
9BF7
100
AcDbEntity
  8
1
  6
Continuous
100
AcDbLine
 10
207.8066429999998
 20
738.1216469999997
 30
0.0
 11
214.806643
 21
738.1216469999997
 31
0.0
  0
LINE
  5
9CCC
330
9BF7
100
AcDbEntity
  8
1
  6
Continuous
100
AcDbLine
 10
215.806643
 20
737.1216469999997
 30
0.0
 11
215.806643
 21
730.1216469999997
 31
0.0
  0
LINE
  5
9CCD
330
9BF7
100
AcDbEntity
  8
1
  6
Continuous
100
AcDbLine
 10
206.806643
 20
737.1216469999997
 30
0.0
 11
206.806643
 21
730.1216469999997
 31
0.0
  0
LINE
  5
9CCE
330
9BF7
100
AcDbEntity
  8
4
  6
CENTER
100
AcDbLine
 10
223.8066429999999
 20
729.6216469999997
 30
0.0
 11
223.8066429999999
 21
737.6216469999997
 31
0.0
  0
LINE
  5
9CCF
330
9BF7
100
AcDbEntity
  8
4
  6
CENTER
100
AcDbLine
 10
198.8066429999999
 20
729.6216469999997
 30
0.0
 11
198.8066429999999
 21
737.6216469999997
 31
0.0
  0
LINE
  5
9CD0
330
9BF7
100
AcDbEntity
  8
1
  6
Continuous
100
AcDbLine
 10
206.7066429999999
 20
729.021647
 30
0.0
 11
215.906643
 21
729.021647
 31
0.0
  0
LINE
  5
9CD1
330
9BF7
100
AcDbEntity
  8
1
  6
Continuous
100
AcDbLine
 10
206.7066429999999
 20
738.2216469999997
 30
0.0
 11
215.906643
 21
738.2216469999997
 31
0.0
  0
LINE
  5
9CD2
330
9BF7
100
AcDbEntity
  8
1
  6
Continuous
100
AcDbLine
 10
206.7066429999999
 20
738.2216469999997
 30
0.0
 11
206.7066429999999
 21
729.021647
 31
0.0
  0
LINE
  5
9CD3
330
9BF7
100
AcDbEntity
  8
1
  6
Continuous
100
AcDbLine
 10
215.906643
 20
738.2216469999997
 30
0.0
 11
215.906643
 21
729.021647
 31
0.0
  0
LINE
  5
9CD4
330
9BF7
100
AcDbEntity
  8
5
  6
PHANTOM
100
AcDbLine
 10
207.8066429999998
 20
52.831647
 30
0.0
 11
214.806643
 21
52.831647
 31
0.0
  0
LINE
  5
9CD5
330
9BF7
100
AcDbEntity
  8
5
  6
PHANTOM
100
AcDbLine
 10
193.8066429999999
 20
46.331647
 30
0.0
 11
228.806643
 21
46.331647
 31
0.0
  0
LINE
  5
9CD6
330
9BF7
100
AcDbEntity
  8
1
  6
Continuous
100
AcDbLine
 10
193.8066429999999
 20
61.331647
 30
0.0
 11
203.8066429999998
 21
61.331647
 31
0.0
  0
LINE
  5
9CD7
330
9BF7
100
AcDbEntity
  8
1
  6
Continuous
100
AcDbLine
 10
205.8066429999998
 20
86.331647
 30
0.0
 11
216.806643
 21
86.331647
 31
0.0
  0
LINE
  5
9CD8
330
9BF7
100
AcDbEntity
  8
4
  6
CENTER
100
AcDbLine
 10
211.3066429999999
 20
31.695312
 30
0.0
 11
211.3066429999999
 21
684.237942
 31
0.0
  0
LINE
  5
9CD9
330
9BF7
100
AcDbEntity
  8
5
  6
PHANTOM
100
AcDbLine
 10
228.806643
 20
46.331647
 30
0.0
 11
228.806643
 21
51.331647
 31
0.0
  0
LINE
  5
9CDA
330
9BF7
100
AcDbEntity
  8
5
  6
PHANTOM
100
AcDbLine
 10
193.8066429999999
 20
46.331647
 30
0.0
 11
193.8066429999999
 21
51.331647
 31
0.0
  0
LINE
  5
9CDB
330
9BF7
100
AcDbEntity
  8
1
  6
Continuous
100
AcDbLine
 10
217.806643
 20
62.33164699999999
 30
0.0
 11
217.806643
 21
85.331647
 31
0.0
  0
LINE
  5
9CDC
330
9BF7
100
AcDbEntity
  8
1
  6
Continuous
100
AcDbLine
 10
204.8066429999999
 20
62.33164699999999
 30
0.0
 11
204.8066429999999
 21
85.331647
 31
0.0
  0
LINE
  5
9CDD
330
9BF7
100
AcDbEntity
  8
1
  6
Continuous
100
AcDbLine
 10
218.806643
 20
61.331647
 30
0.0
 11
228.806643
 21
61.331647
 31
0.0
  0
LINE
  5
9CDE
330
9BF7
100
AcDbEntity
  8
4
  6
CENTER
100
AcDbLine
 10
198.8066429999999
 20
52.78154699999999
 30
0.0
 11
198.8066429999999
 21
64.702747
 31
0.0
  0
LINE
  5
9CDF
330
9BF7
100
AcDbEntity
  8
4
  6
CENTER
100
AcDbLine
 10
223.8066429999999
 20
52.78154699999999
 30
0.0
 11
223.8066429999999
 21
64.702747
 31
0.0
  0
LINE
  5
9CE0
330
9BF7
100
AcDbEntity
  8
1
  6
Continuous
100
AcDbLine
 10
207.8066429999998
 20
670.3316469999997
 30
0.0
 11
214.806643
 21
670.3316469999997
 31
0.0
  0
LINE
  5
9CE1
330
9BF7
100
AcDbEntity
  8
1
  6
Continuous
100
AcDbLine
 10
206.806643
 20
669.331647
 30
0.0
 11
206.806643
 21
660.331647
 31
0.0
  0
LINE
  5
9CE2
330
9BF7
100
AcDbEntity
  8
1
  6
Continuous
100
AcDbLine
 10
215.806643
 20
669.331647
 30
0.0
 11
215.806643
 21
660.331647
 31
0.0
  0
LINE
  5
9CE3
330
9BF7
100
AcDbEntity
  8
1
  6
Continuous
100
AcDbLine
 10
193.8066429999999
 20
660.331647
 30
0.0
 11
228.806643
 21
660.331647
 31
0.0
  0
LINE
  5
9CE4
330
9BF7
100
AcDbEntity
  8
1
  6
Continuous
100
AcDbLine
 10
193.8066429999999
 20
655.3316469999997
 30
0.0
 11
203.8066429999998
 21
655.3316469999997
 31
0.0
  0
LINE
  5
9CE5
330
9BF7
100
AcDbEntity
  8
1
  6
Continuous
100
AcDbLine
 10
205.8066429999998
 20
630.3316469999997
 30
0.0
 11
216.806643
 21
630.3316469999997
 31
0.0
  0
LINE
  5
9CE6
330
9BF7
100
AcDbEntity
  8
1
  6
Continuous
100
AcDbLine
 10
228.806643
 20
660.331647
 30
0.0
 11
228.806643
 21
655.3316469999997
 31
0.0
  0
LINE
  5
9CE7
330
9BF7
100
AcDbEntity
  8
1
  6
Continuous
100
AcDbLine
 10
193.8066429999999
 20
660.331647
 30
0.0
 11
193.8066429999999
 21
655.3316469999997
 31
0.0
  0
LINE
  5
9CE8
330
9BF7
100
AcDbEntity
  8
1
  6
Continuous
100
AcDbLine
 10
217.806643
 20
654.3316469999997
 30
0.0
 11
217.806643
 21
631.331647
 31
0.0
  0
LINE
  5
9CE9
330
9BF7
100
AcDbEntity
  8
1
  6
Continuous
100
AcDbLine
 10
204.8066429999999
 20
654.3316469999997
 30
0.0
 11
204.8066429999999
 21
631.331647
 31
0.0
  0
LINE
  5
9CEA
330
9BF7
100
AcDbEntity
  8
1
  6
Continuous
100
AcDbLine
 10
218.806643
 20
655.3316469999997
 30
0.0
 11
228.806643
 21
655.3316469999997
 31
0.0
  0
LINE
  5
9CEB
330
9BF7
100
AcDbEntity
  8
4
  6
CENTER
100
AcDbLine
 10
198.8066429999999
 20
663.8816469999998
 30
0.0
 11
198.8066429999999
 21
651.960647
 31
0.0
  0
LINE
  5
9CEC
330
9BF7
100
AcDbEntity
  8
4
  6
CENTER
100
AcDbLine
 10
223.8066429999999
 20
663.8816469999998
 30
0.0
 11
223.8066429999999
 21
651.960647
 31
0.0
  0
LINE
  5
9CED
330
9BF7
100
AcDbEntity
  8
1
  6
Continuous
100
AcDbLine
 10
416.818643
 20
327.3316469999999
 30
0.0
 11
389.868643
 21
327.3316469999999
 31
0.0
  0
LINE
  5
9CEE
330
9BF7
100
AcDbEntity
  8
1
  6
Continuous
100
AcDbLine
 10
416.818643
 20
329.8316469999999
 30
0.0
 11
390.6686429999999
 21
329.8316469999999
 31
0.0
  0
LINE
  5
9CEF
330
9BF7
100
AcDbEntity
  8
1
  6
Continuous
100
AcDbLine
 10
416.818643
 20
386.8316469999999
 30
0.0
 11
390.6686429999999
 21
386.8316469999999
 31
0.0
  0
LINE
  5
9CF0
330
9BF7
100
AcDbEntity
  8
1
  6
Continuous
100
AcDbLine
 10
416.818643
 20
389.3316469999999
 30
0.0
 11
389.868643
 21
389.3316469999999
 31
0.0
  0
LINE
  5
9CF1
330
9BF7
100
AcDbEntity
  8
1
  6
Continuous
100
AcDbLine
 10
415.3186429999998
 20
46.331647
 30
0.0
 11
422.3186429999998
 21
46.331647
 31
0.0
  0
LINE
  5
9CF2
330
9BF7
100
AcDbEntity
  8
1
  6
Continuous
100
AcDbLine
 10
414.318643
 20
47.33164699999998
 30
0.0
 11
414.318643
 21
56.331647
 31
0.0
  0
LINE
  5
9CF3
330
9BF7
100
AcDbEntity
  8
1
  6
Continuous
100
AcDbLine
 10
423.3186429999998
 20
47.33164699999998
 30
0.0
 11
423.3186429999998
 21
56.331647
 31
0.0
  0
LINE
  5
9CF4
330
9BF7
100
AcDbEntity
  8
1
  6
Continuous
100
AcDbLine
 10
401.318643
 20
56.331647
 30
0.0
 11
436.3186429999998
 21
56.331647
 31
0.0
  0
LINE
  5
9CF5
330
9BF7
100
AcDbEntity
  8
1
  6
Continuous
100
AcDbLine
 10
401.318643
 20
61.331647
 30
0.0
 11
411.3186429999998
 21
61.331647
 31
0.0
  0
LINE
  5
9CF6
330
9BF7
100
AcDbEntity
  8
1
  6
Continuous
100
AcDbLine
 10
413.318643
 20
86.331647
 30
0.0
 11
424.3186429999998
 21
86.331647
 31
0.0
  0
LINE
  5
9CF7
330
9BF7
100
AcDbEntity
  8
4
  6
CENTER
100
AcDbLine
 10
418.818643
 20
39.92044699999999
 30
0.0
 11
418.818643
 21
675.3896469999999
 31
0.0
  0
LINE
  5
9CF8
330
9BF7
100
AcDbEntity
  8
1
  6
Continuous
100
AcDbLine
 10
436.3186429999998
 20
56.331647
 30
0.0
 11
436.3186429999998
 21
61.331647
 31
0.0
  0
LINE
  5
9CF9
330
9BF7
100
AcDbEntity
  8
1
  6
Continuous
100
AcDbLine
 10
401.318643
 20
56.331647
 30
0.0
 11
401.318643
 21
61.331647
 31
0.0
  0
LINE
  5
9CFA
330
9BF7
100
AcDbEntity
  8
1
  6
Continuous
100
AcDbLine
 10
425.3186429999998
 20
62.33164699999999
 30
0.0
 11
425.3186429999998
 21
85.331647
 31
0.0
  0
LINE
  5
9CFB
330
9BF7
100
AcDbEntity
  8
1
  6
Continuous
100
AcDbLine
 10
412.318643
 20
62.33164699999999
 30
0.0
 11
412.318643
 21
85.331647
 31
0.0
  0
LINE
  5
9CFC
330
9BF7
100
AcDbEntity
  8
1
  6
Continuous
100
AcDbLine
 10
426.3186429999998
 20
61.331647
 30
0.0
 11
436.3186429999998
 21
61.331647
 31
0.0
  0
LINE
  5
9CFD
330
9BF7
100
AcDbEntity
  8
4
  6
CENTER
100
AcDbLine
 10
406.318643
 20
52.78154699999999
 30
0.0
 11
406.318643
 21
64.702747
 31
0.0
  0
LINE
  5
9CFE
330
9BF7
100
AcDbEntity
  8
4
  6
CENTER
100
AcDbLine
 10
431.318643
 20
52.78154699999999
 30
0.0
 11
431.318643
 21
64.702747
 31
0.0
  0
LINE
  5
9CFF
330
9BF7
100
AcDbEntity
  8
1
  6
Continuous
100
AcDbLine
 10
415.3186429999998
 20
670.3316469999997
 30
0.0
 11
422.3186429999998
 21
670.3316469999997
 31
0.0
  0
LINE
  5
9D00
330
9BF7
100
AcDbEntity
  8
1
  6
Continuous
100
AcDbLine
 10
414.318643
 20
669.331647
 30
0.0
 11
414.318643
 21
660.331647
 31
0.0
  0
LINE
  5
9D01
330
9BF7
100
AcDbEntity
  8
1
  6
Continuous
100
AcDbLine
 10
423.3186429999998
 20
669.331647
 30
0.0
 11
423.3186429999998
 21
660.331647
 31
0.0
  0
LINE
  5
9D02
330
9BF7
100
AcDbEntity
  8
1
  6
Continuous
100
AcDbLine
 10
401.318643
 20
660.331647
 30
0.0
 11
436.3186429999998
 21
660.331647
 31
0.0
  0
LINE
  5
9D03
330
9BF7
100
AcDbEntity
  8
1
  6
Continuous
100
AcDbLine
 10
401.318643
 20
655.3316469999997
 30
0.0
 11
411.3186429999998
 21
655.3316469999997
 31
0.0
  0
LINE
  5
9D04
330
9BF7
100
AcDbEntity
  8
1
  6
Continuous
100
AcDbLine
 10
413.318643
 20
630.3316469999997
 30
0.0
 11
424.3186429999998
 21
630.3316469999997
 31
0.0
  0
LINE
  5
9D05
330
9BF7
100
AcDbEntity
  8
1
  6
Continuous
100
AcDbLine
 10
436.3186429999998
 20
660.331647
 30
0.0
 11
436.3186429999998
 21
655.3316469999997
 31
0.0
  0
LINE
  5
9D06
330
9BF7
100
AcDbEntity
  8
1
  6
Continuous
100
AcDbLine
 10
401.318643
 20
660.331647
 30
0.0
 11
401.318643
 21
655.3316469999997
 31
0.0
  0
LINE
  5
9D07
330
9BF7
100
AcDbEntity
  8
1
  6
Continuous
100
AcDbLine
 10
425.3186429999998
 20
654.3316469999997
 30
0.0
 11
425.3186429999998
 21
631.331647
 31
0.0
  0
LINE
  5
9D08
330
9BF7
100
AcDbEntity
  8
1
  6
Continuous
100
AcDbLine
 10
412.318643
 20
654.3316469999997
 30
0.0
 11
412.318643
 21
631.331647
 31
0.0
  0
LINE
  5
9D09
330
9BF7
100
AcDbEntity
  8
1
  6
Continuous
100
AcDbLine
 10
426.3186429999998
 20
655.3316469999997
 30
0.0
 11
436.3186429999998
 21
655.3316469999997
 31
0.0
  0
LINE
  5
9D0A
330
9BF7
100
AcDbEntity
  8
4
  6
CENTER
100
AcDbLine
 10
406.318643
 20
663.8816469999998
 30
0.0
 11
406.318643
 21
651.960647
 31
0.0
  0
LINE
  5
9D0B
330
9BF7
100
AcDbEntity
  8
4
  6
CENTER
100
AcDbLine
 10
431.318643
 20
663.8816469999998
 30
0.0
 11
431.318643
 21
651.960647
 31
0.0
  0
LINE
  5
9D0C
330
9BF7
100
AcDbEntity
  8
1
  6
Continuous
100
AcDbLine
 10
310.0626429999999
 20
660.331647
 30
0.0
 11
323.062643
 21
660.331647
 31
0.0
  0
LINE
  5
9D0D
330
9BF7
100
AcDbEntity
  8
1
  6
Continuous
100
AcDbLine
 10
310.0626429999999
 20
655.3316469999997
 30
0.0
 11
323.062643
 21
655.3316469999997
 31
0.0
  0
LINE
  5
9D0E
330
9BF7
100
AcDbEntity
  8
1
  6
Continuous
100
AcDbLine
 10
310.0626429999999
 20
630.3316469999997
 30
0.0
 11
323.062643
 21
630.3316469999997
 31
0.0
  0
LINE
  5
9D0F
330
9BF7
100
AcDbEntity
  8
1
  6
Continuous
100
AcDbLine
 10
310.0626429999999
 20
660.331647
 30
0.0
 11
310.0626429999999
 21
630.3316469999997
 31
0.0
  0
LINE
  5
9D10
330
9BF7
100
AcDbEntity
  8
1
  6
Continuous
100
AcDbLine
 10
323.062643
 20
660.331647
 30
0.0
 11
323.062643
 21
630.3316469999997
 31
0.0
  0
LINE
  5
9D11
330
9BF7
100
AcDbEntity
  8
1
  6
Continuous
100
AcDbLine
 10
312.0626429999999
 20
669.8316469999999
 30
0.0
 11
312.0626429999999
 21
660.331647
 31
0.0
  0
LINE
  5
9D12
330
9BF7
100
AcDbEntity
  8
1
  6
Continuous
100
AcDbLine
 10
321.062643
 20
662.0386469999997
 30
0.0
 11
321.062643
 21
660.331647
 31
0.0
  0
LINE
  5
9D13
330
9BF7
100
AcDbEntity
  8
1
  6
Continuous
100
AcDbLine
 10
312.916643
 20
670.185647
 30
0.0
 11
321.062643
 21
662.0386469999997
 31
0.0
  0
LINE
  5
9D14
330
9BF7
100
AcDbEntity
  8
4
  6
CENTER
100
AcDbLine
 10
50.95054300000001
 20
34.13150499999999
 30
0.0
 11
50.95054300000001
 21
683.4739009999998
 31
0.0
  0
LINE
  5
9D15
330
9BF7
100
AcDbEntity
  8
1
  6
Continuous
100
AcDbLine
 10
57.450543
 20
56.331647
 30
0.0
 11
44.45054299999998
 21
56.331647
 31
0.0
  0
LINE
  5
9D16
330
9BF7
100
AcDbEntity
  8
1
  6
Continuous
100
AcDbLine
 10
57.450543
 20
61.331647
 30
0.0
 11
44.45054299999998
 21
61.331647
 31
0.0
  0
LINE
  5
9D17
330
9BF7
100
AcDbEntity
  8
1
  6
Continuous
100
AcDbLine
 10
57.450543
 20
86.331647
 30
0.0
 11
44.45054299999998
 21
86.331647
 31
0.0
  0
LINE
  5
9D18
330
9BF7
100
AcDbEntity
  8
1
  6
Continuous
100
AcDbLine
 10
57.450543
 20
56.331647
 30
0.0
 11
57.450543
 21
86.331647
 31
0.0
  0
LINE
  5
9D19
330
9BF7
100
AcDbEntity
  8
1
  6
Continuous
100
AcDbLine
 10
44.45054299999998
 20
56.331647
 30
0.0
 11
44.45054299999998
 21
86.331647
 31
0.0
  0
LINE
  5
9D1A
330
9BF7
100
AcDbEntity
  8
1
  6
Continuous
100
AcDbLine
 10
55.450543
 20
46.83164699999998
 30
0.0
 11
55.450543
 21
56.331647
 31
0.0
  0
LINE
  5
9D1B
330
9BF7
100
AcDbEntity
  8
1
  6
Continuous
100
AcDbLine
 10
46.45054299999999
 20
54.624547
 30
0.0
 11
46.45054299999999
 21
56.331647
 31
0.0
  0
LINE
  5
9D1C
330
9BF7
100
AcDbEntity
  8
1
  6
Continuous
100
AcDbLine
 10
54.596943
 20
46.478147
 30
0.0
 11
46.45054299999999
 21
54.624547
 31
0.0
  0
LINE
  5
9D1D
330
9BF7
100
AcDbEntity
  8
5
  6
PHANTOM
100
AcDbLine
 10
57.450543
 20
670.3316469999997
 30
0.0
 11
44.45054299999998
 21
670.3316469999997
 31
0.0
  0
LINE
  5
9D1E
330
9BF7
100
AcDbEntity
  8
1
  6
Continuous
100
AcDbLine
 10
57.450543
 20
655.3316469999997
 30
0.0
 11
44.45054299999998
 21
655.3316469999997
 31
0.0
  0
LINE
  5
9D1F
330
9BF7
100
AcDbEntity
  8
1
  6
Continuous
100
AcDbLine
 10
57.450543
 20
630.3316469999997
 30
0.0
 11
44.45054299999998
 21
630.3316469999997
 31
0.0
  0
LINE
  5
9D20
330
9BF7
100
AcDbEntity
  8
5
  6
PHANTOM
100
AcDbLine
 10
57.450543
 20
670.3316469999997
 30
0.0
 11
57.450543
 21
665.1166469999998
 31
0.0
  0
LINE
  5
9D21
330
9BF7
100
AcDbEntity
  8
5
  6
PHANTOM
100
AcDbLine
 10
44.45054299999998
 20
670.3316469999997
 30
0.0
 11
44.45054299999998
 21
665.1166469999998
 31
0.0
  0
LINE
  5
9D22
330
9BF7
100
AcDbEntity
  8
5
  6
PHANTOM
100
AcDbLine
 10
55.450543
 20
660.331647
 30
0.0
 11
55.450543
 21
653.8316469999998
 31
0.0
  0
LINE
  5
9D23
330
9BF7
100
AcDbEntity
  8
5
  6
PHANTOM
100
AcDbLine
 10
46.45054299999999
 20
655.538647
 30
0.0
 11
46.45054299999999
 21
653.8316469999998
 31
0.0
  0
LINE
  5
9D24
330
9BF7
100
AcDbEntity
  8
5
  6
PHANTOM
100
AcDbLine
 10
54.596943
 20
663.685647
 30
0.0
 11
46.450443
 21
655.538647
 31
0.0
  0
LINE
  5
9D25
330
9BF7
100
AcDbEntity
  8
1
  6
Continuous
100
AcDbLine
 10
52.950543
 20
86.331647
 30
0.0
 11
52.950543
 21
333.3316469999999
 31
0.0
  0
LINE
  5
9D26
330
9BF7
100
AcDbEntity
  8
1
  6
Continuous
100
AcDbLine
 10
48.95054299999999
 20
86.331647
 30
0.0
 11
48.95054299999999
 21
333.3316469999999
 31
0.0
  0
LINE
  5
9D27
330
9BF7
100
AcDbEntity
  8
1
  6
Continuous
100
AcDbLine
 10
213.3066429999999
 20
86.331647
 30
0.0
 11
213.3066429999999
 21
327.3316469999999
 31
0.0
  0
LINE
  5
9D28
330
9BF7
100
AcDbEntity
  8
1
  6
Continuous
100
AcDbLine
 10
209.3066429999999
 20
86.331647
 30
0.0
 11
209.3066429999999
 21
327.3316469999999
 31
0.0
  0
LINE
  5
9D29
330
9BF7
100
AcDbEntity
  8
1
  6
Continuous
100
AcDbLine
 10
314.562643
 20
86.331647
 30
0.0
 11
314.562643
 21
333.3316469999999
 31
0.0
  0
LINE
  5
9D2A
330
9BF7
100
AcDbEntity
  8
1
  6
Continuous
100
AcDbLine
 10
318.5626429999999
 20
86.331647
 30
0.0
 11
318.5626429999999
 21
333.3316469999999
 31
0.0
  0
LINE
  5
9D2B
330
9BF7
100
AcDbEntity
  8
1
  6
Continuous
100
AcDbLine
 10
416.818643
 20
86.331647
 30
0.0
 11
416.818643
 21
330.8316469999998
 31
0.0
  0
LINE
  5
9D2C
330
9BF7
100
AcDbEntity
  8
1
  6
Continuous
100
AcDbLine
 10
420.8186429999998
 20
86.331647
 30
0.0
 11
420.8186429999998
 21
330.8316469999998
 31
0.0
  0
LINE
  5
9D2D
330
9BF7
100
AcDbEntity
  8
1
  6
Continuous
100
AcDbLine
 10
52.950543
 20
630.3316469999997
 30
0.0
 11
52.950543
 21
383.3316469999999
 31
0.0
  0
LINE
  5
9D2E
330
9BF7
100
AcDbEntity
  8
1
  6
Continuous
100
AcDbLine
 10
48.95054299999999
 20
630.3316469999997
 30
0.0
 11
48.95054299999999
 21
383.3316469999999
 31
0.0
  0
LINE
  5
9D2F
330
9BF7
100
AcDbEntity
  8
1
  6
Continuous
100
AcDbLine
 10
209.3066429999999
 20
630.3316469999997
 30
0.0
 11
209.3066429999999
 21
389.3316469999999
 31
0.0
  0
LINE
  5
9D30
330
9BF7
100
AcDbEntity
  8
1
  6
Continuous
100
AcDbLine
 10
213.3066429999999
 20
630.3316469999997
 30
0.0
 11
213.3066429999999
 21
389.3316469999999
 31
0.0
  0
LINE
  5
9D31
330
9BF7
100
AcDbEntity
  8
1
  6
Continuous
100
AcDbLine
 10
318.5626429999999
 20
630.3316469999997
 30
0.0
 11
318.5626429999999
 21
383.3316469999999
 31
0.0
  0
LINE
  5
9D32
330
9BF7
100
AcDbEntity
  8
1
  6
Continuous
100
AcDbLine
 10
314.562643
 20
630.3316469999997
 30
0.0
 11
314.562643
 21
383.3316469999999
 31
0.0
  0
LINE
  5
9D33
330
9BF7
100
AcDbEntity
  8
1
  6
Continuous
100
AcDbLine
 10
420.8186429999998
 20
630.3316469999997
 30
0.0
 11
420.8186429999998
 21
385.8316469999999
 31
0.0
  0
LINE
  5
9D34
330
9BF7
100
AcDbEntity
  8
1
  6
Continuous
100
AcDbLine
 10
416.818643
 20
630.3316469999997
 30
0.0
 11
416.818643
 21
385.8316469999999
 31
0.0
  0
LINE
  5
9D35
330
9BF7
100
AcDbEntity
  8
5
  6
PHANTOM
100
AcDbLine
 10
206.806643
 20
37.33164699999999
 30
0.0
 11
206.806643
 21
46.331647
 31
0.0
  0
LINE
  5
9D36
330
9BF7
100
AcDbEntity
  8
5
  6
PHANTOM
100
AcDbLine
 10
207.8066429999998
 20
36.331647
 30
0.0
 11
214.806643
 21
36.331647
 31
0.0
  0
LINE
  5
9D37
330
9BF7
100
AcDbEntity
  8
5
  6
PHANTOM
100
AcDbLine
 10
215.806643
 20
37.33164699999999
 30
0.0
 11
215.806643
 21
46.331647
 31
0.0
  0
LINE
  5
9D38
330
9BF7
100
AcDbEntity
  8
1
  6
Continuous
100
AcDbLine
 10
193.8066429999999
 20
56.331647
 30
0.0
 11
193.8066429999999
 21
61.331647
 31
0.0
  0
LINE
  5
9D39
330
9BF7
100
AcDbEntity
  8
1
  6
Continuous
100
AcDbLine
 10
193.8066429999999
 20
56.331647
 30
0.0
 11
228.806643
 21
56.331647
 31
0.0
  0
LINE
  5
9D3A
330
9BF7
100
AcDbEntity
  8
1
  6
Continuous
100
AcDbLine
 10
228.806643
 20
56.331647
 30
0.0
 11
228.806643
 21
61.331647
 31
0.0
  0
LINE
  5
9D3B
330
9BF7
100
AcDbEntity
  8
1
  6
Continuous
100
AcDbLine
 10
215.806643
 20
47.33164699999998
 30
0.0
 11
215.806643
 21
56.331647
 31
0.0
  0
LINE
  5
9D3C
330
9BF7
100
AcDbEntity
  8
1
  6
Continuous
100
AcDbLine
 10
207.8066429999998
 20
46.331647
 30
0.0
 11
214.806643
 21
46.331647
 31
0.0
  0
LINE
  5
9D3D
330
9BF7
100
AcDbEntity
  8
1
  6
Continuous
100
AcDbLine
 10
206.806643
 20
47.33164699999998
 30
0.0
 11
206.806643
 21
56.331647
 31
0.0
  0
LINE
  5
9D3E
330
9BF7
100
AcDbEntity
  8
5
  6
PHANTOM
100
AcDbLine
 10
207.8066429999998
 20
663.8316469999997
 30
0.0
 11
214.806643
 21
663.8316469999997
 31
0.0
  0
LINE
  5
9D3F
330
9BF7
100
AcDbEntity
  8
5
  6
PHANTOM
100
AcDbLine
 10
228.806643
 20
670.3316469999997
 30
0.0
 11
228.806643
 21
665.331647
 31
0.0
  0
LINE
  5
9D40
330
9BF7
100
AcDbEntity
  8
5
  6
PHANTOM
100
AcDbLine
 10
193.8066429999999
 20
670.3316469999997
 30
0.0
 11
228.806643
 21
670.3316469999997
 31
0.0
  0
LINE
  5
9D41
330
9BF7
100
AcDbEntity
  8
5
  6
PHANTOM
100
AcDbLine
 10
215.806643
 20
679.3316469999997
 30
0.0
 11
215.806643
 21
670.3316469999997
 31
0.0
  0
LINE
  5
9D42
330
9BF7
100
AcDbEntity
  8
5
  6
PHANTOM
100
AcDbLine
 10
207.8066429999998
 20
680.3316469999997
 30
0.0
 11
214.806643
 21
680.3316469999997
 31
0.0
  0
LINE
  5
9D43
330
9BF7
100
AcDbEntity
  8
5
  6
PHANTOM
100
AcDbLine
 10
206.806643
 20
679.3316469999997
 30
0.0
 11
206.806643
 21
670.3316469999997
 31
0.0
  0
LINE
  5
9D44
330
9BF7
100
AcDbEntity
  8
5
  6
PHANTOM
100
AcDbLine
 10
193.8066429999999
 20
670.3316469999997
 30
0.0
 11
193.8066429999999
 21
665.331647
 31
0.0
  0
LINE
  5
9D45
330
9BF7
100
AcDbEntity
  8
5
  6
PHANTOM
100
AcDbLine
 10
119.7566429999999
 20
727.1216469999997
 30
0.0
 11
119.7566429999999
 21
740.1216469999996
 31
0.0
  0
LINE
  5
9D46
330
9BF7
100
AcDbEntity
  8
1
  6
Continuous
100
AcDbLine
 10
129.756643
 20
727.1216469999997
 30
0.0
 11
129.756643
 21
740.1216469999996
 31
0.0
  0
LINE
  5
9D47
330
9BF7
100
AcDbEntity
  8
1
  6
Continuous
100
AcDbLine
 10
154.756643
 20
727.1216469999997
 30
0.0
 11
154.756643
 21
740.1216469999996
 31
0.0
  0
LINE
  5
9D48
330
9BF7
100
AcDbEntity
  8
5
  6
PHANTOM
100
AcDbLine
 10
119.7566429999999
 20
727.1216469999997
 30
0.0
 11
123.648643
 21
727.1216469999997
 31
0.0
  0
LINE
  5
9D49
330
9BF7
100
AcDbEntity
  8
5
  6
PHANTOM
100
AcDbLine
 10
119.7566429999999
 20
740.1216469999996
 30
0.0
 11
123.648643
 21
740.1216469999996
 31
0.0
  0
LINE
  5
9D4A
330
9BF7
100
AcDbEntity
  8
4
  6
CENTER
100
AcDbLine
 10
108.8426429999999
 20
733.6216469999997
 30
0.0
 11
234.1106429999999
 21
733.6216469999997
 31
0.0
  0
LINE
  5
9D4B
330
9BF7
100
AcDbEntity
  8
5
  6
PHANTOM
100
AcDbLine
 10
124.756643
 20
729.1216469999997
 30
0.0
 11
129.2566429999999
 21
729.1216469999997
 31
0.0
  0
LINE
  5
9D4C
330
9BF7
100
AcDbEntity
  8
5
  6
PHANTOM
100
AcDbLine
 10
127.549643
 20
738.1216469999997
 30
0.0
 11
129.2566429999999
 21
738.1216469999997
 31
0.0
  0
LINE
  5
9D4D
330
9BF7
100
AcDbEntity
  8
5
  6
PHANTOM
100
AcDbLine
 10
119.402643
 20
729.974647
 30
0.0
 11
127.549643
 21
738.1216469999997
 31
0.0
  0
LINE
  5
9D4E
330
9BF7
100
AcDbEntity
  8
1
  6
Continuous
100
AcDbLine
 10
154.756643
 20
732.1216469999996
 30
0.0
 11
169.555643
 21
732.1216469999996
 31
0.0
  0
LINE
  5
9D4F
330
9BF7
100
AcDbEntity
  8
1
  6
Continuous
100
AcDbLine
 10
154.756643
 20
735.1216469999997
 30
0.0
 11
169.555643
 21
735.1216469999997
 31
0.0
  0
LINE
  5
9D50
330
9BF7
100
AcDbEntity
  8
1
  6
Continuous
100
AcDbLine
 10
46.45054299999999
 20
375.831647
 30
0.0
 11
55.450543
 21
375.831647
 31
0.0
  0
LINE
  5
9D51
330
9BF7
100
AcDbEntity
  8
1
  6
Continuous
100
AcDbLine
 10
46.45054299999999
 20
340.8316469999999
 30
0.0
 11
55.450543
 21
340.8316469999999
 31
0.0
  0
LINE
  5
9D52
330
9BF7
100
AcDbEntity
  8
1
  6
Continuous
100
AcDbLine
 10
57.450543
 20
373.831647
 30
0.0
 11
57.450543
 21
342.8316469999999
 31
0.0
  0
LINE
  5
9D53
330
9BF7
100
AcDbEntity
  8
1
  6
Continuous
100
AcDbLine
 10
55.450543
 20
361.8316469999999
 30
0.0
 11
55.450543
 21
354.8316469999999
 31
0.0
  0
LINE
  5
9D54
330
9BF7
100
AcDbEntity
  8
1
  6
Continuous
100
AcDbLine
 10
46.45054299999999
 20
361.8316469999999
 30
0.0
 11
46.45054299999999
 21
354.8316469999999
 31
0.0
  0
LINE
  5
9D55
330
9BF7
100
AcDbEntity
  8
1
  6
Continuous
100
AcDbLine
 10
47.45054299999998
 20
353.8316469999998
 30
0.0
 11
54.450543
 21
353.8316469999998
 31
0.0
  0
LINE
  5
9D56
330
9BF7
100
AcDbEntity
  8
1
  6
Continuous
100
AcDbLine
 10
47.45054299999998
 20
362.8316469999999
 30
0.0
 11
54.450543
 21
362.8316469999999
 31
0.0
  0
LINE
  5
9D57
330
9BF7
100
AcDbEntity
  8
4
  6
CENTER
100
AcDbLine
 10
54.950543
 20
345.8316469999999
 30
0.0
 11
46.95054299999998
 21
345.8316469999999
 31
0.0
  0
LINE
  5
9D58
330
9BF7
100
AcDbEntity
  8
4
  6
CENTER
100
AcDbLine
 10
54.950543
 20
370.8316469999999
 30
0.0
 11
46.95054299999998
 21
370.8316469999999
 31
0.0
  0
LINE
  5
9D59
330
9BF7
100
AcDbEntity
  8
1
  6
Continuous
100
AcDbLine
 10
55.55044300000001
 20
362.931647
 30
0.0
 11
55.55044300000001
 21
353.731647
 31
0.0
  0
LINE
  5
9D5A
330
9BF7
100
AcDbEntity
  8
1
  6
Continuous
100
AcDbLine
 10
46.350543
 20
362.931647
 30
0.0
 11
46.350543
 21
353.731647
 31
0.0
  0
LINE
  5
9D5B
330
9BF7
100
AcDbEntity
  8
1
  6
Continuous
100
AcDbLine
 10
46.350543
 20
362.931647
 30
0.0
 11
55.55044300000001
 21
362.931647
 31
0.0
  0
LINE
  5
9D5C
330
9BF7
100
AcDbEntity
  8
1
  6
Continuous
100
AcDbLine
 10
46.350543
 20
353.731647
 30
0.0
 11
55.55044300000001
 21
353.731647
 31
0.0
  0
LINE
  5
9D5D
330
9BF7
100
AcDbEntity
  8
1
  6
Continuous
100
AcDbLine
 10
44.45054299999998
 20
373.831647
 30
0.0
 11
44.45054299999998
 21
342.8316469999999
 31
0.0
  0
LINE
  5
9D5E
330
9BF7
100
AcDbEntity
  8
1
  6
Continuous
100
AcDbLine
 10
45.45054299999999
 20
341.099647
 30
0.0
 11
45.45054299999999
 21
333.3316469999999
 31
0.0
  0
LINE
  5
9D5F
330
9BF7
100
AcDbEntity
  8
5
  6
PHANTOM
100
AcDbLine
 10
119.256643
 20
361.8316469999999
 30
0.0
 11
119.256643
 21
354.8316469999999
 31
0.0
  0
LINE
  5
9D60
330
9BF7
100
AcDbEntity
  8
5
  6
PHANTOM
100
AcDbLine
 10
119.7566429999999
 20
375.831647
 30
0.0
 11
119.7566429999999
 21
340.8316469999999
 31
0.0
  0
LINE
  5
9D61
330
9BF7
100
AcDbEntity
  8
1
  6
Continuous
100
AcDbLine
 10
129.756643
 20
375.831647
 30
0.0
 11
129.756643
 21
365.8316469999999
 31
0.0
  0
LINE
  5
9D62
330
9BF7
100
AcDbEntity
  8
1
  6
Continuous
100
AcDbLine
 10
154.756643
 20
363.8316469999999
 30
0.0
 11
154.756643
 21
352.831647
 31
0.0
  0
LINE
  5
9D63
330
9BF7
100
AcDbEntity
  8
5
  6
PHANTOM
100
AcDbLine
 10
119.7566429999999
 20
340.8316469999999
 30
0.0
 11
123.723643
 21
340.8316469999999
 31
0.0
  0
LINE
  5
9D64
330
9BF7
100
AcDbEntity
  8
5
  6
PHANTOM
100
AcDbLine
 10
119.7566429999999
 20
375.831647
 30
0.0
 11
123.723643
 21
375.831647
 31
0.0
  0
LINE
  5
9D65
330
9BF7
100
AcDbEntity
  8
1
  6
Continuous
100
AcDbLine
 10
130.756643
 20
351.8316469999998
 30
0.0
 11
153.756643
 21
351.8316469999998
 31
0.0
  0
LINE
  5
9D66
330
9BF7
100
AcDbEntity
  8
1
  6
Continuous
100
AcDbLine
 10
130.756643
 20
364.8316469999999
 30
0.0
 11
153.756643
 21
364.8316469999999
 31
0.0
  0
LINE
  5
9D67
330
9BF7
100
AcDbEntity
  8
1
  6
Continuous
100
AcDbLine
 10
129.756643
 20
350.831647
 30
0.0
 11
129.756643
 21
340.8316469999999
 31
0.0
  0
LINE
  5
9D68
330
9BF7
100
AcDbEntity
  8
1
  6
Continuous
100
AcDbLine
 10
154.756643
 20
359.8316469999998
 30
0.0
 11
168.256643
 21
359.8316469999998
 31
0.0
  0
LINE
  5
9D69
330
9BF7
100
AcDbEntity
  8
1
  6
Continuous
100
AcDbLine
 10
154.756643
 20
356.8316469999999
 30
0.0
 11
168.256643
 21
356.8316469999999
 31
0.0
  0
LINE
  5
9D6A
330
9BF7
100
AcDbEntity
  8
5
  6
PHANTOM
100
AcDbLine
 10
109.756643
 20
361.8316469999999
 30
0.0
 11
109.756643
 21
354.8316469999999
 31
0.0
  0
LINE
  5
9D6B
330
9BF7
100
AcDbEntity
  8
5
  6
PHANTOM
100
AcDbLine
 10
110.756643
 20
362.8316469999999
 30
0.0
 11
115.7566429999999
 21
362.8316469999999
 31
0.0
  0
LINE
  5
9D6C
330
9BF7
100
AcDbEntity
  8
5
  6
PHANTOM
100
AcDbLine
 10
110.756643
 20
353.8316469999998
 30
0.0
 11
115.7566429999999
 21
353.8316469999998
 31
0.0
  0
LINE
  5
9D6D
330
9BF7
100
AcDbEntity
  8
1
  6
Continuous
100
AcDbLine
 10
124.756643
 20
375.831647
 30
0.0
 11
129.756643
 21
375.831647
 31
0.0
  0
LINE
  5
9D6E
330
9BF7
100
AcDbEntity
  8
1
  6
Continuous
100
AcDbLine
 10
124.756643
 20
375.831647
 30
0.0
 11
124.756643
 21
340.8316469999999
 31
0.0
  0
LINE
  5
9D6F
330
9BF7
100
AcDbEntity
  8
1
  6
Continuous
100
AcDbLine
 10
114.7566429999999
 20
361.8316469999999
 30
0.0
 11
114.7566429999999
 21
354.8316469999999
 31
0.0
  0
LINE
  5
9D70
330
9BF7
100
AcDbEntity
  8
1
  6
Continuous
100
AcDbLine
 10
115.7566429999999
 20
353.8316469999998
 30
0.0
 11
124.756643
 21
353.8316469999998
 31
0.0
  0
LINE
  5
9D71
330
9BF7
100
AcDbEntity
  8
1
  6
Continuous
100
AcDbLine
 10
115.7566429999999
 20
362.8316469999999
 30
0.0
 11
124.756643
 21
362.8316469999999
 31
0.0
  0
LINE
  5
9D72
330
9BF7
100
AcDbEntity
  8
1
  6
Continuous
100
AcDbLine
 10
124.756643
 20
340.8316469999999
 30
0.0
 11
129.756643
 21
340.8316469999999
 31
0.0
  0
LINE
  5
9D73
330
9BF7
100
AcDbEntity
  8
4
  6
CENTER
100
AcDbLine
 10
121.7566429999999
 20
345.8316469999999
 30
0.0
 11
132.756643
 21
345.8316469999999
 31
0.0
  0
LINE
  5
9D74
330
9BF7
100
AcDbEntity
  8
4
  6
CENTER
100
AcDbLine
 10
121.7566429999999
 20
370.8316469999999
 30
0.0
 11
132.756643
 21
370.8316469999999
 31
0.0
  0
LINE
  5
9D75
330
9BF7
100
AcDbEntity
  8
1
  6
Continuous
100
AcDbLine
 10
475.368643
 20
356.8316469999999
 30
0.0
 11
460.569643
 21
356.8316469999999
 31
0.0
  0
LINE
  5
9D76
330
9BF7
100
AcDbEntity
  8
1
  6
Continuous
100
AcDbLine
 10
475.368643
 20
359.8316469999998
 30
0.0
 11
460.569643
 21
359.8316469999998
 31
0.0
  0
LINE
  5
9D77
330
9BF7
100
AcDbEntity
  8
1
  6
Continuous
100
AcDbLine
 10
500.368643
 20
340.8316469999999
 30
0.0
 11
500.368643
 21
350.831647
 31
0.0
  0
LINE
  5
9D78
330
9BF7
100
AcDbEntity
  8
1
  6
Continuous
100
AcDbLine
 10
475.368643
 20
352.831647
 30
0.0
 11
475.368643
 21
363.8316469999999
 31
0.0
  0
LINE
  5
9D79
330
9BF7
100
AcDbEntity
  8
1
  6
Continuous
100
AcDbLine
 10
499.3686429999998
 20
364.8316469999999
 30
0.0
 11
476.3686429999999
 21
364.8316469999999
 31
0.0
  0
LINE
  5
9D7A
330
9BF7
100
AcDbEntity
  8
1
  6
Continuous
100
AcDbLine
 10
499.3686429999998
 20
351.8316469999998
 30
0.0
 11
476.3686429999999
 21
351.8316469999998
 31
0.0
  0
LINE
  5
9D7B
330
9BF7
100
AcDbEntity
  8
1
  6
Continuous
100
AcDbLine
 10
500.368643
 20
365.8316469999999
 30
0.0
 11
500.368643
 21
375.831647
 31
0.0
  0
LINE
  5
9D7C
330
9BF7
100
AcDbEntity
  8
1
  6
Continuous
100
AcDbLine
 10
505.3686429999998
 20
340.8316469999999
 30
0.0
 11
500.368643
 21
340.8316469999999
 31
0.0
  0
LINE
  5
9D7D
330
9BF7
100
AcDbEntity
  8
1
  6
Continuous
100
AcDbLine
 10
505.3686429999998
 20
340.8316469999999
 30
0.0
 11
505.3686429999998
 21
375.831647
 31
0.0
  0
LINE
  5
9D7E
330
9BF7
100
AcDbEntity
  8
1
  6
Continuous
100
AcDbLine
 10
515.368643
 20
354.8316469999999
 30
0.0
 11
515.368643
 21
361.8316469999999
 31
0.0
  0
LINE
  5
9D7F
330
9BF7
100
AcDbEntity
  8
1
  6
Continuous
100
AcDbLine
 10
514.368643
 20
362.8316469999999
 30
0.0
 11
505.3686429999998
 21
362.8316469999999
 31
0.0
  0
LINE
  5
9D80
330
9BF7
100
AcDbEntity
  8
1
  6
Continuous
100
AcDbLine
 10
514.368643
 20
353.8316469999998
 30
0.0
 11
505.3686429999998
 21
353.8316469999998
 31
0.0
  0
LINE
  5
9D81
330
9BF7
100
AcDbEntity
  8
1
  6
Continuous
100
AcDbLine
 10
505.3686429999998
 20
375.831647
 30
0.0
 11
500.368643
 21
375.831647
 31
0.0
  0
LINE
  5
9D82
330
9BF7
100
AcDbEntity
  8
4
  6
CENTER
100
AcDbLine
 10
497.3686429999998
 20
345.8316469999999
 30
0.0
 11
508.3686429999998
 21
345.8316469999999
 31
0.0
  0
LINE
  5
9D83
330
9BF7
100
AcDbEntity
  8
4
  6
CENTER
100
AcDbLine
 10
497.3686429999998
 20
370.8316469999999
 30
0.0
 11
508.3686429999998
 21
370.8316469999999
 31
0.0
  0
LINE
  5
9D84
330
9BF7
100
AcDbEntity
  8
1
  6
Continuous
100
AcDbLine
 10
323.062643
 20
342.8316469999999
 30
0.0
 11
323.062643
 21
373.831647
 31
0.0
  0
LINE
  5
9D85
330
9BF7
100
AcDbEntity
  8
1
  6
Continuous
100
AcDbLine
 10
461.8686429999998
 20
356.8316469999999
 30
0.0
 11
461.8686429999998
 21
332.8316469999998
 31
0.0
  0
LINE
  5
9D86
330
9BF7
100
AcDbEntity
  8
1
  6
Continuous
100
AcDbLine
 10
459.3686429999998
 20
354.2901469999998
 30
0.0
 11
459.3686429999998
 21
333.3316469999999
 31
0.0
  0
LINE
  5
9D87
330
9BF7
100
AcDbEntity
  8
1
  6
Continuous
100
AcDbLine
 10
457.3686429999998
 20
383.3316469999999
 30
0.0
 11
457.3686429999998
 21
333.3316469999999
 31
0.0
  0
LINE
  5
9D88
330
9BF7
100
AcDbEntity
  8
2
  6
Continuous
100
AcDbLine
 10
457.3686429999998
 20
359.5616469999998
 30
0.0
 11
455.8686429999998
 21
359.5616469999998
 31
0.0
  0
LINE
  5
9D89
330
9BF7
100
AcDbEntity
  8
2
  6
Continuous
100
AcDbLine
 10
457.3686429999998
 20
357.102647
 30
0.0
 11
455.8686429999998
 21
357.102647
 31
0.0
  0
LINE
  5
9D8A
330
9BF7
100
AcDbEntity
  8
4
  6
CENTER
100
AcDbLine
 10
202.7566429999999
 20
735.0136469999998
 30
0.0
 11
202.7566429999999
 21
744.1146469999998
 31
0.0
  0
LINE
  5
9D8B
330
9BF7
100
AcDbEntity
  8
1
  6
Continuous
100
AcDbLine
 10
55.450543
 20
669.8316469999999
 30
0.0
 11
55.450543
 21
660.331647
 31
0.0
  0
LINE
  5
9D8C
330
9BF7
100
AcDbEntity
  8
1
  6
Continuous
100
AcDbLine
 10
54.596943
 20
670.185647
 30
0.0
 11
46.450443
 21
662.0386469999997
 31
0.0
  0
LINE
  5
9D8D
330
9BF7
100
AcDbEntity
  8
1
  6
Continuous
100
AcDbLine
 10
46.45054299999999
 20
662.0386469999997
 30
0.0
 11
46.45054299999999
 21
660.331647
 31
0.0
  0
LINE
  5
9D8E
330
9BF7
100
AcDbEntity
  8
1
  6
Continuous
100
AcDbLine
 10
57.450543
 20
660.331647
 30
0.0
 11
44.45054299999998
 21
660.331647
 31
0.0
  0
LINE
  5
9D8F
330
9BF7
100
AcDbEntity
  8
1
  6
Continuous
100
AcDbLine
 10
44.45054299999998
 20
660.331647
 30
0.0
 11
44.45054299999998
 21
630.3316469999997
 31
0.0
  0
LINE
  5
9D90
330
9BF7
100
AcDbEntity
  8
1
  6
Continuous
100
AcDbLine
 10
57.450543
 20
660.331647
 30
0.0
 11
57.450543
 21
630.3316469999997
 31
0.0
  0
LINE
  5
9D91
330
9BF7
100
AcDbEntity
  8
5
  6
PHANTOM
100
AcDbLine
 10
55.450543
 20
679.8316469999997
 30
0.0
 11
55.450543
 21
670.3316469999997
 31
0.0
  0
LINE
  5
9D92
330
9BF7
100
AcDbEntity
  8
5
  6
PHANTOM
100
AcDbLine
 10
54.596943
 20
680.185647
 30
0.0
 11
46.450443
 21
672.038647
 31
0.0
  0
LINE
  5
9D93
330
9BF7
100
AcDbEntity
  8
5
  6
PHANTOM
100
AcDbLine
 10
46.45054299999999
 20
672.038647
 30
0.0
 11
46.45054299999999
 21
670.3316469999997
 31
0.0
  0
LINE
  5
9D94
330
9BF7
100
AcDbEntity
  8
5
  6
PHANTOM
100
AcDbLine
 10
54.596943
 20
36.478047
 30
0.0
 11
46.450443
 21
44.624547
 31
0.0
  0
LINE
  5
9D95
330
9BF7
100
AcDbEntity
  8
5
  6
PHANTOM
100
AcDbLine
 10
55.450543
 20
36.83164699999998
 30
0.0
 11
55.450543
 21
46.331647
 31
0.0
  0
LINE
  5
9D96
330
9BF7
100
AcDbEntity
  8
5
  6
PHANTOM
100
AcDbLine
 10
57.450543
 20
46.331647
 30
0.0
 11
57.450543
 21
51.546547
 31
0.0
  0
LINE
  5
9D97
330
9BF7
100
AcDbEntity
  8
5
  6
PHANTOM
100
AcDbLine
 10
57.450543
 20
46.331647
 30
0.0
 11
44.45054299999998
 21
46.331647
 31
0.0
  0
LINE
  5
9D98
330
9BF7
100
AcDbEntity
  8
5
  6
PHANTOM
100
AcDbLine
 10
46.45054299999999
 20
44.624547
 30
0.0
 11
46.45054299999999
 21
46.331647
 31
0.0
  0
LINE
  5
9D99
330
9BF7
100
AcDbEntity
  8
5
  6
PHANTOM
100
AcDbLine
 10
44.45054299999998
 20
46.331647
 30
0.0
 11
44.45054299999998
 21
51.546547
 31
0.0
  0
LINE
  5
9D9A
330
9BF7
100
AcDbEntity
  8
5
  6
PHANTOM
100
AcDbLine
 10
55.450543
 20
56.331647
 30
0.0
 11
55.450543
 21
62.831647
 31
0.0
  0
LINE
  5
9D9B
330
9BF7
100
AcDbEntity
  8
5
  6
PHANTOM
100
AcDbLine
 10
54.596943
 20
52.978047
 30
0.0
 11
46.450443
 21
61.124547
 31
0.0
  0
LINE
  5
9D9C
330
9BF7
100
AcDbEntity
  8
5
  6
PHANTOM
100
AcDbLine
 10
46.45054299999999
 20
61.124547
 30
0.0
 11
46.45054299999999
 21
62.831647
 31
0.0
  0
LINE
  5
9D9D
330
9BF7
100
AcDbEntity
  8
5
  6
PHANTOM
100
AcDbLine
 10
118.0496429999999
 20
738.1216469999997
 30
0.0
 11
119.7566429999999
 21
738.1216469999997
 31
0.0
  0
LINE
  5
9D9E
330
9BF7
100
AcDbEntity
  8
5
  6
PHANTOM
100
AcDbLine
 10
109.902643
 20
729.974647
 30
0.0
 11
118.0496429999999
 21
738.1216469999997
 31
0.0
  0
LINE
  5
9D9F
330
9BF7
100
AcDbEntity
  8
5
  6
PHANTOM
100
AcDbLine
 10
110.2566429999999
 20
729.1216469999997
 30
0.0
 11
115.256643
 21
729.1216469999997
 31
0.0
  0
LINE
  5
9DA0
330
9BF7
100
AcDbEntity
  8
1
  6
Continuous
100
AcDbLine
 10
124.756643
 20
740.1216469999996
 30
0.0
 11
154.756643
 21
740.1216469999996
 31
0.0
  0
LINE
  5
9DA1
330
9BF7
100
AcDbEntity
  8
1
  6
Continuous
100
AcDbLine
 10
124.756643
 20
727.1216469999997
 30
0.0
 11
124.756643
 21
740.1216469999996
 31
0.0
  0
LINE
  5
9DA2
330
9BF7
100
AcDbEntity
  8
1
  6
Continuous
100
AcDbLine
 10
124.756643
 20
727.1216469999997
 30
0.0
 11
154.756643
 21
727.1216469999997
 31
0.0
  0
LINE
  5
9DA3
330
9BF7
100
AcDbEntity
  8
1
  6
Continuous
100
AcDbLine
 10
115.256643
 20
729.1216469999997
 30
0.0
 11
124.756643
 21
729.1216469999997
 31
0.0
  0
LINE
  5
9DA4
330
9BF7
100
AcDbEntity
  8
1
  6
Continuous
100
AcDbLine
 10
114.9026429999999
 20
729.974647
 30
0.0
 11
123.0496429999998
 21
738.1216469999997
 31
0.0
  0
LINE
  5
9DA5
330
9BF7
100
AcDbEntity
  8
1
  6
Continuous
100
AcDbLine
 10
123.0496429999998
 20
738.1216469999997
 30
0.0
 11
124.756643
 21
738.1216469999997
 31
0.0
  0
LINE
  5
9DA6
330
9BF7
100
AcDbEntity
  8
1
  6
Continuous
100
AcDbLine
 10
180.2566429999999
 20
380.331647
 30
0.0
 11
180.2566429999999
 21
379.8316469999999
 31
0.0
  0
LINE
  5
9DA7
330
9BF7
100
AcDbEntity
  8
1
  6
Continuous
100
AcDbLine
 10
184.2566429999999
 20
380.331647
 30
0.0
 11
184.2566429999999
 21
379.8316469999999
 31
0.0
  0
LINE
  5
9DA8
330
9BF7
100
AcDbEntity
  8
1
  6
Continuous
100
AcDbLine
 10
184.2566429999999
 20
336.8316469999999
 30
0.0
 11
184.2566429999999
 21
336.331647
 31
0.0
  0
LINE
  5
9DA9
330
9BF7
100
AcDbEntity
  8
1
  6
Continuous
100
AcDbLine
 10
180.2566429999999
 20
336.8316469999999
 30
0.0
 11
180.2566429999999
 21
336.331647
 31
0.0
  0
ARC
  5
9DAA
330
9BF7
100
AcDbEntity
  8
1
  6
Continuous
100
AcDbCircle
 10
173.756643
 20
383.8316469999999
 30
0.0
 40
5.5
100
AcDbArc
 50
90.0
 51
180.0
  0
ARC
  5
9DAB
330
9BF7
100
AcDbEntity
  8
1
  6
Continuous
100
AcDbCircle
 10
173.756643
 20
332.8316469999998
 30
0.0
 40
5.5
100
AcDbArc
 50
180.0
 51
270.0
  0
ARC
  5
9DAC
330
9BF7
100
AcDbEntity
  8
1
  6
Continuous
100
AcDbCircle
 10
177.756643
 20
377.831647
 30
0.0
 40
2.5
100
AcDbArc
 50
90.0
 51
180.0
  0
ARC
  5
9DAD
330
9BF7
100
AcDbEntity
  8
1
  6
Continuous
100
AcDbCircle
 10
177.756643
 20
338.8316469999999
 30
0.0
 40
2.5
100
AcDbArc
 50
180.0
 51
270.0
  0
ARC
  5
9DAE
330
9BF7
100
AcDbEntity
  8
1
  6
Continuous
100
AcDbCircle
 10
236.756643
 20
376.8316469999998
 30
0.0
 40
3.5
100
AcDbArc
 50
0.0
 51
90.0
  0
ARC
  5
9DAF
330
9BF7
100
AcDbEntity
  8
1
  6
Continuous
100
AcDbCircle
 10
236.756643
 20
339.8316469999999
 30
0.0
 40
3.5
100
AcDbArc
 50
270.0
 51
0.0
  0
CIRCLE
  5
9DB0
330
9BF7
100
AcDbEntity
  8
1
  6
Continuous
100
AcDbCircle
 10
182.256643
 20
725.3716469999996
 30
0.0
 40
2.049999999999998
  0
ARC
  5
9DB1
330
9BF7
100
AcDbEntity
  8
1
  6
Continuous
100
AcDbCircle
 10
305.0626429999999
 20
386.8316469999999
 30
0.0
 40
2.5
100
AcDbArc
 50
90.0
 51
126.8699999999999
  0
ARC
  5
9DB2
330
9BF7
100
AcDbEntity
  8
1
  6
Continuous
100
AcDbCircle
 10
309.5626429999999
 20
384.3316469999999
 30
0.0
 40
7.5
100
AcDbArc
 50
143.13
 51
180.0
  0
ARC
  5
9DB3
330
9BF7
100
AcDbEntity
  8
1
  6
Continuous
100
AcDbCircle
 10
173.256643
 20
726.6216469999997
 30
0.0
 40
7.5
100
AcDbArc
 50
233.13
 51
270.0
  0
ARC
  5
9DB4
330
9BF7
100
AcDbEntity
  8
1
  6
Continuous
100
AcDbCircle
 10
170.7566429999999
 20
722.1216469999997
 30
0.0
 40
2.5
100
AcDbArc
 50
180.0
 51
216.87
  0
ARC
  5
9DB5
330
9BF7
100
AcDbEntity
  8
1
  6
Continuous
100
AcDbCircle
 10
228.2856429999999
 20
728.6216469999997
 30
0.0
 40
10.5
100
AcDbArc
 50
20.0
 51
88.60859999999998
  0
ARC
  5
9DB6
330
9BF7
100
AcDbEntity
  8
1
  6
Continuous
100
AcDbCircle
 10
243.256643
 20
726.6216469999997
 30
0.0
 40
7.5
100
AcDbArc
 50
270.0
 51
306.87
  0
ARC
  5
9DB7
330
9BF7
100
AcDbEntity
  8
1
  6
Continuous
100
AcDbCircle
 10
245.756643
 20
722.1216469999997
 30
0.0
 40
2.5
100
AcDbArc
 50
323.13
 51
0.0
  0
ARC
  5
9DB8
330
9BF7
100
AcDbEntity
  8
1
  6
Continuous
100
AcDbCircle
 10
309.5626429999999
 20
332.3316469999999
 30
0.0
 40
7.5
100
AcDbArc
 50
180.0
 51
216.87
  0
ARC
  5
9DB9
330
9BF7
100
AcDbEntity
  8
1
  6
Continuous
100
AcDbCircle
 10
305.0626429999999
 20
329.8316469999999
 30
0.0
 40
2.5
100
AcDbArc
 50
233.13
 51
270.0
  0
ARC
  5
9DBA
330
9BF7
100
AcDbEntity
  8
1
  6
Continuous
100
AcDbCircle
 10
456.3686429999998
 20
383.8316469999999
 30
0.0
 40
5.5
100
AcDbArc
 50
0.0
 51
90.0
  0
ARC
  5
9DBB
330
9BF7
100
AcDbEntity
  8
1
  6
Continuous
100
AcDbCircle
 10
456.3686429999998
 20
332.8316469999998
 30
0.0
 40
5.5
100
AcDbArc
 50
270.0
 51
0.0
  0
ARC
  5
9DBC
330
9BF7
100
AcDbEntity
  8
1
  6
Continuous
100
AcDbCircle
 10
389.868643
 20
381.3316469999999
 30
0.0
 40
8.0
100
AcDbArc
 50
90.0
 51
180.0
  0
ARC
  5
9DBD
330
9BF7
100
AcDbEntity
  8
1
  6
Continuous
100
AcDbCircle
 10
389.868643
 20
335.3316469999999
 30
0.0
 40
8.0
100
AcDbArc
 50
180.0
 51
270.0
  0
ARC
  5
9DBE
330
9BF7
100
AcDbEntity
  8
1
  6
Continuous
100
AcDbCircle
 10
240.256643
 20
381.3316469999999
 30
0.0
 40
8.0
100
AcDbArc
 50
0.0
 51
90.0
  0
ARC
  5
9DBF
330
9BF7
100
AcDbEntity
  8
1
  6
Continuous
100
AcDbCircle
 10
240.256643
 20
335.3316469999999
 30
0.0
 40
8.0
100
AcDbArc
 50
270.0
 51
0.0
  0
ARC
  5
9DC0
330
9BF7
100
AcDbEntity
  8
5
  6
PHANTOM
100
AcDbCircle
 10
198.191643
 20
691.2706469999999
 30
0.0
 40
1.5
100
AcDbArc
 50
304.654
 51
85.15009999999998
  0
ARC
  5
9DC1
330
9BF7
100
AcDbEntity
  8
5
  6
PHANTOM
100
AcDbCircle
 10
197.6236429999999
 20
692.0926469999999
 30
0.0
 40
2.5
100
AcDbArc
 50
233.619
 51
304.654
  0
ARC
  5
9DC2
330
9BF7
100
AcDbEntity
  8
5
  6
PHANTOM
100
AcDbCircle
 10
200.5886429999999
 20
696.118647
 30
0.0
 40
7.5
100
AcDbArc
 50
210.0
 51
233.619
  0
ARC
  5
9DC3
330
9BF7
100
AcDbEntity
  8
5
  6
PHANTOM
100
AcDbCircle
 10
198.4876429999999
 20
694.757647
 30
0.0
 40
2.0
100
AcDbArc
 50
210.0
 51
265.1499999999999
  0
ARC
  5
9DC4
330
9BF7
100
AcDbEntity
  8
5
  6
PHANTOM
100
AcDbCircle
 10
185.5896429999999
 20
718.098647
 30
0.0
 40
2.5
100
AcDbArc
 50
155.8529999999998
 51
210.0
  0
ARC
  5
9DC5
330
9BF7
100
AcDbEntity
  8
1
  6
Continuous
100
AcDbCircle
 10
178.2566429999999
 20
378.3316469999999
 30
0.0
 40
1.5
100
AcDbArc
 50
90.0
 51
180.0
  0
ARC
  5
9DC6
330
9BF7
100
AcDbEntity
  8
1
  6
Continuous
100
AcDbCircle
 10
178.2566429999999
 20
338.331647
 30
0.0
 40
1.5
100
AcDbArc
 50
180.0
 51
270.0
  0
ARC
  5
9DC7
330
9BF7
100
AcDbEntity
  8
1
  6
Continuous
100
AcDbCircle
 10
217.756643
 20
376.3316469999999
 30
0.0
 40
3.5
100
AcDbArc
 50
0.0
 51
90.0
  0
ARC
  5
9DC8
330
9BF7
100
AcDbEntity
  8
1
  6
Continuous
100
AcDbCircle
 10
217.756643
 20
340.331647
 30
0.0
 40
3.5
100
AcDbArc
 50
270.0
 51
0.0
  0
ARC
  5
9DC9
330
9BF7
100
AcDbEntity
  8
1
  6
Continuous
100
AcDbCircle
 10
427.3686429999998
 20
378.8316469999998
 30
0.0
 40
2.1
100
AcDbArc
 50
348.463
 51
11.537
  0
ARC
  5
9DCA
330
9BF7
100
AcDbEntity
  8
1
  6
Continuous
100
AcDbCircle
 10
427.3686429999998
 20
378.8316469999998
 30
0.0
 40
2.1
100
AcDbArc
 50
78.46299999999998
 51
101.537
  0
ARC
  5
9DCB
330
9BF7
100
AcDbEntity
  8
1
  6
Continuous
100
AcDbCircle
 10
427.3686429999998
 20
378.8316469999998
 30
0.0
 40
2.1
100
AcDbArc
 50
168.463
 51
191.5369999999998
  0
ARC
  5
9DCC
330
9BF7
100
AcDbEntity
  8
1
  6
Continuous
100
AcDbCircle
 10
427.3686429999998
 20
378.8316469999998
 30
0.0
 40
2.1
100
AcDbArc
 50
258.4629999999999
 51
281.5369999999999
  0
CIRCLE
  5
9DCD
330
9BF7
100
AcDbEntity
  8
1
  6
Continuous
100
AcDbCircle
 10
427.3686429999998
 20
378.8316469999998
 30
0.0
 40
3.5
  0
CIRCLE
  5
9DCE
330
9BF7
100
AcDbEntity
  8
1
  6
Continuous
100
AcDbCircle
 10
427.3686429999998
 20
378.8316469999998
 30
0.0
 40
3.799999999999998
  0
CIRCLE
  5
9DCF
330
9BF7
100
AcDbEntity
  8
1
  6
Continuous
100
AcDbCircle
 10
427.3686429999998
 20
337.8316469999999
 30
0.0
 40
3.799999999999998
  0
ARC
  5
9DD0
330
9BF7
100
AcDbEntity
  8
1
  6
Continuous
100
AcDbCircle
 10
427.3686429999998
 20
337.8316469999999
 30
0.0
 40
2.1
100
AcDbArc
 50
348.463
 51
11.537
  0
ARC
  5
9DD1
330
9BF7
100
AcDbEntity
  8
1
  6
Continuous
100
AcDbCircle
 10
427.3686429999998
 20
337.8316469999999
 30
0.0
 40
2.1
100
AcDbArc
 50
78.46299999999998
 51
101.537
  0
ARC
  5
9DD2
330
9BF7
100
AcDbEntity
  8
1
  6
Continuous
100
AcDbCircle
 10
427.3686429999998
 20
337.8316469999999
 30
0.0
 40
2.1
100
AcDbArc
 50
168.463
 51
191.5369999999998
  0
ARC
  5
9DD3
330
9BF7
100
AcDbEntity
  8
1
  6
Continuous
100
AcDbCircle
 10
427.3686429999998
 20
337.8316469999999
 30
0.0
 40
2.1
100
AcDbArc
 50
258.4629999999999
 51
281.5369999999999
  0
CIRCLE
  5
9DD4
330
9BF7
100
AcDbEntity
  8
1
  6
Continuous
100
AcDbCircle
 10
427.3686429999998
 20
337.8316469999999
 30
0.0
 40
3.5
  0
ARC
  5
9DD5
330
9BF7
100
AcDbEntity
  8
1
  6
Continuous
100
AcDbCircle
 10
235.256643
 20
752.733647
 30
0.0
 40
1.0
100
AcDbArc
 50
270.0
 51
0.0
  0
ARC
  5
9DD6
330
9BF7
100
AcDbEntity
  8
1
  6
Continuous
100
AcDbCircle
 10
175.2566429999999
 20
752.733647
 30
0.0
 40
1.0
100
AcDbArc
 50
180.0
 51
270.0
  0
ARC
  5
9DD7
330
9BF7
100
AcDbEntity
  8
1
  6
Continuous
100
AcDbCircle
 10
211.256643
 20
762.233647
 30
0.0
 40
4.0
100
AcDbArc
 50
0.0
 51
180.0
  0
ARC
  5
9DD8
330
9BF7
100
AcDbEntity
  8
1
  6
Continuous
100
AcDbCircle
 10
216.256643
 20
752.733647
 30
0.0
 40
1.0
100
AcDbArc
 50
180.0
 51
270.0
  0
ARC
  5
9DD9
330
9BF7
100
AcDbEntity
  8
1
  6
Continuous
100
AcDbCircle
 10
206.2566429999999
 20
752.733647
 30
0.0
 40
1.0
100
AcDbArc
 50
270.0
 51
0.0
  0
ARC
  5
9DDA
330
9BF7
100
AcDbEntity
  8
1
  6
Continuous
100
AcDbCircle
 10
350.1076429999998
 20
339.938647
 30
0.0
 40
1.3
100
AcDbArc
 50
15.8808
 51
84.99990000000002
  0
ARC
  5
9DDB
330
9BF7
100
AcDbEntity
  8
1
  6
Continuous
100
AcDbCircle
 10
342.701643
 20
337.8316469999999
 30
0.0
 40
9.0
100
AcDbArc
 50
344.1190000000001
 51
15.8808
  0
ARC
  5
9DDC
330
9BF7
100
AcDbEntity
  8
1
  6
Continuous
100
AcDbCircle
 10
350.1076429999998
 20
335.724647
 30
0.0
 40
1.3
100
AcDbArc
 50
275.0
 51
344.1190000000001
  0
ARC
  5
9DDD
330
9BF7
100
AcDbEntity
  8
1
  6
Continuous
100
AcDbCircle
 10
204.863643
 20
771.9396469999996
 30
0.0
 40
1.3
100
AcDbArc
 50
5.000059999999998
 51
74.11920000000002
  0
ARC
  5
9DDE
330
9BF7
100
AcDbEntity
  8
1
  6
Continuous
100
AcDbCircle
 10
202.7566429999999
 20
764.5336469999997
 30
0.0
 40
9.0
100
AcDbArc
 50
74.11920000000002
 51
105.881
  0
ARC
  5
9DDF
330
9BF7
100
AcDbEntity
  8
1
  6
Continuous
100
AcDbCircle
 10
200.6496429999998
 20
771.9396469999996
 30
0.0
 40
1.3
100
AcDbArc
 50
105.881
 51
175.0
  0
ARC
  5
9DE0
330
9BF7
100
AcDbEntity
  8
1
  6
Continuous
100
AcDbCircle
 10
350.1076429999998
 20
380.938647
 30
0.0
 40
1.3
100
AcDbArc
 50
15.8808
 51
84.99990000000002
  0
ARC
  5
9DE1
330
9BF7
100
AcDbEntity
  8
1
  6
Continuous
100
AcDbCircle
 10
342.701643
 20
378.8316469999998
 30
0.0
 40
9.0
100
AcDbArc
 50
344.1190000000001
 51
15.8808
  0
ARC
  5
9DE2
330
9BF7
100
AcDbEntity
  8
1
  6
Continuous
100
AcDbCircle
 10
350.1076429999998
 20
376.7246469999999
 30
0.0
 40
1.3
100
AcDbArc
 50
275.0
 51
344.1190000000001
  0
ARC
  5
9DE3
330
9BF7
100
AcDbEntity
  8
1
  6
Continuous
100
AcDbCircle
 10
17.405043
 20
339.938647
 30
0.0
 40
1.3
100
AcDbArc
 50
95.00010000000001
 51
164.119
  0
ARC
  5
9DE4
330
9BF7
100
AcDbEntity
  8
1
  6
Continuous
100
AcDbCircle
 10
24.81114299999999
 20
337.8316469999999
 30
0.0
 40
9.0
100
AcDbArc
 50
164.119
 51
195.8809999999998
  0
ARC
  5
9DE5
330
9BF7
100
AcDbEntity
  8
1
  6
Continuous
100
AcDbCircle
 10
17.405043
 20
335.724647
 30
0.0
 40
1.3
100
AcDbArc
 50
195.8809999999998
 51
265.0
  0
ARC
  5
9DE6
330
9BF7
100
AcDbEntity
  8
1
  6
Continuous
100
AcDbCircle
 10
17.405043
 20
380.938647
 30
0.0
 40
1.3
100
AcDbArc
 50
95.00010000000001
 51
164.119
  0
ARC
  5
9DE7
330
9BF7
100
AcDbEntity
  8
1
  6
Continuous
100
AcDbCircle
 10
24.81114299999999
 20
378.8316469999998
 30
0.0
 40
9.0
100
AcDbArc
 50
164.119
 51
195.8809999999998
  0
ARC
  5
9DE8
330
9BF7
100
AcDbEntity
  8
1
  6
Continuous
100
AcDbCircle
 10
17.405043
 20
376.7246469999999
 30
0.0
 40
1.3
100
AcDbArc
 50
195.8809999999998
 51
265.0
  0
ARC
  5
9DE9
330
9BF7
100
AcDbEntity
  8
1
  6
Continuous
100
AcDbCircle
 10
390.6686429999999
 20
380.531647
 30
0.0
 40
6.299999999999998
100
AcDbArc
 50
90.0
 51
180.0
  0
ARC
  5
9DEA
330
9BF7
100
AcDbEntity
  8
1
  6
Continuous
100
AcDbCircle
 10
390.6686429999999
 20
336.1316469999999
 30
0.0
 40
6.299999999999998
100
AcDbArc
 50
180.0
 51
270.0
  0
ARC
  5
9DEB
330
9BF7
100
AcDbEntity
  8
1
  6
Continuous
100
AcDbCircle
 10
455.8686429999998
 20
383.3316469999999
 30
0.0
 40
3.5
100
AcDbArc
 50
0.0
 51
90.0
  0
ARC
  5
9DEC
330
9BF7
100
AcDbEntity
  8
1
  6
Continuous
100
AcDbCircle
 10
455.8686429999998
 20
333.3316469999999
 30
0.0
 40
3.5
100
AcDbArc
 50
270.0
 51
0.0
  0
ARC
  5
9DED
330
9BF7
100
AcDbEntity
  8
1
  6
Continuous
100
AcDbCircle
 10
392.500643
 20
379.1316469999999
 30
0.0
 40
4.2
100
AcDbArc
 50
90.0
 51
180.0
  0
ARC
  5
9DEE
330
9BF7
100
AcDbEntity
  8
1
  6
Continuous
100
AcDbCircle
 10
392.500643
 20
337.531647
 30
0.0
 40
4.2
100
AcDbArc
 50
180.0
 51
270.0
  0
ARC
  5
9DEF
330
9BF7
100
AcDbEntity
  8
1
  6
Continuous
100
AcDbCircle
 10
62.450543
 20
386.8316469999999
 30
0.0
 40
2.5
100
AcDbArc
 50
53.13009999999999
 51
90.0
  0
ARC
  5
9DF0
330
9BF7
100
AcDbEntity
  8
1
  6
Continuous
100
AcDbCircle
 10
57.950543
 20
384.3316469999999
 30
0.0
 40
7.5
100
AcDbArc
 50
0.0
 51
36.8699
  0
ARC
  5
9DF1
330
9BF7
100
AcDbEntity
  8
1
  6
Continuous
100
AcDbCircle
 10
57.950543
 20
332.3316469999999
 30
0.0
 40
7.5
100
AcDbArc
 50
323.13
 51
0.0
  0
ARC
  5
9DF2
330
9BF7
100
AcDbEntity
  8
1
  6
Continuous
100
AcDbCircle
 10
62.450543
 20
329.8316469999999
 30
0.0
 40
2.5
100
AcDbArc
 50
270.0
 51
306.87
  0
ARC
  5
9DF3
330
9BF7
100
AcDbEntity
  8
1
  6
Continuous
100
AcDbCircle
 10
312.562643
 20
46.83164699999998
 30
0.0
 40
0.5
100
AcDbArc
 50
180.0
 51
315.0
  0
ARC
  5
9DF4
330
9BF7
100
AcDbEntity
  8
1
  6
Continuous
100
AcDbCircle
 10
195.8066429999998
 20
738.1216469999997
 30
0.0
 40
2.0
100
AcDbArc
 50
90.0
 51
180.0
  0
ARC
  5
9DF5
330
9BF7
100
AcDbEntity
  8
1
  6
Continuous
100
AcDbCircle
 10
226.806643
 20
738.1216469999997
 30
0.0
 40
2.0
100
AcDbArc
 50
0.000003
 51
90.0
  0
ARC
  5
9DF6
330
9BF7
100
AcDbEntity
  8
1
  6
Continuous
100
AcDbCircle
 10
226.806643
 20
729.1216469999997
 30
0.0
 40
2.0
100
AcDbArc
 50
270.0
 51
0.000003
  0
ARC
  5
9DF7
330
9BF7
100
AcDbEntity
  8
1
  6
Continuous
100
AcDbCircle
 10
195.8066429999998
 20
729.1216469999997
 30
0.0
 40
2.0
100
AcDbArc
 50
180.0
 51
270.0
  0
ARC
  5
9DF8
330
9BF7
100
AcDbEntity
  8
1
  6
Continuous
100
AcDbCircle
 10
207.8066429999998
 20
737.1216469999997
 30
0.0
 40
1.0
100
AcDbArc
 50
90.0
 51
180.0
  0
ARC
  5
9DF9
330
9BF7
100
AcDbEntity
  8
1
  6
Continuous
100
AcDbCircle
 10
214.806643
 20
737.1216469999997
 30
0.0
 40
1.0
100
AcDbArc
 50
0.000003
 51
90.0
  0
ARC
  5
9DFA
330
9BF7
100
AcDbEntity
  8
1
  6
Continuous
100
AcDbCircle
 10
214.806643
 20
730.1216469999997
 30
0.0
 40
1.0
100
AcDbArc
 50
270.0
 51
0.000003
  0
ARC
  5
9DFB
330
9BF7
100
AcDbEntity
  8
1
  6
Continuous
100
AcDbCircle
 10
207.8066429999998
 20
730.1216469999997
 30
0.0
 40
1.0
100
AcDbArc
 50
180.0
 51
270.0
  0
CIRCLE
  5
9DFC
330
9BF7
100
AcDbEntity
  8
2
  6
Continuous
100
AcDbCircle
 10
223.8066429999999
 20
733.6216469999997
 30
0.0
 40
1.5
  0
CIRCLE
  5
9DFD
330
9BF7
100
AcDbEntity
  8
2
  6
Continuous
100
AcDbCircle
 10
198.8066429999999
 20
733.6216469999997
 30
0.0
 40
1.5
  0
CIRCLE
  5
9DFE
330
9BF7
100
AcDbEntity
  8
1
  6
Continuous
100
AcDbCircle
 10
223.8066429999999
 20
733.6216469999997
 30
0.0
 40
1.2295
  0
CIRCLE
  5
9DFF
330
9BF7
100
AcDbEntity
  8
1
  6
Continuous
100
AcDbCircle
 10
198.8066429999999
 20
733.6216469999997
 30
0.0
 40
1.2295
  0
ARC
  5
9E00
330
9BF7
100
AcDbEntity
  8
5
  6
PHANTOM
100
AcDbCircle
 10
207.8066429999998
 20
53.831647
 30
0.0
 40
1.0
100
AcDbArc
 50
180.0
 51
270.0
  0
ARC
  5
9E01
330
9BF7
100
AcDbEntity
  8
5
  6
PHANTOM
100
AcDbCircle
 10
214.806643
 20
53.831647
 30
0.0
 40
1.0
100
AcDbArc
 50
270.0
 51
0.0
  0
ARC
  5
9E02
330
9BF7
100
AcDbEntity
  8
1
  6
Continuous
100
AcDbCircle
 10
218.806643
 20
62.33164699999999
 30
0.0
 40
1.0
100
AcDbArc
 50
180.0
 51
270.0
  0
ARC
  5
9E03
330
9BF7
100
AcDbEntity
  8
1
  6
Continuous
100
AcDbCircle
 10
203.8066429999998
 20
62.33164699999999
 30
0.0
 40
1.0
100
AcDbArc
 50
270.0
 51
0.0
  0
ARC
  5
9E04
330
9BF7
100
AcDbEntity
  8
1
  6
Continuous
100
AcDbCircle
 10
216.806643
 20
85.331647
 30
0.0
 40
1.0
100
AcDbArc
 50
0.0
 51
90.0
  0
ARC
  5
9E05
330
9BF7
100
AcDbEntity
  8
1
  6
Continuous
100
AcDbCircle
 10
205.8066429999998
 20
85.331647
 30
0.0
 40
1.0
100
AcDbArc
 50
90.0
 51
180.0
  0
ARC
  5
9E06
330
9BF7
100
AcDbEntity
  8
1
  6
Continuous
100
AcDbCircle
 10
205.8066429999998
 20
631.331647
 30
0.0
 40
1.0
100
AcDbArc
 50
180.0
 51
270.0
  0
ARC
  5
9E07
330
9BF7
100
AcDbEntity
  8
1
  6
Continuous
100
AcDbCircle
 10
207.8066429999998
 20
669.331647
 30
0.0
 40
1.0
100
AcDbArc
 50
90.0
 51
180.0
  0
ARC
  5
9E08
330
9BF7
100
AcDbEntity
  8
1
  6
Continuous
100
AcDbCircle
 10
214.806643
 20
669.331647
 30
0.0
 40
1.0
100
AcDbArc
 50
0.000003
 51
90.0
  0
ARC
  5
9E09
330
9BF7
100
AcDbEntity
  8
1
  6
Continuous
100
AcDbCircle
 10
218.806643
 20
654.3316469999997
 30
0.0
 40
1.0
100
AcDbArc
 50
90.0
 51
180.0
  0
ARC
  5
9E0A
330
9BF7
100
AcDbEntity
  8
1
  6
Continuous
100
AcDbCircle
 10
203.8066429999998
 20
654.3316469999997
 30
0.0
 40
1.0
100
AcDbArc
 50
0.000003
 51
90.0
  0
ARC
  5
9E0B
330
9BF7
100
AcDbEntity
  8
1
  6
Continuous
100
AcDbCircle
 10
216.806643
 20
631.331647
 30
0.0
 40
1.0
100
AcDbArc
 50
270.0
 51
0.000003
  0
ARC
  5
9E0C
330
9BF7
100
AcDbEntity
  8
1
  6
Continuous
100
AcDbCircle
 10
415.3186429999998
 20
47.33164699999998
 30
0.0
 40
1.0
100
AcDbArc
 50
180.0
 51
270.0
  0
ARC
  5
9E0D
330
9BF7
100
AcDbEntity
  8
1
  6
Continuous
100
AcDbCircle
 10
422.3186429999998
 20
47.33164699999998
 30
0.0
 40
1.0
100
AcDbArc
 50
270.0
 51
0.0
  0
ARC
  5
9E0E
330
9BF7
100
AcDbEntity
  8
1
  6
Continuous
100
AcDbCircle
 10
426.3186429999998
 20
62.33164699999999
 30
0.0
 40
1.0
100
AcDbArc
 50
180.0
 51
270.0
  0
ARC
  5
9E0F
330
9BF7
100
AcDbEntity
  8
1
  6
Continuous
100
AcDbCircle
 10
411.3186429999998
 20
62.33164699999999
 30
0.0
 40
1.0
100
AcDbArc
 50
270.0
 51
0.0
  0
ARC
  5
9E10
330
9BF7
100
AcDbEntity
  8
1
  6
Continuous
100
AcDbCircle
 10
424.3186429999998
 20
85.331647
 30
0.0
 40
1.0
100
AcDbArc
 50
0.0
 51
90.0
  0
ARC
  5
9E11
330
9BF7
100
AcDbEntity
  8
1
  6
Continuous
100
AcDbCircle
 10
413.318643
 20
85.331647
 30
0.0
 40
1.0
100
AcDbArc
 50
90.0
 51
180.0
  0
ARC
  5
9E12
330
9BF7
100
AcDbEntity
  8
1
  6
Continuous
100
AcDbCircle
 10
413.318643
 20
631.331647
 30
0.0
 40
1.0
100
AcDbArc
 50
180.0
 51
270.0
  0
ARC
  5
9E13
330
9BF7
100
AcDbEntity
  8
1
  6
Continuous
100
AcDbCircle
 10
415.3186429999998
 20
669.331647
 30
0.0
 40
1.0
100
AcDbArc
 50
90.0
 51
180.0
  0
ARC
  5
9E14
330
9BF7
100
AcDbEntity
  8
1
  6
Continuous
100
AcDbCircle
 10
422.3186429999998
 20
669.331647
 30
0.0
 40
1.0
100
AcDbArc
 50
0.000003
 51
90.0
  0
ARC
  5
9E15
330
9BF7
100
AcDbEntity
  8
1
  6
Continuous
100
AcDbCircle
 10
426.3186429999998
 20
654.3316469999997
 30
0.0
 40
1.0
100
AcDbArc
 50
90.0
 51
180.0
  0
ARC
  5
9E16
330
9BF7
100
AcDbEntity
  8
1
  6
Continuous
100
AcDbCircle
 10
411.3186429999998
 20
654.3316469999997
 30
0.0
 40
1.0
100
AcDbArc
 50
0.000003
 51
90.0
  0
ARC
  5
9E17
330
9BF7
100
AcDbEntity
  8
1
  6
Continuous
100
AcDbCircle
 10
424.3186429999998
 20
631.331647
 30
0.0
 40
1.0
100
AcDbArc
 50
270.0
 51
0.000003
  0
ARC
  5
9E18
330
9BF7
100
AcDbEntity
  8
1
  6
Continuous
100
AcDbCircle
 10
312.562643
 20
669.8316469999999
 30
0.0
 40
0.5
100
AcDbArc
 50
45.0
 51
180.0
  0
ARC
  5
9E19
330
9BF7
100
AcDbEntity
  8
1
  6
Continuous
100
AcDbCircle
 10
54.950543
 20
46.83164699999998
 30
0.0
 40
0.5
100
AcDbArc
 50
225.0
 51
0.0
  0
ARC
  5
9E1A
330
9BF7
100
AcDbEntity
  8
5
  6
PHANTOM
100
AcDbCircle
 10
54.950543
 20
663.3316469999997
 30
0.0
 40
0.5
100
AcDbArc
 50
0.000003
 51
135.0
  0
ARC
  5
9E1B
330
9BF7
100
AcDbEntity
  8
5
  6
PHANTOM
100
AcDbCircle
 10
214.806643
 20
37.33164699999999
 30
0.0
 40
1.0
100
AcDbArc
 50
270.0
 51
0.0
  0
ARC
  5
9E1C
330
9BF7
100
AcDbEntity
  8
5
  6
PHANTOM
100
AcDbCircle
 10
207.8066429999998
 20
37.33164699999999
 30
0.0
 40
1.0
100
AcDbArc
 50
180.0
 51
270.0
  0
ARC
  5
9E1D
330
9BF7
100
AcDbEntity
  8
1
  6
Continuous
100
AcDbCircle
 10
214.806643
 20
47.33164699999998
 30
0.0
 40
1.0
100
AcDbArc
 50
270.0
 51
0.0
  0
ARC
  5
9E1E
330
9BF7
100
AcDbEntity
  8
1
  6
Continuous
100
AcDbCircle
 10
207.8066429999998
 20
47.33164699999998
 30
0.0
 40
1.0
100
AcDbArc
 50
180.0
 51
270.0
  0
ARC
  5
9E1F
330
9BF7
100
AcDbEntity
  8
5
  6
PHANTOM
100
AcDbCircle
 10
207.8066429999998
 20
662.8316469999997
 30
0.0
 40
1.0
100
AcDbArc
 50
90.0
 51
180.0
  0
ARC
  5
9E20
330
9BF7
100
AcDbEntity
  8
5
  6
PHANTOM
100
AcDbCircle
 10
214.806643
 20
662.8316469999997
 30
0.0
 40
1.0
100
AcDbArc
 50
0.000003
 51
90.0
  0
ARC
  5
9E21
330
9BF7
100
AcDbEntity
  8
5
  6
PHANTOM
100
AcDbCircle
 10
214.806643
 20
679.3316469999997
 30
0.0
 40
1.0
100
AcDbArc
 50
0.000003
 51
90.0
  0
ARC
  5
9E22
330
9BF7
100
AcDbEntity
  8
5
  6
PHANTOM
100
AcDbCircle
 10
207.8066429999998
 20
679.3316469999997
 30
0.0
 40
1.0
100
AcDbArc
 50
90.0
 51
180.0
  0
ARC
  5
9E23
330
9BF7
100
AcDbEntity
  8
5
  6
PHANTOM
100
AcDbCircle
 10
119.7566429999999
 20
729.6216469999997
 30
0.0
 40
0.5
100
AcDbArc
 50
135.0
 51
270.0
  0
ARC
  5
9E24
330
9BF7
100
AcDbEntity
  8
1
  6
Continuous
100
AcDbCircle
 10
46.45054299999999
 20
373.831647
 30
0.0
 40
2.0
100
AcDbArc
 50
90.0
 51
180.0
  0
ARC
  5
9E25
330
9BF7
100
AcDbEntity
  8
1
  6
Continuous
100
AcDbCircle
 10
46.45054299999999
 20
342.8316469999999
 30
0.0
 40
2.0
100
AcDbArc
 50
180.0
 51
270.0
  0
ARC
  5
9E26
330
9BF7
100
AcDbEntity
  8
1
  6
Continuous
100
AcDbCircle
 10
55.450543
 20
342.8316469999999
 30
0.0
 40
2.0
100
AcDbArc
 50
270.0
 51
0.0
  0
ARC
  5
9E27
330
9BF7
100
AcDbEntity
  8
1
  6
Continuous
100
AcDbCircle
 10
55.450543
 20
373.831647
 30
0.0
 40
2.0
100
AcDbArc
 50
0.0
 51
90.0
  0
ARC
  5
9E28
330
9BF7
100
AcDbEntity
  8
1
  6
Continuous
100
AcDbCircle
 10
47.45054299999998
 20
361.8316469999999
 30
0.0
 40
1.0
100
AcDbArc
 50
90.0
 51
180.0
  0
ARC
  5
9E29
330
9BF7
100
AcDbEntity
  8
1
  6
Continuous
100
AcDbCircle
 10
47.45054299999998
 20
354.8316469999999
 30
0.0
 40
1.0
100
AcDbArc
 50
180.0
 51
270.0
  0
ARC
  5
9E2A
330
9BF7
100
AcDbEntity
  8
1
  6
Continuous
100
AcDbCircle
 10
54.450543
 20
354.8316469999999
 30
0.0
 40
1.0
100
AcDbArc
 50
270.0
 51
0.0
  0
ARC
  5
9E2B
330
9BF7
100
AcDbEntity
  8
1
  6
Continuous
100
AcDbCircle
 10
54.450543
 20
361.8316469999999
 30
0.0
 40
1.0
100
AcDbArc
 50
0.0
 51
90.0
  0
CIRCLE
  5
9E2C
330
9BF7
100
AcDbEntity
  8
2
  6
Continuous
100
AcDbCircle
 10
50.95054300000001
 20
345.8316469999999
 30
0.0
 40
1.5
  0
CIRCLE
  5
9E2D
330
9BF7
100
AcDbEntity
  8
2
  6
Continuous
100
AcDbCircle
 10
50.95054300000001
 20
370.8316469999999
 30
0.0
 40
1.5
  0
CIRCLE
  5
9E2E
330
9BF7
100
AcDbEntity
  8
1
  6
Continuous
100
AcDbCircle
 10
50.95054300000001
 20
345.8316469999999
 30
0.0
 40
1.2295
  0
CIRCLE
  5
9E2F
330
9BF7
100
AcDbEntity
  8
1
  6
Continuous
100
AcDbCircle
 10
50.95054300000001
 20
370.8316469999999
 30
0.0
 40
1.2295
  0
ARC
  5
9E30
330
9BF7
100
AcDbEntity
  8
5
  6
PHANTOM
100
AcDbCircle
 10
120.256643
 20
361.8316469999999
 30
0.0
 40
1.0
100
AcDbArc
 50
90.0
 51
180.0
  0
ARC
  5
9E31
330
9BF7
100
AcDbEntity
  8
5
  6
PHANTOM
100
AcDbCircle
 10
120.256643
 20
354.8316469999999
 30
0.0
 40
1.0
100
AcDbArc
 50
180.0
 51
270.0
  0
ARC
  5
9E32
330
9BF7
100
AcDbEntity
  8
1
  6
Continuous
100
AcDbCircle
 10
130.756643
 20
350.831647
 30
0.0
 40
1.0
100
AcDbArc
 50
90.0
 51
180.0
  0
ARC
  5
9E33
330
9BF7
100
AcDbEntity
  8
1
  6
Continuous
100
AcDbCircle
 10
130.756643
 20
365.8316469999999
 30
0.0
 40
1.0
100
AcDbArc
 50
180.0
 51
270.0
  0
ARC
  5
9E34
330
9BF7
100
AcDbEntity
  8
1
  6
Continuous
100
AcDbCircle
 10
153.756643
 20
352.831647
 30
0.0
 40
1.0
100
AcDbArc
 50
270.0
 51
0.0
  0
ARC
  5
9E35
330
9BF7
100
AcDbEntity
  8
1
  6
Continuous
100
AcDbCircle
 10
153.756643
 20
363.8316469999999
 30
0.0
 40
1.0
100
AcDbArc
 50
0.0
 51
90.0
  0
ARC
  5
9E36
330
9BF7
100
AcDbEntity
  8
5
  6
PHANTOM
100
AcDbCircle
 10
110.756643
 20
361.8316469999999
 30
0.0
 40
1.0
100
AcDbArc
 50
90.0
 51
180.0
  0
ARC
  5
9E37
330
9BF7
100
AcDbEntity
  8
5
  6
PHANTOM
100
AcDbCircle
 10
110.756643
 20
354.8316469999999
 30
0.0
 40
1.0
100
AcDbArc
 50
180.0
 51
270.0
  0
ARC
  5
9E38
330
9BF7
100
AcDbEntity
  8
1
  6
Continuous
100
AcDbCircle
 10
115.7566429999999
 20
361.8316469999999
 30
0.0
 40
1.0
100
AcDbArc
 50
90.0
 51
180.0
  0
ARC
  5
9E39
330
9BF7
100
AcDbEntity
  8
1
  6
Continuous
100
AcDbCircle
 10
115.7566429999999
 20
354.8316469999999
 30
0.0
 40
1.0
100
AcDbArc
 50
180.0
 51
270.0
  0
ARC
  5
9E3A
330
9BF7
100
AcDbEntity
  8
1
  6
Continuous
100
AcDbCircle
 10
514.368643
 20
361.8316469999999
 30
0.0
 40
1.0
100
AcDbArc
 50
0.0
 51
90.0
  0
ARC
  5
9E3B
330
9BF7
100
AcDbEntity
  8
1
  6
Continuous
100
AcDbCircle
 10
499.3686429999998
 20
365.8316469999999
 30
0.0
 40
1.0
100
AcDbArc
 50
270.0
 51
0.0
  0
ARC
  5
9E3C
330
9BF7
100
AcDbEntity
  8
1
  6
Continuous
100
AcDbCircle
 10
499.3686429999998
 20
350.831647
 30
0.0
 40
1.0
100
AcDbArc
 50
0.0
 51
90.0
  0
ARC
  5
9E3D
330
9BF7
100
AcDbEntity
  8
1
  6
Continuous
100
AcDbCircle
 10
476.3686429999999
 20
363.8316469999999
 30
0.0
 40
1.0
100
AcDbArc
 50
90.0
 51
180.0
  0
ARC
  5
9E3E
330
9BF7
100
AcDbEntity
  8
1
  6
Continuous
100
AcDbCircle
 10
476.3686429999999
 20
352.831647
 30
0.0
 40
1.0
100
AcDbArc
 50
180.0
 51
270.0
  0
ARC
  5
9E3F
330
9BF7
100
AcDbEntity
  8
1
  6
Continuous
100
AcDbCircle
 10
514.368643
 20
354.8316469999999
 30
0.0
 40
1.0
100
AcDbArc
 50
270.0
 51
0.0
  0
ARC
  5
9E40
330
9BF7
100
AcDbEntity
  8
1
  6
Continuous
100
AcDbCircle
 10
321.062643
 20
373.831647
 30
0.0
 40
2.0
100
AcDbArc
 50
0.0
 51
60.0
  0
ARC
  5
9E41
330
9BF7
100
AcDbEntity
  8
1
  6
Continuous
100
AcDbCircle
 10
321.062643
 20
342.8316469999999
 30
0.0
 40
2.0
100
AcDbArc
 50
300.0
 51
0.0
  0
ARC
  5
9E42
330
9BF7
100
AcDbEntity
  8
1
  6
Continuous
100
AcDbCircle
 10
54.950543
 20
669.8316469999999
 30
0.0
 40
0.5
100
AcDbArc
 50
0.000003
 51
135.0
  0
ARC
  5
9E43
330
9BF7
100
AcDbEntity
  8
5
  6
PHANTOM
100
AcDbCircle
 10
54.950543
 20
679.8316469999997
 30
0.0
 40
0.5
100
AcDbArc
 50
0.000003
 51
135.0
  0
ARC
  5
9E44
330
9BF7
100
AcDbEntity
  8
5
  6
PHANTOM
100
AcDbCircle
 10
54.950543
 20
36.83164699999998
 30
0.0
 40
0.5
100
AcDbArc
 50
225.0
 51
0.0
  0
ARC
  5
9E45
330
9BF7
100
AcDbEntity
  8
5
  6
PHANTOM
100
AcDbCircle
 10
54.950543
 20
53.331647
 30
0.0
 40
0.5
100
AcDbArc
 50
225.0
 51
0.0
  0
ARC
  5
9E46
330
9BF7
100
AcDbEntity
  8
5
  6
PHANTOM
100
AcDbCircle
 10
110.2566429999999
 20
729.6216469999997
 30
0.0
 40
0.5
100
AcDbArc
 50
135.0
 51
270.0
  0
ARC
  5
9E47
330
9BF7
100
AcDbEntity
  8
1
  6
Continuous
100
AcDbCircle
 10
115.256643
 20
729.6216469999997
 30
0.0
 40
0.5
100
AcDbArc
 50
135.0
 51
270.0
  0
CIRCLE
  5
9E48
330
9BF7
100
AcDbEntity
  8
1
  6
Continuous
100
AcDbCircle
 10
182.256643
 20
725.3716469999996
 30
0.0
 40
2.0
  0
ARC
  5
9E49
330
9BF7
100
AcDbEntity
  8
1
  6
Continuous
100
AcDbCircle
 10
20.61114299999999
 20
384.6316470000001
 30
0.0
 40
1.199999999999999
100
AcDbArc
 50
90.0
 51
180.0
  0
ARC
  5
9E4A
330
9BF7
100
AcDbEntity
  8
1
  6
Continuous
100
AcDbCircle
 10
20.61114299999999
 20
332.031647
 30
0.0
 40
1.199999999999999
100
AcDbArc
 50
180.0
 51
270.0
  0
ARC
  5
9E4B
330
9BF7
100
AcDbEntity
  8
1
  6
Continuous
100
AcDbCircle
 10
346.9016429999999
 20
384.6316470000001
 30
0.0
 40
1.199999999999999
100
AcDbArc
 50
0.0
 51
90.0
  0
ARC
  5
9E4C
330
9BF7
100
AcDbEntity
  8
1
  6
Continuous
100
AcDbCircle
 10
346.9016429999999
 20
332.031647
 30
0.0
 40
1.199999999999999
100
AcDbArc
 50
270.0
 51
0.0
  0
LINE
  5
9E4D
330
9BF7
100
AcDbEntity
  8
1
  6
Continuous
100
AcDbLine
 10
460.569643
 20
361.832147
 30
0.0
 11
460.569643
 21
354.832147
 31
0.0
  0
LINE
  5
9E4E
330
9BF7
100
AcDbEntity
  8
1
  6
Continuous
100
AcDbLine
 10
169.5566429999998
 20
737.1216469999997
 30
0.0
 11
169.5566429999998
 21
730.1216469999997
 31
0.0
  0
LINE
  5
9E4F
330
9BF7
100
AcDbEntity
  8
1
  6
Continuous
100
AcDbLine
 10
172.757643
 20
730.1216469999997
 30
0.0
 11
169.5566429999998
 21
730.1216469999997
 31
0.0
  0
LINE
  5
9E50
330
9BF7
100
AcDbEntity
  8
1
  6
Continuous
100
AcDbLine
 10
460.256643
 20
362.373147
 30
0.0
 11
457.3686429999998
 21
362.373147
 31
0.0
  0
LINE
  5
9E51
330
9BF7
100
AcDbEntity
  8
1
  6
Continuous
100
AcDbLine
 10
460.256643
 20
354.2901469999998
 30
0.0
 11
457.3686429999998
 21
354.2901469999998
 31
0.0
  0
LINE
  5
9E52
330
9BF7
100
AcDbEntity
  8
1
  6
Continuous
100
AcDbLine
 10
460.569643
 20
354.832147
 30
0.0
 11
460.256643
 21
354.2901469999998
 31
0.0
  0
LINE
  5
9E53
330
9BF7
100
AcDbEntity
  8
1
  6
Continuous
100
AcDbLine
 10
460.569643
 20
361.832147
 30
0.0
 11
460.256643
 21
362.373147
 31
0.0
  0
LINE
  5
9E54
330
9BF7
100
AcDbEntity
  8
1
  6
Continuous
100
AcDbLine
 10
460.256643
 20
360.353147
 30
0.0
 11
457.3686429999998
 21
360.353147
 31
0.0
  0
LINE
  5
9E55
330
9BF7
100
AcDbEntity
  8
1
  6
Continuous
100
AcDbLine
 10
460.256643
 20
356.3111469999999
 30
0.0
 11
457.3686429999998
 21
356.3111469999999
 31
0.0
  0
LINE
  5
9E56
330
9BF7
100
AcDbEntity
  8
1
  6
Continuous
100
AcDbLine
 10
172.7566429999999
 20
737.1216469999997
 30
0.0
 11
169.5566429999998
 21
737.1216469999997
 31
0.0
  0
LINE
  5
9E57
330
9BF7
100
AcDbEntity
  8
1
  6
Continuous
100
AcDbLine
 10
172.7566429999999
 20
733.6216469999997
 30
0.0
 11
169.869643
 21
733.6216469999997
 31
0.0
  0
ARC
  5
9E58
330
9BF7
100
AcDbEntity
  8
1
  6
Continuous
100
AcDbCircle
 10
458.779643
 20
361.363147
 30
0.0
 40
1.789069999999999
100
AcDbArc
 50
325.6159999999998
 51
34.384
  0
ARC
  5
9E59
330
9BF7
100
AcDbEntity
  8
1
  6
Continuous
100
AcDbCircle
 10
453.8816429999998
 20
358.332147
 30
0.0
 40
6.687409999999998
100
AcDbArc
 50
342.4119999999998
 51
17.588
  0
ARC
  5
9E5A
330
9BF7
100
AcDbEntity
  8
1
  6
Continuous
100
AcDbCircle
 10
458.779643
 20
355.301147
 30
0.0
 40
1.78908
100
AcDbArc
 50
325.6159999999998
 51
34.384
  0
ARC
  5
9E5B
330
9BF7
100
AcDbEntity
  8
1
  6
Continuous
100
AcDbCircle
 10
174.6116429999999
 20
735.3716469999997
 30
0.0
 40
5.05463
100
AcDbArc
 50
159.7439999999998
 51
200.2559999999999
  0
ARC
  5
9E5C
330
9BF7
100
AcDbEntity
  8
1
  6
Continuous
100
AcDbCircle
 10
174.6116429999999
 20
731.8716469999997
 30
0.0
 40
5.05463
100
AcDbArc
 50
159.7439999999998
 51
200.2559999999999
  0
LINE
  5
9E5D
330
9BF7
100
AcDbEntity
  8
1
  6
Continuous
100
AcDbLine
 10
457.3686429999998
 20
359.8316469999998
 30
0.0
 11
455.8686429999998
 21
359.8316469999998
 31
0.0
  0
LINE
  5
9E5E
330
9BF7
100
AcDbEntity
  8
1
  6
Continuous
100
AcDbLine
 10
457.3686429999998
 20
356.8316469999999
 30
0.0
 11
455.8686429999998
 21
356.8316469999999
 31
0.0
  0
ENDSEC
  0
SECTION
  2
OBJECTS
  0
DICTIONARY
  5
9BE5
330
0
100
AcDbDictionary
281
     1
  3
ACAD_CIP_PREVIOUS_PRODUCT_INFO
350
9EC4
  3
ACAD_COLOR
350
9EA6
  3
ACAD_DETAILVIEWSTYLE
350
9EBF
  3
ACAD_GROUP
350
9BE6
  3
ACAD_LAYOUT
350
9BF2
  3
ACAD_MATERIAL
350
9E74
  3
ACAD_MLEADERSTYLE
350
9EBB
  3
ACAD_MLINESTYLE
350
9BEF
  3
ACAD_PLOTSETTINGS
350
9BF1
  3
ACAD_PLOTSTYLENAME
350
9E72
  3
ACAD_SCALELIST
350
9EA9
  3
ACAD_SECTIONVIEWSTYLE
350
9EBD
  3
ACAD_TABLESTYLE
350
9EA7
  3
ACAD_VISUALSTYLE
350
9E8D
  3
ACDB_RECOMPOSE_DATA
350
9EE2
  3
AcDbVariableDictionary
350
9ED5
  3
DWGPROPS
350
9EE3
  0
DICTIONARY
  5
9EC5
330
9BE9
100
AcDbDictionary
280
     1
281
     1
  3
ADSK_XREC_LAYER_RECONCILED
360
9EC6
  0
DICTIONARY
  5
9EC7
330
9BFF
100
AcDbDictionary
280
     1
281
     1
  3
ADSK_XREC_LAYER_RECONCILED
360
9EC8
  0
DICTIONARY
  5
9EC9
330
9C00
100
AcDbDictionary
280
     1
281
     1
  3
ADSK_XREC_LAYER_RECONCILED
360
9ECA
  0
DICTIONARY
  5
9ECB
330
9C01
100
AcDbDictionary
280
     1
281
     1
  3
ADSK_XREC_LAYER_RECONCILED
360
9ECC
  0
DICTIONARY
  5
9ECD
330
9C02
100
AcDbDictionary
280
     1
281
     1
  3
ADSK_XREC_LAYER_RECONCILED
360
9ECE
  0
DICTIONARY
  5
9ECF
330
9C03
100
AcDbDictionary
280
     1
281
     1
  3
ADSK_XREC_LAYER_RECONCILED
360
9ED0
  0
DICTIONARY
  5
9ED1
330
9C04
100
AcDbDictionary
280
     1
281
     1
  3
ADSK_XREC_LAYER_RECONCILED
360
9ED2
  0
DICTIONARY
  5
9ED3
330
9C05
100
AcDbDictionary
280
     1
281
     1
  3
ADSK_XREC_LAYER_RECONCILED
360
9ED4
  0
DICTIONARY
  5
9E6D
330
9BF7
100
AcDbDictionary
281
     1
  3
ACAD_LAYOUTSELFREF
350
9E6E
  0
DICTIONARY
  5
9E6B
330
9BF3
100
AcDbDictionary
281
     1
  3
ACAD_LAYOUTSELFREF
350
9E6C
  0
XRECORD
  5
9EC4
102
{ACAD_REACTORS
330
9BE5
102
}
330
9BE5
100
AcDbXrecord
280
     1
300
ACDLT
300
2014
300
ACDLT_F_S
  0
DICTIONARY
  5
9EA6
102
{ACAD_REACTORS
330
9BE5
102
}
330
9BE5
100
AcDbDictionary
281
     1
  0
DICTIONARY
  5
9EBF
102
{ACAD_REACTORS
330
9BE5
102
}
330
9BE5
100
AcDbDictionary
281
     1
  3
Imperial24
350
9EC0
  0
DICTIONARY
  5
9BE6
102
{ACAD_REACTORS
330
9BE5
102
}
330
9BE5
100
AcDbDictionary
281
     1
  0
DICTIONARY
  5
9BF2
102
{ACAD_REACTORS
330
9BE5
102
}
330
9BE5
100
AcDbDictionary
281
     1
  3
Model
350
9EC1
  3
レイアウト1
350
9EC2
  0
DICTIONARY
  5
9E74
102
{ACAD_REACTORS
330
9BE5
102
}
330
9BE5
100
AcDbDictionary
281
     1
  3
ByBlock
350
9E7D
  3
ByLayer
350
9E75
  3
Global
350
9E85
  0
DICTIONARY
  5
9EBB
102
{ACAD_REACTORS
330
9BE5
102
}
330
9BE5
100
AcDbDictionary
281
     1
  3
Standard
350
9EBC
  0
DICTIONARY
  5
9BEF
102
{ACAD_REACTORS
330
9BE5
102
}
330
9BE5
100
AcDbDictionary
281
     1
  3
STANDARD
350
9BF0
  0
DICTIONARY
  5
9BF1
102
{ACAD_REACTORS
330
9BE5
102
}
330
9BE5
100
AcDbDictionary
281
     1
  0
ACDBDICTIONARYWDFLT
  5
9E72
102
{ACAD_REACTORS
330
9BE5
102
}
330
9BE5
100
AcDbDictionary
281
     1
  3
Normal
350
9E73
100
AcDbDictionaryWithDefault
340
9E73
  0
DICTIONARY
  5
9EA9
102
{ACAD_REACTORS
330
9BE5
102
}
330
9BE5
100
AcDbDictionary
281
     1
  3
A0
350
9EAA
  3
A1
350
9EAB
  3
A2
350
9EAC
  3
A3
350
9EAD
  3
A4
350
9EAE
  3
A5
350
9EAF
  3
A6
350
9EB0
  3
A7
350
9EB1
  3
A8
350
9EB2
  3
A9
350
9EB3
  3
B0
350
9EB4
  3
B1
350
9EB5
  3
B2
350
9EB6
  3
B3
350
9EB7
  3
B4
350
9EB8
  3
B5
350
9EB9
  3
B6
350
9EBA
  0
DICTIONARY
  5
9EBD
102
{ACAD_REACTORS
330
9BE5
102
}
330
9BE5
100
AcDbDictionary
281
     1
  3
Imperial24
350
9EBE
  0
DICTIONARY
  5
9EA7
102
{ACAD_REACTORS
330
9BE5
102
}
330
9BE5
100
AcDbDictionary
281
     1
  3
Standard
350
9EA8
  0
DICTIONARY
  5
9E8D
102
{ACAD_REACTORS
330
9BE5
102
}
330
9BE5
100
AcDbDictionary
281
     1
  3
2dWireframe
350
9E93
  3
Basic
350
9E92
  3
Brighten
350
9E99
  3
ColorChange
350
9E9D
  3
Conceptual
350
9E96
  3
Dim
350
9E98
  3
EdgeColorOff
350
9EA5
  3
Facepattern
350
9E9C
  3
Flat
350
9E8E
  3
FlatWithEdges
350
9E8F
  3
Gouraud
350
9E90
  3
GouraudWithEdges
350
9E91
  3
Hidden
350
9E95
  3
JitterOff
350
9EA3
  3
Linepattern
350
9E9B
  3
OverhangOff
350
9EA4
  3
Realistic
350
9E97
  3
Shaded
350
9EA2
  3
Shaded with edges
350
9EA1
  3
Shades of Gray
350
9E9E
  3
Sketchy
350
9E9F
  3
Thicken
350
9E9A
  3
Wireframe
350
9E94
  3
X-Ray
350
9EA0
  0
XRECORD
  5
9EE2
102
{ACAD_REACTORS
330
9BE5
102
}
330
9BE5
100
AcDbXrecord
280
     1
 90
        1
330
9EA8
  0
DICTIONARY
  5
9ED5
102
{ACAD_REACTORS
330
9BE5
102
}
330
9BE5
100
AcDbDictionary
281
     1
  3
CANNOSCALE
350
9EDA
  3
CMLEADERSTYLE
350
9ED7
  3
CTABLESTYLE
350
9ED6
  3
CVIEWDETAILSTYLE
350
9ED8
  3
CVIEWSECTIONSTYLE
350
9ED9
  3
DIMASSOC
350
9EDD
  3
INDEXCTL
350
9EDC
  3
SORTENTS
350
9EDB
  3
XCLIPFRAME
350
9EDE
  0
XRECORD
  5
9EE3
102
{ACAD_REACTORS
330
9BE5
102
}
330
9BE5
100
AcDbXrecord
280
     1
  1
DWGPROPS COOKIE
  2

  3

  4

  6

  7

  8
Yoshitsune
  9

300
=
301
=
302
=
303
=
304
=
305
=
306
=
307
=
308
=
309
=
 40
0.0000149768518519
 41
2450737.66039132
 42
2457192.640117142
  1

 90
        0
  0
XRECORD
  5
9EC6
102
{ACAD_REACTORS
330
9EC5
102
}
330
9EC5
100
AcDbXrecord
280
     1
290
     1
  0
XRECORD
  5
9EC8
102
{ACAD_REACTORS
330
9EC7
102
}
330
9EC7
100
AcDbXrecord
280
     1
290
     1
  0
XRECORD
  5
9ECA
102
{ACAD_REACTORS
330
9EC9
102
}
330
9EC9
100
AcDbXrecord
280
     1
290
     1
  0
XRECORD
  5
9ECC
102
{ACAD_REACTORS
330
9ECB
102
}
330
9ECB
100
AcDbXrecord
280
     1
290
     1
  0
XRECORD
  5
9ECE
102
{ACAD_REACTORS
330
9ECD
102
}
330
9ECD
100
AcDbXrecord
280
     1
290
     1
  0
XRECORD
  5
9ED0
102
{ACAD_REACTORS
330
9ECF
102
}
330
9ECF
100
AcDbXrecord
280
     1
290
     1
  0
XRECORD
  5
9ED2
102
{ACAD_REACTORS
330
9ED1
102
}
330
9ED1
100
AcDbXrecord
280
     1
290
     1
  0
XRECORD
  5
9ED4
102
{ACAD_REACTORS
330
9ED3
102
}
330
9ED3
100
AcDbXrecord
280
     1
290
     1
  0
XRECORD
  5
9E6E
102
{ACAD_REACTORS
330
9E6D
102
}
330
9E6D
100
AcDbXrecord
280
     1
340
9BF7
  0
XRECORD
  5
9E6C
102
{ACAD_REACTORS
330
9E6B
102
}
330
9E6B
100
AcDbXrecord
280
     1
340
9BF3
  0
ACDBDETAILVIEWSTYLE
  5
9EC0
102
{ACAD_XDICTIONARY
360
9F1B
102
}
102
{ACAD_REACTORS
330
9EBF
102
}
330
9EBF
100
AcDbModelDocViewStyle
 70
     0
  3
Imperial24
290
     0
100
AcDbDetailViewStyle
 70
     0
 71
     0
 90
        3
 71
     1
340
9BEA
 40
0.24
340
0
 40
0.24
300

 40
0.36
280
     3
 71
     2
340
9BEE
 90
       25
 71
     3
340
9BEA
 40
0.24
 90
        1
 40
0.75
 90
        1
300
%<\AcVar ViewType \f "%tc1">% %<\AcVar ViewDetailId>%\PSCALE %<\AcVar ViewScale \f "%sn">%
 71
     4
340
9BEE
 90
       25
340
9BEE
 90
       25
280
     0
  0
LAYOUT
  5
9EC1
102
{ACAD_XDICTIONARY
360
9F1D
102
}
102
{ACAD_REACTORS
330
9BF2
102
}
330
9BF2
100
AcDbPlotSettings
  1

  2
Canon LBP9100C
  4

  6

 40
0.0
 41
0.0
 42
0.0
 43
0.0
 44
0.0
 45
0.0
 46
0.0
 47
0.0
 48
0.0
 49
0.0
140
0.0
141
0.0
142
1.0
143
1.0
 70
  1712
 72
     0
 73
     0
 74
     0
  7

 75
     0
147
1.0
148
0.0
149
0.0
100
AcDbLayout
  1
Model
 70
     1
 71
     0
 10
0.0
 20
0.0
 11
12.0
 21
9.0
 12
0.0
 22
0.0
 32
0.0
 14
0.0
 24
0.0
 34
0.0
 15
0.0
 25
0.0
 35
0.0
146
0.0
 13
0.0
 23
0.0
 33
0.0
 16
1.0
 26
0.0
 36
0.0
 17
0.0
 27
1.0
 37
0.0
 76
     0
330
9BF7
331
9E6A
  0
LAYOUT
  5
9EC2
102
{ACAD_XDICTIONARY
360
9F1F
102
}
102
{ACAD_REACTORS
330
9BF2
102
}
330
9BF2
100
AcDbPlotSettings
  1

  2
Canon LBP9100C
  4

  6

 40
0.0
 41
0.0
 42
0.0
 43
0.0
 44
0.0
 45
0.0
 46
0.0
 47
0.0
 48
0.0
 49
0.0
140
0.0
141
0.0
142
1.0
143
1.0
 70
   688
 72
     0
 73
     0
 74
     5
  7

 75
    16
147
1.0
148
0.0
149
0.0
100
AcDbLayout
  1
レイアウト1
 70
     0
 71
     1
 10
0.0
 20
0.0
 11
420.0
 21
297.0
 12
0.0
 22
0.0
 32
0.0
 14
1.000000000000000E+20
 24
1.000000000000000E+20
 34
1.000000000000000E+20
 15
-1.000000000000000E+20
 25
-1.000000000000000E+20
 35
-1.000000000000000E+20
146
0.0
 13
0.0
 23
0.0
 33
0.0
 16
1.0
 26
0.0
 36
0.0
 17
0.0
 27
1.0
 37
0.0
 76
     0
330
9BF3
  0
MATERIAL
  5
9E7D
102
{ACAD_XDICTIONARY
360
9E7E
102
}
102
{ACAD_REACTORS
330
9E74
102
}
330
9E74
100
AcDbMaterial
  1
ByBlock
 72
     0
 43
0.0208333333333333
 43
0.0
 43
0.0
 43
0.0
 43
0.0
 43
0.0208333333333333
 43
0.0
 43
0.0
 43
0.0
 43
0.0
 43
1.0
 43
0.0
 43
0.0
 43
0.0
 43
0.0
 43
1.0
 77
     0
 47
0.0208333333333333
 47
0.0
 47
0.0
 47
0.0
 47
0.0
 47
0.0208333333333333
 47
0.0
 47
0.0
 47
0.0
 47
0.0
 47
1.0
 47
0.0
 47
0.0
 47
0.0
 47
0.0
 47
1.0
171
     0
 49
0.0208333333333333
 49
0.0
 49
0.0
 49
0.0
 49
0.0
 49
0.0208333333333333
 49
0.0
 49
0.0
 49
0.0
 49
0.0
 49
1.0
 49
0.0
 49
0.0
 49
0.0
 49
0.0
 49
1.0
175
     0
142
0.0208333333333333
142
0.0
142
0.0
142
0.0
142
0.0
142
0.0208333333333333
142
0.0
142
0.0
142
0.0
142
0.0
142
1.0
142
0.0
142
0.0
142
0.0
142
0.0
142
1.0
179
     0
144
0.0208333333333333
144
0.0
144
0.0
144
0.0
144
0.0
144
0.0208333333333333
144
0.0
144
0.0
144
0.0
144
0.0
144
1.0
144
0.0
144
0.0
144
0.0
144
0.0
144
1.0
147
0.0208333333333333
147
0.0
147
0.0
147
0.0
147
0.0
147
0.0208333333333333
147
0.0
147
0.0
147
0.0
147
0.0
147
1.0
147
0.0
147
0.0
147
0.0
147
0.0
147
1.0
  0
MATERIAL
  5
9E75
102
{ACAD_XDICTIONARY
360
9E76
102
}
102
{ACAD_REACTORS
330
9E74
102
}
330
9E74
100
AcDbMaterial
  1
ByLayer
 72
     0
 43
0.0208333333333333
 43
0.0
 43
0.0
 43
0.0
 43
0.0
 43
0.0208333333333333
 43
0.0
 43
0.0
 43
0.0
 43
0.0
 43
1.0
 43
0.0
 43
0.0
 43
0.0
 43
0.0
 43
1.0
 77
     0
 47
0.0208333333333333
 47
0.0
 47
0.0
 47
0.0
 47
0.0
 47
0.0208333333333333
 47
0.0
 47
0.0
 47
0.0
 47
0.0
 47
1.0
 47
0.0
 47
0.0
 47
0.0
 47
0.0
 47
1.0
171
     0
 49
0.0208333333333333
 49
0.0
 49
0.0
 49
0.0
 49
0.0
 49
0.0208333333333333
 49
0.0
 49
0.0
 49
0.0
 49
0.0
 49
1.0
 49
0.0
 49
0.0
 49
0.0
 49
0.0
 49
1.0
175
     0
142
0.0208333333333333
142
0.0
142
0.0
142
0.0
142
0.0
142
0.0208333333333333
142
0.0
142
0.0
142
0.0
142
0.0
142
1.0
142
0.0
142
0.0
142
0.0
142
0.0
142
1.0
179
     0
144
0.0208333333333333
144
0.0
144
0.0
144
0.0
144
0.0
144
0.0208333333333333
144
0.0
144
0.0
144
0.0
144
0.0
144
1.0
144
0.0
144
0.0
144
0.0
144
0.0
144
1.0
147
0.0208333333333333
147
0.0
147
0.0
147
0.0
147
0.0
147
0.0208333333333333
147
0.0
147
0.0
147
0.0
147
0.0
147
1.0
147
0.0
147
0.0
147
0.0
147
0.0
147
1.0
  0
MATERIAL
  5
9E85
102
{ACAD_XDICTIONARY
360
9E86
102
}
102
{ACAD_REACTORS
330
9E74
102
}
330
9E74
100
AcDbMaterial
  1
Global
 72
     0
 43
0.0208333333333333
 43
0.0
 43
0.0
 43
0.0
 43
0.0
 43
0.0208333333333333
 43
0.0
 43
0.0
 43
0.0
 43
0.0
 43
1.0
 43
0.0
 43
0.0
 43
0.0
 43
0.0
 43
1.0
 77
     0
 47
0.0208333333333333
 47
0.0
 47
0.0
 47
0.0
 47
0.0
 47
0.0208333333333333
 47
0.0
 47
0.0
 47
0.0
 47
0.0
 47
1.0
 47
0.0
 47
0.0
 47
0.0
 47
0.0
 47
1.0
171
     0
 49
0.0208333333333333
 49
0.0
 49
0.0
 49
0.0
 49
0.0
 49
0.0208333333333333
 49
0.0
 49
0.0
 49
0.0
 49
0.0
 49
1.0
 49
0.0
 49
0.0
 49
0.0
 49
0.0
 49
1.0
175
     0
142
0.0208333333333333
142
0.0
142
0.0
142
0.0
142
0.0
142
0.0208333333333333
142
0.0
142
0.0
142
0.0
142
0.0
142
1.0
142
0.0
142
0.0
142
0.0
142
0.0
142
1.0
179
     0
144
0.0208333333333333
144
0.0
144
0.0
144
0.0
144
0.0
144
0.0208333333333333
144
0.0
144
0.0
144
0.0
144
0.0
144
1.0
144
0.0
144
0.0
144
0.0
144
0.0
144
1.0
147
0.0208333333333333
147
0.0
147
0.0
147
0.0
147
0.0
147
0.0208333333333333
147
0.0
147
0.0
147
0.0
147
0.0
147
1.0
147
0.0
147
0.0
147
0.0
147
0.0
147
1.0
  0
MLEADERSTYLE
  5
9EBC
102
{ACAD_REACTORS
330
9EBB
102
}
330
9EBB
100
AcDbMLeaderStyle
170
     2
171
     1
172
     0
 90
        2
 40
0.0
 41
0.0
173
     1
 91
-1056964608
340
9BEC
 92
       -2
290
     1
 42
0.09
291
     1
 43
0.36
  3
Standard
 44
0.18
300

342
9BEA
174
     1
178
     6
175
     1
176
     0
 93
-1056964608
 45
0.18
292
     0
297
     0
 46
0.18
 94
-1056964608
 47
1.0
 49
1.0
140
1.0
293
     1
141
0.0
294
     1
177
     0
142
1.0
295
     0
296
     0
143
0.125
1001
ACAD_MLEADERVER
1070
     2
  0
MLINESTYLE
  5
9BF0
102
{ACAD_REACTORS
330
9BEF
102
}
330
9BEF
100
AcDbMlineStyle
  2
STANDARD
 70
     0
  3

 62
   256
 51
90.0
 52
90.0
 71
     2
 49
0.5
 62
   256
  6
BYLAYER
 49
-0.5
 62
   256
  6
BYLAYER
  0
ACDBPLACEHOLDER
  5
9E73
102
{ACAD_REACTORS
330
9E72
102
}
330
9E72
  0
SCALE
  5
9EAA
102
{ACAD_REACTORS
330
9EA9
102
}
330
9EA9
100
AcDbScale
 70
     0
300
1:1
140
1.0
141
1.0
290
     1
  0
SCALE
  5
9EAB
102
{ACAD_REACTORS
330
9EA9
102
}
330
9EA9
100
AcDbScale
 70
     0
300
1/128" = 1'-0"
140
0.0078125
141
12.0
290
     0
  0
SCALE
  5
9EAC
102
{ACAD_REACTORS
330
9EA9
102
}
330
9EA9
100
AcDbScale
 70
     0
300
1/64" = 1'-0"
140
0.015625
141
12.0
290
     0
  0
SCALE
  5
9EAD
102
{ACAD_REACTORS
330
9EA9
102
}
330
9EA9
100
AcDbScale
 70
     0
300
1/32" = 1'-0"
140
0.03125
141
12.0
290
     0
  0
SCALE
  5
9EAE
102
{ACAD_REACTORS
330
9EA9
102
}
330
9EA9
100
AcDbScale
 70
     0
300
1/16" = 1'-0"
140
0.0625
141
12.0
290
     0
  0
SCALE
  5
9EAF
102
{ACAD_REACTORS
330
9EA9
102
}
330
9EA9
100
AcDbScale
 70
     0
300
3/32" = 1'-0"
140
0.09375
141
12.0
290
     0
  0
SCALE
  5
9EB0
102
{ACAD_REACTORS
330
9EA9
102
}
330
9EA9
100
AcDbScale
 70
     0
300
1/8" = 1'-0"
140
0.125
141
12.0
290
     0
  0
SCALE
  5
9EB1
102
{ACAD_REACTORS
330
9EA9
102
}
330
9EA9
100
AcDbScale
 70
     0
300
3/16" = 1'-0"
140
0.1875
141
12.0
290
     0
  0
SCALE
  5
9EB2
102
{ACAD_REACTORS
330
9EA9
102
}
330
9EA9
100
AcDbScale
 70
     0
300
1/4" = 1'-0"
140
0.25
141
12.0
290
     0
  0
SCALE
  5
9EB3
102
{ACAD_REACTORS
330
9EA9
102
}
330
9EA9
100
AcDbScale
 70
     0
300
3/8" = 1'-0"
140
0.375
141
12.0
290
     0
  0
SCALE
  5
9EB4
102
{ACAD_REACTORS
330
9EA9
102
}
330
9EA9
100
AcDbScale
 70
     0
300
1/2" = 1'-0"
140
0.5
141
12.0
290
     0
  0
SCALE
  5
9EB5
102
{ACAD_REACTORS
330
9EA9
102
}
330
9EA9
100
AcDbScale
 70
     0
300
3/4" = 1'-0"
140
0.75
141
12.0
290
     0
  0
SCALE
  5
9EB6
102
{ACAD_REACTORS
330
9EA9
102
}
330
9EA9
100
AcDbScale
 70
     0
300
1" = 1'-0"
140
1.0
141
12.0
290
     0
  0
SCALE
  5
9EB7
102
{ACAD_REACTORS
330
9EA9
102
}
330
9EA9
100
AcDbScale
 70
     0
300
1-1/2" = 1'-0"
140
1.5
141
12.0
290
     0
  0
SCALE
  5
9EB8
102
{ACAD_REACTORS
330
9EA9
102
}
330
9EA9
100
AcDbScale
 70
     0
300
3" = 1'-0"
140
3.0
141
12.0
290
     0
  0
SCALE
  5
9EB9
102
{ACAD_REACTORS
330
9EA9
102
}
330
9EA9
100
AcDbScale
 70
     0
300
6" = 1'-0"
140
6.0
141
12.0
290
     0
  0
SCALE
  5
9EBA
102
{ACAD_REACTORS
330
9EA9
102
}
330
9EA9
100
AcDbScale
 70
     0
300
1'-0" = 1'-0"
140
12.0
141
12.0
290
     0
  0
ACDBSECTIONVIEWSTYLE
  5
9EBE
102
{ACAD_XDICTIONARY
360
9F19
102
}
102
{ACAD_REACTORS
330
9EBD
102
}
330
9EBD
100
AcDbModelDocViewStyle
 70
     0
  3
Imperial24
290
     0
100
AcDbSectionViewStyle
 70
     0
 71
     0
 90
       78
 71
     1
340
9BEA
 40
0.24
340
0
340
0
 40
0.24
300
I, O, Q, S, X, Z
 40
0.48
 90
        3
 40
0.18
 90
        1
 71
     2
340
9BEE
 90
       25
340
9BEE
 90
       50
 40
0.24
 40
0.0
 40
0.24
 71
     3
340
9BEA
 40
0.24
 90
        1
 40
0.75
 90
        1
300
%<\AcVar ViewType \f "%tc1">% %<\AcVar ViewSectionStartId>%-%<\AcVar ViewSectionEndId>%\PSCALE %<\AcVar ViewScale \f "%sn">%
 71
     4
300
ANSI31
 40
1.0
 90
        0
290
     0
290
     0
 90
        6
 40
0.0
 40
1.570796326794896
 40
0.2617993877991494
 40
1.308996938995747
 40
-0.2617993877991494
 40
1.832595714594046
  0
TABLESTYLE
  5
9EA8
102
{ACAD_XDICTIONARY
360
9EE0
102
}
102
{ACAD_REACTORS
330
9EA7
102
}
330
9EA7
100
AcDbTableStyle
  3
Standard
 70
     0
 71
     0
 40
0.06
 41
0.06
280
     0
281
     0
  7
STANDARD
140
0.18
170
     2
 62
     0
 63
     7
283
     0
274
    -2
284
     1
 64
     0
275
    -2
285
     1
 65
     0
276
    -2
286
     1
 66
     0
277
    -2
287
     1
 67
     0
278
    -2
288
     1
 68
     0
279
    -2
289
     1
 69
     0
  7
STANDARD
140
0.25
170
     5
 62
     0
 63
     7
283
     0
274
    -2
284
     1
 64
     0
275
    -2
285
     1
 65
     0
276
    -2
286
     1
 66
     0
277
    -2
287
     1
 67
     0
278
    -2
288
     1
 68
     0
279
    -2
289
     1
 69
     0
  7
STANDARD
140
0.18
170
     5
 62
     0
 63
     7
283
     0
274
    -2
284
     1
 64
     0
275
    -2
285
     1
 65
     0
276
    -2
286
     1
 66
     0
277
    -2
287
     1
 67
     0
278
    -2
288
     1
 68
     0
279
    -2
289
     1
 69
     0
  0
VISUALSTYLE
  5
9E93
102
{ACAD_XDICTIONARY
360
9EF1
102
}
102
{ACAD_REACTORS
330
9E8D
102
}
330
9E8D
100
AcDbVisualStyle
  2
2dWireframe
 70
     4
 71
     0
 72
     2
 73
     0
 90
        0
 40
-0.6
 41
-30.0
 62
     5
 63
     7
 74
     1
 91
        4
 64
     7
 65
   257
 75
     1
175
     1
 42
1.0
 92
        0
 66
   257
 43
1.0
 76
     1
 77
     6
 78
     2
 67
     7
 79
     5
170
     0
171
     0
290
     0
174
     0
 93
        1
 44
0.0
173
     0
291
     0
 45
0.0
1001
ACAD
1000
AcDbSavedByObjectVersion
1070
     0
  0
VISUALSTYLE
  5
9E92
102
{ACAD_XDICTIONARY
360
9EEF
102
}
102
{ACAD_REACTORS
330
9E8D
102
}
330
9E8D
100
AcDbVisualStyle
  2
Basic
 70
     7
 71
     1
 72
     0
 73
     1
 90
        0
 40
-0.6
 41
-30.0
 62
     5
 63
     7
 74
     0
 91
        4
 64
     7
 65
   257
 75
     1
175
     1
 42
1.0
 92
        8
 66
     7
 43
1.0
 76
     1
 77
     6
 78
     2
 67
     7
 79
     5
170
     0
171
     0
290
     0
174
     0
 93
        1
 44
0.0
173
     0
291
     1
 45
0.0
1001
ACAD
1000
AcDbSavedByObjectVersion
1070
     0
  0
VISUALSTYLE
  5
9E99
102
{ACAD_XDICTIONARY
360
9EFD
102
}
102
{ACAD_REACTORS
330
9E8D
102
}
330
9E8D
100
AcDbVisualStyle
  2
Brighten
 70
    12
 71
     2
 72
     2
 73
     0
 90
        0
 40
-0.6
 41
-30.0
 62
     5
 63
     7
 74
     1
 91
        4
 64
     7
 65
   257
 75
     1
175
     1
 42
1.0
 92
        8
 66
     7
 43
1.0
 76
     1
 77
     6
 78
     2
 67
     7
 79
     5
170
     0
171
     0
290
     0
174
     0
 93
        1
 44
50.0
173
     0
291
     1
 45
0.0
1001
ACAD
1000
AcDbSavedByObjectVersion
1070
     0
  0
VISUALSTYLE
  5
9E9D
102
{ACAD_XDICTIONARY
360
9F05
102
}
102
{ACAD_REACTORS
330
9E8D
102
}
330
9E8D
100
AcDbVisualStyle
  2
ColorChange
 70
    16
 71
     2
 72
     2
 73
     3
 90
        0
 40
-0.6
 41
-30.0
 62
     5
 63
     8
 74
     1
 91
        4
 64
     7
 65
   257
 75
     1
175
     1
 42
1.0
 92
        8
 66
     8
 43
1.0
 76
     1
 77
     6
 78
     2
 67
     7
 79
     5
170
     0
171
     0
290
     0
174
     0
 93
        1
 44
0.0
173
     0
291
     1
 45
0.0
1001
ACAD
1000
AcDbSavedByObjectVersion
1070
     0
  0
VISUALSTYLE
  5
9E96
102
{ACAD_XDICTIONARY
360
9EF7
102
}
102
{ACAD_REACTORS
330
9E8D
102
}
330
9E8D
100
AcDbVisualStyle
  2
Conceptual
 70
     9
 71
     3
 72
     2
 73
     0
 90
        0
 40
-0.6
 41
-30.0
 62
     5
 63
     7
 74
     2
 91
        2
 64
     7
 65
   257
 75
     1
175
     1
 42
179.0
 92
        8
 66
     7
 43
1.0
 76
     1
 77
     6
 78
     2
 67
     7
 79
     3
170
     0
171
     0
290
     0
174
     0
 93
        1
 44
0.0
173
     0
291
     0
 45
0.0
1001
ACAD
1000
AcDbSavedByObjectVersion
1070
     0
  0
VISUALSTYLE
  5
9E98
102
{ACAD_XDICTIONARY
360
9EFB
102
}
102
{ACAD_REACTORS
330
9E8D
102
}
330
9E8D
100
AcDbVisualStyle
  2
Dim
 70
    11
 71
     2
 72
     2
 73
     0
 90
        0
 40
-0.6
 41
-30.0
 62
     5
 63
     7
 74
     1
 91
        4
 64
     7
 65
   257
 75
     1
175
     1
 42
1.0
 92
        8
 66
     7
 43
1.0
 76
     1
 77
     6
 78
     2
 67
     7
 79
     5
170
     0
171
     0
290
     0
174
     0
 93
        1
 44
-50.0
173
     0
291
     1
 45
0.0
1001
ACAD
1000
AcDbSavedByObjectVersion
1070
     0
  0
VISUALSTYLE
  5
9EA5
102
{ACAD_XDICTIONARY
360
9F15
102
}
102
{ACAD_REACTORS
330
9E8D
102
}
330
9E8D
100
AcDbVisualStyle
  2
EdgeColorOff
 70
    22
 71
     2
 72
     2
 73
     0
 90
        0
 40
-0.6
 41
-30.0
 62
     5
 63
     7
 74
     1
 91
        4
 64
     7
 65
   257
 75
     1
175
     1
 42
1.0
 92
        8
 66
     7
 43
1.0
 76
     1
 77
     6
 78
     2
 67
     7
 79
     5
170
     0
171
     0
290
     0
174
     0
 93
        1
 44
0.0
173
     0
291
     1
 45
0.0
1001
ACAD
1000
AcDbSavedByObjectVersion
1070
     0
  0
VISUALSTYLE
  5
9E9C
102
{ACAD_XDICTIONARY
360
9F03
102
}
102
{ACAD_REACTORS
330
9E8D
102
}
330
9E8D
100
AcDbVisualStyle
  2
Facepattern
 70
    15
 71
     2
 72
     2
 73
     0
 90
        0
 40
-0.6
 41
-30.0
 62
     5
 63
     7
 74
     1
 91
        4
 64
     7
 65
   257
 75
     1
175
     1
 42
1.0
 92
        8
 66
     7
 43
1.0
 76
     1
 77
     6
 78
     2
 67
     7
 79
     5
170
     0
171
     0
290
     0
174
     0
 93
        1
 44
0.0
173
     0
291
     1
 45
0.0
1001
ACAD
1000
AcDbSavedByObjectVersion
1070
     0
  0
VISUALSTYLE
  5
9E8E
102
{ACAD_XDICTIONARY
360
9EE7
102
}
102
{ACAD_REACTORS
330
9E8D
102
}
330
9E8D
100
AcDbVisualStyle
  2
Flat
 70
     0
 71
     2
 72
     1
 73
     1
 90
        2
 40
-0.6
 41
30.0
 62
     5
 63
     7
 74
     0
 91
        0
 64
     7
 65
   257
 75
     1
175
     1
 42
1.0
 92
        8
 66
     7
 43
1.0
 76
     1
 77
     6
 78
     2
 67
     7
 79
     5
170
     0
171
     0
290
     0
174
     0
 93
       13
 44
0.0
173
     0
291
     1
 45
0.0
1001
ACAD
1000
AcDbSavedByObjectVersion
1070
     0
  0
VISUALSTYLE
  5
9E8F
102
{ACAD_XDICTIONARY
360
9EE9
102
}
102
{ACAD_REACTORS
330
9E8D
102
}
330
9E8D
100
AcDbVisualStyle
  2
FlatWithEdges
 70
     1
 71
     2
 72
     1
 73
     1
 90
        2
 40
-0.6
 41
30.0
 62
     5
 63
     7
 74
     1
 91
        0
 64
     7
 65
   257
 75
     1
175
     1
 42
1.0
 92
        0
 66
   257
 43
1.0
 76
     1
 77
     6
 78
     2
 67
     7
 79
     5
170
     0
171
     0
290
     0
174
     0
 93
       13
 44
0.0
173
     0
291
     1
 45
0.0
1001
ACAD
1000
AcDbSavedByObjectVersion
1070
     0
  0
VISUALSTYLE
  5
9E90
102
{ACAD_XDICTIONARY
360
9EEB
102
}
102
{ACAD_REACTORS
330
9E8D
102
}
330
9E8D
100
AcDbVisualStyle
  2
Gouraud
 70
     2
 71
     2
 72
     2
 73
     1
 90
        2
 40
-0.6
 41
30.0
 62
     5
 63
     7
 74
     0
 91
        0
 64
     7
 65
   257
 75
     1
175
     1
 42
1.0
 92
        0
 66
     7
 43
1.0
 76
     1
 77
     6
 78
     2
 67
     7
 79
     5
170
     0
171
     0
290
     0
174
     0
 93
       13
 44
0.0
173
     0
291
     1
 45
0.0
1001
ACAD
1000
AcDbSavedByObjectVersion
1070
     0
  0
VISUALSTYLE
  5
9E91
102
{ACAD_XDICTIONARY
360
9EED
102
}
102
{ACAD_REACTORS
330
9E8D
102
}
330
9E8D
100
AcDbVisualStyle
  2
GouraudWithEdges
 70
     3
 71
     2
 72
     2
 73
     1
 90
        2
 40
-0.6
 41
30.0
 62
     5
 63
     7
 74
     1
 91
        0
 64
     7
 65
   257
 75
     1
175
     1
 42
1.0
 92
        0
 66
   257
 43
1.0
 76
     1
 77
     6
 78
     2
 67
     7
 79
     5
170
     0
171
     0
290
     0
174
     0
 93
       13
 44
0.0
173
     0
291
     1
 45
0.0
1001
ACAD
1000
AcDbSavedByObjectVersion
1070
     0
  0
VISUALSTYLE
  5
9E95
102
{ACAD_XDICTIONARY
360
9EF5
102
}
102
{ACAD_REACTORS
330
9E8D
102
}
330
9E8D
100
AcDbVisualStyle
  2
Hidden
 70
     6
 71
     1
 72
     2
 73
     2
 90
        0
 40
-0.6
 41
-30.0
 62
     5
 63
     7
 74
     2
 91
        2
 64
     7
 65
   257
 75
     2
175
     1
 42
40.0
 92
        0
 66
   257
 43
1.0
 76
     1
 77
     6
 78
     2
 67
     7
 79
     3
170
     0
171
     0
290
     0
174
     0
 93
        1
 44
0.0
173
     0
291
     0
 45
0.0
1001
ACAD
1000
AcDbSavedByObjectVersion
1070
     0
  0
VISUALSTYLE
  5
9EA3
102
{ACAD_XDICTIONARY
360
9F11
102
}
102
{ACAD_REACTORS
330
9E8D
102
}
330
9E8D
100
AcDbVisualStyle
  2
JitterOff
 70
    20
 71
     2
 72
     2
 73
     0
 90
        0
 40
-0.6
 41
-30.0
 62
     5
 63
     7
 74
     1
 91
        4
 64
     7
 65
   257
 75
     1
175
     1
 42
1.0
 92
       10
 66
     7
 43
1.0
 76
     1
 77
     6
 78
     2
 67
     7
 79
     5
170
     0
171
     0
290
     0
174
     0
 93
        1
 44
0.0
173
     0
291
     1
 45
0.0
1001
ACAD
1000
AcDbSavedByObjectVersion
1070
     0
  0
VISUALSTYLE
  5
9E9B
102
{ACAD_XDICTIONARY
360
9F01
102
}
102
{ACAD_REACTORS
330
9E8D
102
}
330
9E8D
100
AcDbVisualStyle
  2
Linepattern
 70
    14
 71
     2
 72
     2
 73
     0
 90
        0
 40
-0.6
 41
-30.0
 62
     5
 63
     7
 74
     1
 91
        4
 64
     7
 65
   257
 75
     7
175
     7
 42
1.0
 92
        8
 66
     7
 43
1.0
 76
     1
 77
     6
 78
     2
 67
     7
 79
     5
170
     0
171
     0
290
     0
174
     0
 93
        1
 44
0.0
173
     0
291
     1
 45
0.0
1001
ACAD
1000
AcDbSavedByObjectVersion
1070
     0
  0
VISUALSTYLE
  5
9EA4
102
{ACAD_XDICTIONARY
360
9F13
102
}
102
{ACAD_REACTORS
330
9E8D
102
}
330
9E8D
100
AcDbVisualStyle
  2
OverhangOff
 70
    21
 71
     2
 72
     2
 73
     0
 90
        0
 40
-0.6
 41
-30.0
 62
     5
 63
     7
 74
     1
 91
        4
 64
     7
 65
   257
 75
     1
175
     1
 42
1.0
 92
        9
 66
     7
 43
1.0
 76
     1
 77
     6
 78
     2
 67
     7
 79
     5
170
     0
171
     0
290
     0
174
     0
 93
        1
 44
0.0
173
     0
291
     1
 45
0.0
1001
ACAD
1000
AcDbSavedByObjectVersion
1070
     0
  0
VISUALSTYLE
  5
9E97
102
{ACAD_XDICTIONARY
360
9EF9
102
}
102
{ACAD_REACTORS
330
9E8D
102
}
330
9E8D
100
AcDbVisualStyle
  2
Realistic
 70
     8
 71
     2
 72
     3
 73
     0
 90
        2
 40
-0.6
 41
30.0
 62
     5
 63
     7
 74
     0
 91
        0
 64
     7
 65
   257
 75
     1
175
     1
 42
1.0
 92
        8
 66
   257
 43
1.0
 76
     1
 77
     6
 78
     2
 67
     7
 79
     3
170
     0
171
     0
290
     0
174
     0
 93
       13
 44
0.0
173
     0
291
     0
 45
0.0
1001
ACAD
1000
AcDbSavedByObjectVersion
1070
     0
  0
VISUALSTYLE
  5
9EA2
102
{ACAD_XDICTIONARY
360
9F0F
102
}
102
{ACAD_REACTORS
330
9E8D
102
}
330
9E8D
100
AcDbVisualStyle
  2
Shaded
 70
    27
 71
     2
 72
     2
 73
     1
 90
        2
 40
-0.6
 41
30.0
 62
     5
 63
     7
 74
     0
 91
        4
 64
     7
 65
   257
 75
     1
175
     1
 42
1.0
 92
        8
 66
   257
 43
1.0
 76
     1
 77
     6
 78
     2
 67
     8
 79
     3
170
     0
171
     0
290
     0
174
     0
 93
        5
 44
0.0
173
     0
291
     0
 45
0.0
1001
ACAD
1000
AcDbSavedByObjectVersion
1070
     0
  0
VISUALSTYLE
  5
9EA1
102
{ACAD_XDICTIONARY
360
9F0D
102
}
102
{ACAD_REACTORS
330
9E8D
102
}
330
9E8D
100
AcDbVisualStyle
  2
Shaded with edges
 70
    26
 71
     2
 72
     2
 73
     1
 90
        2
 40
-0.6
 41
30.0
 62
     5
 63
     7
 74
     1
 91
       10
 64
     7
 65
   257
 75
     2
175
     1
 42
1.0
 92
        8
 66
   257
 43
1.0
 76
     1
 77
     6
 78
     2
 67
     7
 79
     3
170
     0
171
     0
290
     0
174
     0
 93
        5
 44
0.0
173
     0
291
     0
 45
0.0
1001
ACAD
1000
AcDbSavedByObjectVersion
1070
     0
  0
VISUALSTYLE
  5
9E9E
102
{ACAD_XDICTIONARY
360
9F07
102
}
102
{ACAD_REACTORS
330
9E8D
102
}
330
9E8D
100
AcDbVisualStyle
  2
Shades of Gray
 70
    23
 71
     2
 72
     2
 73
     3
 90
        0
 40
-0.6
 41
-30.0
 62
     5
 63
     7
 74
     2
 91
        2
 64
     7
 65
     7
 75
     1
175
     1
 42
40.0
 92
        8
 66
     7
 43
1.0
 76
     1
 77
     6
 78
     2
 67
     7
 79
     3
170
     0
171
     0
290
     0
174
     0
 93
        1
 44
0.0
173
     0
291
     0
 45
0.0
1001
ACAD
1000
AcDbSavedByObjectVersion
1070
     0
  0
VISUALSTYLE
  5
9E9F
102
{ACAD_XDICTIONARY
360
9F09
102
}
102
{ACAD_REACTORS
330
9E8D
102
}
330
9E8D
100
AcDbVisualStyle
  2
Sketchy
 70
    24
 71
     1
 72
     2
 73
     2
 90
        0
 40
-0.6
 41
-30.0
 62
     5
 63
     7
 74
     2
 91
        2
 64
     7
 65
     7
 75
     1
175
     1
 42
40.0
 92
       11
 66
     7
 43
1.0
 76
     1
 77
     6
 78
     2
 67
     7
 79
     6
170
     0
171
     0
290
     0
174
     0
 93
        1
 44
0.0
173
     0
291
     0
 45
0.0
1001
ACAD
1000
AcDbSavedByObjectVersion
1070
     0
  0
VISUALSTYLE
  5
9E9A
102
{ACAD_XDICTIONARY
360
9EFF
102
}
102
{ACAD_REACTORS
330
9E8D
102
}
330
9E8D
100
AcDbVisualStyle
  2
Thicken
 70
    13
 71
     2
 72
     2
 73
     0
 90
        0
 40
-0.6
 41
-30.0
 62
     5
 63
     7
 74
     1
 91
        4
 64
     7
 65
   257
 75
     1
175
     1
 42
1.0
 92
       12
 66
     7
 43
1.0
 76
     1
 77
     6
 78
     2
 67
     7
 79
     5
170
     0
171
     0
290
     0
174
     0
 93
        1
 44
0.0
173
     0
291
     1
 45
0.0
1001
ACAD
1000
AcDbSavedByObjectVersion
1070
     0
  0
VISUALSTYLE
  5
9E94
102
{ACAD_XDICTIONARY
360
9EF3
102
}
102
{ACAD_REACTORS
330
9E8D
102
}
330
9E8D
100
AcDbVisualStyle
  2
Wireframe
 70
     5
 71
     0
 72
     2
 73
     0
 90
        0
 40
-0.6
 41
-30.0
 62
     5
 63
     7
 74
     1
 91
        4
 64
     7
 65
   257
 75
     1
175
     1
 42
1.0
 92
        0
 66
   257
 43
1.0
 76
     1
 77
     6
 78
     2
 67
     7
 79
     3
170
     0
171
     0
290
     0
174
     0
 93
        1
 44
0.0
173
     0
291
     0
 45
0.0
1001
ACAD
1000
AcDbSavedByObjectVersion
1070
     0
  0
VISUALSTYLE
  5
9EA0
102
{ACAD_XDICTIONARY
360
9F0B
102
}
102
{ACAD_REACTORS
330
9E8D
102
}
330
9E8D
100
AcDbVisualStyle
  2
X-Ray
 70
    25
 71
     2
 72
     2
 73
     1
 90
        1
 40
0.5
 41
-30.0
 62
     5
 63
     7
 74
     1
 91
        0
 64
     7
 65
   257
 75
     1
175
     1
 42
1.0
 92
        8
 66
     7
 43
1.0
 76
     1
 77
     6
 78
     2
 67
     7
 79
     3
170
     0
171
     0
290
     0
174
     0
 93
       13
 44
0.0
173
     0
291
     0
 45
0.0
1001
ACAD
1000
AcDbSavedByObjectVersion
1070
     0
  0
DICTIONARYVAR
  5
9EDA
102
{ACAD_REACTORS
330
9ED5
102
}
330
9ED5
100
DictionaryVariables
280
     0
  1
1:1
  0
DICTIONARYVAR
  5
9ED7
102
{ACAD_REACTORS
330
9ED5
102
}
330
9ED5
100
DictionaryVariables
280
     0
  1
STANDARD
  0
DICTIONARYVAR
  5
9ED6
102
{ACAD_REACTORS
330
9ED5
102
}
330
9ED5
100
DictionaryVariables
280
     0
  1
STANDARD
  0
DICTIONARYVAR
  5
9ED8
102
{ACAD_REACTORS
330
9ED5
102
}
330
9ED5
100
DictionaryVariables
280
     0
  1
Imperial24
  0
DICTIONARYVAR
  5
9ED9
102
{ACAD_REACTORS
330
9ED5
102
}
330
9ED5
100
DictionaryVariables
280
     0
  1
Imperial24
  0
DICTIONARYVAR
  5
9EDD
102
{ACAD_REACTORS
330
9ED5
102
}
330
9ED5
100
DictionaryVariables
280
     0
  1
1
  0
DICTIONARYVAR
  5
9EDC
102
{ACAD_REACTORS
330
9ED5
102
}
330
9ED5
100
DictionaryVariables
280
     0
  1
0
  0
DICTIONARYVAR
  5
9EDB
102
{ACAD_REACTORS
330
9ED5
102
}
330
9ED5
100
DictionaryVariables
280
     0
  1
127
  0
DICTIONARYVAR
  5
9EDE
102
{ACAD_REACTORS
330
9ED5
102
}
330
9ED5
100
DictionaryVariables
280
     0
  1
2
  0
DICTIONARY
  5
9F1B
330
9EC0
100
AcDbDictionary
280
     1
281
     1
  3
ACAD_XREC_ROUNDTRIP
360
9F1C
  0
DICTIONARY
  5
9F1D
330
9EC1
100
AcDbDictionary
280
     1
281
     1
  3
ACAD_XREC_ROUNDTRIP
360
9F1E
  0
DICTIONARY
  5
9F1F
330
9EC2
100
AcDbDictionary
280
     1
281
     1
  3
ACAD_XREC_ROUNDTRIP
360
9F20
  0
DICTIONARY
  5
9E7E
330
9E7D
100
AcDbDictionary
280
     1
281
     1
  3
ACAD_XREC_ROUNDTRIP
360
9EE5
  3
BUMPTILE
360
9E80
  3
DIFFUSETILE
360
9E7F
  3
OPACITYTILE
360
9E83
  3
REFLECTIONTILE
360
9E82
  3
REFRACTIONTILE
360
9E84
  3
SPECULARTILE
360
9E81
  0
DICTIONARY
  5
9E76
330
9E75
100
AcDbDictionary
280
     1
281
     1
  3
ACAD_XREC_ROUNDTRIP
360
9EE4
  3
BUMPTILE
360
9E78
  3
DIFFUSETILE
360
9E77
  3
OPACITYTILE
360
9E7B
  3
REFLECTIONTILE
360
9E7A
  3
REFRACTIONTILE
360
9E7C
  3
SPECULARTILE
360
9E79
  0
DICTIONARY
  5
9E86
330
9E85
100
AcDbDictionary
280
     1
281
     1
  3
ACAD_XREC_ROUNDTRIP
360
9EE6
  3
BUMPTILE
360
9E88
  3
DIFFUSETILE
360
9E87
  3
OPACITYTILE
360
9E8B
  3
REFLECTIONTILE
360
9E8A
  3
REFRACTIONTILE
360
9E8C
  3
SPECULARTILE
360
9E89
  0
DICTIONARY
  5
9F19
330
9EBE
100
AcDbDictionary
280
     1
281
     1
  3
ACAD_XREC_ROUNDTRIP
360
9F1A
  0
DICTIONARY
  5
9EE0
330
9EA8
100
AcDbDictionary
280
     1
281
     1
  3
ACAD_ROUNDTRIP_2008_TABLESTYLE_CELLSTYLEMAP
360
9EE1
  3
ACAD_XREC_ROUNDTRIP
360
9F17
  0
DICTIONARY
  5
9EF1
330
9E93
100
AcDbDictionary
280
     1
281
     1
  3
ACAD_XREC_ROUNDTRIP
360
9EF2
  0
DICTIONARY
  5
9EEF
330
9E92
100
AcDbDictionary
280
     1
281
     1
  3
ACAD_XREC_ROUNDTRIP
360
9EF0
  0
DICTIONARY
  5
9EFD
330
9E99
100
AcDbDictionary
280
     1
281
     1
  3
ACAD_XREC_ROUNDTRIP
360
9EFE
  0
DICTIONARY
  5
9F05
330
9E9D
100
AcDbDictionary
280
     1
281
     1
  3
ACAD_XREC_ROUNDTRIP
360
9F06
  0
DICTIONARY
  5
9EF7
330
9E96
100
AcDbDictionary
280
     1
281
     1
  3
ACAD_XREC_ROUNDTRIP
360
9EF8
  0
DICTIONARY
  5
9EFB
330
9E98
100
AcDbDictionary
280
     1
281
     1
  3
ACAD_XREC_ROUNDTRIP
360
9EFC
  0
DICTIONARY
  5
9F15
330
9EA5
100
AcDbDictionary
280
     1
281
     1
  3
ACAD_XREC_ROUNDTRIP
360
9F16
  0
DICTIONARY
  5
9F03
330
9E9C
100
AcDbDictionary
280
     1
281
     1
  3
ACAD_XREC_ROUNDTRIP
360
9F04
  0
DICTIONARY
  5
9EE7
330
9E8E
100
AcDbDictionary
280
     1
281
     1
  3
ACAD_XREC_ROUNDTRIP
360
9EE8
  0
DICTIONARY
  5
9EE9
330
9E8F
100
AcDbDictionary
280
     1
281
     1
  3
ACAD_XREC_ROUNDTRIP
360
9EEA
  0
DICTIONARY
  5
9EEB
330
9E90
100
AcDbDictionary
280
     1
281
     1
  3
ACAD_XREC_ROUNDTRIP
360
9EEC
  0
DICTIONARY
  5
9EED
330
9E91
100
AcDbDictionary
280
     1
281
     1
  3
ACAD_XREC_ROUNDTRIP
360
9EEE
  0
DICTIONARY
  5
9EF5
330
9E95
100
AcDbDictionary
280
     1
281
     1
  3
ACAD_XREC_ROUNDTRIP
360
9EF6
  0
DICTIONARY
  5
9F11
330
9EA3
100
AcDbDictionary
280
     1
281
     1
  3
ACAD_XREC_ROUNDTRIP
360
9F12
  0
DICTIONARY
  5
9F01
330
9E9B
100
AcDbDictionary
280
     1
281
     1
  3
ACAD_XREC_ROUNDTRIP
360
9F02
  0
DICTIONARY
  5
9F13
330
9EA4
100
AcDbDictionary
280
     1
281
     1
  3
ACAD_XREC_ROUNDTRIP
360
9F14
  0
DICTIONARY
  5
9EF9
330
9E97
100
AcDbDictionary
280
     1
281
     1
  3
ACAD_XREC_ROUNDTRIP
360
9EFA
  0
DICTIONARY
  5
9F0F
330
9EA2
100
AcDbDictionary
280
     1
281
     1
  3
ACAD_XREC_ROUNDTRIP
360
9F10
  0
DICTIONARY
  5
9F0D
330
9EA1
100
AcDbDictionary
280
     1
281
     1
  3
ACAD_XREC_ROUNDTRIP
360
9F0E
  0
DICTIONARY
  5
9F07
330
9E9E
100
AcDbDictionary
280
     1
281
     1
  3
ACAD_XREC_ROUNDTRIP
360
9F08
  0
DICTIONARY
  5
9F09
330
9E9F
100
AcDbDictionary
280
     1
281
     1
  3
ACAD_XREC_ROUNDTRIP
360
9F0A
  0
DICTIONARY
  5
9EFF
330
9E9A
100
AcDbDictionary
280
     1
281
     1
  3
ACAD_XREC_ROUNDTRIP
360
9F00
  0
DICTIONARY
  5
9EF3
330
9E94
100
AcDbDictionary
280
     1
281
     1
  3
ACAD_XREC_ROUNDTRIP
360
9EF4
  0
DICTIONARY
  5
9F0B
330
9EA0
100
AcDbDictionary
280
     1
281
     1
  3
ACAD_XREC_ROUNDTRIP
360
9F0C
  0
XRECORD
  5
9F1C
102
{ACAD_REACTORS
330
9F1B
102
}
330
9F1B
100
AcDbXrecord
280
     1
102
DISPLAYNAME
  1
Imperial24
102
FLAGS
 90
        0
  0
XRECORD
  5
9F1E
102
{ACAD_REACTORS
330
9F1D
102
}
330
9F1D
100
AcDbXrecord
280
     1
102
SHADEPLOT
 70
     0
102
SHADEPLOTRESLEVEL
 70
     2
102
SHADEPLOTCUSTOMDPI
 70
   300
  0
XRECORD
  5
9F20
102
{ACAD_REACTORS
330
9F1F
102
}
330
9F1F
100
AcDbXrecord
280
     1
102
SHADEPLOT
 70
     0
102
SHADEPLOTRESLEVEL
 70
     2
102
SHADEPLOTCUSTOMDPI
 70
   300
  0
XRECORD
  5
9EE5
102
{ACAD_REACTORS
330
9E7E
102
}
330
9E7E
100
AcDbXrecord
280
     1
102
MATERIAL
148
0.0
149
0.0
149
0.0
 93
        0
 94
      127
282
     0
 72
     0
 77
     0
171
     0
175
     0
179
     0
273
     0
  0
XRECORD
  5
9E80
102
{ACAD_REACTORS
330
9E7E
102
}
330
9E7E
100
AcDbXrecord
280
     1
270
     1
271
     1
  0
XRECORD
  5
9E7F
102
{ACAD_REACTORS
330
9E7E
102
}
330
9E7E
100
AcDbXrecord
280
     1
270
     1
271
     1
  0
XRECORD
  5
9E83
102
{ACAD_REACTORS
330
9E7E
102
}
330
9E7E
100
AcDbXrecord
280
     1
270
     1
271
     1
  0
XRECORD
  5
9E82
102
{ACAD_REACTORS
330
9E7E
102
}
330
9E7E
100
AcDbXrecord
280
     1
270
     1
271
     1
  0
XRECORD
  5
9E84
102
{ACAD_REACTORS
330
9E7E
102
}
330
9E7E
100
AcDbXrecord
280
     1
270
     1
271
     1
  0
XRECORD
  5
9E81
102
{ACAD_REACTORS
330
9E7E
102
}
330
9E7E
100
AcDbXrecord
280
     1
270
     1
271
     1
  0
XRECORD
  5
9EE4
102
{ACAD_REACTORS
330
9E76
102
}
330
9E76
100
AcDbXrecord
280
     1
102
MATERIAL
148
0.0
149
0.0
149
0.0
 93
        0
 94
      127
282
     0
 72
     0
 77
     0
171
     0
175
     0
179
     0
273
     0
  0
XRECORD
  5
9E78
102
{ACAD_REACTORS
330
9E76
102
}
330
9E76
100
AcDbXrecord
280
     1
270
     1
271
     1
  0
XRECORD
  5
9E77
102
{ACAD_REACTORS
330
9E76
102
}
330
9E76
100
AcDbXrecord
280
     1
270
     1
271
     1
  0
XRECORD
  5
9E7B
102
{ACAD_REACTORS
330
9E76
102
}
330
9E76
100
AcDbXrecord
280
     1
270
     1
271
     1
  0
XRECORD
  5
9E7A
102
{ACAD_REACTORS
330
9E76
102
}
330
9E76
100
AcDbXrecord
280
     1
270
     1
271
     1
  0
XRECORD
  5
9E7C
102
{ACAD_REACTORS
330
9E76
102
}
330
9E76
100
AcDbXrecord
280
     1
270
     1
271
     1
  0
XRECORD
  5
9E79
102
{ACAD_REACTORS
330
9E76
102
}
330
9E76
100
AcDbXrecord
280
     1
270
     1
271
     1
  0
XRECORD
  5
9EE6
102
{ACAD_REACTORS
330
9E86
102
}
330
9E86
100
AcDbXrecord
280
     1
102
MATERIAL
148
0.0
149
0.0
149
0.0
 93
        0
 94
      127
282
     0
 72
     0
 77
     0
171
     0
175
     0
179
     0
273
     0
  0
XRECORD
  5
9E88
102
{ACAD_REACTORS
330
9E86
102
}
330
9E86
100
AcDbXrecord
280
     1
270
     1
271
     1
  0
XRECORD
  5
9E87
102
{ACAD_REACTORS
330
9E86
102
}
330
9E86
100
AcDbXrecord
280
     1
270
     1
271
     1
  0
XRECORD
  5
9E8B
102
{ACAD_REACTORS
330
9E86
102
}
330
9E86
100
AcDbXrecord
280
     1
270
     1
271
     1
  0
XRECORD
  5
9E8A
102
{ACAD_REACTORS
330
9E86
102
}
330
9E86
100
AcDbXrecord
280
     1
270
     1
271
     1
  0
XRECORD
  5
9E8C
102
{ACAD_REACTORS
330
9E86
102
}
330
9E86
100
AcDbXrecord
280
     1
270
     1
271
     1
  0
XRECORD
  5
9E89
102
{ACAD_REACTORS
330
9E86
102
}
330
9E86
100
AcDbXrecord
280
     1
270
     1
271
     1
  0
XRECORD
  5
9F1A
102
{ACAD_REACTORS
330
9F19
102
}
330
9F19
100
AcDbXrecord
280
     1
102
DISPLAYNAME
  1
Imperial24
102
FLAGS
 90
        0
  0
CELLSTYLEMAP
  5
9EE1
102
{ACAD_REACTORS
330
9EE0
102
}
330
9EE0
100
AcDbCellStyleMap
 90
        3
300
CELLSTYLE
  1
TABLEFORMAT_BEGIN
 90
        5
170
     1
 91
        0
 92
    32768
 62
   257
 93
        1
300
CONTENTFORMAT
  1
CONTENTFORMAT_BEGIN
 90
        0
 91
        0
 92
      512
 93
        0
300

 40
0.0
140
1.0
 94
        5
 62
     0
340
9BEA
144
0.25
309
CONTENTFORMAT_END
171
     0
 94
        0
309
TABLEFORMAT_END
  1
CELLSTYLE_BEGIN
 90
        1
 91
        1
300
_TITLE
309
CELLSTYLE_END
300
CELLSTYLE
  1
TABLEFORMAT_BEGIN
 90
        5
170
     1
 91
        0
 92
        0
 62
   257
 93
        1
300
CONTENTFORMAT
  1
CONTENTFORMAT_BEGIN
 90
        0
 91
        0
 92
      512
 93
        0
300

 40
0.0
140
1.0
 94
        5
 62
     0
340
9BEA
144
0.18
309
CONTENTFORMAT_END
171
     0
 94
        0
309
TABLEFORMAT_END
  1
CELLSTYLE_BEGIN
 90
        2
 91
        1
300
_HEADER
309
CELLSTYLE_END
300
CELLSTYLE
  1
TABLEFORMAT_BEGIN
 90
        5
170
     1
 91
        0
 92
        0
 62
   257
 93
        1
300
CONTENTFORMAT
  1
CONTENTFORMAT_BEGIN
 90
        0
 91
        0
 92
      512
 93
        0
300

 40
0.0
140
1.0
 94
        2
 62
     0
340
9BEA
144
0.18
309
CONTENTFORMAT_END
171
     0
 94
        0
309
TABLEFORMAT_END
  1
CELLSTYLE_BEGIN
 90
        3
 91
        2
300
_DATA
309
CELLSTYLE_END
  0
XRECORD
  5
9F17
102
{ACAD_REACTORS
330
9EE0
102
}
330
9EE0
100
AcDbXrecord
280
     1
102
ACAD_ROUNDTRIP_PRE2007_TABLESTYLE
 90
      512
 91
        0
  1

 92
      512
 93
        0
  2

 94
      512
 95
        0
  3

  0
XRECORD
  5
9EF2
102
{ACAD_REACTORS
330
9EF1
102
}
330
9EF1
100
AcDbXrecord
280
     1
102
RTVSPost2010Prop28
280
     1
102
RTVSPost2010PropOp28
 70
     1
102
RTVSPost2010Prop29
280
     1
102
RTVSPost2010PropOp29
 70
     1
102
RTVSPost2010Prop30
280
     0
102
RTVSPost2010PropOp30
 70
     1
102
RTVSPost2010Prop31
280
     0
102
RTVSPost2010PropOp31
 70
     1
102
RTVSPost2010Prop32
280
     0
102
RTVSPost2010PropOp32
 70
     1
102
RTVSPost2010Prop33
280
     0
102
RTVSPost2010PropOp33
 70
     1
102
RTVSPost2010Prop34
280
     0
102
RTVSPost2010PropOp34
 70
     1
102
RTVSPost2010Prop35
280
     0
102
RTVSPost2010PropOp35
 70
     1
102
RTVSPost2010Prop36
280
     0
102
RTVSPost2010PropOp36
 70
     1
102
RTVSPost2010Prop37
 90
       50
102
RTVSPost2010PropOp37
 70
     1
102
RTVSPost2010Prop38
140
0.0
102
RTVSPost2010PropOp38
 70
     1
102
RTVSPost2010Prop39
140
1.0
102
RTVSPost2010PropOp39
 70
     1
102
RTVSPost2010Prop40
 90
        0
102
RTVSPost2010PropOp40
 70
     1
102
RTVSPost2010Prop41ColorIndex
 90
       18
102
RTVSPost2010Prop41ColorRGB
 90
        0
102
RTVSPost2010PropOp41
 70
     1
102
RTVSPost2010Prop42
 90
       50
102
RTVSPost2010PropOp42
 70
     1
102
RTVSPost2010Prop43
 90
        3
102
RTVSPost2010PropOp43
 70
     1
102
RTVSPost2010Prop44ColorIndex
 90
        5
102
RTVSPost2010Prop44ColorRGB
 90
      255
102
RTVSPost2010PropOp44
 70
     1
102
RTVSPost2010Prop45
280
     0
102
RTVSPost2010PropOp45
 70
     1
102
RTVSPost2010Prop46
 90
       50
102
RTVSPost2010PropOp46
 70
     1
102
RTVSPost2010Prop47
 90
       50
102
RTVSPost2010PropOp47
 70
     1
102
RTVSPost2010Prop48
 90
       50
102
RTVSPost2010PropOp48
 70
     1
102
RTVSPost2010Prop49
280
     0
102
RTVSPost2010PropOp49
 70
     1
102
RTVSPost2010Prop50
 90
       50
102
RTVSPost2010PropOp50
 70
     1
102
RTVSPost2010Prop51ColorIndex
 90
      256
102
RTVSPost2010Prop51ColorRGB
 90
-16777216
102
RTVSPost2010PropOp51
 70
     0
102
RTVSPost2010Prop52
140
1.0
102
RTVSPost2010PropOp52
 70
     0
102
RTVSPost2010Prop53
 90
        2
102
RTVSPost2010PropOp53
 70
     1
102
RTVSPost2010Prop54
  1
strokes_ogs.tif
102
RTVSPost2010PropOp54
 70
     1
102
RTVSPost2010Prop55
280
     0
102
RTVSPost2010PropOp55
 70
     1
102
RTVSPost2010Prop56
140
1.0
102
RTVSPost2010PropOp56
 70
     1
102
RTVSPost2010Prop57
140
1.0
102
RTVSPost2010PropOp57
 70
     1
102
RTVSPropertyOp0
 70
     1
102
RTVSPropertyOp1
 70
     1
102
RTVSPropertyOp2
 70
     1
102
RTVSPropertyOp3
 70
     1
102
RTVSPropertyOp4
 70
     1
102
RTVSPropertyOp5
 70
     1
102
RTVSPropertyOp6
 70
     1
102
RTVSPropertyOp7
 70
     1
102
RTVSPropertyOp8
 70
     1
102
RTVSPropertyOp9
 70
     1
102
RTVSPropertyOp10
 70
     1
102
RTVSPropertyOp11
 70
     1
102
RTVSPropertyOp12
 70
     1
102
RTVSPropertyOp13
 70
     1
102
RTVSPropertyOp14
 70
     1
102
RTVSPropertyOp15
 70
     1
102
RTVSPropertyOp16
 70
     1
102
RTVSPropertyOp17
 70
     1
102
RTVSPropertyOp18
 70
     1
102
RTVSPropertyOp19
 70
     1
102
RTVSPropertyOp20
 70
     1
102
RTVSPropertyOp21
 70
     1
102
RTVSPropertyOp22
 70
     1
102
RTVSPropertyOp23
 70
     1
102
RTVSPropertyOp24
 70
     1
102
RTVSPropertyOp25
 70
     1
102
RTVSPropertyOp26
 70
     1
102
RTVSPropertyOp27
 70
     1
102
RTVSPropertyOp28
 70
     1
102
RTVSPropertyOp29
 70
     1
102
RTVSPropertyOp30
 70
     1
102
RTVSPropertyOp31
 70
     1
102
RTVSPropertyOp32
 70
     1
102
RTVSPropertyOp33
 70
     1
102
RTVSPropertyOp34
 70
     1
102
RTVSPropertyOp35
 70
     1
102
RTVSPropertyOp36
 70
     1
102
RTVSPropertyOp37
 70
     1
102
RTVSPropertyOp38
 70
     1
102
RTVSPropertyOp39
 70
     1
102
RTVSPropertyOp40
 70
     1
102
RTVSPropertyOp41
 70
     1
102
RTVSPropertyOp42
 70
     1
102
RTVSPropertyOp43
 70
     1
102
RTVSPropertyOp44
 70
     1
102
RTVSPropertyOp45
 70
     1
102
RTVSPropertyOp46
 70
     1
102
RTVSPropertyOp47
 70
     1
102
RTVSPropertyOp48
 70
     1
102
RTVSPropertyOp49
 70
     1
102
RTVSPropertyOp50
 70
     1
102
RTVSPropertyOp51
 70
     0
102
RTVSPropertyOp52
 70
     0
102
RTVSPropertyOp53
 70
     1
102
RTVSPropertyOp54
 70
     1
102
RTVSPropertyOp55
 70
     1
102
RTVSPropertyOp56
 70
     1
102
RTVSPropertyOp57
 70
     1
102
RTVSPropertyOp58
 70
     1
102
RTVSPropertyOp59
 70
     1
102
RTVSPropertyOp60
 70
     1
102
RTVSPropertyOp61
 70
     1
102
RTVSPropertyOp62
 70
     1
  0
XRECORD
  5
9EF0
102
{ACAD_REACTORS
330
9EEF
102
}
330
9EEF
100
AcDbXrecord
280
     1
102
RTVSPost2010Prop28
280
     0
102
RTVSPost2010PropOp28
 70
     1
102
RTVSPost2010Prop29
280
     1
102
RTVSPost2010PropOp29
 70
     1
102
RTVSPost2010Prop30
280
     1
102
RTVSPost2010PropOp30
 70
     1
102
RTVSPost2010Prop31
280
     0
102
RTVSPost2010PropOp31
 70
     1
102
RTVSPost2010Prop32
280
     0
102
RTVSPost2010PropOp32
 70
     1
102
RTVSPost2010Prop33
280
     0
102
RTVSPost2010PropOp33
 70
     1
102
RTVSPost2010Prop34
280
     0
102
RTVSPost2010PropOp34
 70
     1
102
RTVSPost2010Prop35
280
     0
102
RTVSPost2010PropOp35
 70
     1
102
RTVSPost2010Prop36
280
     0
102
RTVSPost2010PropOp36
 70
     1
102
RTVSPost2010Prop37
 90
       50
102
RTVSPost2010PropOp37
 70
     1
102
RTVSPost2010Prop38
140
0.0
102
RTVSPost2010PropOp38
 70
     1
102
RTVSPost2010Prop39
140
1.0
102
RTVSPost2010PropOp39
 70
     1
102
RTVSPost2010Prop40
 90
        0
102
RTVSPost2010PropOp40
 70
     1
102
RTVSPost2010Prop41ColorIndex
 90
       18
102
RTVSPost2010Prop41ColorRGB
 90
        0
102
RTVSPost2010PropOp41
 70
     1
102
RTVSPost2010Prop42
 90
       50
102
RTVSPost2010PropOp42
 70
     1
102
RTVSPost2010Prop43
 90
        3
102
RTVSPost2010PropOp43
 70
     1
102
RTVSPost2010Prop44ColorIndex
 90
        5
102
RTVSPost2010Prop44ColorRGB
 90
      255
102
RTVSPost2010PropOp44
 70
     1
102
RTVSPost2010Prop45
280
     0
102
RTVSPost2010PropOp45
 70
     1
102
RTVSPost2010Prop46
 90
       50
102
RTVSPost2010PropOp46
 70
     1
102
RTVSPost2010Prop47
 90
       50
102
RTVSPost2010PropOp47
 70
     1
102
RTVSPost2010Prop48
 90
       50
102
RTVSPost2010PropOp48
 70
     1
102
RTVSPost2010Prop49
280
     0
102
RTVSPost2010PropOp49
 70
     1
102
RTVSPost2010Prop50
 90
       50
102
RTVSPost2010PropOp50
 70
     1
102
RTVSPost2010Prop51ColorIndex
 90
      256
102
RTVSPost2010Prop51ColorRGB
 90
-16777216
102
RTVSPost2010PropOp51
 70
     0
102
RTVSPost2010Prop52
140
1.0
102
RTVSPost2010PropOp52
 70
     0
102
RTVSPost2010Prop53
 90
        2
102
RTVSPost2010PropOp53
 70
     1
102
RTVSPost2010Prop54
  1
strokes_ogs.tif
102
RTVSPost2010PropOp54
 70
     1
102
RTVSPost2010Prop55
280
     0
102
RTVSPost2010PropOp55
 70
     1
102
RTVSPost2010Prop56
140
1.0
102
RTVSPost2010PropOp56
 70
     1
102
RTVSPost2010Prop57
140
1.0
102
RTVSPost2010PropOp57
 70
     1
102
RTVSPropertyOp0
 70
     1
102
RTVSPropertyOp1
 70
     1
102
RTVSPropertyOp2
 70
     1
102
RTVSPropertyOp3
 70
     1
102
RTVSPropertyOp4
 70
     1
102
RTVSPropertyOp5
 70
     1
102
RTVSPropertyOp6
 70
     1
102
RTVSPropertyOp7
 70
     1
102
RTVSPropertyOp8
 70
     1
102
RTVSPropertyOp9
 70
     1
102
RTVSPropertyOp10
 70
     1
102
RTVSPropertyOp11
 70
     1
102
RTVSPropertyOp12
 70
     1
102
RTVSPropertyOp13
 70
     1
102
RTVSPropertyOp14
 70
     1
102
RTVSPropertyOp15
 70
     1
102
RTVSPropertyOp16
 70
     1
102
RTVSPropertyOp17
 70
     1
102
RTVSPropertyOp18
 70
     1
102
RTVSPropertyOp19
 70
     1
102
RTVSPropertyOp20
 70
     1
102
RTVSPropertyOp21
 70
     1
102
RTVSPropertyOp22
 70
     1
102
RTVSPropertyOp23
 70
     1
102
RTVSPropertyOp24
 70
     1
102
RTVSPropertyOp25
 70
     1
102
RTVSPropertyOp26
 70
     1
102
RTVSPropertyOp27
 70
     1
102
RTVSPropertyOp28
 70
     1
102
RTVSPropertyOp29
 70
     1
102
RTVSPropertyOp30
 70
     1
102
RTVSPropertyOp31
 70
     1
102
RTVSPropertyOp32
 70
     1
102
RTVSPropertyOp33
 70
     1
102
RTVSPropertyOp34
 70
     1
102
RTVSPropertyOp35
 70
     1
102
RTVSPropertyOp36
 70
     1
102
RTVSPropertyOp37
 70
     1
102
RTVSPropertyOp38
 70
     1
102
RTVSPropertyOp39
 70
     1
102
RTVSPropertyOp40
 70
     1
102
RTVSPropertyOp41
 70
     1
102
RTVSPropertyOp42
 70
     1
102
RTVSPropertyOp43
 70
     1
102
RTVSPropertyOp44
 70
     1
102
RTVSPropertyOp45
 70
     1
102
RTVSPropertyOp46
 70
     1
102
RTVSPropertyOp47
 70
     1
102
RTVSPropertyOp48
 70
     1
102
RTVSPropertyOp49
 70
     1
102
RTVSPropertyOp50
 70
     1
102
RTVSPropertyOp51
 70
     0
102
RTVSPropertyOp52
 70
     0
102
RTVSPropertyOp53
 70
     1
102
RTVSPropertyOp54
 70
     1
102
RTVSPropertyOp55
 70
     1
102
RTVSPropertyOp56
 70
     1
102
RTVSPropertyOp57
 70
     1
102
RTVSPropertyOp58
 70
     1
102
RTVSPropertyOp59
 70
     1
102
RTVSPropertyOp60
 70
     1
102
RTVSPropertyOp61
 70
     1
102
RTVSPropertyOp62
 70
     1
  0
XRECORD
  5
9EFE
102
{ACAD_REACTORS
330
9EFD
102
}
330
9EFD
100
AcDbXrecord
280
     1
102
RTVSPost2010Prop28
280
     0
102
RTVSPost2010PropOp28
 70
     1
102
RTVSPost2010Prop29
280
     1
102
RTVSPost2010PropOp29
 70
     1
102
RTVSPost2010Prop30
280
     1
102
RTVSPost2010PropOp30
 70
     1
102
RTVSPost2010Prop31
280
     0
102
RTVSPost2010PropOp31
 70
     1
102
RTVSPost2010Prop32
280
     0
102
RTVSPost2010PropOp32
 70
     1
102
RTVSPost2010Prop33
280
     0
102
RTVSPost2010PropOp33
 70
     1
102
RTVSPost2010Prop34
280
     0
102
RTVSPost2010PropOp34
 70
     1
102
RTVSPost2010Prop35
280
     0
102
RTVSPost2010PropOp35
 70
     1
102
RTVSPost2010Prop36
280
     0
102
RTVSPost2010PropOp36
 70
     1
102
RTVSPost2010Prop37
 90
       50
102
RTVSPost2010PropOp37
 70
     1
102
RTVSPost2010Prop38
140
0.0
102
RTVSPost2010PropOp38
 70
     1
102
RTVSPost2010Prop39
140
1.0
102
RTVSPost2010PropOp39
 70
     1
102
RTVSPost2010Prop40
 90
        0
102
RTVSPost2010PropOp40
 70
     1
102
RTVSPost2010Prop41ColorIndex
 90
       18
102
RTVSPost2010Prop41ColorRGB
 90
        0
102
RTVSPost2010PropOp41
 70
     1
102
RTVSPost2010Prop42
 90
       50
102
RTVSPost2010PropOp42
 70
     1
102
RTVSPost2010Prop43
 90
        3
102
RTVSPost2010PropOp43
 70
     1
102
RTVSPost2010Prop44ColorIndex
 90
        5
102
RTVSPost2010Prop44ColorRGB
 90
      255
102
RTVSPost2010PropOp44
 70
     1
102
RTVSPost2010Prop45
280
     0
102
RTVSPost2010PropOp45
 70
     1
102
RTVSPost2010Prop46
 90
       50
102
RTVSPost2010PropOp46
 70
     1
102
RTVSPost2010Prop47
 90
       50
102
RTVSPost2010PropOp47
 70
     1
102
RTVSPost2010Prop48
 90
       50
102
RTVSPost2010PropOp48
 70
     1
102
RTVSPost2010Prop49
280
     0
102
RTVSPost2010PropOp49
 70
     1
102
RTVSPost2010Prop50
 90
       50
102
RTVSPost2010PropOp50
 70
     1
102
RTVSPost2010Prop51ColorIndex
 90
      256
102
RTVSPost2010Prop51ColorRGB
 90
-16777216
102
RTVSPost2010PropOp51
 70
     0
102
RTVSPost2010Prop52
140
1.0
102
RTVSPost2010PropOp52
 70
     0
102
RTVSPost2010Prop53
 90
        2
102
RTVSPost2010PropOp53
 70
     1
102
RTVSPost2010Prop54
  1
strokes_ogs.tif
102
RTVSPost2010PropOp54
 70
     1
102
RTVSPost2010Prop55
280
     0
102
RTVSPost2010PropOp55
 70
     1
102
RTVSPost2010Prop56
140
1.0
102
RTVSPost2010PropOp56
 70
     1
102
RTVSPost2010Prop57
140
1.0
102
RTVSPost2010PropOp57
 70
     1
102
RTVSPropertyOp0
 70
     1
102
RTVSPropertyOp1
 70
     1
102
RTVSPropertyOp2
 70
     1
102
RTVSPropertyOp3
 70
     1
102
RTVSPropertyOp4
 70
     1
102
RTVSPropertyOp5
 70
     1
102
RTVSPropertyOp6
 70
     1
102
RTVSPropertyOp7
 70
     1
102
RTVSPropertyOp8
 70
     1
102
RTVSPropertyOp9
 70
     1
102
RTVSPropertyOp10
 70
     1
102
RTVSPropertyOp11
 70
     1
102
RTVSPropertyOp12
 70
     1
102
RTVSPropertyOp13
 70
     1
102
RTVSPropertyOp14
 70
     1
102
RTVSPropertyOp15
 70
     1
102
RTVSPropertyOp16
 70
     1
102
RTVSPropertyOp17
 70
     1
102
RTVSPropertyOp18
 70
     1
102
RTVSPropertyOp19
 70
     1
102
RTVSPropertyOp20
 70
     1
102
RTVSPropertyOp21
 70
     1
102
RTVSPropertyOp22
 70
     1
102
RTVSPropertyOp23
 70
     1
102
RTVSPropertyOp24
 70
     1
102
RTVSPropertyOp25
 70
     1
102
RTVSPropertyOp26
 70
     1
102
RTVSPropertyOp27
 70
     1
102
RTVSPropertyOp28
 70
     1
102
RTVSPropertyOp29
 70
     1
102
RTVSPropertyOp30
 70
     1
102
RTVSPropertyOp31
 70
     1
102
RTVSPropertyOp32
 70
     1
102
RTVSPropertyOp33
 70
     1
102
RTVSPropertyOp34
 70
     1
102
RTVSPropertyOp35
 70
     1
102
RTVSPropertyOp36
 70
     1
102
RTVSPropertyOp37
 70
     1
102
RTVSPropertyOp38
 70
     1
102
RTVSPropertyOp39
 70
     1
102
RTVSPropertyOp40
 70
     1
102
RTVSPropertyOp41
 70
     1
102
RTVSPropertyOp42
 70
     1
102
RTVSPropertyOp43
 70
     1
102
RTVSPropertyOp44
 70
     1
102
RTVSPropertyOp45
 70
     1
102
RTVSPropertyOp46
 70
     1
102
RTVSPropertyOp47
 70
     1
102
RTVSPropertyOp48
 70
     1
102
RTVSPropertyOp49
 70
     1
102
RTVSPropertyOp50
 70
     1
102
RTVSPropertyOp51
 70
     0
102
RTVSPropertyOp52
 70
     0
102
RTVSPropertyOp53
 70
     1
102
RTVSPropertyOp54
 70
     1
102
RTVSPropertyOp55
 70
     1
102
RTVSPropertyOp56
 70
     1
102
RTVSPropertyOp57
 70
     1
102
RTVSPropertyOp58
 70
     1
102
RTVSPropertyOp59
 70
     1
102
RTVSPropertyOp60
 70
     1
102
RTVSPropertyOp61
 70
     1
102
RTVSPropertyOp62
 70
     1
  0
XRECORD
  5
9F06
102
{ACAD_REACTORS
330
9F05
102
}
330
9F05
100
AcDbXrecord
280
     1
102
RTVSPost2010Prop28
280
     0
102
RTVSPost2010PropOp28
 70
     1
102
RTVSPost2010Prop29
280
     1
102
RTVSPost2010PropOp29
 70
     1
102
RTVSPost2010Prop30
280
     1
102
RTVSPost2010PropOp30
 70
     1
102
RTVSPost2010Prop31
280
     0
102
RTVSPost2010PropOp31
 70
     1
102
RTVSPost2010Prop32
280
     0
102
RTVSPost2010PropOp32
 70
     1
102
RTVSPost2010Prop33
280
     0
102
RTVSPost2010PropOp33
 70
     1
102
RTVSPost2010Prop34
280
     0
102
RTVSPost2010PropOp34
 70
     1
102
RTVSPost2010Prop35
280
     0
102
RTVSPost2010PropOp35
 70
     1
102
RTVSPost2010Prop36
280
     0
102
RTVSPost2010PropOp36
 70
     1
102
RTVSPost2010Prop37
 90
       50
102
RTVSPost2010PropOp37
 70
     1
102
RTVSPost2010Prop38
140
0.0
102
RTVSPost2010PropOp38
 70
     1
102
RTVSPost2010Prop39
140
1.0
102
RTVSPost2010PropOp39
 70
     1
102
RTVSPost2010Prop40
 90
        0
102
RTVSPost2010PropOp40
 70
     1
102
RTVSPost2010Prop41ColorIndex
 90
       18
102
RTVSPost2010Prop41ColorRGB
 90
        0
102
RTVSPost2010PropOp41
 70
     1
102
RTVSPost2010Prop42
 90
       50
102
RTVSPost2010PropOp42
 70
     1
102
RTVSPost2010Prop43
 90
        3
102
RTVSPost2010PropOp43
 70
     1
102
RTVSPost2010Prop44ColorIndex
 90
        5
102
RTVSPost2010Prop44ColorRGB
 90
      255
102
RTVSPost2010PropOp44
 70
     1
102
RTVSPost2010Prop45
280
     0
102
RTVSPost2010PropOp45
 70
     1
102
RTVSPost2010Prop46
 90
       50
102
RTVSPost2010PropOp46
 70
     1
102
RTVSPost2010Prop47
 90
       50
102
RTVSPost2010PropOp47
 70
     1
102
RTVSPost2010Prop48
 90
       50
102
RTVSPost2010PropOp48
 70
     1
102
RTVSPost2010Prop49
280
     0
102
RTVSPost2010PropOp49
 70
     1
102
RTVSPost2010Prop50
 90
       50
102
RTVSPost2010PropOp50
 70
     1
102
RTVSPost2010Prop51ColorIndex
 90
      256
102
RTVSPost2010Prop51ColorRGB
 90
-16777216
102
RTVSPost2010PropOp51
 70
     0
102
RTVSPost2010Prop52
140
1.0
102
RTVSPost2010PropOp52
 70
     0
102
RTVSPost2010Prop53
 90
        2
102
RTVSPost2010PropOp53
 70
     1
102
RTVSPost2010Prop54
  1
strokes_ogs.tif
102
RTVSPost2010PropOp54
 70
     1
102
RTVSPost2010Prop55
280
     0
102
RTVSPost2010PropOp55
 70
     1
102
RTVSPost2010Prop56
140
1.0
102
RTVSPost2010PropOp56
 70
     1
102
RTVSPost2010Prop57
140
1.0
102
RTVSPost2010PropOp57
 70
     1
102
RTVSPropertyOp0
 70
     1
102
RTVSPropertyOp1
 70
     1
102
RTVSPropertyOp2
 70
     1
102
RTVSPropertyOp3
 70
     1
102
RTVSPropertyOp4
 70
     1
102
RTVSPropertyOp5
 70
     1
102
RTVSPropertyOp6
 70
     1
102
RTVSPropertyOp7
 70
     1
102
RTVSPropertyOp8
 70
     1
102
RTVSPropertyOp9
 70
     1
102
RTVSPropertyOp10
 70
     1
102
RTVSPropertyOp11
 70
     1
102
RTVSPropertyOp12
 70
     1
102
RTVSPropertyOp13
 70
     1
102
RTVSPropertyOp14
 70
     1
102
RTVSPropertyOp15
 70
     1
102
RTVSPropertyOp16
 70
     1
102
RTVSPropertyOp17
 70
     1
102
RTVSPropertyOp18
 70
     1
102
RTVSPropertyOp19
 70
     1
102
RTVSPropertyOp20
 70
     1
102
RTVSPropertyOp21
 70
     1
102
RTVSPropertyOp22
 70
     1
102
RTVSPropertyOp23
 70
     1
102
RTVSPropertyOp24
 70
     1
102
RTVSPropertyOp25
 70
     1
102
RTVSPropertyOp26
 70
     1
102
RTVSPropertyOp27
 70
     1
102
RTVSPropertyOp28
 70
     1
102
RTVSPropertyOp29
 70
     1
102
RTVSPropertyOp30
 70
     1
102
RTVSPropertyOp31
 70
     1
102
RTVSPropertyOp32
 70
     1
102
RTVSPropertyOp33
 70
     1
102
RTVSPropertyOp34
 70
     1
102
RTVSPropertyOp35
 70
     1
102
RTVSPropertyOp36
 70
     1
102
RTVSPropertyOp37
 70
     1
102
RTVSPropertyOp38
 70
     1
102
RTVSPropertyOp39
 70
     1
102
RTVSPropertyOp40
 70
     1
102
RTVSPropertyOp41
 70
     1
102
RTVSPropertyOp42
 70
     1
102
RTVSPropertyOp43
 70
     1
102
RTVSPropertyOp44
 70
     1
102
RTVSPropertyOp45
 70
     1
102
RTVSPropertyOp46
 70
     1
102
RTVSPropertyOp47
 70
     1
102
RTVSPropertyOp48
 70
     1
102
RTVSPropertyOp49
 70
     1
102
RTVSPropertyOp50
 70
     1
102
RTVSPropertyOp51
 70
     0
102
RTVSPropertyOp52
 70
     0
102
RTVSPropertyOp53
 70
     1
102
RTVSPropertyOp54
 70
     1
102
RTVSPropertyOp55
 70
     1
102
RTVSPropertyOp56
 70
     1
102
RTVSPropertyOp57
 70
     1
102
RTVSPropertyOp58
 70
     1
102
RTVSPropertyOp59
 70
     1
102
RTVSPropertyOp60
 70
     1
102
RTVSPropertyOp61
 70
     1
102
RTVSPropertyOp62
 70
     1
  0
XRECORD
  5
9EF8
102
{ACAD_REACTORS
330
9EF7
102
}
330
9EF7
100
AcDbXrecord
280
     1
102
RTVSPost2010Prop28
280
     0
102
RTVSPost2010PropOp28
 70
     1
102
RTVSPost2010Prop29
280
     1
102
RTVSPost2010PropOp29
 70
     1
102
RTVSPost2010Prop30
280
     1
102
RTVSPost2010PropOp30
 70
     1
102
RTVSPost2010Prop31
280
     0
102
RTVSPost2010PropOp31
 70
     1
102
RTVSPost2010Prop32
280
     0
102
RTVSPost2010PropOp32
 70
     1
102
RTVSPost2010Prop33
280
     0
102
RTVSPost2010PropOp33
 70
     1
102
RTVSPost2010Prop34
280
     0
102
RTVSPost2010PropOp34
 70
     1
102
RTVSPost2010Prop35
280
     0
102
RTVSPost2010PropOp35
 70
     1
102
RTVSPost2010Prop36
280
     0
102
RTVSPost2010PropOp36
 70
     1
102
RTVSPost2010Prop37
 90
       50
102
RTVSPost2010PropOp37
 70
     1
102
RTVSPost2010Prop38
140
0.0
102
RTVSPost2010PropOp38
 70
     1
102
RTVSPost2010Prop39
140
1.0
102
RTVSPost2010PropOp39
 70
     1
102
RTVSPost2010Prop40
 90
        0
102
RTVSPost2010PropOp40
 70
     1
102
RTVSPost2010Prop41ColorIndex
 90
       18
102
RTVSPost2010Prop41ColorRGB
 90
        0
102
RTVSPost2010PropOp41
 70
     1
102
RTVSPost2010Prop42
 90
       50
102
RTVSPost2010PropOp42
 70
     1
102
RTVSPost2010Prop43
 90
        3
102
RTVSPost2010PropOp43
 70
     1
102
RTVSPost2010Prop44ColorIndex
 90
        5
102
RTVSPost2010Prop44ColorRGB
 90
      255
102
RTVSPost2010PropOp44
 70
     1
102
RTVSPost2010Prop45
280
     0
102
RTVSPost2010PropOp45
 70
     1
102
RTVSPost2010Prop46
 90
       50
102
RTVSPost2010PropOp46
 70
     1
102
RTVSPost2010Prop47
 90
       50
102
RTVSPost2010PropOp47
 70
     1
102
RTVSPost2010Prop48
 90
       50
102
RTVSPost2010PropOp48
 70
     1
102
RTVSPost2010Prop49
280
     0
102
RTVSPost2010PropOp49
 70
     1
102
RTVSPost2010Prop50
 90
       50
102
RTVSPost2010PropOp50
 70
     1
102
RTVSPost2010Prop51ColorIndex
 90
      256
102
RTVSPost2010Prop51ColorRGB
 90
-16777216
102
RTVSPost2010PropOp51
 70
     0
102
RTVSPost2010Prop52
140
1.0
102
RTVSPost2010PropOp52
 70
     0
102
RTVSPost2010Prop53
 90
        2
102
RTVSPost2010PropOp53
 70
     1
102
RTVSPost2010Prop54
  1
strokes_ogs.tif
102
RTVSPost2010PropOp54
 70
     1
102
RTVSPost2010Prop55
280
     0
102
RTVSPost2010PropOp55
 70
     1
102
RTVSPost2010Prop56
140
1.0
102
RTVSPost2010PropOp56
 70
     1
102
RTVSPost2010Prop57
140
1.0
102
RTVSPost2010PropOp57
 70
     1
102
RTVSPropertyOp0
 70
     1
102
RTVSPropertyOp1
 70
     1
102
RTVSPropertyOp2
 70
     1
102
RTVSPropertyOp3
 70
     1
102
RTVSPropertyOp4
 70
     1
102
RTVSPropertyOp5
 70
     1
102
RTVSPropertyOp6
 70
     1
102
RTVSPropertyOp7
 70
     1
102
RTVSPropertyOp8
 70
     1
102
RTVSPropertyOp9
 70
     1
102
RTVSPropertyOp10
 70
     1
102
RTVSPropertyOp11
 70
     1
102
RTVSPropertyOp12
 70
     1
102
RTVSPropertyOp13
 70
     1
102
RTVSPropertyOp14
 70
     1
102
RTVSPropertyOp15
 70
     1
102
RTVSPropertyOp16
 70
     1
102
RTVSPropertyOp17
 70
     1
102
RTVSPropertyOp18
 70
     1
102
RTVSPropertyOp19
 70
     1
102
RTVSPropertyOp20
 70
     1
102
RTVSPropertyOp21
 70
     1
102
RTVSPropertyOp22
 70
     1
102
RTVSPropertyOp23
 70
     1
102
RTVSPropertyOp24
 70
     1
102
RTVSPropertyOp25
 70
     1
102
RTVSPropertyOp26
 70
     1
102
RTVSPropertyOp27
 70
     1
102
RTVSPropertyOp28
 70
     1
102
RTVSPropertyOp29
 70
     1
102
RTVSPropertyOp30
 70
     1
102
RTVSPropertyOp31
 70
     1
102
RTVSPropertyOp32
 70
     1
102
RTVSPropertyOp33
 70
     1
102
RTVSPropertyOp34
 70
     1
102
RTVSPropertyOp35
 70
     1
102
RTVSPropertyOp36
 70
     1
102
RTVSPropertyOp37
 70
     1
102
RTVSPropertyOp38
 70
     1
102
RTVSPropertyOp39
 70
     1
102
RTVSPropertyOp40
 70
     1
102
RTVSPropertyOp41
 70
     1
102
RTVSPropertyOp42
 70
     1
102
RTVSPropertyOp43
 70
     1
102
RTVSPropertyOp44
 70
     1
102
RTVSPropertyOp45
 70
     1
102
RTVSPropertyOp46
 70
     1
102
RTVSPropertyOp47
 70
     1
102
RTVSPropertyOp48
 70
     1
102
RTVSPropertyOp49
 70
     1
102
RTVSPropertyOp50
 70
     1
102
RTVSPropertyOp51
 70
     0
102
RTVSPropertyOp52
 70
     0
102
RTVSPropertyOp53
 70
     1
102
RTVSPropertyOp54
 70
     1
102
RTVSPropertyOp55
 70
     1
102
RTVSPropertyOp56
 70
     1
102
RTVSPropertyOp57
 70
     1
102
RTVSPropertyOp58
 70
     1
102
RTVSPropertyOp59
 70
     1
102
RTVSPropertyOp60
 70
     1
102
RTVSPropertyOp61
 70
     1
102
RTVSPropertyOp62
 70
     1
  0
XRECORD
  5
9EFC
102
{ACAD_REACTORS
330
9EFB
102
}
330
9EFB
100
AcDbXrecord
280
     1
102
RTVSPost2010Prop28
280
     0
102
RTVSPost2010PropOp28
 70
     1
102
RTVSPost2010Prop29
280
     1
102
RTVSPost2010PropOp29
 70
     1
102
RTVSPost2010Prop30
280
     1
102
RTVSPost2010PropOp30
 70
     1
102
RTVSPost2010Prop31
280
     0
102
RTVSPost2010PropOp31
 70
     1
102
RTVSPost2010Prop32
280
     0
102
RTVSPost2010PropOp32
 70
     1
102
RTVSPost2010Prop33
280
     0
102
RTVSPost2010PropOp33
 70
     1
102
RTVSPost2010Prop34
280
     0
102
RTVSPost2010PropOp34
 70
     1
102
RTVSPost2010Prop35
280
     0
102
RTVSPost2010PropOp35
 70
     1
102
RTVSPost2010Prop36
280
     0
102
RTVSPost2010PropOp36
 70
     1
102
RTVSPost2010Prop37
 90
       50
102
RTVSPost2010PropOp37
 70
     1
102
RTVSPost2010Prop38
140
0.0
102
RTVSPost2010PropOp38
 70
     1
102
RTVSPost2010Prop39
140
1.0
102
RTVSPost2010PropOp39
 70
     1
102
RTVSPost2010Prop40
 90
        0
102
RTVSPost2010PropOp40
 70
     1
102
RTVSPost2010Prop41ColorIndex
 90
       18
102
RTVSPost2010Prop41ColorRGB
 90
        0
102
RTVSPost2010PropOp41
 70
     1
102
RTVSPost2010Prop42
 90
       50
102
RTVSPost2010PropOp42
 70
     1
102
RTVSPost2010Prop43
 90
        3
102
RTVSPost2010PropOp43
 70
     1
102
RTVSPost2010Prop44ColorIndex
 90
        5
102
RTVSPost2010Prop44ColorRGB
 90
      255
102
RTVSPost2010PropOp44
 70
     1
102
RTVSPost2010Prop45
280
     0
102
RTVSPost2010PropOp45
 70
     1
102
RTVSPost2010Prop46
 90
       50
102
RTVSPost2010PropOp46
 70
     1
102
RTVSPost2010Prop47
 90
       50
102
RTVSPost2010PropOp47
 70
     1
102
RTVSPost2010Prop48
 90
       50
102
RTVSPost2010PropOp48
 70
     1
102
RTVSPost2010Prop49
280
     0
102
RTVSPost2010PropOp49
 70
     1
102
RTVSPost2010Prop50
 90
       50
102
RTVSPost2010PropOp50
 70
     1
102
RTVSPost2010Prop51ColorIndex
 90
      256
102
RTVSPost2010Prop51ColorRGB
 90
-16777216
102
RTVSPost2010PropOp51
 70
     0
102
RTVSPost2010Prop52
140
1.0
102
RTVSPost2010PropOp52
 70
     0
102
RTVSPost2010Prop53
 90
        2
102
RTVSPost2010PropOp53
 70
     1
102
RTVSPost2010Prop54
  1
strokes_ogs.tif
102
RTVSPost2010PropOp54
 70
     1
102
RTVSPost2010Prop55
280
     0
102
RTVSPost2010PropOp55
 70
     1
102
RTVSPost2010Prop56
140
1.0
102
RTVSPost2010PropOp56
 70
     1
102
RTVSPost2010Prop57
140
1.0
102
RTVSPost2010PropOp57
 70
     1
102
RTVSPropertyOp0
 70
     1
102
RTVSPropertyOp1
 70
     1
102
RTVSPropertyOp2
 70
     1
102
RTVSPropertyOp3
 70
     1
102
RTVSPropertyOp4
 70
     1
102
RTVSPropertyOp5
 70
     1
102
RTVSPropertyOp6
 70
     1
102
RTVSPropertyOp7
 70
     1
102
RTVSPropertyOp8
 70
     1
102
RTVSPropertyOp9
 70
     1
102
RTVSPropertyOp10
 70
     1
102
RTVSPropertyOp11
 70
     1
102
RTVSPropertyOp12
 70
     1
102
RTVSPropertyOp13
 70
     1
102
RTVSPropertyOp14
 70
     1
102
RTVSPropertyOp15
 70
     1
102
RTVSPropertyOp16
 70
     1
102
RTVSPropertyOp17
 70
     1
102
RTVSPropertyOp18
 70
     1
102
RTVSPropertyOp19
 70
     1
102
RTVSPropertyOp20
 70
     1
102
RTVSPropertyOp21
 70
     1
102
RTVSPropertyOp22
 70
     1
102
RTVSPropertyOp23
 70
     1
102
RTVSPropertyOp24
 70
     1
102
RTVSPropertyOp25
 70
     1
102
RTVSPropertyOp26
 70
     1
102
RTVSPropertyOp27
 70
     1
102
RTVSPropertyOp28
 70
     1
102
RTVSPropertyOp29
 70
     1
102
RTVSPropertyOp30
 70
     1
102
RTVSPropertyOp31
 70
     1
102
RTVSPropertyOp32
 70
     1
102
RTVSPropertyOp33
 70
     1
102
RTVSPropertyOp34
 70
     1
102
RTVSPropertyOp35
 70
     1
102
RTVSPropertyOp36
 70
     1
102
RTVSPropertyOp37
 70
     1
102
RTVSPropertyOp38
 70
     1
102
RTVSPropertyOp39
 70
     1
102
RTVSPropertyOp40
 70
     1
102
RTVSPropertyOp41
 70
     1
102
RTVSPropertyOp42
 70
     1
102
RTVSPropertyOp43
 70
     1
102
RTVSPropertyOp44
 70
     1
102
RTVSPropertyOp45
 70
     1
102
RTVSPropertyOp46
 70
     1
102
RTVSPropertyOp47
 70
     1
102
RTVSPropertyOp48
 70
     1
102
RTVSPropertyOp49
 70
     1
102
RTVSPropertyOp50
 70
     1
102
RTVSPropertyOp51
 70
     0
102
RTVSPropertyOp52
 70
     0
102
RTVSPropertyOp53
 70
     1
102
RTVSPropertyOp54
 70
     1
102
RTVSPropertyOp55
 70
     1
102
RTVSPropertyOp56
 70
     1
102
RTVSPropertyOp57
 70
     1
102
RTVSPropertyOp58
 70
     1
102
RTVSPropertyOp59
 70
     1
102
RTVSPropertyOp60
 70
     1
102
RTVSPropertyOp61
 70
     1
102
RTVSPropertyOp62
 70
     1
  0
XRECORD
  5
9F16
102
{ACAD_REACTORS
330
9F15
102
}
330
9F15
100
AcDbXrecord
280
     1
102
RTVSPost2010Prop28
280
     0
102
RTVSPost2010PropOp28
 70
     1
102
RTVSPost2010Prop29
280
     1
102
RTVSPost2010PropOp29
 70
     1
102
RTVSPost2010Prop30
280
     1
102
RTVSPost2010PropOp30
 70
     1
102
RTVSPost2010Prop31
280
     0
102
RTVSPost2010PropOp31
 70
     1
102
RTVSPost2010Prop32
280
     0
102
RTVSPost2010PropOp32
 70
     1
102
RTVSPost2010Prop33
280
     0
102
RTVSPost2010PropOp33
 70
     1
102
RTVSPost2010Prop34
280
     0
102
RTVSPost2010PropOp34
 70
     1
102
RTVSPost2010Prop35
280
     0
102
RTVSPost2010PropOp35
 70
     1
102
RTVSPost2010Prop36
280
     0
102
RTVSPost2010PropOp36
 70
     1
102
RTVSPost2010Prop37
 90
       50
102
RTVSPost2010PropOp37
 70
     0
102
RTVSPost2010Prop38
140
0.0
102
RTVSPost2010PropOp38
 70
     0
102
RTVSPost2010Prop39
140
1.0
102
RTVSPost2010PropOp39
 70
     0
102
RTVSPost2010Prop40
 90
        0
102
RTVSPost2010PropOp40
 70
     0
102
RTVSPost2010Prop41ColorIndex
 90
       18
102
RTVSPost2010Prop41ColorRGB
 90
        0
102
RTVSPost2010PropOp41
 70
     0
102
RTVSPost2010Prop42
 90
       50
102
RTVSPost2010PropOp42
 70
     0
102
RTVSPost2010Prop43
 90
        3
102
RTVSPost2010PropOp43
 70
     0
102
RTVSPost2010Prop44ColorIndex
 90
        5
102
RTVSPost2010Prop44ColorRGB
 90
      255
102
RTVSPost2010PropOp44
 70
     0
102
RTVSPost2010Prop45
280
     0
102
RTVSPost2010PropOp45
 70
     1
102
RTVSPost2010Prop46
 90
       50
102
RTVSPost2010PropOp46
 70
     0
102
RTVSPost2010Prop47
 90
       50
102
RTVSPost2010PropOp47
 70
     0
102
RTVSPost2010Prop48
 90
       50
102
RTVSPost2010PropOp48
 70
     0
102
RTVSPost2010Prop49
280
     0
102
RTVSPost2010PropOp49
 70
     1
102
RTVSPost2010Prop50
 90
       50
102
RTVSPost2010PropOp50
 70
     0
102
RTVSPost2010Prop51ColorIndex
 90
      256
102
RTVSPost2010Prop51ColorRGB
 90
-16777216
102
RTVSPost2010PropOp51
 70
     0
102
RTVSPost2010Prop52
140
1.0
102
RTVSPost2010PropOp52
 70
     0
102
RTVSPost2010Prop53
 90
        2
102
RTVSPost2010PropOp53
 70
     0
102
RTVSPost2010Prop54
  1
strokes_ogs.tif
102
RTVSPost2010PropOp54
 70
     0
102
RTVSPost2010Prop55
280
     0
102
RTVSPost2010PropOp55
 70
     1
102
RTVSPost2010Prop56
140
1.0
102
RTVSPost2010PropOp56
 70
     0
102
RTVSPost2010Prop57
140
1.0
102
RTVSPost2010PropOp57
 70
     0
102
RTVSPropertyOp0
 70
     0
102
RTVSPropertyOp1
 70
     0
102
RTVSPropertyOp2
 70
     0
102
RTVSPropertyOp3
 70
     0
102
RTVSPropertyOp4
 70
     0
102
RTVSPropertyOp5
 70
     0
102
RTVSPropertyOp6
 70
     0
102
RTVSPropertyOp7
 70
     0
102
RTVSPropertyOp8
 70
     0
102
RTVSPropertyOp9
 70
     0
102
RTVSPropertyOp10
 70
     0
102
RTVSPropertyOp11
 70
     0
102
RTVSPropertyOp12
 70
     0
102
RTVSPropertyOp13
 70
     0
102
RTVSPropertyOp14
 70
     2
102
RTVSPropertyOp15
 70
     0
102
RTVSPropertyOp16
 70
     0
102
RTVSPropertyOp17
 70
     0
102
RTVSPropertyOp18
 70
     0
102
RTVSPropertyOp19
 70
     0
102
RTVSPropertyOp20
 70
     0
102
RTVSPropertyOp21
 70
     0
102
RTVSPropertyOp22
 70
     0
102
RTVSPropertyOp23
 70
     0
102
RTVSPropertyOp24
 70
     0
102
RTVSPropertyOp25
 70
     0
102
RTVSPropertyOp26
 70
     0
102
RTVSPropertyOp27
 70
     0
102
RTVSPropertyOp28
 70
     1
102
RTVSPropertyOp29
 70
     1
102
RTVSPropertyOp30
 70
     1
102
RTVSPropertyOp31
 70
     1
102
RTVSPropertyOp32
 70
     1
102
RTVSPropertyOp33
 70
     1
102
RTVSPropertyOp34
 70
     1
102
RTVSPropertyOp35
 70
     1
102
RTVSPropertyOp36
 70
     1
102
RTVSPropertyOp37
 70
     0
102
RTVSPropertyOp38
 70
     0
102
RTVSPropertyOp39
 70
     0
102
RTVSPropertyOp40
 70
     0
102
RTVSPropertyOp41
 70
     0
102
RTVSPropertyOp42
 70
     0
102
RTVSPropertyOp43
 70
     0
102
RTVSPropertyOp44
 70
     0
102
RTVSPropertyOp45
 70
     1
102
RTVSPropertyOp46
 70
     0
102
RTVSPropertyOp47
 70
     0
102
RTVSPropertyOp48
 70
     0
102
RTVSPropertyOp49
 70
     1
102
RTVSPropertyOp50
 70
     0
102
RTVSPropertyOp51
 70
     0
102
RTVSPropertyOp52
 70
     0
102
RTVSPropertyOp53
 70
     0
102
RTVSPropertyOp54
 70
     0
102
RTVSPropertyOp55
 70
     1
102
RTVSPropertyOp56
 70
     0
102
RTVSPropertyOp57
 70
     0
102
RTVSPropertyOp58
 70
     0
102
RTVSPropertyOp59
 70
     0
102
RTVSPropertyOp60
 70
     0
102
RTVSPropertyOp61
 70
     0
102
RTVSPropertyOp62
 70
     0
  0
XRECORD
  5
9F04
102
{ACAD_REACTORS
330
9F03
102
}
330
9F03
100
AcDbXrecord
280
     1
102
RTVSPost2010Prop28
280
     0
102
RTVSPost2010PropOp28
 70
     1
102
RTVSPost2010Prop29
280
     1
102
RTVSPost2010PropOp29
 70
     1
102
RTVSPost2010Prop30
280
     1
102
RTVSPost2010PropOp30
 70
     1
102
RTVSPost2010Prop31
280
     0
102
RTVSPost2010PropOp31
 70
     1
102
RTVSPost2010Prop32
280
     0
102
RTVSPost2010PropOp32
 70
     1
102
RTVSPost2010Prop33
280
     0
102
RTVSPost2010PropOp33
 70
     1
102
RTVSPost2010Prop34
280
     0
102
RTVSPost2010PropOp34
 70
     1
102
RTVSPost2010Prop35
280
     0
102
RTVSPost2010PropOp35
 70
     1
102
RTVSPost2010Prop36
280
     0
102
RTVSPost2010PropOp36
 70
     1
102
RTVSPost2010Prop37
 90
       50
102
RTVSPost2010PropOp37
 70
     1
102
RTVSPost2010Prop38
140
0.0
102
RTVSPost2010PropOp38
 70
     1
102
RTVSPost2010Prop39
140
1.0
102
RTVSPost2010PropOp39
 70
     1
102
RTVSPost2010Prop40
 90
        0
102
RTVSPost2010PropOp40
 70
     1
102
RTVSPost2010Prop41ColorIndex
 90
       18
102
RTVSPost2010Prop41ColorRGB
 90
        0
102
RTVSPost2010PropOp41
 70
     1
102
RTVSPost2010Prop42
 90
       50
102
RTVSPost2010PropOp42
 70
     1
102
RTVSPost2010Prop43
 90
        3
102
RTVSPost2010PropOp43
 70
     1
102
RTVSPost2010Prop44ColorIndex
 90
        5
102
RTVSPost2010Prop44ColorRGB
 90
      255
102
RTVSPost2010PropOp44
 70
     1
102
RTVSPost2010Prop45
280
     0
102
RTVSPost2010PropOp45
 70
     1
102
RTVSPost2010Prop46
 90
       50
102
RTVSPost2010PropOp46
 70
     1
102
RTVSPost2010Prop47
 90
       50
102
RTVSPost2010PropOp47
 70
     1
102
RTVSPost2010Prop48
 90
       50
102
RTVSPost2010PropOp48
 70
     1
102
RTVSPost2010Prop49
280
     0
102
RTVSPost2010PropOp49
 70
     1
102
RTVSPost2010Prop50
 90
       50
102
RTVSPost2010PropOp50
 70
     1
102
RTVSPost2010Prop51ColorIndex
 90
      256
102
RTVSPost2010Prop51ColorRGB
 90
-16777216
102
RTVSPost2010PropOp51
 70
     0
102
RTVSPost2010Prop52
140
1.0
102
RTVSPost2010PropOp52
 70
     0
102
RTVSPost2010Prop53
 90
        2
102
RTVSPost2010PropOp53
 70
     1
102
RTVSPost2010Prop54
  1
strokes_ogs.tif
102
RTVSPost2010PropOp54
 70
     1
102
RTVSPost2010Prop55
280
     0
102
RTVSPost2010PropOp55
 70
     1
102
RTVSPost2010Prop56
140
1.0
102
RTVSPost2010PropOp56
 70
     1
102
RTVSPost2010Prop57
140
1.0
102
RTVSPost2010PropOp57
 70
     1
102
RTVSPropertyOp0
 70
     1
102
RTVSPropertyOp1
 70
     1
102
RTVSPropertyOp2
 70
     1
102
RTVSPropertyOp3
 70
     1
102
RTVSPropertyOp4
 70
     1
102
RTVSPropertyOp5
 70
     1
102
RTVSPropertyOp6
 70
     1
102
RTVSPropertyOp7
 70
     1
102
RTVSPropertyOp8
 70
     1
102
RTVSPropertyOp9
 70
     1
102
RTVSPropertyOp10
 70
     1
102
RTVSPropertyOp11
 70
     1
102
RTVSPropertyOp12
 70
     1
102
RTVSPropertyOp13
 70
     1
102
RTVSPropertyOp14
 70
     1
102
RTVSPropertyOp15
 70
     1
102
RTVSPropertyOp16
 70
     1
102
RTVSPropertyOp17
 70
     1
102
RTVSPropertyOp18
 70
     1
102
RTVSPropertyOp19
 70
     1
102
RTVSPropertyOp20
 70
     1
102
RTVSPropertyOp21
 70
     1
102
RTVSPropertyOp22
 70
     1
102
RTVSPropertyOp23
 70
     1
102
RTVSPropertyOp24
 70
     1
102
RTVSPropertyOp25
 70
     1
102
RTVSPropertyOp26
 70
     1
102
RTVSPropertyOp27
 70
     1
102
RTVSPropertyOp28
 70
     1
102
RTVSPropertyOp29
 70
     1
102
RTVSPropertyOp30
 70
     1
102
RTVSPropertyOp31
 70
     1
102
RTVSPropertyOp32
 70
     1
102
RTVSPropertyOp33
 70
     1
102
RTVSPropertyOp34
 70
     1
102
RTVSPropertyOp35
 70
     1
102
RTVSPropertyOp36
 70
     1
102
RTVSPropertyOp37
 70
     1
102
RTVSPropertyOp38
 70
     1
102
RTVSPropertyOp39
 70
     1
102
RTVSPropertyOp40
 70
     1
102
RTVSPropertyOp41
 70
     1
102
RTVSPropertyOp42
 70
     1
102
RTVSPropertyOp43
 70
     1
102
RTVSPropertyOp44
 70
     1
102
RTVSPropertyOp45
 70
     1
102
RTVSPropertyOp46
 70
     1
102
RTVSPropertyOp47
 70
     1
102
RTVSPropertyOp48
 70
     1
102
RTVSPropertyOp49
 70
     1
102
RTVSPropertyOp50
 70
     1
102
RTVSPropertyOp51
 70
     0
102
RTVSPropertyOp52
 70
     0
102
RTVSPropertyOp53
 70
     1
102
RTVSPropertyOp54
 70
     1
102
RTVSPropertyOp55
 70
     1
102
RTVSPropertyOp56
 70
     1
102
RTVSPropertyOp57
 70
     1
102
RTVSPropertyOp58
 70
     1
102
RTVSPropertyOp59
 70
     1
102
RTVSPropertyOp60
 70
     1
102
RTVSPropertyOp61
 70
     1
102
RTVSPropertyOp62
 70
     1
  0
XRECORD
  5
9EE8
102
{ACAD_REACTORS
330
9EE7
102
}
330
9EE7
100
AcDbXrecord
280
     1
102
RTVSPost2010Prop28
280
     0
102
RTVSPost2010PropOp28
 70
     1
102
RTVSPost2010Prop29
280
     1
102
RTVSPost2010PropOp29
 70
     1
102
RTVSPost2010Prop30
280
     1
102
RTVSPost2010PropOp30
 70
     1
102
RTVSPost2010Prop31
280
     0
102
RTVSPost2010PropOp31
 70
     1
102
RTVSPost2010Prop32
280
     0
102
RTVSPost2010PropOp32
 70
     1
102
RTVSPost2010Prop33
280
     0
102
RTVSPost2010PropOp33
 70
     1
102
RTVSPost2010Prop34
280
     0
102
RTVSPost2010PropOp34
 70
     1
102
RTVSPost2010Prop35
280
     0
102
RTVSPost2010PropOp35
 70
     1
102
RTVSPost2010Prop36
280
     0
102
RTVSPost2010PropOp36
 70
     1
102
RTVSPost2010Prop37
 90
       50
102
RTVSPost2010PropOp37
 70
     1
102
RTVSPost2010Prop38
140
0.0
102
RTVSPost2010PropOp38
 70
     1
102
RTVSPost2010Prop39
140
1.0
102
RTVSPost2010PropOp39
 70
     1
102
RTVSPost2010Prop40
 90
        0
102
RTVSPost2010PropOp40
 70
     1
102
RTVSPost2010Prop41ColorIndex
 90
       18
102
RTVSPost2010Prop41ColorRGB
 90
        0
102
RTVSPost2010PropOp41
 70
     1
102
RTVSPost2010Prop42
 90
       50
102
RTVSPost2010PropOp42
 70
     1
102
RTVSPost2010Prop43
 90
        3
102
RTVSPost2010PropOp43
 70
     1
102
RTVSPost2010Prop44ColorIndex
 90
        5
102
RTVSPost2010Prop44ColorRGB
 90
      255
102
RTVSPost2010PropOp44
 70
     1
102
RTVSPost2010Prop45
280
     0
102
RTVSPost2010PropOp45
 70
     1
102
RTVSPost2010Prop46
 90
       50
102
RTVSPost2010PropOp46
 70
     1
102
RTVSPost2010Prop47
 90
       50
102
RTVSPost2010PropOp47
 70
     1
102
RTVSPost2010Prop48
 90
       50
102
RTVSPost2010PropOp48
 70
     1
102
RTVSPost2010Prop49
280
     0
102
RTVSPost2010PropOp49
 70
     1
102
RTVSPost2010Prop50
 90
       50
102
RTVSPost2010PropOp50
 70
     1
102
RTVSPost2010Prop51ColorIndex
 90
      256
102
RTVSPost2010Prop51ColorRGB
 90
-16777216
102
RTVSPost2010PropOp51
 70
     0
102
RTVSPost2010Prop52
140
1.0
102
RTVSPost2010PropOp52
 70
     0
102
RTVSPost2010Prop53
 90
        2
102
RTVSPost2010PropOp53
 70
     1
102
RTVSPost2010Prop54
  1
strokes_ogs.tif
102
RTVSPost2010PropOp54
 70
     1
102
RTVSPost2010Prop55
280
     0
102
RTVSPost2010PropOp55
 70
     1
102
RTVSPost2010Prop56
140
1.0
102
RTVSPost2010PropOp56
 70
     1
102
RTVSPost2010Prop57
140
1.0
102
RTVSPost2010PropOp57
 70
     1
102
RTVSPropertyOp0
 70
     1
102
RTVSPropertyOp1
 70
     1
102
RTVSPropertyOp2
 70
     1
102
RTVSPropertyOp3
 70
     1
102
RTVSPropertyOp4
 70
     1
102
RTVSPropertyOp5
 70
     1
102
RTVSPropertyOp6
 70
     1
102
RTVSPropertyOp7
 70
     1
102
RTVSPropertyOp8
 70
     1
102
RTVSPropertyOp9
 70
     1
102
RTVSPropertyOp10
 70
     1
102
RTVSPropertyOp11
 70
     1
102
RTVSPropertyOp12
 70
     1
102
RTVSPropertyOp13
 70
     1
102
RTVSPropertyOp14
 70
     1
102
RTVSPropertyOp15
 70
     1
102
RTVSPropertyOp16
 70
     1
102
RTVSPropertyOp17
 70
     1
102
RTVSPropertyOp18
 70
     1
102
RTVSPropertyOp19
 70
     1
102
RTVSPropertyOp20
 70
     1
102
RTVSPropertyOp21
 70
     1
102
RTVSPropertyOp22
 70
     1
102
RTVSPropertyOp23
 70
     1
102
RTVSPropertyOp24
 70
     1
102
RTVSPropertyOp25
 70
     1
102
RTVSPropertyOp26
 70
     1
102
RTVSPropertyOp27
 70
     1
102
RTVSPropertyOp28
 70
     1
102
RTVSPropertyOp29
 70
     1
102
RTVSPropertyOp30
 70
     1
102
RTVSPropertyOp31
 70
     1
102
RTVSPropertyOp32
 70
     1
102
RTVSPropertyOp33
 70
     1
102
RTVSPropertyOp34
 70
     1
102
RTVSPropertyOp35
 70
     1
102
RTVSPropertyOp36
 70
     1
102
RTVSPropertyOp37
 70
     1
102
RTVSPropertyOp38
 70
     1
102
RTVSPropertyOp39
 70
     1
102
RTVSPropertyOp40
 70
     1
102
RTVSPropertyOp41
 70
     1
102
RTVSPropertyOp42
 70
     1
102
RTVSPropertyOp43
 70
     1
102
RTVSPropertyOp44
 70
     1
102
RTVSPropertyOp45
 70
     1
102
RTVSPropertyOp46
 70
     1
102
RTVSPropertyOp47
 70
     1
102
RTVSPropertyOp48
 70
     1
102
RTVSPropertyOp49
 70
     1
102
RTVSPropertyOp50
 70
     1
102
RTVSPropertyOp51
 70
     0
102
RTVSPropertyOp52
 70
     0
102
RTVSPropertyOp53
 70
     1
102
RTVSPropertyOp54
 70
     1
102
RTVSPropertyOp55
 70
     1
102
RTVSPropertyOp56
 70
     1
102
RTVSPropertyOp57
 70
     1
102
RTVSPropertyOp58
 70
     1
102
RTVSPropertyOp59
 70
     1
102
RTVSPropertyOp60
 70
     1
102
RTVSPropertyOp61
 70
     1
102
RTVSPropertyOp62
 70
     1
  0
XRECORD
  5
9EEA
102
{ACAD_REACTORS
330
9EE9
102
}
330
9EE9
100
AcDbXrecord
280
     1
102
RTVSPost2010Prop28
280
     0
102
RTVSPost2010PropOp28
 70
     1
102
RTVSPost2010Prop29
280
     1
102
RTVSPost2010PropOp29
 70
     1
102
RTVSPost2010Prop30
280
     1
102
RTVSPost2010PropOp30
 70
     1
102
RTVSPost2010Prop31
280
     0
102
RTVSPost2010PropOp31
 70
     1
102
RTVSPost2010Prop32
280
     0
102
RTVSPost2010PropOp32
 70
     1
102
RTVSPost2010Prop33
280
     0
102
RTVSPost2010PropOp33
 70
     1
102
RTVSPost2010Prop34
280
     0
102
RTVSPost2010PropOp34
 70
     1
102
RTVSPost2010Prop35
280
     0
102
RTVSPost2010PropOp35
 70
     1
102
RTVSPost2010Prop36
280
     0
102
RTVSPost2010PropOp36
 70
     1
102
RTVSPost2010Prop37
 90
       50
102
RTVSPost2010PropOp37
 70
     1
102
RTVSPost2010Prop38
140
0.0
102
RTVSPost2010PropOp38
 70
     1
102
RTVSPost2010Prop39
140
1.0
102
RTVSPost2010PropOp39
 70
     1
102
RTVSPost2010Prop40
 90
        0
102
RTVSPost2010PropOp40
 70
     1
102
RTVSPost2010Prop41ColorIndex
 90
       18
102
RTVSPost2010Prop41ColorRGB
 90
        0
102
RTVSPost2010PropOp41
 70
     1
102
RTVSPost2010Prop42
 90
       50
102
RTVSPost2010PropOp42
 70
     1
102
RTVSPost2010Prop43
 90
        3
102
RTVSPost2010PropOp43
 70
     1
102
RTVSPost2010Prop44ColorIndex
 90
        5
102
RTVSPost2010Prop44ColorRGB
 90
      255
102
RTVSPost2010PropOp44
 70
     1
102
RTVSPost2010Prop45
280
     0
102
RTVSPost2010PropOp45
 70
     1
102
RTVSPost2010Prop46
 90
       50
102
RTVSPost2010PropOp46
 70
     1
102
RTVSPost2010Prop47
 90
       50
102
RTVSPost2010PropOp47
 70
     1
102
RTVSPost2010Prop48
 90
       50
102
RTVSPost2010PropOp48
 70
     1
102
RTVSPost2010Prop49
280
     0
102
RTVSPost2010PropOp49
 70
     1
102
RTVSPost2010Prop50
 90
       50
102
RTVSPost2010PropOp50
 70
     1
102
RTVSPost2010Prop51ColorIndex
 90
      256
102
RTVSPost2010Prop51ColorRGB
 90
-16777216
102
RTVSPost2010PropOp51
 70
     0
102
RTVSPost2010Prop52
140
1.0
102
RTVSPost2010PropOp52
 70
     0
102
RTVSPost2010Prop53
 90
        2
102
RTVSPost2010PropOp53
 70
     1
102
RTVSPost2010Prop54
  1
strokes_ogs.tif
102
RTVSPost2010PropOp54
 70
     1
102
RTVSPost2010Prop55
280
     0
102
RTVSPost2010PropOp55
 70
     1
102
RTVSPost2010Prop56
140
1.0
102
RTVSPost2010PropOp56
 70
     1
102
RTVSPost2010Prop57
140
1.0
102
RTVSPost2010PropOp57
 70
     1
102
RTVSPropertyOp0
 70
     1
102
RTVSPropertyOp1
 70
     1
102
RTVSPropertyOp2
 70
     1
102
RTVSPropertyOp3
 70
     1
102
RTVSPropertyOp4
 70
     1
102
RTVSPropertyOp5
 70
     1
102
RTVSPropertyOp6
 70
     1
102
RTVSPropertyOp7
 70
     1
102
RTVSPropertyOp8
 70
     1
102
RTVSPropertyOp9
 70
     1
102
RTVSPropertyOp10
 70
     1
102
RTVSPropertyOp11
 70
     1
102
RTVSPropertyOp12
 70
     1
102
RTVSPropertyOp13
 70
     1
102
RTVSPropertyOp14
 70
     1
102
RTVSPropertyOp15
 70
     1
102
RTVSPropertyOp16
 70
     1
102
RTVSPropertyOp17
 70
     1
102
RTVSPropertyOp18
 70
     1
102
RTVSPropertyOp19
 70
     1
102
RTVSPropertyOp20
 70
     1
102
RTVSPropertyOp21
 70
     1
102
RTVSPropertyOp22
 70
     1
102
RTVSPropertyOp23
 70
     1
102
RTVSPropertyOp24
 70
     1
102
RTVSPropertyOp25
 70
     1
102
RTVSPropertyOp26
 70
     1
102
RTVSPropertyOp27
 70
     1
102
RTVSPropertyOp28
 70
     1
102
RTVSPropertyOp29
 70
     1
102
RTVSPropertyOp30
 70
     1
102
RTVSPropertyOp31
 70
     1
102
RTVSPropertyOp32
 70
     1
102
RTVSPropertyOp33
 70
     1
102
RTVSPropertyOp34
 70
     1
102
RTVSPropertyOp35
 70
     1
102
RTVSPropertyOp36
 70
     1
102
RTVSPropertyOp37
 70
     1
102
RTVSPropertyOp38
 70
     1
102
RTVSPropertyOp39
 70
     1
102
RTVSPropertyOp40
 70
     1
102
RTVSPropertyOp41
 70
     1
102
RTVSPropertyOp42
 70
     1
102
RTVSPropertyOp43
 70
     1
102
RTVSPropertyOp44
 70
     1
102
RTVSPropertyOp45
 70
     1
102
RTVSPropertyOp46
 70
     1
102
RTVSPropertyOp47
 70
     1
102
RTVSPropertyOp48
 70
     1
102
RTVSPropertyOp49
 70
     1
102
RTVSPropertyOp50
 70
     1
102
RTVSPropertyOp51
 70
     0
102
RTVSPropertyOp52
 70
     0
102
RTVSPropertyOp53
 70
     1
102
RTVSPropertyOp54
 70
     1
102
RTVSPropertyOp55
 70
     1
102
RTVSPropertyOp56
 70
     1
102
RTVSPropertyOp57
 70
     1
102
RTVSPropertyOp58
 70
     1
102
RTVSPropertyOp59
 70
     1
102
RTVSPropertyOp60
 70
     1
102
RTVSPropertyOp61
 70
     1
102
RTVSPropertyOp62
 70
     1
  0
XRECORD
  5
9EEC
102
{ACAD_REACTORS
330
9EEB
102
}
330
9EEB
100
AcDbXrecord
280
     1
102
RTVSPost2010Prop28
280
     0
102
RTVSPost2010PropOp28
 70
     1
102
RTVSPost2010Prop29
280
     1
102
RTVSPost2010PropOp29
 70
     1
102
RTVSPost2010Prop30
280
     1
102
RTVSPost2010PropOp30
 70
     1
102
RTVSPost2010Prop31
280
     0
102
RTVSPost2010PropOp31
 70
     1
102
RTVSPost2010Prop32
280
     0
102
RTVSPost2010PropOp32
 70
     1
102
RTVSPost2010Prop33
280
     0
102
RTVSPost2010PropOp33
 70
     1
102
RTVSPost2010Prop34
280
     0
102
RTVSPost2010PropOp34
 70
     1
102
RTVSPost2010Prop35
280
     0
102
RTVSPost2010PropOp35
 70
     1
102
RTVSPost2010Prop36
280
     0
102
RTVSPost2010PropOp36
 70
     1
102
RTVSPost2010Prop37
 90
       50
102
RTVSPost2010PropOp37
 70
     1
102
RTVSPost2010Prop38
140
0.0
102
RTVSPost2010PropOp38
 70
     1
102
RTVSPost2010Prop39
140
1.0
102
RTVSPost2010PropOp39
 70
     1
102
RTVSPost2010Prop40
 90
        0
102
RTVSPost2010PropOp40
 70
     1
102
RTVSPost2010Prop41ColorIndex
 90
       18
102
RTVSPost2010Prop41ColorRGB
 90
        0
102
RTVSPost2010PropOp41
 70
     1
102
RTVSPost2010Prop42
 90
       50
102
RTVSPost2010PropOp42
 70
     1
102
RTVSPost2010Prop43
 90
        3
102
RTVSPost2010PropOp43
 70
     1
102
RTVSPost2010Prop44ColorIndex
 90
        5
102
RTVSPost2010Prop44ColorRGB
 90
      255
102
RTVSPost2010PropOp44
 70
     1
102
RTVSPost2010Prop45
280
     0
102
RTVSPost2010PropOp45
 70
     1
102
RTVSPost2010Prop46
 90
       50
102
RTVSPost2010PropOp46
 70
     1
102
RTVSPost2010Prop47
 90
       50
102
RTVSPost2010PropOp47
 70
     1
102
RTVSPost2010Prop48
 90
       50
102
RTVSPost2010PropOp48
 70
     1
102
RTVSPost2010Prop49
280
     0
102
RTVSPost2010PropOp49
 70
     1
102
RTVSPost2010Prop50
 90
       50
102
RTVSPost2010PropOp50
 70
     1
102
RTVSPost2010Prop51ColorIndex
 90
      256
102
RTVSPost2010Prop51ColorRGB
 90
-16777216
102
RTVSPost2010PropOp51
 70
     0
102
RTVSPost2010Prop52
140
1.0
102
RTVSPost2010PropOp52
 70
     0
102
RTVSPost2010Prop53
 90
        2
102
RTVSPost2010PropOp53
 70
     1
102
RTVSPost2010Prop54
  1
strokes_ogs.tif
102
RTVSPost2010PropOp54
 70
     1
102
RTVSPost2010Prop55
280
     0
102
RTVSPost2010PropOp55
 70
     1
102
RTVSPost2010Prop56
140
1.0
102
RTVSPost2010PropOp56
 70
     1
102
RTVSPost2010Prop57
140
1.0
102
RTVSPost2010PropOp57
 70
     1
102
RTVSPropertyOp0
 70
     1
102
RTVSPropertyOp1
 70
     1
102
RTVSPropertyOp2
 70
     1
102
RTVSPropertyOp3
 70
     1
102
RTVSPropertyOp4
 70
     1
102
RTVSPropertyOp5
 70
     1
102
RTVSPropertyOp6
 70
     1
102
RTVSPropertyOp7
 70
     1
102
RTVSPropertyOp8
 70
     1
102
RTVSPropertyOp9
 70
     1
102
RTVSPropertyOp10
 70
     1
102
RTVSPropertyOp11
 70
     1
102
RTVSPropertyOp12
 70
     1
102
RTVSPropertyOp13
 70
     1
102
RTVSPropertyOp14
 70
     1
102
RTVSPropertyOp15
 70
     1
102
RTVSPropertyOp16
 70
     1
102
RTVSPropertyOp17
 70
     1
102
RTVSPropertyOp18
 70
     1
102
RTVSPropertyOp19
 70
     1
102
RTVSPropertyOp20
 70
     1
102
RTVSPropertyOp21
 70
     1
102
RTVSPropertyOp22
 70
     1
102
RTVSPropertyOp23
 70
     1
102
RTVSPropertyOp24
 70
     1
102
RTVSPropertyOp25
 70
     1
102
RTVSPropertyOp26
 70
     1
102
RTVSPropertyOp27
 70
     1
102
RTVSPropertyOp28
 70
     1
102
RTVSPropertyOp29
 70
     1
102
RTVSPropertyOp30
 70
     1
102
RTVSPropertyOp31
 70
     1
102
RTVSPropertyOp32
 70
     1
102
RTVSPropertyOp33
 70
     1
102
RTVSPropertyOp34
 70
     1
102
RTVSPropertyOp35
 70
     1
102
RTVSPropertyOp36
 70
     1
102
RTVSPropertyOp37
 70
     1
102
RTVSPropertyOp38
 70
     1
102
RTVSPropertyOp39
 70
     1
102
RTVSPropertyOp40
 70
     1
102
RTVSPropertyOp41
 70
     1
102
RTVSPropertyOp42
 70
     1
102
RTVSPropertyOp43
 70
     1
102
RTVSPropertyOp44
 70
     1
102
RTVSPropertyOp45
 70
     1
102
RTVSPropertyOp46
 70
     1
102
RTVSPropertyOp47
 70
     1
102
RTVSPropertyOp48
 70
     1
102
RTVSPropertyOp49
 70
     1
102
RTVSPropertyOp50
 70
     1
102
RTVSPropertyOp51
 70
     0
102
RTVSPropertyOp52
 70
     0
102
RTVSPropertyOp53
 70
     1
102
RTVSPropertyOp54
 70
     1
102
RTVSPropertyOp55
 70
     1
102
RTVSPropertyOp56
 70
     1
102
RTVSPropertyOp57
 70
     1
102
RTVSPropertyOp58
 70
     1
102
RTVSPropertyOp59
 70
     1
102
RTVSPropertyOp60
 70
     1
102
RTVSPropertyOp61
 70
     1
102
RTVSPropertyOp62
 70
     1
  0
XRECORD
  5
9EEE
102
{ACAD_REACTORS
330
9EED
102
}
330
9EED
100
AcDbXrecord
280
     1
102
RTVSPost2010Prop28
280
     0
102
RTVSPost2010PropOp28
 70
     1
102
RTVSPost2010Prop29
280
     1
102
RTVSPost2010PropOp29
 70
     1
102
RTVSPost2010Prop30
280
     1
102
RTVSPost2010PropOp30
 70
     1
102
RTVSPost2010Prop31
280
     0
102
RTVSPost2010PropOp31
 70
     1
102
RTVSPost2010Prop32
280
     0
102
RTVSPost2010PropOp32
 70
     1
102
RTVSPost2010Prop33
280
     0
102
RTVSPost2010PropOp33
 70
     1
102
RTVSPost2010Prop34
280
     0
102
RTVSPost2010PropOp34
 70
     1
102
RTVSPost2010Prop35
280
     0
102
RTVSPost2010PropOp35
 70
     1
102
RTVSPost2010Prop36
280
     0
102
RTVSPost2010PropOp36
 70
     1
102
RTVSPost2010Prop37
 90
       50
102
RTVSPost2010PropOp37
 70
     1
102
RTVSPost2010Prop38
140
0.0
102
RTVSPost2010PropOp38
 70
     1
102
RTVSPost2010Prop39
140
1.0
102
RTVSPost2010PropOp39
 70
     1
102
RTVSPost2010Prop40
 90
        0
102
RTVSPost2010PropOp40
 70
     1
102
RTVSPost2010Prop41ColorIndex
 90
       18
102
RTVSPost2010Prop41ColorRGB
 90
        0
102
RTVSPost2010PropOp41
 70
     1
102
RTVSPost2010Prop42
 90
       50
102
RTVSPost2010PropOp42
 70
     1
102
RTVSPost2010Prop43
 90
        3
102
RTVSPost2010PropOp43
 70
     1
102
RTVSPost2010Prop44ColorIndex
 90
        5
102
RTVSPost2010Prop44ColorRGB
 90
      255
102
RTVSPost2010PropOp44
 70
     1
102
RTVSPost2010Prop45
280
     0
102
RTVSPost2010PropOp45
 70
     1
102
RTVSPost2010Prop46
 90
       50
102
RTVSPost2010PropOp46
 70
     1
102
RTVSPost2010Prop47
 90
       50
102
RTVSPost2010PropOp47
 70
     1
102
RTVSPost2010Prop48
 90
       50
102
RTVSPost2010PropOp48
 70
     1
102
RTVSPost2010Prop49
280
     0
102
RTVSPost2010PropOp49
 70
     1
102
RTVSPost2010Prop50
 90
       50
102
RTVSPost2010PropOp50
 70
     1
102
RTVSPost2010Prop51ColorIndex
 90
      256
102
RTVSPost2010Prop51ColorRGB
 90
-16777216
102
RTVSPost2010PropOp51
 70
     0
102
RTVSPost2010Prop52
140
1.0
102
RTVSPost2010PropOp52
 70
     0
102
RTVSPost2010Prop53
 90
        2
102
RTVSPost2010PropOp53
 70
     1
102
RTVSPost2010Prop54
  1
strokes_ogs.tif
102
RTVSPost2010PropOp54
 70
     1
102
RTVSPost2010Prop55
280
     0
102
RTVSPost2010PropOp55
 70
     1
102
RTVSPost2010Prop56
140
1.0
102
RTVSPost2010PropOp56
 70
     1
102
RTVSPost2010Prop57
140
1.0
102
RTVSPost2010PropOp57
 70
     1
102
RTVSPropertyOp0
 70
     1
102
RTVSPropertyOp1
 70
     1
102
RTVSPropertyOp2
 70
     1
102
RTVSPropertyOp3
 70
     1
102
RTVSPropertyOp4
 70
     1
102
RTVSPropertyOp5
 70
     1
102
RTVSPropertyOp6
 70
     1
102
RTVSPropertyOp7
 70
     1
102
RTVSPropertyOp8
 70
     1
102
RTVSPropertyOp9
 70
     1
102
RTVSPropertyOp10
 70
     1
102
RTVSPropertyOp11
 70
     1
102
RTVSPropertyOp12
 70
     1
102
RTVSPropertyOp13
 70
     1
102
RTVSPropertyOp14
 70
     1
102
RTVSPropertyOp15
 70
     1
102
RTVSPropertyOp16
 70
     1
102
RTVSPropertyOp17
 70
     1
102
RTVSPropertyOp18
 70
     1
102
RTVSPropertyOp19
 70
     1
102
RTVSPropertyOp20
 70
     1
102
RTVSPropertyOp21
 70
     1
102
RTVSPropertyOp22
 70
     1
102
RTVSPropertyOp23
 70
     1
102
RTVSPropertyOp24
 70
     1
102
RTVSPropertyOp25
 70
     1
102
RTVSPropertyOp26
 70
     1
102
RTVSPropertyOp27
 70
     1
102
RTVSPropertyOp28
 70
     1
102
RTVSPropertyOp29
 70
     1
102
RTVSPropertyOp30
 70
     1
102
RTVSPropertyOp31
 70
     1
102
RTVSPropertyOp32
 70
     1
102
RTVSPropertyOp33
 70
     1
102
RTVSPropertyOp34
 70
     1
102
RTVSPropertyOp35
 70
     1
102
RTVSPropertyOp36
 70
     1
102
RTVSPropertyOp37
 70
     1
102
RTVSPropertyOp38
 70
     1
102
RTVSPropertyOp39
 70
     1
102
RTVSPropertyOp40
 70
     1
102
RTVSPropertyOp41
 70
     1
102
RTVSPropertyOp42
 70
     1
102
RTVSPropertyOp43
 70
     1
102
RTVSPropertyOp44
 70
     1
102
RTVSPropertyOp45
 70
     1
102
RTVSPropertyOp46
 70
     1
102
RTVSPropertyOp47
 70
     1
102
RTVSPropertyOp48
 70
     1
102
RTVSPropertyOp49
 70
     1
102
RTVSPropertyOp50
 70
     1
102
RTVSPropertyOp51
 70
     0
102
RTVSPropertyOp52
 70
     0
102
RTVSPropertyOp53
 70
     1
102
RTVSPropertyOp54
 70
     1
102
RTVSPropertyOp55
 70
     1
102
RTVSPropertyOp56
 70
     1
102
RTVSPropertyOp57
 70
     1
102
RTVSPropertyOp58
 70
     1
102
RTVSPropertyOp59
 70
     1
102
RTVSPropertyOp60
 70
     1
102
RTVSPropertyOp61
 70
     1
102
RTVSPropertyOp62
 70
     1
  0
XRECORD
  5
9EF6
102
{ACAD_REACTORS
330
9EF5
102
}
330
9EF5
100
AcDbXrecord
280
     1
102
RTVSPost2010Prop28
280
     0
102
RTVSPost2010PropOp28
 70
     1
102
RTVSPost2010Prop29
280
     1
102
RTVSPost2010PropOp29
 70
     1
102
RTVSPost2010Prop30
280
     1
102
RTVSPost2010PropOp30
 70
     1
102
RTVSPost2010Prop31
280
     0
102
RTVSPost2010PropOp31
 70
     1
102
RTVSPost2010Prop32
280
     0
102
RTVSPost2010PropOp32
 70
     1
102
RTVSPost2010Prop33
280
     0
102
RTVSPost2010PropOp33
 70
     1
102
RTVSPost2010Prop34
280
     0
102
RTVSPost2010PropOp34
 70
     1
102
RTVSPost2010Prop35
280
     0
102
RTVSPost2010PropOp35
 70
     1
102
RTVSPost2010Prop36
280
     0
102
RTVSPost2010PropOp36
 70
     1
102
RTVSPost2010Prop37
 90
       50
102
RTVSPost2010PropOp37
 70
     1
102
RTVSPost2010Prop38
140
0.0
102
RTVSPost2010PropOp38
 70
     1
102
RTVSPost2010Prop39
140
1.0
102
RTVSPost2010PropOp39
 70
     1
102
RTVSPost2010Prop40
 90
        0
102
RTVSPost2010PropOp40
 70
     1
102
RTVSPost2010Prop41ColorIndex
 90
       18
102
RTVSPost2010Prop41ColorRGB
 90
        0
102
RTVSPost2010PropOp41
 70
     1
102
RTVSPost2010Prop42
 90
       50
102
RTVSPost2010PropOp42
 70
     1
102
RTVSPost2010Prop43
 90
        3
102
RTVSPost2010PropOp43
 70
     1
102
RTVSPost2010Prop44ColorIndex
 90
        5
102
RTVSPost2010Prop44ColorRGB
 90
      255
102
RTVSPost2010PropOp44
 70
     1
102
RTVSPost2010Prop45
280
     0
102
RTVSPost2010PropOp45
 70
     1
102
RTVSPost2010Prop46
 90
       50
102
RTVSPost2010PropOp46
 70
     1
102
RTVSPost2010Prop47
 90
       50
102
RTVSPost2010PropOp47
 70
     1
102
RTVSPost2010Prop48
 90
       50
102
RTVSPost2010PropOp48
 70
     1
102
RTVSPost2010Prop49
280
     0
102
RTVSPost2010PropOp49
 70
     1
102
RTVSPost2010Prop50
 90
       50
102
RTVSPost2010PropOp50
 70
     1
102
RTVSPost2010Prop51ColorIndex
 90
      256
102
RTVSPost2010Prop51ColorRGB
 90
-16777216
102
RTVSPost2010PropOp51
 70
     0
102
RTVSPost2010Prop52
140
1.0
102
RTVSPost2010PropOp52
 70
     0
102
RTVSPost2010Prop53
 90
        2
102
RTVSPost2010PropOp53
 70
     1
102
RTVSPost2010Prop54
  1
strokes_ogs.tif
102
RTVSPost2010PropOp54
 70
     1
102
RTVSPost2010Prop55
280
     0
102
RTVSPost2010PropOp55
 70
     1
102
RTVSPost2010Prop56
140
1.0
102
RTVSPost2010PropOp56
 70
     1
102
RTVSPost2010Prop57
140
1.0
102
RTVSPost2010PropOp57
 70
     1
102
RTVSPropertyOp0
 70
     1
102
RTVSPropertyOp1
 70
     1
102
RTVSPropertyOp2
 70
     1
102
RTVSPropertyOp3
 70
     1
102
RTVSPropertyOp4
 70
     1
102
RTVSPropertyOp5
 70
     1
102
RTVSPropertyOp6
 70
     1
102
RTVSPropertyOp7
 70
     1
102
RTVSPropertyOp8
 70
     1
102
RTVSPropertyOp9
 70
     1
102
RTVSPropertyOp10
 70
     1
102
RTVSPropertyOp11
 70
     1
102
RTVSPropertyOp12
 70
     1
102
RTVSPropertyOp13
 70
     1
102
RTVSPropertyOp14
 70
     1
102
RTVSPropertyOp15
 70
     1
102
RTVSPropertyOp16
 70
     1
102
RTVSPropertyOp17
 70
     1
102
RTVSPropertyOp18
 70
     1
102
RTVSPropertyOp19
 70
     1
102
RTVSPropertyOp20
 70
     1
102
RTVSPropertyOp21
 70
     1
102
RTVSPropertyOp22
 70
     1
102
RTVSPropertyOp23
 70
     1
102
RTVSPropertyOp24
 70
     1
102
RTVSPropertyOp25
 70
     1
102
RTVSPropertyOp26
 70
     1
102
RTVSPropertyOp27
 70
     1
102
RTVSPropertyOp28
 70
     1
102
RTVSPropertyOp29
 70
     1
102
RTVSPropertyOp30
 70
     1
102
RTVSPropertyOp31
 70
     1
102
RTVSPropertyOp32
 70
     1
102
RTVSPropertyOp33
 70
     1
102
RTVSPropertyOp34
 70
     1
102
RTVSPropertyOp35
 70
     1
102
RTVSPropertyOp36
 70
     1
102
RTVSPropertyOp37
 70
     1
102
RTVSPropertyOp38
 70
     1
102
RTVSPropertyOp39
 70
     1
102
RTVSPropertyOp40
 70
     1
102
RTVSPropertyOp41
 70
     1
102
RTVSPropertyOp42
 70
     1
102
RTVSPropertyOp43
 70
     1
102
RTVSPropertyOp44
 70
     1
102
RTVSPropertyOp45
 70
     1
102
RTVSPropertyOp46
 70
     1
102
RTVSPropertyOp47
 70
     1
102
RTVSPropertyOp48
 70
     1
102
RTVSPropertyOp49
 70
     1
102
RTVSPropertyOp50
 70
     1
102
RTVSPropertyOp51
 70
     0
102
RTVSPropertyOp52
 70
     0
102
RTVSPropertyOp53
 70
     1
102
RTVSPropertyOp54
 70
     1
102
RTVSPropertyOp55
 70
     1
102
RTVSPropertyOp56
 70
     1
102
RTVSPropertyOp57
 70
     1
102
RTVSPropertyOp58
 70
     1
102
RTVSPropertyOp59
 70
     1
102
RTVSPropertyOp60
 70
     1
102
RTVSPropertyOp61
 70
     1
102
RTVSPropertyOp62
 70
     1
  0
XRECORD
  5
9F12
102
{ACAD_REACTORS
330
9F11
102
}
330
9F11
100
AcDbXrecord
280
     1
102
RTVSPost2010Prop28
280
     0
102
RTVSPost2010PropOp28
 70
     1
102
RTVSPost2010Prop29
280
     1
102
RTVSPost2010PropOp29
 70
     1
102
RTVSPost2010Prop30
280
     1
102
RTVSPost2010PropOp30
 70
     1
102
RTVSPost2010Prop31
280
     0
102
RTVSPost2010PropOp31
 70
     1
102
RTVSPost2010Prop32
280
     0
102
RTVSPost2010PropOp32
 70
     1
102
RTVSPost2010Prop33
280
     0
102
RTVSPost2010PropOp33
 70
     1
102
RTVSPost2010Prop34
280
     0
102
RTVSPost2010PropOp34
 70
     1
102
RTVSPost2010Prop35
280
     0
102
RTVSPost2010PropOp35
 70
     1
102
RTVSPost2010Prop36
280
     0
102
RTVSPost2010PropOp36
 70
     1
102
RTVSPost2010Prop37
 90
       50
102
RTVSPost2010PropOp37
 70
     0
102
RTVSPost2010Prop38
140
0.0
102
RTVSPost2010PropOp38
 70
     0
102
RTVSPost2010Prop39
140
1.0
102
RTVSPost2010PropOp39
 70
     0
102
RTVSPost2010Prop40
 90
        0
102
RTVSPost2010PropOp40
 70
     0
102
RTVSPost2010Prop41ColorIndex
 90
       18
102
RTVSPost2010Prop41ColorRGB
 90
        0
102
RTVSPost2010PropOp41
 70
     0
102
RTVSPost2010Prop42
 90
       50
102
RTVSPost2010PropOp42
 70
     0
102
RTVSPost2010Prop43
 90
        3
102
RTVSPost2010PropOp43
 70
     0
102
RTVSPost2010Prop44ColorIndex
 90
        5
102
RTVSPost2010Prop44ColorRGB
 90
      255
102
RTVSPost2010PropOp44
 70
     0
102
RTVSPost2010Prop45
280
     0
102
RTVSPost2010PropOp45
 70
     1
102
RTVSPost2010Prop46
 90
       50
102
RTVSPost2010PropOp46
 70
     0
102
RTVSPost2010Prop47
 90
       50
102
RTVSPost2010PropOp47
 70
     0
102
RTVSPost2010Prop48
 90
       50
102
RTVSPost2010PropOp48
 70
     0
102
RTVSPost2010Prop49
280
     0
102
RTVSPost2010PropOp49
 70
     1
102
RTVSPost2010Prop50
 90
       50
102
RTVSPost2010PropOp50
 70
     0
102
RTVSPost2010Prop51ColorIndex
 90
      256
102
RTVSPost2010Prop51ColorRGB
 90
-16777216
102
RTVSPost2010PropOp51
 70
     0
102
RTVSPost2010Prop52
140
1.0
102
RTVSPost2010PropOp52
 70
     0
102
RTVSPost2010Prop53
 90
        2
102
RTVSPost2010PropOp53
 70
     0
102
RTVSPost2010Prop54
  1
strokes_ogs.tif
102
RTVSPost2010PropOp54
 70
     0
102
RTVSPost2010Prop55
280
     0
102
RTVSPost2010PropOp55
 70
     1
102
RTVSPost2010Prop56
140
1.0
102
RTVSPost2010PropOp56
 70
     0
102
RTVSPost2010Prop57
140
1.0
102
RTVSPost2010PropOp57
 70
     0
102
RTVSPropertyOp0
 70
     0
102
RTVSPropertyOp1
 70
     0
102
RTVSPropertyOp2
 70
     0
102
RTVSPropertyOp3
 70
     0
102
RTVSPropertyOp4
 70
     0
102
RTVSPropertyOp5
 70
     0
102
RTVSPropertyOp6
 70
     0
102
RTVSPropertyOp7
 70
     0
102
RTVSPropertyOp8
 70
     0
102
RTVSPropertyOp9
 70
     0
102
RTVSPropertyOp10
 70
     0
102
RTVSPropertyOp11
 70
     0
102
RTVSPropertyOp12
 70
     0
102
RTVSPropertyOp13
 70
     0
102
RTVSPropertyOp14
 70
     2
102
RTVSPropertyOp15
 70
     0
102
RTVSPropertyOp16
 70
     0
102
RTVSPropertyOp17
 70
     0
102
RTVSPropertyOp18
 70
     0
102
RTVSPropertyOp19
 70
     0
102
RTVSPropertyOp20
 70
     0
102
RTVSPropertyOp21
 70
     0
102
RTVSPropertyOp22
 70
     0
102
RTVSPropertyOp23
 70
     0
102
RTVSPropertyOp24
 70
     0
102
RTVSPropertyOp25
 70
     0
102
RTVSPropertyOp26
 70
     0
102
RTVSPropertyOp27
 70
     0
102
RTVSPropertyOp28
 70
     1
102
RTVSPropertyOp29
 70
     1
102
RTVSPropertyOp30
 70
     1
102
RTVSPropertyOp31
 70
     1
102
RTVSPropertyOp32
 70
     1
102
RTVSPropertyOp33
 70
     1
102
RTVSPropertyOp34
 70
     1
102
RTVSPropertyOp35
 70
     1
102
RTVSPropertyOp36
 70
     1
102
RTVSPropertyOp37
 70
     0
102
RTVSPropertyOp38
 70
     0
102
RTVSPropertyOp39
 70
     0
102
RTVSPropertyOp40
 70
     0
102
RTVSPropertyOp41
 70
     0
102
RTVSPropertyOp42
 70
     0
102
RTVSPropertyOp43
 70
     0
102
RTVSPropertyOp44
 70
     0
102
RTVSPropertyOp45
 70
     1
102
RTVSPropertyOp46
 70
     0
102
RTVSPropertyOp47
 70
     0
102
RTVSPropertyOp48
 70
     0
102
RTVSPropertyOp49
 70
     1
102
RTVSPropertyOp50
 70
     0
102
RTVSPropertyOp51
 70
     0
102
RTVSPropertyOp52
 70
     0
102
RTVSPropertyOp53
 70
     0
102
RTVSPropertyOp54
 70
     0
102
RTVSPropertyOp55
 70
     1
102
RTVSPropertyOp56
 70
     0
102
RTVSPropertyOp57
 70
     0
102
RTVSPropertyOp58
 70
     0
102
RTVSPropertyOp59
 70
     0
102
RTVSPropertyOp60
 70
     0
102
RTVSPropertyOp61
 70
     0
102
RTVSPropertyOp62
 70
     0
  0
XRECORD
  5
9F02
102
{ACAD_REACTORS
330
9F01
102
}
330
9F01
100
AcDbXrecord
280
     1
102
RTVSPost2010Prop28
280
     0
102
RTVSPost2010PropOp28
 70
     1
102
RTVSPost2010Prop29
280
     1
102
RTVSPost2010PropOp29
 70
     1
102
RTVSPost2010Prop30
280
     1
102
RTVSPost2010PropOp30
 70
     1
102
RTVSPost2010Prop31
280
     0
102
RTVSPost2010PropOp31
 70
     1
102
RTVSPost2010Prop32
280
     0
102
RTVSPost2010PropOp32
 70
     1
102
RTVSPost2010Prop33
280
     0
102
RTVSPost2010PropOp33
 70
     1
102
RTVSPost2010Prop34
280
     0
102
RTVSPost2010PropOp34
 70
     1
102
RTVSPost2010Prop35
280
     0
102
RTVSPost2010PropOp35
 70
     1
102
RTVSPost2010Prop36
280
     0
102
RTVSPost2010PropOp36
 70
     1
102
RTVSPost2010Prop37
 90
       50
102
RTVSPost2010PropOp37
 70
     1
102
RTVSPost2010Prop38
140
0.0
102
RTVSPost2010PropOp38
 70
     1
102
RTVSPost2010Prop39
140
1.0
102
RTVSPost2010PropOp39
 70
     1
102
RTVSPost2010Prop40
 90
        0
102
RTVSPost2010PropOp40
 70
     1
102
RTVSPost2010Prop41ColorIndex
 90
       18
102
RTVSPost2010Prop41ColorRGB
 90
        0
102
RTVSPost2010PropOp41
 70
     1
102
RTVSPost2010Prop42
 90
       50
102
RTVSPost2010PropOp42
 70
     1
102
RTVSPost2010Prop43
 90
        3
102
RTVSPost2010PropOp43
 70
     1
102
RTVSPost2010Prop44ColorIndex
 90
        5
102
RTVSPost2010Prop44ColorRGB
 90
      255
102
RTVSPost2010PropOp44
 70
     1
102
RTVSPost2010Prop45
280
     0
102
RTVSPost2010PropOp45
 70
     1
102
RTVSPost2010Prop46
 90
       50
102
RTVSPost2010PropOp46
 70
     1
102
RTVSPost2010Prop47
 90
       50
102
RTVSPost2010PropOp47
 70
     1
102
RTVSPost2010Prop48
 90
       50
102
RTVSPost2010PropOp48
 70
     1
102
RTVSPost2010Prop49
280
     0
102
RTVSPost2010PropOp49
 70
     1
102
RTVSPost2010Prop50
 90
       50
102
RTVSPost2010PropOp50
 70
     1
102
RTVSPost2010Prop51ColorIndex
 90
      256
102
RTVSPost2010Prop51ColorRGB
 90
-16777216
102
RTVSPost2010PropOp51
 70
     0
102
RTVSPost2010Prop52
140
1.0
102
RTVSPost2010PropOp52
 70
     0
102
RTVSPost2010Prop53
 90
        2
102
RTVSPost2010PropOp53
 70
     1
102
RTVSPost2010Prop54
  1
strokes_ogs.tif
102
RTVSPost2010PropOp54
 70
     1
102
RTVSPost2010Prop55
280
     0
102
RTVSPost2010PropOp55
 70
     1
102
RTVSPost2010Prop56
140
1.0
102
RTVSPost2010PropOp56
 70
     1
102
RTVSPost2010Prop57
140
1.0
102
RTVSPost2010PropOp57
 70
     1
102
RTVSPropertyOp0
 70
     1
102
RTVSPropertyOp1
 70
     1
102
RTVSPropertyOp2
 70
     1
102
RTVSPropertyOp3
 70
     1
102
RTVSPropertyOp4
 70
     1
102
RTVSPropertyOp5
 70
     1
102
RTVSPropertyOp6
 70
     1
102
RTVSPropertyOp7
 70
     1
102
RTVSPropertyOp8
 70
     1
102
RTVSPropertyOp9
 70
     1
102
RTVSPropertyOp10
 70
     1
102
RTVSPropertyOp11
 70
     1
102
RTVSPropertyOp12
 70
     1
102
RTVSPropertyOp13
 70
     1
102
RTVSPropertyOp14
 70
     1
102
RTVSPropertyOp15
 70
     1
102
RTVSPropertyOp16
 70
     1
102
RTVSPropertyOp17
 70
     1
102
RTVSPropertyOp18
 70
     1
102
RTVSPropertyOp19
 70
     1
102
RTVSPropertyOp20
 70
     1
102
RTVSPropertyOp21
 70
     1
102
RTVSPropertyOp22
 70
     1
102
RTVSPropertyOp23
 70
     1
102
RTVSPropertyOp24
 70
     1
102
RTVSPropertyOp25
 70
     1
102
RTVSPropertyOp26
 70
     1
102
RTVSPropertyOp27
 70
     1
102
RTVSPropertyOp28
 70
     1
102
RTVSPropertyOp29
 70
     1
102
RTVSPropertyOp30
 70
     1
102
RTVSPropertyOp31
 70
     1
102
RTVSPropertyOp32
 70
     1
102
RTVSPropertyOp33
 70
     1
102
RTVSPropertyOp34
 70
     1
102
RTVSPropertyOp35
 70
     1
102
RTVSPropertyOp36
 70
     1
102
RTVSPropertyOp37
 70
     1
102
RTVSPropertyOp38
 70
     1
102
RTVSPropertyOp39
 70
     1
102
RTVSPropertyOp40
 70
     1
102
RTVSPropertyOp41
 70
     1
102
RTVSPropertyOp42
 70
     1
102
RTVSPropertyOp43
 70
     1
102
RTVSPropertyOp44
 70
     1
102
RTVSPropertyOp45
 70
     1
102
RTVSPropertyOp46
 70
     1
102
RTVSPropertyOp47
 70
     1
102
RTVSPropertyOp48
 70
     1
102
RTVSPropertyOp49
 70
     1
102
RTVSPropertyOp50
 70
     1
102
RTVSPropertyOp51
 70
     0
102
RTVSPropertyOp52
 70
     0
102
RTVSPropertyOp53
 70
     1
102
RTVSPropertyOp54
 70
     1
102
RTVSPropertyOp55
 70
     1
102
RTVSPropertyOp56
 70
     1
102
RTVSPropertyOp57
 70
     1
102
RTVSPropertyOp58
 70
     1
102
RTVSPropertyOp59
 70
     1
102
RTVSPropertyOp60
 70
     1
102
RTVSPropertyOp61
 70
     1
102
RTVSPropertyOp62
 70
     1
  0
XRECORD
  5
9F14
102
{ACAD_REACTORS
330
9F13
102
}
330
9F13
100
AcDbXrecord
280
     1
102
RTVSPost2010Prop28
280
     0
102
RTVSPost2010PropOp28
 70
     1
102
RTVSPost2010Prop29
280
     1
102
RTVSPost2010PropOp29
 70
     1
102
RTVSPost2010Prop30
280
     1
102
RTVSPost2010PropOp30
 70
     1
102
RTVSPost2010Prop31
280
     0
102
RTVSPost2010PropOp31
 70
     1
102
RTVSPost2010Prop32
280
     0
102
RTVSPost2010PropOp32
 70
     1
102
RTVSPost2010Prop33
280
     0
102
RTVSPost2010PropOp33
 70
     1
102
RTVSPost2010Prop34
280
     0
102
RTVSPost2010PropOp34
 70
     1
102
RTVSPost2010Prop35
280
     0
102
RTVSPost2010PropOp35
 70
     1
102
RTVSPost2010Prop36
280
     0
102
RTVSPost2010PropOp36
 70
     1
102
RTVSPost2010Prop37
 90
       50
102
RTVSPost2010PropOp37
 70
     0
102
RTVSPost2010Prop38
140
0.0
102
RTVSPost2010PropOp38
 70
     0
102
RTVSPost2010Prop39
140
1.0
102
RTVSPost2010PropOp39
 70
     0
102
RTVSPost2010Prop40
 90
        0
102
RTVSPost2010PropOp40
 70
     0
102
RTVSPost2010Prop41ColorIndex
 90
       18
102
RTVSPost2010Prop41ColorRGB
 90
        0
102
RTVSPost2010PropOp41
 70
     0
102
RTVSPost2010Prop42
 90
       50
102
RTVSPost2010PropOp42
 70
     0
102
RTVSPost2010Prop43
 90
        3
102
RTVSPost2010PropOp43
 70
     0
102
RTVSPost2010Prop44ColorIndex
 90
        5
102
RTVSPost2010Prop44ColorRGB
 90
      255
102
RTVSPost2010PropOp44
 70
     0
102
RTVSPost2010Prop45
280
     0
102
RTVSPost2010PropOp45
 70
     1
102
RTVSPost2010Prop46
 90
       50
102
RTVSPost2010PropOp46
 70
     0
102
RTVSPost2010Prop47
 90
       50
102
RTVSPost2010PropOp47
 70
     0
102
RTVSPost2010Prop48
 90
       50
102
RTVSPost2010PropOp48
 70
     0
102
RTVSPost2010Prop49
280
     0
102
RTVSPost2010PropOp49
 70
     1
102
RTVSPost2010Prop50
 90
       50
102
RTVSPost2010PropOp50
 70
     0
102
RTVSPost2010Prop51ColorIndex
 90
      256
102
RTVSPost2010Prop51ColorRGB
 90
-16777216
102
RTVSPost2010PropOp51
 70
     0
102
RTVSPost2010Prop52
140
1.0
102
RTVSPost2010PropOp52
 70
     0
102
RTVSPost2010Prop53
 90
        2
102
RTVSPost2010PropOp53
 70
     0
102
RTVSPost2010Prop54
  1
strokes_ogs.tif
102
RTVSPost2010PropOp54
 70
     0
102
RTVSPost2010Prop55
280
     0
102
RTVSPost2010PropOp55
 70
     1
102
RTVSPost2010Prop56
140
1.0
102
RTVSPost2010PropOp56
 70
     0
102
RTVSPost2010Prop57
140
1.0
102
RTVSPost2010PropOp57
 70
     0
102
RTVSPropertyOp0
 70
     0
102
RTVSPropertyOp1
 70
     0
102
RTVSPropertyOp2
 70
     0
102
RTVSPropertyOp3
 70
     0
102
RTVSPropertyOp4
 70
     0
102
RTVSPropertyOp5
 70
     0
102
RTVSPropertyOp6
 70
     0
102
RTVSPropertyOp7
 70
     0
102
RTVSPropertyOp8
 70
     0
102
RTVSPropertyOp9
 70
     0
102
RTVSPropertyOp10
 70
     0
102
RTVSPropertyOp11
 70
     0
102
RTVSPropertyOp12
 70
     0
102
RTVSPropertyOp13
 70
     0
102
RTVSPropertyOp14
 70
     2
102
RTVSPropertyOp15
 70
     0
102
RTVSPropertyOp16
 70
     0
102
RTVSPropertyOp17
 70
     0
102
RTVSPropertyOp18
 70
     0
102
RTVSPropertyOp19
 70
     0
102
RTVSPropertyOp20
 70
     0
102
RTVSPropertyOp21
 70
     0
102
RTVSPropertyOp22
 70
     0
102
RTVSPropertyOp23
 70
     0
102
RTVSPropertyOp24
 70
     0
102
RTVSPropertyOp25
 70
     0
102
RTVSPropertyOp26
 70
     0
102
RTVSPropertyOp27
 70
     0
102
RTVSPropertyOp28
 70
     1
102
RTVSPropertyOp29
 70
     1
102
RTVSPropertyOp30
 70
     1
102
RTVSPropertyOp31
 70
     1
102
RTVSPropertyOp32
 70
     1
102
RTVSPropertyOp33
 70
     1
102
RTVSPropertyOp34
 70
     1
102
RTVSPropertyOp35
 70
     1
102
RTVSPropertyOp36
 70
     1
102
RTVSPropertyOp37
 70
     0
102
RTVSPropertyOp38
 70
     0
102
RTVSPropertyOp39
 70
     0
102
RTVSPropertyOp40
 70
     0
102
RTVSPropertyOp41
 70
     0
102
RTVSPropertyOp42
 70
     0
102
RTVSPropertyOp43
 70
     0
102
RTVSPropertyOp44
 70
     0
102
RTVSPropertyOp45
 70
     1
102
RTVSPropertyOp46
 70
     0
102
RTVSPropertyOp47
 70
     0
102
RTVSPropertyOp48
 70
     0
102
RTVSPropertyOp49
 70
     1
102
RTVSPropertyOp50
 70
     0
102
RTVSPropertyOp51
 70
     0
102
RTVSPropertyOp52
 70
     0
102
RTVSPropertyOp53
 70
     0
102
RTVSPropertyOp54
 70
     0
102
RTVSPropertyOp55
 70
     1
102
RTVSPropertyOp56
 70
     0
102
RTVSPropertyOp57
 70
     0
102
RTVSPropertyOp58
 70
     0
102
RTVSPropertyOp59
 70
     0
102
RTVSPropertyOp60
 70
     0
102
RTVSPropertyOp61
 70
     0
102
RTVSPropertyOp62
 70
     0
  0
XRECORD
  5
9EFA
102
{ACAD_REACTORS
330
9EF9
102
}
330
9EF9
100
AcDbXrecord
280
     1
102
RTVSPost2010Prop28
280
     0
102
RTVSPost2010PropOp28
 70
     1
102
RTVSPost2010Prop29
280
     1
102
RTVSPost2010PropOp29
 70
     1
102
RTVSPost2010Prop30
280
     1
102
RTVSPost2010PropOp30
 70
     1
102
RTVSPost2010Prop31
280
     0
102
RTVSPost2010PropOp31
 70
     1
102
RTVSPost2010Prop32
280
     0
102
RTVSPost2010PropOp32
 70
     1
102
RTVSPost2010Prop33
280
     0
102
RTVSPost2010PropOp33
 70
     1
102
RTVSPost2010Prop34
280
     0
102
RTVSPost2010PropOp34
 70
     1
102
RTVSPost2010Prop35
280
     0
102
RTVSPost2010PropOp35
 70
     1
102
RTVSPost2010Prop36
280
     0
102
RTVSPost2010PropOp36
 70
     1
102
RTVSPost2010Prop37
 90
       50
102
RTVSPost2010PropOp37
 70
     1
102
RTVSPost2010Prop38
140
0.0
102
RTVSPost2010PropOp38
 70
     1
102
RTVSPost2010Prop39
140
1.0
102
RTVSPost2010PropOp39
 70
     1
102
RTVSPost2010Prop40
 90
        0
102
RTVSPost2010PropOp40
 70
     1
102
RTVSPost2010Prop41ColorIndex
 90
       18
102
RTVSPost2010Prop41ColorRGB
 90
        0
102
RTVSPost2010PropOp41
 70
     1
102
RTVSPost2010Prop42
 90
       50
102
RTVSPost2010PropOp42
 70
     1
102
RTVSPost2010Prop43
 90
        3
102
RTVSPost2010PropOp43
 70
     1
102
RTVSPost2010Prop44ColorIndex
 90
        5
102
RTVSPost2010Prop44ColorRGB
 90
      255
102
RTVSPost2010PropOp44
 70
     1
102
RTVSPost2010Prop45
280
     0
102
RTVSPost2010PropOp45
 70
     1
102
RTVSPost2010Prop46
 90
       50
102
RTVSPost2010PropOp46
 70
     1
102
RTVSPost2010Prop47
 90
       50
102
RTVSPost2010PropOp47
 70
     1
102
RTVSPost2010Prop48
 90
       50
102
RTVSPost2010PropOp48
 70
     1
102
RTVSPost2010Prop49
280
     0
102
RTVSPost2010PropOp49
 70
     1
102
RTVSPost2010Prop50
 90
       50
102
RTVSPost2010PropOp50
 70
     1
102
RTVSPost2010Prop51ColorIndex
 90
      256
102
RTVSPost2010Prop51ColorRGB
 90
-16777216
102
RTVSPost2010PropOp51
 70
     0
102
RTVSPost2010Prop52
140
1.0
102
RTVSPost2010PropOp52
 70
     0
102
RTVSPost2010Prop53
 90
        2
102
RTVSPost2010PropOp53
 70
     1
102
RTVSPost2010Prop54
  1
strokes_ogs.tif
102
RTVSPost2010PropOp54
 70
     1
102
RTVSPost2010Prop55
280
     0
102
RTVSPost2010PropOp55
 70
     1
102
RTVSPost2010Prop56
140
1.0
102
RTVSPost2010PropOp56
 70
     1
102
RTVSPost2010Prop57
140
1.0
102
RTVSPost2010PropOp57
 70
     1
102
RTVSPropertyOp0
 70
     1
102
RTVSPropertyOp1
 70
     1
102
RTVSPropertyOp2
 70
     1
102
RTVSPropertyOp3
 70
     1
102
RTVSPropertyOp4
 70
     1
102
RTVSPropertyOp5
 70
     1
102
RTVSPropertyOp6
 70
     1
102
RTVSPropertyOp7
 70
     1
102
RTVSPropertyOp8
 70
     1
102
RTVSPropertyOp9
 70
     1
102
RTVSPropertyOp10
 70
     1
102
RTVSPropertyOp11
 70
     1
102
RTVSPropertyOp12
 70
     1
102
RTVSPropertyOp13
 70
     1
102
RTVSPropertyOp14
 70
     1
102
RTVSPropertyOp15
 70
     1
102
RTVSPropertyOp16
 70
     1
102
RTVSPropertyOp17
 70
     1
102
RTVSPropertyOp18
 70
     1
102
RTVSPropertyOp19
 70
     1
102
RTVSPropertyOp20
 70
     1
102
RTVSPropertyOp21
 70
     1
102
RTVSPropertyOp22
 70
     1
102
RTVSPropertyOp23
 70
     1
102
RTVSPropertyOp24
 70
     1
102
RTVSPropertyOp25
 70
     1
102
RTVSPropertyOp26
 70
     1
102
RTVSPropertyOp27
 70
     1
102
RTVSPropertyOp28
 70
     1
102
RTVSPropertyOp29
 70
     1
102
RTVSPropertyOp30
 70
     1
102
RTVSPropertyOp31
 70
     1
102
RTVSPropertyOp32
 70
     1
102
RTVSPropertyOp33
 70
     1
102
RTVSPropertyOp34
 70
     1
102
RTVSPropertyOp35
 70
     1
102
RTVSPropertyOp36
 70
     1
102
RTVSPropertyOp37
 70
     1
102
RTVSPropertyOp38
 70
     1
102
RTVSPropertyOp39
 70
     1
102
RTVSPropertyOp40
 70
     1
102
RTVSPropertyOp41
 70
     1
102
RTVSPropertyOp42
 70
     1
102
RTVSPropertyOp43
 70
     1
102
RTVSPropertyOp44
 70
     1
102
RTVSPropertyOp45
 70
     1
102
RTVSPropertyOp46
 70
     1
102
RTVSPropertyOp47
 70
     1
102
RTVSPropertyOp48
 70
     1
102
RTVSPropertyOp49
 70
     1
102
RTVSPropertyOp50
 70
     1
102
RTVSPropertyOp51
 70
     0
102
RTVSPropertyOp52
 70
     0
102
RTVSPropertyOp53
 70
     1
102
RTVSPropertyOp54
 70
     1
102
RTVSPropertyOp55
 70
     1
102
RTVSPropertyOp56
 70
     1
102
RTVSPropertyOp57
 70
     1
102
RTVSPropertyOp58
 70
     1
102
RTVSPropertyOp59
 70
     1
102
RTVSPropertyOp60
 70
     1
102
RTVSPropertyOp61
 70
     1
102
RTVSPropertyOp62
 70
     1
  0
XRECORD
  5
9F10
102
{ACAD_REACTORS
330
9F0F
102
}
330
9F0F
100
AcDbXrecord
280
     1
102
RTVSPost2010Prop28
280
     0
102
RTVSPost2010PropOp28
 70
     1
102
RTVSPost2010Prop29
280
     1
102
RTVSPost2010PropOp29
 70
     1
102
RTVSPost2010Prop30
280
     1
102
RTVSPost2010PropOp30
 70
     1
102
RTVSPost2010Prop31
280
     0
102
RTVSPost2010PropOp31
 70
     1
102
RTVSPost2010Prop32
280
     0
102
RTVSPost2010PropOp32
 70
     1
102
RTVSPost2010Prop33
280
     0
102
RTVSPost2010PropOp33
 70
     1
102
RTVSPost2010Prop34
280
     0
102
RTVSPost2010PropOp34
 70
     1
102
RTVSPost2010Prop35
280
     0
102
RTVSPost2010PropOp35
 70
     1
102
RTVSPost2010Prop36
280
     0
102
RTVSPost2010PropOp36
 70
     1
102
RTVSPost2010Prop37
 90
       50
102
RTVSPost2010PropOp37
 70
     1
102
RTVSPost2010Prop38
140
0.0
102
RTVSPost2010PropOp38
 70
     1
102
RTVSPost2010Prop39
140
1.0
102
RTVSPost2010PropOp39
 70
     1
102
RTVSPost2010Prop40
 90
        0
102
RTVSPost2010PropOp40
 70
     1
102
RTVSPost2010Prop41ColorIndex
 90
       18
102
RTVSPost2010Prop41ColorRGB
 90
        0
102
RTVSPost2010PropOp41
 70
     1
102
RTVSPost2010Prop42
 90
       50
102
RTVSPost2010PropOp42
 70
     1
102
RTVSPost2010Prop43
 90
        3
102
RTVSPost2010PropOp43
 70
     1
102
RTVSPost2010Prop44ColorIndex
 90
        5
102
RTVSPost2010Prop44ColorRGB
 90
      255
102
RTVSPost2010PropOp44
 70
     1
102
RTVSPost2010Prop45
280
     0
102
RTVSPost2010PropOp45
 70
     1
102
RTVSPost2010Prop46
 90
       50
102
RTVSPost2010PropOp46
 70
     1
102
RTVSPost2010Prop47
 90
       50
102
RTVSPost2010PropOp47
 70
     1
102
RTVSPost2010Prop48
 90
       50
102
RTVSPost2010PropOp48
 70
     1
102
RTVSPost2010Prop49
280
     0
102
RTVSPost2010PropOp49
 70
     1
102
RTVSPost2010Prop50
 90
       50
102
RTVSPost2010PropOp50
 70
     1
102
RTVSPost2010Prop51ColorIndex
 90
      256
102
RTVSPost2010Prop51ColorRGB
 90
-16777216
102
RTVSPost2010PropOp51
 70
     0
102
RTVSPost2010Prop52
140
1.0
102
RTVSPost2010PropOp52
 70
     0
102
RTVSPost2010Prop53
 90
        2
102
RTVSPost2010PropOp53
 70
     1
102
RTVSPost2010Prop54
  1
strokes_ogs.tif
102
RTVSPost2010PropOp54
 70
     1
102
RTVSPost2010Prop55
280
     0
102
RTVSPost2010PropOp55
 70
     1
102
RTVSPost2010Prop56
140
1.0
102
RTVSPost2010PropOp56
 70
     1
102
RTVSPost2010Prop57
140
1.0
102
RTVSPost2010PropOp57
 70
     1
102
RTVSPropertyOp0
 70
     1
102
RTVSPropertyOp1
 70
     1
102
RTVSPropertyOp2
 70
     1
102
RTVSPropertyOp3
 70
     1
102
RTVSPropertyOp4
 70
     1
102
RTVSPropertyOp5
 70
     1
102
RTVSPropertyOp6
 70
     1
102
RTVSPropertyOp7
 70
     1
102
RTVSPropertyOp8
 70
     1
102
RTVSPropertyOp9
 70
     1
102
RTVSPropertyOp10
 70
     1
102
RTVSPropertyOp11
 70
     1
102
RTVSPropertyOp12
 70
     1
102
RTVSPropertyOp13
 70
     1
102
RTVSPropertyOp14
 70
     1
102
RTVSPropertyOp15
 70
     1
102
RTVSPropertyOp16
 70
     1
102
RTVSPropertyOp17
 70
     1
102
RTVSPropertyOp18
 70
     1
102
RTVSPropertyOp19
 70
     1
102
RTVSPropertyOp20
 70
     1
102
RTVSPropertyOp21
 70
     1
102
RTVSPropertyOp22
 70
     1
102
RTVSPropertyOp23
 70
     1
102
RTVSPropertyOp24
 70
     1
102
RTVSPropertyOp25
 70
     1
102
RTVSPropertyOp26
 70
     1
102
RTVSPropertyOp27
 70
     1
102
RTVSPropertyOp28
 70
     1
102
RTVSPropertyOp29
 70
     1
102
RTVSPropertyOp30
 70
     1
102
RTVSPropertyOp31
 70
     1
102
RTVSPropertyOp32
 70
     1
102
RTVSPropertyOp33
 70
     1
102
RTVSPropertyOp34
 70
     1
102
RTVSPropertyOp35
 70
     1
102
RTVSPropertyOp36
 70
     1
102
RTVSPropertyOp37
 70
     1
102
RTVSPropertyOp38
 70
     1
102
RTVSPropertyOp39
 70
     1
102
RTVSPropertyOp40
 70
     1
102
RTVSPropertyOp41
 70
     1
102
RTVSPropertyOp42
 70
     1
102
RTVSPropertyOp43
 70
     1
102
RTVSPropertyOp44
 70
     1
102
RTVSPropertyOp45
 70
     1
102
RTVSPropertyOp46
 70
     1
102
RTVSPropertyOp47
 70
     1
102
RTVSPropertyOp48
 70
     1
102
RTVSPropertyOp49
 70
     1
102
RTVSPropertyOp50
 70
     1
102
RTVSPropertyOp51
 70
     0
102
RTVSPropertyOp52
 70
     0
102
RTVSPropertyOp53
 70
     1
102
RTVSPropertyOp54
 70
     1
102
RTVSPropertyOp55
 70
     1
102
RTVSPropertyOp56
 70
     1
102
RTVSPropertyOp57
 70
     1
102
RTVSPropertyOp58
 70
     1
102
RTVSPropertyOp59
 70
     1
102
RTVSPropertyOp60
 70
     1
102
RTVSPropertyOp61
 70
     1
102
RTVSPropertyOp62
 70
     1
  0
XRECORD
  5
9F0E
102
{ACAD_REACTORS
330
9F0D
102
}
330
9F0D
100
AcDbXrecord
280
     1
102
RTVSPost2010Prop28
280
     0
102
RTVSPost2010PropOp28
 70
     1
102
RTVSPost2010Prop29
280
     1
102
RTVSPost2010PropOp29
 70
     1
102
RTVSPost2010Prop30
280
     1
102
RTVSPost2010PropOp30
 70
     1
102
RTVSPost2010Prop31
280
     0
102
RTVSPost2010PropOp31
 70
     1
102
RTVSPost2010Prop32
280
     0
102
RTVSPost2010PropOp32
 70
     1
102
RTVSPost2010Prop33
280
     0
102
RTVSPost2010PropOp33
 70
     1
102
RTVSPost2010Prop34
280
     0
102
RTVSPost2010PropOp34
 70
     1
102
RTVSPost2010Prop35
280
     0
102
RTVSPost2010PropOp35
 70
     1
102
RTVSPost2010Prop36
280
     0
102
RTVSPost2010PropOp36
 70
     1
102
RTVSPost2010Prop37
 90
       50
102
RTVSPost2010PropOp37
 70
     1
102
RTVSPost2010Prop38
140
0.0
102
RTVSPost2010PropOp38
 70
     1
102
RTVSPost2010Prop39
140
1.0
102
RTVSPost2010PropOp39
 70
     1
102
RTVSPost2010Prop40
 90
        0
102
RTVSPost2010PropOp40
 70
     1
102
RTVSPost2010Prop41ColorIndex
 90
       18
102
RTVSPost2010Prop41ColorRGB
 90
        0
102
RTVSPost2010PropOp41
 70
     1
102
RTVSPost2010Prop42
 90
       50
102
RTVSPost2010PropOp42
 70
     1
102
RTVSPost2010Prop43
 90
        3
102
RTVSPost2010PropOp43
 70
     1
102
RTVSPost2010Prop44ColorIndex
 90
        5
102
RTVSPost2010Prop44ColorRGB
 90
      255
102
RTVSPost2010PropOp44
 70
     1
102
RTVSPost2010Prop45
280
     0
102
RTVSPost2010PropOp45
 70
     1
102
RTVSPost2010Prop46
 90
       50
102
RTVSPost2010PropOp46
 70
     1
102
RTVSPost2010Prop47
 90
       50
102
RTVSPost2010PropOp47
 70
     1
102
RTVSPost2010Prop48
 90
       50
102
RTVSPost2010PropOp48
 70
     1
102
RTVSPost2010Prop49
280
     0
102
RTVSPost2010PropOp49
 70
     1
102
RTVSPost2010Prop50
 90
       50
102
RTVSPost2010PropOp50
 70
     1
102
RTVSPost2010Prop51ColorIndex
 90
      256
102
RTVSPost2010Prop51ColorRGB
 90
-16777216
102
RTVSPost2010PropOp51
 70
     0
102
RTVSPost2010Prop52
140
1.0
102
RTVSPost2010PropOp52
 70
     0
102
RTVSPost2010Prop53
 90
        2
102
RTVSPost2010PropOp53
 70
     1
102
RTVSPost2010Prop54
  1
strokes_ogs.tif
102
RTVSPost2010PropOp54
 70
     1
102
RTVSPost2010Prop55
280
     0
102
RTVSPost2010PropOp55
 70
     1
102
RTVSPost2010Prop56
140
1.0
102
RTVSPost2010PropOp56
 70
     1
102
RTVSPost2010Prop57
140
1.0
102
RTVSPost2010PropOp57
 70
     1
102
RTVSPropertyOp0
 70
     1
102
RTVSPropertyOp1
 70
     1
102
RTVSPropertyOp2
 70
     1
102
RTVSPropertyOp3
 70
     1
102
RTVSPropertyOp4
 70
     1
102
RTVSPropertyOp5
 70
     1
102
RTVSPropertyOp6
 70
     1
102
RTVSPropertyOp7
 70
     1
102
RTVSPropertyOp8
 70
     1
102
RTVSPropertyOp9
 70
     1
102
RTVSPropertyOp10
 70
     1
102
RTVSPropertyOp11
 70
     1
102
RTVSPropertyOp12
 70
     1
102
RTVSPropertyOp13
 70
     1
102
RTVSPropertyOp14
 70
     1
102
RTVSPropertyOp15
 70
     1
102
RTVSPropertyOp16
 70
     1
102
RTVSPropertyOp17
 70
     1
102
RTVSPropertyOp18
 70
     1
102
RTVSPropertyOp19
 70
     1
102
RTVSPropertyOp20
 70
     1
102
RTVSPropertyOp21
 70
     1
102
RTVSPropertyOp22
 70
     1
102
RTVSPropertyOp23
 70
     1
102
RTVSPropertyOp24
 70
     1
102
RTVSPropertyOp25
 70
     1
102
RTVSPropertyOp26
 70
     1
102
RTVSPropertyOp27
 70
     1
102
RTVSPropertyOp28
 70
     1
102
RTVSPropertyOp29
 70
     1
102
RTVSPropertyOp30
 70
     1
102
RTVSPropertyOp31
 70
     1
102
RTVSPropertyOp32
 70
     1
102
RTVSPropertyOp33
 70
     1
102
RTVSPropertyOp34
 70
     1
102
RTVSPropertyOp35
 70
     1
102
RTVSPropertyOp36
 70
     1
102
RTVSPropertyOp37
 70
     1
102
RTVSPropertyOp38
 70
     1
102
RTVSPropertyOp39
 70
     1
102
RTVSPropertyOp40
 70
     1
102
RTVSPropertyOp41
 70
     1
102
RTVSPropertyOp42
 70
     1
102
RTVSPropertyOp43
 70
     1
102
RTVSPropertyOp44
 70
     1
102
RTVSPropertyOp45
 70
     1
102
RTVSPropertyOp46
 70
     1
102
RTVSPropertyOp47
 70
     1
102
RTVSPropertyOp48
 70
     1
102
RTVSPropertyOp49
 70
     1
102
RTVSPropertyOp50
 70
     1
102
RTVSPropertyOp51
 70
     0
102
RTVSPropertyOp52
 70
     0
102
RTVSPropertyOp53
 70
     1
102
RTVSPropertyOp54
 70
     1
102
RTVSPropertyOp55
 70
     1
102
RTVSPropertyOp56
 70
     1
102
RTVSPropertyOp57
 70
     1
102
RTVSPropertyOp58
 70
     1
102
RTVSPropertyOp59
 70
     1
102
RTVSPropertyOp60
 70
     1
102
RTVSPropertyOp61
 70
     1
102
RTVSPropertyOp62
 70
     1
  0
XRECORD
  5
9F08
102
{ACAD_REACTORS
330
9F07
102
}
330
9F07
100
AcDbXrecord
280
     1
102
RTVSPost2010Prop28
280
     0
102
RTVSPost2010PropOp28
 70
     1
102
RTVSPost2010Prop29
280
     1
102
RTVSPost2010PropOp29
 70
     1
102
RTVSPost2010Prop30
280
     1
102
RTVSPost2010PropOp30
 70
     1
102
RTVSPost2010Prop31
280
     0
102
RTVSPost2010PropOp31
 70
     1
102
RTVSPost2010Prop32
280
     0
102
RTVSPost2010PropOp32
 70
     1
102
RTVSPost2010Prop33
280
     0
102
RTVSPost2010PropOp33
 70
     1
102
RTVSPost2010Prop34
280
     0
102
RTVSPost2010PropOp34
 70
     1
102
RTVSPost2010Prop35
280
     0
102
RTVSPost2010PropOp35
 70
     1
102
RTVSPost2010Prop36
280
     0
102
RTVSPost2010PropOp36
 70
     1
102
RTVSPost2010Prop37
 90
       50
102
RTVSPost2010PropOp37
 70
     1
102
RTVSPost2010Prop38
140
0.0
102
RTVSPost2010PropOp38
 70
     1
102
RTVSPost2010Prop39
140
1.0
102
RTVSPost2010PropOp39
 70
     1
102
RTVSPost2010Prop40
 90
        0
102
RTVSPost2010PropOp40
 70
     1
102
RTVSPost2010Prop41ColorIndex
 90
       18
102
RTVSPost2010Prop41ColorRGB
 90
        0
102
RTVSPost2010PropOp41
 70
     1
102
RTVSPost2010Prop42
 90
       50
102
RTVSPost2010PropOp42
 70
     1
102
RTVSPost2010Prop43
 90
        3
102
RTVSPost2010PropOp43
 70
     1
102
RTVSPost2010Prop44ColorIndex
 90
        5
102
RTVSPost2010Prop44ColorRGB
 90
      255
102
RTVSPost2010PropOp44
 70
     1
102
RTVSPost2010Prop45
280
     0
102
RTVSPost2010PropOp45
 70
     1
102
RTVSPost2010Prop46
 90
       50
102
RTVSPost2010PropOp46
 70
     1
102
RTVSPost2010Prop47
 90
       50
102
RTVSPost2010PropOp47
 70
     1
102
RTVSPost2010Prop48
 90
       50
102
RTVSPost2010PropOp48
 70
     1
102
RTVSPost2010Prop49
280
     0
102
RTVSPost2010PropOp49
 70
     1
102
RTVSPost2010Prop50
 90
       50
102
RTVSPost2010PropOp50
 70
     1
102
RTVSPost2010Prop51ColorIndex
 90
      256
102
RTVSPost2010Prop51ColorRGB
 90
-16777216
102
RTVSPost2010PropOp51
 70
     0
102
RTVSPost2010Prop52
140
1.0
102
RTVSPost2010PropOp52
 70
     0
102
RTVSPost2010Prop53
 90
        2
102
RTVSPost2010PropOp53
 70
     1
102
RTVSPost2010Prop54
  1
strokes_ogs.tif
102
RTVSPost2010PropOp54
 70
     1
102
RTVSPost2010Prop55
280
     0
102
RTVSPost2010PropOp55
 70
     1
102
RTVSPost2010Prop56
140
1.0
102
RTVSPost2010PropOp56
 70
     1
102
RTVSPost2010Prop57
140
1.0
102
RTVSPost2010PropOp57
 70
     1
102
RTVSPropertyOp0
 70
     1
102
RTVSPropertyOp1
 70
     1
102
RTVSPropertyOp2
 70
     1
102
RTVSPropertyOp3
 70
     1
102
RTVSPropertyOp4
 70
     1
102
RTVSPropertyOp5
 70
     1
102
RTVSPropertyOp6
 70
     1
102
RTVSPropertyOp7
 70
     1
102
RTVSPropertyOp8
 70
     1
102
RTVSPropertyOp9
 70
     1
102
RTVSPropertyOp10
 70
     1
102
RTVSPropertyOp11
 70
     1
102
RTVSPropertyOp12
 70
     1
102
RTVSPropertyOp13
 70
     1
102
RTVSPropertyOp14
 70
     1
102
RTVSPropertyOp15
 70
     1
102
RTVSPropertyOp16
 70
     1
102
RTVSPropertyOp17
 70
     1
102
RTVSPropertyOp18
 70
     1
102
RTVSPropertyOp19
 70
     1
102
RTVSPropertyOp20
 70
     1
102
RTVSPropertyOp21
 70
     1
102
RTVSPropertyOp22
 70
     1
102
RTVSPropertyOp23
 70
     1
102
RTVSPropertyOp24
 70
     1
102
RTVSPropertyOp25
 70
     1
102
RTVSPropertyOp26
 70
     1
102
RTVSPropertyOp27
 70
     1
102
RTVSPropertyOp28
 70
     1
102
RTVSPropertyOp29
 70
     1
102
RTVSPropertyOp30
 70
     1
102
RTVSPropertyOp31
 70
     1
102
RTVSPropertyOp32
 70
     1
102
RTVSPropertyOp33
 70
     1
102
RTVSPropertyOp34
 70
     1
102
RTVSPropertyOp35
 70
     1
102
RTVSPropertyOp36
 70
     1
102
RTVSPropertyOp37
 70
     1
102
RTVSPropertyOp38
 70
     1
102
RTVSPropertyOp39
 70
     1
102
RTVSPropertyOp40
 70
     1
102
RTVSPropertyOp41
 70
     1
102
RTVSPropertyOp42
 70
     1
102
RTVSPropertyOp43
 70
     1
102
RTVSPropertyOp44
 70
     1
102
RTVSPropertyOp45
 70
     1
102
RTVSPropertyOp46
 70
     1
102
RTVSPropertyOp47
 70
     1
102
RTVSPropertyOp48
 70
     1
102
RTVSPropertyOp49
 70
     1
102
RTVSPropertyOp50
 70
     1
102
RTVSPropertyOp51
 70
     0
102
RTVSPropertyOp52
 70
     0
102
RTVSPropertyOp53
 70
     1
102
RTVSPropertyOp54
 70
     1
102
RTVSPropertyOp55
 70
     1
102
RTVSPropertyOp56
 70
     1
102
RTVSPropertyOp57
 70
     1
102
RTVSPropertyOp58
 70
     1
102
RTVSPropertyOp59
 70
     1
102
RTVSPropertyOp60
 70
     1
102
RTVSPropertyOp61
 70
     1
102
RTVSPropertyOp62
 70
     1
  0
XRECORD
  5
9F0A
102
{ACAD_REACTORS
330
9F09
102
}
330
9F09
100
AcDbXrecord
280
     1
102
RTVSPost2010Prop28
280
     0
102
RTVSPost2010PropOp28
 70
     1
102
RTVSPost2010Prop29
280
     1
102
RTVSPost2010PropOp29
 70
     1
102
RTVSPost2010Prop30
280
     1
102
RTVSPost2010PropOp30
 70
     1
102
RTVSPost2010Prop31
280
     0
102
RTVSPost2010PropOp31
 70
     1
102
RTVSPost2010Prop32
280
     0
102
RTVSPost2010PropOp32
 70
     1
102
RTVSPost2010Prop33
280
     0
102
RTVSPost2010PropOp33
 70
     1
102
RTVSPost2010Prop34
280
     0
102
RTVSPost2010PropOp34
 70
     1
102
RTVSPost2010Prop35
280
     0
102
RTVSPost2010PropOp35
 70
     1
102
RTVSPost2010Prop36
280
     0
102
RTVSPost2010PropOp36
 70
     1
102
RTVSPost2010Prop37
 90
       50
102
RTVSPost2010PropOp37
 70
     1
102
RTVSPost2010Prop38
140
0.0
102
RTVSPost2010PropOp38
 70
     1
102
RTVSPost2010Prop39
140
1.0
102
RTVSPost2010PropOp39
 70
     1
102
RTVSPost2010Prop40
 90
        0
102
RTVSPost2010PropOp40
 70
     1
102
RTVSPost2010Prop41ColorIndex
 90
       18
102
RTVSPost2010Prop41ColorRGB
 90
        0
102
RTVSPost2010PropOp41
 70
     1
102
RTVSPost2010Prop42
 90
       50
102
RTVSPost2010PropOp42
 70
     1
102
RTVSPost2010Prop43
 90
        3
102
RTVSPost2010PropOp43
 70
     1
102
RTVSPost2010Prop44ColorIndex
 90
        5
102
RTVSPost2010Prop44ColorRGB
 90
      255
102
RTVSPost2010PropOp44
 70
     1
102
RTVSPost2010Prop45
280
     0
102
RTVSPost2010PropOp45
 70
     1
102
RTVSPost2010Prop46
 90
       50
102
RTVSPost2010PropOp46
 70
     1
102
RTVSPost2010Prop47
 90
       50
102
RTVSPost2010PropOp47
 70
     1
102
RTVSPost2010Prop48
 90
       50
102
RTVSPost2010PropOp48
 70
     1
102
RTVSPost2010Prop49
280
     0
102
RTVSPost2010PropOp49
 70
     1
102
RTVSPost2010Prop50
 90
       50
102
RTVSPost2010PropOp50
 70
     1
102
RTVSPost2010Prop51ColorIndex
 90
      256
102
RTVSPost2010Prop51ColorRGB
 90
-16777216
102
RTVSPost2010PropOp51
 70
     0
102
RTVSPost2010Prop52
140
1.0
102
RTVSPost2010PropOp52
 70
     0
102
RTVSPost2010Prop53
 90
        2
102
RTVSPost2010PropOp53
 70
     1
102
RTVSPost2010Prop54
  1
strokes_ogs.tif
102
RTVSPost2010PropOp54
 70
     1
102
RTVSPost2010Prop55
280
     0
102
RTVSPost2010PropOp55
 70
     1
102
RTVSPost2010Prop56
140
1.0
102
RTVSPost2010PropOp56
 70
     1
102
RTVSPost2010Prop57
140
1.0
102
RTVSPost2010PropOp57
 70
     1
102
RTVSPropertyOp0
 70
     1
102
RTVSPropertyOp1
 70
     1
102
RTVSPropertyOp2
 70
     1
102
RTVSPropertyOp3
 70
     1
102
RTVSPropertyOp4
 70
     1
102
RTVSPropertyOp5
 70
     1
102
RTVSPropertyOp6
 70
     1
102
RTVSPropertyOp7
 70
     1
102
RTVSPropertyOp8
 70
     1
102
RTVSPropertyOp9
 70
     1
102
RTVSPropertyOp10
 70
     1
102
RTVSPropertyOp11
 70
     1
102
RTVSPropertyOp12
 70
     1
102
RTVSPropertyOp13
 70
     1
102
RTVSPropertyOp14
 70
     1
102
RTVSPropertyOp15
 70
     1
102
RTVSPropertyOp16
 70
     1
102
RTVSPropertyOp17
 70
     1
102
RTVSPropertyOp18
 70
     1
102
RTVSPropertyOp19
 70
     1
102
RTVSPropertyOp20
 70
     1
102
RTVSPropertyOp21
 70
     1
102
RTVSPropertyOp22
 70
     1
102
RTVSPropertyOp23
 70
     1
102
RTVSPropertyOp24
 70
     1
102
RTVSPropertyOp25
 70
     1
102
RTVSPropertyOp26
 70
     1
102
RTVSPropertyOp27
 70
     1
102
RTVSPropertyOp28
 70
     1
102
RTVSPropertyOp29
 70
     1
102
RTVSPropertyOp30
 70
     1
102
RTVSPropertyOp31
 70
     1
102
RTVSPropertyOp32
 70
     1
102
RTVSPropertyOp33
 70
     1
102
RTVSPropertyOp34
 70
     1
102
RTVSPropertyOp35
 70
     1
102
RTVSPropertyOp36
 70
     1
102
RTVSPropertyOp37
 70
     1
102
RTVSPropertyOp38
 70
     1
102
RTVSPropertyOp39
 70
     1
102
RTVSPropertyOp40
 70
     1
102
RTVSPropertyOp41
 70
     1
102
RTVSPropertyOp42
 70
     1
102
RTVSPropertyOp43
 70
     1
102
RTVSPropertyOp44
 70
     1
102
RTVSPropertyOp45
 70
     1
102
RTVSPropertyOp46
 70
     1
102
RTVSPropertyOp47
 70
     1
102
RTVSPropertyOp48
 70
     1
102
RTVSPropertyOp49
 70
     1
102
RTVSPropertyOp50
 70
     1
102
RTVSPropertyOp51
 70
     0
102
RTVSPropertyOp52
 70
     0
102
RTVSPropertyOp53
 70
     1
102
RTVSPropertyOp54
 70
     1
102
RTVSPropertyOp55
 70
     1
102
RTVSPropertyOp56
 70
     1
102
RTVSPropertyOp57
 70
     1
102
RTVSPropertyOp58
 70
     1
102
RTVSPropertyOp59
 70
     1
102
RTVSPropertyOp60
 70
     1
102
RTVSPropertyOp61
 70
     1
102
RTVSPropertyOp62
 70
     1
  0
XRECORD
  5
9F00
102
{ACAD_REACTORS
330
9EFF
102
}
330
9EFF
100
AcDbXrecord
280
     1
102
RTVSPost2010Prop28
280
     0
102
RTVSPost2010PropOp28
 70
     1
102
RTVSPost2010Prop29
280
     1
102
RTVSPost2010PropOp29
 70
     1
102
RTVSPost2010Prop30
280
     1
102
RTVSPost2010PropOp30
 70
     1
102
RTVSPost2010Prop31
280
     0
102
RTVSPost2010PropOp31
 70
     1
102
RTVSPost2010Prop32
280
     0
102
RTVSPost2010PropOp32
 70
     1
102
RTVSPost2010Prop33
280
     0
102
RTVSPost2010PropOp33
 70
     1
102
RTVSPost2010Prop34
280
     0
102
RTVSPost2010PropOp34
 70
     1
102
RTVSPost2010Prop35
280
     0
102
RTVSPost2010PropOp35
 70
     1
102
RTVSPost2010Prop36
280
     0
102
RTVSPost2010PropOp36
 70
     1
102
RTVSPost2010Prop37
 90
       50
102
RTVSPost2010PropOp37
 70
     1
102
RTVSPost2010Prop38
140
0.0
102
RTVSPost2010PropOp38
 70
     1
102
RTVSPost2010Prop39
140
1.0
102
RTVSPost2010PropOp39
 70
     1
102
RTVSPost2010Prop40
 90
        0
102
RTVSPost2010PropOp40
 70
     1
102
RTVSPost2010Prop41ColorIndex
 90
       18
102
RTVSPost2010Prop41ColorRGB
 90
        0
102
RTVSPost2010PropOp41
 70
     1
102
RTVSPost2010Prop42
 90
       50
102
RTVSPost2010PropOp42
 70
     1
102
RTVSPost2010Prop43
 90
        3
102
RTVSPost2010PropOp43
 70
     1
102
RTVSPost2010Prop44ColorIndex
 90
        5
102
RTVSPost2010Prop44ColorRGB
 90
      255
102
RTVSPost2010PropOp44
 70
     1
102
RTVSPost2010Prop45
280
     0
102
RTVSPost2010PropOp45
 70
     1
102
RTVSPost2010Prop46
 90
       50
102
RTVSPost2010PropOp46
 70
     1
102
RTVSPost2010Prop47
 90
       50
102
RTVSPost2010PropOp47
 70
     1
102
RTVSPost2010Prop48
 90
       50
102
RTVSPost2010PropOp48
 70
     1
102
RTVSPost2010Prop49
280
     0
102
RTVSPost2010PropOp49
 70
     1
102
RTVSPost2010Prop50
 90
       50
102
RTVSPost2010PropOp50
 70
     1
102
RTVSPost2010Prop51ColorIndex
 90
      256
102
RTVSPost2010Prop51ColorRGB
 90
-16777216
102
RTVSPost2010PropOp51
 70
     0
102
RTVSPost2010Prop52
140
1.0
102
RTVSPost2010PropOp52
 70
     0
102
RTVSPost2010Prop53
 90
        2
102
RTVSPost2010PropOp53
 70
     1
102
RTVSPost2010Prop54
  1
strokes_ogs.tif
102
RTVSPost2010PropOp54
 70
     1
102
RTVSPost2010Prop55
280
     0
102
RTVSPost2010PropOp55
 70
     1
102
RTVSPost2010Prop56
140
1.0
102
RTVSPost2010PropOp56
 70
     1
102
RTVSPost2010Prop57
140
1.0
102
RTVSPost2010PropOp57
 70
     1
102
RTVSPropertyOp0
 70
     1
102
RTVSPropertyOp1
 70
     1
102
RTVSPropertyOp2
 70
     1
102
RTVSPropertyOp3
 70
     1
102
RTVSPropertyOp4
 70
     1
102
RTVSPropertyOp5
 70
     1
102
RTVSPropertyOp6
 70
     1
102
RTVSPropertyOp7
 70
     1
102
RTVSPropertyOp8
 70
     1
102
RTVSPropertyOp9
 70
     1
102
RTVSPropertyOp10
 70
     1
102
RTVSPropertyOp11
 70
     1
102
RTVSPropertyOp12
 70
     1
102
RTVSPropertyOp13
 70
     1
102
RTVSPropertyOp14
 70
     1
102
RTVSPropertyOp15
 70
     1
102
RTVSPropertyOp16
 70
     1
102
RTVSPropertyOp17
 70
     1
102
RTVSPropertyOp18
 70
     1
102
RTVSPropertyOp19
 70
     1
102
RTVSPropertyOp20
 70
     1
102
RTVSPropertyOp21
 70
     1
102
RTVSPropertyOp22
 70
     1
102
RTVSPropertyOp23
 70
     1
102
RTVSPropertyOp24
 70
     1
102
RTVSPropertyOp25
 70
     1
102
RTVSPropertyOp26
 70
     1
102
RTVSPropertyOp27
 70
     1
102
RTVSPropertyOp28
 70
     1
102
RTVSPropertyOp29
 70
     1
102
RTVSPropertyOp30
 70
     1
102
RTVSPropertyOp31
 70
     1
102
RTVSPropertyOp32
 70
     1
102
RTVSPropertyOp33
 70
     1
102
RTVSPropertyOp34
 70
     1
102
RTVSPropertyOp35
 70
     1
102
RTVSPropertyOp36
 70
     1
102
RTVSPropertyOp37
 70
     1
102
RTVSPropertyOp38
 70
     1
102
RTVSPropertyOp39
 70
     1
102
RTVSPropertyOp40
 70
     1
102
RTVSPropertyOp41
 70
     1
102
RTVSPropertyOp42
 70
     1
102
RTVSPropertyOp43
 70
     1
102
RTVSPropertyOp44
 70
     1
102
RTVSPropertyOp45
 70
     1
102
RTVSPropertyOp46
 70
     1
102
RTVSPropertyOp47
 70
     1
102
RTVSPropertyOp48
 70
     1
102
RTVSPropertyOp49
 70
     1
102
RTVSPropertyOp50
 70
     1
102
RTVSPropertyOp51
 70
     0
102
RTVSPropertyOp52
 70
     0
102
RTVSPropertyOp53
 70
     1
102
RTVSPropertyOp54
 70
     1
102
RTVSPropertyOp55
 70
     1
102
RTVSPropertyOp56
 70
     1
102
RTVSPropertyOp57
 70
     1
102
RTVSPropertyOp58
 70
     1
102
RTVSPropertyOp59
 70
     1
102
RTVSPropertyOp60
 70
     1
102
RTVSPropertyOp61
 70
     1
102
RTVSPropertyOp62
 70
     1
  0
XRECORD
  5
9EF4
102
{ACAD_REACTORS
330
9EF3
102
}
330
9EF3
100
AcDbXrecord
280
     1
102
RTVSPost2010Prop28
280
     0
102
RTVSPost2010PropOp28
 70
     1
102
RTVSPost2010Prop29
280
     1
102
RTVSPost2010PropOp29
 70
     1
102
RTVSPost2010Prop30
280
     1
102
RTVSPost2010PropOp30
 70
     1
102
RTVSPost2010Prop31
280
     0
102
RTVSPost2010PropOp31
 70
     1
102
RTVSPost2010Prop32
280
     0
102
RTVSPost2010PropOp32
 70
     1
102
RTVSPost2010Prop33
280
     0
102
RTVSPost2010PropOp33
 70
     1
102
RTVSPost2010Prop34
280
     0
102
RTVSPost2010PropOp34
 70
     1
102
RTVSPost2010Prop35
280
     0
102
RTVSPost2010PropOp35
 70
     1
102
RTVSPost2010Prop36
280
     0
102
RTVSPost2010PropOp36
 70
     1
102
RTVSPost2010Prop37
 90
       50
102
RTVSPost2010PropOp37
 70
     1
102
RTVSPost2010Prop38
140
0.0
102
RTVSPost2010PropOp38
 70
     1
102
RTVSPost2010Prop39
140
1.0
102
RTVSPost2010PropOp39
 70
     1
102
RTVSPost2010Prop40
 90
        0
102
RTVSPost2010PropOp40
 70
     1
102
RTVSPost2010Prop41ColorIndex
 90
       18
102
RTVSPost2010Prop41ColorRGB
 90
        0
102
RTVSPost2010PropOp41
 70
     1
102
RTVSPost2010Prop42
 90
       50
102
RTVSPost2010PropOp42
 70
     1
102
RTVSPost2010Prop43
 90
        3
102
RTVSPost2010PropOp43
 70
     1
102
RTVSPost2010Prop44ColorIndex
 90
        5
102
RTVSPost2010Prop44ColorRGB
 90
      255
102
RTVSPost2010PropOp44
 70
     1
102
RTVSPost2010Prop45
280
     0
102
RTVSPost2010PropOp45
 70
     1
102
RTVSPost2010Prop46
 90
       50
102
RTVSPost2010PropOp46
 70
     1
102
RTVSPost2010Prop47
 90
       50
102
RTVSPost2010PropOp47
 70
     1
102
RTVSPost2010Prop48
 90
       50
102
RTVSPost2010PropOp48
 70
     1
102
RTVSPost2010Prop49
280
     0
102
RTVSPost2010PropOp49
 70
     1
102
RTVSPost2010Prop50
 90
       50
102
RTVSPost2010PropOp50
 70
     1
102
RTVSPost2010Prop51ColorIndex
 90
      256
102
RTVSPost2010Prop51ColorRGB
 90
-16777216
102
RTVSPost2010PropOp51
 70
     0
102
RTVSPost2010Prop52
140
1.0
102
RTVSPost2010PropOp52
 70
     0
102
RTVSPost2010Prop53
 90
        2
102
RTVSPost2010PropOp53
 70
     1
102
RTVSPost2010Prop54
  1
strokes_ogs.tif
102
RTVSPost2010PropOp54
 70
     1
102
RTVSPost2010Prop55
280
     0
102
RTVSPost2010PropOp55
 70
     1
102
RTVSPost2010Prop56
140
1.0
102
RTVSPost2010PropOp56
 70
     1
102
RTVSPost2010Prop57
140
1.0
102
RTVSPost2010PropOp57
 70
     1
102
RTVSPropertyOp0
 70
     1
102
RTVSPropertyOp1
 70
     1
102
RTVSPropertyOp2
 70
     1
102
RTVSPropertyOp3
 70
     1
102
RTVSPropertyOp4
 70
     1
102
RTVSPropertyOp5
 70
     1
102
RTVSPropertyOp6
 70
     1
102
RTVSPropertyOp7
 70
     1
102
RTVSPropertyOp8
 70
     1
102
RTVSPropertyOp9
 70
     1
102
RTVSPropertyOp10
 70
     1
102
RTVSPropertyOp11
 70
     1
102
RTVSPropertyOp12
 70
     1
102
RTVSPropertyOp13
 70
     1
102
RTVSPropertyOp14
 70
     1
102
RTVSPropertyOp15
 70
     1
102
RTVSPropertyOp16
 70
     1
102
RTVSPropertyOp17
 70
     1
102
RTVSPropertyOp18
 70
     1
102
RTVSPropertyOp19
 70
     1
102
RTVSPropertyOp20
 70
     1
102
RTVSPropertyOp21
 70
     1
102
RTVSPropertyOp22
 70
     1
102
RTVSPropertyOp23
 70
     1
102
RTVSPropertyOp24
 70
     1
102
RTVSPropertyOp25
 70
     1
102
RTVSPropertyOp26
 70
     1
102
RTVSPropertyOp27
 70
     1
102
RTVSPropertyOp28
 70
     1
102
RTVSPropertyOp29
 70
     1
102
RTVSPropertyOp30
 70
     1
102
RTVSPropertyOp31
 70
     1
102
RTVSPropertyOp32
 70
     1
102
RTVSPropertyOp33
 70
     1
102
RTVSPropertyOp34
 70
     1
102
RTVSPropertyOp35
 70
     1
102
RTVSPropertyOp36
 70
     1
102
RTVSPropertyOp37
 70
     1
102
RTVSPropertyOp38
 70
     1
102
RTVSPropertyOp39
 70
     1
102
RTVSPropertyOp40
 70
     1
102
RTVSPropertyOp41
 70
     1
102
RTVSPropertyOp42
 70
     1
102
RTVSPropertyOp43
 70
     1
102
RTVSPropertyOp44
 70
     1
102
RTVSPropertyOp45
 70
     1
102
RTVSPropertyOp46
 70
     1
102
RTVSPropertyOp47
 70
     1
102
RTVSPropertyOp48
 70
     1
102
RTVSPropertyOp49
 70
     1
102
RTVSPropertyOp50
 70
     1
102
RTVSPropertyOp51
 70
     0
102
RTVSPropertyOp52
 70
     0
102
RTVSPropertyOp53
 70
     1
102
RTVSPropertyOp54
 70
     1
102
RTVSPropertyOp55
 70
     1
102
RTVSPropertyOp56
 70
     1
102
RTVSPropertyOp57
 70
     1
102
RTVSPropertyOp58
 70
     1
102
RTVSPropertyOp59
 70
     1
102
RTVSPropertyOp60
 70
     1
102
RTVSPropertyOp61
 70
     1
102
RTVSPropertyOp62
 70
     1
  0
XRECORD
  5
9F0C
102
{ACAD_REACTORS
330
9F0B
102
}
330
9F0B
100
AcDbXrecord
280
     1
102
RTVSPost2010Prop28
280
     0
102
RTVSPost2010PropOp28
 70
     1
102
RTVSPost2010Prop29
280
     1
102
RTVSPost2010PropOp29
 70
     1
102
RTVSPost2010Prop30
280
     1
102
RTVSPost2010PropOp30
 70
     1
102
RTVSPost2010Prop31
280
     0
102
RTVSPost2010PropOp31
 70
     1
102
RTVSPost2010Prop32
280
     0
102
RTVSPost2010PropOp32
 70
     1
102
RTVSPost2010Prop33
280
     0
102
RTVSPost2010PropOp33
 70
     1
102
RTVSPost2010Prop34
280
     0
102
RTVSPost2010PropOp34
 70
     1
102
RTVSPost2010Prop35
280
     0
102
RTVSPost2010PropOp35
 70
     1
102
RTVSPost2010Prop36
280
     0
102
RTVSPost2010PropOp36
 70
     1
102
RTVSPost2010Prop37
 90
       50
102
RTVSPost2010PropOp37
 70
     1
102
RTVSPost2010Prop38
140
0.0
102
RTVSPost2010PropOp38
 70
     1
102
RTVSPost2010Prop39
140
1.0
102
RTVSPost2010PropOp39
 70
     1
102
RTVSPost2010Prop40
 90
        0
102
RTVSPost2010PropOp40
 70
     1
102
RTVSPost2010Prop41ColorIndex
 90
       18
102
RTVSPost2010Prop41ColorRGB
 90
        0
102
RTVSPost2010PropOp41
 70
     1
102
RTVSPost2010Prop42
 90
       50
102
RTVSPost2010PropOp42
 70
     1
102
RTVSPost2010Prop43
 90
        3
102
RTVSPost2010PropOp43
 70
     1
102
RTVSPost2010Prop44ColorIndex
 90
        5
102
RTVSPost2010Prop44ColorRGB
 90
      255
102
RTVSPost2010PropOp44
 70
     1
102
RTVSPost2010Prop45
280
     0
102
RTVSPost2010PropOp45
 70
     1
102
RTVSPost2010Prop46
 90
       50
102
RTVSPost2010PropOp46
 70
     1
102
RTVSPost2010Prop47
 90
       50
102
RTVSPost2010PropOp47
 70
     1
102
RTVSPost2010Prop48
 90
       50
102
RTVSPost2010PropOp48
 70
     1
102
RTVSPost2010Prop49
280
     0
102
RTVSPost2010PropOp49
 70
     1
102
RTVSPost2010Prop50
 90
       50
102
RTVSPost2010PropOp50
 70
     1
102
RTVSPost2010Prop51ColorIndex
 90
      256
102
RTVSPost2010Prop51ColorRGB
 90
-16777216
102
RTVSPost2010PropOp51
 70
     0
102
RTVSPost2010Prop52
140
1.0
102
RTVSPost2010PropOp52
 70
     0
102
RTVSPost2010Prop53
 90
        2
102
RTVSPost2010PropOp53
 70
     1
102
RTVSPost2010Prop54
  1
strokes_ogs.tif
102
RTVSPost2010PropOp54
 70
     1
102
RTVSPost2010Prop55
280
     0
102
RTVSPost2010PropOp55
 70
     1
102
RTVSPost2010Prop56
140
1.0
102
RTVSPost2010PropOp56
 70
     1
102
RTVSPost2010Prop57
140
1.0
102
RTVSPost2010PropOp57
 70
     1
102
RTVSPropertyOp0
 70
     1
102
RTVSPropertyOp1
 70
     1
102
RTVSPropertyOp2
 70
     1
102
RTVSPropertyOp3
 70
     1
102
RTVSPropertyOp4
 70
     1
102
RTVSPropertyOp5
 70
     1
102
RTVSPropertyOp6
 70
     1
102
RTVSPropertyOp7
 70
     1
102
RTVSPropertyOp8
 70
     1
102
RTVSPropertyOp9
 70
     1
102
RTVSPropertyOp10
 70
     1
102
RTVSPropertyOp11
 70
     1
102
RTVSPropertyOp12
 70
     1
102
RTVSPropertyOp13
 70
     1
102
RTVSPropertyOp14
 70
     1
102
RTVSPropertyOp15
 70
     1
102
RTVSPropertyOp16
 70
     1
102
RTVSPropertyOp17
 70
     1
102
RTVSPropertyOp18
 70
     1
102
RTVSPropertyOp19
 70
     1
102
RTVSPropertyOp20
 70
     1
102
RTVSPropertyOp21
 70
     1
102
RTVSPropertyOp22
 70
     1
102
RTVSPropertyOp23
 70
     1
102
RTVSPropertyOp24
 70
     1
102
RTVSPropertyOp25
 70
     1
102
RTVSPropertyOp26
 70
     1
102
RTVSPropertyOp27
 70
     1
102
RTVSPropertyOp28
 70
     1
102
RTVSPropertyOp29
 70
     1
102
RTVSPropertyOp30
 70
     1
102
RTVSPropertyOp31
 70
     1
102
RTVSPropertyOp32
 70
     1
102
RTVSPropertyOp33
 70
     1
102
RTVSPropertyOp34
 70
     1
102
RTVSPropertyOp35
 70
     1
102
RTVSPropertyOp36
 70
     1
102
RTVSPropertyOp37
 70
     1
102
RTVSPropertyOp38
 70
     1
102
RTVSPropertyOp39
 70
     1
102
RTVSPropertyOp40
 70
     1
102
RTVSPropertyOp41
 70
     1
102
RTVSPropertyOp42
 70
     1
102
RTVSPropertyOp43
 70
     1
102
RTVSPropertyOp44
 70
     1
102
RTVSPropertyOp45
 70
     1
102
RTVSPropertyOp46
 70
     1
102
RTVSPropertyOp47
 70
     1
102
RTVSPropertyOp48
 70
     1
102
RTVSPropertyOp49
 70
     1
102
RTVSPropertyOp50
 70
     1
102
RTVSPropertyOp51
 70
     0
102
RTVSPropertyOp52
 70
     0
102
RTVSPropertyOp53
 70
     1
102
RTVSPropertyOp54
 70
     1
102
RTVSPropertyOp55
 70
     1
102
RTVSPropertyOp56
 70
     1
102
RTVSPropertyOp57
 70
     1
102
RTVSPropertyOp58
 70
     1
102
RTVSPropertyOp59
 70
     1
102
RTVSPropertyOp60
 70
     1
102
RTVSPropertyOp61
 70
     1
102
RTVSPropertyOp62
 70
     1
  0
ENDSEC
  0
EOF
