  0
SECTION
  2
HEADER
  9
$ACADVER
  1
AC1015
  9
$ACADMAINTVER
 70
    20
  9
$DWGCODEPAGE
  3
ANSI_932
  9
$INSBASE
 10
0.0
 20
0.0
 30
0.0
  9
$EXTMIN
 10
10.0
 20
9.999999999999998
 30
0.0
  9
$EXTMAX
 10
490.2409999999998
 20
286.39
 30
0.0
  9
$LIMMIN
 10
0.0
 20
0.0
  9
$LIMMAX
 10
495.0
 20
341.25
  9
$ORTHOMODE
 70
     0
  9
$REGENMODE
 70
     1
  9
$FILLMODE
 70
     1
  9
$QTEXTMODE
 70
     0
  9
$MIRRTEXT
 70
     1
  9
$LTSCALE
 40
20.0
  9
$ATTMODE
 70
     1
  9
$TEXTSIZE
 40
5.0
  9
$TRACEWID
 40
1.0
  9
$TEXTSTYLE
  7
STANDARD
  9
$CLAYER
  8
0
  9
$CELTYPE
  6
BYLAYER
  9
$CECOLOR
 62
   256
  9
$CELTSCALE
 40
1.0
  9
$DISPSILH
 70
     0
  9
$DIMSCALE
 40
1.0
  9
$DIMASZ
 40
3.0
  9
$DIMEXO
 40
1.0
  9
$DIMDLI
 40
10.0
  9
$DIMRND
 40
0.0
  9
$DIMDLE
 40
0.0
  9
$DIMEXE
 40
1.0
  9
$DIMTP
 40
0.0
  9
$DIMTM
 40
0.0
  9
$DIMTXT
 40
3.2
  9
$DIMCEN
 40
0.0
  9
$DIMTSZ
 40
0.0
  9
$DIMTOL
 70
     0
  9
$DIMLIM
 70
     0
  9
$DIMTIH
 70
     0
  9
$DIMTOH
 70
     0
  9
$DIMSE1
 70
     0
  9
$DIMSE2
 70
     0
  9
$DIMTAD
 70
     3
  9
$DIMZIN
 70
     8
  9
$DIMBLK
  1

  9
$DIMASO
 70
     1
  9
$DIMSHO
 70
     1
  9
$DIMPOST
  1

  9
$DIMAPOST
  1

  9
$DIMALT
 70
     0
  9
$DIMALTD
 70
     2
  9
$DIMALTF
 40
25.4
  9
$DIMLFAC
 40
1.0
  9
$DIMTOFL
 70
     1
  9
$DIMTVP
 40
0.0
  9
$DIMTIX
 70
     0
  9
$DIMSOXD
 70
     0
  9
$DIMSAH
 70
     1
  9
$DIMBLK1
  1

  9
$DIMBLK2
  1

  9
$DIMSTYLE
  2
STANDARD
  9
$DIMCLRD
 70
     0
  9
$DIMCLRE
 70
     0
  9
$DIMCLRT
 70
     0
  9
$DIMTFAC
 40
1.0
  9
$DIMGAP
 40
1.0
  9
$DIMJUST
 70
     0
  9
$DIMSD1
 70
     0
  9
$DIMSD2
 70
     0
  9
$DIMTOLJ
 70
     1
  9
$DIMTZIN
 70
     0
  9
$DIMALTZ
 70
     0
  9
$DIMALTTZ
 70
     0
  9
$DIMUPT
 70
     0
  9
$DIMDEC
 70
     4
  9
$DIMTDEC
 70
     4
  9
$DIMALTU
 70
     2
  9
$DIMALTTD
 70
     2
  9
$DIMTXSTY
  7
STANDARD
  9
$DIMAUNIT
 70
     0
  9
$DIMADEC
 70
     0
  9
$DIMALTRND
 40
0.0
  9
$DIMAZIN
 70
     0
  9
$DIMDSEP
 70
    46
  9
$DIMATFIT
 70
     3
  9
$DIMFRAC
 70
     0
  9
$DIMLDRBLK
  1

  9
$DIMLUNIT
 70
     2
  9
$DIMLWD
 70
    -2
  9
$DIMLWE
 70
    -2
  9
$DIMTMOVE
 70
     0
  9
$LUNITS
 70
     2
  9
$LUPREC
 70
     4
  9
$SKETCHINC
 40
1.0
  9
$FILLETRAD
 40
0.0
  9
$AUNITS
 70
     0
  9
$AUPREC
 70
     2
  9
$MENU
  1
.
  9
$ELEVATION
 40
0.0
  9
$PELEVATION
 40
0.0
  9
$THICKNESS
 40
0.0
  9
$LIMCHECK
 70
     0
  9
$CHAMFERA
 40
10.0
  9
$CHAMFERB
 40
10.0
  9
$CHAMFERC
 40
0.0
  9
$CHAMFERD
 40
0.0
  9
$SKPOLY
 70
     0
  9
$TDCREATE
 40
2450737.661372801
  9
$TDUCREATE
 40
2450737.286372801
  9
$TDUPDATE
 40
2457192.640126169
  9
$TDUUPDATE
 40
2457192.265126169
  9
$TDINDWG
 40
0.0000152431
  9
$TDUSRTIMER
 40
0.0000149306
  9
$USRTIMER
 70
     1
  9
$ANGBASE
 50
0.0
  9
$ANGDIR
 70
     0
  9
$PDMODE
 70
     0
  9
$PDSIZE
 40
0.0
  9
$PLINEWID
 40
0.0
  9
$SPLFRAME
 70
     0
  9
$SPLINETYPE
 70
     6
  9
$SPLINESEGS
 70
     8
  9
$HANDSEED
  5
9C55
  9
$SURFTAB1
 70
     6
  9
$SURFTAB2
 70
     6
  9
$SURFTYPE
 70
     6
  9
$SURFU
 70
     6
  9
$SURFV
 70
     6
  9
$UCSBASE
  2

  9
$UCSNAME
  2

  9
$UCSORG
 10
0.0
 20
0.0
 30
0.0
  9
$UCSXDIR
 10
1.0
 20
0.0
 30
0.0
  9
$UCSYDIR
 10
0.0
 20
1.0
 30
0.0
  9
$UCSORTHOREF
  2

  9
$UCSORTHOVIEW
 70
     0
  9
$UCSORGTOP
 10
0.0
 20
0.0
 30
0.0
  9
$UCSORGBOTTOM
 10
0.0
 20
0.0
 30
0.0
  9
$UCSORGLEFT
 10
0.0
 20
0.0
 30
0.0
  9
$UCSORGRIGHT
 10
0.0
 20
0.0
 30
0.0
  9
$UCSORGFRONT
 10
0.0
 20
0.0
 30
0.0
  9
$UCSORGBACK
 10
0.0
 20
0.0
 30
0.0
  9
$PUCSBASE
  2

  9
$PUCSNAME
  2

  9
$PUCSORG
 10
0.0
 20
0.0
 30
0.0
  9
$PUCSXDIR
 10
1.0
 20
0.0
 30
0.0
  9
$PUCSYDIR
 10
0.0
 20
1.0
 30
0.0
  9
$PUCSORTHOREF
  2

  9
$PUCSORTHOVIEW
 70
     0
  9
$PUCSORGTOP
 10
0.0
 20
0.0
 30
0.0
  9
$PUCSORGBOTTOM
 10
0.0
 20
0.0
 30
0.0
  9
$PUCSORGLEFT
 10
0.0
 20
0.0
 30
0.0
  9
$PUCSORGRIGHT
 10
0.0
 20
0.0
 30
0.0
  9
$PUCSORGFRONT
 10
0.0
 20
0.0
 30
0.0
  9
$PUCSORGBACK
 10
0.0
 20
0.0
 30
0.0
  9
$USERI1
 70
     0
  9
$USERI2
 70
     0
  9
$USERI3
 70
     0
  9
$USERI4
 70
     0
  9
$USERI5
 70
     0
  9
$USERR1
 40
0.0
  9
$USERR2
 40
0.0
  9
$USERR3
 40
0.0
  9
$USERR4
 40
0.0
  9
$USERR5
 40
0.0
  9
$WORLDVIEW
 70
     1
  9
$SHADEDGE
 70
     3
  9
$SHADEDIF
 70
    70
  9
$TILEMODE
 70
     1
  9
$MAXACTVP
 70
    16
  9
$PINSBASE
 10
0.0
 20
0.0
 30
0.0
  9
$PLIMCHECK
 70
     0
  9
$PEXTMIN
 10
1.000000000000000E+20
 20
1.000000000000000E+20
 30
1.000000000000000E+20
  9
$PEXTMAX
 10
-1.000000000000000E+20
 20
-1.000000000000000E+20
 30
-1.000000000000000E+20
  9
$PLIMMIN
 10
0.0
 20
0.0
  9
$PLIMMAX
 10
420.0
 20
297.0
  9
$UNITMODE
 70
     0
  9
$VISRETAIN
 70
     0
  9
$PLINEGEN
 70
     0
  9
$PSLTSCALE
 70
     0
  9
$TREEDEPTH
 70
  3020
  9
$CMLSTYLE
  2
STANDARD
  9
$CMLJUST
 70
     0
  9
$CMLSCALE
 40
1.0
  9
$PROXYGRAPHICS
 70
     1
  9
$MEASUREMENT
 70
     0
  9
$CELWEIGHT
370
    -1
  9
$ENDCAPS
280
     0
  9
$JOINSTYLE
280
     0
  9
$LWDISPLAY
290
     0
  9
$INSUNITS
 70
     0
  9
$HYPERLINKBASE
  1

  9
$STYLESHEET
  1

  9
$XEDIT
290
     1
  9
$CEPSNTYPE
380
     0
  9
$PSTYLEMODE
290
     1
  9
$FINGERPRINTGUID
  2
{3C3D8FDC-EA66-43AB-94F9-0AB5C4AC02C8}
  9
$VERSIONGUID
  2
{371446C4-A397-4F21-A83E-F48CE1233DBA}
  9
$EXTNAMES
290
     1
  9
$PSVPSCALE
 40
0.0
  9
$OLESTARTUP
290
     0
  0
ENDSEC
  0
SECTION
  2
CLASSES
  0
CLASS
  1
ACDBDICTIONARYWDFLT
  2
AcDbDictionaryWithDefault
  3
ObjectDBX Classes
 90
        0
280
     0
281
     0
  0
CLASS
  1
ACDBPLACEHOLDER
  2
AcDbPlaceHolder
  3
ObjectDBX Classes
 90
        0
280
     0
281
     0
  0
CLASS
  1
LAYOUT
  2
AcDbLayout
  3
ObjectDBX Classes
 90
        0
280
     0
281
     0
  0
CLASS
  1
DICTIONARYVAR
  2
AcDbDictionaryVar
  3
ObjectDBX Classes
 90
        0
280
     0
281
     0
  0
CLASS
  1
MATERIAL
  2
AcDbMaterial
  3
ObjectDBX Classes
 90
     1153
280
     0
281
     0
  0
CLASS
  1
VISUALSTYLE
  2
AcDbVisualStyle
  3
ObjectDBX Classes
 90
     4095
280
     0
281
     0
  0
CLASS
  1
TABLESTYLE
  2
AcDbTableStyle
  3
ObjectDBX Classes
 90
     4095
280
     0
281
     0
  0
CLASS
  1
SCALE
  2
AcDbScale
  3
ObjectDBX Classes
 90
     1153
280
     0
281
     0
  0
CLASS
  1
MLEADERSTYLE
  2
AcDbMLeaderStyle
  3
ACDB_MLEADERSTYLE_CLASS
 90
     4095
280
     0
281
     0
  0
CLASS
  1
ACDBSECTIONVIEWSTYLE
  2
AcDbSectionViewStyle
  3
ObjectDBX Classes
 90
     1025
280
     0
281
     0
  0
CLASS
  1
ACDBDETAILVIEWSTYLE
  2
AcDbDetailViewStyle
  3
ObjectDBX Classes
 90
     1025
280
     0
281
     0
  0
CLASS
  1
CELLSTYLEMAP
  2
AcDbCellStyleMap
  3
ObjectDBX Classes
 90
     1152
280
     0
281
     0
  0
ENDSEC
  0
SECTION
  2
TABLES
  0
TABLE
  2
VPORT
  5
9947
330
0
100
AcDbSymbolTable
 70
     1
  0
VPORT
  5
9B9E
330
9947
100
AcDbSymbolTableRecord
100
AcDbViewportTableRecord
  2
*ACTIVE
 70
     0
 10
0.0
 20
0.0
 11
1.0
 21
1.0
 12
333.846386977763
 22
148.1955822045804
 13
0.0
 23
0.0
 14
10.0
 24
10.0
 15
10.0
 25
10.0
 16
0.0
 26
0.0
 36
1.0
 17
0.0
 27
0.0
 37
0.0
 40
279.5084356276882
 41
1.899603698811096
 42
50.0
 43
0.0
 44
0.0
 50
0.0
 51
0.0
 71
     0
 72
   100
 73
     1
 74
     0
 75
     0
 76
     0
 77
     0
 78
     0
281
     0
 65
     1
110
0.0
120
0.0
130
0.0
111
1.0
121
0.0
131
0.0
112
0.0
122
1.0
132
0.0
 79
     0
146
0.0
1001
ACAD_NAV_VCDISPLAY
1070
     3
  0
ENDTAB
  0
TABLE
  2
LTYPE
  5
9944
330
0
100
AcDbSymbolTable
 70
     4
  0
LTYPE
  5
9952
330
9944
100
AcDbSymbolTableRecord
100
AcDbLinetypeTableRecord
  2
BYBLOCK
 70
     0
  3

 72
    65
 73
     0
 40
0.0
  0
LTYPE
  5
9953
330
9944
100
AcDbSymbolTableRecord
100
AcDbLinetypeTableRecord
  2
BYLAYER
 70
     0
  3

 72
    65
 73
     0
 40
0.0
  0
LTYPE
  5
9954
330
9944
100
AcDbSymbolTableRecord
100
AcDbLinetypeTableRecord
  2
CONTINUOUS
 70
     0
  3
Solid line
 72
    65
 73
     0
 40
0.0
  0
LTYPE
  5
9962
330
9944
100
AcDbSymbolTableRecord
100
AcDbLinetypeTableRecord
  2
DASHED
 70
     0
  3
__ __ __ __ __ __ __ __ __ __ __ __ __ __ __ __
 72
    65
 73
     2
 40
0.75
 49
0.5
 74
     0
 49
-0.25
 74
     0
  0
LTYPE
  5
9963
330
9944
100
AcDbSymbolTableRecord
100
AcDbLinetypeTableRecord
  2
CENTER
 70
     0
  3
____ _ ____ _ ____ _ ____ _ ____ _ ____ _ ____ 
 72
    65
 73
     4
 40
2.0
 49
1.25
 74
     0
 49
-0.25
 74
     0
 49
0.25
 74
     0
 49
-0.25
 74
     0
  0
LTYPE
  5
9964
330
9944
100
AcDbSymbolTableRecord
100
AcDbLinetypeTableRecord
  2
PHANTOM
 70
     0
  3
______  __  __  ______  __  __  ______  __  __ 
 72
    65
 73
     6
 40
2.5
 49
1.25
 74
     0
 49
-0.25
 74
     0
 49
0.25
 74
     0
 49
-0.25
 74
     0
 49
0.25
 74
     0
 49
-0.25
 74
     0
  0
ENDTAB
  0
TABLE
  2
LAYER
  5
9941
330
0
100
AcDbSymbolTable
 70
     8
  0
LAYER
  5
994F
102
{ACAD_XDICTIONARY
360
9BF9
102
}
330
9941
100
AcDbSymbolTableRecord
100
AcDbLayerTableRecord
  2
0
 70
     0
 62
     7
  6
CONTINUOUS
370
    -3
390
9BA7
  0
LAYER
  5
9965
102
{ACAD_XDICTIONARY
360
9BFB
102
}
330
9941
100
AcDbSymbolTableRecord
100
AcDbLayerTableRecord
  2
4
 70
     0
 62
     1
  6
CENTER
370
    -3
390
9BA7
  0
LAYER
  5
9966
102
{ACAD_XDICTIONARY
360
9BFD
102
}
330
9941
100
AcDbSymbolTableRecord
100
AcDbLayerTableRecord
  2
5
 70
     0
 62
     6
  6
PHANTOM
370
    -3
390
9BA7
  0
LAYER
  5
9967
102
{ACAD_XDICTIONARY
360
9BFF
102
}
330
9941
100
AcDbSymbolTableRecord
100
AcDbLayerTableRecord
  2
1
 70
     0
 62
     7
  6
CONTINUOUS
370
    -3
390
9BA7
  0
LAYER
  5
9968
102
{ACAD_XDICTIONARY
360
9C01
102
}
330
9941
100
AcDbSymbolTableRecord
100
AcDbLayerTableRecord
  2
2
 70
     0
 62
     4
  6
CONTINUOUS
370
    -3
390
9BA7
  0
LAYER
  5
9969
102
{ACAD_XDICTIONARY
360
9C03
102
}
330
9941
100
AcDbSymbolTableRecord
100
AcDbLayerTableRecord
  2
3
 70
     0
 62
     2
  6
DASHED
370
    -3
390
9BA7
  0
LAYER
  5
996A
102
{ACAD_XDICTIONARY
360
9C05
102
}
330
9941
100
AcDbSymbolTableRecord
100
AcDbLayerTableRecord
  2
6
 70
     0
 62
     5
  6
CONTINUOUS
370
    -3
390
9BA7
  0
LAYER
  5
996B
102
{ACAD_XDICTIONARY
360
9C07
102
}
330
9941
100
AcDbSymbolTableRecord
100
AcDbLayerTableRecord
  2
7
 70
     0
 62
     3
  6
CONTINUOUS
370
    -3
390
9BA7
  0
ENDTAB
  0
TABLE
  2
STYLE
  5
9942
330
0
100
AcDbSymbolTable
 70
     1
  0
STYLE
  5
9950
330
9942
100
AcDbSymbolTableRecord
100
AcDbTextStyleTableRecord
  2
STANDARD
 70
     0
 40
0.0
 41
1.0
 50
0.0
 71
     0
 42
5.0
  3
txt
  4

  0
ENDTAB
  0
TABLE
  2
VIEW
  5
9945
330
0
100
AcDbSymbolTable
 70
     0
  0
ENDTAB
  0
TABLE
  2
UCS
  5
9946
330
0
100
AcDbSymbolTable
 70
     0
  0
ENDTAB
  0
TABLE
  2
APPID
  5
9948
330
0
100
AcDbSymbolTable
 70
     3
  0
APPID
  5
9951
330
9948
100
AcDbSymbolTableRecord
100
AcDbRegAppTableRecord
  2
ACAD
 70
     0
  0
APPID
  5
9C13
330
9948
100
AcDbSymbolTableRecord
100
AcDbRegAppTableRecord
  2
ACAD_NAV_VCDISPLAY
 70
     0
  0
APPID
  5
9C4C
330
9948
100
AcDbSymbolTableRecord
100
AcDbRegAppTableRecord
  2
ACAD_MLEADERVER
 70
     0
  0
ENDTAB
  0
TABLE
  2
DIMSTYLE
  5
9949
330
0
100
AcDbSymbolTable
 70
     1
100
AcDbDimStyleTable
 71
     0
  0
DIMSTYLE
105
996D
330
9949
100
AcDbSymbolTableRecord
100
AcDbDimStyleTableRecord
  2
STANDARD
 70
     0
 41
3.0
 42
1.0
 43
10.0
 44
1.0
 73
     0
 74
     0
 77
     3
 78
     8
140
3.2
141
0.0
147
1.0
172
     1
173
     1
284
     8
285
     8
286
     8
340
9950
  0
ENDTAB
  0
TABLE
  2
BLOCK_RECORD
  5
9940
330
0
100
AcDbSymbolTable
 70
     0
  0
BLOCK_RECORD
  5
995D
102
{ACAD_XDICTIONARY
360
9BA1
102
}
330
9940
100
AcDbSymbolTableRecord
100
AcDbBlockTableRecord
  2
*MODEL_SPACE
340
9BF5
  0
BLOCK_RECORD
  5
9959
102
{ACAD_XDICTIONARY
360
9B9F
102
}
330
9940
100
AcDbSymbolTableRecord
100
AcDbBlockTableRecord
  2
*PAPER_SPACE
340
9BF6
  0
ENDTAB
  0
ENDSEC
  0
SECTION
  2
BLOCKS
  0
BLOCK
  5
995E
330
995D
100
AcDbEntity
  8
0
100
AcDbBlockBegin
  2
*MODEL_SPACE
 70
     0
 10
0.0
 20
0.0
 30
0.0
  3
*MODEL_SPACE
  1

  0
ENDBLK
  5
995F
330
995D
100
AcDbEntity
  8
0
100
AcDbBlockEnd
  0
BLOCK
  5
995A
330
9959
100
AcDbEntity
 67
     1
  8
0
100
AcDbBlockBegin
  2
*PAPER_SPACE
 70
     0
 10
0.0
 20
0.0
 30
0.0
  3
*PAPER_SPACE
  1

  0
ENDBLK
  5
995B
330
9959
100
AcDbEntity
 67
     1
  8
0
100
AcDbBlockEnd
  0
ENDSEC
  0
SECTION
  2
ENTITIES
  0
TEXT
  5
9975
330
995D
100
AcDbEntity
  8
7
  6
Continuous
100
AcDbText
 10
10.0
 20
18.0
 30
0.0
 40
3.0
  1
TYPE No.THA-281-1
100
AcDbText
  0
TEXT
  5
9976
330
995D
100
AcDbEntity
  8
7
  6
Continuous
100
AcDbText
 10
10.0
 20
26.0
 30
0.0
 40
3.0
  1
CODE No.3220
100
AcDbText
  0
TEXT
  5
9977
330
995D
100
AcDbEntity
  8
1
  6
Continuous
100
AcDbText
 10
10.0
 20
10.0
 30
0.0
 40
1.399999999999999
  1
LAYER
100
AcDbText
  0
TEXT
  5
9978
330
995D
100
AcDbEntity
  8
1
  6
Continuous
100
AcDbText
 10
17.97951099999998
 20
10.04873699999998
 30
0.0
 40
1.399999999999999
  1
1
100
AcDbText
  0
TEXT
  5
9979
330
995D
100
AcDbEntity
  8
7
  6
Continuous
100
AcDbText
 10
29.97951099999999
 20
10.04873699999998
 30
0.0
 40
1.399999999999999
  1
7
100
AcDbText
  0
TEXT
  5
997A
330
995D
100
AcDbEntity
  8
4
  6
CENTER
100
AcDbText
 10
23.97951099999999
 20
10.04873699999998
 30
0.0
 40
1.399999999999999
  1
4
100
AcDbText
  0
TEXT
  5
997B
330
995D
100
AcDbEntity
  8
3
  6
DASHED
100
AcDbText
 10
21.979511
 20
10.04873699999998
 30
0.0
 40
1.399999999999999
  1
3
100
AcDbText
  0
TEXT
  5
997C
330
995D
100
AcDbEntity
  8
2
  6
Continuous
100
AcDbText
 10
19.97951099999999
 20
10.04873699999998
 30
0.0
 40
1.399999999999999
  1
2
100
AcDbText
  0
TEXT
  5
997D
330
995D
100
AcDbEntity
  8
6
  6
Continuous
100
AcDbText
 10
27.979511
 20
10.04873699999998
 30
0.0
 40
1.399999999999999
  1
6
100
AcDbText
  0
TEXT
  5
997E
330
995D
100
AcDbEntity
  8
5
  6
PHANTOM
100
AcDbText
 10
25.97951099999999
 20
10.04873699999998
 30
0.0
 40
1.399999999999999
  1
5
100
AcDbText
  0
LINE
  5
997F
330
995D
100
AcDbEntity
  8
4
  6
CENTER
100
AcDbLine
 10
109.3839999999999
 20
94.14480000000001
 30
0.0
 11
224.122
 21
94.14480000000001
 31
0.0
  0
LINE
  5
9980
330
995D
100
AcDbEntity
  8
4
  6
CENTER
100
AcDbLine
 10
174.335
 20
152.0149999999999
 30
0.0
 11
174.335
 21
35.5647
 31
0.0
  0
LINE
  5
9981
330
995D
100
AcDbEntity
  8
4
  6
CENTER
100
AcDbLine
 10
156.835
 20
146.9509999999999
 30
0.0
 11
156.835
 21
41.8977
 31
0.0
  0
LINE
  5
9982
330
995D
100
AcDbEntity
  8
1
  6
Continuous
100
AcDbLine
 10
146.335
 20
132.145
 30
0.0
 11
146.335
 21
56.1448
 31
0.0
  0
LINE
  5
9983
330
995D
100
AcDbEntity
  8
1
  6
Continuous
100
AcDbLine
 10
146.335
 20
56.1448
 30
0.0
 11
198.102
 21
56.1448
 31
0.0
  0
LINE
  5
9984
330
995D
100
AcDbEntity
  8
1
  6
Continuous
100
AcDbLine
 10
146.335
 20
132.145
 30
0.0
 11
198.102
 21
132.145
 31
0.0
  0
LINE
  5
9985
330
995D
100
AcDbEntity
  8
1
  6
Continuous
100
AcDbLine
 10
146.335
 20
98.6448
 30
0.0
 11
146.835
 21
98.6448
 31
0.0
  0
LINE
  5
9986
330
995D
100
AcDbEntity
  8
1
  6
Continuous
100
AcDbLine
 10
146.335
 20
89.6448
 30
0.0
 11
146.835
 21
89.6448
 31
0.0
  0
LINE
  5
9987
330
995D
100
AcDbEntity
  8
1
  6
Continuous
100
AcDbLine
 10
148.335
 20
132.145
 30
0.0
 11
148.335
 21
131.645
 31
0.0
  0
LINE
  5
9988
330
995D
100
AcDbEntity
  8
1
  6
Continuous
100
AcDbLine
 10
148.335
 20
56.6448
 30
0.0
 11
148.335
 21
56.1448
 31
0.0
  0
LINE
  5
9989
330
995D
100
AcDbEntity
  8
1
  6
Continuous
100
AcDbLine
 10
151.835
 20
132.145
 30
0.0
 11
151.835
 21
131.645
 31
0.0
  0
LINE
  5
998A
330
995D
100
AcDbEntity
  8
1
  6
Continuous
100
AcDbLine
 10
165.835
 20
132.145
 30
0.0
 11
165.835
 21
131.645
 31
0.0
  0
LINE
  5
998B
330
995D
100
AcDbEntity
  8
1
  6
Continuous
100
AcDbLine
 10
161.835
 20
132.145
 30
0.0
 11
161.835
 21
131.645
 31
0.0
  0
LINE
  5
998C
330
995D
100
AcDbEntity
  8
1
  6
Continuous
100
AcDbLine
 10
151.835
 20
56.6448
 30
0.0
 11
151.835
 21
56.1448
 31
0.0
  0
LINE
  5
998D
330
995D
100
AcDbEntity
  8
1
  6
Continuous
100
AcDbLine
 10
161.835
 20
56.6448
 30
0.0
 11
161.835
 21
56.1448
 31
0.0
  0
LINE
  5
998E
330
995D
100
AcDbEntity
  8
1
  6
Continuous
100
AcDbLine
 10
165.835
 20
56.6448
 30
0.0
 11
165.835
 21
56.1448
 31
0.0
  0
LINE
  5
998F
330
995D
100
AcDbEntity
  8
4
  6
CENTER
100
AcDbLine
 10
255.6579999999999
 20
94.14480000000001
 30
0.0
 11
303.6129999999999
 21
94.14480000000001
 31
0.0
  0
LINE
  5
9990
330
995D
100
AcDbEntity
  8
1
  6
Continuous
100
AcDbLine
 10
267.538
 20
140.145
 30
0.0
 11
267.538
 21
48.14479999999999
 31
0.0
  0
LINE
  5
9991
330
995D
100
AcDbEntity
  8
1
  6
Continuous
100
AcDbLine
 10
265.4879999999999
 20
48.14479999999999
 30
0.0
 11
267.538
 21
48.14479999999999
 31
0.0
  0
LINE
  5
9992
330
995D
100
AcDbEntity
  8
1
  6
Continuous
100
AcDbLine
 10
265.4879999999999
 20
140.145
 30
0.0
 11
267.538
 21
140.145
 31
0.0
  0
LINE
  5
9993
330
995D
100
AcDbEntity
  8
1
  6
Continuous
100
AcDbLine
 10
267.538
 20
134.645
 30
0.0
 11
276.3379999999999
 21
134.645
 31
0.0
  0
LINE
  5
9994
330
995D
100
AcDbEntity
  8
1
  6
Continuous
100
AcDbLine
 10
267.538
 20
53.6448
 30
0.0
 11
276.3379999999999
 21
53.6448
 31
0.0
  0
LINE
  5
9995
330
995D
100
AcDbEntity
  8
1
  6
Continuous
100
AcDbLine
 10
284.3379999999999
 20
126.645
 30
0.0
 11
284.3379999999999
 21
119.1449999999999
 31
0.0
  0
LINE
  5
9996
330
995D
100
AcDbEntity
  8
1
  6
Continuous
100
AcDbLine
 10
290.538
 20
103.7449999999999
 30
0.0
 11
294.538
 21
103.7449999999999
 31
0.0
  0
LINE
  5
9997
330
995D
100
AcDbEntity
  8
1
  6
Continuous
100
AcDbLine
 10
290.538
 20
84.54479999999998
 30
0.0
 11
294.538
 21
84.54479999999998
 31
0.0
  0
LINE
  5
9998
330
995D
100
AcDbEntity
  8
4
  6
CENTER
100
AcDbLine
 10
281.0249999999999
 20
124.1449999999999
 30
0.0
 11
299.923
 21
124.1449999999999
 31
0.0
  0
LINE
  5
9999
330
995D
100
AcDbEntity
  8
4
  6
CENTER
100
AcDbLine
 10
281.0249999999999
 20
64.14480000000001
 30
0.0
 11
298.8459999999999
 21
64.14480000000001
 31
0.0
  0
LINE
  5
999A
330
995D
100
AcDbEntity
  8
1
  6
Continuous
100
AcDbLine
 10
283.937
 20
59.1448
 30
0.0
 11
294.538
 21
59.1448
 31
0.0
  0
LINE
  5
999B
330
995D
100
AcDbEntity
  8
1
  6
Continuous
100
AcDbLine
 10
283.937
 20
129.145
 30
0.0
 11
294.538
 21
129.145
 31
0.0
  0
LINE
  5
999C
330
995D
100
AcDbEntity
  8
4
  6
CENTER
100
AcDbLine
 10
56.7771
 20
94.14480000000001
 30
0.0
 11
12.13287
 21
94.14480000000001
 31
0.0
  0
LINE
  5
999D
330
995D
100
AcDbEntity
  8
1
  6
Continuous
100
AcDbLine
 10
46.1329
 20
140.145
 30
0.0
 11
46.1329
 21
48.14479999999999
 31
0.0
  0
LINE
  5
999E
330
995D
100
AcDbEntity
  8
1
  6
Continuous
100
AcDbLine
 10
48.1829
 20
48.14479999999999
 30
0.0
 11
46.1329
 21
48.14479999999999
 31
0.0
  0
LINE
  5
999F
330
995D
100
AcDbEntity
  8
1
  6
Continuous
100
AcDbLine
 10
48.1829
 20
140.145
 30
0.0
 11
46.1329
 21
140.145
 31
0.0
  0
LINE
  5
99A0
330
995D
100
AcDbEntity
  8
1
  6
Continuous
100
AcDbLine
 10
38.1329
 20
132.145
 30
0.0
 11
38.1329
 21
98.6448
 31
0.0
  0
LINE
  5
99A1
330
995D
100
AcDbEntity
  8
1
  6
Continuous
100
AcDbLine
 10
38.1329
 20
89.6448
 30
0.0
 11
34.13289999999999
 21
89.6448
 31
0.0
  0
LINE
  5
99A2
330
995D
100
AcDbEntity
  8
1
  6
Continuous
100
AcDbLine
 10
38.1329
 20
98.6448
 30
0.0
 11
34.13289999999999
 21
98.6448
 31
0.0
  0
LINE
  5
99A3
330
995D
100
AcDbEntity
  8
1
  6
Continuous
100
AcDbLine
 10
46.1329
 20
56.1448
 30
0.0
 11
38.1329
 21
56.1448
 31
0.0
  0
LINE
  5
99A4
330
995D
100
AcDbEntity
  8
1
  6
Continuous
100
AcDbLine
 10
46.1329
 20
134.645
 30
0.0
 11
37.3329
 21
134.645
 31
0.0
  0
LINE
  5
99A5
330
995D
100
AcDbEntity
  8
1
  6
Continuous
100
AcDbLine
 10
46.1329
 20
53.6448
 30
0.0
 11
37.3329
 21
53.6448
 31
0.0
  0
LINE
  5
99A6
330
995D
100
AcDbEntity
  8
1
  6
Continuous
100
AcDbLine
 10
45.1329
 20
59.1448
 30
0.0
 11
38.1329
 21
59.1448
 31
0.0
  0
LINE
  5
99A7
330
995D
100
AcDbEntity
  8
1
  6
Continuous
100
AcDbLine
 10
45.1329
 20
129.145
 30
0.0
 11
38.1329
 21
129.145
 31
0.0
  0
LINE
  5
99A8
330
995D
100
AcDbEntity
  8
1
  6
Continuous
100
AcDbLine
 10
38.1329
 20
89.6448
 30
0.0
 11
38.1329
 21
56.1448
 31
0.0
  0
LINE
  5
99A9
330
995D
100
AcDbEntity
  8
1
  6
Continuous
100
AcDbLine
 10
45.1329
 20
58.14479999999999
 30
0.0
 11
45.1329
 21
56.1448
 31
0.0
  0
LINE
  5
99AA
330
995D
100
AcDbEntity
  8
1
  6
Continuous
100
AcDbLine
 10
45.1329
 20
132.145
 30
0.0
 11
45.1329
 21
130.145
 31
0.0
  0
LINE
  5
99AB
330
995D
100
AcDbEntity
  8
1
  6
Continuous
100
AcDbLine
 10
29.33289999999999
 20
101.245
 30
0.0
 11
19.13287
 21
101.245
 31
0.0
  0
LINE
  5
99AC
330
995D
100
AcDbEntity
  8
1
  6
Continuous
100
AcDbLine
 10
29.33289999999999
 20
87.04479999999998
 30
0.0
 11
19.13287
 21
87.04479999999998
 31
0.0
  0
LINE
  5
99AD
330
995D
100
AcDbEntity
  8
1
  6
Continuous
100
AcDbLine
 10
290.538
 20
119.1449999999999
 30
0.0
 11
290.538
 21
69.14480000000001
 31
0.0
  0
LINE
  5
99AE
330
995D
100
AcDbEntity
  8
4
  6
CENTER
100
AcDbLine
 10
275.5009999999999
 20
114.145
 30
0.0
 11
293.3609999999998
 21
114.145
 31
0.0
  0
LINE
  5
99AF
330
995D
100
AcDbEntity
  8
4
  6
CENTER
100
AcDbLine
 10
275.7039999999999
 20
74.14480000000001
 30
0.0
 11
293.3609999999998
 21
74.14480000000001
 31
0.0
  0
LINE
  5
99B0
330
995D
100
AcDbEntity
  8
1
  6
Continuous
100
AcDbLine
 10
210.835
 20
216.3969999999999
 30
0.0
 11
210.835
 21
218.995
 31
0.0
  0
LINE
  5
99B1
330
995D
100
AcDbEntity
  8
1
  6
Continuous
100
AcDbLine
 10
137.835
 20
216.3969999999999
 30
0.0
 11
137.835
 21
218.995
 31
0.0
  0
LINE
  5
99B2
330
995D
100
AcDbEntity
  8
4
  6
CENTER
100
AcDbLine
 10
174.335
 20
205.391
 30
0.0
 11
174.335
 21
254.5529999999998
 31
0.0
  0
LINE
  5
99B3
330
995D
100
AcDbEntity
  8
1
  6
Continuous
100
AcDbLine
 10
137.835
 20
218.995
 30
0.0
 11
210.835
 21
218.995
 31
0.0
  0
LINE
  5
99B4
330
995D
100
AcDbEntity
  8
1
  6
Continuous
100
AcDbLine
 10
122.835
 20
245.995
 30
0.0
 11
193.335
 21
245.995
 31
0.0
  0
LINE
  5
99B5
330
995D
100
AcDbEntity
  8
1
  6
Continuous
100
AcDbLine
 10
146.6289999999998
 20
235.7949999999999
 30
0.0
 11
187.3369999999999
 21
235.7949999999999
 31
0.0
  0
LINE
  5
99B6
330
995D
100
AcDbEntity
  8
4
  6
CENTER
100
AcDbLine
 10
156.835
 20
219.995
 30
0.0
 11
156.835
 21
229.9949999999999
 31
0.0
  0
LINE
  5
99B7
330
995D
100
AcDbEntity
  8
4
  6
CENTER
100
AcDbLine
 10
151.835
 20
224.995
 30
0.0
 11
161.835
 21
224.995
 31
0.0
  0
LINE
  5
99B8
330
995D
100
AcDbEntity
  8
1
  6
Continuous
100
AcDbLine
 10
146.8069999999999
 20
245.995
 30
0.0
 11
146.335
 21
218.995
 31
0.0
  0
LINE
  5
99B9
330
995D
100
AcDbEntity
  8
1
  6
Continuous
100
AcDbLine
 10
156.3349999999998
 20
235.7949999999999
 30
0.0
 11
156.3349999999998
 21
245.995
 31
0.0
  0
LINE
  5
99BA
330
995D
100
AcDbEntity
  8
1
  6
Continuous
100
AcDbLine
 10
183.835
 20
235.7949999999999
 30
0.0
 11
183.835
 21
245.995
 31
0.0
  0
LINE
  5
99BB
330
995D
100
AcDbEntity
  8
1
  6
Continuous
100
AcDbLine
 10
191.335
 20
241.995
 30
0.0
 11
191.335
 21
245.995
 31
0.0
  0
LINE
  5
99BC
330
995D
100
AcDbEntity
  8
4
  6
CENTER
100
AcDbLine
 10
151.335
 20
233.247
 30
0.0
 11
151.335
 21
251.2199999999999
 31
0.0
  0
LINE
  5
99BD
330
995D
100
AcDbEntity
  8
4
  6
CENTER
100
AcDbLine
 10
186.335
 20
232.697
 30
0.0
 11
186.335
 21
251.105
 31
0.0
  0
LINE
  5
99BE
330
995D
100
AcDbEntity
  8
4
  6
CENTER
100
AcDbLine
 10
195.335
 20
271.1399999999998
 30
0.0
 11
195.335
 21
286.39
 31
0.0
  0
LINE
  5
99BF
330
995D
100
AcDbEntity
  8
1
  6
Continuous
100
AcDbLine
 10
190.3369999999999
 20
241.995
 30
0.0
 11
198.3369999999999
 21
241.995
 31
0.0
  0
LINE
  5
99C0
330
995D
100
AcDbEntity
  8
1
  6
Continuous
100
AcDbLine
 10
146.835
 20
131.645
 30
0.0
 11
167.835
 21
131.645
 31
0.0
  0
LINE
  5
99C1
330
995D
100
AcDbEntity
  8
1
  6
Continuous
100
AcDbLine
 10
146.835
 20
131.645
 30
0.0
 11
146.835
 21
56.6448
 31
0.0
  0
LINE
  5
99C2
330
995D
100
AcDbEntity
  8
1
  6
Continuous
100
AcDbLine
 10
170.835
 20
128.645
 30
0.0
 11
170.835
 21
118.151
 31
0.0
  0
LINE
  5
99C3
330
995D
100
AcDbEntity
  8
1
  6
Continuous
100
AcDbLine
 10
146.835
 20
56.6448
 30
0.0
 11
196.6319999999998
 21
56.6448
 31
0.0
  0
LINE
  5
99C4
330
995D
100
AcDbEntity
  8
1
  6
Continuous
100
AcDbLine
 10
34.13289999999999
 20
98.14480000000001
 30
0.0
 11
46.1328
 21
98.14480000000001
 31
0.0
  0
LINE
  5
99C5
330
995D
100
AcDbEntity
  8
1
  6
Continuous
100
AcDbLine
 10
34.13289999999999
 20
90.1448
 30
0.0
 11
46.1328
 21
90.1448
 31
0.0
  0
LINE
  5
99C6
330
995D
100
AcDbEntity
  8
1
  6
Continuous
100
AcDbLine
 10
37.13280000000001
 20
98.6448
 30
0.0
 11
37.13280000000001
 21
98.14480000000001
 31
0.0
  0
LINE
  5
99C7
330
995D
100
AcDbEntity
  8
1
  6
Continuous
100
AcDbLine
 10
37.13280000000001
 20
90.1448
 30
0.0
 11
37.13280000000001
 21
89.6448
 31
0.0
  0
LINE
  5
99C8
330
995D
100
AcDbEntity
  8
4
  6
CENTER
100
AcDbLine
 10
181.3349999999998
 20
66.1448
 30
0.0
 11
161.335
 21
66.1448
 31
0.0
  0
LINE
  5
99C9
330
995D
100
AcDbEntity
  8
4
  6
CENTER
100
AcDbLine
 10
171.335
 20
76.1448
 30
0.0
 11
171.335
 21
56.1448
 31
0.0
  0
LINE
  5
99CA
330
995D
100
AcDbEntity
  8
5
  6
PHANTOM
100
AcDbLine
 10
144.3149999999999
 20
225.5009999999999
 30
0.0
 11
146.4949999999998
 21
228.1579999999999
 31
0.0
  0
LINE
  5
99CB
330
995D
100
AcDbEntity
  8
5
  6
PHANTOM
100
AcDbLine
 10
145.2989999999998
 20
226.6999999999999
 30
0.0
 11
146.453
 21
225.753
 31
0.0
  0
LINE
  5
99CC
330
995D
100
AcDbEntity
  8
5
  6
PHANTOM
100
AcDbLine
 10
170.8079999999999
 20
205.7649999999999
 30
0.0
 11
177.1519999999999
 21
213.4949999999999
 31
0.0
  0
LINE
  5
99CD
330
995D
100
AcDbEntity
  8
1
  6
Continuous
100
AcDbLine
 10
32.1329
 20
134.145
 30
0.0
 11
17.13287
 21
134.145
 31
0.0
  0
LINE
  5
99CE
330
995D
100
AcDbEntity
  8
1
  6
Continuous
100
AcDbLine
 10
120.835
 20
134.145
 30
0.0
 11
120.835
 21
54.1448
 31
0.0
  0
LINE
  5
99CF
330
995D
100
AcDbEntity
  8
1
  6
Continuous
100
AcDbLine
 10
32.1329
 20
54.1448
 30
0.0
 11
17.13287
 21
54.1448
 31
0.0
  0
LINE
  5
99D0
330
995D
100
AcDbEntity
  8
1
  6
Continuous
100
AcDbLine
 10
34.13289999999999
 20
132.145
 30
0.0
 11
34.13289999999999
 21
56.1448
 31
0.0
  0
LINE
  5
99D1
330
995D
100
AcDbEntity
  8
1
  6
Continuous
100
AcDbLine
 10
17.13287
 20
134.145
 30
0.0
 11
17.13287
 21
54.1448
 31
0.0
  0
LINE
  5
99D2
330
995D
100
AcDbEntity
  8
1
  6
Continuous
100
AcDbLine
 10
120.835
 20
54.1448
 30
0.0
 11
139.423
 21
54.1448
 31
0.0
  0
LINE
  5
99D3
330
995D
100
AcDbEntity
  8
1
  6
Continuous
100
AcDbLine
 10
120.835
 20
134.145
 30
0.0
 11
139.423
 21
134.145
 31
0.0
  0
LINE
  5
99D4
330
995D
100
AcDbEntity
  8
1
  6
Continuous
100
AcDbLine
 10
122.835
 20
134.145
 30
0.0
 11
122.835
 21
54.1448
 31
0.0
  0
LINE
  5
99D5
330
995D
100
AcDbEntity
  8
1
  6
Continuous
100
AcDbLine
 10
124.835
 20
127.645
 30
0.0
 11
124.835
 21
120.645
 31
0.0
  0
LINE
  5
99D6
330
995D
100
AcDbEntity
  8
4
  6
CENTER
100
AcDbLine
 10
117.5589999999999
 20
64.14480000000001
 30
0.0
 11
129.1229999999999
 21
64.14480000000001
 31
0.0
  0
LINE
  5
99D7
330
995D
100
AcDbEntity
  8
4
  6
CENTER
100
AcDbLine
 10
117.5589999999999
 20
124.1449999999999
 30
0.0
 11
129.298
 21
124.1449999999999
 31
0.0
  0
LINE
  5
99D8
330
995D
100
AcDbEntity
  8
1
  6
Continuous
100
AcDbLine
 10
124.835
 20
67.6448
 30
0.0
 11
124.835
 21
60.64479999999999
 31
0.0
  0
LINE
  5
99D9
330
995D
100
AcDbEntity
  8
1
  6
Continuous
100
AcDbLine
 10
29.33289999999999
 20
101.3449999999999
 30
0.0
 11
17.13287
 21
101.3449999999999
 31
0.0
  0
LINE
  5
99DA
330
995D
100
AcDbEntity
  8
1
  6
Continuous
100
AcDbLine
 10
29.33289999999999
 20
86.9448
 30
0.0
 11
17.13287
 21
86.9448
 31
0.0
  0
LINE
  5
99DB
330
995D
100
AcDbEntity
  8
1
  6
Continuous
100
AcDbLine
 10
19.13287
 20
101.3449999999999
 30
0.0
 11
19.13287
 21
86.9448
 31
0.0
  0
LINE
  5
99DC
330
995D
100
AcDbEntity
  8
1
  6
Continuous
100
AcDbLine
 10
29.33289999999999
 20
101.3449999999999
 30
0.0
 11
29.33289999999999
 21
86.9448
 31
0.0
  0
LINE
  5
99DD
330
995D
100
AcDbEntity
  8
4
  6
CENTER
100
AcDbLine
 10
27.1329
 20
68.1448
 30
0.0
 11
27.1329
 21
60.14479999999998
 31
0.0
  0
LINE
  5
99DE
330
995D
100
AcDbEntity
  8
4
  6
CENTER
100
AcDbLine
 10
13.845
 20
64.14480000000001
 30
0.0
 11
32.066
 21
64.14480000000001
 31
0.0
  0
LINE
  5
99DF
330
995D
100
AcDbEntity
  8
4
  6
CENTER
100
AcDbLine
 10
27.1329
 20
128.145
 30
0.0
 11
27.1329
 21
120.1449999999999
 31
0.0
  0
LINE
  5
99E0
330
995D
100
AcDbEntity
  8
4
  6
CENTER
100
AcDbLine
 10
13.65088
 20
124.1449999999999
 30
0.0
 11
32.20280000000001
 21
124.1449999999999
 31
0.0
  0
LINE
  5
99E1
330
995D
100
AcDbEntity
  8
1
  6
Continuous
100
AcDbLine
 10
120.835
 20
230.995
 30
0.0
 11
120.835
 21
245.995
 31
0.0
  0
LINE
  5
99E2
330
995D
100
AcDbEntity
  8
1
  6
Continuous
100
AcDbLine
 10
156.235
 20
245.995
 30
0.0
 11
156.235
 21
247.995
 31
0.0
  0
LINE
  5
99E3
330
995D
100
AcDbEntity
  8
1
  6
Continuous
100
AcDbLine
 10
120.835
 20
230.995
 30
0.0
 11
122.835
 21
230.995
 31
0.0
  0
LINE
  5
99E4
330
995D
100
AcDbEntity
  8
1
  6
Continuous
100
AcDbLine
 10
122.835
 20
247.995
 30
0.0
 11
193.335
 21
247.995
 31
0.0
  0
LINE
  5
99E5
330
995D
100
AcDbEntity
  8
1
  6
Continuous
100
AcDbLine
 10
122.835
 20
230.995
 30
0.0
 11
122.835
 21
245.995
 31
0.0
  0
LINE
  5
99E6
330
995D
100
AcDbEntity
  8
1
  6
Continuous
100
AcDbLine
 10
193.335
 20
245.995
 30
0.0
 11
193.335
 21
247.995
 31
0.0
  0
LINE
  5
99E7
330
995D
100
AcDbEntity
  8
1
  6
Continuous
100
AcDbLine
 10
124.835
 20
234.495
 30
0.0
 11
124.835
 21
241.495
 31
0.0
  0
LINE
  5
99E8
330
995D
100
AcDbEntity
  8
4
  6
CENTER
100
AcDbLine
 10
117.955
 20
237.995
 30
0.0
 11
128.687
 21
237.995
 31
0.0
  0
LINE
  5
99E9
330
995D
100
AcDbEntity
  8
1
  6
Continuous
100
AcDbLine
 10
123.835
 20
127.645
 30
0.0
 11
124.835
 21
127.645
 31
0.0
  0
LINE
  5
99EA
330
995D
100
AcDbEntity
  8
1
  6
Continuous
100
AcDbLine
 10
123.835
 20
120.645
 30
0.0
 11
124.835
 21
120.645
 31
0.0
  0
LINE
  5
99EB
330
995D
100
AcDbEntity
  8
1
  6
Continuous
100
AcDbLine
 10
281.538
 20
134.145
 30
0.0
 11
296.538
 21
134.145
 31
0.0
  0
LINE
  5
99EC
330
995D
100
AcDbEntity
  8
1
  6
Continuous
100
AcDbLine
 10
281.538
 20
54.1448
 30
0.0
 11
296.538
 21
54.1448
 31
0.0
  0
LINE
  5
99ED
330
995D
100
AcDbEntity
  8
1
  6
Continuous
100
AcDbLine
 10
296.538
 20
134.145
 30
0.0
 11
296.538
 21
54.1448
 31
0.0
  0
LINE
  5
99EE
330
995D
100
AcDbEntity
  8
1
  6
Continuous
100
AcDbLine
 10
294.538
 20
134.145
 30
0.0
 11
294.538
 21
54.1448
 31
0.0
  0
LINE
  5
99EF
330
995D
100
AcDbEntity
  8
1
  6
Continuous
100
AcDbLine
 10
110.8349999999998
 20
100.1449999999999
 30
0.0
 11
110.8349999999998
 21
88.14480000000001
 31
0.0
  0
LINE
  5
99F0
330
995D
100
AcDbEntity
  8
5
  6
PHANTOM
100
AcDbLine
 10
121.741
 20
235.9949999999999
 30
0.0
 11
124.835
 21
235.9949999999999
 31
0.0
  0
LINE
  5
99F1
330
995D
100
AcDbEntity
  8
1
  6
Continuous
100
AcDbLine
 10
111.8349999999998
 20
101.1449999999999
 30
0.0
 11
120.835
 21
101.1449999999999
 31
0.0
  0
LINE
  5
99F2
330
995D
100
AcDbEntity
  8
1
  6
Continuous
100
AcDbLine
 10
111.8349999999998
 20
87.1448
 30
0.0
 11
120.835
 21
87.1448
 31
0.0
  0
LINE
  5
99F3
330
995D
100
AcDbEntity
  8
1
  6
Continuous
100
AcDbLine
 10
20.1329
 20
101.1449999999999
 30
0.0
 11
28.1329
 21
101.1449999999999
 31
0.0
  0
LINE
  5
99F4
330
995D
100
AcDbEntity
  8
1
  6
Continuous
100
AcDbLine
 10
20.1329
 20
87.1448
 30
0.0
 11
28.1329
 21
87.1448
 31
0.0
  0
LINE
  5
99F5
330
995D
100
AcDbEntity
  8
1
  6
Continuous
100
AcDbLine
 10
29.13289999999999
 20
100.1449999999999
 30
0.0
 11
29.13289999999999
 21
88.14480000000001
 31
0.0
  0
LINE
  5
99F6
330
995D
100
AcDbEntity
  8
1
  6
Continuous
100
AcDbLine
 10
210.2209999999999
 20
119.1449999999999
 30
0.0
 11
211.899
 21
119.1449999999999
 31
0.0
  0
LINE
  5
99F7
330
995D
100
AcDbEntity
  8
1
  6
Continuous
100
AcDbLine
 10
210.2209999999999
 20
69.14480000000001
 30
0.0
 11
211.899
 21
69.14480000000001
 31
0.0
  0
LINE
  5
99F8
330
995D
100
AcDbEntity
  8
1
  6
Continuous
100
AcDbLine
 10
207.899
 20
252.9949999999999
 30
0.0
 11
213.899
 21
252.9949999999999
 31
0.0
  0
LINE
  5
99F9
330
995D
100
AcDbEntity
  8
1
  6
Continuous
100
AcDbLine
 10
188.335
 20
275.495
 30
0.0
 11
200.335
 21
275.495
 31
0.0
  0
LINE
  5
99FA
330
995D
100
AcDbEntity
  8
1
  6
Continuous
100
AcDbLine
 10
188.335
 20
277.495
 30
0.0
 11
200.335
 21
277.495
 31
0.0
  0
LINE
  5
99FB
330
995D
100
AcDbEntity
  8
1
  6
Continuous
100
AcDbLine
 10
207.899
 20
254.9949999999999
 30
0.0
 11
213.899
 21
254.9949999999999
 31
0.0
  0
LINE
  5
99FC
330
995D
100
AcDbEntity
  8
1
  6
Continuous
100
AcDbLine
 10
188.335
 20
275.495
 30
0.0
 11
188.335
 21
277.495
 31
0.0
  0
LINE
  5
99FD
330
995D
100
AcDbEntity
  8
1
  6
Continuous
100
AcDbLine
 10
200.335
 20
275.495
 30
0.0
 11
205.967
 21
254.477
 31
0.0
  0
LINE
  5
99FE
330
995D
100
AcDbEntity
  8
1
  6
Continuous
100
AcDbLine
 10
202.267
 20
276.012
 30
0.0
 11
207.899
 21
254.9949999999999
 31
0.0
  0
LINE
  5
99FF
330
995D
100
AcDbEntity
  8
1
  6
Continuous
100
AcDbLine
 10
213.899
 20
252.9949999999999
 30
0.0
 11
213.899
 21
254.9949999999999
 31
0.0
  0
LINE
  5
9A00
330
995D
100
AcDbEntity
  8
1
  6
Continuous
100
AcDbLine
 10
405.7409999999999
 20
119.1449999999999
 30
0.0
 11
384.1769999999998
 21
119.1449999999999
 31
0.0
  0
LINE
  5
9A01
330
995D
100
AcDbEntity
  8
1
  6
Continuous
100
AcDbLine
 10
407.7409999999998
 20
117.1449999999999
 30
0.0
 11
407.7409999999998
 21
102.044
 31
0.0
  0
LINE
  5
9A02
330
995D
100
AcDbEntity
  8
1
  6
Continuous
100
AcDbLine
 10
405.7409999999999
 20
69.14480000000001
 30
0.0
 11
384.1769999999998
 21
69.14480000000001
 31
0.0
  0
LINE
  5
9A03
330
995D
100
AcDbEntity
  8
1
  6
Continuous
100
AcDbLine
 10
382.1769999999999
 20
117.1449999999999
 30
0.0
 11
382.1769999999999
 21
71.1448
 31
0.0
  0
LINE
  5
9A04
330
995D
100
AcDbEntity
  8
1
  6
Continuous
100
AcDbLine
 10
407.7409999999998
 20
86.2453
 30
0.0
 11
407.7409999999998
 21
71.1448
 31
0.0
  0
LINE
  5
9A05
330
995D
100
AcDbEntity
  8
1
  6
Continuous
100
AcDbLine
 10
388.1769999999999
 20
119.1449999999999
 30
0.0
 11
388.1769999999999
 21
69.14480000000001
 31
0.0
  0
LINE
  5
9A06
330
995D
100
AcDbEntity
  8
1
  6
Continuous
100
AcDbLine
 10
394.2059999999998
 20
71.14870000000002
 30
0.0
 11
394.2059999999998
 21
117.382
 31
0.0
  0
LINE
  5
9A07
330
995D
100
AcDbEntity
  8
1
  6
Continuous
100
AcDbLine
 10
282.3389999999998
 20
69.14480000000001
 30
0.0
 11
294.538
 21
69.14480000000001
 31
0.0
  0
LINE
  5
9A08
330
995D
100
AcDbEntity
  8
1
  6
Continuous
100
AcDbLine
 10
282.3389999999998
 20
119.1449999999999
 30
0.0
 11
294.538
 21
119.1449999999999
 31
0.0
  0
LINE
  5
9A09
330
995D
100
AcDbEntity
  8
1
  6
Continuous
100
AcDbLine
 10
282.3389999999998
 20
109.145
 30
0.0
 11
290.538
 21
109.145
 31
0.0
  0
LINE
  5
9A0A
330
995D
100
AcDbEntity
  8
1
  6
Continuous
100
AcDbLine
 10
282.3389999999998
 20
79.14480000000001
 30
0.0
 11
290.538
 21
79.14480000000001
 31
0.0
  0
LINE
  5
9A0B
330
995D
100
AcDbEntity
  8
1
  6
Continuous
100
AcDbLine
 10
123.835
 20
241.495
 30
0.0
 11
124.835
 21
241.495
 31
0.0
  0
LINE
  5
9A0C
330
995D
100
AcDbEntity
  8
1
  6
Continuous
100
AcDbLine
 10
123.835
 20
234.495
 30
0.0
 11
124.835
 21
234.495
 31
0.0
  0
LINE
  5
9A0D
330
995D
100
AcDbEntity
  8
1
  6
Continuous
100
AcDbLine
 10
123.835
 20
60.64479999999999
 30
0.0
 11
124.835
 21
60.64479999999999
 31
0.0
  0
LINE
  5
9A0E
330
995D
100
AcDbEntity
  8
1
  6
Continuous
100
AcDbLine
 10
123.835
 20
67.6448
 30
0.0
 11
124.835
 21
67.6448
 31
0.0
  0
LINE
  5
9A0F
330
995D
100
AcDbEntity
  8
1
  6
Continuous
100
AcDbLine
 10
172.3849999999999
 20
61.0448
 30
0.0
 11
172.3849999999999
 21
70.6448
 31
0.0
  0
LINE
  5
9A10
330
995D
100
AcDbEntity
  8
1
  6
Continuous
100
AcDbLine
 10
170.2849999999999
 20
70.6448
 30
0.0
 11
172.3849999999999
 21
70.6448
 31
0.0
  0
LINE
  5
9A11
330
995D
100
AcDbEntity
  8
1
  6
Continuous
100
AcDbLine
 10
170.2849999999999
 20
61.0448
 30
0.0
 11
170.2849999999999
 21
70.6448
 31
0.0
  0
LINE
  5
9A12
330
995D
100
AcDbEntity
  8
1
  6
Continuous
100
AcDbLine
 10
170.2849999999999
 20
61.0448
 30
0.0
 11
172.3849999999999
 21
61.0448
 31
0.0
  0
LINE
  5
9A13
330
995D
100
AcDbEntity
  8
1
  6
Continuous
100
AcDbLine
 10
21.009142
 20
239.1229689999999
 30
0.0
 11
21.009142
 21
232.802969
 31
0.0
  0
LINE
  5
9A14
330
995D
100
AcDbEntity
  8
1
  6
Continuous
100
AcDbLine
 10
29.240542
 20
225.962969
 30
0.0
 11
26.50154199999999
 21
225.962969
 31
0.0
  0
LINE
  5
9A15
330
995D
100
AcDbEntity
  8
1
  6
Continuous
100
AcDbLine
 10
29.240542
 20
245.9629689999999
 30
0.0
 11
26.50154199999999
 21
245.9629689999999
 31
0.0
  0
LINE
  5
9A16
330
995D
100
AcDbEntity
  8
1
  6
Continuous
100
AcDbLine
 10
21.216542
 20
239.7319689999999
 30
0.0
 11
25.708942
 21
245.571969
 31
0.0
  0
LINE
  5
9A17
330
995D
100
AcDbEntity
  8
1
  6
Continuous
100
AcDbLine
 10
29.741642
 20
245.8279689999999
 30
0.0
 11
39.00914199999998
 21
240.4629689999999
 31
0.0
  0
LINE
  5
9A18
330
995D
100
AcDbEntity
  8
1
  6
Continuous
100
AcDbLine
 10
29.741642
 20
226.096969
 30
0.0
 11
39.00914199999998
 21
231.4629689999999
 31
0.0
  0
LINE
  5
9A19
330
995D
100
AcDbEntity
  8
1
  6
Continuous
100
AcDbLine
 10
39.00914199999998
 20
240.4629689999999
 30
0.0
 11
43.509142
 21
240.4629689999999
 31
0.0
  0
LINE
  5
9A1A
330
995D
100
AcDbEntity
  8
1
  6
Continuous
100
AcDbLine
 10
39.00914199999998
 20
231.4629689999999
 30
0.0
 11
43.509142
 21
231.4629689999999
 31
0.0
  0
LINE
  5
9A1B
330
995D
100
AcDbEntity
  8
1
  6
Continuous
100
AcDbLine
 10
44.00914199999998
 20
238.962969
 30
0.0
 11
52.423442
 21
238.962969
 31
0.0
  0
LINE
  5
9A1C
330
995D
100
AcDbEntity
  8
1
  6
Continuous
100
AcDbLine
 10
44.00914199999998
 20
232.9629689999999
 30
0.0
 11
52.423442
 21
232.9629689999999
 31
0.0
  0
LINE
  5
9A1D
330
995D
100
AcDbEntity
  8
1
  6
Continuous
100
AcDbLine
 10
44.00914199999998
 20
231.9629689999999
 30
0.0
 11
44.00914199999998
 21
232.9629689999999
 31
0.0
  0
LINE
  5
9A1E
330
995D
100
AcDbEntity
  8
1
  6
Continuous
100
AcDbLine
 10
44.00914199999998
 20
239.9629689999999
 30
0.0
 11
44.00914199999998
 21
238.962969
 31
0.0
  0
LINE
  5
9A1F
330
995D
100
AcDbEntity
  8
1
  6
Continuous
100
AcDbLine
 10
52.423442
 20
232.9629689999999
 30
0.0
 11
54.716242
 21
235.255969
 31
0.0
  0
LINE
  5
9A20
330
995D
100
AcDbEntity
  8
1
  6
Continuous
100
AcDbLine
 10
52.423442
 20
238.962969
 30
0.0
 11
54.716242
 21
236.6699689999999
 31
0.0
  0
LINE
  5
9A21
330
995D
100
AcDbEntity
  8
1
  6
Continuous
100
AcDbLine
 10
23.009142
 20
238.462969
 30
0.0
 11
23.009142
 21
233.4629689999999
 31
0.0
  0
LINE
  5
9A22
330
995D
100
AcDbEntity
  8
1
  6
Continuous
100
AcDbLine
 10
25.509142
 20
238.462969
 30
0.0
 11
25.509142
 21
233.4629689999999
 31
0.0
  0
LINE
  5
9A23
330
995D
100
AcDbEntity
  8
1
  6
Continuous
100
AcDbLine
 10
25.009142
 20
238.962969
 30
0.0
 11
23.509142
 21
238.962969
 31
0.0
  0
LINE
  5
9A24
330
995D
100
AcDbEntity
  8
1
  6
Continuous
100
AcDbLine
 10
28.850742
 20
230.8469689999999
 30
0.0
 11
32.243142
 21
230.8469689999999
 31
0.0
  0
LINE
  5
9A25
330
995D
100
AcDbEntity
  8
1
  6
Continuous
100
AcDbLine
 10
32.46114199999999
 20
231.6339689999999
 30
0.0
 11
29.557242
 21
231.6339689999999
 31
0.0
  0
LINE
  5
9A26
330
995D
100
AcDbEntity
  8
1
  6
Continuous
100
AcDbLine
 10
29.06814199999999
 20
232.4209689999999
 30
0.0
 11
32.95024199999998
 21
232.4209689999999
 31
0.0
  0
LINE
  5
9A27
330
995D
100
AcDbEntity
  8
1
  6
Continuous
100
AcDbLine
 10
30.064842
 20
233.994969
 30
0.0
 11
28.56174199999999
 21
233.994969
 31
0.0
  0
LINE
  5
9A28
330
995D
100
AcDbEntity
  8
1
  6
Continuous
100
AcDbLine
 10
28.96444199999999
 20
233.207969
 30
0.0
 11
33.05384199999998
 21
233.207969
 31
0.0
  0
LINE
  5
9A29
330
995D
100
AcDbEntity
  8
1
  6
Continuous
100
AcDbLine
 10
33.45664199999998
 20
233.994969
 30
0.0
 11
31.953542
 21
233.994969
 31
0.0
  0
LINE
  5
9A2A
330
995D
100
AcDbEntity
  8
1
  6
Continuous
100
AcDbLine
 10
28.329442
 20
234.781969
 30
0.0
 11
33.688842
 21
234.781969
 31
0.0
  0
LINE
  5
9A2B
330
995D
100
AcDbEntity
  8
1
  6
Continuous
100
AcDbLine
 10
28.263042
 20
235.5689689999999
 30
0.0
 11
33.755342
 21
235.5689689999999
 31
0.0
  0
LINE
  5
9A2C
330
995D
100
AcDbEntity
  8
1
  6
Continuous
100
AcDbLine
 10
31.009142
 20
235.5689689999999
 30
0.0
 11
31.009142
 21
234.781969
 31
0.0
  0
LINE
  5
9A2D
330
995D
100
AcDbEntity
  8
1
  6
Continuous
100
AcDbLine
 10
28.263042
 20
236.3559689999999
 30
0.0
 11
33.755342
 21
236.3559689999999
 31
0.0
  0
LINE
  5
9A2E
330
995D
100
AcDbEntity
  8
1
  6
Continuous
100
AcDbLine
 10
30.064842
 20
237.9299689999998
 30
0.0
 11
28.78744199999999
 21
237.9299689999998
 31
0.0
  0
LINE
  5
9A2F
330
995D
100
AcDbEntity
  8
1
  6
Continuous
100
AcDbLine
 10
28.41924199999999
 20
237.1429689999999
 30
0.0
 11
33.599142
 21
237.1429689999999
 31
0.0
  0
LINE
  5
9A30
330
995D
100
AcDbEntity
  8
1
  6
Continuous
100
AcDbLine
 10
33.23094199999999
 20
237.9299689999998
 30
0.0
 11
31.009142
 21
237.9299689999998
 31
0.0
  0
LINE
  5
9A31
330
995D
100
AcDbEntity
  8
1
  6
Continuous
100
AcDbLine
 10
31.009142
 20
237.9299689999998
 30
0.0
 11
31.009142
 21
237.5369689999998
 31
0.0
  0
LINE
  5
9A32
330
995D
100
AcDbEntity
  8
1
  6
Continuous
100
AcDbLine
 10
28.422242
 20
238.7169689999999
 30
0.0
 11
33.349342
 21
238.7169689999999
 31
0.0
  0
LINE
  5
9A33
330
995D
100
AcDbEntity
  8
1
  6
Continuous
100
AcDbLine
 10
28.79304199999999
 20
239.5039689999999
 30
0.0
 11
30.61574199999999
 21
239.5039689999999
 31
0.0
  0
LINE
  5
9A34
330
995D
100
AcDbEntity
  8
1
  6
Continuous
100
AcDbLine
 10
30.61574199999999
 20
240.2909689999999
 30
0.0
 11
28.93444199999999
 21
240.2909689999999
 31
0.0
  0
LINE
  5
9A35
330
995D
100
AcDbEntity
  8
1
  6
Continuous
100
AcDbLine
 10
31.009142
 20
239.8979689999999
 30
0.0
 11
32.89684199999999
 21
239.8979689999999
 31
0.0
  0
LINE
  5
9A36
330
995D
100
AcDbEntity
  8
1
  6
Continuous
100
AcDbLine
 10
32.481842
 20
240.691969
 30
0.0
 11
29.164042
 21
241.5809689999999
 31
0.0
  0
LINE
  5
9A37
330
995D
100
AcDbEntity
  8
1
  6
Continuous
100
AcDbLine
 10
31.009142
 20
242.712969
 30
0.0
 11
31.009142
 21
241.085969
 31
0.0
  0
LINE
  5
9A38
330
995D
100
AcDbEntity
  8
1
  6
Continuous
100
AcDbLine
 10
22.009142
 20
239.1229689999999
 30
0.0
 11
22.009142
 21
232.8027279999998
 31
0.0
  0
LINE
  5
9A39
330
995D
100
AcDbEntity
  8
1
  6
Continuous
100
AcDbLine
 10
22.009142
 20
239.1229689999999
 30
0.0
 11
26.50154199999999
 21
244.962969
 31
0.0
  0
LINE
  5
9A3A
330
995D
100
AcDbEntity
  8
1
  6
Continuous
100
AcDbLine
 10
29.240542
 20
226.9629689999999
 30
0.0
 11
26.50154199999999
 21
226.9629689999999
 31
0.0
  0
LINE
  5
9A3B
330
995D
100
AcDbEntity
  8
1
  6
Continuous
100
AcDbLine
 10
29.240542
 20
244.962969
 30
0.0
 11
26.50154199999999
 21
244.962969
 31
0.0
  0
LINE
  5
9A3C
330
995D
100
AcDbEntity
  8
1
  6
Continuous
100
AcDbLine
 10
29.240542
 20
244.962969
 30
0.0
 11
39.00914199999998
 21
239.3069689999999
 31
0.0
  0
LINE
  5
9A3D
330
995D
100
AcDbEntity
  8
1
  6
Continuous
100
AcDbLine
 10
29.240542
 20
226.9629689999999
 30
0.0
 11
39.00914199999998
 21
232.617969
 31
0.0
  0
LINE
  5
9A3E
330
995D
100
AcDbEntity
  8
1
  6
Continuous
100
AcDbLine
 10
39.00914199999998
 20
232.617969
 30
0.0
 11
39.00914199999998
 21
239.3069689999999
 31
0.0
  0
LINE
  5
9A3F
330
995D
100
AcDbEntity
  8
1
  6
Continuous
100
AcDbLine
 10
22.009142
 20
232.8027279999998
 30
0.0
 11
26.50154199999999
 21
226.9629689999999
 31
0.0
  0
LINE
  5
9A40
330
995D
100
AcDbEntity
  8
1
  6
Continuous
100
AcDbLine
 10
21.190842
 20
232.2281779999999
 30
0.0
 11
25.708942
 21
226.3529689999999
 31
0.0
  0
LINE
  5
9A41
330
995D
100
AcDbEntity
  8
1
  6
Continuous
100
AcDbLine
 10
46.1329
 20
132.145
 30
0.0
 11
38.1329
 21
132.145
 31
0.0
  0
LINE
  5
9A42
330
995D
100
AcDbEntity
  8
1
  6
Continuous
100
AcDbLine
 10
122.835
 20
87.1448
 30
0.0
 11
137.8839999999998
 21
87.1448
 31
0.0
  0
LINE
  5
9A43
330
995D
100
AcDbEntity
  8
1
  6
Continuous
100
AcDbLine
 10
122.835
 20
101.1449999999999
 30
0.0
 11
137.8839999999998
 21
101.1449999999999
 31
0.0
  0
LINE
  5
9A44
330
995D
100
AcDbEntity
  8
1
  6
Continuous
100
AcDbLine
 10
124.835
 20
235.9949999999999
 30
0.0
 11
146.632
 21
235.9949999999999
 31
0.0
  0
LINE
  5
9A45
330
995D
100
AcDbEntity
  8
1
  6
Continuous
100
AcDbLine
 10
311.538
 20
69.14480000000001
 30
0.0
 11
336.038
 21
69.14480000000001
 31
0.0
  0
LINE
  5
9A46
330
995D
100
AcDbEntity
  8
1
  6
Continuous
100
AcDbLine
 10
311.538
 20
119.1449999999999
 30
0.0
 11
336.038
 21
119.1449999999999
 31
0.0
  0
LINE
  5
9A47
330
995D
100
AcDbEntity
  8
1
  6
Continuous
100
AcDbLine
 10
311.538
 20
119.1449999999999
 30
0.0
 11
311.538
 21
69.14480000000001
 31
0.0
  0
LINE
  5
9A48
330
995D
100
AcDbEntity
  8
4
  6
CENTER
100
AcDbLine
 10
306.3929999999999
 20
94.14480000000001
 30
0.0
 11
342.185
 21
94.14480000000001
 31
0.0
  0
LINE
  5
9A49
330
995D
100
AcDbEntity
  8
1
  6
Continuous
100
AcDbLine
 10
313.538
 20
119.1449999999999
 30
0.0
 11
313.538
 21
69.14480000000001
 31
0.0
  0
LINE
  5
9A4A
330
995D
100
AcDbEntity
  8
1
  6
Continuous
100
AcDbLine
 10
336.038
 20
119.1449999999999
 30
0.0
 11
336.038
 21
69.14480000000001
 31
0.0
  0
LINE
  5
9A4B
330
995D
100
AcDbEntity
  8
4
  6
CENTER
100
AcDbLine
 10
333.966
 20
114.145
 30
0.0
 11
343.0419999999998
 21
114.145
 31
0.0
  0
LINE
  5
9A4C
330
995D
100
AcDbEntity
  8
4
  6
CENTER
100
AcDbLine
 10
333.279
 20
74.14480000000001
 30
0.0
 11
343.1789999999999
 21
74.14480000000001
 31
0.0
  0
LINE
  5
9A4D
330
995D
100
AcDbEntity
  8
4
  6
CENTER
100
AcDbLine
 10
490.2409999999998
 20
94.14480000000001
 30
0.0
 11
371.954
 21
94.14480000000001
 31
0.0
  0
LINE
  5
9A4E
330
995D
100
AcDbEntity
  8
4
  6
CENTER
100
AcDbLine
 10
421.741
 20
152.0149999999999
 30
0.0
 11
421.741
 21
35.5647
 31
0.0
  0
LINE
  5
9A4F
330
995D
100
AcDbEntity
  8
4
  6
CENTER
100
AcDbLine
 10
439.2409999999999
 20
146.9509999999999
 30
0.0
 11
439.2409999999999
 21
41.8977
 31
0.0
  0
LINE
  5
9A50
330
995D
100
AcDbEntity
  8
1
  6
Continuous
100
AcDbLine
 10
485.2409999999999
 20
100.1448
 30
0.0
 11
485.2409999999999
 21
88.14480000000001
 31
0.0
  0
LINE
  5
9A51
330
995D
100
AcDbEntity
  8
1
  6
Continuous
100
AcDbLine
 10
475.241
 20
134.145
 30
0.0
 11
475.241
 21
101.1448
 31
0.0
  0
LINE
  5
9A52
330
995D
100
AcDbEntity
  8
1
  6
Continuous
100
AcDbLine
 10
439.841
 20
134.145
 30
0.0
 11
404.7909999999998
 21
99.09460000000001
 31
0.0
  0
LINE
  5
9A53
330
995D
100
AcDbEntity
  8
1
  6
Continuous
100
AcDbLine
 10
475.241
 20
54.1448
 30
0.0
 11
439.841
 21
54.1448
 31
0.0
  0
LINE
  5
9A54
330
995D
100
AcDbEntity
  8
1
  6
Continuous
100
AcDbLine
 10
475.241
 20
134.145
 30
0.0
 11
439.841
 21
134.145
 31
0.0
  0
LINE
  5
9A55
330
995D
100
AcDbEntity
  8
1
  6
Continuous
100
AcDbLine
 10
439.841
 20
54.1448
 30
0.0
 11
404.7909999999998
 21
89.19509999999998
 31
0.0
  0
LINE
  5
9A56
330
995D
100
AcDbEntity
  8
4
  6
CENTER
100
AcDbLine
 10
409.7409999999999
 20
100.1449999999999
 30
0.0
 11
409.7409999999999
 21
88.14480000000001
 31
0.0
  0
LINE
  5
9A57
330
995D
100
AcDbEntity
  8
4
  6
CENTER
100
AcDbLine
 10
438.741
 20
124.1449999999999
 30
0.0
 11
450.741
 21
124.1449999999999
 31
0.0
  0
LINE
  5
9A58
330
995D
100
AcDbEntity
  8
4
  6
CENTER
100
AcDbLine
 10
444.7409999999998
 20
130.145
 30
0.0
 11
444.7409999999998
 21
118.1449999999999
 31
0.0
  0
LINE
  5
9A59
330
995D
100
AcDbEntity
  8
4
  6
CENTER
100
AcDbLine
 10
438.741
 20
64.14480000000001
 30
0.0
 11
450.741
 21
64.14480000000001
 31
0.0
  0
LINE
  5
9A5A
330
995D
100
AcDbEntity
  8
4
  6
CENTER
100
AcDbLine
 10
444.7409999999998
 20
70.1448
 30
0.0
 11
444.7409999999998
 21
58.14479999999999
 31
0.0
  0
LINE
  5
9A5B
330
995D
100
AcDbEntity
  8
4
  6
CENTER
100
AcDbLine
 10
478.5169999999998
 20
64.14480000000001
 30
0.0
 11
466.9529999999999
 21
64.14480000000001
 31
0.0
  0
LINE
  5
9A5C
330
995D
100
AcDbEntity
  8
4
  6
CENTER
100
AcDbLine
 10
478.5169999999998
 20
124.1449999999999
 30
0.0
 11
466.778
 21
124.1449999999999
 31
0.0
  0
LINE
  5
9A5D
330
995D
100
AcDbEntity
  8
1
  6
Continuous
100
AcDbLine
 10
448.24
 20
134.645
 30
0.0
 11
448.24
 21
134.145
 31
0.0
  0
LINE
  5
9A5E
330
995D
100
AcDbEntity
  8
1
  6
Continuous
100
AcDbLine
 10
397.7409999999999
 20
134.645
 30
0.0
 11
448.24
 21
134.645
 31
0.0
  0
LINE
  5
9A5F
330
995D
100
AcDbEntity
  8
1
  6
Continuous
100
AcDbLine
 10
397.7409999999999
 20
53.6448
 30
0.0
 11
448.24
 21
53.6448
 31
0.0
  0
LINE
  5
9A60
330
995D
100
AcDbEntity
  8
1
  6
Continuous
100
AcDbLine
 10
448.24
 20
54.1448
 30
0.0
 11
448.24
 21
53.6448
 31
0.0
  0
LINE
  5
9A61
330
995D
100
AcDbEntity
  8
1
  6
Continuous
100
AcDbLine
 10
401.412
 20
73.4732
 30
0.0
 11
401.919
 21
73.7095
 31
0.0
  0
LINE
  5
9A62
330
995D
100
AcDbEntity
  8
1
  6
Continuous
100
AcDbLine
 10
401.919
 20
73.7095
 30
0.0
 11
402.798
 21
73.7248
 31
0.0
  0
LINE
  5
9A63
330
995D
100
AcDbEntity
  8
1
  6
Continuous
100
AcDbLine
 10
401.919
 20
74.58020000000002
 30
0.0
 11
402.798
 21
74.5648
 31
0.0
  0
LINE
  5
9A64
330
995D
100
AcDbEntity
  8
1
  6
Continuous
100
AcDbLine
 10
401.412
 20
74.8164
 30
0.0
 11
401.919
 21
74.58020000000002
 31
0.0
  0
LINE
  5
9A65
330
995D
100
AcDbEntity
  8
1
  6
Continuous
100
AcDbLine
 10
400.069
 20
74.81650000000001
 30
0.0
 11
400.3049999999998
 21
75.3232
 31
0.0
  0
LINE
  5
9A66
330
995D
100
AcDbEntity
  8
1
  6
Continuous
100
AcDbLine
 10
400.3049999999998
 20
75.3232
 30
0.0
 11
400.321
 21
76.20239999999999
 31
0.0
  0
LINE
  5
9A67
330
995D
100
AcDbEntity
  8
1
  6
Continuous
100
AcDbLine
 10
401.1759999999998
 20
75.3232
 30
0.0
 11
401.161
 21
76.20239999999999
 31
0.0
  0
LINE
  5
9A68
330
995D
100
AcDbEntity
  8
1
  6
Continuous
100
AcDbLine
 10
401.412
 20
74.8164
 30
0.0
 11
401.1759999999998
 21
75.3232
 31
0.0
  0
LINE
  5
9A69
330
995D
100
AcDbEntity
  8
1
  6
Continuous
100
AcDbLine
 10
400.069
 20
73.4732
 30
0.0
 11
399.5619999999998
 21
73.7095
 31
0.0
  0
LINE
  5
9A6A
330
995D
100
AcDbEntity
  8
1
  6
Continuous
100
AcDbLine
 10
399.5619999999998
 20
73.7095
 30
0.0
 11
398.6829999999998
 21
73.7248
 31
0.0
  0
LINE
  5
9A6B
330
995D
100
AcDbEntity
  8
1
  6
Continuous
100
AcDbLine
 10
399.5619999999998
 20
74.58020000000002
 30
0.0
 11
398.6829999999998
 21
74.5648
 31
0.0
  0
LINE
  5
9A6C
330
995D
100
AcDbEntity
  8
1
  6
Continuous
100
AcDbLine
 10
400.069
 20
74.8164
 30
0.0
 11
399.5619999999998
 21
74.58020000000002
 31
0.0
  0
LINE
  5
9A6D
330
995D
100
AcDbEntity
  8
1
  6
Continuous
100
AcDbLine
 10
401.412
 20
73.4732
 30
0.0
 11
401.1759999999998
 21
72.96649999999998
 31
0.0
  0
LINE
  5
9A6E
330
995D
100
AcDbEntity
  8
1
  6
Continuous
100
AcDbLine
 10
401.1759999999998
 20
72.96649999999998
 30
0.0
 11
401.161
 21
72.08719999999998
 31
0.0
  0
LINE
  5
9A6F
330
995D
100
AcDbEntity
  8
1
  6
Continuous
100
AcDbLine
 10
400.3049999999998
 20
72.96649999999998
 30
0.0
 11
400.321
 21
72.0873
 31
0.0
  0
LINE
  5
9A70
330
995D
100
AcDbEntity
  8
1
  6
Continuous
100
AcDbLine
 10
400.069
 20
73.4732
 30
0.0
 11
400.3049999999998
 21
72.96649999999998
 31
0.0
  0
LINE
  5
9A71
330
995D
100
AcDbEntity
  8
1
  6
Continuous
100
AcDbLine
 10
111.741
 20
235.9949999999999
 30
0.0
 11
120.835
 21
235.9949999999999
 31
0.0
  0
LINE
  5
9A72
330
995D
100
AcDbEntity
  8
1
  6
Continuous
100
AcDbLine
 10
119.331
 20
245.995
 30
0.0
 11
120.835
 21
245.995
 31
0.0
  0
LINE
  5
9A73
330
995D
100
AcDbEntity
  8
1
  6
Continuous
100
AcDbLine
 10
401.1759999999998
 20
115.3229999999998
 30
0.0
 11
401.161
 21
116.202
 31
0.0
  0
LINE
  5
9A74
330
995D
100
AcDbEntity
  8
1
  6
Continuous
100
AcDbLine
 10
401.412
 20
114.816
 30
0.0
 11
401.1759999999998
 21
115.3229999999998
 31
0.0
  0
LINE
  5
9A75
330
995D
100
AcDbEntity
  8
1
  6
Continuous
100
AcDbLine
 10
401.412
 20
114.816
 30
0.0
 11
401.919
 21
114.5799999999999
 31
0.0
  0
LINE
  5
9A76
330
995D
100
AcDbEntity
  8
1
  6
Continuous
100
AcDbLine
 10
401.919
 20
114.5799999999999
 30
0.0
 11
402.798
 21
114.565
 31
0.0
  0
LINE
  5
9A77
330
995D
100
AcDbEntity
  8
1
  6
Continuous
100
AcDbLine
 10
401.919
 20
113.709
 30
0.0
 11
402.798
 21
113.7249999999998
 31
0.0
  0
LINE
  5
9A78
330
995D
100
AcDbEntity
  8
1
  6
Continuous
100
AcDbLine
 10
401.412
 20
113.473
 30
0.0
 11
401.919
 21
113.709
 31
0.0
  0
LINE
  5
9A79
330
995D
100
AcDbEntity
  8
1
  6
Continuous
100
AcDbLine
 10
401.412
 20
113.473
 30
0.0
 11
401.1759999999998
 21
112.9659999999999
 31
0.0
  0
LINE
  5
9A7A
330
995D
100
AcDbEntity
  8
1
  6
Continuous
100
AcDbLine
 10
401.1759999999998
 20
112.9659999999999
 30
0.0
 11
401.161
 21
112.087
 31
0.0
  0
LINE
  5
9A7B
330
995D
100
AcDbEntity
  8
1
  6
Continuous
100
AcDbLine
 10
400.3049999999998
 20
112.9659999999999
 30
0.0
 11
400.321
 21
112.087
 31
0.0
  0
LINE
  5
9A7C
330
995D
100
AcDbEntity
  8
1
  6
Continuous
100
AcDbLine
 10
400.069
 20
113.473
 30
0.0
 11
400.3049999999998
 21
112.9659999999999
 31
0.0
  0
LINE
  5
9A7D
330
995D
100
AcDbEntity
  8
1
  6
Continuous
100
AcDbLine
 10
400.069
 20
113.473
 30
0.0
 11
399.5619999999998
 21
113.709
 31
0.0
  0
LINE
  5
9A7E
330
995D
100
AcDbEntity
  8
1
  6
Continuous
100
AcDbLine
 10
399.5619999999998
 20
114.5799999999999
 30
0.0
 11
398.6829999999998
 21
114.565
 31
0.0
  0
LINE
  5
9A7F
330
995D
100
AcDbEntity
  8
1
  6
Continuous
100
AcDbLine
 10
399.5619999999998
 20
113.709
 30
0.0
 11
398.6829999999998
 21
113.7249999999998
 31
0.0
  0
LINE
  5
9A80
330
995D
100
AcDbEntity
  8
1
  6
Continuous
100
AcDbLine
 10
400.069
 20
114.816
 30
0.0
 11
399.5619999999998
 21
114.5799999999999
 31
0.0
  0
LINE
  5
9A81
330
995D
100
AcDbEntity
  8
1
  6
Continuous
100
AcDbLine
 10
400.3049999999998
 20
115.3229999999998
 30
0.0
 11
400.321
 21
116.202
 31
0.0
  0
LINE
  5
9A82
330
995D
100
AcDbEntity
  8
1
  6
Continuous
100
AcDbLine
 10
400.069
 20
114.816
 30
0.0
 11
400.3049999999998
 21
115.3229999999998
 31
0.0
  0
LINE
  5
9A83
330
995D
100
AcDbEntity
  8
1
  6
Continuous
100
AcDbLine
 10
410.434
 20
93.4518
 30
0.0
 11
410.983
 21
93.70789999999999
 31
0.0
  0
LINE
  5
9A84
330
995D
100
AcDbEntity
  8
1
  6
Continuous
100
AcDbLine
 10
410.983
 20
93.70789999999999
 30
0.0
 11
411.951
 21
93.72480000000001
 31
0.0
  0
LINE
  5
9A85
330
995D
100
AcDbEntity
  8
1
  6
Continuous
100
AcDbLine
 10
410.983
 20
94.5817
 30
0.0
 11
411.951
 21
94.5648
 31
0.0
  0
LINE
  5
9A86
330
995D
100
AcDbEntity
  8
1
  6
Continuous
100
AcDbLine
 10
410.434
 20
94.8379
 30
0.0
 11
410.983
 21
94.5817
 31
0.0
  0
LINE
  5
9A87
330
995D
100
AcDbEntity
  8
1
  6
Continuous
100
AcDbLine
 10
409.0469999999998
 20
94.8379
 30
0.0
 11
409.304
 21
95.38720000000001
 31
0.0
  0
LINE
  5
9A88
330
995D
100
AcDbEntity
  8
1
  6
Continuous
100
AcDbLine
 10
409.304
 20
95.38720000000001
 30
0.0
 11
409.321
 21
96.35530000000001
 31
0.0
  0
LINE
  5
9A89
330
995D
100
AcDbEntity
  8
1
  6
Continuous
100
AcDbLine
 10
410.177
 20
95.38720000000001
 30
0.0
 11
410.1609999999998
 21
96.35530000000001
 31
0.0
  0
LINE
  5
9A8A
330
995D
100
AcDbEntity
  8
1
  6
Continuous
100
AcDbLine
 10
410.434
 20
94.8379
 30
0.0
 11
410.177
 21
95.38720000000001
 31
0.0
  0
LINE
  5
9A8B
330
995D
100
AcDbEntity
  8
1
  6
Continuous
100
AcDbLine
 10
409.048
 20
93.4518
 30
0.0
 11
408.4979999999998
 21
93.70789999999999
 31
0.0
  0
LINE
  5
9A8C
330
995D
100
AcDbEntity
  8
1
  6
Continuous
100
AcDbLine
 10
408.4979999999998
 20
93.70789999999999
 30
0.0
 11
407.5299999999998
 21
93.72480000000001
 31
0.0
  0
LINE
  5
9A8D
330
995D
100
AcDbEntity
  8
1
  6
Continuous
100
AcDbLine
 10
408.4979999999998
 20
94.5817
 30
0.0
 11
407.5299999999998
 21
94.5648
 31
0.0
  0
LINE
  5
9A8E
330
995D
100
AcDbEntity
  8
1
  6
Continuous
100
AcDbLine
 10
409.048
 20
94.8379
 30
0.0
 11
408.4979999999998
 21
94.5817
 31
0.0
  0
LINE
  5
9A8F
330
995D
100
AcDbEntity
  8
1
  6
Continuous
100
AcDbLine
 10
410.434
 20
93.4518
 30
0.0
 11
410.177
 21
92.9024
 31
0.0
  0
LINE
  5
9A90
330
995D
100
AcDbEntity
  8
1
  6
Continuous
100
AcDbLine
 10
410.177
 20
92.9024
 30
0.0
 11
410.1609999999998
 21
91.9344
 31
0.0
  0
LINE
  5
9A91
330
995D
100
AcDbEntity
  8
1
  6
Continuous
100
AcDbLine
 10
409.304
 20
92.9025
 30
0.0
 11
409.321
 21
91.9344
 31
0.0
  0
LINE
  5
9A92
330
995D
100
AcDbEntity
  8
1
  6
Continuous
100
AcDbLine
 10
409.048
 20
93.4518
 30
0.0
 11
409.304
 21
92.9025
 31
0.0
  0
LINE
  5
9A93
330
995D
100
AcDbEntity
  8
1
  6
Continuous
100
AcDbLine
 10
445.434
 20
63.4518
 30
0.0
 11
445.983
 21
63.7079
 31
0.0
  0
LINE
  5
9A94
330
995D
100
AcDbEntity
  8
1
  6
Continuous
100
AcDbLine
 10
445.983
 20
63.7079
 30
0.0
 11
446.9509999999998
 21
63.7248
 31
0.0
  0
LINE
  5
9A95
330
995D
100
AcDbEntity
  8
1
  6
Continuous
100
AcDbLine
 10
445.983
 20
64.58169999999999
 30
0.0
 11
446.9509999999998
 21
64.5648
 31
0.0
  0
LINE
  5
9A96
330
995D
100
AcDbEntity
  8
1
  6
Continuous
100
AcDbLine
 10
445.434
 20
64.8379
 30
0.0
 11
445.983
 21
64.58169999999999
 31
0.0
  0
LINE
  5
9A97
330
995D
100
AcDbEntity
  8
1
  6
Continuous
100
AcDbLine
 10
444.0469999999998
 20
64.8379
 30
0.0
 11
444.3039999999998
 21
65.38720000000001
 31
0.0
  0
LINE
  5
9A98
330
995D
100
AcDbEntity
  8
1
  6
Continuous
100
AcDbLine
 10
444.3039999999998
 20
65.38720000000001
 30
0.0
 11
444.3209999999998
 21
66.3553
 31
0.0
  0
LINE
  5
9A99
330
995D
100
AcDbEntity
  8
1
  6
Continuous
100
AcDbLine
 10
445.1769999999998
 20
65.38720000000001
 30
0.0
 11
445.161
 21
66.3553
 31
0.0
  0
LINE
  5
9A9A
330
995D
100
AcDbEntity
  8
1
  6
Continuous
100
AcDbLine
 10
445.434
 20
64.8379
 30
0.0
 11
445.1769999999998
 21
65.38720000000001
 31
0.0
  0
LINE
  5
9A9B
330
995D
100
AcDbEntity
  8
1
  6
Continuous
100
AcDbLine
 10
444.0469999999998
 20
63.4518
 30
0.0
 11
443.498
 21
63.7079
 31
0.0
  0
LINE
  5
9A9C
330
995D
100
AcDbEntity
  8
1
  6
Continuous
100
AcDbLine
 10
443.498
 20
63.7079
 30
0.0
 11
442.53
 21
63.7248
 31
0.0
  0
LINE
  5
9A9D
330
995D
100
AcDbEntity
  8
1
  6
Continuous
100
AcDbLine
 10
443.498
 20
64.58169999999999
 30
0.0
 11
442.53
 21
64.5648
 31
0.0
  0
LINE
  5
9A9E
330
995D
100
AcDbEntity
  8
1
  6
Continuous
100
AcDbLine
 10
444.0469999999998
 20
64.8379
 30
0.0
 11
443.498
 21
64.58169999999999
 31
0.0
  0
LINE
  5
9A9F
330
995D
100
AcDbEntity
  8
1
  6
Continuous
100
AcDbLine
 10
445.434
 20
63.4518
 30
0.0
 11
445.1769999999998
 21
62.9025
 31
0.0
  0
LINE
  5
9AA0
330
995D
100
AcDbEntity
  8
1
  6
Continuous
100
AcDbLine
 10
445.1769999999998
 20
62.9024
 30
0.0
 11
445.161
 21
61.93439999999998
 31
0.0
  0
LINE
  5
9AA1
330
995D
100
AcDbEntity
  8
1
  6
Continuous
100
AcDbLine
 10
444.3039999999998
 20
62.9025
 30
0.0
 11
444.32
 21
61.93439999999998
 31
0.0
  0
LINE
  5
9AA2
330
995D
100
AcDbEntity
  8
1
  6
Continuous
100
AcDbLine
 10
444.0479999999998
 20
63.4518
 30
0.0
 11
444.3039999999998
 21
62.9025
 31
0.0
  0
LINE
  5
9AA3
330
995D
100
AcDbEntity
  8
1
  6
Continuous
100
AcDbLine
 10
445.434
 20
123.452
 30
0.0
 11
445.983
 21
123.7079999999999
 31
0.0
  0
LINE
  5
9AA4
330
995D
100
AcDbEntity
  8
1
  6
Continuous
100
AcDbLine
 10
445.983
 20
123.7079999999999
 30
0.0
 11
446.9509999999998
 21
123.7249999999998
 31
0.0
  0
LINE
  5
9AA5
330
995D
100
AcDbEntity
  8
1
  6
Continuous
100
AcDbLine
 10
445.983
 20
124.5819999999999
 30
0.0
 11
446.9509999999998
 21
124.5649999999999
 31
0.0
  0
LINE
  5
9AA6
330
995D
100
AcDbEntity
  8
1
  6
Continuous
100
AcDbLine
 10
445.434
 20
124.838
 30
0.0
 11
445.983
 21
124.5819999999999
 31
0.0
  0
LINE
  5
9AA7
330
995D
100
AcDbEntity
  8
1
  6
Continuous
100
AcDbLine
 10
444.0469999999998
 20
124.838
 30
0.0
 11
444.3039999999998
 21
125.387
 31
0.0
  0
LINE
  5
9AA8
330
995D
100
AcDbEntity
  8
1
  6
Continuous
100
AcDbLine
 10
444.3039999999998
 20
125.387
 30
0.0
 11
444.3209999999998
 21
126.355
 31
0.0
  0
LINE
  5
9AA9
330
995D
100
AcDbEntity
  8
1
  6
Continuous
100
AcDbLine
 10
445.1769999999998
 20
125.387
 30
0.0
 11
445.161
 21
126.355
 31
0.0
  0
LINE
  5
9AAA
330
995D
100
AcDbEntity
  8
1
  6
Continuous
100
AcDbLine
 10
445.434
 20
124.838
 30
0.0
 11
445.1769999999998
 21
125.387
 31
0.0
  0
LINE
  5
9AAB
330
995D
100
AcDbEntity
  8
1
  6
Continuous
100
AcDbLine
 10
444.0469999999998
 20
123.452
 30
0.0
 11
443.498
 21
123.7079999999999
 31
0.0
  0
LINE
  5
9AAC
330
995D
100
AcDbEntity
  8
1
  6
Continuous
100
AcDbLine
 10
443.498
 20
123.7079999999999
 30
0.0
 11
442.53
 21
123.7249999999998
 31
0.0
  0
LINE
  5
9AAD
330
995D
100
AcDbEntity
  8
1
  6
Continuous
100
AcDbLine
 10
443.498
 20
124.5819999999999
 30
0.0
 11
442.53
 21
124.5649999999999
 31
0.0
  0
LINE
  5
9AAE
330
995D
100
AcDbEntity
  8
1
  6
Continuous
100
AcDbLine
 10
444.0469999999998
 20
124.838
 30
0.0
 11
443.498
 21
124.5819999999999
 31
0.0
  0
LINE
  5
9AAF
330
995D
100
AcDbEntity
  8
1
  6
Continuous
100
AcDbLine
 10
445.434
 20
123.452
 30
0.0
 11
445.1769999999998
 21
122.902
 31
0.0
  0
LINE
  5
9AB0
330
995D
100
AcDbEntity
  8
1
  6
Continuous
100
AcDbLine
 10
445.1769999999998
 20
122.902
 30
0.0
 11
445.161
 21
121.934
 31
0.0
  0
LINE
  5
9AB1
330
995D
100
AcDbEntity
  8
1
  6
Continuous
100
AcDbLine
 10
444.3039999999998
 20
122.902
 30
0.0
 11
444.3209999999998
 21
121.934
 31
0.0
  0
LINE
  5
9AB2
330
995D
100
AcDbEntity
  8
1
  6
Continuous
100
AcDbLine
 10
444.0469999999998
 20
123.452
 30
0.0
 11
444.3039999999998
 21
122.902
 31
0.0
  0
LINE
  5
9AB3
330
995D
100
AcDbEntity
  8
5
  6
PHANTOM
100
AcDbLine
 10
159.993
 20
214.6409999999999
 30
0.0
 11
183.0209999999999
 21
195.7419999999999
 31
0.0
  0
LINE
  5
9AB4
330
995D
100
AcDbEntity
  8
1
  6
Continuous
100
AcDbLine
 10
290.538
 20
96.64480000000001
 30
0.0
 11
294.538
 21
96.64480000000001
 31
0.0
  0
LINE
  5
9AB5
330
995D
100
AcDbEntity
  8
1
  6
Continuous
100
AcDbLine
 10
290.538
 20
91.64480000000001
 30
0.0
 11
294.538
 21
91.64480000000001
 31
0.0
  0
LINE
  5
9AB6
330
995D
100
AcDbEntity
  8
1
  6
Continuous
100
AcDbLine
 10
284.3379999999999
 20
69.14480000000001
 30
0.0
 11
284.3379999999999
 21
61.6448
 31
0.0
  0
LINE
  5
9AB7
330
995D
100
AcDbEntity
  8
1
  6
Continuous
100
AcDbLine
 10
284.3379999999999
 20
109.145
 30
0.0
 11
284.3379999999999
 21
79.14480000000001
 31
0.0
  0
LINE
  5
9AB8
330
995D
100
AcDbEntity
  8
4
  6
CENTER
100
AcDbLine
 10
273.538
 20
144.809
 30
0.0
 11
273.538
 21
41.8977
 31
0.0
  0
LINE
  5
9AB9
330
995D
100
AcDbEntity
  8
4
  6
CENTER
100
AcDbLine
 10
40.1329
 20
147.085
 30
0.0
 11
40.1329
 21
43.95999999999999
 31
0.0
  0
LINE
  5
9ABA
330
995D
100
AcDbEntity
  8
1
  6
Continuous
100
AcDbLine
 10
190.377
 20
278.2939999999999
 30
0.0
 11
190.377
 21
277.495
 31
0.0
  0
LINE
  5
9ABB
330
995D
100
AcDbEntity
  8
1
  6
Continuous
100
AcDbLine
 10
200.377
 20
278.295
 30
0.0
 11
190.377
 21
278.295
 31
0.0
  0
LINE
  5
9ABC
330
995D
100
AcDbEntity
  8
1
  6
Continuous
100
AcDbLine
 10
200.377
 20
278.2939999999999
 30
0.0
 11
200.377
 21
277.495
 31
0.0
  0
LINE
  5
9ABD
330
995D
100
AcDbEntity
  8
1
  6
Continuous
100
AcDbLine
 10
199.1769999999999
 20
279.2939999999999
 30
0.0
 11
199.1769999999999
 21
278.2939999999999
 31
0.0
  0
LINE
  5
9ABE
330
995D
100
AcDbEntity
  8
1
  6
Continuous
100
AcDbLine
 10
194.874
 20
279.295
 30
0.0
 11
195.713
 21
278.295
 31
0.0
  0
LINE
  5
9ABF
330
995D
100
AcDbEntity
  8
1
  6
Continuous
100
AcDbLine
 10
199.1769999999999
 20
279.295
 30
0.0
 11
191.577
 21
279.295
 31
0.0
  0
LINE
  5
9AC0
330
995D
100
AcDbEntity
  8
1
  6
Continuous
100
AcDbLine
 10
191.577
 20
279.2939999999999
 30
0.0
 11
191.577
 21
278.2939999999999
 31
0.0
  0
LINE
  5
9AC1
330
995D
100
AcDbEntity
  8
1
  6
Continuous
100
AcDbLine
 10
191.877
 20
279.2939999999999
 30
0.0
 11
191.975
 21
280.4139999999998
 31
0.0
  0
LINE
  5
9AC2
330
995D
100
AcDbEntity
  8
1
  6
Continuous
100
AcDbLine
 10
198.877
 20
279.295
 30
0.0
 11
198.779
 21
280.4139999999998
 31
0.0
  0
LINE
  5
9AC3
330
995D
100
AcDbEntity
  8
4
  6
CENTER
100
AcDbLine
 10
400.741
 20
80.64480000000001
 30
0.0
 11
400.741
 21
67.6448
 31
0.0
  0
LINE
  5
9AC4
330
995D
100
AcDbEntity
  8
4
  6
CENTER
100
AcDbLine
 10
394.2409999999999
 20
74.14480000000001
 30
0.0
 11
407.2409999999998
 21
74.14480000000001
 31
0.0
  0
LINE
  5
9AC5
330
995D
100
AcDbEntity
  8
4
  6
CENTER
100
AcDbLine
 10
400.741
 20
120.645
 30
0.0
 11
400.741
 21
107.6449999999999
 31
0.0
  0
LINE
  5
9AC6
330
995D
100
AcDbEntity
  8
4
  6
CENTER
100
AcDbLine
 10
394.2409999999999
 20
114.145
 30
0.0
 11
407.2409999999998
 21
114.145
 31
0.0
  0
LINE
  5
9AC7
330
995D
100
AcDbEntity
  8
1
  6
Continuous
100
AcDbLine
 10
337.838
 20
74.5644
 30
0.0
 11
336.838
 21
73.72530000000002
 31
0.0
  0
LINE
  5
9AC8
330
995D
100
AcDbEntity
  8
1
  6
Continuous
100
AcDbLine
 10
337.838
 20
70.6448
 30
0.0
 11
338.9569999999999
 21
70.7427
 31
0.0
  0
LINE
  5
9AC9
330
995D
100
AcDbEntity
  8
1
  6
Continuous
100
AcDbLine
 10
337.838
 20
77.6448
 30
0.0
 11
338.9569999999999
 21
77.54689999999998
 31
0.0
  0
LINE
  5
9ACA
330
995D
100
AcDbEntity
  8
1
  6
Continuous
100
AcDbLine
 10
336.838
 20
79.14480000000001
 30
0.0
 11
336.838
 21
69.14480000000001
 31
0.0
  0
LINE
  5
9ACB
330
995D
100
AcDbEntity
  8
1
  6
Continuous
100
AcDbLine
 10
337.838
 20
77.9448
 30
0.0
 11
337.838
 21
70.34480000000001
 31
0.0
  0
LINE
  5
9ACC
330
995D
100
AcDbEntity
  8
1
  6
Continuous
100
AcDbLine
 10
336.838
 20
70.34480000000001
 30
0.0
 11
337.838
 21
70.34480000000001
 31
0.0
  0
LINE
  5
9ACD
330
995D
100
AcDbEntity
  8
1
  6
Continuous
100
AcDbLine
 10
336.838
 20
77.9448
 30
0.0
 11
337.838
 21
77.9448
 31
0.0
  0
LINE
  5
9ACE
330
995D
100
AcDbEntity
  8
1
  6
Continuous
100
AcDbLine
 10
336.038
 20
79.14480000000001
 30
0.0
 11
336.838
 21
79.14480000000001
 31
0.0
  0
LINE
  5
9ACF
330
995D
100
AcDbEntity
  8
1
  6
Continuous
100
AcDbLine
 10
336.038
 20
69.14480000000001
 30
0.0
 11
336.838
 21
69.14480000000001
 31
0.0
  0
LINE
  5
9AD0
330
995D
100
AcDbEntity
  8
1
  6
Continuous
100
AcDbLine
 10
337.838
 20
114.5639999999998
 30
0.0
 11
336.838
 21
113.7249999999998
 31
0.0
  0
LINE
  5
9AD1
330
995D
100
AcDbEntity
  8
1
  6
Continuous
100
AcDbLine
 10
337.838
 20
110.6449999999999
 30
0.0
 11
338.9569999999999
 21
110.7429999999999
 31
0.0
  0
LINE
  5
9AD2
330
995D
100
AcDbEntity
  8
1
  6
Continuous
100
AcDbLine
 10
337.838
 20
117.6449999999999
 30
0.0
 11
338.9569999999999
 21
117.547
 31
0.0
  0
LINE
  5
9AD3
330
995D
100
AcDbEntity
  8
1
  6
Continuous
100
AcDbLine
 10
336.838
 20
119.1449999999999
 30
0.0
 11
336.838
 21
109.145
 31
0.0
  0
LINE
  5
9AD4
330
995D
100
AcDbEntity
  8
1
  6
Continuous
100
AcDbLine
 10
337.838
 20
117.9449999999998
 30
0.0
 11
337.838
 21
110.345
 31
0.0
  0
LINE
  5
9AD5
330
995D
100
AcDbEntity
  8
1
  6
Continuous
100
AcDbLine
 10
336.838
 20
110.345
 30
0.0
 11
337.838
 21
110.345
 31
0.0
  0
LINE
  5
9AD6
330
995D
100
AcDbEntity
  8
1
  6
Continuous
100
AcDbLine
 10
336.838
 20
117.9449999999998
 30
0.0
 11
337.838
 21
117.9449999999998
 31
0.0
  0
LINE
  5
9AD7
330
995D
100
AcDbEntity
  8
1
  6
Continuous
100
AcDbLine
 10
336.038
 20
119.1449999999999
 30
0.0
 11
336.838
 21
119.1449999999999
 31
0.0
  0
LINE
  5
9AD8
330
995D
100
AcDbEntity
  8
1
  6
Continuous
100
AcDbLine
 10
336.038
 20
109.145
 30
0.0
 11
336.838
 21
109.145
 31
0.0
  0
LINE
  5
9AD9
330
995D
100
AcDbEntity
  8
4
  6
CENTER
100
AcDbLine
 10
195.335
 20
230.544
 30
0.0
 11
195.335
 21
244.8729999999999
 31
0.0
  0
LINE
  5
9ADA
330
995D
100
AcDbEntity
  8
1
  6
Continuous
100
AcDbLine
 10
200.3369999999999
 20
229.749
 30
0.0
 11
200.3369999999999
 21
239.995
 31
0.0
  0
LINE
  5
9ADB
330
995D
100
AcDbEntity
  8
1
  6
Continuous
100
AcDbLine
 10
188.337
 20
235.765
 30
0.0
 11
188.337
 21
239.995
 31
0.0
  0
LINE
  5
9ADC
330
995D
100
AcDbEntity
  8
1
  6
Continuous
100
AcDbLine
 10
213.899
 20
117.1449999999999
 30
0.0
 11
213.899
 21
71.1448
 31
0.0
  0
LINE
  5
9ADD
330
995D
100
AcDbEntity
  8
1
  6
Continuous
100
AcDbLine
 10
391.7409999999999
 20
128.645
 30
0.0
 11
391.7409999999999
 21
119.1449999999999
 31
0.0
  0
LINE
  5
9ADE
330
995D
100
AcDbEntity
  8
1
  6
Continuous
100
AcDbLine
 10
391.7409999999999
 20
69.14480000000001
 30
0.0
 11
391.7409999999999
 21
59.6448
 31
0.0
  0
ARC
  5
9ADF
330
995D
100
AcDbEntity
  8
1
  6
Continuous
100
AcDbCircle
 10
646.335
 20
94.14480000000001
 30
0.0
 40
508.4999999999998
100
AcDbArc
 50
175.532
 51
184.4679999999999
  0
ARC
  5
9AE0
330
995D
100
AcDbEntity
  8
1
  6
Continuous
100
AcDbCircle
 10
-297.665
 20
94.14480000000001
 30
0.0
 40
508.4999999999998
100
AcDbArc
 50
355.532
 51
4.468429999999998
  0
ARC
  5
9AE1
330
995D
100
AcDbEntity
  8
1
  6
Continuous
100
AcDbCircle
 10
174.335
 20
548.1449999999998
 30
0.0
 40
500.0
100
AcDbArc
 50
266.6379999999999
 51
273.362
  0
ARC
  5
9AE2
330
995D
100
AcDbEntity
  8
1
  6
Continuous
100
AcDbCircle
 10
174.335
 20
-359.855
 30
0.0
 40
500.0
100
AcDbArc
 50
86.63769999999997
 51
93.3623
  0
ARC
  5
9AE3
330
995D
100
AcDbEntity
  8
1
  6
Continuous
100
AcDbCircle
 10
203.3079999999999
 20
54.9952
 30
0.0
 40
6.0
100
AcDbArc
 50
273.362
 51
355.532
  0
ARC
  5
9AE4
330
995D
100
AcDbEntity
  8
1
  6
Continuous
100
AcDbCircle
 10
145.3629999999998
 20
54.9952
 30
0.0
 40
6.0
100
AcDbArc
 50
184.4679999999999
 51
266.6379999999999
  0
ARC
  5
9AE5
330
995D
100
AcDbEntity
  8
1
  6
Continuous
100
AcDbCircle
 10
145.3629999999998
 20
133.2939999999998
 30
0.0
 40
6.0
100
AcDbArc
 50
93.3623
 51
175.532
  0
ARC
  5
9AE6
330
995D
100
AcDbEntity
  8
1
  6
Continuous
100
AcDbCircle
 10
203.3079999999999
 20
133.2939999999998
 30
0.0
 40
6.0
100
AcDbArc
 50
4.468429999999998
 51
86.63769999999997
  0
ARC
  5
9AE7
330
995D
100
AcDbEntity
  8
1
  6
Continuous
100
AcDbCircle
 10
-297.665
 20
94.14480000000001
 30
0.0
 40
500.0
100
AcDbArc
 50
355.9619999999999
 51
4.03826
  0
ARC
  5
9AE8
330
995D
100
AcDbEntity
  8
1
  6
Continuous
100
AcDbCircle
 10
198.102
 20
129.145
 30
0.0
 40
3.0
100
AcDbArc
 50
4.03826
 51
90.0
  0
ARC
  5
9AE9
330
995D
100
AcDbEntity
  8
1
  6
Continuous
100
AcDbCircle
 10
198.102
 20
59.1448
 30
0.0
 40
3.0
100
AcDbArc
 50
270.0
 51
355.9619999999999
  0
ARC
  5
9AEA
330
995D
100
AcDbEntity
  8
1
  6
Continuous
100
AcDbCircle
 10
963.038
 20
94.14480000000001
 30
0.0
 40
700.0
100
AcDbArc
 50
176.309
 51
183.6909999999998
  0
ARC
  5
9AEB
330
995D
100
AcDbEntity
  8
1
  6
Continuous
100
AcDbCircle
 10
265.4879999999999
 20
49.1448
 30
0.0
 40
1.0
100
AcDbArc
 50
183.6909999999998
 51
270.0
  0
ARC
  5
9AEC
330
995D
100
AcDbEntity
  8
1
  6
Continuous
100
AcDbCircle
 10
265.4879999999999
 20
139.145
 30
0.0
 40
1.0
100
AcDbArc
 50
90.0
 51
176.309
  0
ARC
  5
9AED
330
995D
100
AcDbEntity
  8
1
  6
Continuous
100
AcDbCircle
 10
276.3379999999999
 20
126.645
 30
0.0
 40
8.0
100
AcDbArc
 50
0.0
 51
90.0
  0
ARC
  5
9AEE
330
995D
100
AcDbEntity
  8
1
  6
Continuous
100
AcDbCircle
 10
276.3379999999999
 20
61.6448
 30
0.0
 40
8.0
100
AcDbArc
 50
270.0
 51
0.0
  0
ARC
  5
9AEF
330
995D
100
AcDbEntity
  8
1
  6
Continuous
100
AcDbCircle
 10
-649.3669999999997
 20
94.14480000000001
 30
0.0
 40
700.0
100
AcDbArc
 50
356.309
 51
3.691119999999998
  0
ARC
  5
9AF0
330
995D
100
AcDbEntity
  8
1
  6
Continuous
100
AcDbCircle
 10
48.1829
 20
49.1448
 30
0.0
 40
1.0
100
AcDbArc
 50
270.0
 51
356.309
  0
ARC
  5
9AF1
330
995D
100
AcDbEntity
  8
1
  6
Continuous
100
AcDbCircle
 10
48.1829
 20
139.145
 30
0.0
 40
1.0
100
AcDbArc
 50
3.691119999999998
 51
90.0
  0
ARC
  5
9AF2
330
995D
100
AcDbEntity
  8
1
  6
Continuous
100
AcDbCircle
 10
37.3329
 20
126.645
 30
0.0
 40
8.0
100
AcDbArc
 50
90.0
 51
118.9759999999999
  0
ARC
  5
9AF3
330
995D
100
AcDbEntity
  8
1
  6
Continuous
100
AcDbCircle
 10
37.3329
 20
61.6448
 30
0.0
 40
8.0
100
AcDbArc
 50
241.0239999999999
 51
270.0
  0
ARC
  5
9AF4
330
995D
100
AcDbEntity
  8
1
  6
Continuous
100
AcDbCircle
 10
45.1329
 20
58.14479999999999
 30
0.0
 40
1.0
100
AcDbArc
 50
0.0
 51
90.0
  0
ARC
  5
9AF5
330
995D
100
AcDbEntity
  8
1
  6
Continuous
100
AcDbCircle
 10
44.13289999999999
 20
58.14479999999999
 30
0.0
 40
1.0
100
AcDbArc
 50
0.0
 51
90.0
  0
ARC
  5
9AF6
330
995D
100
AcDbEntity
  8
1
  6
Continuous
100
AcDbCircle
 10
44.13289999999999
 20
130.145
 30
0.0
 40
1.0
100
AcDbArc
 50
270.0
 51
0.0
  0
ARC
  5
9AF7
330
995D
100
AcDbEntity
  8
1
  6
Continuous
100
AcDbCircle
 10
45.1329
 20
130.145
 30
0.0
 40
1.0
100
AcDbArc
 50
270.0
 51
0.0
  0
ARC
  5
9AF8
330
995D
100
AcDbEntity
  8
1
  6
Continuous
100
AcDbCircle
 10
174.335
 20
914.4949999999999
 30
0.0
 40
700.0
100
AcDbArc
 50
267.0889999999999
 51
272.9109999999999
  0
ARC
  5
9AF9
330
995D
100
AcDbEntity
  8
1
  6
Continuous
100
AcDbCircle
 10
138.835
 20
216.3969999999999
 30
0.0
 40
1.0
100
AcDbArc
 50
180.0
 51
267.0889999999999
  0
ARC
  5
9AFA
330
995D
100
AcDbEntity
  8
1
  6
Continuous
100
AcDbCircle
 10
209.8349999999999
 20
216.3969999999999
 30
0.0
 40
1.0
100
AcDbArc
 50
272.9109999999999
 51
0.0
  0
ARC
  5
9AFB
330
995D
100
AcDbEntity
  8
1
  6
Continuous
100
AcDbCircle
 10
-297.165
 20
94.14480000000001
 30
0.0
 40
498.0
100
AcDbArc
 50
356.0029999999999
 51
356.7699999999998
  0
ARC
  5
9AFC
330
995D
100
AcDbEntity
  8
1
  6
Continuous
100
AcDbCircle
 10
196.6319999999998
 20
59.6448
 30
0.0
 40
3.0
100
AcDbArc
 50
270.0
 51
356.0029999999999
  0
ARC
  5
9AFD
330
995D
100
AcDbEntity
  8
1
  6
Continuous
100
AcDbCircle
 10
190.06
 20
66.64480000000001
 30
0.0
 40
10.0
100
AcDbArc
 50
356.7699999999998
 51
59.1412
  0
ARC
  5
9AFE
330
995D
100
AcDbEntity
  8
1
  6
Continuous
100
AcDbCircle
 10
220.835
 20
118.151
 30
0.0
 40
50.0
100
AcDbArc
 50
180.0
 51
239.141
  0
ARC
  5
9AFF
330
995D
100
AcDbEntity
  8
1
  6
Continuous
100
AcDbCircle
 10
167.835
 20
128.645
 30
0.0
 40
3.0
100
AcDbArc
 50
0.0
 51
90.0
  0
ARC
  5
9B00
330
995D
100
AcDbEntity
  8
5
  6
PHANTOM
100
AcDbCircle
 10
607.7819999999998
 20
746.8799999999998
 30
0.0
 40
700.0
100
AcDbArc
 50
229.4709999999999
 51
232.5309999999998
  0
ARC
  5
9B01
330
995D
100
AcDbEntity
  8
5
  6
PHANTOM
100
AcDbCircle
 10
183.473
 20
193.2829999999999
 30
0.0
 40
2.5
100
AcDbArc
 50
232.5309999999998
 51
100.421
  0
ARC
  5
9B02
330
995D
100
AcDbEntity
  8
5
  6
PHANTOM
100
AcDbCircle
 10
176.379
 20
214.13
 30
0.0
 40
1.0
100
AcDbArc
 50
320.624
 51
21.7799
  0
ARC
  5
9B03
330
995D
100
AcDbEntity
  8
5
  6
PHANTOM
100
AcDbCircle
 10
146.247
 20
223.9149999999999
 30
0.0
 40
2.5
100
AcDbArc
 50
140.625
 51
228.5699999999999
  0
ARC
  5
9B04
330
995D
100
AcDbEntity
  8
1
  6
Continuous
100
AcDbCircle
 10
32.1329
 20
132.145
 30
0.0
 40
2.0
100
AcDbArc
 50
0.0
 51
90.0
  0
ARC
  5
9B05
330
995D
100
AcDbEntity
  8
1
  6
Continuous
100
AcDbCircle
 10
32.1329
 20
56.1448
 30
0.0
 40
2.0
100
AcDbArc
 50
270.0
 51
0.0
  0
CIRCLE
  5
9B06
330
995D
100
AcDbEntity
  8
2
  6
Continuous
100
AcDbCircle
 10
27.1329
 20
124.1449999999999
 30
0.0
 40
2.5
  0
CIRCLE
  5
9B07
330
995D
100
AcDbEntity
  8
2
  6
Continuous
100
AcDbCircle
 10
27.1329
 20
64.14480000000001
 30
0.0
 40
2.5
  0
CIRCLE
  5
9B08
330
995D
100
AcDbEntity
  8
1
  6
Continuous
100
AcDbCircle
 10
27.1329
 20
124.1449999999999
 30
0.0
 40
2.066999999999997
  0
CIRCLE
  5
9B09
330
995D
100
AcDbEntity
  8
1
  6
Continuous
100
AcDbCircle
 10
27.1329
 20
64.14480000000001
 30
0.0
 40
2.066999999999997
  0
ARC
  5
9B0A
330
995D
100
AcDbEntity
  8
1
  6
Continuous
100
AcDbCircle
 10
122.835
 20
245.995
 30
0.0
 40
2.0
100
AcDbArc
 50
90.0
 51
180.0
  0
ARC
  5
9B0B
330
995D
100
AcDbEntity
  8
1
  6
Continuous
100
AcDbCircle
 10
281.538
 20
132.145
 30
0.0
 40
2.0
100
AcDbArc
 50
90.0
 51
131.471
  0
ARC
  5
9B0C
330
995D
100
AcDbEntity
  8
1
  6
Continuous
100
AcDbCircle
 10
281.538
 20
56.1448
 30
0.0
 40
2.0
100
AcDbArc
 50
228.529
 51
270.0
  0
ARC
  5
9B0D
330
995D
100
AcDbEntity
  8
1
  6
Continuous
100
AcDbCircle
 10
111.8349999999998
 20
100.1449999999999
 30
0.0
 40
1.0
100
AcDbArc
 50
90.0
 51
180.0
  0
ARC
  5
9B0E
330
995D
100
AcDbEntity
  8
1
  6
Continuous
100
AcDbCircle
 10
111.8349999999998
 20
88.14480000000001
 30
0.0
 40
1.0
100
AcDbArc
 50
180.0
 51
270.0
  0
ARC
  5
9B0F
330
995D
100
AcDbEntity
  8
5
  6
PHANTOM
100
AcDbCircle
 10
121.741
 20
236.995
 30
0.0
 40
1.0
100
AcDbArc
 50
148.9819999999999
 51
270.0
  0
ARC
  5
9B10
330
995D
100
AcDbEntity
  8
5
  6
PHANTOM
100
AcDbCircle
 10
142.309
 20
224.6269999999999
 30
0.0
 40
25.0
100
AcDbArc
 50
121.273
 51
148.9819999999999
  0
ARC
  5
9B11
330
995D
100
AcDbEntity
  8
1
  6
Continuous
100
AcDbCircle
 10
28.1329
 20
100.1449999999999
 30
0.0
 40
1.0
100
AcDbArc
 50
0.0
 51
90.0
  0
ARC
  5
9B12
330
995D
100
AcDbEntity
  8
1
  6
Continuous
100
AcDbCircle
 10
28.1329
 20
88.14480000000001
 30
0.0
 40
1.0
100
AcDbArc
 50
270.0
 51
0.0
  0
ARC
  5
9B13
330
995D
100
AcDbEntity
  8
1
  6
Continuous
100
AcDbCircle
 10
20.1329
 20
88.14480000000001
 30
0.0
 40
1.0
100
AcDbArc
 50
180.0
 51
270.0
  0
ARC
  5
9B14
330
995D
100
AcDbEntity
  8
1
  6
Continuous
100
AcDbCircle
 10
20.1329
 20
100.1449999999999
 30
0.0
 40
1.0
100
AcDbArc
 50
90.0
 51
180.0
  0
ARC
  5
9B15
330
995D
100
AcDbEntity
  8
1
  6
Continuous
100
AcDbCircle
 10
200.335
 20
275.495
 30
0.0
 40
2.0
100
AcDbArc
 50
15.0
 51
90.0
  0
ARC
  5
9B16
330
995D
100
AcDbEntity
  8
1
  6
Continuous
100
AcDbCircle
 10
207.899
 20
254.9949999999999
 30
0.0
 40
2.0
100
AcDbArc
 50
195.0
 51
270.0
  0
ARC
  5
9B17
330
995D
100
AcDbEntity
  8
1
  6
Continuous
100
AcDbCircle
 10
405.7409999999999
 20
117.1449999999999
 30
0.0
 40
2.0
100
AcDbArc
 50
0.0
 51
90.0
  0
ARC
  5
9B18
330
995D
100
AcDbEntity
  8
1
  6
Continuous
100
AcDbCircle
 10
405.7409999999999
 20
71.1448
 30
0.0
 40
2.0
100
AcDbArc
 50
270.0
 51
0.000005
  0
ARC
  5
9B19
330
995D
100
AcDbEntity
  8
1
  6
Continuous
100
AcDbCircle
 10
384.1769999999998
 20
117.1449999999999
 30
0.0
 40
2.0
100
AcDbArc
 50
90.0
 51
180.0
  0
ARC
  5
9B1A
330
995D
100
AcDbEntity
  8
1
  6
Continuous
100
AcDbCircle
 10
384.1769999999998
 20
71.1448
 30
0.0
 40
2.0
100
AcDbArc
 50
180.0
 51
270.0
  0
ARC
  5
9B1B
330
995D
100
AcDbEntity
  8
1
  6
Continuous
100
AcDbCircle
 10
407.7409999999998
 20
94.14480000000001
 30
0.0
 40
6.0
100
AcDbArc
 50
113.586
 51
246.4139999999999
  0
ARC
  5
9B1C
330
995D
100
AcDbEntity
  8
1
  6
Continuous
100
AcDbCircle
 10
123.835
 20
119.645
 30
0.0
 40
1.0
100
AcDbArc
 50
90.0
 51
180.0
  0
ARC
  5
9B1D
330
995D
100
AcDbEntity
  8
1
  6
Continuous
100
AcDbCircle
 10
123.835
 20
128.645
 30
0.0
 40
1.0
100
AcDbArc
 50
180.0
 51
270.0
  0
ARC
  5
9B1E
330
995D
100
AcDbEntity
  8
1
  6
Continuous
100
AcDbCircle
 10
123.835
 20
242.4949999999999
 30
0.0
 40
1.0
100
AcDbArc
 50
180.0
 51
270.0
  0
ARC
  5
9B1F
330
995D
100
AcDbEntity
  8
1
  6
Continuous
100
AcDbCircle
 10
123.835
 20
233.495
 30
0.0
 40
1.0
100
AcDbArc
 50
90.0
 51
180.0
  0
ARC
  5
9B20
330
995D
100
AcDbEntity
  8
1
  6
Continuous
100
AcDbCircle
 10
123.835
 20
59.6448
 30
0.0
 40
1.0
100
AcDbArc
 50
90.0
 51
180.0
  0
ARC
  5
9B21
330
995D
100
AcDbEntity
  8
1
  6
Continuous
100
AcDbCircle
 10
123.835
 20
68.6448
 30
0.0
 40
1.0
100
AcDbArc
 50
180.0
 51
270.0
  0
CIRCLE
  5
9B22
330
995D
100
AcDbEntity
  8
1
  6
Continuous
100
AcDbCircle
 10
171.335
 20
66.1448
 30
0.0
 40
6.7
  0
ARC
  5
9B23
330
995D
100
AcDbEntity
  8
1
  6
Continuous
100
AcDbCircle
 10
54.00914199999998
 20
235.9629689999999
 30
0.0
 40
1.0
100
AcDbArc
 50
315.0
 51
45.0
  0
ARC
  5
9B24
330
995D
100
AcDbEntity
  8
1
  6
Continuous
100
AcDbCircle
 10
43.509142
 20
231.9629689999999
 30
0.0
 40
0.5
100
AcDbArc
 50
270.0
 51
0.0
  0
ARC
  5
9B25
330
995D
100
AcDbEntity
  8
1
  6
Continuous
100
AcDbCircle
 10
43.509142
 20
239.9629689999999
 30
0.0
 40
0.5
100
AcDbArc
 50
0.0
 51
90.0
  0
ARC
  5
9B26
330
995D
100
AcDbEntity
  8
1
  6
Continuous
100
AcDbCircle
 10
23.509142
 20
238.462969
 30
0.0
 40
0.5
100
AcDbArc
 50
90.0
 51
180.0
  0
ARC
  5
9B27
330
995D
100
AcDbEntity
  8
1
  6
Continuous
100
AcDbCircle
 10
25.009142
 20
238.462969
 30
0.0
 40
0.5
100
AcDbArc
 50
0.0
 51
90.0
  0
ARC
  5
9B28
330
995D
100
AcDbEntity
  8
1
  6
Continuous
100
AcDbCircle
 10
22.009142
 20
239.1229689999999
 30
0.0
 40
1.0
100
AcDbArc
 50
142.431
 51
180.0
  0
ARC
  5
9B29
330
995D
100
AcDbEntity
  8
1
  6
Continuous
100
AcDbCircle
 10
22.009142
 20
232.802969
 30
0.0
 40
1.0
100
AcDbArc
 50
180.0
 51
217.5689999999999
  0
ARC
  5
9B2A
330
995D
100
AcDbEntity
  8
1
  6
Continuous
100
AcDbCircle
 10
26.50154199999999
 20
226.9629689999999
 30
0.0
 40
1.0
100
AcDbArc
 50
217.5689999999999
 51
270.0
  0
ARC
  5
9B2B
330
995D
100
AcDbEntity
  8
1
  6
Continuous
100
AcDbCircle
 10
29.240542
 20
226.9629689999999
 30
0.0
 40
1.0
100
AcDbArc
 50
270.0
 51
300.069
  0
ARC
  5
9B2C
330
995D
100
AcDbEntity
  8
1
  6
Continuous
100
AcDbCircle
 10
26.50154199999999
 20
244.962969
 30
0.0
 40
1.0
100
AcDbArc
 50
90.0
 51
142.431
  0
ARC
  5
9B2D
330
995D
100
AcDbEntity
  8
1
  6
Continuous
100
AcDbCircle
 10
29.240542
 20
244.962969
 30
0.0
 40
1.0
100
AcDbArc
 50
59.9314
 51
90.0
  0
ARC
  5
9B2E
330
995D
100
AcDbEntity
  8
1
  6
Continuous
100
AcDbCircle
 10
31.009142
 20
231.2409689999999
 30
0.0
 40
2.0282
100
AcDbArc
 50
215.5379999999999
 51
256.5369999999999
  0
ARC
  5
9B2F
330
995D
100
AcDbEntity
  8
1
  6
Continuous
100
AcDbCircle
 10
37.61974199999999
 20
235.9629689999999
 30
0.0
 40
10.1519
100
AcDbArc
 50
144.462
 51
215.5379999999999
  0
ARC
  5
9B30
330
995D
100
AcDbEntity
  8
1
  6
Continuous
100
AcDbCircle
 10
31.009142
 20
240.684969
 30
0.0
 40
2.0282
100
AcDbArc
 50
45.6988
 51
144.462
  0
ARC
  5
9B31
330
995D
100
AcDbEntity
  8
1
  6
Continuous
100
AcDbCircle
 10
31.009142
 20
231.2409689999999
 30
0.0
 40
2.0282
100
AcDbArc
 50
256.5369999999999
 51
324.4619999999998
  0
ARC
  5
9B32
330
995D
100
AcDbEntity
  8
1
  6
Continuous
100
AcDbCircle
 10
24.39864200000001
 20
235.9629689999999
 30
0.0
 40
10.1519
100
AcDbArc
 50
324.4619999999998
 51
35.5377
  0
ARC
  5
9B33
330
995D
100
AcDbEntity
  8
1
  6
Continuous
100
AcDbCircle
 10
31.009142
 20
240.684969
 30
0.0
 40
2.0282
100
AcDbArc
 50
35.5377
 51
45.6988
  0
ARC
  5
9B34
330
995D
100
AcDbEntity
  8
1
  6
Continuous
100
AcDbCircle
 10
29.557242
 20
232.027969
 30
0.0
 40
0.3935
100
AcDbArc
 50
206.014
 51
270.0
  0
ARC
  5
9B35
330
995D
100
AcDbEntity
  8
1
  6
Continuous
100
AcDbCircle
 10
37.61974199999999
 20
235.9629689999999
 30
0.0
 40
9.3649
100
AcDbArc
 50
202.944
 51
206.014
  0
ARC
  5
9B36
330
995D
100
AcDbEntity
  8
1
  6
Continuous
100
AcDbCircle
 10
29.06814199999999
 20
232.3429689999999
 30
0.0
 40
0.0787
100
AcDbArc
 50
90.0
 51
202.944
  0
ARC
  5
9B37
330
995D
100
AcDbEntity
  8
1
  6
Continuous
100
AcDbCircle
 10
32.95024199999998
 20
232.3429689999999
 30
0.0
 40
0.0787
100
AcDbArc
 50
337.0559999999999
 51
90.0
  0
ARC
  5
9B38
330
995D
100
AcDbEntity
  8
1
  6
Continuous
100
AcDbCircle
 10
24.39864200000001
 20
235.9629689999999
 30
0.0
 40
9.3649
100
AcDbArc
 50
333.9859999999998
 51
337.0559999999999
  0
ARC
  5
9B39
330
995D
100
AcDbEntity
  8
1
  6
Continuous
100
AcDbCircle
 10
24.39864200000001
 20
235.9629689999999
 30
0.0
 40
9.3649
100
AcDbArc
 50
333.9859999999998
 51
334.7709999999999
  0
ARC
  5
9B3A
330
995D
100
AcDbEntity
  8
1
  6
Continuous
100
AcDbCircle
 10
32.46114199999999
 20
232.027969
 30
0.0
 40
0.3935
100
AcDbArc
 50
270.0
 51
333.9859999999998
  0
ARC
  5
9B3B
330
995D
100
AcDbEntity
  8
1
  6
Continuous
100
AcDbCircle
 10
28.56174199999999
 20
233.9169689999999
 30
0.0
 40
0.0787
100
AcDbArc
 50
90.0
 51
192.729
  0
ARC
  5
9B3C
330
995D
100
AcDbEntity
  8
1
  6
Continuous
100
AcDbCircle
 10
37.61974199999999
 20
235.9629689999999
 30
0.0
 40
9.3649
100
AcDbArc
 50
192.729
 51
193.2679999999999
  0
ARC
  5
9B3D
330
995D
100
AcDbEntity
  8
1
  6
Continuous
100
AcDbCircle
 10
37.61974199999999
 20
235.9629689999999
 30
0.0
 40
9.3649
100
AcDbArc
 50
193.2679999999999
 51
195.257
  0
ARC
  5
9B3E
330
995D
100
AcDbEntity
  8
1
  6
Continuous
100
AcDbCircle
 10
28.96444199999999
 20
233.601969
 30
0.0
 40
0.3935
100
AcDbArc
 50
195.257
 51
270.0
  0
ARC
  5
9B3F
330
995D
100
AcDbEntity
  8
1
  6
Continuous
100
AcDbCircle
 10
33.05384199999998
 20
233.601969
 30
0.0
 40
0.3935
100
AcDbArc
 50
270.0
 51
344.7419999999998
  0
ARC
  5
9B40
330
995D
100
AcDbEntity
  8
1
  6
Continuous
100
AcDbCircle
 10
24.39864200000001
 20
235.9629689999999
 30
0.0
 40
9.3649
100
AcDbArc
 50
344.7419999999998
 51
344.794
  0
ARC
  5
9B41
330
995D
100
AcDbEntity
  8
1
  6
Continuous
100
AcDbCircle
 10
24.39864200000001
 20
235.9629689999999
 30
0.0
 40
9.3649
100
AcDbArc
 50
344.794
 51
347.2709999999998
  0
ARC
  5
9B42
330
995D
100
AcDbEntity
  8
1
  6
Continuous
100
AcDbCircle
 10
33.45664199999998
 20
233.9169689999999
 30
0.0
 40
0.0787
100
AcDbArc
 50
347.2709999999998
 51
90.0
  0
ARC
  5
9B43
330
995D
100
AcDbEntity
  8
1
  6
Continuous
100
AcDbCircle
 10
28.78744199999999
 20
237.5369689999998
 30
0.0
 40
0.3935
100
AcDbArc
 50
90.0
 51
169.896
  0
ARC
  5
9B44
330
995D
100
AcDbEntity
  8
1
  6
Continuous
100
AcDbCircle
 10
37.61974199999999
 20
235.9629689999999
 30
0.0
 40
9.3649
100
AcDbArc
 50
169.896
 51
172.2069999999999
  0
ARC
  5
9B45
330
995D
100
AcDbEntity
  8
1
  6
Continuous
100
AcDbCircle
 10
28.41924199999999
 20
237.221969
 30
0.0
 40
0.0787
100
AcDbArc
 50
172.2069999999999
 51
270.0
  0
ARC
  5
9B46
330
995D
100
AcDbEntity
  8
1
  6
Continuous
100
AcDbCircle
 10
33.599142
 20
237.221969
 30
0.0
 40
0.0787
100
AcDbArc
 50
270.0
 51
7.792900000000001
  0
ARC
  5
9B47
330
995D
100
AcDbEntity
  8
1
  6
Continuous
100
AcDbCircle
 10
24.39864200000001
 20
235.9629689999999
 30
0.0
 40
9.3649
100
AcDbArc
 50
7.792900000000001
 51
10.1042
  0
ARC
  5
9B48
330
995D
100
AcDbEntity
  8
1
  6
Continuous
100
AcDbCircle
 10
33.23094199999999
 20
237.5369689999998
 30
0.0
 40
0.3935
100
AcDbArc
 50
10.1042
 51
90.0
  0
ARC
  5
9B49
330
995D
100
AcDbEntity
  8
1
  6
Continuous
100
AcDbCircle
 10
30.61574199999999
 20
239.8979689999999
 30
0.0
 40
0.3935
100
AcDbArc
 50
270.0
 51
90.0
  0
CIRCLE
  5
9B4A
330
995D
100
AcDbEntity
  8
1
  6
Continuous
100
AcDbCircle
 10
156.835
 20
224.995
 30
0.0
 40
4.0
  0
ARC
  5
9B4B
330
995D
100
AcDbEntity
  8
1
  6
Continuous
100
AcDbCircle
 10
893.7410000000001
 20
94.14480000000001
 30
0.0
 40
508.4999999999998
100
AcDbArc
 50
175.532
 51
177.1819999999999
  0
ARC
  5
9B4C
330
995D
100
AcDbEntity
  8
1
  6
Continuous
100
AcDbCircle
 10
421.741
 20
548.1449999999998
 30
0.0
 40
500.0
100
AcDbArc
 50
266.6379999999999
 51
273.362
  0
ARC
  5
9B4D
330
995D
100
AcDbEntity
  8
1
  6
Continuous
100
AcDbCircle
 10
421.741
 20
-359.855
 30
0.0
 40
500.0
100
AcDbArc
 50
86.63769999999997
 51
93.3623
  0
ARC
  5
9B4E
330
995D
100
AcDbEntity
  8
1
  6
Continuous
100
AcDbCircle
 10
392.7679999999999
 20
54.9952
 30
0.0
 40
6.0
100
AcDbArc
 50
184.4679999999999
 51
266.6379999999999
  0
ARC
  5
9B4F
330
995D
100
AcDbEntity
  8
1
  6
Continuous
100
AcDbCircle
 10
450.713
 20
54.9952
 30
0.0
 40
6.0
100
AcDbArc
 50
273.362
 51
351.8519999999999
  0
ARC
  5
9B50
330
995D
100
AcDbEntity
  8
1
  6
Continuous
100
AcDbCircle
 10
450.713
 20
133.2939999999998
 30
0.0
 40
6.0
100
AcDbArc
 50
8.147600000000002
 51
86.63769999999997
  0
ARC
  5
9B51
330
995D
100
AcDbEntity
  8
1
  6
Continuous
100
AcDbCircle
 10
392.7679999999999
 20
133.2939999999998
 30
0.0
 40
6.0
100
AcDbArc
 50
93.3623
 51
175.532
  0
ARC
  5
9B52
330
995D
100
AcDbEntity
  8
1
  6
Continuous
100
AcDbCircle
 10
409.7409999999999
 20
94.14480000000001
 30
0.0
 40
7.0
100
AcDbArc
 50
135.0
 51
225.0
  0
ARC
  5
9B53
330
995D
100
AcDbEntity
  8
1
  6
Continuous
100
AcDbCircle
 10
893.7410000000001
 20
94.14480000000001
 30
0.0
 40
508.4999999999998
100
AcDbArc
 50
182.818
 51
184.4679999999999
  0
ARC
  5
9B54
330
995D
100
AcDbEntity
  8
1
  6
Continuous
100
AcDbCircle
 10
400.741
 20
74.14480000000001
 30
0.0
 40
2.1
100
AcDbArc
 50
348.463
 51
11.537
  0
ARC
  5
9B55
330
995D
100
AcDbEntity
  8
1
  6
Continuous
100
AcDbCircle
 10
400.741
 20
74.14480000000001
 30
0.0
 40
2.1
100
AcDbArc
 50
78.46299999999998
 51
101.537
  0
ARC
  5
9B56
330
995D
100
AcDbEntity
  8
1
  6
Continuous
100
AcDbCircle
 10
400.741
 20
74.14480000000001
 30
0.0
 40
2.1
100
AcDbArc
 50
168.463
 51
191.5369999999998
  0
ARC
  5
9B57
330
995D
100
AcDbEntity
  8
1
  6
Continuous
100
AcDbCircle
 10
400.741
 20
74.14480000000001
 30
0.0
 40
2.1
100
AcDbArc
 50
258.4629999999999
 51
281.5369999999999
  0
CIRCLE
  5
9B58
330
995D
100
AcDbEntity
  8
1
  6
Continuous
100
AcDbCircle
 10
400.741
 20
74.14480000000001
 30
0.0
 40
3.5
  0
ARC
  5
9B59
330
995D
100
AcDbEntity
  8
1
  6
Continuous
100
AcDbCircle
 10
111.741
 20
236.995
 30
0.0
 40
1.0
100
AcDbArc
 50
148.9819999999999
 51
270.0
  0
ARC
  5
9B5A
330
995D
100
AcDbEntity
  8
1
  6
Continuous
100
AcDbCircle
 10
132.309
 20
224.6269999999999
 30
0.0
 40
25.0
100
AcDbArc
 50
121.273
 51
148.9819999999999
  0
ARC
  5
9B5B
330
995D
100
AcDbEntity
  8
1
  6
Continuous
100
AcDbCircle
 10
400.741
 20
114.145
 30
0.0
 40
2.1
100
AcDbArc
 50
78.46299999999998
 51
101.537
  0
ARC
  5
9B5C
330
995D
100
AcDbEntity
  8
1
  6
Continuous
100
AcDbCircle
 10
400.741
 20
114.145
 30
0.0
 40
2.1
100
AcDbArc
 50
348.463
 51
11.537
  0
ARC
  5
9B5D
330
995D
100
AcDbEntity
  8
1
  6
Continuous
100
AcDbCircle
 10
400.741
 20
114.145
 30
0.0
 40
2.1
100
AcDbArc
 50
258.4629999999999
 51
281.5369999999999
  0
ARC
  5
9B5E
330
995D
100
AcDbEntity
  8
1
  6
Continuous
100
AcDbCircle
 10
400.741
 20
114.145
 30
0.0
 40
2.1
100
AcDbArc
 50
168.463
 51
191.5369999999998
  0
CIRCLE
  5
9B5F
330
995D
100
AcDbEntity
  8
1
  6
Continuous
100
AcDbCircle
 10
400.741
 20
114.145
 30
0.0
 40
3.5
  0
ARC
  5
9B60
330
995D
100
AcDbEntity
  8
1
  6
Continuous
100
AcDbCircle
 10
409.7409999999999
 20
94.14480000000001
 30
0.0
 40
2.25
100
AcDbArc
 50
349.2419999999999
 51
10.7583
  0
ARC
  5
9B61
330
995D
100
AcDbEntity
  8
1
  6
Continuous
100
AcDbCircle
 10
409.7409999999999
 20
94.14480000000001
 30
0.0
 40
2.25
100
AcDbArc
 50
79.24169999999998
 51
100.7579999999999
  0
ARC
  5
9B62
330
995D
100
AcDbEntity
  8
1
  6
Continuous
100
AcDbCircle
 10
409.7409999999999
 20
94.14480000000001
 30
0.0
 40
2.25
100
AcDbArc
 50
169.242
 51
190.758
  0
ARC
  5
9B63
330
995D
100
AcDbEntity
  8
1
  6
Continuous
100
AcDbCircle
 10
409.7409999999999
 20
94.14480000000001
 30
0.0
 40
2.25
100
AcDbArc
 50
259.242
 51
280.7579999999999
  0
CIRCLE
  5
9B64
330
995D
100
AcDbEntity
  8
1
  6
Continuous
100
AcDbCircle
 10
409.7409999999999
 20
94.14480000000001
 30
0.0
 40
4.0
  0
ARC
  5
9B65
330
995D
100
AcDbEntity
  8
1
  6
Continuous
100
AcDbCircle
 10
444.7409999999998
 20
64.14480000000001
 30
0.0
 40
2.25
100
AcDbArc
 50
349.2419999999999
 51
10.7583
  0
ARC
  5
9B66
330
995D
100
AcDbEntity
  8
1
  6
Continuous
100
AcDbCircle
 10
444.7409999999998
 20
64.14480000000001
 30
0.0
 40
2.25
100
AcDbArc
 50
79.24169999999998
 51
100.7579999999999
  0
ARC
  5
9B67
330
995D
100
AcDbEntity
  8
1
  6
Continuous
100
AcDbCircle
 10
444.7409999999998
 20
64.14480000000001
 30
0.0
 40
2.25
100
AcDbArc
 50
169.242
 51
190.758
  0
ARC
  5
9B68
330
995D
100
AcDbEntity
  8
1
  6
Continuous
100
AcDbCircle
 10
444.7409999999998
 20
64.14480000000001
 30
0.0
 40
2.25
100
AcDbArc
 50
259.242
 51
280.7579999999999
  0
CIRCLE
  5
9B69
330
995D
100
AcDbEntity
  8
1
  6
Continuous
100
AcDbCircle
 10
444.7409999999998
 20
64.14480000000001
 30
0.0
 40
4.0
  0
ARC
  5
9B6A
330
995D
100
AcDbEntity
  8
1
  6
Continuous
100
AcDbCircle
 10
444.7409999999998
 20
124.1449999999999
 30
0.0
 40
2.25
100
AcDbArc
 50
349.2419999999999
 51
10.7583
  0
ARC
  5
9B6B
330
995D
100
AcDbEntity
  8
1
  6
Continuous
100
AcDbCircle
 10
444.7409999999998
 20
124.1449999999999
 30
0.0
 40
2.25
100
AcDbArc
 50
79.24169999999998
 51
100.7579999999999
  0
ARC
  5
9B6C
330
995D
100
AcDbEntity
  8
1
  6
Continuous
100
AcDbCircle
 10
444.7409999999998
 20
124.1449999999999
 30
0.0
 40
2.25
100
AcDbArc
 50
169.242
 51
190.758
  0
ARC
  5
9B6D
330
995D
100
AcDbEntity
  8
1
  6
Continuous
100
AcDbCircle
 10
444.7409999999998
 20
124.1449999999999
 30
0.0
 40
2.25
100
AcDbArc
 50
259.242
 51
280.7579999999999
  0
CIRCLE
  5
9B6E
330
995D
100
AcDbEntity
  8
1
  6
Continuous
100
AcDbCircle
 10
444.7409999999998
 20
124.1449999999999
 30
0.0
 40
4.0
  0
ARC
  5
9B6F
330
995D
100
AcDbEntity
  8
5
  6
PHANTOM
100
AcDbCircle
 10
607.7819999999998
 20
746.8799999999998
 30
0.0
 40
700.0
100
AcDbArc
 50
228.5699999999999
 51
228.763
  0
ARC
  5
9B70
330
995D
100
AcDbEntity
  8
1
  6
Continuous
100
AcDbCircle
 10
193.27
 20
280.301
 30
0.0
 40
1.3
100
AcDbArc
 50
105.881
 51
175.0
  0
ARC
  5
9B71
330
995D
100
AcDbEntity
  8
1
  6
Continuous
100
AcDbCircle
 10
195.377
 20
272.8949999999999
 30
0.0
 40
9.0
100
AcDbArc
 50
74.1191
 51
105.881
  0
ARC
  5
9B72
330
995D
100
AcDbEntity
  8
1
  6
Continuous
100
AcDbCircle
 10
197.484
 20
280.301
 30
0.0
 40
1.3
100
AcDbArc
 50
5.00004
 51
74.1191
  0
CIRCLE
  5
9B73
330
995D
100
AcDbEntity
  8
1
  6
Continuous
100
AcDbCircle
 10
400.741
 20
114.145
 30
0.0
 40
3.799999999999998
  0
CIRCLE
  5
9B74
330
995D
100
AcDbEntity
  8
1
  6
Continuous
100
AcDbCircle
 10
400.741
 20
114.145
 30
0.0
 40
5.0
  0
CIRCLE
  5
9B75
330
995D
100
AcDbEntity
  8
1
  6
Continuous
100
AcDbCircle
 10
400.741
 20
74.14480000000001
 30
0.0
 40
5.0
  0
CIRCLE
  5
9B76
330
995D
100
AcDbEntity
  8
1
  6
Continuous
100
AcDbCircle
 10
400.741
 20
74.14480000000001
 30
0.0
 40
3.799999999999998
  0
ARC
  5
9B77
330
995D
100
AcDbEntity
  8
1
  6
Continuous
100
AcDbCircle
 10
338.844
 20
72.0378
 30
0.0
 40
1.3
100
AcDbArc
 50
275.0
 51
344.1190000000001
  0
ARC
  5
9B78
330
995D
100
AcDbEntity
  8
1
  6
Continuous
100
AcDbCircle
 10
331.4379999999999
 20
74.1449
 30
0.0
 40
9.0
100
AcDbArc
 50
344.1190000000001
 51
15.8809
  0
ARC
  5
9B79
330
995D
100
AcDbEntity
  8
1
  6
Continuous
100
AcDbCircle
 10
338.844
 20
76.2518
 30
0.0
 40
1.3
100
AcDbArc
 50
15.8809
 51
85.0
  0
ARC
  5
9B7A
330
995D
100
AcDbEntity
  8
1
  6
Continuous
100
AcDbCircle
 10
338.844
 20
112.0379999999999
 30
0.0
 40
1.3
100
AcDbArc
 50
275.0
 51
344.1190000000001
  0
ARC
  5
9B7B
330
995D
100
AcDbEntity
  8
1
  6
Continuous
100
AcDbCircle
 10
331.4379999999999
 20
114.145
 30
0.0
 40
9.0
100
AcDbArc
 50
344.1190000000001
 51
15.8809
  0
ARC
  5
9B7C
330
995D
100
AcDbEntity
  8
1
  6
Continuous
100
AcDbCircle
 10
338.844
 20
116.252
 30
0.0
 40
1.3
100
AcDbArc
 50
15.8809
 51
85.0
  0
ARC
  5
9B7D
330
995D
100
AcDbEntity
  8
1
  6
Continuous
100
AcDbCircle
 10
187.3369999999999
 20
218.7949999999999
 30
0.0
 40
17.0
100
AcDbArc
 50
0.674125
 51
90.0
  0
ARC
  5
9B7E
330
995D
100
AcDbEntity
  8
1
  6
Continuous
100
AcDbCircle
 10
282.684
 20
114.145
 30
0.0
 40
5.011899999999998
100
AcDbArc
 50
93.9492
 51
266.0509999999998
  0
ARC
  5
9B7F
330
995D
100
AcDbEntity
  8
1
  6
Continuous
100
AcDbCircle
 10
282.684
 20
74.14480000000001
 30
0.0
 40
5.011899999999998
100
AcDbArc
 50
93.9492
 51
266.0509999999998
  0
ARC
  5
9B80
330
995D
100
AcDbEntity
  8
1
  6
Continuous
100
AcDbCircle
 10
198.3369999999999
 20
239.995
 30
0.0
 40
2.0
100
AcDbArc
 50
0.0
 51
90.0
  0
ARC
  5
9B81
330
995D
100
AcDbEntity
  8
1
  6
Continuous
100
AcDbCircle
 10
190.3369999999999
 20
239.995
 30
0.0
 40
2.0
100
AcDbArc
 50
90.0
 51
180.0
  0
ARC
  5
9B82
330
995D
100
AcDbEntity
  8
1
  6
Continuous
100
AcDbCircle
 10
211.899
 20
117.1449999999999
 30
0.0
 40
2.0
100
AcDbArc
 50
0.0
 51
90.0
  0
ARC
  5
9B83
330
995D
100
AcDbEntity
  8
1
  6
Continuous
100
AcDbCircle
 10
211.899
 20
71.1448
 30
0.0
 40
2.0
100
AcDbArc
 50
270.0
 51
0.0
  0
ARC
  5
9B84
330
995D
100
AcDbEntity
  8
1
  6
Continuous
100
AcDbCircle
 10
397.7409999999999
 20
128.645
 30
0.0
 40
6.0
100
AcDbArc
 50
90.0
 51
180.0
  0
ARC
  5
9B85
330
995D
100
AcDbEntity
  8
1
  6
Continuous
100
AcDbCircle
 10
397.7409999999999
 20
59.6448
 30
0.0
 40
6.0
100
AcDbArc
 50
180.0
 51
270.0
  0
LINE
  5
9B86
330
995D
100
AcDbEntity
  8
1
  6
Continuous
100
AcDbLine
 10
473.2409999999998
 20
101.3448
 30
0.0
 11
473.2409999999998
 21
86.9448
 31
0.0
  0
LINE
  5
9B87
330
995D
100
AcDbEntity
  8
1
  6
Continuous
100
AcDbLine
 10
475.241
 20
87.1448
 30
0.0
 11
475.241
 21
54.1448
 31
0.0
  0
LINE
  5
9B88
330
995D
100
AcDbEntity
  8
1
  6
Continuous
100
AcDbLine
 10
476.7409999999999
 20
101.1449999999999
 30
0.0
 11
476.7409999999999
 21
87.1448
 31
0.0
  0
LINE
  5
9B89
330
995D
100
AcDbEntity
  8
1
  6
Continuous
100
AcDbLine
 10
484.241
 20
101.1448
 30
0.0
 11
473.2409999999998
 21
101.1448
 31
0.0
  0
LINE
  5
9B8A
330
995D
100
AcDbEntity
  8
1
  6
Continuous
100
AcDbLine
 10
484.241
 20
87.1448
 30
0.0
 11
473.2409999999998
 21
87.1448
 31
0.0
  0
ARC
  5
9B8B
330
995D
100
AcDbEntity
  8
1
  6
Continuous
100
AcDbCircle
 10
484.241
 20
100.1448
 30
0.0
 40
1.0
100
AcDbArc
 50
0.0
 51
90.0
  0
ARC
  5
9B8C
330
995D
100
AcDbEntity
  8
1
  6
Continuous
100
AcDbCircle
 10
484.241
 20
88.14480000000001
 30
0.0
 40
1.0
100
AcDbArc
 50
270.0
 51
0.0
  0
LINE
  5
9B8D
330
995D
100
AcDbEntity
  8
1
  6
Continuous
100
AcDbLine
 10
475.241
 20
101.3448
 30
0.0
 11
473.2409999999998
 21
101.3448
 31
0.0
  0
LINE
  5
9B8E
330
995D
100
AcDbEntity
  8
1
  6
Continuous
100
AcDbLine
 10
475.241
 20
86.9448
 30
0.0
 11
473.2409999999998
 21
86.9448
 31
0.0
  0
LINE
  5
9B8F
330
995D
100
AcDbEntity
  8
4
  6
CENTER
100
AcDbLine
 10
17.794098
 20
235.9629689999999
 30
0.0
 11
57.890203
 21
235.9629689999999
 31
0.0
  0
ARC
  5
9B90
330
995D
100
AcDbEntity
  8
1
  6
Continuous
100
AcDbCircle
 10
23.509142
 20
233.4629689999999
 30
0.0
 40
0.5
100
AcDbArc
 50
180.0
 51
270.0
  0
LINE
  5
9B91
330
995D
100
AcDbEntity
  8
1
  6
Continuous
100
AcDbLine
 10
25.009142
 20
232.9629689999999
 30
0.0
 11
23.509142
 21
232.9629689999999
 31
0.0
  0
ARC
  5
9B92
330
995D
100
AcDbEntity
  8
1
  6
Continuous
100
AcDbCircle
 10
25.009142
 20
233.4629689999999
 30
0.0
 40
0.5
100
AcDbArc
 50
270.0
 51
0.0
  0
ENDSEC
  0
SECTION
  2
OBJECTS
  0
DICTIONARY
  5
994B
330
0
100
AcDbDictionary
281
     1
  3
ACAD_CIP_PREVIOUS_PRODUCT_INFO
350
9BF8
  3
ACAD_COLOR
350
9BDA
  3
ACAD_DETAILVIEWSTYLE
350
9BF3
  3
ACAD_GROUP
350
994C
  3
ACAD_LAYOUT
350
9958
  3
ACAD_MATERIAL
350
9BA8
  3
ACAD_MLEADERSTYLE
350
9BEF
  3
ACAD_MLINESTYLE
350
9955
  3
ACAD_PLOTSETTINGS
350
9957
  3
ACAD_PLOTSTYLENAME
350
9BA6
  3
ACAD_SCALELIST
350
9BDD
  3
ACAD_SECTIONVIEWSTYLE
350
9BF1
  3
ACAD_TABLESTYLE
350
9BDB
  3
ACAD_VISUALSTYLE
350
9BC1
  3
ACDB_RECOMPOSE_DATA
350
9C16
  3
AcDbVariableDictionary
350
9C09
  3
DWGPROPS
350
9C17
  0
DICTIONARY
  5
9BF9
330
994F
100
AcDbDictionary
280
     1
281
     1
  3
ADSK_XREC_LAYER_RECONCILED
360
9BFA
  0
DICTIONARY
  5
9BFB
330
9965
100
AcDbDictionary
280
     1
281
     1
  3
ADSK_XREC_LAYER_RECONCILED
360
9BFC
  0
DICTIONARY
  5
9BFD
330
9966
100
AcDbDictionary
280
     1
281
     1
  3
ADSK_XREC_LAYER_RECONCILED
360
9BFE
  0
DICTIONARY
  5
9BFF
330
9967
100
AcDbDictionary
280
     1
281
     1
  3
ADSK_XREC_LAYER_RECONCILED
360
9C00
  0
DICTIONARY
  5
9C01
330
9968
100
AcDbDictionary
280
     1
281
     1
  3
ADSK_XREC_LAYER_RECONCILED
360
9C02
  0
DICTIONARY
  5
9C03
330
9969
100
AcDbDictionary
280
     1
281
     1
  3
ADSK_XREC_LAYER_RECONCILED
360
9C04
  0
DICTIONARY
  5
9C05
330
996A
100
AcDbDictionary
280
     1
281
     1
  3
ADSK_XREC_LAYER_RECONCILED
360
9C06
  0
DICTIONARY
  5
9C07
330
996B
100
AcDbDictionary
280
     1
281
     1
  3
ADSK_XREC_LAYER_RECONCILED
360
9C08
  0
DICTIONARY
  5
9BA1
330
995D
100
AcDbDictionary
281
     1
  3
ACAD_LAYOUTSELFREF
350
9BA2
  0
DICTIONARY
  5
9B9F
330
9959
100
AcDbDictionary
281
     1
  3
ACAD_LAYOUTSELFREF
350
9BA0
  0
XRECORD
  5
9BF8
102
{ACAD_REACTORS
330
994B
102
}
330
994B
100
AcDbXrecord
280
     1
300
ACDLT
300
2014
300
ACDLT_F_S
  0
DICTIONARY
  5
9BDA
102
{ACAD_REACTORS
330
994B
102
}
330
994B
100
AcDbDictionary
281
     1
  0
DICTIONARY
  5
9BF3
102
{ACAD_REACTORS
330
994B
102
}
330
994B
100
AcDbDictionary
281
     1
  3
Imperial24
350
9BF4
  0
DICTIONARY
  5
994C
102
{ACAD_REACTORS
330
994B
102
}
330
994B
100
AcDbDictionary
281
     1
  0
DICTIONARY
  5
9958
102
{ACAD_REACTORS
330
994B
102
}
330
994B
100
AcDbDictionary
281
     1
  3
Model
350
9BF5
  3
レイアウト1
350
9BF6
  0
DICTIONARY
  5
9BA8
102
{ACAD_REACTORS
330
994B
102
}
330
994B
100
AcDbDictionary
281
     1
  3
ByBlock
350
9BB1
  3
ByLayer
350
9BA9
  3
Global
350
9BB9
  0
DICTIONARY
  5
9BEF
102
{ACAD_REACTORS
330
994B
102
}
330
994B
100
AcDbDictionary
281
     1
  3
Standard
350
9BF0
  0
DICTIONARY
  5
9955
102
{ACAD_REACTORS
330
994B
102
}
330
994B
100
AcDbDictionary
281
     1
  3
STANDARD
350
9956
  0
DICTIONARY
  5
9957
102
{ACAD_REACTORS
330
994B
102
}
330
994B
100
AcDbDictionary
281
     1
  0
ACDBDICTIONARYWDFLT
  5
9BA6
102
{ACAD_REACTORS
330
994B
102
}
330
994B
100
AcDbDictionary
281
     1
  3
Normal
350
9BA7
100
AcDbDictionaryWithDefault
340
9BA7
  0
DICTIONARY
  5
9BDD
102
{ACAD_REACTORS
330
994B
102
}
330
994B
100
AcDbDictionary
281
     1
  3
A0
350
9BDE
  3
A1
350
9BDF
  3
A2
350
9BE0
  3
A3
350
9BE1
  3
A4
350
9BE2
  3
A5
350
9BE3
  3
A6
350
9BE4
  3
A7
350
9BE5
  3
A8
350
9BE6
  3
A9
350
9BE7
  3
B0
350
9BE8
  3
B1
350
9BE9
  3
B2
350
9BEA
  3
B3
350
9BEB
  3
B4
350
9BEC
  3
B5
350
9BED
  3
B6
350
9BEE
  0
DICTIONARY
  5
9BF1
102
{ACAD_REACTORS
330
994B
102
}
330
994B
100
AcDbDictionary
281
     1
  3
Imperial24
350
9BF2
  0
DICTIONARY
  5
9BDB
102
{ACAD_REACTORS
330
994B
102
}
330
994B
100
AcDbDictionary
281
     1
  3
Standard
350
9BDC
  0
DICTIONARY
  5
9BC1
102
{ACAD_REACTORS
330
994B
102
}
330
994B
100
AcDbDictionary
281
     1
  3
2dWireframe
350
9BC7
  3
Basic
350
9BC6
  3
Brighten
350
9BCD
  3
ColorChange
350
9BD1
  3
Conceptual
350
9BCA
  3
Dim
350
9BCC
  3
EdgeColorOff
350
9BD9
  3
Facepattern
350
9BD0
  3
Flat
350
9BC2
  3
FlatWithEdges
350
9BC3
  3
Gouraud
350
9BC4
  3
GouraudWithEdges
350
9BC5
  3
Hidden
350
9BC9
  3
JitterOff
350
9BD7
  3
Linepattern
350
9BCF
  3
OverhangOff
350
9BD8
  3
Realistic
350
9BCB
  3
Shaded
350
9BD6
  3
Shaded with edges
350
9BD5
  3
Shades of Gray
350
9BD2
  3
Sketchy
350
9BD3
  3
Thicken
350
9BCE
  3
Wireframe
350
9BC8
  3
X-Ray
350
9BD4
  0
XRECORD
  5
9C16
102
{ACAD_REACTORS
330
994B
102
}
330
994B
100
AcDbXrecord
280
     1
 90
        1
330
9BDC
  0
DICTIONARY
  5
9C09
102
{ACAD_REACTORS
330
994B
102
}
330
994B
100
AcDbDictionary
281
     1
  3
CANNOSCALE
350
9C0E
  3
CMLEADERSTYLE
350
9C0B
  3
CTABLESTYLE
350
9C0A
  3
CVIEWDETAILSTYLE
350
9C0C
  3
CVIEWSECTIONSTYLE
350
9C0D
  3
DIMASSOC
350
9C11
  3
INDEXCTL
350
9C10
  3
SORTENTS
350
9C0F
  3
XCLIPFRAME
350
9C12
  0
XRECORD
  5
9C17
102
{ACAD_REACTORS
330
994B
102
}
330
994B
100
AcDbXrecord
280
     1
  1
DWGPROPS COOKIE
  2

  3

  4

  6

  7

  8
Yoshitsune
  9

300
=
301
=
302
=
303
=
304
=
305
=
306
=
307
=
308
=
309
=
 40
0.0000145486111111
 41
2450737.661372801
 42
2457192.640126169
  1

 90
        0
  0
XRECORD
  5
9BFA
102
{ACAD_REACTORS
330
9BF9
102
}
330
9BF9
100
AcDbXrecord
280
     1
290
     1
  0
XRECORD
  5
9BFC
102
{ACAD_REACTORS
330
9BFB
102
}
330
9BFB
100
AcDbXrecord
280
     1
290
     1
  0
XRECORD
  5
9BFE
102
{ACAD_REACTORS
330
9BFD
102
}
330
9BFD
100
AcDbXrecord
280
     1
290
     1
  0
XRECORD
  5
9C00
102
{ACAD_REACTORS
330
9BFF
102
}
330
9BFF
100
AcDbXrecord
280
     1
290
     1
  0
XRECORD
  5
9C02
102
{ACAD_REACTORS
330
9C01
102
}
330
9C01
100
AcDbXrecord
280
     1
290
     1
  0
XRECORD
  5
9C04
102
{ACAD_REACTORS
330
9C03
102
}
330
9C03
100
AcDbXrecord
280
     1
290
     1
  0
XRECORD
  5
9C06
102
{ACAD_REACTORS
330
9C05
102
}
330
9C05
100
AcDbXrecord
280
     1
290
     1
  0
XRECORD
  5
9C08
102
{ACAD_REACTORS
330
9C07
102
}
330
9C07
100
AcDbXrecord
280
     1
290
     1
  0
XRECORD
  5
9BA2
102
{ACAD_REACTORS
330
9BA1
102
}
330
9BA1
100
AcDbXrecord
280
     1
340
995D
  0
XRECORD
  5
9BA0
102
{ACAD_REACTORS
330
9B9F
102
}
330
9B9F
100
AcDbXrecord
280
     1
340
9959
  0
ACDBDETAILVIEWSTYLE
  5
9BF4
102
{ACAD_XDICTIONARY
360
9C4F
102
}
102
{ACAD_REACTORS
330
9BF3
102
}
330
9BF3
100
AcDbModelDocViewStyle
 70
     0
  3
Imperial24
290
     0
100
AcDbDetailViewStyle
 70
     0
 71
     0
 90
        3
 71
     1
340
9950
 40
0.24
340
0
 40
0.24
300

 40
0.36
280
     3
 71
     2
340
9954
 90
       25
 71
     3
340
9950
 40
0.24
 90
        1
 40
0.75
 90
        1
300
%<\AcVar ViewType \f "%tc1">% %<\AcVar ViewDetailId>%\PSCALE %<\AcVar ViewScale \f "%sn">%
 71
     4
340
9954
 90
       25
340
9954
 90
       25
280
     0
  0
LAYOUT
  5
9BF5
102
{ACAD_XDICTIONARY
360
9C51
102
}
102
{ACAD_REACTORS
330
9958
102
}
330
9958
100
AcDbPlotSettings
  1

  2
Canon LBP9100C
  4

  6

 40
0.0
 41
0.0
 42
0.0
 43
0.0
 44
0.0
 45
0.0
 46
0.0
 47
0.0
 48
0.0
 49
0.0
140
0.0
141
0.0
142
1.0
143
1.0
 70
  1712
 72
     0
 73
     0
 74
     0
  7

 75
     0
147
1.0
148
0.0
149
0.0
100
AcDbLayout
  1
Model
 70
     1
 71
     0
 10
0.0
 20
0.0
 11
12.0
 21
9.0
 12
0.0
 22
0.0
 32
0.0
 14
0.0
 24
0.0
 34
0.0
 15
0.0
 25
0.0
 35
0.0
146
0.0
 13
0.0
 23
0.0
 33
0.0
 16
1.0
 26
0.0
 36
0.0
 17
0.0
 27
1.0
 37
0.0
 76
     0
330
995D
331
9B9E
  0
LAYOUT
  5
9BF6
102
{ACAD_XDICTIONARY
360
9C53
102
}
102
{ACAD_REACTORS
330
9958
102
}
330
9958
100
AcDbPlotSettings
  1

  2
Canon LBP9100C
  4

  6

 40
0.0
 41
0.0
 42
0.0
 43
0.0
 44
0.0
 45
0.0
 46
0.0
 47
0.0
 48
0.0
 49
0.0
140
0.0
141
0.0
142
1.0
143
1.0
 70
   688
 72
     0
 73
     0
 74
     5
  7

 75
    16
147
1.0
148
0.0
149
0.0
100
AcDbLayout
  1
レイアウト1
 70
     0
 71
     1
 10
0.0
 20
0.0
 11
420.0
 21
297.0
 12
0.0
 22
0.0
 32
0.0
 14
1.000000000000000E+20
 24
1.000000000000000E+20
 34
1.000000000000000E+20
 15
-1.000000000000000E+20
 25
-1.000000000000000E+20
 35
-1.000000000000000E+20
146
0.0
 13
0.0
 23
0.0
 33
0.0
 16
1.0
 26
0.0
 36
0.0
 17
0.0
 27
1.0
 37
0.0
 76
     0
330
9959
  0
MATERIAL
  5
9BB1
102
{ACAD_XDICTIONARY
360
9BB2
102
}
102
{ACAD_REACTORS
330
9BA8
102
}
330
9BA8
100
AcDbMaterial
  1
ByBlock
 72
     0
 43
0.0208333333333333
 43
0.0
 43
0.0
 43
0.0
 43
0.0
 43
0.0208333333333333
 43
0.0
 43
0.0
 43
0.0
 43
0.0
 43
1.0
 43
0.0
 43
0.0
 43
0.0
 43
0.0
 43
1.0
 77
     0
 47
0.0208333333333333
 47
0.0
 47
0.0
 47
0.0
 47
0.0
 47
0.0208333333333333
 47
0.0
 47
0.0
 47
0.0
 47
0.0
 47
1.0
 47
0.0
 47
0.0
 47
0.0
 47
0.0
 47
1.0
171
     0
 49
0.0208333333333333
 49
0.0
 49
0.0
 49
0.0
 49
0.0
 49
0.0208333333333333
 49
0.0
 49
0.0
 49
0.0
 49
0.0
 49
1.0
 49
0.0
 49
0.0
 49
0.0
 49
0.0
 49
1.0
175
     0
142
0.0208333333333333
142
0.0
142
0.0
142
0.0
142
0.0
142
0.0208333333333333
142
0.0
142
0.0
142
0.0
142
0.0
142
1.0
142
0.0
142
0.0
142
0.0
142
0.0
142
1.0
179
     0
144
0.0208333333333333
144
0.0
144
0.0
144
0.0
144
0.0
144
0.0208333333333333
144
0.0
144
0.0
144
0.0
144
0.0
144
1.0
144
0.0
144
0.0
144
0.0
144
0.0
144
1.0
147
0.0208333333333333
147
0.0
147
0.0
147
0.0
147
0.0
147
0.0208333333333333
147
0.0
147
0.0
147
0.0
147
0.0
147
1.0
147
0.0
147
0.0
147
0.0
147
0.0
147
1.0
  0
MATERIAL
  5
9BA9
102
{ACAD_XDICTIONARY
360
9BAA
102
}
102
{ACAD_REACTORS
330
9BA8
102
}
330
9BA8
100
AcDbMaterial
  1
ByLayer
 72
     0
 43
0.0208333333333333
 43
0.0
 43
0.0
 43
0.0
 43
0.0
 43
0.0208333333333333
 43
0.0
 43
0.0
 43
0.0
 43
0.0
 43
1.0
 43
0.0
 43
0.0
 43
0.0
 43
0.0
 43
1.0
 77
     0
 47
0.0208333333333333
 47
0.0
 47
0.0
 47
0.0
 47
0.0
 47
0.0208333333333333
 47
0.0
 47
0.0
 47
0.0
 47
0.0
 47
1.0
 47
0.0
 47
0.0
 47
0.0
 47
0.0
 47
1.0
171
     0
 49
0.0208333333333333
 49
0.0
 49
0.0
 49
0.0
 49
0.0
 49
0.0208333333333333
 49
0.0
 49
0.0
 49
0.0
 49
0.0
 49
1.0
 49
0.0
 49
0.0
 49
0.0
 49
0.0
 49
1.0
175
     0
142
0.0208333333333333
142
0.0
142
0.0
142
0.0
142
0.0
142
0.0208333333333333
142
0.0
142
0.0
142
0.0
142
0.0
142
1.0
142
0.0
142
0.0
142
0.0
142
0.0
142
1.0
179
     0
144
0.0208333333333333
144
0.0
144
0.0
144
0.0
144
0.0
144
0.0208333333333333
144
0.0
144
0.0
144
0.0
144
0.0
144
1.0
144
0.0
144
0.0
144
0.0
144
0.0
144
1.0
147
0.0208333333333333
147
0.0
147
0.0
147
0.0
147
0.0
147
0.0208333333333333
147
0.0
147
0.0
147
0.0
147
0.0
147
1.0
147
0.0
147
0.0
147
0.0
147
0.0
147
1.0
  0
MATERIAL
  5
9BB9
102
{ACAD_XDICTIONARY
360
9BBA
102
}
102
{ACAD_REACTORS
330
9BA8
102
}
330
9BA8
100
AcDbMaterial
  1
Global
 72
     0
 43
0.0208333333333333
 43
0.0
 43
0.0
 43
0.0
 43
0.0
 43
0.0208333333333333
 43
0.0
 43
0.0
 43
0.0
 43
0.0
 43
1.0
 43
0.0
 43
0.0
 43
0.0
 43
0.0
 43
1.0
 77
     0
 47
0.0208333333333333
 47
0.0
 47
0.0
 47
0.0
 47
0.0
 47
0.0208333333333333
 47
0.0
 47
0.0
 47
0.0
 47
0.0
 47
1.0
 47
0.0
 47
0.0
 47
0.0
 47
0.0
 47
1.0
171
     0
 49
0.0208333333333333
 49
0.0
 49
0.0
 49
0.0
 49
0.0
 49
0.0208333333333333
 49
0.0
 49
0.0
 49
0.0
 49
0.0
 49
1.0
 49
0.0
 49
0.0
 49
0.0
 49
0.0
 49
1.0
175
     0
142
0.0208333333333333
142
0.0
142
0.0
142
0.0
142
0.0
142
0.0208333333333333
142
0.0
142
0.0
142
0.0
142
0.0
142
1.0
142
0.0
142
0.0
142
0.0
142
0.0
142
1.0
179
     0
144
0.0208333333333333
144
0.0
144
0.0
144
0.0
144
0.0
144
0.0208333333333333
144
0.0
144
0.0
144
0.0
144
0.0
144
1.0
144
0.0
144
0.0
144
0.0
144
0.0
144
1.0
147
0.0208333333333333
147
0.0
147
0.0
147
0.0
147
0.0
147
0.0208333333333333
147
0.0
147
0.0
147
0.0
147
0.0
147
1.0
147
0.0
147
0.0
147
0.0
147
0.0
147
1.0
  0
MLEADERSTYLE
  5
9BF0
102
{ACAD_REACTORS
330
9BEF
102
}
330
9BEF
100
AcDbMLeaderStyle
170
     2
171
     1
172
     0
 90
        2
 40
0.0
 41
0.0
173
     1
 91
-1056964608
340
9952
 92
       -2
290
     1
 42
0.09
291
     1
 43
0.36
  3
Standard
 44
0.18
300

342
9950
174
     1
178
     6
175
     1
176
     0
 93
-1056964608
 45
0.18
292
     0
297
     0
 46
0.18
 94
-1056964608
 47
1.0
 49
1.0
140
1.0
293
     1
141
0.0
294
     1
177
     0
142
1.0
295
     0
296
     0
143
0.125
1001
ACAD_MLEADERVER
1070
     2
  0
MLINESTYLE
  5
9956
102
{ACAD_REACTORS
330
9955
102
}
330
9955
100
AcDbMlineStyle
  2
STANDARD
 70
     0
  3

 62
   256
 51
90.0
 52
90.0
 71
     2
 49
0.5
 62
   256
  6
BYLAYER
 49
-0.5
 62
   256
  6
BYLAYER
  0
ACDBPLACEHOLDER
  5
9BA7
102
{ACAD_REACTORS
330
9BA6
102
}
330
9BA6
  0
SCALE
  5
9BDE
102
{ACAD_REACTORS
330
9BDD
102
}
330
9BDD
100
AcDbScale
 70
     0
300
1:1
140
1.0
141
1.0
290
     1
  0
SCALE
  5
9BDF
102
{ACAD_REACTORS
330
9BDD
102
}
330
9BDD
100
AcDbScale
 70
     0
300
1/128" = 1'-0"
140
0.0078125
141
12.0
290
     0
  0
SCALE
  5
9BE0
102
{ACAD_REACTORS
330
9BDD
102
}
330
9BDD
100
AcDbScale
 70
     0
300
1/64" = 1'-0"
140
0.015625
141
12.0
290
     0
  0
SCALE
  5
9BE1
102
{ACAD_REACTORS
330
9BDD
102
}
330
9BDD
100
AcDbScale
 70
     0
300
1/32" = 1'-0"
140
0.03125
141
12.0
290
     0
  0
SCALE
  5
9BE2
102
{ACAD_REACTORS
330
9BDD
102
}
330
9BDD
100
AcDbScale
 70
     0
300
1/16" = 1'-0"
140
0.0625
141
12.0
290
     0
  0
SCALE
  5
9BE3
102
{ACAD_REACTORS
330
9BDD
102
}
330
9BDD
100
AcDbScale
 70
     0
300
3/32" = 1'-0"
140
0.09375
141
12.0
290
     0
  0
SCALE
  5
9BE4
102
{ACAD_REACTORS
330
9BDD
102
}
330
9BDD
100
AcDbScale
 70
     0
300
1/8" = 1'-0"
140
0.125
141
12.0
290
     0
  0
SCALE
  5
9BE5
102
{ACAD_REACTORS
330
9BDD
102
}
330
9BDD
100
AcDbScale
 70
     0
300
3/16" = 1'-0"
140
0.1875
141
12.0
290
     0
  0
SCALE
  5
9BE6
102
{ACAD_REACTORS
330
9BDD
102
}
330
9BDD
100
AcDbScale
 70
     0
300
1/4" = 1'-0"
140
0.25
141
12.0
290
     0
  0
SCALE
  5
9BE7
102
{ACAD_REACTORS
330
9BDD
102
}
330
9BDD
100
AcDbScale
 70
     0
300
3/8" = 1'-0"
140
0.375
141
12.0
290
     0
  0
SCALE
  5
9BE8
102
{ACAD_REACTORS
330
9BDD
102
}
330
9BDD
100
AcDbScale
 70
     0
300
1/2" = 1'-0"
140
0.5
141
12.0
290
     0
  0
SCALE
  5
9BE9
102
{ACAD_REACTORS
330
9BDD
102
}
330
9BDD
100
AcDbScale
 70
     0
300
3/4" = 1'-0"
140
0.75
141
12.0
290
     0
  0
SCALE
  5
9BEA
102
{ACAD_REACTORS
330
9BDD
102
}
330
9BDD
100
AcDbScale
 70
     0
300
1" = 1'-0"
140
1.0
141
12.0
290
     0
  0
SCALE
  5
9BEB
102
{ACAD_REACTORS
330
9BDD
102
}
330
9BDD
100
AcDbScale
 70
     0
300
1-1/2" = 1'-0"
140
1.5
141
12.0
290
     0
  0
SCALE
  5
9BEC
102
{ACAD_REACTORS
330
9BDD
102
}
330
9BDD
100
AcDbScale
 70
     0
300
3" = 1'-0"
140
3.0
141
12.0
290
     0
  0
SCALE
  5
9BED
102
{ACAD_REACTORS
330
9BDD
102
}
330
9BDD
100
AcDbScale
 70
     0
300
6" = 1'-0"
140
6.0
141
12.0
290
     0
  0
SCALE
  5
9BEE
102
{ACAD_REACTORS
330
9BDD
102
}
330
9BDD
100
AcDbScale
 70
     0
300
1'-0" = 1'-0"
140
12.0
141
12.0
290
     0
  0
ACDBSECTIONVIEWSTYLE
  5
9BF2
102
{ACAD_XDICTIONARY
360
9C4D
102
}
102
{ACAD_REACTORS
330
9BF1
102
}
330
9BF1
100
AcDbModelDocViewStyle
 70
     0
  3
Imperial24
290
     0
100
AcDbSectionViewStyle
 70
     0
 71
     0
 90
       78
 71
     1
340
9950
 40
0.24
340
0
340
0
 40
0.24
300
I, O, Q, S, X, Z
 40
0.48
 90
        3
 40
0.18
 90
        1
 71
     2
340
9954
 90
       25
340
9954
 90
       50
 40
0.24
 40
0.0
 40
0.24
 71
     3
340
9950
 40
0.24
 90
        1
 40
0.75
 90
        1
300
%<\AcVar ViewType \f "%tc1">% %<\AcVar ViewSectionStartId>%-%<\AcVar ViewSectionEndId>%\PSCALE %<\AcVar ViewScale \f "%sn">%
 71
     4
300
ANSI31
 40
1.0
 90
        0
290
     0
290
     0
 90
        6
 40
0.0
 40
1.570796326794896
 40
0.2617993877991494
 40
1.308996938995747
 40
-0.2617993877991494
 40
1.832595714594046
  0
TABLESTYLE
  5
9BDC
102
{ACAD_XDICTIONARY
360
9C14
102
}
102
{ACAD_REACTORS
330
9BDB
102
}
330
9BDB
100
AcDbTableStyle
  3
Standard
 70
     0
 71
     0
 40
0.06
 41
0.06
280
     0
281
     0
  7
STANDARD
140
0.18
170
     2
 62
     0
 63
     7
283
     0
274
    -2
284
     1
 64
     0
275
    -2
285
     1
 65
     0
276
    -2
286
     1
 66
     0
277
    -2
287
     1
 67
     0
278
    -2
288
     1
 68
     0
279
    -2
289
     1
 69
     0
  7
STANDARD
140
0.25
170
     5
 62
     0
 63
     7
283
     0
274
    -2
284
     1
 64
     0
275
    -2
285
     1
 65
     0
276
    -2
286
     1
 66
     0
277
    -2
287
     1
 67
     0
278
    -2
288
     1
 68
     0
279
    -2
289
     1
 69
     0
  7
STANDARD
140
0.18
170
     5
 62
     0
 63
     7
283
     0
274
    -2
284
     1
 64
     0
275
    -2
285
     1
 65
     0
276
    -2
286
     1
 66
     0
277
    -2
287
     1
 67
     0
278
    -2
288
     1
 68
     0
279
    -2
289
     1
 69
     0
  0
VISUALSTYLE
  5
9BC7
102
{ACAD_XDICTIONARY
360
9C25
102
}
102
{ACAD_REACTORS
330
9BC1
102
}
330
9BC1
100
AcDbVisualStyle
  2
2dWireframe
 70
     4
 71
     0
 72
     2
 73
     0
 90
        0
 40
-0.6
 41
-30.0
 62
     5
 63
     7
 74
     1
 91
        4
 64
     7
 65
   257
 75
     1
175
     1
 42
1.0
 92
        0
 66
   257
 43
1.0
 76
     1
 77
     6
 78
     2
 67
     7
 79
     5
170
     0
171
     0
290
     0
174
     0
 93
        1
 44
0.0
173
     0
291
     0
 45
0.0
1001
ACAD
1000
AcDbSavedByObjectVersion
1070
     0
  0
VISUALSTYLE
  5
9BC6
102
{ACAD_XDICTIONARY
360
9C23
102
}
102
{ACAD_REACTORS
330
9BC1
102
}
330
9BC1
100
AcDbVisualStyle
  2
Basic
 70
     7
 71
     1
 72
     0
 73
     1
 90
        0
 40
-0.6
 41
-30.0
 62
     5
 63
     7
 74
     0
 91
        4
 64
     7
 65
   257
 75
     1
175
     1
 42
1.0
 92
        8
 66
     7
 43
1.0
 76
     1
 77
     6
 78
     2
 67
     7
 79
     5
170
     0
171
     0
290
     0
174
     0
 93
        1
 44
0.0
173
     0
291
     1
 45
0.0
1001
ACAD
1000
AcDbSavedByObjectVersion
1070
     0
  0
VISUALSTYLE
  5
9BCD
102
{ACAD_XDICTIONARY
360
9C31
102
}
102
{ACAD_REACTORS
330
9BC1
102
}
330
9BC1
100
AcDbVisualStyle
  2
Brighten
 70
    12
 71
     2
 72
     2
 73
     0
 90
        0
 40
-0.6
 41
-30.0
 62
     5
 63
     7
 74
     1
 91
        4
 64
     7
 65
   257
 75
     1
175
     1
 42
1.0
 92
        8
 66
     7
 43
1.0
 76
     1
 77
     6
 78
     2
 67
     7
 79
     5
170
     0
171
     0
290
     0
174
     0
 93
        1
 44
50.0
173
     0
291
     1
 45
0.0
1001
ACAD
1000
AcDbSavedByObjectVersion
1070
     0
  0
VISUALSTYLE
  5
9BD1
102
{ACAD_XDICTIONARY
360
9C39
102
}
102
{ACAD_REACTORS
330
9BC1
102
}
330
9BC1
100
AcDbVisualStyle
  2
ColorChange
 70
    16
 71
     2
 72
     2
 73
     3
 90
        0
 40
-0.6
 41
-30.0
 62
     5
 63
     8
 74
     1
 91
        4
 64
     7
 65
   257
 75
     1
175
     1
 42
1.0
 92
        8
 66
     8
 43
1.0
 76
     1
 77
     6
 78
     2
 67
     7
 79
     5
170
     0
171
     0
290
     0
174
     0
 93
        1
 44
0.0
173
     0
291
     1
 45
0.0
1001
ACAD
1000
AcDbSavedByObjectVersion
1070
     0
  0
VISUALSTYLE
  5
9BCA
102
{ACAD_XDICTIONARY
360
9C2B
102
}
102
{ACAD_REACTORS
330
9BC1
102
}
330
9BC1
100
AcDbVisualStyle
  2
Conceptual
 70
     9
 71
     3
 72
     2
 73
     0
 90
        0
 40
-0.6
 41
-30.0
 62
     5
 63
     7
 74
     2
 91
        2
 64
     7
 65
   257
 75
     1
175
     1
 42
179.0
 92
        8
 66
     7
 43
1.0
 76
     1
 77
     6
 78
     2
 67
     7
 79
     3
170
     0
171
     0
290
     0
174
     0
 93
        1
 44
0.0
173
     0
291
     0
 45
0.0
1001
ACAD
1000
AcDbSavedByObjectVersion
1070
     0
  0
VISUALSTYLE
  5
9BCC
102
{ACAD_XDICTIONARY
360
9C2F
102
}
102
{ACAD_REACTORS
330
9BC1
102
}
330
9BC1
100
AcDbVisualStyle
  2
Dim
 70
    11
 71
     2
 72
     2
 73
     0
 90
        0
 40
-0.6
 41
-30.0
 62
     5
 63
     7
 74
     1
 91
        4
 64
     7
 65
   257
 75
     1
175
     1
 42
1.0
 92
        8
 66
     7
 43
1.0
 76
     1
 77
     6
 78
     2
 67
     7
 79
     5
170
     0
171
     0
290
     0
174
     0
 93
        1
 44
-50.0
173
     0
291
     1
 45
0.0
1001
ACAD
1000
AcDbSavedByObjectVersion
1070
     0
  0
VISUALSTYLE
  5
9BD9
102
{ACAD_XDICTIONARY
360
9C49
102
}
102
{ACAD_REACTORS
330
9BC1
102
}
330
9BC1
100
AcDbVisualStyle
  2
EdgeColorOff
 70
    22
 71
     2
 72
     2
 73
     0
 90
        0
 40
-0.6
 41
-30.0
 62
     5
 63
     7
 74
     1
 91
        4
 64
     7
 65
   257
 75
     1
175
     1
 42
1.0
 92
        8
 66
     7
 43
1.0
 76
     1
 77
     6
 78
     2
 67
     7
 79
     5
170
     0
171
     0
290
     0
174
     0
 93
        1
 44
0.0
173
     0
291
     1
 45
0.0
1001
ACAD
1000
AcDbSavedByObjectVersion
1070
     0
  0
VISUALSTYLE
  5
9BD0
102
{ACAD_XDICTIONARY
360
9C37
102
}
102
{ACAD_REACTORS
330
9BC1
102
}
330
9BC1
100
AcDbVisualStyle
  2
Facepattern
 70
    15
 71
     2
 72
     2
 73
     0
 90
        0
 40
-0.6
 41
-30.0
 62
     5
 63
     7
 74
     1
 91
        4
 64
     7
 65
   257
 75
     1
175
     1
 42
1.0
 92
        8
 66
     7
 43
1.0
 76
     1
 77
     6
 78
     2
 67
     7
 79
     5
170
     0
171
     0
290
     0
174
     0
 93
        1
 44
0.0
173
     0
291
     1
 45
0.0
1001
ACAD
1000
AcDbSavedByObjectVersion
1070
     0
  0
VISUALSTYLE
  5
9BC2
102
{ACAD_XDICTIONARY
360
9C1B
102
}
102
{ACAD_REACTORS
330
9BC1
102
}
330
9BC1
100
AcDbVisualStyle
  2
Flat
 70
     0
 71
     2
 72
     1
 73
     1
 90
        2
 40
-0.6
 41
30.0
 62
     5
 63
     7
 74
     0
 91
        0
 64
     7
 65
   257
 75
     1
175
     1
 42
1.0
 92
        8
 66
     7
 43
1.0
 76
     1
 77
     6
 78
     2
 67
     7
 79
     5
170
     0
171
     0
290
     0
174
     0
 93
       13
 44
0.0
173
     0
291
     1
 45
0.0
1001
ACAD
1000
AcDbSavedByObjectVersion
1070
     0
  0
VISUALSTYLE
  5
9BC3
102
{ACAD_XDICTIONARY
360
9C1D
102
}
102
{ACAD_REACTORS
330
9BC1
102
}
330
9BC1
100
AcDbVisualStyle
  2
FlatWithEdges
 70
     1
 71
     2
 72
     1
 73
     1
 90
        2
 40
-0.6
 41
30.0
 62
     5
 63
     7
 74
     1
 91
        0
 64
     7
 65
   257
 75
     1
175
     1
 42
1.0
 92
        0
 66
   257
 43
1.0
 76
     1
 77
     6
 78
     2
 67
     7
 79
     5
170
     0
171
     0
290
     0
174
     0
 93
       13
 44
0.0
173
     0
291
     1
 45
0.0
1001
ACAD
1000
AcDbSavedByObjectVersion
1070
     0
  0
VISUALSTYLE
  5
9BC4
102
{ACAD_XDICTIONARY
360
9C1F
102
}
102
{ACAD_REACTORS
330
9BC1
102
}
330
9BC1
100
AcDbVisualStyle
  2
Gouraud
 70
     2
 71
     2
 72
     2
 73
     1
 90
        2
 40
-0.6
 41
30.0
 62
     5
 63
     7
 74
     0
 91
        0
 64
     7
 65
   257
 75
     1
175
     1
 42
1.0
 92
        0
 66
     7
 43
1.0
 76
     1
 77
     6
 78
     2
 67
     7
 79
     5
170
     0
171
     0
290
     0
174
     0
 93
       13
 44
0.0
173
     0
291
     1
 45
0.0
1001
ACAD
1000
AcDbSavedByObjectVersion
1070
     0
  0
VISUALSTYLE
  5
9BC5
102
{ACAD_XDICTIONARY
360
9C21
102
}
102
{ACAD_REACTORS
330
9BC1
102
}
330
9BC1
100
AcDbVisualStyle
  2
GouraudWithEdges
 70
     3
 71
     2
 72
     2
 73
     1
 90
        2
 40
-0.6
 41
30.0
 62
     5
 63
     7
 74
     1
 91
        0
 64
     7
 65
   257
 75
     1
175
     1
 42
1.0
 92
        0
 66
   257
 43
1.0
 76
     1
 77
     6
 78
     2
 67
     7
 79
     5
170
     0
171
     0
290
     0
174
     0
 93
       13
 44
0.0
173
     0
291
     1
 45
0.0
1001
ACAD
1000
AcDbSavedByObjectVersion
1070
     0
  0
VISUALSTYLE
  5
9BC9
102
{ACAD_XDICTIONARY
360
9C29
102
}
102
{ACAD_REACTORS
330
9BC1
102
}
330
9BC1
100
AcDbVisualStyle
  2
Hidden
 70
     6
 71
     1
 72
     2
 73
     2
 90
        0
 40
-0.6
 41
-30.0
 62
     5
 63
     7
 74
     2
 91
        2
 64
     7
 65
   257
 75
     2
175
     1
 42
40.0
 92
        0
 66
   257
 43
1.0
 76
     1
 77
     6
 78
     2
 67
     7
 79
     3
170
     0
171
     0
290
     0
174
     0
 93
        1
 44
0.0
173
     0
291
     0
 45
0.0
1001
ACAD
1000
AcDbSavedByObjectVersion
1070
     0
  0
VISUALSTYLE
  5
9BD7
102
{ACAD_XDICTIONARY
360
9C45
102
}
102
{ACAD_REACTORS
330
9BC1
102
}
330
9BC1
100
AcDbVisualStyle
  2
JitterOff
 70
    20
 71
     2
 72
     2
 73
     0
 90
        0
 40
-0.6
 41
-30.0
 62
     5
 63
     7
 74
     1
 91
        4
 64
     7
 65
   257
 75
     1
175
     1
 42
1.0
 92
       10
 66
     7
 43
1.0
 76
     1
 77
     6
 78
     2
 67
     7
 79
     5
170
     0
171
     0
290
     0
174
     0
 93
        1
 44
0.0
173
     0
291
     1
 45
0.0
1001
ACAD
1000
AcDbSavedByObjectVersion
1070
     0
  0
VISUALSTYLE
  5
9BCF
102
{ACAD_XDICTIONARY
360
9C35
102
}
102
{ACAD_REACTORS
330
9BC1
102
}
330
9BC1
100
AcDbVisualStyle
  2
Linepattern
 70
    14
 71
     2
 72
     2
 73
     0
 90
        0
 40
-0.6
 41
-30.0
 62
     5
 63
     7
 74
     1
 91
        4
 64
     7
 65
   257
 75
     7
175
     7
 42
1.0
 92
        8
 66
     7
 43
1.0
 76
     1
 77
     6
 78
     2
 67
     7
 79
     5
170
     0
171
     0
290
     0
174
     0
 93
        1
 44
0.0
173
     0
291
     1
 45
0.0
1001
ACAD
1000
AcDbSavedByObjectVersion
1070
     0
  0
VISUALSTYLE
  5
9BD8
102
{ACAD_XDICTIONARY
360
9C47
102
}
102
{ACAD_REACTORS
330
9BC1
102
}
330
9BC1
100
AcDbVisualStyle
  2
OverhangOff
 70
    21
 71
     2
 72
     2
 73
     0
 90
        0
 40
-0.6
 41
-30.0
 62
     5
 63
     7
 74
     1
 91
        4
 64
     7
 65
   257
 75
     1
175
     1
 42
1.0
 92
        9
 66
     7
 43
1.0
 76
     1
 77
     6
 78
     2
 67
     7
 79
     5
170
     0
171
     0
290
     0
174
     0
 93
        1
 44
0.0
173
     0
291
     1
 45
0.0
1001
ACAD
1000
AcDbSavedByObjectVersion
1070
     0
  0
VISUALSTYLE
  5
9BCB
102
{ACAD_XDICTIONARY
360
9C2D
102
}
102
{ACAD_REACTORS
330
9BC1
102
}
330
9BC1
100
AcDbVisualStyle
  2
Realistic
 70
     8
 71
     2
 72
     3
 73
     0
 90
        2
 40
-0.6
 41
30.0
 62
     5
 63
     7
 74
     0
 91
        0
 64
     7
 65
   257
 75
     1
175
     1
 42
1.0
 92
        8
 66
   257
 43
1.0
 76
     1
 77
     6
 78
     2
 67
     7
 79
     3
170
     0
171
     0
290
     0
174
     0
 93
       13
 44
0.0
173
     0
291
     0
 45
0.0
1001
ACAD
1000
AcDbSavedByObjectVersion
1070
     0
  0
VISUALSTYLE
  5
9BD6
102
{ACAD_XDICTIONARY
360
9C43
102
}
102
{ACAD_REACTORS
330
9BC1
102
}
330
9BC1
100
AcDbVisualStyle
  2
Shaded
 70
    27
 71
     2
 72
     2
 73
     1
 90
        2
 40
-0.6
 41
30.0
 62
     5
 63
     7
 74
     0
 91
        4
 64
     7
 65
   257
 75
     1
175
     1
 42
1.0
 92
        8
 66
   257
 43
1.0
 76
     1
 77
     6
 78
     2
 67
     8
 79
     3
170
     0
171
     0
290
     0
174
     0
 93
        5
 44
0.0
173
     0
291
     0
 45
0.0
1001
ACAD
1000
AcDbSavedByObjectVersion
1070
     0
  0
VISUALSTYLE
  5
9BD5
102
{ACAD_XDICTIONARY
360
9C41
102
}
102
{ACAD_REACTORS
330
9BC1
102
}
330
9BC1
100
AcDbVisualStyle
  2
Shaded with edges
 70
    26
 71
     2
 72
     2
 73
     1
 90
        2
 40
-0.6
 41
30.0
 62
     5
 63
     7
 74
     1
 91
       10
 64
     7
 65
   257
 75
     2
175
     1
 42
1.0
 92
        8
 66
   257
 43
1.0
 76
     1
 77
     6
 78
     2
 67
     7
 79
     3
170
     0
171
     0
290
     0
174
     0
 93
        5
 44
0.0
173
     0
291
     0
 45
0.0
1001
ACAD
1000
AcDbSavedByObjectVersion
1070
     0
  0
VISUALSTYLE
  5
9BD2
102
{ACAD_XDICTIONARY
360
9C3B
102
}
102
{ACAD_REACTORS
330
9BC1
102
}
330
9BC1
100
AcDbVisualStyle
  2
Shades of Gray
 70
    23
 71
     2
 72
     2
 73
     3
 90
        0
 40
-0.6
 41
-30.0
 62
     5
 63
     7
 74
     2
 91
        2
 64
     7
 65
     7
 75
     1
175
     1
 42
40.0
 92
        8
 66
     7
 43
1.0
 76
     1
 77
     6
 78
     2
 67
     7
 79
     3
170
     0
171
     0
290
     0
174
     0
 93
        1
 44
0.0
173
     0
291
     0
 45
0.0
1001
ACAD
1000
AcDbSavedByObjectVersion
1070
     0
  0
VISUALSTYLE
  5
9BD3
102
{ACAD_XDICTIONARY
360
9C3D
102
}
102
{ACAD_REACTORS
330
9BC1
102
}
330
9BC1
100
AcDbVisualStyle
  2
Sketchy
 70
    24
 71
     1
 72
     2
 73
     2
 90
        0
 40
-0.6
 41
-30.0
 62
     5
 63
     7
 74
     2
 91
        2
 64
     7
 65
     7
 75
     1
175
     1
 42
40.0
 92
       11
 66
     7
 43
1.0
 76
     1
 77
     6
 78
     2
 67
     7
 79
     6
170
     0
171
     0
290
     0
174
     0
 93
        1
 44
0.0
173
     0
291
     0
 45
0.0
1001
ACAD
1000
AcDbSavedByObjectVersion
1070
     0
  0
VISUALSTYLE
  5
9BCE
102
{ACAD_XDICTIONARY
360
9C33
102
}
102
{ACAD_REACTORS
330
9BC1
102
}
330
9BC1
100
AcDbVisualStyle
  2
Thicken
 70
    13
 71
     2
 72
     2
 73
     0
 90
        0
 40
-0.6
 41
-30.0
 62
     5
 63
     7
 74
     1
 91
        4
 64
     7
 65
   257
 75
     1
175
     1
 42
1.0
 92
       12
 66
     7
 43
1.0
 76
     1
 77
     6
 78
     2
 67
     7
 79
     5
170
     0
171
     0
290
     0
174
     0
 93
        1
 44
0.0
173
     0
291
     1
 45
0.0
1001
ACAD
1000
AcDbSavedByObjectVersion
1070
     0
  0
VISUALSTYLE
  5
9BC8
102
{ACAD_XDICTIONARY
360
9C27
102
}
102
{ACAD_REACTORS
330
9BC1
102
}
330
9BC1
100
AcDbVisualStyle
  2
Wireframe
 70
     5
 71
     0
 72
     2
 73
     0
 90
        0
 40
-0.6
 41
-30.0
 62
     5
 63
     7
 74
     1
 91
        4
 64
     7
 65
   257
 75
     1
175
     1
 42
1.0
 92
        0
 66
   257
 43
1.0
 76
     1
 77
     6
 78
     2
 67
     7
 79
     3
170
     0
171
     0
290
     0
174
     0
 93
        1
 44
0.0
173
     0
291
     0
 45
0.0
1001
ACAD
1000
AcDbSavedByObjectVersion
1070
     0
  0
VISUALSTYLE
  5
9BD4
102
{ACAD_XDICTIONARY
360
9C3F
102
}
102
{ACAD_REACTORS
330
9BC1
102
}
330
9BC1
100
AcDbVisualStyle
  2
X-Ray
 70
    25
 71
     2
 72
     2
 73
     1
 90
        1
 40
0.5
 41
-30.0
 62
     5
 63
     7
 74
     1
 91
        0
 64
     7
 65
   257
 75
     1
175
     1
 42
1.0
 92
        8
 66
     7
 43
1.0
 76
     1
 77
     6
 78
     2
 67
     7
 79
     3
170
     0
171
     0
290
     0
174
     0
 93
       13
 44
0.0
173
     0
291
     0
 45
0.0
1001
ACAD
1000
AcDbSavedByObjectVersion
1070
     0
  0
DICTIONARYVAR
  5
9C0E
102
{ACAD_REACTORS
330
9C09
102
}
330
9C09
100
DictionaryVariables
280
     0
  1
1:1
  0
DICTIONARYVAR
  5
9C0B
102
{ACAD_REACTORS
330
9C09
102
}
330
9C09
100
DictionaryVariables
280
     0
  1
STANDARD
  0
DICTIONARYVAR
  5
9C0A
102
{ACAD_REACTORS
330
9C09
102
}
330
9C09
100
DictionaryVariables
280
     0
  1
STANDARD
  0
DICTIONARYVAR
  5
9C0C
102
{ACAD_REACTORS
330
9C09
102
}
330
9C09
100
DictionaryVariables
280
     0
  1
Imperial24
  0
DICTIONARYVAR
  5
9C0D
102
{ACAD_REACTORS
330
9C09
102
}
330
9C09
100
DictionaryVariables
280
     0
  1
Imperial24
  0
DICTIONARYVAR
  5
9C11
102
{ACAD_REACTORS
330
9C09
102
}
330
9C09
100
DictionaryVariables
280
     0
  1
1
  0
DICTIONARYVAR
  5
9C10
102
{ACAD_REACTORS
330
9C09
102
}
330
9C09
100
DictionaryVariables
280
     0
  1
0
  0
DICTIONARYVAR
  5
9C0F
102
{ACAD_REACTORS
330
9C09
102
}
330
9C09
100
DictionaryVariables
280
     0
  1
127
  0
DICTIONARYVAR
  5
9C12
102
{ACAD_REACTORS
330
9C09
102
}
330
9C09
100
DictionaryVariables
280
     0
  1
2
  0
DICTIONARY
  5
9C4F
330
9BF4
100
AcDbDictionary
280
     1
281
     1
  3
ACAD_XREC_ROUNDTRIP
360
9C50
  0
DICTIONARY
  5
9C51
330
9BF5
100
AcDbDictionary
280
     1
281
     1
  3
ACAD_XREC_ROUNDTRIP
360
9C52
  0
DICTIONARY
  5
9C53
330
9BF6
100
AcDbDictionary
280
     1
281
     1
  3
ACAD_XREC_ROUNDTRIP
360
9C54
  0
DICTIONARY
  5
9BB2
330
9BB1
100
AcDbDictionary
280
     1
281
     1
  3
ACAD_XREC_ROUNDTRIP
360
9C19
  3
BUMPTILE
360
9BB4
  3
DIFFUSETILE
360
9BB3
  3
OPACITYTILE
360
9BB7
  3
REFLECTIONTILE
360
9BB6
  3
REFRACTIONTILE
360
9BB8
  3
SPECULARTILE
360
9BB5
  0
DICTIONARY
  5
9BAA
330
9BA9
100
AcDbDictionary
280
     1
281
     1
  3
ACAD_XREC_ROUNDTRIP
360
9C18
  3
BUMPTILE
360
9BAC
  3
DIFFUSETILE
360
9BAB
  3
OPACITYTILE
360
9BAF
  3
REFLECTIONTILE
360
9BAE
  3
REFRACTIONTILE
360
9BB0
  3
SPECULARTILE
360
9BAD
  0
DICTIONARY
  5
9BBA
330
9BB9
100
AcDbDictionary
280
     1
281
     1
  3
ACAD_XREC_ROUNDTRIP
360
9C1A
  3
BUMPTILE
360
9BBC
  3
DIFFUSETILE
360
9BBB
  3
OPACITYTILE
360
9BBF
  3
REFLECTIONTILE
360
9BBE
  3
REFRACTIONTILE
360
9BC0
  3
SPECULARTILE
360
9BBD
  0
DICTIONARY
  5
9C4D
330
9BF2
100
AcDbDictionary
280
     1
281
     1
  3
ACAD_XREC_ROUNDTRIP
360
9C4E
  0
DICTIONARY
  5
9C14
330
9BDC
100
AcDbDictionary
280
     1
281
     1
  3
ACAD_ROUNDTRIP_2008_TABLESTYLE_CELLSTYLEMAP
360
9C15
  3
ACAD_XREC_ROUNDTRIP
360
9C4B
  0
DICTIONARY
  5
9C25
330
9BC7
100
AcDbDictionary
280
     1
281
     1
  3
ACAD_XREC_ROUNDTRIP
360
9C26
  0
DICTIONARY
  5
9C23
330
9BC6
100
AcDbDictionary
280
     1
281
     1
  3
ACAD_XREC_ROUNDTRIP
360
9C24
  0
DICTIONARY
  5
9C31
330
9BCD
100
AcDbDictionary
280
     1
281
     1
  3
ACAD_XREC_ROUNDTRIP
360
9C32
  0
DICTIONARY
  5
9C39
330
9BD1
100
AcDbDictionary
280
     1
281
     1
  3
ACAD_XREC_ROUNDTRIP
360
9C3A
  0
DICTIONARY
  5
9C2B
330
9BCA
100
AcDbDictionary
280
     1
281
     1
  3
ACAD_XREC_ROUNDTRIP
360
9C2C
  0
DICTIONARY
  5
9C2F
330
9BCC
100
AcDbDictionary
280
     1
281
     1
  3
ACAD_XREC_ROUNDTRIP
360
9C30
  0
DICTIONARY
  5
9C49
330
9BD9
100
AcDbDictionary
280
     1
281
     1
  3
ACAD_XREC_ROUNDTRIP
360
9C4A
  0
DICTIONARY
  5
9C37
330
9BD0
100
AcDbDictionary
280
     1
281
     1
  3
ACAD_XREC_ROUNDTRIP
360
9C38
  0
DICTIONARY
  5
9C1B
330
9BC2
100
AcDbDictionary
280
     1
281
     1
  3
ACAD_XREC_ROUNDTRIP
360
9C1C
  0
DICTIONARY
  5
9C1D
330
9BC3
100
AcDbDictionary
280
     1
281
     1
  3
ACAD_XREC_ROUNDTRIP
360
9C1E
  0
DICTIONARY
  5
9C1F
330
9BC4
100
AcDbDictionary
280
     1
281
     1
  3
ACAD_XREC_ROUNDTRIP
360
9C20
  0
DICTIONARY
  5
9C21
330
9BC5
100
AcDbDictionary
280
     1
281
     1
  3
ACAD_XREC_ROUNDTRIP
360
9C22
  0
DICTIONARY
  5
9C29
330
9BC9
100
AcDbDictionary
280
     1
281
     1
  3
ACAD_XREC_ROUNDTRIP
360
9C2A
  0
DICTIONARY
  5
9C45
330
9BD7
100
AcDbDictionary
280
     1
281
     1
  3
ACAD_XREC_ROUNDTRIP
360
9C46
  0
DICTIONARY
  5
9C35
330
9BCF
100
AcDbDictionary
280
     1
281
     1
  3
ACAD_XREC_ROUNDTRIP
360
9C36
  0
DICTIONARY
  5
9C47
330
9BD8
100
AcDbDictionary
280
     1
281
     1
  3
ACAD_XREC_ROUNDTRIP
360
9C48
  0
DICTIONARY
  5
9C2D
330
9BCB
100
AcDbDictionary
280
     1
281
     1
  3
ACAD_XREC_ROUNDTRIP
360
9C2E
  0
DICTIONARY
  5
9C43
330
9BD6
100
AcDbDictionary
280
     1
281
     1
  3
ACAD_XREC_ROUNDTRIP
360
9C44
  0
DICTIONARY
  5
9C41
330
9BD5
100
AcDbDictionary
280
     1
281
     1
  3
ACAD_XREC_ROUNDTRIP
360
9C42
  0
DICTIONARY
  5
9C3B
330
9BD2
100
AcDbDictionary
280
     1
281
     1
  3
ACAD_XREC_ROUNDTRIP
360
9C3C
  0
DICTIONARY
  5
9C3D
330
9BD3
100
AcDbDictionary
280
     1
281
     1
  3
ACAD_XREC_ROUNDTRIP
360
9C3E
  0
DICTIONARY
  5
9C33
330
9BCE
100
AcDbDictionary
280
     1
281
     1
  3
ACAD_XREC_ROUNDTRIP
360
9C34
  0
DICTIONARY
  5
9C27
330
9BC8
100
AcDbDictionary
280
     1
281
     1
  3
ACAD_XREC_ROUNDTRIP
360
9C28
  0
DICTIONARY
  5
9C3F
330
9BD4
100
AcDbDictionary
280
     1
281
     1
  3
ACAD_XREC_ROUNDTRIP
360
9C40
  0
XRECORD
  5
9C50
102
{ACAD_REACTORS
330
9C4F
102
}
330
9C4F
100
AcDbXrecord
280
     1
102
DISPLAYNAME
  1
Imperial24
102
FLAGS
 90
        0
  0
XRECORD
  5
9C52
102
{ACAD_REACTORS
330
9C51
102
}
330
9C51
100
AcDbXrecord
280
     1
102
SHADEPLOT
 70
     0
102
SHADEPLOTRESLEVEL
 70
     2
102
SHADEPLOTCUSTOMDPI
 70
   300
  0
XRECORD
  5
9C54
102
{ACAD_REACTORS
330
9C53
102
}
330
9C53
100
AcDbXrecord
280
     1
102
SHADEPLOT
 70
     0
102
SHADEPLOTRESLEVEL
 70
     2
102
SHADEPLOTCUSTOMDPI
 70
   300
  0
XRECORD
  5
9C19
102
{ACAD_REACTORS
330
9BB2
102
}
330
9BB2
100
AcDbXrecord
280
     1
102
MATERIAL
148
0.0
149
0.0
149
0.0
 93
        0
 94
      127
282
     0
 72
     0
 77
     0
171
     0
175
     0
179
     0
273
     0
  0
XRECORD
  5
9BB4
102
{ACAD_REACTORS
330
9BB2
102
}
330
9BB2
100
AcDbXrecord
280
     1
270
     1
271
     1
  0
XRECORD
  5
9BB3
102
{ACAD_REACTORS
330
9BB2
102
}
330
9BB2
100
AcDbXrecord
280
     1
270
     1
271
     1
  0
XRECORD
  5
9BB7
102
{ACAD_REACTORS
330
9BB2
102
}
330
9BB2
100
AcDbXrecord
280
     1
270
     1
271
     1
  0
XRECORD
  5
9BB6
102
{ACAD_REACTORS
330
9BB2
102
}
330
9BB2
100
AcDbXrecord
280
     1
270
     1
271
     1
  0
XRECORD
  5
9BB8
102
{ACAD_REACTORS
330
9BB2
102
}
330
9BB2
100
AcDbXrecord
280
     1
270
     1
271
     1
  0
XRECORD
  5
9BB5
102
{ACAD_REACTORS
330
9BB2
102
}
330
9BB2
100
AcDbXrecord
280
     1
270
     1
271
     1
  0
XRECORD
  5
9C18
102
{ACAD_REACTORS
330
9BAA
102
}
330
9BAA
100
AcDbXrecord
280
     1
102
MATERIAL
148
0.0
149
0.0
149
0.0
 93
        0
 94
      127
282
     0
 72
     0
 77
     0
171
     0
175
     0
179
     0
273
     0
  0
XRECORD
  5
9BAC
102
{ACAD_REACTORS
330
9BAA
102
}
330
9BAA
100
AcDbXrecord
280
     1
270
     1
271
     1
  0
XRECORD
  5
9BAB
102
{ACAD_REACTORS
330
9BAA
102
}
330
9BAA
100
AcDbXrecord
280
     1
270
     1
271
     1
  0
XRECORD
  5
9BAF
102
{ACAD_REACTORS
330
9BAA
102
}
330
9BAA
100
AcDbXrecord
280
     1
270
     1
271
     1
  0
XRECORD
  5
9BAE
102
{ACAD_REACTORS
330
9BAA
102
}
330
9BAA
100
AcDbXrecord
280
     1
270
     1
271
     1
  0
XRECORD
  5
9BB0
102
{ACAD_REACTORS
330
9BAA
102
}
330
9BAA
100
AcDbXrecord
280
     1
270
     1
271
     1
  0
XRECORD
  5
9BAD
102
{ACAD_REACTORS
330
9BAA
102
}
330
9BAA
100
AcDbXrecord
280
     1
270
     1
271
     1
  0
XRECORD
  5
9C1A
102
{ACAD_REACTORS
330
9BBA
102
}
330
9BBA
100
AcDbXrecord
280
     1
102
MATERIAL
148
0.0
149
0.0
149
0.0
 93
        0
 94
      127
282
     0
 72
     0
 77
     0
171
     0
175
     0
179
     0
273
     0
  0
XRECORD
  5
9BBC
102
{ACAD_REACTORS
330
9BBA
102
}
330
9BBA
100
AcDbXrecord
280
     1
270
     1
271
     1
  0
XRECORD
  5
9BBB
102
{ACAD_REACTORS
330
9BBA
102
}
330
9BBA
100
AcDbXrecord
280
     1
270
     1
271
     1
  0
XRECORD
  5
9BBF
102
{ACAD_REACTORS
330
9BBA
102
}
330
9BBA
100
AcDbXrecord
280
     1
270
     1
271
     1
  0
XRECORD
  5
9BBE
102
{ACAD_REACTORS
330
9BBA
102
}
330
9BBA
100
AcDbXrecord
280
     1
270
     1
271
     1
  0
XRECORD
  5
9BC0
102
{ACAD_REACTORS
330
9BBA
102
}
330
9BBA
100
AcDbXrecord
280
     1
270
     1
271
     1
  0
XRECORD
  5
9BBD
102
{ACAD_REACTORS
330
9BBA
102
}
330
9BBA
100
AcDbXrecord
280
     1
270
     1
271
     1
  0
XRECORD
  5
9C4E
102
{ACAD_REACTORS
330
9C4D
102
}
330
9C4D
100
AcDbXrecord
280
     1
102
DISPLAYNAME
  1
Imperial24
102
FLAGS
 90
        0
  0
CELLSTYLEMAP
  5
9C15
102
{ACAD_REACTORS
330
9C14
102
}
330
9C14
100
AcDbCellStyleMap
 90
        3
300
CELLSTYLE
  1
TABLEFORMAT_BEGIN
 90
        5
170
     1
 91
        0
 92
    32768
 62
   257
 93
        1
300
CONTENTFORMAT
  1
CONTENTFORMAT_BEGIN
 90
        0
 91
        0
 92
      512
 93
        0
300

 40
0.0
140
1.0
 94
        5
 62
     0
340
9950
144
0.25
309
CONTENTFORMAT_END
171
     0
 94
        0
309
TABLEFORMAT_END
  1
CELLSTYLE_BEGIN
 90
        1
 91
        1
300
_TITLE
309
CELLSTYLE_END
300
CELLSTYLE
  1
TABLEFORMAT_BEGIN
 90
        5
170
     1
 91
        0
 92
        0
 62
   257
 93
        1
300
CONTENTFORMAT
  1
CONTENTFORMAT_BEGIN
 90
        0
 91
        0
 92
      512
 93
        0
300

 40
0.0
140
1.0
 94
        5
 62
     0
340
9950
144
0.18
309
CONTENTFORMAT_END
171
     0
 94
        0
309
TABLEFORMAT_END
  1
CELLSTYLE_BEGIN
 90
        2
 91
        1
300
_HEADER
309
CELLSTYLE_END
300
CELLSTYLE
  1
TABLEFORMAT_BEGIN
 90
        5
170
     1
 91
        0
 92
        0
 62
   257
 93
        1
300
CONTENTFORMAT
  1
CONTENTFORMAT_BEGIN
 90
        0
 91
        0
 92
      512
 93
        0
300

 40
0.0
140
1.0
 94
        2
 62
     0
340
9950
144
0.18
309
CONTENTFORMAT_END
171
     0
 94
        0
309
TABLEFORMAT_END
  1
CELLSTYLE_BEGIN
 90
        3
 91
        2
300
_DATA
309
CELLSTYLE_END
  0
XRECORD
  5
9C4B
102
{ACAD_REACTORS
330
9C14
102
}
330
9C14
100
AcDbXrecord
280
     1
102
ACAD_ROUNDTRIP_PRE2007_TABLESTYLE
 90
      512
 91
        0
  1

 92
      512
 93
        0
  2

 94
      512
 95
        0
  3

  0
XRECORD
  5
9C26
102
{ACAD_REACTORS
330
9C25
102
}
330
9C25
100
AcDbXrecord
280
     1
102
RTVSPost2010Prop28
280
     1
102
RTVSPost2010PropOp28
 70
     1
102
RTVSPost2010Prop29
280
     1
102
RTVSPost2010PropOp29
 70
     1
102
RTVSPost2010Prop30
280
     0
102
RTVSPost2010PropOp30
 70
     1
102
RTVSPost2010Prop31
280
     0
102
RTVSPost2010PropOp31
 70
     1
102
RTVSPost2010Prop32
280
     0
102
RTVSPost2010PropOp32
 70
     1
102
RTVSPost2010Prop33
280
     0
102
RTVSPost2010PropOp33
 70
     1
102
RTVSPost2010Prop34
280
     0
102
RTVSPost2010PropOp34
 70
     1
102
RTVSPost2010Prop35
280
     0
102
RTVSPost2010PropOp35
 70
     1
102
RTVSPost2010Prop36
280
     0
102
RTVSPost2010PropOp36
 70
     1
102
RTVSPost2010Prop37
 90
       50
102
RTVSPost2010PropOp37
 70
     1
102
RTVSPost2010Prop38
140
0.0
102
RTVSPost2010PropOp38
 70
     1
102
RTVSPost2010Prop39
140
1.0
102
RTVSPost2010PropOp39
 70
     1
102
RTVSPost2010Prop40
 90
        0
102
RTVSPost2010PropOp40
 70
     1
102
RTVSPost2010Prop41ColorIndex
 90
       18
102
RTVSPost2010Prop41ColorRGB
 90
        0
102
RTVSPost2010PropOp41
 70
     1
102
RTVSPost2010Prop42
 90
       50
102
RTVSPost2010PropOp42
 70
     1
102
RTVSPost2010Prop43
 90
        3
102
RTVSPost2010PropOp43
 70
     1
102
RTVSPost2010Prop44ColorIndex
 90
        5
102
RTVSPost2010Prop44ColorRGB
 90
      255
102
RTVSPost2010PropOp44
 70
     1
102
RTVSPost2010Prop45
280
     0
102
RTVSPost2010PropOp45
 70
     1
102
RTVSPost2010Prop46
 90
       50
102
RTVSPost2010PropOp46
 70
     1
102
RTVSPost2010Prop47
 90
       50
102
RTVSPost2010PropOp47
 70
     1
102
RTVSPost2010Prop48
 90
       50
102
RTVSPost2010PropOp48
 70
     1
102
RTVSPost2010Prop49
280
     0
102
RTVSPost2010PropOp49
 70
     1
102
RTVSPost2010Prop50
 90
       50
102
RTVSPost2010PropOp50
 70
     1
102
RTVSPost2010Prop51ColorIndex
 90
      256
102
RTVSPost2010Prop51ColorRGB
 90
-16777216
102
RTVSPost2010PropOp51
 70
     0
102
RTVSPost2010Prop52
140
1.0
102
RTVSPost2010PropOp52
 70
     0
102
RTVSPost2010Prop53
 90
        2
102
RTVSPost2010PropOp53
 70
     1
102
RTVSPost2010Prop54
  1
strokes_ogs.tif
102
RTVSPost2010PropOp54
 70
     1
102
RTVSPost2010Prop55
280
     0
102
RTVSPost2010PropOp55
 70
     1
102
RTVSPost2010Prop56
140
1.0
102
RTVSPost2010PropOp56
 70
     1
102
RTVSPost2010Prop57
140
1.0
102
RTVSPost2010PropOp57
 70
     1
102
RTVSPropertyOp0
 70
     1
102
RTVSPropertyOp1
 70
     1
102
RTVSPropertyOp2
 70
     1
102
RTVSPropertyOp3
 70
     1
102
RTVSPropertyOp4
 70
     1
102
RTVSPropertyOp5
 70
     1
102
RTVSPropertyOp6
 70
     1
102
RTVSPropertyOp7
 70
     1
102
RTVSPropertyOp8
 70
     1
102
RTVSPropertyOp9
 70
     1
102
RTVSPropertyOp10
 70
     1
102
RTVSPropertyOp11
 70
     1
102
RTVSPropertyOp12
 70
     1
102
RTVSPropertyOp13
 70
     1
102
RTVSPropertyOp14
 70
     1
102
RTVSPropertyOp15
 70
     1
102
RTVSPropertyOp16
 70
     1
102
RTVSPropertyOp17
 70
     1
102
RTVSPropertyOp18
 70
     1
102
RTVSPropertyOp19
 70
     1
102
RTVSPropertyOp20
 70
     1
102
RTVSPropertyOp21
 70
     1
102
RTVSPropertyOp22
 70
     1
102
RTVSPropertyOp23
 70
     1
102
RTVSPropertyOp24
 70
     1
102
RTVSPropertyOp25
 70
     1
102
RTVSPropertyOp26
 70
     1
102
RTVSPropertyOp27
 70
     1
102
RTVSPropertyOp28
 70
     1
102
RTVSPropertyOp29
 70
     1
102
RTVSPropertyOp30
 70
     1
102
RTVSPropertyOp31
 70
     1
102
RTVSPropertyOp32
 70
     1
102
RTVSPropertyOp33
 70
     1
102
RTVSPropertyOp34
 70
     1
102
RTVSPropertyOp35
 70
     1
102
RTVSPropertyOp36
 70
     1
102
RTVSPropertyOp37
 70
     1
102
RTVSPropertyOp38
 70
     1
102
RTVSPropertyOp39
 70
     1
102
RTVSPropertyOp40
 70
     1
102
RTVSPropertyOp41
 70
     1
102
RTVSPropertyOp42
 70
     1
102
RTVSPropertyOp43
 70
     1
102
RTVSPropertyOp44
 70
     1
102
RTVSPropertyOp45
 70
     1
102
RTVSPropertyOp46
 70
     1
102
RTVSPropertyOp47
 70
     1
102
RTVSPropertyOp48
 70
     1
102
RTVSPropertyOp49
 70
     1
102
RTVSPropertyOp50
 70
     1
102
RTVSPropertyOp51
 70
     0
102
RTVSPropertyOp52
 70
     0
102
RTVSPropertyOp53
 70
     1
102
RTVSPropertyOp54
 70
     1
102
RTVSPropertyOp55
 70
     1
102
RTVSPropertyOp56
 70
     1
102
RTVSPropertyOp57
 70
     1
102
RTVSPropertyOp58
 70
     1
102
RTVSPropertyOp59
 70
     1
102
RTVSPropertyOp60
 70
     1
102
RTVSPropertyOp61
 70
     1
102
RTVSPropertyOp62
 70
     1
  0
XRECORD
  5
9C24
102
{ACAD_REACTORS
330
9C23
102
}
330
9C23
100
AcDbXrecord
280
     1
102
RTVSPost2010Prop28
280
     0
102
RTVSPost2010PropOp28
 70
     1
102
RTVSPost2010Prop29
280
     1
102
RTVSPost2010PropOp29
 70
     1
102
RTVSPost2010Prop30
280
     1
102
RTVSPost2010PropOp30
 70
     1
102
RTVSPost2010Prop31
280
     0
102
RTVSPost2010PropOp31
 70
     1
102
RTVSPost2010Prop32
280
     0
102
RTVSPost2010PropOp32
 70
     1
102
RTVSPost2010Prop33
280
     0
102
RTVSPost2010PropOp33
 70
     1
102
RTVSPost2010Prop34
280
     0
102
RTVSPost2010PropOp34
 70
     1
102
RTVSPost2010Prop35
280
     0
102
RTVSPost2010PropOp35
 70
     1
102
RTVSPost2010Prop36
280
     0
102
RTVSPost2010PropOp36
 70
     1
102
RTVSPost2010Prop37
 90
       50
102
RTVSPost2010PropOp37
 70
     1
102
RTVSPost2010Prop38
140
0.0
102
RTVSPost2010PropOp38
 70
     1
102
RTVSPost2010Prop39
140
1.0
102
RTVSPost2010PropOp39
 70
     1
102
RTVSPost2010Prop40
 90
        0
102
RTVSPost2010PropOp40
 70
     1
102
RTVSPost2010Prop41ColorIndex
 90
       18
102
RTVSPost2010Prop41ColorRGB
 90
        0
102
RTVSPost2010PropOp41
 70
     1
102
RTVSPost2010Prop42
 90
       50
102
RTVSPost2010PropOp42
 70
     1
102
RTVSPost2010Prop43
 90
        3
102
RTVSPost2010PropOp43
 70
     1
102
RTVSPost2010Prop44ColorIndex
 90
        5
102
RTVSPost2010Prop44ColorRGB
 90
      255
102
RTVSPost2010PropOp44
 70
     1
102
RTVSPost2010Prop45
280
     0
102
RTVSPost2010PropOp45
 70
     1
102
RTVSPost2010Prop46
 90
       50
102
RTVSPost2010PropOp46
 70
     1
102
RTVSPost2010Prop47
 90
       50
102
RTVSPost2010PropOp47
 70
     1
102
RTVSPost2010Prop48
 90
       50
102
RTVSPost2010PropOp48
 70
     1
102
RTVSPost2010Prop49
280
     0
102
RTVSPost2010PropOp49
 70
     1
102
RTVSPost2010Prop50
 90
       50
102
RTVSPost2010PropOp50
 70
     1
102
RTVSPost2010Prop51ColorIndex
 90
      256
102
RTVSPost2010Prop51ColorRGB
 90
-16777216
102
RTVSPost2010PropOp51
 70
     0
102
RTVSPost2010Prop52
140
1.0
102
RTVSPost2010PropOp52
 70
     0
102
RTVSPost2010Prop53
 90
        2
102
RTVSPost2010PropOp53
 70
     1
102
RTVSPost2010Prop54
  1
strokes_ogs.tif
102
RTVSPost2010PropOp54
 70
     1
102
RTVSPost2010Prop55
280
     0
102
RTVSPost2010PropOp55
 70
     1
102
RTVSPost2010Prop56
140
1.0
102
RTVSPost2010PropOp56
 70
     1
102
RTVSPost2010Prop57
140
1.0
102
RTVSPost2010PropOp57
 70
     1
102
RTVSPropertyOp0
 70
     1
102
RTVSPropertyOp1
 70
     1
102
RTVSPropertyOp2
 70
     1
102
RTVSPropertyOp3
 70
     1
102
RTVSPropertyOp4
 70
     1
102
RTVSPropertyOp5
 70
     1
102
RTVSPropertyOp6
 70
     1
102
RTVSPropertyOp7
 70
     1
102
RTVSPropertyOp8
 70
     1
102
RTVSPropertyOp9
 70
     1
102
RTVSPropertyOp10
 70
     1
102
RTVSPropertyOp11
 70
     1
102
RTVSPropertyOp12
 70
     1
102
RTVSPropertyOp13
 70
     1
102
RTVSPropertyOp14
 70
     1
102
RTVSPropertyOp15
 70
     1
102
RTVSPropertyOp16
 70
     1
102
RTVSPropertyOp17
 70
     1
102
RTVSPropertyOp18
 70
     1
102
RTVSPropertyOp19
 70
     1
102
RTVSPropertyOp20
 70
     1
102
RTVSPropertyOp21
 70
     1
102
RTVSPropertyOp22
 70
     1
102
RTVSPropertyOp23
 70
     1
102
RTVSPropertyOp24
 70
     1
102
RTVSPropertyOp25
 70
     1
102
RTVSPropertyOp26
 70
     1
102
RTVSPropertyOp27
 70
     1
102
RTVSPropertyOp28
 70
     1
102
RTVSPropertyOp29
 70
     1
102
RTVSPropertyOp30
 70
     1
102
RTVSPropertyOp31
 70
     1
102
RTVSPropertyOp32
 70
     1
102
RTVSPropertyOp33
 70
     1
102
RTVSPropertyOp34
 70
     1
102
RTVSPropertyOp35
 70
     1
102
RTVSPropertyOp36
 70
     1
102
RTVSPropertyOp37
 70
     1
102
RTVSPropertyOp38
 70
     1
102
RTVSPropertyOp39
 70
     1
102
RTVSPropertyOp40
 70
     1
102
RTVSPropertyOp41
 70
     1
102
RTVSPropertyOp42
 70
     1
102
RTVSPropertyOp43
 70
     1
102
RTVSPropertyOp44
 70
     1
102
RTVSPropertyOp45
 70
     1
102
RTVSPropertyOp46
 70
     1
102
RTVSPropertyOp47
 70
     1
102
RTVSPropertyOp48
 70
     1
102
RTVSPropertyOp49
 70
     1
102
RTVSPropertyOp50
 70
     1
102
RTVSPropertyOp51
 70
     0
102
RTVSPropertyOp52
 70
     0
102
RTVSPropertyOp53
 70
     1
102
RTVSPropertyOp54
 70
     1
102
RTVSPropertyOp55
 70
     1
102
RTVSPropertyOp56
 70
     1
102
RTVSPropertyOp57
 70
     1
102
RTVSPropertyOp58
 70
     1
102
RTVSPropertyOp59
 70
     1
102
RTVSPropertyOp60
 70
     1
102
RTVSPropertyOp61
 70
     1
102
RTVSPropertyOp62
 70
     1
  0
XRECORD
  5
9C32
102
{ACAD_REACTORS
330
9C31
102
}
330
9C31
100
AcDbXrecord
280
     1
102
RTVSPost2010Prop28
280
     0
102
RTVSPost2010PropOp28
 70
     1
102
RTVSPost2010Prop29
280
     1
102
RTVSPost2010PropOp29
 70
     1
102
RTVSPost2010Prop30
280
     1
102
RTVSPost2010PropOp30
 70
     1
102
RTVSPost2010Prop31
280
     0
102
RTVSPost2010PropOp31
 70
     1
102
RTVSPost2010Prop32
280
     0
102
RTVSPost2010PropOp32
 70
     1
102
RTVSPost2010Prop33
280
     0
102
RTVSPost2010PropOp33
 70
     1
102
RTVSPost2010Prop34
280
     0
102
RTVSPost2010PropOp34
 70
     1
102
RTVSPost2010Prop35
280
     0
102
RTVSPost2010PropOp35
 70
     1
102
RTVSPost2010Prop36
280
     0
102
RTVSPost2010PropOp36
 70
     1
102
RTVSPost2010Prop37
 90
       50
102
RTVSPost2010PropOp37
 70
     1
102
RTVSPost2010Prop38
140
0.0
102
RTVSPost2010PropOp38
 70
     1
102
RTVSPost2010Prop39
140
1.0
102
RTVSPost2010PropOp39
 70
     1
102
RTVSPost2010Prop40
 90
        0
102
RTVSPost2010PropOp40
 70
     1
102
RTVSPost2010Prop41ColorIndex
 90
       18
102
RTVSPost2010Prop41ColorRGB
 90
        0
102
RTVSPost2010PropOp41
 70
     1
102
RTVSPost2010Prop42
 90
       50
102
RTVSPost2010PropOp42
 70
     1
102
RTVSPost2010Prop43
 90
        3
102
RTVSPost2010PropOp43
 70
     1
102
RTVSPost2010Prop44ColorIndex
 90
        5
102
RTVSPost2010Prop44ColorRGB
 90
      255
102
RTVSPost2010PropOp44
 70
     1
102
RTVSPost2010Prop45
280
     0
102
RTVSPost2010PropOp45
 70
     1
102
RTVSPost2010Prop46
 90
       50
102
RTVSPost2010PropOp46
 70
     1
102
RTVSPost2010Prop47
 90
       50
102
RTVSPost2010PropOp47
 70
     1
102
RTVSPost2010Prop48
 90
       50
102
RTVSPost2010PropOp48
 70
     1
102
RTVSPost2010Prop49
280
     0
102
RTVSPost2010PropOp49
 70
     1
102
RTVSPost2010Prop50
 90
       50
102
RTVSPost2010PropOp50
 70
     1
102
RTVSPost2010Prop51ColorIndex
 90
      256
102
RTVSPost2010Prop51ColorRGB
 90
-16777216
102
RTVSPost2010PropOp51
 70
     0
102
RTVSPost2010Prop52
140
1.0
102
RTVSPost2010PropOp52
 70
     0
102
RTVSPost2010Prop53
 90
        2
102
RTVSPost2010PropOp53
 70
     1
102
RTVSPost2010Prop54
  1
strokes_ogs.tif
102
RTVSPost2010PropOp54
 70
     1
102
RTVSPost2010Prop55
280
     0
102
RTVSPost2010PropOp55
 70
     1
102
RTVSPost2010Prop56
140
1.0
102
RTVSPost2010PropOp56
 70
     1
102
RTVSPost2010Prop57
140
1.0
102
RTVSPost2010PropOp57
 70
     1
102
RTVSPropertyOp0
 70
     1
102
RTVSPropertyOp1
 70
     1
102
RTVSPropertyOp2
 70
     1
102
RTVSPropertyOp3
 70
     1
102
RTVSPropertyOp4
 70
     1
102
RTVSPropertyOp5
 70
     1
102
RTVSPropertyOp6
 70
     1
102
RTVSPropertyOp7
 70
     1
102
RTVSPropertyOp8
 70
     1
102
RTVSPropertyOp9
 70
     1
102
RTVSPropertyOp10
 70
     1
102
RTVSPropertyOp11
 70
     1
102
RTVSPropertyOp12
 70
     1
102
RTVSPropertyOp13
 70
     1
102
RTVSPropertyOp14
 70
     1
102
RTVSPropertyOp15
 70
     1
102
RTVSPropertyOp16
 70
     1
102
RTVSPropertyOp17
 70
     1
102
RTVSPropertyOp18
 70
     1
102
RTVSPropertyOp19
 70
     1
102
RTVSPropertyOp20
 70
     1
102
RTVSPropertyOp21
 70
     1
102
RTVSPropertyOp22
 70
     1
102
RTVSPropertyOp23
 70
     1
102
RTVSPropertyOp24
 70
     1
102
RTVSPropertyOp25
 70
     1
102
RTVSPropertyOp26
 70
     1
102
RTVSPropertyOp27
 70
     1
102
RTVSPropertyOp28
 70
     1
102
RTVSPropertyOp29
 70
     1
102
RTVSPropertyOp30
 70
     1
102
RTVSPropertyOp31
 70
     1
102
RTVSPropertyOp32
 70
     1
102
RTVSPropertyOp33
 70
     1
102
RTVSPropertyOp34
 70
     1
102
RTVSPropertyOp35
 70
     1
102
RTVSPropertyOp36
 70
     1
102
RTVSPropertyOp37
 70
     1
102
RTVSPropertyOp38
 70
     1
102
RTVSPropertyOp39
 70
     1
102
RTVSPropertyOp40
 70
     1
102
RTVSPropertyOp41
 70
     1
102
RTVSPropertyOp42
 70
     1
102
RTVSPropertyOp43
 70
     1
102
RTVSPropertyOp44
 70
     1
102
RTVSPropertyOp45
 70
     1
102
RTVSPropertyOp46
 70
     1
102
RTVSPropertyOp47
 70
     1
102
RTVSPropertyOp48
 70
     1
102
RTVSPropertyOp49
 70
     1
102
RTVSPropertyOp50
 70
     1
102
RTVSPropertyOp51
 70
     0
102
RTVSPropertyOp52
 70
     0
102
RTVSPropertyOp53
 70
     1
102
RTVSPropertyOp54
 70
     1
102
RTVSPropertyOp55
 70
     1
102
RTVSPropertyOp56
 70
     1
102
RTVSPropertyOp57
 70
     1
102
RTVSPropertyOp58
 70
     1
102
RTVSPropertyOp59
 70
     1
102
RTVSPropertyOp60
 70
     1
102
RTVSPropertyOp61
 70
     1
102
RTVSPropertyOp62
 70
     1
  0
XRECORD
  5
9C3A
102
{ACAD_REACTORS
330
9C39
102
}
330
9C39
100
AcDbXrecord
280
     1
102
RTVSPost2010Prop28
280
     0
102
RTVSPost2010PropOp28
 70
     1
102
RTVSPost2010Prop29
280
     1
102
RTVSPost2010PropOp29
 70
     1
102
RTVSPost2010Prop30
280
     1
102
RTVSPost2010PropOp30
 70
     1
102
RTVSPost2010Prop31
280
     0
102
RTVSPost2010PropOp31
 70
     1
102
RTVSPost2010Prop32
280
     0
102
RTVSPost2010PropOp32
 70
     1
102
RTVSPost2010Prop33
280
     0
102
RTVSPost2010PropOp33
 70
     1
102
RTVSPost2010Prop34
280
     0
102
RTVSPost2010PropOp34
 70
     1
102
RTVSPost2010Prop35
280
     0
102
RTVSPost2010PropOp35
 70
     1
102
RTVSPost2010Prop36
280
     0
102
RTVSPost2010PropOp36
 70
     1
102
RTVSPost2010Prop37
 90
       50
102
RTVSPost2010PropOp37
 70
     1
102
RTVSPost2010Prop38
140
0.0
102
RTVSPost2010PropOp38
 70
     1
102
RTVSPost2010Prop39
140
1.0
102
RTVSPost2010PropOp39
 70
     1
102
RTVSPost2010Prop40
 90
        0
102
RTVSPost2010PropOp40
 70
     1
102
RTVSPost2010Prop41ColorIndex
 90
       18
102
RTVSPost2010Prop41ColorRGB
 90
        0
102
RTVSPost2010PropOp41
 70
     1
102
RTVSPost2010Prop42
 90
       50
102
RTVSPost2010PropOp42
 70
     1
102
RTVSPost2010Prop43
 90
        3
102
RTVSPost2010PropOp43
 70
     1
102
RTVSPost2010Prop44ColorIndex
 90
        5
102
RTVSPost2010Prop44ColorRGB
 90
      255
102
RTVSPost2010PropOp44
 70
     1
102
RTVSPost2010Prop45
280
     0
102
RTVSPost2010PropOp45
 70
     1
102
RTVSPost2010Prop46
 90
       50
102
RTVSPost2010PropOp46
 70
     1
102
RTVSPost2010Prop47
 90
       50
102
RTVSPost2010PropOp47
 70
     1
102
RTVSPost2010Prop48
 90
       50
102
RTVSPost2010PropOp48
 70
     1
102
RTVSPost2010Prop49
280
     0
102
RTVSPost2010PropOp49
 70
     1
102
RTVSPost2010Prop50
 90
       50
102
RTVSPost2010PropOp50
 70
     1
102
RTVSPost2010Prop51ColorIndex
 90
      256
102
RTVSPost2010Prop51ColorRGB
 90
-16777216
102
RTVSPost2010PropOp51
 70
     0
102
RTVSPost2010Prop52
140
1.0
102
RTVSPost2010PropOp52
 70
     0
102
RTVSPost2010Prop53
 90
        2
102
RTVSPost2010PropOp53
 70
     1
102
RTVSPost2010Prop54
  1
strokes_ogs.tif
102
RTVSPost2010PropOp54
 70
     1
102
RTVSPost2010Prop55
280
     0
102
RTVSPost2010PropOp55
 70
     1
102
RTVSPost2010Prop56
140
1.0
102
RTVSPost2010PropOp56
 70
     1
102
RTVSPost2010Prop57
140
1.0
102
RTVSPost2010PropOp57
 70
     1
102
RTVSPropertyOp0
 70
     1
102
RTVSPropertyOp1
 70
     1
102
RTVSPropertyOp2
 70
     1
102
RTVSPropertyOp3
 70
     1
102
RTVSPropertyOp4
 70
     1
102
RTVSPropertyOp5
 70
     1
102
RTVSPropertyOp6
 70
     1
102
RTVSPropertyOp7
 70
     1
102
RTVSPropertyOp8
 70
     1
102
RTVSPropertyOp9
 70
     1
102
RTVSPropertyOp10
 70
     1
102
RTVSPropertyOp11
 70
     1
102
RTVSPropertyOp12
 70
     1
102
RTVSPropertyOp13
 70
     1
102
RTVSPropertyOp14
 70
     1
102
RTVSPropertyOp15
 70
     1
102
RTVSPropertyOp16
 70
     1
102
RTVSPropertyOp17
 70
     1
102
RTVSPropertyOp18
 70
     1
102
RTVSPropertyOp19
 70
     1
102
RTVSPropertyOp20
 70
     1
102
RTVSPropertyOp21
 70
     1
102
RTVSPropertyOp22
 70
     1
102
RTVSPropertyOp23
 70
     1
102
RTVSPropertyOp24
 70
     1
102
RTVSPropertyOp25
 70
     1
102
RTVSPropertyOp26
 70
     1
102
RTVSPropertyOp27
 70
     1
102
RTVSPropertyOp28
 70
     1
102
RTVSPropertyOp29
 70
     1
102
RTVSPropertyOp30
 70
     1
102
RTVSPropertyOp31
 70
     1
102
RTVSPropertyOp32
 70
     1
102
RTVSPropertyOp33
 70
     1
102
RTVSPropertyOp34
 70
     1
102
RTVSPropertyOp35
 70
     1
102
RTVSPropertyOp36
 70
     1
102
RTVSPropertyOp37
 70
     1
102
RTVSPropertyOp38
 70
     1
102
RTVSPropertyOp39
 70
     1
102
RTVSPropertyOp40
 70
     1
102
RTVSPropertyOp41
 70
     1
102
RTVSPropertyOp42
 70
     1
102
RTVSPropertyOp43
 70
     1
102
RTVSPropertyOp44
 70
     1
102
RTVSPropertyOp45
 70
     1
102
RTVSPropertyOp46
 70
     1
102
RTVSPropertyOp47
 70
     1
102
RTVSPropertyOp48
 70
     1
102
RTVSPropertyOp49
 70
     1
102
RTVSPropertyOp50
 70
     1
102
RTVSPropertyOp51
 70
     0
102
RTVSPropertyOp52
 70
     0
102
RTVSPropertyOp53
 70
     1
102
RTVSPropertyOp54
 70
     1
102
RTVSPropertyOp55
 70
     1
102
RTVSPropertyOp56
 70
     1
102
RTVSPropertyOp57
 70
     1
102
RTVSPropertyOp58
 70
     1
102
RTVSPropertyOp59
 70
     1
102
RTVSPropertyOp60
 70
     1
102
RTVSPropertyOp61
 70
     1
102
RTVSPropertyOp62
 70
     1
  0
XRECORD
  5
9C2C
102
{ACAD_REACTORS
330
9C2B
102
}
330
9C2B
100
AcDbXrecord
280
     1
102
RTVSPost2010Prop28
280
     0
102
RTVSPost2010PropOp28
 70
     1
102
RTVSPost2010Prop29
280
     1
102
RTVSPost2010PropOp29
 70
     1
102
RTVSPost2010Prop30
280
     1
102
RTVSPost2010PropOp30
 70
     1
102
RTVSPost2010Prop31
280
     0
102
RTVSPost2010PropOp31
 70
     1
102
RTVSPost2010Prop32
280
     0
102
RTVSPost2010PropOp32
 70
     1
102
RTVSPost2010Prop33
280
     0
102
RTVSPost2010PropOp33
 70
     1
102
RTVSPost2010Prop34
280
     0
102
RTVSPost2010PropOp34
 70
     1
102
RTVSPost2010Prop35
280
     0
102
RTVSPost2010PropOp35
 70
     1
102
RTVSPost2010Prop36
280
     0
102
RTVSPost2010PropOp36
 70
     1
102
RTVSPost2010Prop37
 90
       50
102
RTVSPost2010PropOp37
 70
     1
102
RTVSPost2010Prop38
140
0.0
102
RTVSPost2010PropOp38
 70
     1
102
RTVSPost2010Prop39
140
1.0
102
RTVSPost2010PropOp39
 70
     1
102
RTVSPost2010Prop40
 90
        0
102
RTVSPost2010PropOp40
 70
     1
102
RTVSPost2010Prop41ColorIndex
 90
       18
102
RTVSPost2010Prop41ColorRGB
 90
        0
102
RTVSPost2010PropOp41
 70
     1
102
RTVSPost2010Prop42
 90
       50
102
RTVSPost2010PropOp42
 70
     1
102
RTVSPost2010Prop43
 90
        3
102
RTVSPost2010PropOp43
 70
     1
102
RTVSPost2010Prop44ColorIndex
 90
        5
102
RTVSPost2010Prop44ColorRGB
 90
      255
102
RTVSPost2010PropOp44
 70
     1
102
RTVSPost2010Prop45
280
     0
102
RTVSPost2010PropOp45
 70
     1
102
RTVSPost2010Prop46
 90
       50
102
RTVSPost2010PropOp46
 70
     1
102
RTVSPost2010Prop47
 90
       50
102
RTVSPost2010PropOp47
 70
     1
102
RTVSPost2010Prop48
 90
       50
102
RTVSPost2010PropOp48
 70
     1
102
RTVSPost2010Prop49
280
     0
102
RTVSPost2010PropOp49
 70
     1
102
RTVSPost2010Prop50
 90
       50
102
RTVSPost2010PropOp50
 70
     1
102
RTVSPost2010Prop51ColorIndex
 90
      256
102
RTVSPost2010Prop51ColorRGB
 90
-16777216
102
RTVSPost2010PropOp51
 70
     0
102
RTVSPost2010Prop52
140
1.0
102
RTVSPost2010PropOp52
 70
     0
102
RTVSPost2010Prop53
 90
        2
102
RTVSPost2010PropOp53
 70
     1
102
RTVSPost2010Prop54
  1
strokes_ogs.tif
102
RTVSPost2010PropOp54
 70
     1
102
RTVSPost2010Prop55
280
     0
102
RTVSPost2010PropOp55
 70
     1
102
RTVSPost2010Prop56
140
1.0
102
RTVSPost2010PropOp56
 70
     1
102
RTVSPost2010Prop57
140
1.0
102
RTVSPost2010PropOp57
 70
     1
102
RTVSPropertyOp0
 70
     1
102
RTVSPropertyOp1
 70
     1
102
RTVSPropertyOp2
 70
     1
102
RTVSPropertyOp3
 70
     1
102
RTVSPropertyOp4
 70
     1
102
RTVSPropertyOp5
 70
     1
102
RTVSPropertyOp6
 70
     1
102
RTVSPropertyOp7
 70
     1
102
RTVSPropertyOp8
 70
     1
102
RTVSPropertyOp9
 70
     1
102
RTVSPropertyOp10
 70
     1
102
RTVSPropertyOp11
 70
     1
102
RTVSPropertyOp12
 70
     1
102
RTVSPropertyOp13
 70
     1
102
RTVSPropertyOp14
 70
     1
102
RTVSPropertyOp15
 70
     1
102
RTVSPropertyOp16
 70
     1
102
RTVSPropertyOp17
 70
     1
102
RTVSPropertyOp18
 70
     1
102
RTVSPropertyOp19
 70
     1
102
RTVSPropertyOp20
 70
     1
102
RTVSPropertyOp21
 70
     1
102
RTVSPropertyOp22
 70
     1
102
RTVSPropertyOp23
 70
     1
102
RTVSPropertyOp24
 70
     1
102
RTVSPropertyOp25
 70
     1
102
RTVSPropertyOp26
 70
     1
102
RTVSPropertyOp27
 70
     1
102
RTVSPropertyOp28
 70
     1
102
RTVSPropertyOp29
 70
     1
102
RTVSPropertyOp30
 70
     1
102
RTVSPropertyOp31
 70
     1
102
RTVSPropertyOp32
 70
     1
102
RTVSPropertyOp33
 70
     1
102
RTVSPropertyOp34
 70
     1
102
RTVSPropertyOp35
 70
     1
102
RTVSPropertyOp36
 70
     1
102
RTVSPropertyOp37
 70
     1
102
RTVSPropertyOp38
 70
     1
102
RTVSPropertyOp39
 70
     1
102
RTVSPropertyOp40
 70
     1
102
RTVSPropertyOp41
 70
     1
102
RTVSPropertyOp42
 70
     1
102
RTVSPropertyOp43
 70
     1
102
RTVSPropertyOp44
 70
     1
102
RTVSPropertyOp45
 70
     1
102
RTVSPropertyOp46
 70
     1
102
RTVSPropertyOp47
 70
     1
102
RTVSPropertyOp48
 70
     1
102
RTVSPropertyOp49
 70
     1
102
RTVSPropertyOp50
 70
     1
102
RTVSPropertyOp51
 70
     0
102
RTVSPropertyOp52
 70
     0
102
RTVSPropertyOp53
 70
     1
102
RTVSPropertyOp54
 70
     1
102
RTVSPropertyOp55
 70
     1
102
RTVSPropertyOp56
 70
     1
102
RTVSPropertyOp57
 70
     1
102
RTVSPropertyOp58
 70
     1
102
RTVSPropertyOp59
 70
     1
102
RTVSPropertyOp60
 70
     1
102
RTVSPropertyOp61
 70
     1
102
RTVSPropertyOp62
 70
     1
  0
XRECORD
  5
9C30
102
{ACAD_REACTORS
330
9C2F
102
}
330
9C2F
100
AcDbXrecord
280
     1
102
RTVSPost2010Prop28
280
     0
102
RTVSPost2010PropOp28
 70
     1
102
RTVSPost2010Prop29
280
     1
102
RTVSPost2010PropOp29
 70
     1
102
RTVSPost2010Prop30
280
     1
102
RTVSPost2010PropOp30
 70
     1
102
RTVSPost2010Prop31
280
     0
102
RTVSPost2010PropOp31
 70
     1
102
RTVSPost2010Prop32
280
     0
102
RTVSPost2010PropOp32
 70
     1
102
RTVSPost2010Prop33
280
     0
102
RTVSPost2010PropOp33
 70
     1
102
RTVSPost2010Prop34
280
     0
102
RTVSPost2010PropOp34
 70
     1
102
RTVSPost2010Prop35
280
     0
102
RTVSPost2010PropOp35
 70
     1
102
RTVSPost2010Prop36
280
     0
102
RTVSPost2010PropOp36
 70
     1
102
RTVSPost2010Prop37
 90
       50
102
RTVSPost2010PropOp37
 70
     1
102
RTVSPost2010Prop38
140
0.0
102
RTVSPost2010PropOp38
 70
     1
102
RTVSPost2010Prop39
140
1.0
102
RTVSPost2010PropOp39
 70
     1
102
RTVSPost2010Prop40
 90
        0
102
RTVSPost2010PropOp40
 70
     1
102
RTVSPost2010Prop41ColorIndex
 90
       18
102
RTVSPost2010Prop41ColorRGB
 90
        0
102
RTVSPost2010PropOp41
 70
     1
102
RTVSPost2010Prop42
 90
       50
102
RTVSPost2010PropOp42
 70
     1
102
RTVSPost2010Prop43
 90
        3
102
RTVSPost2010PropOp43
 70
     1
102
RTVSPost2010Prop44ColorIndex
 90
        5
102
RTVSPost2010Prop44ColorRGB
 90
      255
102
RTVSPost2010PropOp44
 70
     1
102
RTVSPost2010Prop45
280
     0
102
RTVSPost2010PropOp45
 70
     1
102
RTVSPost2010Prop46
 90
       50
102
RTVSPost2010PropOp46
 70
     1
102
RTVSPost2010Prop47
 90
       50
102
RTVSPost2010PropOp47
 70
     1
102
RTVSPost2010Prop48
 90
       50
102
RTVSPost2010PropOp48
 70
     1
102
RTVSPost2010Prop49
280
     0
102
RTVSPost2010PropOp49
 70
     1
102
RTVSPost2010Prop50
 90
       50
102
RTVSPost2010PropOp50
 70
     1
102
RTVSPost2010Prop51ColorIndex
 90
      256
102
RTVSPost2010Prop51ColorRGB
 90
-16777216
102
RTVSPost2010PropOp51
 70
     0
102
RTVSPost2010Prop52
140
1.0
102
RTVSPost2010PropOp52
 70
     0
102
RTVSPost2010Prop53
 90
        2
102
RTVSPost2010PropOp53
 70
     1
102
RTVSPost2010Prop54
  1
strokes_ogs.tif
102
RTVSPost2010PropOp54
 70
     1
102
RTVSPost2010Prop55
280
     0
102
RTVSPost2010PropOp55
 70
     1
102
RTVSPost2010Prop56
140
1.0
102
RTVSPost2010PropOp56
 70
     1
102
RTVSPost2010Prop57
140
1.0
102
RTVSPost2010PropOp57
 70
     1
102
RTVSPropertyOp0
 70
     1
102
RTVSPropertyOp1
 70
     1
102
RTVSPropertyOp2
 70
     1
102
RTVSPropertyOp3
 70
     1
102
RTVSPropertyOp4
 70
     1
102
RTVSPropertyOp5
 70
     1
102
RTVSPropertyOp6
 70
     1
102
RTVSPropertyOp7
 70
     1
102
RTVSPropertyOp8
 70
     1
102
RTVSPropertyOp9
 70
     1
102
RTVSPropertyOp10
 70
     1
102
RTVSPropertyOp11
 70
     1
102
RTVSPropertyOp12
 70
     1
102
RTVSPropertyOp13
 70
     1
102
RTVSPropertyOp14
 70
     1
102
RTVSPropertyOp15
 70
     1
102
RTVSPropertyOp16
 70
     1
102
RTVSPropertyOp17
 70
     1
102
RTVSPropertyOp18
 70
     1
102
RTVSPropertyOp19
 70
     1
102
RTVSPropertyOp20
 70
     1
102
RTVSPropertyOp21
 70
     1
102
RTVSPropertyOp22
 70
     1
102
RTVSPropertyOp23
 70
     1
102
RTVSPropertyOp24
 70
     1
102
RTVSPropertyOp25
 70
     1
102
RTVSPropertyOp26
 70
     1
102
RTVSPropertyOp27
 70
     1
102
RTVSPropertyOp28
 70
     1
102
RTVSPropertyOp29
 70
     1
102
RTVSPropertyOp30
 70
     1
102
RTVSPropertyOp31
 70
     1
102
RTVSPropertyOp32
 70
     1
102
RTVSPropertyOp33
 70
     1
102
RTVSPropertyOp34
 70
     1
102
RTVSPropertyOp35
 70
     1
102
RTVSPropertyOp36
 70
     1
102
RTVSPropertyOp37
 70
     1
102
RTVSPropertyOp38
 70
     1
102
RTVSPropertyOp39
 70
     1
102
RTVSPropertyOp40
 70
     1
102
RTVSPropertyOp41
 70
     1
102
RTVSPropertyOp42
 70
     1
102
RTVSPropertyOp43
 70
     1
102
RTVSPropertyOp44
 70
     1
102
RTVSPropertyOp45
 70
     1
102
RTVSPropertyOp46
 70
     1
102
RTVSPropertyOp47
 70
     1
102
RTVSPropertyOp48
 70
     1
102
RTVSPropertyOp49
 70
     1
102
RTVSPropertyOp50
 70
     1
102
RTVSPropertyOp51
 70
     0
102
RTVSPropertyOp52
 70
     0
102
RTVSPropertyOp53
 70
     1
102
RTVSPropertyOp54
 70
     1
102
RTVSPropertyOp55
 70
     1
102
RTVSPropertyOp56
 70
     1
102
RTVSPropertyOp57
 70
     1
102
RTVSPropertyOp58
 70
     1
102
RTVSPropertyOp59
 70
     1
102
RTVSPropertyOp60
 70
     1
102
RTVSPropertyOp61
 70
     1
102
RTVSPropertyOp62
 70
     1
  0
XRECORD
  5
9C4A
102
{ACAD_REACTORS
330
9C49
102
}
330
9C49
100
AcDbXrecord
280
     1
102
RTVSPost2010Prop28
280
     0
102
RTVSPost2010PropOp28
 70
     1
102
RTVSPost2010Prop29
280
     1
102
RTVSPost2010PropOp29
 70
     1
102
RTVSPost2010Prop30
280
     1
102
RTVSPost2010PropOp30
 70
     1
102
RTVSPost2010Prop31
280
     0
102
RTVSPost2010PropOp31
 70
     1
102
RTVSPost2010Prop32
280
     0
102
RTVSPost2010PropOp32
 70
     1
102
RTVSPost2010Prop33
280
     0
102
RTVSPost2010PropOp33
 70
     1
102
RTVSPost2010Prop34
280
     0
102
RTVSPost2010PropOp34
 70
     1
102
RTVSPost2010Prop35
280
     0
102
RTVSPost2010PropOp35
 70
     1
102
RTVSPost2010Prop36
280
     0
102
RTVSPost2010PropOp36
 70
     1
102
RTVSPost2010Prop37
 90
       50
102
RTVSPost2010PropOp37
 70
     0
102
RTVSPost2010Prop38
140
0.0
102
RTVSPost2010PropOp38
 70
     0
102
RTVSPost2010Prop39
140
1.0
102
RTVSPost2010PropOp39
 70
     0
102
RTVSPost2010Prop40
 90
        0
102
RTVSPost2010PropOp40
 70
     0
102
RTVSPost2010Prop41ColorIndex
 90
       18
102
RTVSPost2010Prop41ColorRGB
 90
        0
102
RTVSPost2010PropOp41
 70
     0
102
RTVSPost2010Prop42
 90
       50
102
RTVSPost2010PropOp42
 70
     0
102
RTVSPost2010Prop43
 90
        3
102
RTVSPost2010PropOp43
 70
     0
102
RTVSPost2010Prop44ColorIndex
 90
        5
102
RTVSPost2010Prop44ColorRGB
 90
      255
102
RTVSPost2010PropOp44
 70
     0
102
RTVSPost2010Prop45
280
     0
102
RTVSPost2010PropOp45
 70
     1
102
RTVSPost2010Prop46
 90
       50
102
RTVSPost2010PropOp46
 70
     0
102
RTVSPost2010Prop47
 90
       50
102
RTVSPost2010PropOp47
 70
     0
102
RTVSPost2010Prop48
 90
       50
102
RTVSPost2010PropOp48
 70
     0
102
RTVSPost2010Prop49
280
     0
102
RTVSPost2010PropOp49
 70
     1
102
RTVSPost2010Prop50
 90
       50
102
RTVSPost2010PropOp50
 70
     0
102
RTVSPost2010Prop51ColorIndex
 90
      256
102
RTVSPost2010Prop51ColorRGB
 90
-16777216
102
RTVSPost2010PropOp51
 70
     0
102
RTVSPost2010Prop52
140
1.0
102
RTVSPost2010PropOp52
 70
     0
102
RTVSPost2010Prop53
 90
        2
102
RTVSPost2010PropOp53
 70
     0
102
RTVSPost2010Prop54
  1
strokes_ogs.tif
102
RTVSPost2010PropOp54
 70
     0
102
RTVSPost2010Prop55
280
     0
102
RTVSPost2010PropOp55
 70
     1
102
RTVSPost2010Prop56
140
1.0
102
RTVSPost2010PropOp56
 70
     0
102
RTVSPost2010Prop57
140
1.0
102
RTVSPost2010PropOp57
 70
     0
102
RTVSPropertyOp0
 70
     0
102
RTVSPropertyOp1
 70
     0
102
RTVSPropertyOp2
 70
     0
102
RTVSPropertyOp3
 70
     0
102
RTVSPropertyOp4
 70
     0
102
RTVSPropertyOp5
 70
     0
102
RTVSPropertyOp6
 70
     0
102
RTVSPropertyOp7
 70
     0
102
RTVSPropertyOp8
 70
     0
102
RTVSPropertyOp9
 70
     0
102
RTVSPropertyOp10
 70
     0
102
RTVSPropertyOp11
 70
     0
102
RTVSPropertyOp12
 70
     0
102
RTVSPropertyOp13
 70
     0
102
RTVSPropertyOp14
 70
     2
102
RTVSPropertyOp15
 70
     0
102
RTVSPropertyOp16
 70
     0
102
RTVSPropertyOp17
 70
     0
102
RTVSPropertyOp18
 70
     0
102
RTVSPropertyOp19
 70
     0
102
RTVSPropertyOp20
 70
     0
102
RTVSPropertyOp21
 70
     0
102
RTVSPropertyOp22
 70
     0
102
RTVSPropertyOp23
 70
     0
102
RTVSPropertyOp24
 70
     0
102
RTVSPropertyOp25
 70
     0
102
RTVSPropertyOp26
 70
     0
102
RTVSPropertyOp27
 70
     0
102
RTVSPropertyOp28
 70
     1
102
RTVSPropertyOp29
 70
     1
102
RTVSPropertyOp30
 70
     1
102
RTVSPropertyOp31
 70
     1
102
RTVSPropertyOp32
 70
     1
102
RTVSPropertyOp33
 70
     1
102
RTVSPropertyOp34
 70
     1
102
RTVSPropertyOp35
 70
     1
102
RTVSPropertyOp36
 70
     1
102
RTVSPropertyOp37
 70
     0
102
RTVSPropertyOp38
 70
     0
102
RTVSPropertyOp39
 70
     0
102
RTVSPropertyOp40
 70
     0
102
RTVSPropertyOp41
 70
     0
102
RTVSPropertyOp42
 70
     0
102
RTVSPropertyOp43
 70
     0
102
RTVSPropertyOp44
 70
     0
102
RTVSPropertyOp45
 70
     1
102
RTVSPropertyOp46
 70
     0
102
RTVSPropertyOp47
 70
     0
102
RTVSPropertyOp48
 70
     0
102
RTVSPropertyOp49
 70
     1
102
RTVSPropertyOp50
 70
     0
102
RTVSPropertyOp51
 70
     0
102
RTVSPropertyOp52
 70
     0
102
RTVSPropertyOp53
 70
     0
102
RTVSPropertyOp54
 70
     0
102
RTVSPropertyOp55
 70
     1
102
RTVSPropertyOp56
 70
     0
102
RTVSPropertyOp57
 70
     0
102
RTVSPropertyOp58
 70
     0
102
RTVSPropertyOp59
 70
     0
102
RTVSPropertyOp60
 70
     0
102
RTVSPropertyOp61
 70
     0
102
RTVSPropertyOp62
 70
     0
  0
XRECORD
  5
9C38
102
{ACAD_REACTORS
330
9C37
102
}
330
9C37
100
AcDbXrecord
280
     1
102
RTVSPost2010Prop28
280
     0
102
RTVSPost2010PropOp28
 70
     1
102
RTVSPost2010Prop29
280
     1
102
RTVSPost2010PropOp29
 70
     1
102
RTVSPost2010Prop30
280
     1
102
RTVSPost2010PropOp30
 70
     1
102
RTVSPost2010Prop31
280
     0
102
RTVSPost2010PropOp31
 70
     1
102
RTVSPost2010Prop32
280
     0
102
RTVSPost2010PropOp32
 70
     1
102
RTVSPost2010Prop33
280
     0
102
RTVSPost2010PropOp33
 70
     1
102
RTVSPost2010Prop34
280
     0
102
RTVSPost2010PropOp34
 70
     1
102
RTVSPost2010Prop35
280
     0
102
RTVSPost2010PropOp35
 70
     1
102
RTVSPost2010Prop36
280
     0
102
RTVSPost2010PropOp36
 70
     1
102
RTVSPost2010Prop37
 90
       50
102
RTVSPost2010PropOp37
 70
     1
102
RTVSPost2010Prop38
140
0.0
102
RTVSPost2010PropOp38
 70
     1
102
RTVSPost2010Prop39
140
1.0
102
RTVSPost2010PropOp39
 70
     1
102
RTVSPost2010Prop40
 90
        0
102
RTVSPost2010PropOp40
 70
     1
102
RTVSPost2010Prop41ColorIndex
 90
       18
102
RTVSPost2010Prop41ColorRGB
 90
        0
102
RTVSPost2010PropOp41
 70
     1
102
RTVSPost2010Prop42
 90
       50
102
RTVSPost2010PropOp42
 70
     1
102
RTVSPost2010Prop43
 90
        3
102
RTVSPost2010PropOp43
 70
     1
102
RTVSPost2010Prop44ColorIndex
 90
        5
102
RTVSPost2010Prop44ColorRGB
 90
      255
102
RTVSPost2010PropOp44
 70
     1
102
RTVSPost2010Prop45
280
     0
102
RTVSPost2010PropOp45
 70
     1
102
RTVSPost2010Prop46
 90
       50
102
RTVSPost2010PropOp46
 70
     1
102
RTVSPost2010Prop47
 90
       50
102
RTVSPost2010PropOp47
 70
     1
102
RTVSPost2010Prop48
 90
       50
102
RTVSPost2010PropOp48
 70
     1
102
RTVSPost2010Prop49
280
     0
102
RTVSPost2010PropOp49
 70
     1
102
RTVSPost2010Prop50
 90
       50
102
RTVSPost2010PropOp50
 70
     1
102
RTVSPost2010Prop51ColorIndex
 90
      256
102
RTVSPost2010Prop51ColorRGB
 90
-16777216
102
RTVSPost2010PropOp51
 70
     0
102
RTVSPost2010Prop52
140
1.0
102
RTVSPost2010PropOp52
 70
     0
102
RTVSPost2010Prop53
 90
        2
102
RTVSPost2010PropOp53
 70
     1
102
RTVSPost2010Prop54
  1
strokes_ogs.tif
102
RTVSPost2010PropOp54
 70
     1
102
RTVSPost2010Prop55
280
     0
102
RTVSPost2010PropOp55
 70
     1
102
RTVSPost2010Prop56
140
1.0
102
RTVSPost2010PropOp56
 70
     1
102
RTVSPost2010Prop57
140
1.0
102
RTVSPost2010PropOp57
 70
     1
102
RTVSPropertyOp0
 70
     1
102
RTVSPropertyOp1
 70
     1
102
RTVSPropertyOp2
 70
     1
102
RTVSPropertyOp3
 70
     1
102
RTVSPropertyOp4
 70
     1
102
RTVSPropertyOp5
 70
     1
102
RTVSPropertyOp6
 70
     1
102
RTVSPropertyOp7
 70
     1
102
RTVSPropertyOp8
 70
     1
102
RTVSPropertyOp9
 70
     1
102
RTVSPropertyOp10
 70
     1
102
RTVSPropertyOp11
 70
     1
102
RTVSPropertyOp12
 70
     1
102
RTVSPropertyOp13
 70
     1
102
RTVSPropertyOp14
 70
     1
102
RTVSPropertyOp15
 70
     1
102
RTVSPropertyOp16
 70
     1
102
RTVSPropertyOp17
 70
     1
102
RTVSPropertyOp18
 70
     1
102
RTVSPropertyOp19
 70
     1
102
RTVSPropertyOp20
 70
     1
102
RTVSPropertyOp21
 70
     1
102
RTVSPropertyOp22
 70
     1
102
RTVSPropertyOp23
 70
     1
102
RTVSPropertyOp24
 70
     1
102
RTVSPropertyOp25
 70
     1
102
RTVSPropertyOp26
 70
     1
102
RTVSPropertyOp27
 70
     1
102
RTVSPropertyOp28
 70
     1
102
RTVSPropertyOp29
 70
     1
102
RTVSPropertyOp30
 70
     1
102
RTVSPropertyOp31
 70
     1
102
RTVSPropertyOp32
 70
     1
102
RTVSPropertyOp33
 70
     1
102
RTVSPropertyOp34
 70
     1
102
RTVSPropertyOp35
 70
     1
102
RTVSPropertyOp36
 70
     1
102
RTVSPropertyOp37
 70
     1
102
RTVSPropertyOp38
 70
     1
102
RTVSPropertyOp39
 70
     1
102
RTVSPropertyOp40
 70
     1
102
RTVSPropertyOp41
 70
     1
102
RTVSPropertyOp42
 70
     1
102
RTVSPropertyOp43
 70
     1
102
RTVSPropertyOp44
 70
     1
102
RTVSPropertyOp45
 70
     1
102
RTVSPropertyOp46
 70
     1
102
RTVSPropertyOp47
 70
     1
102
RTVSPropertyOp48
 70
     1
102
RTVSPropertyOp49
 70
     1
102
RTVSPropertyOp50
 70
     1
102
RTVSPropertyOp51
 70
     0
102
RTVSPropertyOp52
 70
     0
102
RTVSPropertyOp53
 70
     1
102
RTVSPropertyOp54
 70
     1
102
RTVSPropertyOp55
 70
     1
102
RTVSPropertyOp56
 70
     1
102
RTVSPropertyOp57
 70
     1
102
RTVSPropertyOp58
 70
     1
102
RTVSPropertyOp59
 70
     1
102
RTVSPropertyOp60
 70
     1
102
RTVSPropertyOp61
 70
     1
102
RTVSPropertyOp62
 70
     1
  0
XRECORD
  5
9C1C
102
{ACAD_REACTORS
330
9C1B
102
}
330
9C1B
100
AcDbXrecord
280
     1
102
RTVSPost2010Prop28
280
     0
102
RTVSPost2010PropOp28
 70
     1
102
RTVSPost2010Prop29
280
     1
102
RTVSPost2010PropOp29
 70
     1
102
RTVSPost2010Prop30
280
     1
102
RTVSPost2010PropOp30
 70
     1
102
RTVSPost2010Prop31
280
     0
102
RTVSPost2010PropOp31
 70
     1
102
RTVSPost2010Prop32
280
     0
102
RTVSPost2010PropOp32
 70
     1
102
RTVSPost2010Prop33
280
     0
102
RTVSPost2010PropOp33
 70
     1
102
RTVSPost2010Prop34
280
     0
102
RTVSPost2010PropOp34
 70
     1
102
RTVSPost2010Prop35
280
     0
102
RTVSPost2010PropOp35
 70
     1
102
RTVSPost2010Prop36
280
     0
102
RTVSPost2010PropOp36
 70
     1
102
RTVSPost2010Prop37
 90
       50
102
RTVSPost2010PropOp37
 70
     1
102
RTVSPost2010Prop38
140
0.0
102
RTVSPost2010PropOp38
 70
     1
102
RTVSPost2010Prop39
140
1.0
102
RTVSPost2010PropOp39
 70
     1
102
RTVSPost2010Prop40
 90
        0
102
RTVSPost2010PropOp40
 70
     1
102
RTVSPost2010Prop41ColorIndex
 90
       18
102
RTVSPost2010Prop41ColorRGB
 90
        0
102
RTVSPost2010PropOp41
 70
     1
102
RTVSPost2010Prop42
 90
       50
102
RTVSPost2010PropOp42
 70
     1
102
RTVSPost2010Prop43
 90
        3
102
RTVSPost2010PropOp43
 70
     1
102
RTVSPost2010Prop44ColorIndex
 90
        5
102
RTVSPost2010Prop44ColorRGB
 90
      255
102
RTVSPost2010PropOp44
 70
     1
102
RTVSPost2010Prop45
280
     0
102
RTVSPost2010PropOp45
 70
     1
102
RTVSPost2010Prop46
 90
       50
102
RTVSPost2010PropOp46
 70
     1
102
RTVSPost2010Prop47
 90
       50
102
RTVSPost2010PropOp47
 70
     1
102
RTVSPost2010Prop48
 90
       50
102
RTVSPost2010PropOp48
 70
     1
102
RTVSPost2010Prop49
280
     0
102
RTVSPost2010PropOp49
 70
     1
102
RTVSPost2010Prop50
 90
       50
102
RTVSPost2010PropOp50
 70
     1
102
RTVSPost2010Prop51ColorIndex
 90
      256
102
RTVSPost2010Prop51ColorRGB
 90
-16777216
102
RTVSPost2010PropOp51
 70
     0
102
RTVSPost2010Prop52
140
1.0
102
RTVSPost2010PropOp52
 70
     0
102
RTVSPost2010Prop53
 90
        2
102
RTVSPost2010PropOp53
 70
     1
102
RTVSPost2010Prop54
  1
strokes_ogs.tif
102
RTVSPost2010PropOp54
 70
     1
102
RTVSPost2010Prop55
280
     0
102
RTVSPost2010PropOp55
 70
     1
102
RTVSPost2010Prop56
140
1.0
102
RTVSPost2010PropOp56
 70
     1
102
RTVSPost2010Prop57
140
1.0
102
RTVSPost2010PropOp57
 70
     1
102
RTVSPropertyOp0
 70
     1
102
RTVSPropertyOp1
 70
     1
102
RTVSPropertyOp2
 70
     1
102
RTVSPropertyOp3
 70
     1
102
RTVSPropertyOp4
 70
     1
102
RTVSPropertyOp5
 70
     1
102
RTVSPropertyOp6
 70
     1
102
RTVSPropertyOp7
 70
     1
102
RTVSPropertyOp8
 70
     1
102
RTVSPropertyOp9
 70
     1
102
RTVSPropertyOp10
 70
     1
102
RTVSPropertyOp11
 70
     1
102
RTVSPropertyOp12
 70
     1
102
RTVSPropertyOp13
 70
     1
102
RTVSPropertyOp14
 70
     1
102
RTVSPropertyOp15
 70
     1
102
RTVSPropertyOp16
 70
     1
102
RTVSPropertyOp17
 70
     1
102
RTVSPropertyOp18
 70
     1
102
RTVSPropertyOp19
 70
     1
102
RTVSPropertyOp20
 70
     1
102
RTVSPropertyOp21
 70
     1
102
RTVSPropertyOp22
 70
     1
102
RTVSPropertyOp23
 70
     1
102
RTVSPropertyOp24
 70
     1
102
RTVSPropertyOp25
 70
     1
102
RTVSPropertyOp26
 70
     1
102
RTVSPropertyOp27
 70
     1
102
RTVSPropertyOp28
 70
     1
102
RTVSPropertyOp29
 70
     1
102
RTVSPropertyOp30
 70
     1
102
RTVSPropertyOp31
 70
     1
102
RTVSPropertyOp32
 70
     1
102
RTVSPropertyOp33
 70
     1
102
RTVSPropertyOp34
 70
     1
102
RTVSPropertyOp35
 70
     1
102
RTVSPropertyOp36
 70
     1
102
RTVSPropertyOp37
 70
     1
102
RTVSPropertyOp38
 70
     1
102
RTVSPropertyOp39
 70
     1
102
RTVSPropertyOp40
 70
     1
102
RTVSPropertyOp41
 70
     1
102
RTVSPropertyOp42
 70
     1
102
RTVSPropertyOp43
 70
     1
102
RTVSPropertyOp44
 70
     1
102
RTVSPropertyOp45
 70
     1
102
RTVSPropertyOp46
 70
     1
102
RTVSPropertyOp47
 70
     1
102
RTVSPropertyOp48
 70
     1
102
RTVSPropertyOp49
 70
     1
102
RTVSPropertyOp50
 70
     1
102
RTVSPropertyOp51
 70
     0
102
RTVSPropertyOp52
 70
     0
102
RTVSPropertyOp53
 70
     1
102
RTVSPropertyOp54
 70
     1
102
RTVSPropertyOp55
 70
     1
102
RTVSPropertyOp56
 70
     1
102
RTVSPropertyOp57
 70
     1
102
RTVSPropertyOp58
 70
     1
102
RTVSPropertyOp59
 70
     1
102
RTVSPropertyOp60
 70
     1
102
RTVSPropertyOp61
 70
     1
102
RTVSPropertyOp62
 70
     1
  0
XRECORD
  5
9C1E
102
{ACAD_REACTORS
330
9C1D
102
}
330
9C1D
100
AcDbXrecord
280
     1
102
RTVSPost2010Prop28
280
     0
102
RTVSPost2010PropOp28
 70
     1
102
RTVSPost2010Prop29
280
     1
102
RTVSPost2010PropOp29
 70
     1
102
RTVSPost2010Prop30
280
     1
102
RTVSPost2010PropOp30
 70
     1
102
RTVSPost2010Prop31
280
     0
102
RTVSPost2010PropOp31
 70
     1
102
RTVSPost2010Prop32
280
     0
102
RTVSPost2010PropOp32
 70
     1
102
RTVSPost2010Prop33
280
     0
102
RTVSPost2010PropOp33
 70
     1
102
RTVSPost2010Prop34
280
     0
102
RTVSPost2010PropOp34
 70
     1
102
RTVSPost2010Prop35
280
     0
102
RTVSPost2010PropOp35
 70
     1
102
RTVSPost2010Prop36
280
     0
102
RTVSPost2010PropOp36
 70
     1
102
RTVSPost2010Prop37
 90
       50
102
RTVSPost2010PropOp37
 70
     1
102
RTVSPost2010Prop38
140
0.0
102
RTVSPost2010PropOp38
 70
     1
102
RTVSPost2010Prop39
140
1.0
102
RTVSPost2010PropOp39
 70
     1
102
RTVSPost2010Prop40
 90
        0
102
RTVSPost2010PropOp40
 70
     1
102
RTVSPost2010Prop41ColorIndex
 90
       18
102
RTVSPost2010Prop41ColorRGB
 90
        0
102
RTVSPost2010PropOp41
 70
     1
102
RTVSPost2010Prop42
 90
       50
102
RTVSPost2010PropOp42
 70
     1
102
RTVSPost2010Prop43
 90
        3
102
RTVSPost2010PropOp43
 70
     1
102
RTVSPost2010Prop44ColorIndex
 90
        5
102
RTVSPost2010Prop44ColorRGB
 90
      255
102
RTVSPost2010PropOp44
 70
     1
102
RTVSPost2010Prop45
280
     0
102
RTVSPost2010PropOp45
 70
     1
102
RTVSPost2010Prop46
 90
       50
102
RTVSPost2010PropOp46
 70
     1
102
RTVSPost2010Prop47
 90
       50
102
RTVSPost2010PropOp47
 70
     1
102
RTVSPost2010Prop48
 90
       50
102
RTVSPost2010PropOp48
 70
     1
102
RTVSPost2010Prop49
280
     0
102
RTVSPost2010PropOp49
 70
     1
102
RTVSPost2010Prop50
 90
       50
102
RTVSPost2010PropOp50
 70
     1
102
RTVSPost2010Prop51ColorIndex
 90
      256
102
RTVSPost2010Prop51ColorRGB
 90
-16777216
102
RTVSPost2010PropOp51
 70
     0
102
RTVSPost2010Prop52
140
1.0
102
RTVSPost2010PropOp52
 70
     0
102
RTVSPost2010Prop53
 90
        2
102
RTVSPost2010PropOp53
 70
     1
102
RTVSPost2010Prop54
  1
strokes_ogs.tif
102
RTVSPost2010PropOp54
 70
     1
102
RTVSPost2010Prop55
280
     0
102
RTVSPost2010PropOp55
 70
     1
102
RTVSPost2010Prop56
140
1.0
102
RTVSPost2010PropOp56
 70
     1
102
RTVSPost2010Prop57
140
1.0
102
RTVSPost2010PropOp57
 70
     1
102
RTVSPropertyOp0
 70
     1
102
RTVSPropertyOp1
 70
     1
102
RTVSPropertyOp2
 70
     1
102
RTVSPropertyOp3
 70
     1
102
RTVSPropertyOp4
 70
     1
102
RTVSPropertyOp5
 70
     1
102
RTVSPropertyOp6
 70
     1
102
RTVSPropertyOp7
 70
     1
102
RTVSPropertyOp8
 70
     1
102
RTVSPropertyOp9
 70
     1
102
RTVSPropertyOp10
 70
     1
102
RTVSPropertyOp11
 70
     1
102
RTVSPropertyOp12
 70
     1
102
RTVSPropertyOp13
 70
     1
102
RTVSPropertyOp14
 70
     1
102
RTVSPropertyOp15
 70
     1
102
RTVSPropertyOp16
 70
     1
102
RTVSPropertyOp17
 70
     1
102
RTVSPropertyOp18
 70
     1
102
RTVSPropertyOp19
 70
     1
102
RTVSPropertyOp20
 70
     1
102
RTVSPropertyOp21
 70
     1
102
RTVSPropertyOp22
 70
     1
102
RTVSPropertyOp23
 70
     1
102
RTVSPropertyOp24
 70
     1
102
RTVSPropertyOp25
 70
     1
102
RTVSPropertyOp26
 70
     1
102
RTVSPropertyOp27
 70
     1
102
RTVSPropertyOp28
 70
     1
102
RTVSPropertyOp29
 70
     1
102
RTVSPropertyOp30
 70
     1
102
RTVSPropertyOp31
 70
     1
102
RTVSPropertyOp32
 70
     1
102
RTVSPropertyOp33
 70
     1
102
RTVSPropertyOp34
 70
     1
102
RTVSPropertyOp35
 70
     1
102
RTVSPropertyOp36
 70
     1
102
RTVSPropertyOp37
 70
     1
102
RTVSPropertyOp38
 70
     1
102
RTVSPropertyOp39
 70
     1
102
RTVSPropertyOp40
 70
     1
102
RTVSPropertyOp41
 70
     1
102
RTVSPropertyOp42
 70
     1
102
RTVSPropertyOp43
 70
     1
102
RTVSPropertyOp44
 70
     1
102
RTVSPropertyOp45
 70
     1
102
RTVSPropertyOp46
 70
     1
102
RTVSPropertyOp47
 70
     1
102
RTVSPropertyOp48
 70
     1
102
RTVSPropertyOp49
 70
     1
102
RTVSPropertyOp50
 70
     1
102
RTVSPropertyOp51
 70
     0
102
RTVSPropertyOp52
 70
     0
102
RTVSPropertyOp53
 70
     1
102
RTVSPropertyOp54
 70
     1
102
RTVSPropertyOp55
 70
     1
102
RTVSPropertyOp56
 70
     1
102
RTVSPropertyOp57
 70
     1
102
RTVSPropertyOp58
 70
     1
102
RTVSPropertyOp59
 70
     1
102
RTVSPropertyOp60
 70
     1
102
RTVSPropertyOp61
 70
     1
102
RTVSPropertyOp62
 70
     1
  0
XRECORD
  5
9C20
102
{ACAD_REACTORS
330
9C1F
102
}
330
9C1F
100
AcDbXrecord
280
     1
102
RTVSPost2010Prop28
280
     0
102
RTVSPost2010PropOp28
 70
     1
102
RTVSPost2010Prop29
280
     1
102
RTVSPost2010PropOp29
 70
     1
102
RTVSPost2010Prop30
280
     1
102
RTVSPost2010PropOp30
 70
     1
102
RTVSPost2010Prop31
280
     0
102
RTVSPost2010PropOp31
 70
     1
102
RTVSPost2010Prop32
280
     0
102
RTVSPost2010PropOp32
 70
     1
102
RTVSPost2010Prop33
280
     0
102
RTVSPost2010PropOp33
 70
     1
102
RTVSPost2010Prop34
280
     0
102
RTVSPost2010PropOp34
 70
     1
102
RTVSPost2010Prop35
280
     0
102
RTVSPost2010PropOp35
 70
     1
102
RTVSPost2010Prop36
280
     0
102
RTVSPost2010PropOp36
 70
     1
102
RTVSPost2010Prop37
 90
       50
102
RTVSPost2010PropOp37
 70
     1
102
RTVSPost2010Prop38
140
0.0
102
RTVSPost2010PropOp38
 70
     1
102
RTVSPost2010Prop39
140
1.0
102
RTVSPost2010PropOp39
 70
     1
102
RTVSPost2010Prop40
 90
        0
102
RTVSPost2010PropOp40
 70
     1
102
RTVSPost2010Prop41ColorIndex
 90
       18
102
RTVSPost2010Prop41ColorRGB
 90
        0
102
RTVSPost2010PropOp41
 70
     1
102
RTVSPost2010Prop42
 90
       50
102
RTVSPost2010PropOp42
 70
     1
102
RTVSPost2010Prop43
 90
        3
102
RTVSPost2010PropOp43
 70
     1
102
RTVSPost2010Prop44ColorIndex
 90
        5
102
RTVSPost2010Prop44ColorRGB
 90
      255
102
RTVSPost2010PropOp44
 70
     1
102
RTVSPost2010Prop45
280
     0
102
RTVSPost2010PropOp45
 70
     1
102
RTVSPost2010Prop46
 90
       50
102
RTVSPost2010PropOp46
 70
     1
102
RTVSPost2010Prop47
 90
       50
102
RTVSPost2010PropOp47
 70
     1
102
RTVSPost2010Prop48
 90
       50
102
RTVSPost2010PropOp48
 70
     1
102
RTVSPost2010Prop49
280
     0
102
RTVSPost2010PropOp49
 70
     1
102
RTVSPost2010Prop50
 90
       50
102
RTVSPost2010PropOp50
 70
     1
102
RTVSPost2010Prop51ColorIndex
 90
      256
102
RTVSPost2010Prop51ColorRGB
 90
-16777216
102
RTVSPost2010PropOp51
 70
     0
102
RTVSPost2010Prop52
140
1.0
102
RTVSPost2010PropOp52
 70
     0
102
RTVSPost2010Prop53
 90
        2
102
RTVSPost2010PropOp53
 70
     1
102
RTVSPost2010Prop54
  1
strokes_ogs.tif
102
RTVSPost2010PropOp54
 70
     1
102
RTVSPost2010Prop55
280
     0
102
RTVSPost2010PropOp55
 70
     1
102
RTVSPost2010Prop56
140
1.0
102
RTVSPost2010PropOp56
 70
     1
102
RTVSPost2010Prop57
140
1.0
102
RTVSPost2010PropOp57
 70
     1
102
RTVSPropertyOp0
 70
     1
102
RTVSPropertyOp1
 70
     1
102
RTVSPropertyOp2
 70
     1
102
RTVSPropertyOp3
 70
     1
102
RTVSPropertyOp4
 70
     1
102
RTVSPropertyOp5
 70
     1
102
RTVSPropertyOp6
 70
     1
102
RTVSPropertyOp7
 70
     1
102
RTVSPropertyOp8
 70
     1
102
RTVSPropertyOp9
 70
     1
102
RTVSPropertyOp10
 70
     1
102
RTVSPropertyOp11
 70
     1
102
RTVSPropertyOp12
 70
     1
102
RTVSPropertyOp13
 70
     1
102
RTVSPropertyOp14
 70
     1
102
RTVSPropertyOp15
 70
     1
102
RTVSPropertyOp16
 70
     1
102
RTVSPropertyOp17
 70
     1
102
RTVSPropertyOp18
 70
     1
102
RTVSPropertyOp19
 70
     1
102
RTVSPropertyOp20
 70
     1
102
RTVSPropertyOp21
 70
     1
102
RTVSPropertyOp22
 70
     1
102
RTVSPropertyOp23
 70
     1
102
RTVSPropertyOp24
 70
     1
102
RTVSPropertyOp25
 70
     1
102
RTVSPropertyOp26
 70
     1
102
RTVSPropertyOp27
 70
     1
102
RTVSPropertyOp28
 70
     1
102
RTVSPropertyOp29
 70
     1
102
RTVSPropertyOp30
 70
     1
102
RTVSPropertyOp31
 70
     1
102
RTVSPropertyOp32
 70
     1
102
RTVSPropertyOp33
 70
     1
102
RTVSPropertyOp34
 70
     1
102
RTVSPropertyOp35
 70
     1
102
RTVSPropertyOp36
 70
     1
102
RTVSPropertyOp37
 70
     1
102
RTVSPropertyOp38
 70
     1
102
RTVSPropertyOp39
 70
     1
102
RTVSPropertyOp40
 70
     1
102
RTVSPropertyOp41
 70
     1
102
RTVSPropertyOp42
 70
     1
102
RTVSPropertyOp43
 70
     1
102
RTVSPropertyOp44
 70
     1
102
RTVSPropertyOp45
 70
     1
102
RTVSPropertyOp46
 70
     1
102
RTVSPropertyOp47
 70
     1
102
RTVSPropertyOp48
 70
     1
102
RTVSPropertyOp49
 70
     1
102
RTVSPropertyOp50
 70
     1
102
RTVSPropertyOp51
 70
     0
102
RTVSPropertyOp52
 70
     0
102
RTVSPropertyOp53
 70
     1
102
RTVSPropertyOp54
 70
     1
102
RTVSPropertyOp55
 70
     1
102
RTVSPropertyOp56
 70
     1
102
RTVSPropertyOp57
 70
     1
102
RTVSPropertyOp58
 70
     1
102
RTVSPropertyOp59
 70
     1
102
RTVSPropertyOp60
 70
     1
102
RTVSPropertyOp61
 70
     1
102
RTVSPropertyOp62
 70
     1
  0
XRECORD
  5
9C22
102
{ACAD_REACTORS
330
9C21
102
}
330
9C21
100
AcDbXrecord
280
     1
102
RTVSPost2010Prop28
280
     0
102
RTVSPost2010PropOp28
 70
     1
102
RTVSPost2010Prop29
280
     1
102
RTVSPost2010PropOp29
 70
     1
102
RTVSPost2010Prop30
280
     1
102
RTVSPost2010PropOp30
 70
     1
102
RTVSPost2010Prop31
280
     0
102
RTVSPost2010PropOp31
 70
     1
102
RTVSPost2010Prop32
280
     0
102
RTVSPost2010PropOp32
 70
     1
102
RTVSPost2010Prop33
280
     0
102
RTVSPost2010PropOp33
 70
     1
102
RTVSPost2010Prop34
280
     0
102
RTVSPost2010PropOp34
 70
     1
102
RTVSPost2010Prop35
280
     0
102
RTVSPost2010PropOp35
 70
     1
102
RTVSPost2010Prop36
280
     0
102
RTVSPost2010PropOp36
 70
     1
102
RTVSPost2010Prop37
 90
       50
102
RTVSPost2010PropOp37
 70
     1
102
RTVSPost2010Prop38
140
0.0
102
RTVSPost2010PropOp38
 70
     1
102
RTVSPost2010Prop39
140
1.0
102
RTVSPost2010PropOp39
 70
     1
102
RTVSPost2010Prop40
 90
        0
102
RTVSPost2010PropOp40
 70
     1
102
RTVSPost2010Prop41ColorIndex
 90
       18
102
RTVSPost2010Prop41ColorRGB
 90
        0
102
RTVSPost2010PropOp41
 70
     1
102
RTVSPost2010Prop42
 90
       50
102
RTVSPost2010PropOp42
 70
     1
102
RTVSPost2010Prop43
 90
        3
102
RTVSPost2010PropOp43
 70
     1
102
RTVSPost2010Prop44ColorIndex
 90
        5
102
RTVSPost2010Prop44ColorRGB
 90
      255
102
RTVSPost2010PropOp44
 70
     1
102
RTVSPost2010Prop45
280
     0
102
RTVSPost2010PropOp45
 70
     1
102
RTVSPost2010Prop46
 90
       50
102
RTVSPost2010PropOp46
 70
     1
102
RTVSPost2010Prop47
 90
       50
102
RTVSPost2010PropOp47
 70
     1
102
RTVSPost2010Prop48
 90
       50
102
RTVSPost2010PropOp48
 70
     1
102
RTVSPost2010Prop49
280
     0
102
RTVSPost2010PropOp49
 70
     1
102
RTVSPost2010Prop50
 90
       50
102
RTVSPost2010PropOp50
 70
     1
102
RTVSPost2010Prop51ColorIndex
 90
      256
102
RTVSPost2010Prop51ColorRGB
 90
-16777216
102
RTVSPost2010PropOp51
 70
     0
102
RTVSPost2010Prop52
140
1.0
102
RTVSPost2010PropOp52
 70
     0
102
RTVSPost2010Prop53
 90
        2
102
RTVSPost2010PropOp53
 70
     1
102
RTVSPost2010Prop54
  1
strokes_ogs.tif
102
RTVSPost2010PropOp54
 70
     1
102
RTVSPost2010Prop55
280
     0
102
RTVSPost2010PropOp55
 70
     1
102
RTVSPost2010Prop56
140
1.0
102
RTVSPost2010PropOp56
 70
     1
102
RTVSPost2010Prop57
140
1.0
102
RTVSPost2010PropOp57
 70
     1
102
RTVSPropertyOp0
 70
     1
102
RTVSPropertyOp1
 70
     1
102
RTVSPropertyOp2
 70
     1
102
RTVSPropertyOp3
 70
     1
102
RTVSPropertyOp4
 70
     1
102
RTVSPropertyOp5
 70
     1
102
RTVSPropertyOp6
 70
     1
102
RTVSPropertyOp7
 70
     1
102
RTVSPropertyOp8
 70
     1
102
RTVSPropertyOp9
 70
     1
102
RTVSPropertyOp10
 70
     1
102
RTVSPropertyOp11
 70
     1
102
RTVSPropertyOp12
 70
     1
102
RTVSPropertyOp13
 70
     1
102
RTVSPropertyOp14
 70
     1
102
RTVSPropertyOp15
 70
     1
102
RTVSPropertyOp16
 70
     1
102
RTVSPropertyOp17
 70
     1
102
RTVSPropertyOp18
 70
     1
102
RTVSPropertyOp19
 70
     1
102
RTVSPropertyOp20
 70
     1
102
RTVSPropertyOp21
 70
     1
102
RTVSPropertyOp22
 70
     1
102
RTVSPropertyOp23
 70
     1
102
RTVSPropertyOp24
 70
     1
102
RTVSPropertyOp25
 70
     1
102
RTVSPropertyOp26
 70
     1
102
RTVSPropertyOp27
 70
     1
102
RTVSPropertyOp28
 70
     1
102
RTVSPropertyOp29
 70
     1
102
RTVSPropertyOp30
 70
     1
102
RTVSPropertyOp31
 70
     1
102
RTVSPropertyOp32
 70
     1
102
RTVSPropertyOp33
 70
     1
102
RTVSPropertyOp34
 70
     1
102
RTVSPropertyOp35
 70
     1
102
RTVSPropertyOp36
 70
     1
102
RTVSPropertyOp37
 70
     1
102
RTVSPropertyOp38
 70
     1
102
RTVSPropertyOp39
 70
     1
102
RTVSPropertyOp40
 70
     1
102
RTVSPropertyOp41
 70
     1
102
RTVSPropertyOp42
 70
     1
102
RTVSPropertyOp43
 70
     1
102
RTVSPropertyOp44
 70
     1
102
RTVSPropertyOp45
 70
     1
102
RTVSPropertyOp46
 70
     1
102
RTVSPropertyOp47
 70
     1
102
RTVSPropertyOp48
 70
     1
102
RTVSPropertyOp49
 70
     1
102
RTVSPropertyOp50
 70
     1
102
RTVSPropertyOp51
 70
     0
102
RTVSPropertyOp52
 70
     0
102
RTVSPropertyOp53
 70
     1
102
RTVSPropertyOp54
 70
     1
102
RTVSPropertyOp55
 70
     1
102
RTVSPropertyOp56
 70
     1
102
RTVSPropertyOp57
 70
     1
102
RTVSPropertyOp58
 70
     1
102
RTVSPropertyOp59
 70
     1
102
RTVSPropertyOp60
 70
     1
102
RTVSPropertyOp61
 70
     1
102
RTVSPropertyOp62
 70
     1
  0
XRECORD
  5
9C2A
102
{ACAD_REACTORS
330
9C29
102
}
330
9C29
100
AcDbXrecord
280
     1
102
RTVSPost2010Prop28
280
     0
102
RTVSPost2010PropOp28
 70
     1
102
RTVSPost2010Prop29
280
     1
102
RTVSPost2010PropOp29
 70
     1
102
RTVSPost2010Prop30
280
     1
102
RTVSPost2010PropOp30
 70
     1
102
RTVSPost2010Prop31
280
     0
102
RTVSPost2010PropOp31
 70
     1
102
RTVSPost2010Prop32
280
     0
102
RTVSPost2010PropOp32
 70
     1
102
RTVSPost2010Prop33
280
     0
102
RTVSPost2010PropOp33
 70
     1
102
RTVSPost2010Prop34
280
     0
102
RTVSPost2010PropOp34
 70
     1
102
RTVSPost2010Prop35
280
     0
102
RTVSPost2010PropOp35
 70
     1
102
RTVSPost2010Prop36
280
     0
102
RTVSPost2010PropOp36
 70
     1
102
RTVSPost2010Prop37
 90
       50
102
RTVSPost2010PropOp37
 70
     1
102
RTVSPost2010Prop38
140
0.0
102
RTVSPost2010PropOp38
 70
     1
102
RTVSPost2010Prop39
140
1.0
102
RTVSPost2010PropOp39
 70
     1
102
RTVSPost2010Prop40
 90
        0
102
RTVSPost2010PropOp40
 70
     1
102
RTVSPost2010Prop41ColorIndex
 90
       18
102
RTVSPost2010Prop41ColorRGB
 90
        0
102
RTVSPost2010PropOp41
 70
     1
102
RTVSPost2010Prop42
 90
       50
102
RTVSPost2010PropOp42
 70
     1
102
RTVSPost2010Prop43
 90
        3
102
RTVSPost2010PropOp43
 70
     1
102
RTVSPost2010Prop44ColorIndex
 90
        5
102
RTVSPost2010Prop44ColorRGB
 90
      255
102
RTVSPost2010PropOp44
 70
     1
102
RTVSPost2010Prop45
280
     0
102
RTVSPost2010PropOp45
 70
     1
102
RTVSPost2010Prop46
 90
       50
102
RTVSPost2010PropOp46
 70
     1
102
RTVSPost2010Prop47
 90
       50
102
RTVSPost2010PropOp47
 70
     1
102
RTVSPost2010Prop48
 90
       50
102
RTVSPost2010PropOp48
 70
     1
102
RTVSPost2010Prop49
280
     0
102
RTVSPost2010PropOp49
 70
     1
102
RTVSPost2010Prop50
 90
       50
102
RTVSPost2010PropOp50
 70
     1
102
RTVSPost2010Prop51ColorIndex
 90
      256
102
RTVSPost2010Prop51ColorRGB
 90
-16777216
102
RTVSPost2010PropOp51
 70
     0
102
RTVSPost2010Prop52
140
1.0
102
RTVSPost2010PropOp52
 70
     0
102
RTVSPost2010Prop53
 90
        2
102
RTVSPost2010PropOp53
 70
     1
102
RTVSPost2010Prop54
  1
strokes_ogs.tif
102
RTVSPost2010PropOp54
 70
     1
102
RTVSPost2010Prop55
280
     0
102
RTVSPost2010PropOp55
 70
     1
102
RTVSPost2010Prop56
140
1.0
102
RTVSPost2010PropOp56
 70
     1
102
RTVSPost2010Prop57
140
1.0
102
RTVSPost2010PropOp57
 70
     1
102
RTVSPropertyOp0
 70
     1
102
RTVSPropertyOp1
 70
     1
102
RTVSPropertyOp2
 70
     1
102
RTVSPropertyOp3
 70
     1
102
RTVSPropertyOp4
 70
     1
102
RTVSPropertyOp5
 70
     1
102
RTVSPropertyOp6
 70
     1
102
RTVSPropertyOp7
 70
     1
102
RTVSPropertyOp8
 70
     1
102
RTVSPropertyOp9
 70
     1
102
RTVSPropertyOp10
 70
     1
102
RTVSPropertyOp11
 70
     1
102
RTVSPropertyOp12
 70
     1
102
RTVSPropertyOp13
 70
     1
102
RTVSPropertyOp14
 70
     1
102
RTVSPropertyOp15
 70
     1
102
RTVSPropertyOp16
 70
     1
102
RTVSPropertyOp17
 70
     1
102
RTVSPropertyOp18
 70
     1
102
RTVSPropertyOp19
 70
     1
102
RTVSPropertyOp20
 70
     1
102
RTVSPropertyOp21
 70
     1
102
RTVSPropertyOp22
 70
     1
102
RTVSPropertyOp23
 70
     1
102
RTVSPropertyOp24
 70
     1
102
RTVSPropertyOp25
 70
     1
102
RTVSPropertyOp26
 70
     1
102
RTVSPropertyOp27
 70
     1
102
RTVSPropertyOp28
 70
     1
102
RTVSPropertyOp29
 70
     1
102
RTVSPropertyOp30
 70
     1
102
RTVSPropertyOp31
 70
     1
102
RTVSPropertyOp32
 70
     1
102
RTVSPropertyOp33
 70
     1
102
RTVSPropertyOp34
 70
     1
102
RTVSPropertyOp35
 70
     1
102
RTVSPropertyOp36
 70
     1
102
RTVSPropertyOp37
 70
     1
102
RTVSPropertyOp38
 70
     1
102
RTVSPropertyOp39
 70
     1
102
RTVSPropertyOp40
 70
     1
102
RTVSPropertyOp41
 70
     1
102
RTVSPropertyOp42
 70
     1
102
RTVSPropertyOp43
 70
     1
102
RTVSPropertyOp44
 70
     1
102
RTVSPropertyOp45
 70
     1
102
RTVSPropertyOp46
 70
     1
102
RTVSPropertyOp47
 70
     1
102
RTVSPropertyOp48
 70
     1
102
RTVSPropertyOp49
 70
     1
102
RTVSPropertyOp50
 70
     1
102
RTVSPropertyOp51
 70
     0
102
RTVSPropertyOp52
 70
     0
102
RTVSPropertyOp53
 70
     1
102
RTVSPropertyOp54
 70
     1
102
RTVSPropertyOp55
 70
     1
102
RTVSPropertyOp56
 70
     1
102
RTVSPropertyOp57
 70
     1
102
RTVSPropertyOp58
 70
     1
102
RTVSPropertyOp59
 70
     1
102
RTVSPropertyOp60
 70
     1
102
RTVSPropertyOp61
 70
     1
102
RTVSPropertyOp62
 70
     1
  0
XRECORD
  5
9C46
102
{ACAD_REACTORS
330
9C45
102
}
330
9C45
100
AcDbXrecord
280
     1
102
RTVSPost2010Prop28
280
     0
102
RTVSPost2010PropOp28
 70
     1
102
RTVSPost2010Prop29
280
     1
102
RTVSPost2010PropOp29
 70
     1
102
RTVSPost2010Prop30
280
     1
102
RTVSPost2010PropOp30
 70
     1
102
RTVSPost2010Prop31
280
     0
102
RTVSPost2010PropOp31
 70
     1
102
RTVSPost2010Prop32
280
     0
102
RTVSPost2010PropOp32
 70
     1
102
RTVSPost2010Prop33
280
     0
102
RTVSPost2010PropOp33
 70
     1
102
RTVSPost2010Prop34
280
     0
102
RTVSPost2010PropOp34
 70
     1
102
RTVSPost2010Prop35
280
     0
102
RTVSPost2010PropOp35
 70
     1
102
RTVSPost2010Prop36
280
     0
102
RTVSPost2010PropOp36
 70
     1
102
RTVSPost2010Prop37
 90
       50
102
RTVSPost2010PropOp37
 70
     0
102
RTVSPost2010Prop38
140
0.0
102
RTVSPost2010PropOp38
 70
     0
102
RTVSPost2010Prop39
140
1.0
102
RTVSPost2010PropOp39
 70
     0
102
RTVSPost2010Prop40
 90
        0
102
RTVSPost2010PropOp40
 70
     0
102
RTVSPost2010Prop41ColorIndex
 90
       18
102
RTVSPost2010Prop41ColorRGB
 90
        0
102
RTVSPost2010PropOp41
 70
     0
102
RTVSPost2010Prop42
 90
       50
102
RTVSPost2010PropOp42
 70
     0
102
RTVSPost2010Prop43
 90
        3
102
RTVSPost2010PropOp43
 70
     0
102
RTVSPost2010Prop44ColorIndex
 90
        5
102
RTVSPost2010Prop44ColorRGB
 90
      255
102
RTVSPost2010PropOp44
 70
     0
102
RTVSPost2010Prop45
280
     0
102
RTVSPost2010PropOp45
 70
     1
102
RTVSPost2010Prop46
 90
       50
102
RTVSPost2010PropOp46
 70
     0
102
RTVSPost2010Prop47
 90
       50
102
RTVSPost2010PropOp47
 70
     0
102
RTVSPost2010Prop48
 90
       50
102
RTVSPost2010PropOp48
 70
     0
102
RTVSPost2010Prop49
280
     0
102
RTVSPost2010PropOp49
 70
     1
102
RTVSPost2010Prop50
 90
       50
102
RTVSPost2010PropOp50
 70
     0
102
RTVSPost2010Prop51ColorIndex
 90
      256
102
RTVSPost2010Prop51ColorRGB
 90
-16777216
102
RTVSPost2010PropOp51
 70
     0
102
RTVSPost2010Prop52
140
1.0
102
RTVSPost2010PropOp52
 70
     0
102
RTVSPost2010Prop53
 90
        2
102
RTVSPost2010PropOp53
 70
     0
102
RTVSPost2010Prop54
  1
strokes_ogs.tif
102
RTVSPost2010PropOp54
 70
     0
102
RTVSPost2010Prop55
280
     0
102
RTVSPost2010PropOp55
 70
     1
102
RTVSPost2010Prop56
140
1.0
102
RTVSPost2010PropOp56
 70
     0
102
RTVSPost2010Prop57
140
1.0
102
RTVSPost2010PropOp57
 70
     0
102
RTVSPropertyOp0
 70
     0
102
RTVSPropertyOp1
 70
     0
102
RTVSPropertyOp2
 70
     0
102
RTVSPropertyOp3
 70
     0
102
RTVSPropertyOp4
 70
     0
102
RTVSPropertyOp5
 70
     0
102
RTVSPropertyOp6
 70
     0
102
RTVSPropertyOp7
 70
     0
102
RTVSPropertyOp8
 70
     0
102
RTVSPropertyOp9
 70
     0
102
RTVSPropertyOp10
 70
     0
102
RTVSPropertyOp11
 70
     0
102
RTVSPropertyOp12
 70
     0
102
RTVSPropertyOp13
 70
     0
102
RTVSPropertyOp14
 70
     2
102
RTVSPropertyOp15
 70
     0
102
RTVSPropertyOp16
 70
     0
102
RTVSPropertyOp17
 70
     0
102
RTVSPropertyOp18
 70
     0
102
RTVSPropertyOp19
 70
     0
102
RTVSPropertyOp20
 70
     0
102
RTVSPropertyOp21
 70
     0
102
RTVSPropertyOp22
 70
     0
102
RTVSPropertyOp23
 70
     0
102
RTVSPropertyOp24
 70
     0
102
RTVSPropertyOp25
 70
     0
102
RTVSPropertyOp26
 70
     0
102
RTVSPropertyOp27
 70
     0
102
RTVSPropertyOp28
 70
     1
102
RTVSPropertyOp29
 70
     1
102
RTVSPropertyOp30
 70
     1
102
RTVSPropertyOp31
 70
     1
102
RTVSPropertyOp32
 70
     1
102
RTVSPropertyOp33
 70
     1
102
RTVSPropertyOp34
 70
     1
102
RTVSPropertyOp35
 70
     1
102
RTVSPropertyOp36
 70
     1
102
RTVSPropertyOp37
 70
     0
102
RTVSPropertyOp38
 70
     0
102
RTVSPropertyOp39
 70
     0
102
RTVSPropertyOp40
 70
     0
102
RTVSPropertyOp41
 70
     0
102
RTVSPropertyOp42
 70
     0
102
RTVSPropertyOp43
 70
     0
102
RTVSPropertyOp44
 70
     0
102
RTVSPropertyOp45
 70
     1
102
RTVSPropertyOp46
 70
     0
102
RTVSPropertyOp47
 70
     0
102
RTVSPropertyOp48
 70
     0
102
RTVSPropertyOp49
 70
     1
102
RTVSPropertyOp50
 70
     0
102
RTVSPropertyOp51
 70
     0
102
RTVSPropertyOp52
 70
     0
102
RTVSPropertyOp53
 70
     0
102
RTVSPropertyOp54
 70
     0
102
RTVSPropertyOp55
 70
     1
102
RTVSPropertyOp56
 70
     0
102
RTVSPropertyOp57
 70
     0
102
RTVSPropertyOp58
 70
     0
102
RTVSPropertyOp59
 70
     0
102
RTVSPropertyOp60
 70
     0
102
RTVSPropertyOp61
 70
     0
102
RTVSPropertyOp62
 70
     0
  0
XRECORD
  5
9C36
102
{ACAD_REACTORS
330
9C35
102
}
330
9C35
100
AcDbXrecord
280
     1
102
RTVSPost2010Prop28
280
     0
102
RTVSPost2010PropOp28
 70
     1
102
RTVSPost2010Prop29
280
     1
102
RTVSPost2010PropOp29
 70
     1
102
RTVSPost2010Prop30
280
     1
102
RTVSPost2010PropOp30
 70
     1
102
RTVSPost2010Prop31
280
     0
102
RTVSPost2010PropOp31
 70
     1
102
RTVSPost2010Prop32
280
     0
102
RTVSPost2010PropOp32
 70
     1
102
RTVSPost2010Prop33
280
     0
102
RTVSPost2010PropOp33
 70
     1
102
RTVSPost2010Prop34
280
     0
102
RTVSPost2010PropOp34
 70
     1
102
RTVSPost2010Prop35
280
     0
102
RTVSPost2010PropOp35
 70
     1
102
RTVSPost2010Prop36
280
     0
102
RTVSPost2010PropOp36
 70
     1
102
RTVSPost2010Prop37
 90
       50
102
RTVSPost2010PropOp37
 70
     1
102
RTVSPost2010Prop38
140
0.0
102
RTVSPost2010PropOp38
 70
     1
102
RTVSPost2010Prop39
140
1.0
102
RTVSPost2010PropOp39
 70
     1
102
RTVSPost2010Prop40
 90
        0
102
RTVSPost2010PropOp40
 70
     1
102
RTVSPost2010Prop41ColorIndex
 90
       18
102
RTVSPost2010Prop41ColorRGB
 90
        0
102
RTVSPost2010PropOp41
 70
     1
102
RTVSPost2010Prop42
 90
       50
102
RTVSPost2010PropOp42
 70
     1
102
RTVSPost2010Prop43
 90
        3
102
RTVSPost2010PropOp43
 70
     1
102
RTVSPost2010Prop44ColorIndex
 90
        5
102
RTVSPost2010Prop44ColorRGB
 90
      255
102
RTVSPost2010PropOp44
 70
     1
102
RTVSPost2010Prop45
280
     0
102
RTVSPost2010PropOp45
 70
     1
102
RTVSPost2010Prop46
 90
       50
102
RTVSPost2010PropOp46
 70
     1
102
RTVSPost2010Prop47
 90
       50
102
RTVSPost2010PropOp47
 70
     1
102
RTVSPost2010Prop48
 90
       50
102
RTVSPost2010PropOp48
 70
     1
102
RTVSPost2010Prop49
280
     0
102
RTVSPost2010PropOp49
 70
     1
102
RTVSPost2010Prop50
 90
       50
102
RTVSPost2010PropOp50
 70
     1
102
RTVSPost2010Prop51ColorIndex
 90
      256
102
RTVSPost2010Prop51ColorRGB
 90
-16777216
102
RTVSPost2010PropOp51
 70
     0
102
RTVSPost2010Prop52
140
1.0
102
RTVSPost2010PropOp52
 70
     0
102
RTVSPost2010Prop53
 90
        2
102
RTVSPost2010PropOp53
 70
     1
102
RTVSPost2010Prop54
  1
strokes_ogs.tif
102
RTVSPost2010PropOp54
 70
     1
102
RTVSPost2010Prop55
280
     0
102
RTVSPost2010PropOp55
 70
     1
102
RTVSPost2010Prop56
140
1.0
102
RTVSPost2010PropOp56
 70
     1
102
RTVSPost2010Prop57
140
1.0
102
RTVSPost2010PropOp57
 70
     1
102
RTVSPropertyOp0
 70
     1
102
RTVSPropertyOp1
 70
     1
102
RTVSPropertyOp2
 70
     1
102
RTVSPropertyOp3
 70
     1
102
RTVSPropertyOp4
 70
     1
102
RTVSPropertyOp5
 70
     1
102
RTVSPropertyOp6
 70
     1
102
RTVSPropertyOp7
 70
     1
102
RTVSPropertyOp8
 70
     1
102
RTVSPropertyOp9
 70
     1
102
RTVSPropertyOp10
 70
     1
102
RTVSPropertyOp11
 70
     1
102
RTVSPropertyOp12
 70
     1
102
RTVSPropertyOp13
 70
     1
102
RTVSPropertyOp14
 70
     1
102
RTVSPropertyOp15
 70
     1
102
RTVSPropertyOp16
 70
     1
102
RTVSPropertyOp17
 70
     1
102
RTVSPropertyOp18
 70
     1
102
RTVSPropertyOp19
 70
     1
102
RTVSPropertyOp20
 70
     1
102
RTVSPropertyOp21
 70
     1
102
RTVSPropertyOp22
 70
     1
102
RTVSPropertyOp23
 70
     1
102
RTVSPropertyOp24
 70
     1
102
RTVSPropertyOp25
 70
     1
102
RTVSPropertyOp26
 70
     1
102
RTVSPropertyOp27
 70
     1
102
RTVSPropertyOp28
 70
     1
102
RTVSPropertyOp29
 70
     1
102
RTVSPropertyOp30
 70
     1
102
RTVSPropertyOp31
 70
     1
102
RTVSPropertyOp32
 70
     1
102
RTVSPropertyOp33
 70
     1
102
RTVSPropertyOp34
 70
     1
102
RTVSPropertyOp35
 70
     1
102
RTVSPropertyOp36
 70
     1
102
RTVSPropertyOp37
 70
     1
102
RTVSPropertyOp38
 70
     1
102
RTVSPropertyOp39
 70
     1
102
RTVSPropertyOp40
 70
     1
102
RTVSPropertyOp41
 70
     1
102
RTVSPropertyOp42
 70
     1
102
RTVSPropertyOp43
 70
     1
102
RTVSPropertyOp44
 70
     1
102
RTVSPropertyOp45
 70
     1
102
RTVSPropertyOp46
 70
     1
102
RTVSPropertyOp47
 70
     1
102
RTVSPropertyOp48
 70
     1
102
RTVSPropertyOp49
 70
     1
102
RTVSPropertyOp50
 70
     1
102
RTVSPropertyOp51
 70
     0
102
RTVSPropertyOp52
 70
     0
102
RTVSPropertyOp53
 70
     1
102
RTVSPropertyOp54
 70
     1
102
RTVSPropertyOp55
 70
     1
102
RTVSPropertyOp56
 70
     1
102
RTVSPropertyOp57
 70
     1
102
RTVSPropertyOp58
 70
     1
102
RTVSPropertyOp59
 70
     1
102
RTVSPropertyOp60
 70
     1
102
RTVSPropertyOp61
 70
     1
102
RTVSPropertyOp62
 70
     1
  0
XRECORD
  5
9C48
102
{ACAD_REACTORS
330
9C47
102
}
330
9C47
100
AcDbXrecord
280
     1
102
RTVSPost2010Prop28
280
     0
102
RTVSPost2010PropOp28
 70
     1
102
RTVSPost2010Prop29
280
     1
102
RTVSPost2010PropOp29
 70
     1
102
RTVSPost2010Prop30
280
     1
102
RTVSPost2010PropOp30
 70
     1
102
RTVSPost2010Prop31
280
     0
102
RTVSPost2010PropOp31
 70
     1
102
RTVSPost2010Prop32
280
     0
102
RTVSPost2010PropOp32
 70
     1
102
RTVSPost2010Prop33
280
     0
102
RTVSPost2010PropOp33
 70
     1
102
RTVSPost2010Prop34
280
     0
102
RTVSPost2010PropOp34
 70
     1
102
RTVSPost2010Prop35
280
     0
102
RTVSPost2010PropOp35
 70
     1
102
RTVSPost2010Prop36
280
     0
102
RTVSPost2010PropOp36
 70
     1
102
RTVSPost2010Prop37
 90
       50
102
RTVSPost2010PropOp37
 70
     0
102
RTVSPost2010Prop38
140
0.0
102
RTVSPost2010PropOp38
 70
     0
102
RTVSPost2010Prop39
140
1.0
102
RTVSPost2010PropOp39
 70
     0
102
RTVSPost2010Prop40
 90
        0
102
RTVSPost2010PropOp40
 70
     0
102
RTVSPost2010Prop41ColorIndex
 90
       18
102
RTVSPost2010Prop41ColorRGB
 90
        0
102
RTVSPost2010PropOp41
 70
     0
102
RTVSPost2010Prop42
 90
       50
102
RTVSPost2010PropOp42
 70
     0
102
RTVSPost2010Prop43
 90
        3
102
RTVSPost2010PropOp43
 70
     0
102
RTVSPost2010Prop44ColorIndex
 90
        5
102
RTVSPost2010Prop44ColorRGB
 90
      255
102
RTVSPost2010PropOp44
 70
     0
102
RTVSPost2010Prop45
280
     0
102
RTVSPost2010PropOp45
 70
     1
102
RTVSPost2010Prop46
 90
       50
102
RTVSPost2010PropOp46
 70
     0
102
RTVSPost2010Prop47
 90
       50
102
RTVSPost2010PropOp47
 70
     0
102
RTVSPost2010Prop48
 90
       50
102
RTVSPost2010PropOp48
 70
     0
102
RTVSPost2010Prop49
280
     0
102
RTVSPost2010PropOp49
 70
     1
102
RTVSPost2010Prop50
 90
       50
102
RTVSPost2010PropOp50
 70
     0
102
RTVSPost2010Prop51ColorIndex
 90
      256
102
RTVSPost2010Prop51ColorRGB
 90
-16777216
102
RTVSPost2010PropOp51
 70
     0
102
RTVSPost2010Prop52
140
1.0
102
RTVSPost2010PropOp52
 70
     0
102
RTVSPost2010Prop53
 90
        2
102
RTVSPost2010PropOp53
 70
     0
102
RTVSPost2010Prop54
  1
strokes_ogs.tif
102
RTVSPost2010PropOp54
 70
     0
102
RTVSPost2010Prop55
280
     0
102
RTVSPost2010PropOp55
 70
     1
102
RTVSPost2010Prop56
140
1.0
102
RTVSPost2010PropOp56
 70
     0
102
RTVSPost2010Prop57
140
1.0
102
RTVSPost2010PropOp57
 70
     0
102
RTVSPropertyOp0
 70
     0
102
RTVSPropertyOp1
 70
     0
102
RTVSPropertyOp2
 70
     0
102
RTVSPropertyOp3
 70
     0
102
RTVSPropertyOp4
 70
     0
102
RTVSPropertyOp5
 70
     0
102
RTVSPropertyOp6
 70
     0
102
RTVSPropertyOp7
 70
     0
102
RTVSPropertyOp8
 70
     0
102
RTVSPropertyOp9
 70
     0
102
RTVSPropertyOp10
 70
     0
102
RTVSPropertyOp11
 70
     0
102
RTVSPropertyOp12
 70
     0
102
RTVSPropertyOp13
 70
     0
102
RTVSPropertyOp14
 70
     2
102
RTVSPropertyOp15
 70
     0
102
RTVSPropertyOp16
 70
     0
102
RTVSPropertyOp17
 70
     0
102
RTVSPropertyOp18
 70
     0
102
RTVSPropertyOp19
 70
     0
102
RTVSPropertyOp20
 70
     0
102
RTVSPropertyOp21
 70
     0
102
RTVSPropertyOp22
 70
     0
102
RTVSPropertyOp23
 70
     0
102
RTVSPropertyOp24
 70
     0
102
RTVSPropertyOp25
 70
     0
102
RTVSPropertyOp26
 70
     0
102
RTVSPropertyOp27
 70
     0
102
RTVSPropertyOp28
 70
     1
102
RTVSPropertyOp29
 70
     1
102
RTVSPropertyOp30
 70
     1
102
RTVSPropertyOp31
 70
     1
102
RTVSPropertyOp32
 70
     1
102
RTVSPropertyOp33
 70
     1
102
RTVSPropertyOp34
 70
     1
102
RTVSPropertyOp35
 70
     1
102
RTVSPropertyOp36
 70
     1
102
RTVSPropertyOp37
 70
     0
102
RTVSPropertyOp38
 70
     0
102
RTVSPropertyOp39
 70
     0
102
RTVSPropertyOp40
 70
     0
102
RTVSPropertyOp41
 70
     0
102
RTVSPropertyOp42
 70
     0
102
RTVSPropertyOp43
 70
     0
102
RTVSPropertyOp44
 70
     0
102
RTVSPropertyOp45
 70
     1
102
RTVSPropertyOp46
 70
     0
102
RTVSPropertyOp47
 70
     0
102
RTVSPropertyOp48
 70
     0
102
RTVSPropertyOp49
 70
     1
102
RTVSPropertyOp50
 70
     0
102
RTVSPropertyOp51
 70
     0
102
RTVSPropertyOp52
 70
     0
102
RTVSPropertyOp53
 70
     0
102
RTVSPropertyOp54
 70
     0
102
RTVSPropertyOp55
 70
     1
102
RTVSPropertyOp56
 70
     0
102
RTVSPropertyOp57
 70
     0
102
RTVSPropertyOp58
 70
     0
102
RTVSPropertyOp59
 70
     0
102
RTVSPropertyOp60
 70
     0
102
RTVSPropertyOp61
 70
     0
102
RTVSPropertyOp62
 70
     0
  0
XRECORD
  5
9C2E
102
{ACAD_REACTORS
330
9C2D
102
}
330
9C2D
100
AcDbXrecord
280
     1
102
RTVSPost2010Prop28
280
     0
102
RTVSPost2010PropOp28
 70
     1
102
RTVSPost2010Prop29
280
     1
102
RTVSPost2010PropOp29
 70
     1
102
RTVSPost2010Prop30
280
     1
102
RTVSPost2010PropOp30
 70
     1
102
RTVSPost2010Prop31
280
     0
102
RTVSPost2010PropOp31
 70
     1
102
RTVSPost2010Prop32
280
     0
102
RTVSPost2010PropOp32
 70
     1
102
RTVSPost2010Prop33
280
     0
102
RTVSPost2010PropOp33
 70
     1
102
RTVSPost2010Prop34
280
     0
102
RTVSPost2010PropOp34
 70
     1
102
RTVSPost2010Prop35
280
     0
102
RTVSPost2010PropOp35
 70
     1
102
RTVSPost2010Prop36
280
     0
102
RTVSPost2010PropOp36
 70
     1
102
RTVSPost2010Prop37
 90
       50
102
RTVSPost2010PropOp37
 70
     1
102
RTVSPost2010Prop38
140
0.0
102
RTVSPost2010PropOp38
 70
     1
102
RTVSPost2010Prop39
140
1.0
102
RTVSPost2010PropOp39
 70
     1
102
RTVSPost2010Prop40
 90
        0
102
RTVSPost2010PropOp40
 70
     1
102
RTVSPost2010Prop41ColorIndex
 90
       18
102
RTVSPost2010Prop41ColorRGB
 90
        0
102
RTVSPost2010PropOp41
 70
     1
102
RTVSPost2010Prop42
 90
       50
102
RTVSPost2010PropOp42
 70
     1
102
RTVSPost2010Prop43
 90
        3
102
RTVSPost2010PropOp43
 70
     1
102
RTVSPost2010Prop44ColorIndex
 90
        5
102
RTVSPost2010Prop44ColorRGB
 90
      255
102
RTVSPost2010PropOp44
 70
     1
102
RTVSPost2010Prop45
280
     0
102
RTVSPost2010PropOp45
 70
     1
102
RTVSPost2010Prop46
 90
       50
102
RTVSPost2010PropOp46
 70
     1
102
RTVSPost2010Prop47
 90
       50
102
RTVSPost2010PropOp47
 70
     1
102
RTVSPost2010Prop48
 90
       50
102
RTVSPost2010PropOp48
 70
     1
102
RTVSPost2010Prop49
280
     0
102
RTVSPost2010PropOp49
 70
     1
102
RTVSPost2010Prop50
 90
       50
102
RTVSPost2010PropOp50
 70
     1
102
RTVSPost2010Prop51ColorIndex
 90
      256
102
RTVSPost2010Prop51ColorRGB
 90
-16777216
102
RTVSPost2010PropOp51
 70
     0
102
RTVSPost2010Prop52
140
1.0
102
RTVSPost2010PropOp52
 70
     0
102
RTVSPost2010Prop53
 90
        2
102
RTVSPost2010PropOp53
 70
     1
102
RTVSPost2010Prop54
  1
strokes_ogs.tif
102
RTVSPost2010PropOp54
 70
     1
102
RTVSPost2010Prop55
280
     0
102
RTVSPost2010PropOp55
 70
     1
102
RTVSPost2010Prop56
140
1.0
102
RTVSPost2010PropOp56
 70
     1
102
RTVSPost2010Prop57
140
1.0
102
RTVSPost2010PropOp57
 70
     1
102
RTVSPropertyOp0
 70
     1
102
RTVSPropertyOp1
 70
     1
102
RTVSPropertyOp2
 70
     1
102
RTVSPropertyOp3
 70
     1
102
RTVSPropertyOp4
 70
     1
102
RTVSPropertyOp5
 70
     1
102
RTVSPropertyOp6
 70
     1
102
RTVSPropertyOp7
 70
     1
102
RTVSPropertyOp8
 70
     1
102
RTVSPropertyOp9
 70
     1
102
RTVSPropertyOp10
 70
     1
102
RTVSPropertyOp11
 70
     1
102
RTVSPropertyOp12
 70
     1
102
RTVSPropertyOp13
 70
     1
102
RTVSPropertyOp14
 70
     1
102
RTVSPropertyOp15
 70
     1
102
RTVSPropertyOp16
 70
     1
102
RTVSPropertyOp17
 70
     1
102
RTVSPropertyOp18
 70
     1
102
RTVSPropertyOp19
 70
     1
102
RTVSPropertyOp20
 70
     1
102
RTVSPropertyOp21
 70
     1
102
RTVSPropertyOp22
 70
     1
102
RTVSPropertyOp23
 70
     1
102
RTVSPropertyOp24
 70
     1
102
RTVSPropertyOp25
 70
     1
102
RTVSPropertyOp26
 70
     1
102
RTVSPropertyOp27
 70
     1
102
RTVSPropertyOp28
 70
     1
102
RTVSPropertyOp29
 70
     1
102
RTVSPropertyOp30
 70
     1
102
RTVSPropertyOp31
 70
     1
102
RTVSPropertyOp32
 70
     1
102
RTVSPropertyOp33
 70
     1
102
RTVSPropertyOp34
 70
     1
102
RTVSPropertyOp35
 70
     1
102
RTVSPropertyOp36
 70
     1
102
RTVSPropertyOp37
 70
     1
102
RTVSPropertyOp38
 70
     1
102
RTVSPropertyOp39
 70
     1
102
RTVSPropertyOp40
 70
     1
102
RTVSPropertyOp41
 70
     1
102
RTVSPropertyOp42
 70
     1
102
RTVSPropertyOp43
 70
     1
102
RTVSPropertyOp44
 70
     1
102
RTVSPropertyOp45
 70
     1
102
RTVSPropertyOp46
 70
     1
102
RTVSPropertyOp47
 70
     1
102
RTVSPropertyOp48
 70
     1
102
RTVSPropertyOp49
 70
     1
102
RTVSPropertyOp50
 70
     1
102
RTVSPropertyOp51
 70
     0
102
RTVSPropertyOp52
 70
     0
102
RTVSPropertyOp53
 70
     1
102
RTVSPropertyOp54
 70
     1
102
RTVSPropertyOp55
 70
     1
102
RTVSPropertyOp56
 70
     1
102
RTVSPropertyOp57
 70
     1
102
RTVSPropertyOp58
 70
     1
102
RTVSPropertyOp59
 70
     1
102
RTVSPropertyOp60
 70
     1
102
RTVSPropertyOp61
 70
     1
102
RTVSPropertyOp62
 70
     1
  0
XRECORD
  5
9C44
102
{ACAD_REACTORS
330
9C43
102
}
330
9C43
100
AcDbXrecord
280
     1
102
RTVSPost2010Prop28
280
     0
102
RTVSPost2010PropOp28
 70
     1
102
RTVSPost2010Prop29
280
     1
102
RTVSPost2010PropOp29
 70
     1
102
RTVSPost2010Prop30
280
     1
102
RTVSPost2010PropOp30
 70
     1
102
RTVSPost2010Prop31
280
     0
102
RTVSPost2010PropOp31
 70
     1
102
RTVSPost2010Prop32
280
     0
102
RTVSPost2010PropOp32
 70
     1
102
RTVSPost2010Prop33
280
     0
102
RTVSPost2010PropOp33
 70
     1
102
RTVSPost2010Prop34
280
     0
102
RTVSPost2010PropOp34
 70
     1
102
RTVSPost2010Prop35
280
     0
102
RTVSPost2010PropOp35
 70
     1
102
RTVSPost2010Prop36
280
     0
102
RTVSPost2010PropOp36
 70
     1
102
RTVSPost2010Prop37
 90
       50
102
RTVSPost2010PropOp37
 70
     1
102
RTVSPost2010Prop38
140
0.0
102
RTVSPost2010PropOp38
 70
     1
102
RTVSPost2010Prop39
140
1.0
102
RTVSPost2010PropOp39
 70
     1
102
RTVSPost2010Prop40
 90
        0
102
RTVSPost2010PropOp40
 70
     1
102
RTVSPost2010Prop41ColorIndex
 90
       18
102
RTVSPost2010Prop41ColorRGB
 90
        0
102
RTVSPost2010PropOp41
 70
     1
102
RTVSPost2010Prop42
 90
       50
102
RTVSPost2010PropOp42
 70
     1
102
RTVSPost2010Prop43
 90
        3
102
RTVSPost2010PropOp43
 70
     1
102
RTVSPost2010Prop44ColorIndex
 90
        5
102
RTVSPost2010Prop44ColorRGB
 90
      255
102
RTVSPost2010PropOp44
 70
     1
102
RTVSPost2010Prop45
280
     0
102
RTVSPost2010PropOp45
 70
     1
102
RTVSPost2010Prop46
 90
       50
102
RTVSPost2010PropOp46
 70
     1
102
RTVSPost2010Prop47
 90
       50
102
RTVSPost2010PropOp47
 70
     1
102
RTVSPost2010Prop48
 90
       50
102
RTVSPost2010PropOp48
 70
     1
102
RTVSPost2010Prop49
280
     0
102
RTVSPost2010PropOp49
 70
     1
102
RTVSPost2010Prop50
 90
       50
102
RTVSPost2010PropOp50
 70
     1
102
RTVSPost2010Prop51ColorIndex
 90
      256
102
RTVSPost2010Prop51ColorRGB
 90
-16777216
102
RTVSPost2010PropOp51
 70
     0
102
RTVSPost2010Prop52
140
1.0
102
RTVSPost2010PropOp52
 70
     0
102
RTVSPost2010Prop53
 90
        2
102
RTVSPost2010PropOp53
 70
     1
102
RTVSPost2010Prop54
  1
strokes_ogs.tif
102
RTVSPost2010PropOp54
 70
     1
102
RTVSPost2010Prop55
280
     0
102
RTVSPost2010PropOp55
 70
     1
102
RTVSPost2010Prop56
140
1.0
102
RTVSPost2010PropOp56
 70
     1
102
RTVSPost2010Prop57
140
1.0
102
RTVSPost2010PropOp57
 70
     1
102
RTVSPropertyOp0
 70
     1
102
RTVSPropertyOp1
 70
     1
102
RTVSPropertyOp2
 70
     1
102
RTVSPropertyOp3
 70
     1
102
RTVSPropertyOp4
 70
     1
102
RTVSPropertyOp5
 70
     1
102
RTVSPropertyOp6
 70
     1
102
RTVSPropertyOp7
 70
     1
102
RTVSPropertyOp8
 70
     1
102
RTVSPropertyOp9
 70
     1
102
RTVSPropertyOp10
 70
     1
102
RTVSPropertyOp11
 70
     1
102
RTVSPropertyOp12
 70
     1
102
RTVSPropertyOp13
 70
     1
102
RTVSPropertyOp14
 70
     1
102
RTVSPropertyOp15
 70
     1
102
RTVSPropertyOp16
 70
     1
102
RTVSPropertyOp17
 70
     1
102
RTVSPropertyOp18
 70
     1
102
RTVSPropertyOp19
 70
     1
102
RTVSPropertyOp20
 70
     1
102
RTVSPropertyOp21
 70
     1
102
RTVSPropertyOp22
 70
     1
102
RTVSPropertyOp23
 70
     1
102
RTVSPropertyOp24
 70
     1
102
RTVSPropertyOp25
 70
     1
102
RTVSPropertyOp26
 70
     1
102
RTVSPropertyOp27
 70
     1
102
RTVSPropertyOp28
 70
     1
102
RTVSPropertyOp29
 70
     1
102
RTVSPropertyOp30
 70
     1
102
RTVSPropertyOp31
 70
     1
102
RTVSPropertyOp32
 70
     1
102
RTVSPropertyOp33
 70
     1
102
RTVSPropertyOp34
 70
     1
102
RTVSPropertyOp35
 70
     1
102
RTVSPropertyOp36
 70
     1
102
RTVSPropertyOp37
 70
     1
102
RTVSPropertyOp38
 70
     1
102
RTVSPropertyOp39
 70
     1
102
RTVSPropertyOp40
 70
     1
102
RTVSPropertyOp41
 70
     1
102
RTVSPropertyOp42
 70
     1
102
RTVSPropertyOp43
 70
     1
102
RTVSPropertyOp44
 70
     1
102
RTVSPropertyOp45
 70
     1
102
RTVSPropertyOp46
 70
     1
102
RTVSPropertyOp47
 70
     1
102
RTVSPropertyOp48
 70
     1
102
RTVSPropertyOp49
 70
     1
102
RTVSPropertyOp50
 70
     1
102
RTVSPropertyOp51
 70
     0
102
RTVSPropertyOp52
 70
     0
102
RTVSPropertyOp53
 70
     1
102
RTVSPropertyOp54
 70
     1
102
RTVSPropertyOp55
 70
     1
102
RTVSPropertyOp56
 70
     1
102
RTVSPropertyOp57
 70
     1
102
RTVSPropertyOp58
 70
     1
102
RTVSPropertyOp59
 70
     1
102
RTVSPropertyOp60
 70
     1
102
RTVSPropertyOp61
 70
     1
102
RTVSPropertyOp62
 70
     1
  0
XRECORD
  5
9C42
102
{ACAD_REACTORS
330
9C41
102
}
330
9C41
100
AcDbXrecord
280
     1
102
RTVSPost2010Prop28
280
     0
102
RTVSPost2010PropOp28
 70
     1
102
RTVSPost2010Prop29
280
     1
102
RTVSPost2010PropOp29
 70
     1
102
RTVSPost2010Prop30
280
     1
102
RTVSPost2010PropOp30
 70
     1
102
RTVSPost2010Prop31
280
     0
102
RTVSPost2010PropOp31
 70
     1
102
RTVSPost2010Prop32
280
     0
102
RTVSPost2010PropOp32
 70
     1
102
RTVSPost2010Prop33
280
     0
102
RTVSPost2010PropOp33
 70
     1
102
RTVSPost2010Prop34
280
     0
102
RTVSPost2010PropOp34
 70
     1
102
RTVSPost2010Prop35
280
     0
102
RTVSPost2010PropOp35
 70
     1
102
RTVSPost2010Prop36
280
     0
102
RTVSPost2010PropOp36
 70
     1
102
RTVSPost2010Prop37
 90
       50
102
RTVSPost2010PropOp37
 70
     1
102
RTVSPost2010Prop38
140
0.0
102
RTVSPost2010PropOp38
 70
     1
102
RTVSPost2010Prop39
140
1.0
102
RTVSPost2010PropOp39
 70
     1
102
RTVSPost2010Prop40
 90
        0
102
RTVSPost2010PropOp40
 70
     1
102
RTVSPost2010Prop41ColorIndex
 90
       18
102
RTVSPost2010Prop41ColorRGB
 90
        0
102
RTVSPost2010PropOp41
 70
     1
102
RTVSPost2010Prop42
 90
       50
102
RTVSPost2010PropOp42
 70
     1
102
RTVSPost2010Prop43
 90
        3
102
RTVSPost2010PropOp43
 70
     1
102
RTVSPost2010Prop44ColorIndex
 90
        5
102
RTVSPost2010Prop44ColorRGB
 90
      255
102
RTVSPost2010PropOp44
 70
     1
102
RTVSPost2010Prop45
280
     0
102
RTVSPost2010PropOp45
 70
     1
102
RTVSPost2010Prop46
 90
       50
102
RTVSPost2010PropOp46
 70
     1
102
RTVSPost2010Prop47
 90
       50
102
RTVSPost2010PropOp47
 70
     1
102
RTVSPost2010Prop48
 90
       50
102
RTVSPost2010PropOp48
 70
     1
102
RTVSPost2010Prop49
280
     0
102
RTVSPost2010PropOp49
 70
     1
102
RTVSPost2010Prop50
 90
       50
102
RTVSPost2010PropOp50
 70
     1
102
RTVSPost2010Prop51ColorIndex
 90
      256
102
RTVSPost2010Prop51ColorRGB
 90
-16777216
102
RTVSPost2010PropOp51
 70
     0
102
RTVSPost2010Prop52
140
1.0
102
RTVSPost2010PropOp52
 70
     0
102
RTVSPost2010Prop53
 90
        2
102
RTVSPost2010PropOp53
 70
     1
102
RTVSPost2010Prop54
  1
strokes_ogs.tif
102
RTVSPost2010PropOp54
 70
     1
102
RTVSPost2010Prop55
280
     0
102
RTVSPost2010PropOp55
 70
     1
102
RTVSPost2010Prop56
140
1.0
102
RTVSPost2010PropOp56
 70
     1
102
RTVSPost2010Prop57
140
1.0
102
RTVSPost2010PropOp57
 70
     1
102
RTVSPropertyOp0
 70
     1
102
RTVSPropertyOp1
 70
     1
102
RTVSPropertyOp2
 70
     1
102
RTVSPropertyOp3
 70
     1
102
RTVSPropertyOp4
 70
     1
102
RTVSPropertyOp5
 70
     1
102
RTVSPropertyOp6
 70
     1
102
RTVSPropertyOp7
 70
     1
102
RTVSPropertyOp8
 70
     1
102
RTVSPropertyOp9
 70
     1
102
RTVSPropertyOp10
 70
     1
102
RTVSPropertyOp11
 70
     1
102
RTVSPropertyOp12
 70
     1
102
RTVSPropertyOp13
 70
     1
102
RTVSPropertyOp14
 70
     1
102
RTVSPropertyOp15
 70
     1
102
RTVSPropertyOp16
 70
     1
102
RTVSPropertyOp17
 70
     1
102
RTVSPropertyOp18
 70
     1
102
RTVSPropertyOp19
 70
     1
102
RTVSPropertyOp20
 70
     1
102
RTVSPropertyOp21
 70
     1
102
RTVSPropertyOp22
 70
     1
102
RTVSPropertyOp23
 70
     1
102
RTVSPropertyOp24
 70
     1
102
RTVSPropertyOp25
 70
     1
102
RTVSPropertyOp26
 70
     1
102
RTVSPropertyOp27
 70
     1
102
RTVSPropertyOp28
 70
     1
102
RTVSPropertyOp29
 70
     1
102
RTVSPropertyOp30
 70
     1
102
RTVSPropertyOp31
 70
     1
102
RTVSPropertyOp32
 70
     1
102
RTVSPropertyOp33
 70
     1
102
RTVSPropertyOp34
 70
     1
102
RTVSPropertyOp35
 70
     1
102
RTVSPropertyOp36
 70
     1
102
RTVSPropertyOp37
 70
     1
102
RTVSPropertyOp38
 70
     1
102
RTVSPropertyOp39
 70
     1
102
RTVSPropertyOp40
 70
     1
102
RTVSPropertyOp41
 70
     1
102
RTVSPropertyOp42
 70
     1
102
RTVSPropertyOp43
 70
     1
102
RTVSPropertyOp44
 70
     1
102
RTVSPropertyOp45
 70
     1
102
RTVSPropertyOp46
 70
     1
102
RTVSPropertyOp47
 70
     1
102
RTVSPropertyOp48
 70
     1
102
RTVSPropertyOp49
 70
     1
102
RTVSPropertyOp50
 70
     1
102
RTVSPropertyOp51
 70
     0
102
RTVSPropertyOp52
 70
     0
102
RTVSPropertyOp53
 70
     1
102
RTVSPropertyOp54
 70
     1
102
RTVSPropertyOp55
 70
     1
102
RTVSPropertyOp56
 70
     1
102
RTVSPropertyOp57
 70
     1
102
RTVSPropertyOp58
 70
     1
102
RTVSPropertyOp59
 70
     1
102
RTVSPropertyOp60
 70
     1
102
RTVSPropertyOp61
 70
     1
102
RTVSPropertyOp62
 70
     1
  0
XRECORD
  5
9C3C
102
{ACAD_REACTORS
330
9C3B
102
}
330
9C3B
100
AcDbXrecord
280
     1
102
RTVSPost2010Prop28
280
     0
102
RTVSPost2010PropOp28
 70
     1
102
RTVSPost2010Prop29
280
     1
102
RTVSPost2010PropOp29
 70
     1
102
RTVSPost2010Prop30
280
     1
102
RTVSPost2010PropOp30
 70
     1
102
RTVSPost2010Prop31
280
     0
102
RTVSPost2010PropOp31
 70
     1
102
RTVSPost2010Prop32
280
     0
102
RTVSPost2010PropOp32
 70
     1
102
RTVSPost2010Prop33
280
     0
102
RTVSPost2010PropOp33
 70
     1
102
RTVSPost2010Prop34
280
     0
102
RTVSPost2010PropOp34
 70
     1
102
RTVSPost2010Prop35
280
     0
102
RTVSPost2010PropOp35
 70
     1
102
RTVSPost2010Prop36
280
     0
102
RTVSPost2010PropOp36
 70
     1
102
RTVSPost2010Prop37
 90
       50
102
RTVSPost2010PropOp37
 70
     1
102
RTVSPost2010Prop38
140
0.0
102
RTVSPost2010PropOp38
 70
     1
102
RTVSPost2010Prop39
140
1.0
102
RTVSPost2010PropOp39
 70
     1
102
RTVSPost2010Prop40
 90
        0
102
RTVSPost2010PropOp40
 70
     1
102
RTVSPost2010Prop41ColorIndex
 90
       18
102
RTVSPost2010Prop41ColorRGB
 90
        0
102
RTVSPost2010PropOp41
 70
     1
102
RTVSPost2010Prop42
 90
       50
102
RTVSPost2010PropOp42
 70
     1
102
RTVSPost2010Prop43
 90
        3
102
RTVSPost2010PropOp43
 70
     1
102
RTVSPost2010Prop44ColorIndex
 90
        5
102
RTVSPost2010Prop44ColorRGB
 90
      255
102
RTVSPost2010PropOp44
 70
     1
102
RTVSPost2010Prop45
280
     0
102
RTVSPost2010PropOp45
 70
     1
102
RTVSPost2010Prop46
 90
       50
102
RTVSPost2010PropOp46
 70
     1
102
RTVSPost2010Prop47
 90
       50
102
RTVSPost2010PropOp47
 70
     1
102
RTVSPost2010Prop48
 90
       50
102
RTVSPost2010PropOp48
 70
     1
102
RTVSPost2010Prop49
280
     0
102
RTVSPost2010PropOp49
 70
     1
102
RTVSPost2010Prop50
 90
       50
102
RTVSPost2010PropOp50
 70
     1
102
RTVSPost2010Prop51ColorIndex
 90
      256
102
RTVSPost2010Prop51ColorRGB
 90
-16777216
102
RTVSPost2010PropOp51
 70
     0
102
RTVSPost2010Prop52
140
1.0
102
RTVSPost2010PropOp52
 70
     0
102
RTVSPost2010Prop53
 90
        2
102
RTVSPost2010PropOp53
 70
     1
102
RTVSPost2010Prop54
  1
strokes_ogs.tif
102
RTVSPost2010PropOp54
 70
     1
102
RTVSPost2010Prop55
280
     0
102
RTVSPost2010PropOp55
 70
     1
102
RTVSPost2010Prop56
140
1.0
102
RTVSPost2010PropOp56
 70
     1
102
RTVSPost2010Prop57
140
1.0
102
RTVSPost2010PropOp57
 70
     1
102
RTVSPropertyOp0
 70
     1
102
RTVSPropertyOp1
 70
     1
102
RTVSPropertyOp2
 70
     1
102
RTVSPropertyOp3
 70
     1
102
RTVSPropertyOp4
 70
     1
102
RTVSPropertyOp5
 70
     1
102
RTVSPropertyOp6
 70
     1
102
RTVSPropertyOp7
 70
     1
102
RTVSPropertyOp8
 70
     1
102
RTVSPropertyOp9
 70
     1
102
RTVSPropertyOp10
 70
     1
102
RTVSPropertyOp11
 70
     1
102
RTVSPropertyOp12
 70
     1
102
RTVSPropertyOp13
 70
     1
102
RTVSPropertyOp14
 70
     1
102
RTVSPropertyOp15
 70
     1
102
RTVSPropertyOp16
 70
     1
102
RTVSPropertyOp17
 70
     1
102
RTVSPropertyOp18
 70
     1
102
RTVSPropertyOp19
 70
     1
102
RTVSPropertyOp20
 70
     1
102
RTVSPropertyOp21
 70
     1
102
RTVSPropertyOp22
 70
     1
102
RTVSPropertyOp23
 70
     1
102
RTVSPropertyOp24
 70
     1
102
RTVSPropertyOp25
 70
     1
102
RTVSPropertyOp26
 70
     1
102
RTVSPropertyOp27
 70
     1
102
RTVSPropertyOp28
 70
     1
102
RTVSPropertyOp29
 70
     1
102
RTVSPropertyOp30
 70
     1
102
RTVSPropertyOp31
 70
     1
102
RTVSPropertyOp32
 70
     1
102
RTVSPropertyOp33
 70
     1
102
RTVSPropertyOp34
 70
     1
102
RTVSPropertyOp35
 70
     1
102
RTVSPropertyOp36
 70
     1
102
RTVSPropertyOp37
 70
     1
102
RTVSPropertyOp38
 70
     1
102
RTVSPropertyOp39
 70
     1
102
RTVSPropertyOp40
 70
     1
102
RTVSPropertyOp41
 70
     1
102
RTVSPropertyOp42
 70
     1
102
RTVSPropertyOp43
 70
     1
102
RTVSPropertyOp44
 70
     1
102
RTVSPropertyOp45
 70
     1
102
RTVSPropertyOp46
 70
     1
102
RTVSPropertyOp47
 70
     1
102
RTVSPropertyOp48
 70
     1
102
RTVSPropertyOp49
 70
     1
102
RTVSPropertyOp50
 70
     1
102
RTVSPropertyOp51
 70
     0
102
RTVSPropertyOp52
 70
     0
102
RTVSPropertyOp53
 70
     1
102
RTVSPropertyOp54
 70
     1
102
RTVSPropertyOp55
 70
     1
102
RTVSPropertyOp56
 70
     1
102
RTVSPropertyOp57
 70
     1
102
RTVSPropertyOp58
 70
     1
102
RTVSPropertyOp59
 70
     1
102
RTVSPropertyOp60
 70
     1
102
RTVSPropertyOp61
 70
     1
102
RTVSPropertyOp62
 70
     1
  0
XRECORD
  5
9C3E
102
{ACAD_REACTORS
330
9C3D
102
}
330
9C3D
100
AcDbXrecord
280
     1
102
RTVSPost2010Prop28
280
     0
102
RTVSPost2010PropOp28
 70
     1
102
RTVSPost2010Prop29
280
     1
102
RTVSPost2010PropOp29
 70
     1
102
RTVSPost2010Prop30
280
     1
102
RTVSPost2010PropOp30
 70
     1
102
RTVSPost2010Prop31
280
     0
102
RTVSPost2010PropOp31
 70
     1
102
RTVSPost2010Prop32
280
     0
102
RTVSPost2010PropOp32
 70
     1
102
RTVSPost2010Prop33
280
     0
102
RTVSPost2010PropOp33
 70
     1
102
RTVSPost2010Prop34
280
     0
102
RTVSPost2010PropOp34
 70
     1
102
RTVSPost2010Prop35
280
     0
102
RTVSPost2010PropOp35
 70
     1
102
RTVSPost2010Prop36
280
     0
102
RTVSPost2010PropOp36
 70
     1
102
RTVSPost2010Prop37
 90
       50
102
RTVSPost2010PropOp37
 70
     1
102
RTVSPost2010Prop38
140
0.0
102
RTVSPost2010PropOp38
 70
     1
102
RTVSPost2010Prop39
140
1.0
102
RTVSPost2010PropOp39
 70
     1
102
RTVSPost2010Prop40
 90
        0
102
RTVSPost2010PropOp40
 70
     1
102
RTVSPost2010Prop41ColorIndex
 90
       18
102
RTVSPost2010Prop41ColorRGB
 90
        0
102
RTVSPost2010PropOp41
 70
     1
102
RTVSPost2010Prop42
 90
       50
102
RTVSPost2010PropOp42
 70
     1
102
RTVSPost2010Prop43
 90
        3
102
RTVSPost2010PropOp43
 70
     1
102
RTVSPost2010Prop44ColorIndex
 90
        5
102
RTVSPost2010Prop44ColorRGB
 90
      255
102
RTVSPost2010PropOp44
 70
     1
102
RTVSPost2010Prop45
280
     0
102
RTVSPost2010PropOp45
 70
     1
102
RTVSPost2010Prop46
 90
       50
102
RTVSPost2010PropOp46
 70
     1
102
RTVSPost2010Prop47
 90
       50
102
RTVSPost2010PropOp47
 70
     1
102
RTVSPost2010Prop48
 90
       50
102
RTVSPost2010PropOp48
 70
     1
102
RTVSPost2010Prop49
280
     0
102
RTVSPost2010PropOp49
 70
     1
102
RTVSPost2010Prop50
 90
       50
102
RTVSPost2010PropOp50
 70
     1
102
RTVSPost2010Prop51ColorIndex
 90
      256
102
RTVSPost2010Prop51ColorRGB
 90
-16777216
102
RTVSPost2010PropOp51
 70
     0
102
RTVSPost2010Prop52
140
1.0
102
RTVSPost2010PropOp52
 70
     0
102
RTVSPost2010Prop53
 90
        2
102
RTVSPost2010PropOp53
 70
     1
102
RTVSPost2010Prop54
  1
strokes_ogs.tif
102
RTVSPost2010PropOp54
 70
     1
102
RTVSPost2010Prop55
280
     0
102
RTVSPost2010PropOp55
 70
     1
102
RTVSPost2010Prop56
140
1.0
102
RTVSPost2010PropOp56
 70
     1
102
RTVSPost2010Prop57
140
1.0
102
RTVSPost2010PropOp57
 70
     1
102
RTVSPropertyOp0
 70
     1
102
RTVSPropertyOp1
 70
     1
102
RTVSPropertyOp2
 70
     1
102
RTVSPropertyOp3
 70
     1
102
RTVSPropertyOp4
 70
     1
102
RTVSPropertyOp5
 70
     1
102
RTVSPropertyOp6
 70
     1
102
RTVSPropertyOp7
 70
     1
102
RTVSPropertyOp8
 70
     1
102
RTVSPropertyOp9
 70
     1
102
RTVSPropertyOp10
 70
     1
102
RTVSPropertyOp11
 70
     1
102
RTVSPropertyOp12
 70
     1
102
RTVSPropertyOp13
 70
     1
102
RTVSPropertyOp14
 70
     1
102
RTVSPropertyOp15
 70
     1
102
RTVSPropertyOp16
 70
     1
102
RTVSPropertyOp17
 70
     1
102
RTVSPropertyOp18
 70
     1
102
RTVSPropertyOp19
 70
     1
102
RTVSPropertyOp20
 70
     1
102
RTVSPropertyOp21
 70
     1
102
RTVSPropertyOp22
 70
     1
102
RTVSPropertyOp23
 70
     1
102
RTVSPropertyOp24
 70
     1
102
RTVSPropertyOp25
 70
     1
102
RTVSPropertyOp26
 70
     1
102
RTVSPropertyOp27
 70
     1
102
RTVSPropertyOp28
 70
     1
102
RTVSPropertyOp29
 70
     1
102
RTVSPropertyOp30
 70
     1
102
RTVSPropertyOp31
 70
     1
102
RTVSPropertyOp32
 70
     1
102
RTVSPropertyOp33
 70
     1
102
RTVSPropertyOp34
 70
     1
102
RTVSPropertyOp35
 70
     1
102
RTVSPropertyOp36
 70
     1
102
RTVSPropertyOp37
 70
     1
102
RTVSPropertyOp38
 70
     1
102
RTVSPropertyOp39
 70
     1
102
RTVSPropertyOp40
 70
     1
102
RTVSPropertyOp41
 70
     1
102
RTVSPropertyOp42
 70
     1
102
RTVSPropertyOp43
 70
     1
102
RTVSPropertyOp44
 70
     1
102
RTVSPropertyOp45
 70
     1
102
RTVSPropertyOp46
 70
     1
102
RTVSPropertyOp47
 70
     1
102
RTVSPropertyOp48
 70
     1
102
RTVSPropertyOp49
 70
     1
102
RTVSPropertyOp50
 70
     1
102
RTVSPropertyOp51
 70
     0
102
RTVSPropertyOp52
 70
     0
102
RTVSPropertyOp53
 70
     1
102
RTVSPropertyOp54
 70
     1
102
RTVSPropertyOp55
 70
     1
102
RTVSPropertyOp56
 70
     1
102
RTVSPropertyOp57
 70
     1
102
RTVSPropertyOp58
 70
     1
102
RTVSPropertyOp59
 70
     1
102
RTVSPropertyOp60
 70
     1
102
RTVSPropertyOp61
 70
     1
102
RTVSPropertyOp62
 70
     1
  0
XRECORD
  5
9C34
102
{ACAD_REACTORS
330
9C33
102
}
330
9C33
100
AcDbXrecord
280
     1
102
RTVSPost2010Prop28
280
     0
102
RTVSPost2010PropOp28
 70
     1
102
RTVSPost2010Prop29
280
     1
102
RTVSPost2010PropOp29
 70
     1
102
RTVSPost2010Prop30
280
     1
102
RTVSPost2010PropOp30
 70
     1
102
RTVSPost2010Prop31
280
     0
102
RTVSPost2010PropOp31
 70
     1
102
RTVSPost2010Prop32
280
     0
102
RTVSPost2010PropOp32
 70
     1
102
RTVSPost2010Prop33
280
     0
102
RTVSPost2010PropOp33
 70
     1
102
RTVSPost2010Prop34
280
     0
102
RTVSPost2010PropOp34
 70
     1
102
RTVSPost2010Prop35
280
     0
102
RTVSPost2010PropOp35
 70
     1
102
RTVSPost2010Prop36
280
     0
102
RTVSPost2010PropOp36
 70
     1
102
RTVSPost2010Prop37
 90
       50
102
RTVSPost2010PropOp37
 70
     1
102
RTVSPost2010Prop38
140
0.0
102
RTVSPost2010PropOp38
 70
     1
102
RTVSPost2010Prop39
140
1.0
102
RTVSPost2010PropOp39
 70
     1
102
RTVSPost2010Prop40
 90
        0
102
RTVSPost2010PropOp40
 70
     1
102
RTVSPost2010Prop41ColorIndex
 90
       18
102
RTVSPost2010Prop41ColorRGB
 90
        0
102
RTVSPost2010PropOp41
 70
     1
102
RTVSPost2010Prop42
 90
       50
102
RTVSPost2010PropOp42
 70
     1
102
RTVSPost2010Prop43
 90
        3
102
RTVSPost2010PropOp43
 70
     1
102
RTVSPost2010Prop44ColorIndex
 90
        5
102
RTVSPost2010Prop44ColorRGB
 90
      255
102
RTVSPost2010PropOp44
 70
     1
102
RTVSPost2010Prop45
280
     0
102
RTVSPost2010PropOp45
 70
     1
102
RTVSPost2010Prop46
 90
       50
102
RTVSPost2010PropOp46
 70
     1
102
RTVSPost2010Prop47
 90
       50
102
RTVSPost2010PropOp47
 70
     1
102
RTVSPost2010Prop48
 90
       50
102
RTVSPost2010PropOp48
 70
     1
102
RTVSPost2010Prop49
280
     0
102
RTVSPost2010PropOp49
 70
     1
102
RTVSPost2010Prop50
 90
       50
102
RTVSPost2010PropOp50
 70
     1
102
RTVSPost2010Prop51ColorIndex
 90
      256
102
RTVSPost2010Prop51ColorRGB
 90
-16777216
102
RTVSPost2010PropOp51
 70
     0
102
RTVSPost2010Prop52
140
1.0
102
RTVSPost2010PropOp52
 70
     0
102
RTVSPost2010Prop53
 90
        2
102
RTVSPost2010PropOp53
 70
     1
102
RTVSPost2010Prop54
  1
strokes_ogs.tif
102
RTVSPost2010PropOp54
 70
     1
102
RTVSPost2010Prop55
280
     0
102
RTVSPost2010PropOp55
 70
     1
102
RTVSPost2010Prop56
140
1.0
102
RTVSPost2010PropOp56
 70
     1
102
RTVSPost2010Prop57
140
1.0
102
RTVSPost2010PropOp57
 70
     1
102
RTVSPropertyOp0
 70
     1
102
RTVSPropertyOp1
 70
     1
102
RTVSPropertyOp2
 70
     1
102
RTVSPropertyOp3
 70
     1
102
RTVSPropertyOp4
 70
     1
102
RTVSPropertyOp5
 70
     1
102
RTVSPropertyOp6
 70
     1
102
RTVSPropertyOp7
 70
     1
102
RTVSPropertyOp8
 70
     1
102
RTVSPropertyOp9
 70
     1
102
RTVSPropertyOp10
 70
     1
102
RTVSPropertyOp11
 70
     1
102
RTVSPropertyOp12
 70
     1
102
RTVSPropertyOp13
 70
     1
102
RTVSPropertyOp14
 70
     1
102
RTVSPropertyOp15
 70
     1
102
RTVSPropertyOp16
 70
     1
102
RTVSPropertyOp17
 70
     1
102
RTVSPropertyOp18
 70
     1
102
RTVSPropertyOp19
 70
     1
102
RTVSPropertyOp20
 70
     1
102
RTVSPropertyOp21
 70
     1
102
RTVSPropertyOp22
 70
     1
102
RTVSPropertyOp23
 70
     1
102
RTVSPropertyOp24
 70
     1
102
RTVSPropertyOp25
 70
     1
102
RTVSPropertyOp26
 70
     1
102
RTVSPropertyOp27
 70
     1
102
RTVSPropertyOp28
 70
     1
102
RTVSPropertyOp29
 70
     1
102
RTVSPropertyOp30
 70
     1
102
RTVSPropertyOp31
 70
     1
102
RTVSPropertyOp32
 70
     1
102
RTVSPropertyOp33
 70
     1
102
RTVSPropertyOp34
 70
     1
102
RTVSPropertyOp35
 70
     1
102
RTVSPropertyOp36
 70
     1
102
RTVSPropertyOp37
 70
     1
102
RTVSPropertyOp38
 70
     1
102
RTVSPropertyOp39
 70
     1
102
RTVSPropertyOp40
 70
     1
102
RTVSPropertyOp41
 70
     1
102
RTVSPropertyOp42
 70
     1
102
RTVSPropertyOp43
 70
     1
102
RTVSPropertyOp44
 70
     1
102
RTVSPropertyOp45
 70
     1
102
RTVSPropertyOp46
 70
     1
102
RTVSPropertyOp47
 70
     1
102
RTVSPropertyOp48
 70
     1
102
RTVSPropertyOp49
 70
     1
102
RTVSPropertyOp50
 70
     1
102
RTVSPropertyOp51
 70
     0
102
RTVSPropertyOp52
 70
     0
102
RTVSPropertyOp53
 70
     1
102
RTVSPropertyOp54
 70
     1
102
RTVSPropertyOp55
 70
     1
102
RTVSPropertyOp56
 70
     1
102
RTVSPropertyOp57
 70
     1
102
RTVSPropertyOp58
 70
     1
102
RTVSPropertyOp59
 70
     1
102
RTVSPropertyOp60
 70
     1
102
RTVSPropertyOp61
 70
     1
102
RTVSPropertyOp62
 70
     1
  0
XRECORD
  5
9C28
102
{ACAD_REACTORS
330
9C27
102
}
330
9C27
100
AcDbXrecord
280
     1
102
RTVSPost2010Prop28
280
     0
102
RTVSPost2010PropOp28
 70
     1
102
RTVSPost2010Prop29
280
     1
102
RTVSPost2010PropOp29
 70
     1
102
RTVSPost2010Prop30
280
     1
102
RTVSPost2010PropOp30
 70
     1
102
RTVSPost2010Prop31
280
     0
102
RTVSPost2010PropOp31
 70
     1
102
RTVSPost2010Prop32
280
     0
102
RTVSPost2010PropOp32
 70
     1
102
RTVSPost2010Prop33
280
     0
102
RTVSPost2010PropOp33
 70
     1
102
RTVSPost2010Prop34
280
     0
102
RTVSPost2010PropOp34
 70
     1
102
RTVSPost2010Prop35
280
     0
102
RTVSPost2010PropOp35
 70
     1
102
RTVSPost2010Prop36
280
     0
102
RTVSPost2010PropOp36
 70
     1
102
RTVSPost2010Prop37
 90
       50
102
RTVSPost2010PropOp37
 70
     1
102
RTVSPost2010Prop38
140
0.0
102
RTVSPost2010PropOp38
 70
     1
102
RTVSPost2010Prop39
140
1.0
102
RTVSPost2010PropOp39
 70
     1
102
RTVSPost2010Prop40
 90
        0
102
RTVSPost2010PropOp40
 70
     1
102
RTVSPost2010Prop41ColorIndex
 90
       18
102
RTVSPost2010Prop41ColorRGB
 90
        0
102
RTVSPost2010PropOp41
 70
     1
102
RTVSPost2010Prop42
 90
       50
102
RTVSPost2010PropOp42
 70
     1
102
RTVSPost2010Prop43
 90
        3
102
RTVSPost2010PropOp43
 70
     1
102
RTVSPost2010Prop44ColorIndex
 90
        5
102
RTVSPost2010Prop44ColorRGB
 90
      255
102
RTVSPost2010PropOp44
 70
     1
102
RTVSPost2010Prop45
280
     0
102
RTVSPost2010PropOp45
 70
     1
102
RTVSPost2010Prop46
 90
       50
102
RTVSPost2010PropOp46
 70
     1
102
RTVSPost2010Prop47
 90
       50
102
RTVSPost2010PropOp47
 70
     1
102
RTVSPost2010Prop48
 90
       50
102
RTVSPost2010PropOp48
 70
     1
102
RTVSPost2010Prop49
280
     0
102
RTVSPost2010PropOp49
 70
     1
102
RTVSPost2010Prop50
 90
       50
102
RTVSPost2010PropOp50
 70
     1
102
RTVSPost2010Prop51ColorIndex
 90
      256
102
RTVSPost2010Prop51ColorRGB
 90
-16777216
102
RTVSPost2010PropOp51
 70
     0
102
RTVSPost2010Prop52
140
1.0
102
RTVSPost2010PropOp52
 70
     0
102
RTVSPost2010Prop53
 90
        2
102
RTVSPost2010PropOp53
 70
     1
102
RTVSPost2010Prop54
  1
strokes_ogs.tif
102
RTVSPost2010PropOp54
 70
     1
102
RTVSPost2010Prop55
280
     0
102
RTVSPost2010PropOp55
 70
     1
102
RTVSPost2010Prop56
140
1.0
102
RTVSPost2010PropOp56
 70
     1
102
RTVSPost2010Prop57
140
1.0
102
RTVSPost2010PropOp57
 70
     1
102
RTVSPropertyOp0
 70
     1
102
RTVSPropertyOp1
 70
     1
102
RTVSPropertyOp2
 70
     1
102
RTVSPropertyOp3
 70
     1
102
RTVSPropertyOp4
 70
     1
102
RTVSPropertyOp5
 70
     1
102
RTVSPropertyOp6
 70
     1
102
RTVSPropertyOp7
 70
     1
102
RTVSPropertyOp8
 70
     1
102
RTVSPropertyOp9
 70
     1
102
RTVSPropertyOp10
 70
     1
102
RTVSPropertyOp11
 70
     1
102
RTVSPropertyOp12
 70
     1
102
RTVSPropertyOp13
 70
     1
102
RTVSPropertyOp14
 70
     1
102
RTVSPropertyOp15
 70
     1
102
RTVSPropertyOp16
 70
     1
102
RTVSPropertyOp17
 70
     1
102
RTVSPropertyOp18
 70
     1
102
RTVSPropertyOp19
 70
     1
102
RTVSPropertyOp20
 70
     1
102
RTVSPropertyOp21
 70
     1
102
RTVSPropertyOp22
 70
     1
102
RTVSPropertyOp23
 70
     1
102
RTVSPropertyOp24
 70
     1
102
RTVSPropertyOp25
 70
     1
102
RTVSPropertyOp26
 70
     1
102
RTVSPropertyOp27
 70
     1
102
RTVSPropertyOp28
 70
     1
102
RTVSPropertyOp29
 70
     1
102
RTVSPropertyOp30
 70
     1
102
RTVSPropertyOp31
 70
     1
102
RTVSPropertyOp32
 70
     1
102
RTVSPropertyOp33
 70
     1
102
RTVSPropertyOp34
 70
     1
102
RTVSPropertyOp35
 70
     1
102
RTVSPropertyOp36
 70
     1
102
RTVSPropertyOp37
 70
     1
102
RTVSPropertyOp38
 70
     1
102
RTVSPropertyOp39
 70
     1
102
RTVSPropertyOp40
 70
     1
102
RTVSPropertyOp41
 70
     1
102
RTVSPropertyOp42
 70
     1
102
RTVSPropertyOp43
 70
     1
102
RTVSPropertyOp44
 70
     1
102
RTVSPropertyOp45
 70
     1
102
RTVSPropertyOp46
 70
     1
102
RTVSPropertyOp47
 70
     1
102
RTVSPropertyOp48
 70
     1
102
RTVSPropertyOp49
 70
     1
102
RTVSPropertyOp50
 70
     1
102
RTVSPropertyOp51
 70
     0
102
RTVSPropertyOp52
 70
     0
102
RTVSPropertyOp53
 70
     1
102
RTVSPropertyOp54
 70
     1
102
RTVSPropertyOp55
 70
     1
102
RTVSPropertyOp56
 70
     1
102
RTVSPropertyOp57
 70
     1
102
RTVSPropertyOp58
 70
     1
102
RTVSPropertyOp59
 70
     1
102
RTVSPropertyOp60
 70
     1
102
RTVSPropertyOp61
 70
     1
102
RTVSPropertyOp62
 70
     1
  0
XRECORD
  5
9C40
102
{ACAD_REACTORS
330
9C3F
102
}
330
9C3F
100
AcDbXrecord
280
     1
102
RTVSPost2010Prop28
280
     0
102
RTVSPost2010PropOp28
 70
     1
102
RTVSPost2010Prop29
280
     1
102
RTVSPost2010PropOp29
 70
     1
102
RTVSPost2010Prop30
280
     1
102
RTVSPost2010PropOp30
 70
     1
102
RTVSPost2010Prop31
280
     0
102
RTVSPost2010PropOp31
 70
     1
102
RTVSPost2010Prop32
280
     0
102
RTVSPost2010PropOp32
 70
     1
102
RTVSPost2010Prop33
280
     0
102
RTVSPost2010PropOp33
 70
     1
102
RTVSPost2010Prop34
280
     0
102
RTVSPost2010PropOp34
 70
     1
102
RTVSPost2010Prop35
280
     0
102
RTVSPost2010PropOp35
 70
     1
102
RTVSPost2010Prop36
280
     0
102
RTVSPost2010PropOp36
 70
     1
102
RTVSPost2010Prop37
 90
       50
102
RTVSPost2010PropOp37
 70
     1
102
RTVSPost2010Prop38
140
0.0
102
RTVSPost2010PropOp38
 70
     1
102
RTVSPost2010Prop39
140
1.0
102
RTVSPost2010PropOp39
 70
     1
102
RTVSPost2010Prop40
 90
        0
102
RTVSPost2010PropOp40
 70
     1
102
RTVSPost2010Prop41ColorIndex
 90
       18
102
RTVSPost2010Prop41ColorRGB
 90
        0
102
RTVSPost2010PropOp41
 70
     1
102
RTVSPost2010Prop42
 90
       50
102
RTVSPost2010PropOp42
 70
     1
102
RTVSPost2010Prop43
 90
        3
102
RTVSPost2010PropOp43
 70
     1
102
RTVSPost2010Prop44ColorIndex
 90
        5
102
RTVSPost2010Prop44ColorRGB
 90
      255
102
RTVSPost2010PropOp44
 70
     1
102
RTVSPost2010Prop45
280
     0
102
RTVSPost2010PropOp45
 70
     1
102
RTVSPost2010Prop46
 90
       50
102
RTVSPost2010PropOp46
 70
     1
102
RTVSPost2010Prop47
 90
       50
102
RTVSPost2010PropOp47
 70
     1
102
RTVSPost2010Prop48
 90
       50
102
RTVSPost2010PropOp48
 70
     1
102
RTVSPost2010Prop49
280
     0
102
RTVSPost2010PropOp49
 70
     1
102
RTVSPost2010Prop50
 90
       50
102
RTVSPost2010PropOp50
 70
     1
102
RTVSPost2010Prop51ColorIndex
 90
      256
102
RTVSPost2010Prop51ColorRGB
 90
-16777216
102
RTVSPost2010PropOp51
 70
     0
102
RTVSPost2010Prop52
140
1.0
102
RTVSPost2010PropOp52
 70
     0
102
RTVSPost2010Prop53
 90
        2
102
RTVSPost2010PropOp53
 70
     1
102
RTVSPost2010Prop54
  1
strokes_ogs.tif
102
RTVSPost2010PropOp54
 70
     1
102
RTVSPost2010Prop55
280
     0
102
RTVSPost2010PropOp55
 70
     1
102
RTVSPost2010Prop56
140
1.0
102
RTVSPost2010PropOp56
 70
     1
102
RTVSPost2010Prop57
140
1.0
102
RTVSPost2010PropOp57
 70
     1
102
RTVSPropertyOp0
 70
     1
102
RTVSPropertyOp1
 70
     1
102
RTVSPropertyOp2
 70
     1
102
RTVSPropertyOp3
 70
     1
102
RTVSPropertyOp4
 70
     1
102
RTVSPropertyOp5
 70
     1
102
RTVSPropertyOp6
 70
     1
102
RTVSPropertyOp7
 70
     1
102
RTVSPropertyOp8
 70
     1
102
RTVSPropertyOp9
 70
     1
102
RTVSPropertyOp10
 70
     1
102
RTVSPropertyOp11
 70
     1
102
RTVSPropertyOp12
 70
     1
102
RTVSPropertyOp13
 70
     1
102
RTVSPropertyOp14
 70
     1
102
RTVSPropertyOp15
 70
     1
102
RTVSPropertyOp16
 70
     1
102
RTVSPropertyOp17
 70
     1
102
RTVSPropertyOp18
 70
     1
102
RTVSPropertyOp19
 70
     1
102
RTVSPropertyOp20
 70
     1
102
RTVSPropertyOp21
 70
     1
102
RTVSPropertyOp22
 70
     1
102
RTVSPropertyOp23
 70
     1
102
RTVSPropertyOp24
 70
     1
102
RTVSPropertyOp25
 70
     1
102
RTVSPropertyOp26
 70
     1
102
RTVSPropertyOp27
 70
     1
102
RTVSPropertyOp28
 70
     1
102
RTVSPropertyOp29
 70
     1
102
RTVSPropertyOp30
 70
     1
102
RTVSPropertyOp31
 70
     1
102
RTVSPropertyOp32
 70
     1
102
RTVSPropertyOp33
 70
     1
102
RTVSPropertyOp34
 70
     1
102
RTVSPropertyOp35
 70
     1
102
RTVSPropertyOp36
 70
     1
102
RTVSPropertyOp37
 70
     1
102
RTVSPropertyOp38
 70
     1
102
RTVSPropertyOp39
 70
     1
102
RTVSPropertyOp40
 70
     1
102
RTVSPropertyOp41
 70
     1
102
RTVSPropertyOp42
 70
     1
102
RTVSPropertyOp43
 70
     1
102
RTVSPropertyOp44
 70
     1
102
RTVSPropertyOp45
 70
     1
102
RTVSPropertyOp46
 70
     1
102
RTVSPropertyOp47
 70
     1
102
RTVSPropertyOp48
 70
     1
102
RTVSPropertyOp49
 70
     1
102
RTVSPropertyOp50
 70
     1
102
RTVSPropertyOp51
 70
     0
102
RTVSPropertyOp52
 70
     0
102
RTVSPropertyOp53
 70
     1
102
RTVSPropertyOp54
 70
     1
102
RTVSPropertyOp55
 70
     1
102
RTVSPropertyOp56
 70
     1
102
RTVSPropertyOp57
 70
     1
102
RTVSPropertyOp58
 70
     1
102
RTVSPropertyOp59
 70
     1
102
RTVSPropertyOp60
 70
     1
102
RTVSPropertyOp61
 70
     1
102
RTVSPropertyOp62
 70
     1
  0
ENDSEC
  0
EOF
