  0
SECTION
  2
HEADER
  9
$ACADVER
  1
AC1015
  9
$ACADMAINTVER
 70
    20
  9
$DWGCODEPAGE
  3
ANSI_932
  9
$INSBASE
 10
0.0
 20
0.0
 30
0.0
  9
$EXTMIN
 10
8.97418
 20
9.999999999999998
 30
0.0
  9
$EXTMAX
 10
480.534
 20
297.658
 30
0.0
  9
$LIMMIN
 10
0.0
 20
0.0
  9
$LIMMAX
 10
495.0
 20
341.25
  9
$ORTHOMODE
 70
     1
  9
$REGENMODE
 70
     1
  9
$FILLMODE
 70
     1
  9
$QTEXTMODE
 70
     0
  9
$MIRRTEXT
 70
     1
  9
$LTSCALE
 40
20.0
  9
$ATTMODE
 70
     1
  9
$TEXTSIZE
 40
5.0
  9
$TRACEWID
 40
1.0
  9
$TEXTSTYLE
  7
STANDARD
  9
$CLAYER
  8
0
  9
$CELTYPE
  6
BYLAYER
  9
$CECOLOR
 62
   256
  9
$CELTSCALE
 40
1.0
  9
$DISPSILH
 70
     0
  9
$DIMSCALE
 40
1.0
  9
$DIMASZ
 40
3.0
  9
$DIMEXO
 40
1.0
  9
$DIMDLI
 40
10.0
  9
$DIMRND
 40
0.0
  9
$DIMDLE
 40
0.0
  9
$DIMEXE
 40
1.0
  9
$DIMTP
 40
0.0
  9
$DIMTM
 40
0.0
  9
$DIMTXT
 40
3.2
  9
$DIMCEN
 40
0.0
  9
$DIMTSZ
 40
0.0
  9
$DIMTOL
 70
     0
  9
$DIMLIM
 70
     0
  9
$DIMTIH
 70
     0
  9
$DIMTOH
 70
     0
  9
$DIMSE1
 70
     0
  9
$DIMSE2
 70
     0
  9
$DIMTAD
 70
     3
  9
$DIMZIN
 70
     8
  9
$DIMBLK
  1

  9
$DIMASO
 70
     1
  9
$DIMSHO
 70
     1
  9
$DIMPOST
  1

  9
$DIMAPOST
  1

  9
$DIMALT
 70
     0
  9
$DIMALTD
 70
     2
  9
$DIMALTF
 40
25.4
  9
$DIMLFAC
 40
1.0
  9
$DIMTOFL
 70
     1
  9
$DIMTVP
 40
0.0
  9
$DIMTIX
 70
     0
  9
$DIMSOXD
 70
     0
  9
$DIMSAH
 70
     1
  9
$DIMBLK1
  1

  9
$DIMBLK2
  1

  9
$DIMSTYLE
  2
STANDARD
  9
$DIMCLRD
 70
     0
  9
$DIMCLRE
 70
     0
  9
$DIMCLRT
 70
     0
  9
$DIMTFAC
 40
1.0
  9
$DIMGAP
 40
1.0
  9
$DIMJUST
 70
     0
  9
$DIMSD1
 70
     0
  9
$DIMSD2
 70
     0
  9
$DIMTOLJ
 70
     1
  9
$DIMTZIN
 70
     0
  9
$DIMALTZ
 70
     0
  9
$DIMALTTZ
 70
     0
  9
$DIMUPT
 70
     0
  9
$DIMDEC
 70
     4
  9
$DIMTDEC
 70
     4
  9
$DIMALTU
 70
     2
  9
$DIMALTTD
 70
     2
  9
$DIMTXSTY
  7
STANDARD
  9
$DIMAUNIT
 70
     0
  9
$DIMADEC
 70
     0
  9
$DIMALTRND
 40
0.0
  9
$DIMAZIN
 70
     0
  9
$DIMDSEP
 70
    46
  9
$DIMATFIT
 70
     3
  9
$DIMFRAC
 70
     0
  9
$DIMLDRBLK
  1

  9
$DIMLUNIT
 70
     2
  9
$DIMLWD
 70
    -2
  9
$DIMLWE
 70
    -2
  9
$DIMTMOVE
 70
     0
  9
$LUNITS
 70
     2
  9
$LUPREC
 70
     4
  9
$SKETCHINC
 40
1.0
  9
$FILLETRAD
 40
0.0
  9
$AUNITS
 70
     0
  9
$AUPREC
 70
     2
  9
$MENU
  1
.
  9
$ELEVATION
 40
0.0
  9
$PELEVATION
 40
0.0
  9
$THICKNESS
 40
0.0
  9
$LIMCHECK
 70
     0
  9
$CHAMFERA
 40
10.0
  9
$CHAMFERB
 40
10.0
  9
$CHAMFERC
 40
0.0
  9
$CHAMFERD
 40
0.0
  9
$SKPOLY
 70
     0
  9
$TDCREATE
 40
2450737.662348612
  9
$TDUCREATE
 40
2450737.287348611
  9
$TDUPDATE
 40
2457192.640146817
  9
$TDUUPDATE
 40
2457192.265146817
  9
$TDINDWG
 40
0.0000146991
  9
$TDUSRTIMER
 40
0.0000143866
  9
$USRTIMER
 70
     1
  9
$ANGBASE
 50
0.0
  9
$ANGDIR
 70
     0
  9
$PDMODE
 70
     0
  9
$PDSIZE
 40
0.0
  9
$PLINEWID
 40
0.0
  9
$SPLFRAME
 70
     0
  9
$SPLINETYPE
 70
     6
  9
$SPLINESEGS
 70
     8
  9
$HANDSEED
  5
9A19
  9
$SURFTAB1
 70
     6
  9
$SURFTAB2
 70
     6
  9
$SURFTYPE
 70
     6
  9
$SURFU
 70
     6
  9
$SURFV
 70
     6
  9
$UCSBASE
  2

  9
$UCSNAME
  2

  9
$UCSORG
 10
0.0
 20
0.0
 30
0.0
  9
$UCSXDIR
 10
1.0
 20
0.0
 30
0.0
  9
$UCSYDIR
 10
0.0
 20
1.0
 30
0.0
  9
$UCSORTHOREF
  2

  9
$UCSORTHOVIEW
 70
     0
  9
$UCSORGTOP
 10
0.0
 20
0.0
 30
0.0
  9
$UCSORGBOTTOM
 10
0.0
 20
0.0
 30
0.0
  9
$UCSORGLEFT
 10
0.0
 20
0.0
 30
0.0
  9
$UCSORGRIGHT
 10
0.0
 20
0.0
 30
0.0
  9
$UCSORGFRONT
 10
0.0
 20
0.0
 30
0.0
  9
$UCSORGBACK
 10
0.0
 20
0.0
 30
0.0
  9
$PUCSBASE
  2

  9
$PUCSNAME
  2

  9
$PUCSORG
 10
0.0
 20
0.0
 30
0.0
  9
$PUCSXDIR
 10
1.0
 20
0.0
 30
0.0
  9
$PUCSYDIR
 10
0.0
 20
1.0
 30
0.0
  9
$PUCSORTHOREF
  2

  9
$PUCSORTHOVIEW
 70
     0
  9
$PUCSORGTOP
 10
0.0
 20
0.0
 30
0.0
  9
$PUCSORGBOTTOM
 10
0.0
 20
0.0
 30
0.0
  9
$PUCSORGLEFT
 10
0.0
 20
0.0
 30
0.0
  9
$PUCSORGRIGHT
 10
0.0
 20
0.0
 30
0.0
  9
$PUCSORGFRONT
 10
0.0
 20
0.0
 30
0.0
  9
$PUCSORGBACK
 10
0.0
 20
0.0
 30
0.0
  9
$USERI1
 70
     0
  9
$USERI2
 70
     0
  9
$USERI3
 70
     0
  9
$USERI4
 70
     0
  9
$USERI5
 70
     0
  9
$USERR1
 40
0.0
  9
$USERR2
 40
0.0
  9
$USERR3
 40
0.0
  9
$USERR4
 40
0.0
  9
$USERR5
 40
0.0
  9
$WORLDVIEW
 70
     1
  9
$SHADEDGE
 70
     3
  9
$SHADEDIF
 70
    70
  9
$TILEMODE
 70
     1
  9
$MAXACTVP
 70
    16
  9
$PINSBASE
 10
0.0
 20
0.0
 30
0.0
  9
$PLIMCHECK
 70
     0
  9
$PEXTMIN
 10
1.000000000000000E+20
 20
1.000000000000000E+20
 30
1.000000000000000E+20
  9
$PEXTMAX
 10
-1.000000000000000E+20
 20
-1.000000000000000E+20
 30
-1.000000000000000E+20
  9
$PLIMMIN
 10
0.0
 20
0.0
  9
$PLIMMAX
 10
420.0
 20
297.0
  9
$UNITMODE
 70
     0
  9
$VISRETAIN
 70
     0
  9
$PLINEGEN
 70
     0
  9
$PSLTSCALE
 70
     0
  9
$TREEDEPTH
 70
  3020
  9
$CMLSTYLE
  2
STANDARD
  9
$CMLJUST
 70
     0
  9
$CMLSCALE
 40
1.0
  9
$PROXYGRAPHICS
 70
     1
  9
$MEASUREMENT
 70
     0
  9
$CELWEIGHT
370
    -1
  9
$ENDCAPS
280
     0
  9
$JOINSTYLE
280
     0
  9
$LWDISPLAY
290
     0
  9
$INSUNITS
 70
     0
  9
$HYPERLINKBASE
  1

  9
$STYLESHEET
  1

  9
$XEDIT
290
     1
  9
$CEPSNTYPE
380
     0
  9
$PSTYLEMODE
290
     1
  9
$FINGERPRINTGUID
  2
{E103F3DC-DD52-47EC-B568-048C370B0981}
  9
$VERSIONGUID
  2
{1B91EF9D-2078-4FCE-B10B-06BD739ABD06}
  9
$EXTNAMES
290
     1
  9
$PSVPSCALE
 40
0.0
  9
$OLESTARTUP
290
     0
  0
ENDSEC
  0
SECTION
  2
CLASSES
  0
CLASS
  1
ACDBDICTIONARYWDFLT
  2
AcDbDictionaryWithDefault
  3
ObjectDBX Classes
 90
        0
280
     0
281
     0
  0
CLASS
  1
ACDBPLACEHOLDER
  2
AcDbPlaceHolder
  3
ObjectDBX Classes
 90
        0
280
     0
281
     0
  0
CLASS
  1
LAYOUT
  2
AcDbLayout
  3
ObjectDBX Classes
 90
        0
280
     0
281
     0
  0
CLASS
  1
DICTIONARYVAR
  2
AcDbDictionaryVar
  3
ObjectDBX Classes
 90
        0
280
     0
281
     0
  0
CLASS
  1
MATERIAL
  2
AcDbMaterial
  3
ObjectDBX Classes
 90
     1153
280
     0
281
     0
  0
CLASS
  1
VISUALSTYLE
  2
AcDbVisualStyle
  3
ObjectDBX Classes
 90
     4095
280
     0
281
     0
  0
CLASS
  1
TABLESTYLE
  2
AcDbTableStyle
  3
ObjectDBX Classes
 90
     4095
280
     0
281
     0
  0
CLASS
  1
SCALE
  2
AcDbScale
  3
ObjectDBX Classes
 90
     1153
280
     0
281
     0
  0
CLASS
  1
MLEADERSTYLE
  2
AcDbMLeaderStyle
  3
ACDB_MLEADERSTYLE_CLASS
 90
     4095
280
     0
281
     0
  0
CLASS
  1
ACDBSECTIONVIEWSTYLE
  2
AcDbSectionViewStyle
  3
ObjectDBX Classes
 90
     1025
280
     0
281
     0
  0
CLASS
  1
ACDBDETAILVIEWSTYLE
  2
AcDbDetailViewStyle
  3
ObjectDBX Classes
 90
     1025
280
     0
281
     0
  0
CLASS
  1
CELLSTYLEMAP
  2
AcDbCellStyleMap
  3
ObjectDBX Classes
 90
     1152
280
     0
281
     0
  0
ENDSEC
  0
SECTION
  2
TABLES
  0
TABLE
  2
VPORT
  5
970B
330
0
100
AcDbSymbolTable
 70
     1
  0
VPORT
  5
9962
330
970B
100
AcDbSymbolTableRecord
100
AcDbViewportTableRecord
  2
*ACTIVE
 70
     0
 10
0.0
 20
0.0
 11
1.0
 21
1.0
 12
331.8981612973051
 22
153.8322265745456
 13
0.0
 23
0.0
 14
10.0
 24
10.0
 15
10.0
 25
10.0
 16
0.0
 26
0.0
 36
1.0
 17
0.0
 27
0.0
 37
0.0
 40
290.9078095375242
 41
1.899603698811096
 42
50.0
 43
0.0
 44
0.0
 50
0.0
 51
0.0
 71
     0
 72
   100
 73
     1
 74
     0
 75
     0
 76
     0
 77
     0
 78
     0
281
     0
 65
     1
110
0.0
120
0.0
130
0.0
111
1.0
121
0.0
131
0.0
112
0.0
122
1.0
132
0.0
 79
     0
146
0.0
1001
ACAD_NAV_VCDISPLAY
1070
     3
  0
ENDTAB
  0
TABLE
  2
LTYPE
  5
9708
330
0
100
AcDbSymbolTable
 70
     4
  0
LTYPE
  5
9716
330
9708
100
AcDbSymbolTableRecord
100
AcDbLinetypeTableRecord
  2
BYBLOCK
 70
     0
  3

 72
    65
 73
     0
 40
0.0
  0
LTYPE
  5
9717
330
9708
100
AcDbSymbolTableRecord
100
AcDbLinetypeTableRecord
  2
BYLAYER
 70
     0
  3

 72
    65
 73
     0
 40
0.0
  0
LTYPE
  5
9718
330
9708
100
AcDbSymbolTableRecord
100
AcDbLinetypeTableRecord
  2
CONTINUOUS
 70
     0
  3
Solid line
 72
    65
 73
     0
 40
0.0
  0
LTYPE
  5
9726
330
9708
100
AcDbSymbolTableRecord
100
AcDbLinetypeTableRecord
  2
DASHED
 70
     0
  3
__ __ __ __ __ __ __ __ __ __ __ __ __ __ __ __
 72
    65
 73
     2
 40
0.75
 49
0.5
 74
     0
 49
-0.25
 74
     0
  0
LTYPE
  5
9727
330
9708
100
AcDbSymbolTableRecord
100
AcDbLinetypeTableRecord
  2
CENTER
 70
     0
  3
____ _ ____ _ ____ _ ____ _ ____ _ ____ _ ____ 
 72
    65
 73
     4
 40
2.0
 49
1.25
 74
     0
 49
-0.25
 74
     0
 49
0.25
 74
     0
 49
-0.25
 74
     0
  0
LTYPE
  5
9728
330
9708
100
AcDbSymbolTableRecord
100
AcDbLinetypeTableRecord
  2
PHANTOM
 70
     0
  3
______  __  __  ______  __  __  ______  __  __ 
 72
    65
 73
     6
 40
2.5
 49
1.25
 74
     0
 49
-0.25
 74
     0
 49
0.25
 74
     0
 49
-0.25
 74
     0
 49
0.25
 74
     0
 49
-0.25
 74
     0
  0
ENDTAB
  0
TABLE
  2
LAYER
  5
9705
330
0
100
AcDbSymbolTable
 70
     8
  0
LAYER
  5
9713
102
{ACAD_XDICTIONARY
360
99BD
102
}
330
9705
100
AcDbSymbolTableRecord
100
AcDbLayerTableRecord
  2
0
 70
     0
 62
     7
  6
CONTINUOUS
370
    -3
390
996B
  0
LAYER
  5
9729
102
{ACAD_XDICTIONARY
360
99BF
102
}
330
9705
100
AcDbSymbolTableRecord
100
AcDbLayerTableRecord
  2
4
 70
     0
 62
     1
  6
CENTER
370
    -3
390
996B
  0
LAYER
  5
972A
102
{ACAD_XDICTIONARY
360
99C1
102
}
330
9705
100
AcDbSymbolTableRecord
100
AcDbLayerTableRecord
  2
5
 70
     0
 62
     6
  6
PHANTOM
370
    -3
390
996B
  0
LAYER
  5
972B
102
{ACAD_XDICTIONARY
360
99C3
102
}
330
9705
100
AcDbSymbolTableRecord
100
AcDbLayerTableRecord
  2
1
 70
     0
 62
     7
  6
CONTINUOUS
370
    -3
390
996B
  0
LAYER
  5
972C
102
{ACAD_XDICTIONARY
360
99C5
102
}
330
9705
100
AcDbSymbolTableRecord
100
AcDbLayerTableRecord
  2
2
 70
     0
 62
     4
  6
CONTINUOUS
370
    -3
390
996B
  0
LAYER
  5
972D
102
{ACAD_XDICTIONARY
360
99C7
102
}
330
9705
100
AcDbSymbolTableRecord
100
AcDbLayerTableRecord
  2
3
 70
     0
 62
     2
  6
DASHED
370
    -3
390
996B
  0
LAYER
  5
972E
102
{ACAD_XDICTIONARY
360
99C9
102
}
330
9705
100
AcDbSymbolTableRecord
100
AcDbLayerTableRecord
  2
6
 70
     0
 62
     5
  6
CONTINUOUS
370
    -3
390
996B
  0
LAYER
  5
972F
102
{ACAD_XDICTIONARY
360
99CB
102
}
330
9705
100
AcDbSymbolTableRecord
100
AcDbLayerTableRecord
  2
7
 70
     0
 62
     3
  6
CONTINUOUS
370
    -3
390
996B
  0
ENDTAB
  0
TABLE
  2
STYLE
  5
9706
330
0
100
AcDbSymbolTable
 70
     1
  0
STYLE
  5
9714
330
9706
100
AcDbSymbolTableRecord
100
AcDbTextStyleTableRecord
  2
STANDARD
 70
     0
 40
0.0
 41
1.0
 50
0.0
 71
     0
 42
5.0
  3
txt
  4

  0
ENDTAB
  0
TABLE
  2
VIEW
  5
9709
330
0
100
AcDbSymbolTable
 70
     0
  0
ENDTAB
  0
TABLE
  2
UCS
  5
970A
330
0
100
AcDbSymbolTable
 70
     0
  0
ENDTAB
  0
TABLE
  2
APPID
  5
970C
330
0
100
AcDbSymbolTable
 70
     3
  0
APPID
  5
9715
330
970C
100
AcDbSymbolTableRecord
100
AcDbRegAppTableRecord
  2
ACAD
 70
     0
  0
APPID
  5
99D7
330
970C
100
AcDbSymbolTableRecord
100
AcDbRegAppTableRecord
  2
ACAD_NAV_VCDISPLAY
 70
     0
  0
APPID
  5
9A10
330
970C
100
AcDbSymbolTableRecord
100
AcDbRegAppTableRecord
  2
ACAD_MLEADERVER
 70
     0
  0
ENDTAB
  0
TABLE
  2
DIMSTYLE
  5
970D
330
0
100
AcDbSymbolTable
 70
     1
100
AcDbDimStyleTable
 71
     0
  0
DIMSTYLE
105
9731
330
970D
100
AcDbSymbolTableRecord
100
AcDbDimStyleTableRecord
  2
STANDARD
 70
     0
 41
3.0
 42
1.0
 43
10.0
 44
1.0
 73
     0
 74
     0
 77
     3
 78
     8
140
3.2
141
0.0
147
1.0
172
     1
173
     1
284
     8
285
     8
286
     8
340
9714
  0
ENDTAB
  0
TABLE
  2
BLOCK_RECORD
  5
9704
330
0
100
AcDbSymbolTable
 70
     0
  0
BLOCK_RECORD
  5
9721
102
{ACAD_XDICTIONARY
360
9965
102
}
330
9704
100
AcDbSymbolTableRecord
100
AcDbBlockTableRecord
  2
*MODEL_SPACE
340
99B9
  0
BLOCK_RECORD
  5
971D
102
{ACAD_XDICTIONARY
360
9963
102
}
330
9704
100
AcDbSymbolTableRecord
100
AcDbBlockTableRecord
  2
*PAPER_SPACE
340
99BA
  0
ENDTAB
  0
ENDSEC
  0
SECTION
  2
BLOCKS
  0
BLOCK
  5
9722
330
9721
100
AcDbEntity
  8
0
100
AcDbBlockBegin
  2
*MODEL_SPACE
 70
     0
 10
0.0
 20
0.0
 30
0.0
  3
*MODEL_SPACE
  1

  0
ENDBLK
  5
9723
330
9721
100
AcDbEntity
  8
0
100
AcDbBlockEnd
  0
BLOCK
  5
971E
330
971D
100
AcDbEntity
 67
     1
  8
0
100
AcDbBlockBegin
  2
*PAPER_SPACE
 70
     0
 10
0.0
 20
0.0
 30
0.0
  3
*PAPER_SPACE
  1

  0
ENDBLK
  5
971F
330
971D
100
AcDbEntity
 67
     1
  8
0
100
AcDbBlockEnd
  0
ENDSEC
  0
SECTION
  2
ENTITIES
  0
TEXT
  5
9739
330
9721
100
AcDbEntity
  8
7
  6
Continuous
100
AcDbText
 10
10.0
 20
18.0
 30
0.0
 40
3.0
  1
TYPE No.THA-281-3
100
AcDbText
  0
TEXT
  5
973A
330
9721
100
AcDbEntity
  8
7
  6
Continuous
100
AcDbText
 10
10.0
 20
26.0
 30
0.0
 40
3.0
  1
CODE No.3222
100
AcDbText
  0
TEXT
  5
973B
330
9721
100
AcDbEntity
  8
1
  6
Continuous
100
AcDbText
 10
10.0
 20
10.0
 30
0.0
 40
1.399999999999999
  1
LAYER
100
AcDbText
  0
TEXT
  5
973C
330
9721
100
AcDbEntity
  8
1
  6
Continuous
100
AcDbText
 10
17.97951099999998
 20
10.04873699999998
 30
0.0
 40
1.399999999999999
  1
1
100
AcDbText
  0
TEXT
  5
973D
330
9721
100
AcDbEntity
  8
7
  6
Continuous
100
AcDbText
 10
29.97951099999999
 20
10.04873699999998
 30
0.0
 40
1.399999999999999
  1
7
100
AcDbText
  0
TEXT
  5
973E
330
9721
100
AcDbEntity
  8
4
  6
CENTER
100
AcDbText
 10
23.97951099999999
 20
10.04873699999998
 30
0.0
 40
1.399999999999999
  1
4
100
AcDbText
  0
TEXT
  5
973F
330
9721
100
AcDbEntity
  8
3
  6
DASHED
100
AcDbText
 10
21.979511
 20
10.04873699999998
 30
0.0
 40
1.399999999999999
  1
3
100
AcDbText
  0
TEXT
  5
9740
330
9721
100
AcDbEntity
  8
2
  6
Continuous
100
AcDbText
 10
19.97951099999999
 20
10.04873699999998
 30
0.0
 40
1.399999999999999
  1
2
100
AcDbText
  0
TEXT
  5
9741
330
9721
100
AcDbEntity
  8
6
  6
Continuous
100
AcDbText
 10
27.979511
 20
10.04873699999998
 30
0.0
 40
1.399999999999999
  1
6
100
AcDbText
  0
TEXT
  5
9742
330
9721
100
AcDbEntity
  8
5
  6
PHANTOM
100
AcDbText
 10
25.97951099999999
 20
10.04873699999998
 30
0.0
 40
1.399999999999999
  1
5
100
AcDbText
  0
LINE
  5
9743
330
9721
100
AcDbEntity
  8
4
  6
CENTER
100
AcDbLine
 10
393.283
 20
105.413
 30
0.0
 11
278.5439999999999
 21
105.413
 31
0.0
  0
LINE
  5
9744
330
9721
100
AcDbEntity
  8
4
  6
CENTER
100
AcDbLine
 10
328.3309999999999
 20
47.54249999999998
 30
0.0
 11
328.3309999999999
 21
163.9929999999999
 31
0.0
  0
LINE
  5
9745
330
9721
100
AcDbEntity
  8
4
  6
CENTER
100
AcDbLine
 10
345.8309999999999
 20
52.6072
 30
0.0
 11
345.8309999999999
 21
157.66
 31
0.0
  0
LINE
  5
9746
330
9721
100
AcDbEntity
  8
1
  6
Continuous
100
AcDbLine
 10
356.3309999999999
 20
67.4131
 30
0.0
 11
356.3309999999999
 21
143.4129999999998
 31
0.0
  0
LINE
  5
9747
330
9721
100
AcDbEntity
  8
1
  6
Continuous
100
AcDbLine
 10
356.3309999999999
 20
143.4129999999998
 30
0.0
 11
304.565
 21
143.4129999999998
 31
0.0
  0
LINE
  5
9748
330
9721
100
AcDbEntity
  8
1
  6
Continuous
100
AcDbLine
 10
356.3309999999999
 20
67.4131
 30
0.0
 11
304.565
 21
67.4131
 31
0.0
  0
LINE
  5
9749
330
9721
100
AcDbEntity
  8
1
  6
Continuous
100
AcDbLine
 10
356.3309999999999
 20
100.913
 30
0.0
 11
355.8309999999999
 21
100.913
 31
0.0
  0
LINE
  5
974A
330
9721
100
AcDbEntity
  8
1
  6
Continuous
100
AcDbLine
 10
356.3309999999999
 20
109.9129999999999
 30
0.0
 11
355.8309999999999
 21
109.9129999999999
 31
0.0
  0
LINE
  5
974B
330
9721
100
AcDbEntity
  8
1
  6
Continuous
100
AcDbLine
 10
354.3309999999999
 20
67.4131
 30
0.0
 11
354.3309999999999
 21
67.9131
 31
0.0
  0
LINE
  5
974C
330
9721
100
AcDbEntity
  8
1
  6
Continuous
100
AcDbLine
 10
354.3309999999999
 20
142.9129999999998
 30
0.0
 11
354.3309999999999
 21
143.4129999999998
 31
0.0
  0
LINE
  5
974D
330
9721
100
AcDbEntity
  8
1
  6
Continuous
100
AcDbLine
 10
350.8309999999998
 20
67.4131
 30
0.0
 11
350.8309999999998
 21
67.9131
 31
0.0
  0
LINE
  5
974E
330
9721
100
AcDbEntity
  8
1
  6
Continuous
100
AcDbLine
 10
336.8309999999999
 20
67.4131
 30
0.0
 11
336.8309999999999
 21
67.9131
 31
0.0
  0
LINE
  5
974F
330
9721
100
AcDbEntity
  8
1
  6
Continuous
100
AcDbLine
 10
340.8309999999999
 20
67.4131
 30
0.0
 11
340.8309999999999
 21
67.9131
 31
0.0
  0
LINE
  5
9750
330
9721
100
AcDbEntity
  8
1
  6
Continuous
100
AcDbLine
 10
350.8309999999998
 20
142.9129999999998
 30
0.0
 11
350.8309999999998
 21
143.4129999999998
 31
0.0
  0
LINE
  5
9751
330
9721
100
AcDbEntity
  8
1
  6
Continuous
100
AcDbLine
 10
340.8309999999999
 20
142.9129999999998
 30
0.0
 11
340.8309999999999
 21
143.4129999999998
 31
0.0
  0
LINE
  5
9752
330
9721
100
AcDbEntity
  8
1
  6
Continuous
100
AcDbLine
 10
336.8309999999999
 20
142.9129999999998
 30
0.0
 11
336.8309999999999
 21
143.4129999999998
 31
0.0
  0
LINE
  5
9753
330
9721
100
AcDbEntity
  8
4
  6
CENTER
100
AcDbLine
 10
242.009
 20
105.413
 30
0.0
 11
194.054
 21
105.413
 31
0.0
  0
LINE
  5
9754
330
9721
100
AcDbEntity
  8
1
  6
Continuous
100
AcDbLine
 10
230.1289999999999
 20
59.4131
 30
0.0
 11
230.1289999999999
 21
151.4129999999999
 31
0.0
  0
LINE
  5
9755
330
9721
100
AcDbEntity
  8
1
  6
Continuous
100
AcDbLine
 10
232.179
 20
151.4129999999999
 30
0.0
 11
230.1289999999999
 21
151.4129999999999
 31
0.0
  0
LINE
  5
9756
330
9721
100
AcDbEntity
  8
1
  6
Continuous
100
AcDbLine
 10
232.179
 20
59.4131
 30
0.0
 11
230.1289999999999
 21
59.4131
 31
0.0
  0
LINE
  5
9757
330
9721
100
AcDbEntity
  8
1
  6
Continuous
100
AcDbLine
 10
230.1289999999999
 20
64.9131
 30
0.0
 11
221.329
 21
64.9131
 31
0.0
  0
LINE
  5
9758
330
9721
100
AcDbEntity
  8
1
  6
Continuous
100
AcDbLine
 10
230.1289999999999
 20
145.9129999999998
 30
0.0
 11
221.329
 21
145.9129999999998
 31
0.0
  0
LINE
  5
9759
330
9721
100
AcDbEntity
  8
1
  6
Continuous
100
AcDbLine
 10
213.329
 20
72.9131
 30
0.0
 11
213.329
 21
80.41310000000001
 31
0.0
  0
LINE
  5
975A
330
9721
100
AcDbEntity
  8
1
  6
Continuous
100
AcDbLine
 10
207.1289999999999
 20
95.8131
 30
0.0
 11
203.1289999999999
 21
95.8131
 31
0.0
  0
LINE
  5
975B
330
9721
100
AcDbEntity
  8
1
  6
Continuous
100
AcDbLine
 10
207.1289999999999
 20
115.0129999999999
 30
0.0
 11
203.1289999999999
 21
115.0129999999999
 31
0.0
  0
LINE
  5
975C
330
9721
100
AcDbEntity
  8
4
  6
CENTER
100
AcDbLine
 10
216.6409999999999
 20
75.4131
 30
0.0
 11
197.743
 21
75.4131
 31
0.0
  0
LINE
  5
975D
330
9721
100
AcDbEntity
  8
4
  6
CENTER
100
AcDbLine
 10
216.6409999999999
 20
135.4129999999998
 30
0.0
 11
198.821
 21
135.4129999999998
 31
0.0
  0
LINE
  5
975E
330
9721
100
AcDbEntity
  8
1
  6
Continuous
100
AcDbLine
 10
213.729
 20
140.4129999999998
 30
0.0
 11
203.1289999999999
 21
140.4129999999998
 31
0.0
  0
LINE
  5
975F
330
9721
100
AcDbEntity
  8
1
  6
Continuous
100
AcDbLine
 10
213.729
 20
70.4131
 30
0.0
 11
203.1289999999999
 21
70.4131
 31
0.0
  0
LINE
  5
9760
330
9721
100
AcDbEntity
  8
4
  6
CENTER
100
AcDbLine
 10
435.889
 20
105.413
 30
0.0
 11
480.534
 21
105.413
 31
0.0
  0
LINE
  5
9761
330
9721
100
AcDbEntity
  8
1
  6
Continuous
100
AcDbLine
 10
446.534
 20
59.4131
 30
0.0
 11
446.534
 21
151.4129999999999
 31
0.0
  0
LINE
  5
9762
330
9721
100
AcDbEntity
  8
1
  6
Continuous
100
AcDbLine
 10
444.484
 20
151.4129999999999
 30
0.0
 11
446.534
 21
151.4129999999999
 31
0.0
  0
LINE
  5
9763
330
9721
100
AcDbEntity
  8
1
  6
Continuous
100
AcDbLine
 10
444.484
 20
59.4131
 30
0.0
 11
446.534
 21
59.4131
 31
0.0
  0
LINE
  5
9764
330
9721
100
AcDbEntity
  8
1
  6
Continuous
100
AcDbLine
 10
454.534
 20
67.4131
 30
0.0
 11
454.534
 21
100.913
 31
0.0
  0
LINE
  5
9765
330
9721
100
AcDbEntity
  8
1
  6
Continuous
100
AcDbLine
 10
454.534
 20
109.9129999999999
 30
0.0
 11
458.534
 21
109.9129999999999
 31
0.0
  0
LINE
  5
9766
330
9721
100
AcDbEntity
  8
1
  6
Continuous
100
AcDbLine
 10
454.534
 20
100.913
 30
0.0
 11
458.534
 21
100.913
 31
0.0
  0
LINE
  5
9767
330
9721
100
AcDbEntity
  8
1
  6
Continuous
100
AcDbLine
 10
446.534
 20
143.4129999999998
 30
0.0
 11
454.534
 21
143.4129999999998
 31
0.0
  0
LINE
  5
9768
330
9721
100
AcDbEntity
  8
1
  6
Continuous
100
AcDbLine
 10
446.534
 20
64.9131
 30
0.0
 11
455.334
 21
64.9131
 31
0.0
  0
LINE
  5
9769
330
9721
100
AcDbEntity
  8
1
  6
Continuous
100
AcDbLine
 10
446.534
 20
145.9129999999998
 30
0.0
 11
455.334
 21
145.9129999999998
 31
0.0
  0
LINE
  5
976A
330
9721
100
AcDbEntity
  8
1
  6
Continuous
100
AcDbLine
 10
447.534
 20
140.4129999999998
 30
0.0
 11
454.534
 21
140.4129999999998
 31
0.0
  0
LINE
  5
976B
330
9721
100
AcDbEntity
  8
1
  6
Continuous
100
AcDbLine
 10
447.534
 20
70.4131
 30
0.0
 11
454.534
 21
70.4131
 31
0.0
  0
LINE
  5
976C
330
9721
100
AcDbEntity
  8
1
  6
Continuous
100
AcDbLine
 10
454.534
 20
109.9129999999999
 30
0.0
 11
454.534
 21
143.4129999999998
 31
0.0
  0
LINE
  5
976D
330
9721
100
AcDbEntity
  8
1
  6
Continuous
100
AcDbLine
 10
447.534
 20
141.4129999999999
 30
0.0
 11
447.534
 21
143.4129999999998
 31
0.0
  0
LINE
  5
976E
330
9721
100
AcDbEntity
  8
1
  6
Continuous
100
AcDbLine
 10
447.534
 20
67.4131
 30
0.0
 11
447.534
 21
69.4131
 31
0.0
  0
LINE
  5
976F
330
9721
100
AcDbEntity
  8
1
  6
Continuous
100
AcDbLine
 10
463.334
 20
98.31310000000001
 30
0.0
 11
473.5339999999998
 21
98.31310000000001
 31
0.0
  0
LINE
  5
9770
330
9721
100
AcDbEntity
  8
1
  6
Continuous
100
AcDbLine
 10
463.334
 20
112.5129999999999
 30
0.0
 11
473.5339999999998
 21
112.5129999999999
 31
0.0
  0
LINE
  5
9771
330
9721
100
AcDbEntity
  8
1
  6
Continuous
100
AcDbLine
 10
207.1289999999999
 20
80.41310000000001
 30
0.0
 11
207.1289999999999
 21
130.4129999999998
 31
0.0
  0
LINE
  5
9772
330
9721
100
AcDbEntity
  8
4
  6
CENTER
100
AcDbLine
 10
222.1659999999999
 20
85.41310000000001
 30
0.0
 11
204.305
 21
85.41310000000001
 31
0.0
  0
LINE
  5
9773
330
9721
100
AcDbEntity
  8
4
  6
CENTER
100
AcDbLine
 10
221.9619999999999
 20
125.4129999999999
 30
0.0
 11
204.305
 21
125.4129999999999
 31
0.0
  0
LINE
  5
9774
330
9721
100
AcDbEntity
  8
1
  6
Continuous
100
AcDbLine
 10
291.8309999999999
 20
227.665
 30
0.0
 11
291.8309999999999
 21
230.263
 31
0.0
  0
LINE
  5
9775
330
9721
100
AcDbEntity
  8
1
  6
Continuous
100
AcDbLine
 10
364.8309999999999
 20
227.665
 30
0.0
 11
364.8309999999999
 21
230.263
 31
0.0
  0
LINE
  5
9776
330
9721
100
AcDbEntity
  8
4
  6
CENTER
100
AcDbLine
 10
328.3309999999999
 20
216.6589999999999
 30
0.0
 11
328.3309999999999
 21
265.8209999999999
 31
0.0
  0
LINE
  5
9777
330
9721
100
AcDbEntity
  8
1
  6
Continuous
100
AcDbLine
 10
364.8309999999999
 20
230.263
 30
0.0
 11
291.8309999999999
 21
230.263
 31
0.0
  0
LINE
  5
9778
330
9721
100
AcDbEntity
  8
1
  6
Continuous
100
AcDbLine
 10
379.8309999999998
 20
257.2629999999999
 30
0.0
 11
309.3309999999998
 21
257.2629999999999
 31
0.0
  0
LINE
  5
9779
330
9721
100
AcDbEntity
  8
1
  6
Continuous
100
AcDbLine
 10
356.038
 20
247.0629999999999
 30
0.0
 11
315.3299999999999
 21
247.0629999999999
 31
0.0
  0
LINE
  5
977A
330
9721
100
AcDbEntity
  8
4
  6
CENTER
100
AcDbLine
 10
345.8309999999999
 20
231.2629999999999
 30
0.0
 11
345.8309999999999
 21
241.263
 31
0.0
  0
LINE
  5
977B
330
9721
100
AcDbEntity
  8
4
  6
CENTER
100
AcDbLine
 10
350.8309999999998
 20
236.263
 30
0.0
 11
340.8309999999999
 21
236.263
 31
0.0
  0
LINE
  5
977C
330
9721
100
AcDbEntity
  8
1
  6
Continuous
100
AcDbLine
 10
355.86
 20
257.2629999999999
 30
0.0
 11
356.3309999999999
 21
230.263
 31
0.0
  0
LINE
  5
977D
330
9721
100
AcDbEntity
  8
1
  6
Continuous
100
AcDbLine
 10
346.3309999999999
 20
247.0629999999999
 30
0.0
 11
346.3309999999999
 21
257.2629999999999
 31
0.0
  0
LINE
  5
977E
330
9721
100
AcDbEntity
  8
1
  6
Continuous
100
AcDbLine
 10
318.8309999999999
 20
247.0629999999999
 30
0.0
 11
318.8309999999999
 21
257.2629999999999
 31
0.0
  0
LINE
  5
977F
330
9721
100
AcDbEntity
  8
1
  6
Continuous
100
AcDbLine
 10
311.3309999999998
 20
253.263
 30
0.0
 11
311.3309999999998
 21
257.2629999999999
 31
0.0
  0
LINE
  5
9780
330
9721
100
AcDbEntity
  8
4
  6
CENTER
100
AcDbLine
 10
351.3309999999998
 20
244.5149999999999
 30
0.0
 11
351.3309999999998
 21
262.488
 31
0.0
  0
LINE
  5
9781
330
9721
100
AcDbEntity
  8
4
  6
CENTER
100
AcDbLine
 10
316.3309999999999
 20
243.9649999999998
 30
0.0
 11
316.3309999999999
 21
262.373
 31
0.0
  0
LINE
  5
9782
330
9721
100
AcDbEntity
  8
4
  6
CENTER
100
AcDbLine
 10
307.3309999999999
 20
282.408
 30
0.0
 11
307.3309999999999
 21
297.658
 31
0.0
  0
LINE
  5
9783
330
9721
100
AcDbEntity
  8
1
  6
Continuous
100
AcDbLine
 10
312.3299999999999
 20
253.263
 30
0.0
 11
304.3299999999999
 21
253.263
 31
0.0
  0
LINE
  5
9784
330
9721
100
AcDbEntity
  8
1
  6
Continuous
100
AcDbLine
 10
458.534
 20
101.4129999999999
 30
0.0
 11
446.534
 21
101.4129999999999
 31
0.0
  0
LINE
  5
9785
330
9721
100
AcDbEntity
  8
1
  6
Continuous
100
AcDbLine
 10
458.534
 20
109.413
 30
0.0
 11
446.534
 21
109.413
 31
0.0
  0
LINE
  5
9786
330
9721
100
AcDbEntity
  8
1
  6
Continuous
100
AcDbLine
 10
455.534
 20
100.913
 30
0.0
 11
455.534
 21
101.4129999999999
 31
0.0
  0
LINE
  5
9787
330
9721
100
AcDbEntity
  8
1
  6
Continuous
100
AcDbLine
 10
455.534
 20
109.413
 30
0.0
 11
455.534
 21
109.9129999999999
 31
0.0
  0
LINE
  5
9788
330
9721
100
AcDbEntity
  8
4
  6
CENTER
100
AcDbLine
 10
321.3309999999999
 20
77.4131
 30
0.0
 11
341.3309999999999
 21
77.4131
 31
0.0
  0
LINE
  5
9789
330
9721
100
AcDbEntity
  8
4
  6
CENTER
100
AcDbLine
 10
331.3309999999999
 20
67.4131
 30
0.0
 11
331.3309999999999
 21
87.4131
 31
0.0
  0
LINE
  5
978A
330
9721
100
AcDbEntity
  8
5
  6
PHANTOM
100
AcDbLine
 10
358.352
 20
236.769
 30
0.0
 11
356.171
 21
239.427
 31
0.0
  0
LINE
  5
978B
330
9721
100
AcDbEntity
  8
5
  6
PHANTOM
100
AcDbLine
 10
357.3679999999998
 20
237.969
 30
0.0
 11
356.213
 21
237.0209999999999
 31
0.0
  0
LINE
  5
978C
330
9721
100
AcDbEntity
  8
5
  6
PHANTOM
100
AcDbLine
 10
331.858
 20
217.0339999999999
 30
0.0
 11
325.514
 21
224.764
 31
0.0
  0
LINE
  5
978D
330
9721
100
AcDbEntity
  8
1
  6
Continuous
100
AcDbLine
 10
460.5339999999998
 20
65.4131
 30
0.0
 11
475.534
 21
65.4131
 31
0.0
  0
LINE
  5
978E
330
9721
100
AcDbEntity
  8
1
  6
Continuous
100
AcDbLine
 10
381.8309999999998
 20
65.4131
 30
0.0
 11
381.8309999999998
 21
145.4129999999999
 31
0.0
  0
LINE
  5
978F
330
9721
100
AcDbEntity
  8
1
  6
Continuous
100
AcDbLine
 10
460.5339999999998
 20
145.4129999999999
 30
0.0
 11
475.534
 21
145.4129999999999
 31
0.0
  0
LINE
  5
9790
330
9721
100
AcDbEntity
  8
1
  6
Continuous
100
AcDbLine
 10
458.534
 20
67.4131
 30
0.0
 11
458.534
 21
143.4129999999998
 31
0.0
  0
LINE
  5
9791
330
9721
100
AcDbEntity
  8
1
  6
Continuous
100
AcDbLine
 10
475.534
 20
65.4131
 30
0.0
 11
475.534
 21
145.4129999999999
 31
0.0
  0
LINE
  5
9792
330
9721
100
AcDbEntity
  8
1
  6
Continuous
100
AcDbLine
 10
381.8309999999998
 20
145.4129999999999
 30
0.0
 11
363.2429999999998
 21
145.4129999999999
 31
0.0
  0
LINE
  5
9793
330
9721
100
AcDbEntity
  8
1
  6
Continuous
100
AcDbLine
 10
381.8309999999998
 20
65.4131
 30
0.0
 11
363.2429999999998
 21
65.4131
 31
0.0
  0
LINE
  5
9794
330
9721
100
AcDbEntity
  8
1
  6
Continuous
100
AcDbLine
 10
379.8309999999998
 20
65.4131
 30
0.0
 11
379.8309999999998
 21
145.4129999999999
 31
0.0
  0
LINE
  5
9795
330
9721
100
AcDbEntity
  8
1
  6
Continuous
100
AcDbLine
 10
377.8309999999998
 20
71.9131
 30
0.0
 11
377.8309999999998
 21
78.9131
 31
0.0
  0
LINE
  5
9796
330
9721
100
AcDbEntity
  8
4
  6
CENTER
100
AcDbLine
 10
385.1069999999999
 20
135.4129999999998
 30
0.0
 11
373.544
 21
135.4129999999998
 31
0.0
  0
LINE
  5
9797
330
9721
100
AcDbEntity
  8
4
  6
CENTER
100
AcDbLine
 10
385.1069999999999
 20
75.4131
 30
0.0
 11
373.369
 21
75.4131
 31
0.0
  0
LINE
  5
9798
330
9721
100
AcDbEntity
  8
1
  6
Continuous
100
AcDbLine
 10
377.8309999999998
 20
131.9129999999999
 30
0.0
 11
377.8309999999998
 21
138.9129999999999
 31
0.0
  0
LINE
  5
9799
330
9721
100
AcDbEntity
  8
1
  6
Continuous
100
AcDbLine
 10
463.334
 20
98.2131
 30
0.0
 11
475.534
 21
98.2131
 31
0.0
  0
LINE
  5
979A
330
9721
100
AcDbEntity
  8
1
  6
Continuous
100
AcDbLine
 10
463.334
 20
112.613
 30
0.0
 11
475.534
 21
112.613
 31
0.0
  0
LINE
  5
979B
330
9721
100
AcDbEntity
  8
1
  6
Continuous
100
AcDbLine
 10
473.5339999999998
 20
98.2131
 30
0.0
 11
473.5339999999998
 21
112.613
 31
0.0
  0
LINE
  5
979C
330
9721
100
AcDbEntity
  8
1
  6
Continuous
100
AcDbLine
 10
463.334
 20
98.2131
 30
0.0
 11
463.334
 21
112.613
 31
0.0
  0
LINE
  5
979D
330
9721
100
AcDbEntity
  8
4
  6
CENTER
100
AcDbLine
 10
465.5339999999998
 20
131.4129999999998
 30
0.0
 11
465.5339999999998
 21
139.4129999999998
 31
0.0
  0
LINE
  5
979E
330
9721
100
AcDbEntity
  8
4
  6
CENTER
100
AcDbLine
 10
478.8219999999998
 20
135.4129999999998
 30
0.0
 11
460.601
 21
135.4129999999998
 31
0.0
  0
LINE
  5
979F
330
9721
100
AcDbEntity
  8
4
  6
CENTER
100
AcDbLine
 10
465.5339999999998
 20
71.4131
 30
0.0
 11
465.5339999999998
 21
79.4131
 31
0.0
  0
LINE
  5
97A0
330
9721
100
AcDbEntity
  8
4
  6
CENTER
100
AcDbLine
 10
479.0159999999998
 20
75.4131
 30
0.0
 11
460.4639999999998
 21
75.4131
 31
0.0
  0
LINE
  5
97A1
330
9721
100
AcDbEntity
  8
1
  6
Continuous
100
AcDbLine
 10
381.8309999999998
 20
242.263
 30
0.0
 11
381.8309999999998
 21
257.2629999999999
 31
0.0
  0
LINE
  5
97A2
330
9721
100
AcDbEntity
  8
1
  6
Continuous
100
AcDbLine
 10
346.4319999999998
 20
257.2629999999999
 30
0.0
 11
346.4319999999998
 21
259.2629999999999
 31
0.0
  0
LINE
  5
97A3
330
9721
100
AcDbEntity
  8
1
  6
Continuous
100
AcDbLine
 10
381.8309999999998
 20
242.263
 30
0.0
 11
379.8309999999998
 21
242.263
 31
0.0
  0
LINE
  5
97A4
330
9721
100
AcDbEntity
  8
1
  6
Continuous
100
AcDbLine
 10
379.8309999999998
 20
259.2629999999999
 30
0.0
 11
309.3309999999998
 21
259.2629999999999
 31
0.0
  0
LINE
  5
97A5
330
9721
100
AcDbEntity
  8
1
  6
Continuous
100
AcDbLine
 10
379.8309999999998
 20
242.263
 30
0.0
 11
379.8309999999998
 21
257.2629999999999
 31
0.0
  0
LINE
  5
97A6
330
9721
100
AcDbEntity
  8
1
  6
Continuous
100
AcDbLine
 10
309.3309999999998
 20
257.2629999999999
 30
0.0
 11
309.3309999999998
 21
259.2629999999999
 31
0.0
  0
LINE
  5
97A7
330
9721
100
AcDbEntity
  8
1
  6
Continuous
100
AcDbLine
 10
377.8309999999998
 20
245.7629999999999
 30
0.0
 11
377.8309999999998
 21
252.763
 31
0.0
  0
LINE
  5
97A8
330
9721
100
AcDbEntity
  8
4
  6
CENTER
100
AcDbLine
 10
384.711
 20
249.263
 30
0.0
 11
373.98
 21
249.263
 31
0.0
  0
LINE
  5
97A9
330
9721
100
AcDbEntity
  8
1
  6
Continuous
100
AcDbLine
 10
378.8309999999999
 20
71.9131
 30
0.0
 11
377.8309999999998
 21
71.9131
 31
0.0
  0
LINE
  5
97AA
330
9721
100
AcDbEntity
  8
1
  6
Continuous
100
AcDbLine
 10
378.8309999999999
 20
78.9131
 30
0.0
 11
377.8309999999998
 21
78.9131
 31
0.0
  0
LINE
  5
97AB
330
9721
100
AcDbEntity
  8
1
  6
Continuous
100
AcDbLine
 10
216.129
 20
65.4131
 30
0.0
 11
201.1289999999999
 21
65.4131
 31
0.0
  0
LINE
  5
97AC
330
9721
100
AcDbEntity
  8
1
  6
Continuous
100
AcDbLine
 10
216.129
 20
145.4129999999999
 30
0.0
 11
201.1289999999999
 21
145.4129999999999
 31
0.0
  0
LINE
  5
97AD
330
9721
100
AcDbEntity
  8
1
  6
Continuous
100
AcDbLine
 10
201.1289999999999
 20
65.4131
 30
0.0
 11
201.1289999999999
 21
145.4129999999999
 31
0.0
  0
LINE
  5
97AE
330
9721
100
AcDbEntity
  8
1
  6
Continuous
100
AcDbLine
 10
203.1289999999999
 20
65.4131
 30
0.0
 11
203.1289999999999
 21
145.4129999999999
 31
0.0
  0
LINE
  5
97AF
330
9721
100
AcDbEntity
  8
1
  6
Continuous
100
AcDbLine
 10
391.8309999999999
 20
99.41310000000001
 30
0.0
 11
391.8309999999999
 21
111.413
 31
0.0
  0
LINE
  5
97B0
330
9721
100
AcDbEntity
  8
5
  6
PHANTOM
100
AcDbLine
 10
380.926
 20
247.263
 30
0.0
 11
377.8309999999998
 21
247.263
 31
0.0
  0
LINE
  5
97B1
330
9721
100
AcDbEntity
  8
1
  6
Continuous
100
AcDbLine
 10
390.8309999999998
 20
98.4131
 30
0.0
 11
381.8309999999998
 21
98.4131
 31
0.0
  0
LINE
  5
97B2
330
9721
100
AcDbEntity
  8
1
  6
Continuous
100
AcDbLine
 10
390.8309999999998
 20
112.413
 30
0.0
 11
381.8309999999998
 21
112.413
 31
0.0
  0
LINE
  5
97B3
330
9721
100
AcDbEntity
  8
1
  6
Continuous
100
AcDbLine
 10
472.534
 20
98.4131
 30
0.0
 11
464.534
 21
98.4131
 31
0.0
  0
LINE
  5
97B4
330
9721
100
AcDbEntity
  8
1
  6
Continuous
100
AcDbLine
 10
472.534
 20
112.413
 30
0.0
 11
464.534
 21
112.413
 31
0.0
  0
LINE
  5
97B5
330
9721
100
AcDbEntity
  8
1
  6
Continuous
100
AcDbLine
 10
463.534
 20
99.41310000000001
 30
0.0
 11
463.534
 21
111.413
 31
0.0
  0
LINE
  5
97B6
330
9721
100
AcDbEntity
  8
1
  6
Continuous
100
AcDbLine
 10
292.4459999999999
 20
80.41310000000001
 30
0.0
 11
290.7679999999999
 21
80.41310000000001
 31
0.0
  0
LINE
  5
97B7
330
9721
100
AcDbEntity
  8
1
  6
Continuous
100
AcDbLine
 10
292.4459999999999
 20
130.4129999999998
 30
0.0
 11
290.7679999999999
 21
130.4129999999998
 31
0.0
  0
LINE
  5
97B8
330
9721
100
AcDbEntity
  8
1
  6
Continuous
100
AcDbLine
 10
294.7679999999999
 20
264.263
 30
0.0
 11
288.7679999999999
 21
264.263
 31
0.0
  0
LINE
  5
97B9
330
9721
100
AcDbEntity
  8
1
  6
Continuous
100
AcDbLine
 10
314.3309999999999
 20
286.7629999999999
 30
0.0
 11
302.3309999999999
 21
286.7629999999999
 31
0.0
  0
LINE
  5
97BA
330
9721
100
AcDbEntity
  8
1
  6
Continuous
100
AcDbLine
 10
314.3309999999999
 20
288.7629999999999
 30
0.0
 11
302.3309999999999
 21
288.7629999999999
 31
0.0
  0
LINE
  5
97BB
330
9721
100
AcDbEntity
  8
1
  6
Continuous
100
AcDbLine
 10
294.7679999999999
 20
266.2629999999999
 30
0.0
 11
288.7679999999999
 21
266.2629999999999
 31
0.0
  0
LINE
  5
97BC
330
9721
100
AcDbEntity
  8
1
  6
Continuous
100
AcDbLine
 10
314.3309999999999
 20
286.7629999999999
 30
0.0
 11
314.3309999999999
 21
288.7629999999999
 31
0.0
  0
LINE
  5
97BD
330
9721
100
AcDbEntity
  8
1
  6
Continuous
100
AcDbLine
 10
302.3309999999999
 20
286.7629999999999
 30
0.0
 11
296.699
 21
265.745
 31
0.0
  0
LINE
  5
97BE
330
9721
100
AcDbEntity
  8
1
  6
Continuous
100
AcDbLine
 10
300.3989999999999
 20
287.2799999999998
 30
0.0
 11
294.7679999999999
 21
266.2629999999999
 31
0.0
  0
LINE
  5
97BF
330
9721
100
AcDbEntity
  8
1
  6
Continuous
100
AcDbLine
 10
288.7679999999999
 20
264.263
 30
0.0
 11
288.7679999999999
 21
266.2629999999999
 31
0.0
  0
LINE
  5
97C0
330
9721
100
AcDbEntity
  8
1
  6
Continuous
100
AcDbLine
 10
89.92600000000001
 20
80.41310000000001
 30
0.0
 11
111.49
 21
80.41310000000001
 31
0.0
  0
LINE
  5
97C1
330
9721
100
AcDbEntity
  8
1
  6
Continuous
100
AcDbLine
 10
87.926
 20
82.4131
 30
0.0
 11
87.926
 21
97.5136
 31
0.0
  0
LINE
  5
97C2
330
9721
100
AcDbEntity
  8
1
  6
Continuous
100
AcDbLine
 10
89.92600000000001
 20
130.4129999999998
 30
0.0
 11
111.49
 21
130.4129999999998
 31
0.0
  0
LINE
  5
97C3
330
9721
100
AcDbEntity
  8
1
  6
Continuous
100
AcDbLine
 10
113.49
 20
82.4131
 30
0.0
 11
113.49
 21
128.4129999999999
 31
0.0
  0
LINE
  5
97C4
330
9721
100
AcDbEntity
  8
1
  6
Continuous
100
AcDbLine
 10
87.926
 20
113.3129999999999
 30
0.0
 11
87.926
 21
128.4129999999999
 31
0.0
  0
LINE
  5
97C5
330
9721
100
AcDbEntity
  8
1
  6
Continuous
100
AcDbLine
 10
107.4895
 20
80.41310000000001
 30
0.0
 11
107.4895
 21
130.4129999999998
 31
0.0
  0
LINE
  5
97C6
330
9721
100
AcDbEntity
  8
1
  6
Continuous
100
AcDbLine
 10
101.4606
 20
128.4089999999999
 30
0.0
 11
101.4606
 21
82.17629999999997
 31
0.0
  0
LINE
  5
97C7
330
9721
100
AcDbEntity
  8
1
  6
Continuous
100
AcDbLine
 10
215.328
 20
130.4129999999998
 30
0.0
 11
203.1289999999999
 21
130.4129999999998
 31
0.0
  0
LINE
  5
97C8
330
9721
100
AcDbEntity
  8
1
  6
Continuous
100
AcDbLine
 10
215.328
 20
80.41310000000001
 30
0.0
 11
203.1289999999999
 21
80.41310000000001
 31
0.0
  0
LINE
  5
97C9
330
9721
100
AcDbEntity
  8
1
  6
Continuous
100
AcDbLine
 10
215.328
 20
90.41310000000001
 30
0.0
 11
207.1289999999999
 21
90.41310000000001
 31
0.0
  0
LINE
  5
97CA
330
9721
100
AcDbEntity
  8
1
  6
Continuous
100
AcDbLine
 10
215.328
 20
120.4129999999999
 30
0.0
 11
207.1289999999999
 21
120.4129999999999
 31
0.0
  0
LINE
  5
97CB
330
9721
100
AcDbEntity
  8
1
  6
Continuous
100
AcDbLine
 10
378.8309999999999
 20
252.763
 30
0.0
 11
377.8309999999998
 21
252.763
 31
0.0
  0
LINE
  5
97CC
330
9721
100
AcDbEntity
  8
1
  6
Continuous
100
AcDbLine
 10
378.8309999999999
 20
245.7629999999999
 30
0.0
 11
377.8309999999998
 21
245.7629999999999
 31
0.0
  0
LINE
  5
97CD
330
9721
100
AcDbEntity
  8
1
  6
Continuous
100
AcDbLine
 10
378.8309999999999
 20
138.9129999999999
 30
0.0
 11
377.8309999999998
 21
138.9129999999999
 31
0.0
  0
LINE
  5
97CE
330
9721
100
AcDbEntity
  8
1
  6
Continuous
100
AcDbLine
 10
378.8309999999999
 20
131.9129999999999
 30
0.0
 11
377.8309999999998
 21
131.9129999999999
 31
0.0
  0
LINE
  5
97CF
330
9721
100
AcDbEntity
  8
1
  6
Continuous
100
AcDbLine
 10
330.281
 20
82.51309999999998
 30
0.0
 11
330.281
 21
72.9131
 31
0.0
  0
LINE
  5
97D0
330
9721
100
AcDbEntity
  8
1
  6
Continuous
100
AcDbLine
 10
332.3809999999999
 20
72.9131
 30
0.0
 11
330.281
 21
72.9131
 31
0.0
  0
LINE
  5
97D1
330
9721
100
AcDbEntity
  8
1
  6
Continuous
100
AcDbLine
 10
332.3809999999999
 20
82.51309999999998
 30
0.0
 11
332.3809999999999
 21
72.9131
 31
0.0
  0
LINE
  5
97D2
330
9721
100
AcDbEntity
  8
1
  6
Continuous
100
AcDbLine
 10
332.3809999999999
 20
82.51309999999998
 30
0.0
 11
330.281
 21
82.51309999999998
 31
0.0
  0
LINE
  5
97D3
330
9721
100
AcDbEntity
  8
1
  6
Continuous
100
AcDbLine
 10
51.44124399999999
 20
248.33641
 30
0.0
 11
51.44124399999999
 21
242.01641
 31
0.0
  0
LINE
  5
97D4
330
9721
100
AcDbEntity
  8
1
  6
Continuous
100
AcDbLine
 10
59.67264399999999
 20
235.17641
 30
0.0
 11
56.933644
 21
235.17641
 31
0.0
  0
LINE
  5
97D5
330
9721
100
AcDbEntity
  8
1
  6
Continuous
100
AcDbLine
 10
59.67264399999999
 20
255.17641
 30
0.0
 11
56.933644
 21
255.17641
 31
0.0
  0
LINE
  5
97D6
330
9721
100
AcDbEntity
  8
1
  6
Continuous
100
AcDbLine
 10
51.64864399999999
 20
248.94541
 30
0.0
 11
56.14104399999999
 21
254.78541
 31
0.0
  0
LINE
  5
97D7
330
9721
100
AcDbEntity
  8
1
  6
Continuous
100
AcDbLine
 10
60.17374399999999
 20
255.04141
 30
0.0
 11
69.44124399999998
 21
249.67641
 31
0.0
  0
LINE
  5
97D8
330
9721
100
AcDbEntity
  8
1
  6
Continuous
100
AcDbLine
 10
60.17374399999999
 20
235.3104099999999
 30
0.0
 11
69.44124399999998
 21
240.67641
 31
0.0
  0
LINE
  5
97D9
330
9721
100
AcDbEntity
  8
1
  6
Continuous
100
AcDbLine
 10
69.44124399999998
 20
249.67641
 30
0.0
 11
73.94124399999999
 21
249.67641
 31
0.0
  0
LINE
  5
97DA
330
9721
100
AcDbEntity
  8
1
  6
Continuous
100
AcDbLine
 10
69.44124399999998
 20
240.67641
 30
0.0
 11
73.94124399999999
 21
240.67641
 31
0.0
  0
LINE
  5
97DB
330
9721
100
AcDbEntity
  8
1
  6
Continuous
100
AcDbLine
 10
74.44124399999998
 20
248.1764099999999
 30
0.0
 11
82.85554399999998
 21
248.1764099999999
 31
0.0
  0
LINE
  5
97DC
330
9721
100
AcDbEntity
  8
1
  6
Continuous
100
AcDbLine
 10
74.44124399999998
 20
242.17641
 30
0.0
 11
82.85554399999998
 21
242.17641
 31
0.0
  0
LINE
  5
97DD
330
9721
100
AcDbEntity
  8
1
  6
Continuous
100
AcDbLine
 10
74.44124399999998
 20
241.17641
 30
0.0
 11
74.44124399999998
 21
242.17641
 31
0.0
  0
LINE
  5
97DE
330
9721
100
AcDbEntity
  8
1
  6
Continuous
100
AcDbLine
 10
74.44124399999998
 20
249.17641
 30
0.0
 11
74.44124399999998
 21
248.1764099999999
 31
0.0
  0
LINE
  5
97DF
330
9721
100
AcDbEntity
  8
1
  6
Continuous
100
AcDbLine
 10
82.85554399999998
 20
242.17641
 30
0.0
 11
85.14834399999998
 21
244.4694099999999
 31
0.0
  0
LINE
  5
97E0
330
9721
100
AcDbEntity
  8
1
  6
Continuous
100
AcDbLine
 10
82.85554399999998
 20
248.1764099999999
 30
0.0
 11
85.14834399999998
 21
245.88341
 31
0.0
  0
LINE
  5
97E1
330
9721
100
AcDbEntity
  8
1
  6
Continuous
100
AcDbLine
 10
53.441244
 20
247.67641
 30
0.0
 11
53.441244
 21
242.67641
 31
0.0
  0
LINE
  5
97E2
330
9721
100
AcDbEntity
  8
1
  6
Continuous
100
AcDbLine
 10
55.941244
 20
247.67641
 30
0.0
 11
55.941244
 21
242.67641
 31
0.0
  0
LINE
  5
97E3
330
9721
100
AcDbEntity
  8
1
  6
Continuous
100
AcDbLine
 10
55.441244
 20
248.1764099999999
 30
0.0
 11
53.94124399999999
 21
248.1764099999999
 31
0.0
  0
LINE
  5
97E4
330
9721
100
AcDbEntity
  8
1
  6
Continuous
100
AcDbLine
 10
59.28284399999999
 20
240.0604099999999
 30
0.0
 11
62.67524399999999
 21
240.0604099999999
 31
0.0
  0
LINE
  5
97E5
330
9721
100
AcDbEntity
  8
1
  6
Continuous
100
AcDbLine
 10
62.89324399999999
 20
240.8474099999998
 30
0.0
 11
59.98934399999999
 21
240.8474099999998
 31
0.0
  0
LINE
  5
97E6
330
9721
100
AcDbEntity
  8
1
  6
Continuous
100
AcDbLine
 10
59.500244
 20
241.6344099999998
 30
0.0
 11
63.38234400000001
 21
241.6344099999998
 31
0.0
  0
LINE
  5
97E7
330
9721
100
AcDbEntity
  8
1
  6
Continuous
100
AcDbLine
 10
60.49694399999999
 20
243.2084099999999
 30
0.0
 11
58.99384399999998
 21
243.2084099999999
 31
0.0
  0
LINE
  5
97E8
330
9721
100
AcDbEntity
  8
1
  6
Continuous
100
AcDbLine
 10
59.39654399999999
 20
242.4214099999999
 30
0.0
 11
63.48594399999999
 21
242.4214099999999
 31
0.0
  0
LINE
  5
97E9
330
9721
100
AcDbEntity
  8
1
  6
Continuous
100
AcDbLine
 10
63.88874399999998
 20
243.2084099999999
 30
0.0
 11
62.38564399999999
 21
243.2084099999999
 31
0.0
  0
LINE
  5
97EA
330
9721
100
AcDbEntity
  8
1
  6
Continuous
100
AcDbLine
 10
58.76154399999999
 20
243.99541
 30
0.0
 11
64.12094399999999
 21
243.99541
 31
0.0
  0
LINE
  5
97EB
330
9721
100
AcDbEntity
  8
1
  6
Continuous
100
AcDbLine
 10
58.69514399999999
 20
244.78241
 30
0.0
 11
64.187444
 21
244.78241
 31
0.0
  0
LINE
  5
97EC
330
9721
100
AcDbEntity
  8
1
  6
Continuous
100
AcDbLine
 10
61.44124399999999
 20
244.78241
 30
0.0
 11
61.44124399999999
 21
243.99541
 31
0.0
  0
LINE
  5
97ED
330
9721
100
AcDbEntity
  8
1
  6
Continuous
100
AcDbLine
 10
58.69514399999999
 20
245.56941
 30
0.0
 11
64.187444
 21
245.56941
 31
0.0
  0
LINE
  5
97EE
330
9721
100
AcDbEntity
  8
1
  6
Continuous
100
AcDbLine
 10
60.49694399999999
 20
247.1434099999999
 30
0.0
 11
59.21954399999999
 21
247.1434099999999
 31
0.0
  0
LINE
  5
97EF
330
9721
100
AcDbEntity
  8
1
  6
Continuous
100
AcDbLine
 10
58.851344
 20
246.35641
 30
0.0
 11
64.031244
 21
246.35641
 31
0.0
  0
LINE
  5
97F0
330
9721
100
AcDbEntity
  8
1
  6
Continuous
100
AcDbLine
 10
63.66304399999999
 20
247.1434099999999
 30
0.0
 11
61.44124399999999
 21
247.1434099999999
 31
0.0
  0
LINE
  5
97F1
330
9721
100
AcDbEntity
  8
1
  6
Continuous
100
AcDbLine
 10
61.44124399999999
 20
247.1434099999999
 30
0.0
 11
61.44124399999999
 21
246.7504099999999
 31
0.0
  0
LINE
  5
97F2
330
9721
100
AcDbEntity
  8
1
  6
Continuous
100
AcDbLine
 10
58.854344
 20
247.9304099999999
 30
0.0
 11
63.781444
 21
247.9304099999999
 31
0.0
  0
LINE
  5
97F3
330
9721
100
AcDbEntity
  8
1
  6
Continuous
100
AcDbLine
 10
59.22514399999999
 20
248.71741
 30
0.0
 11
61.04784399999999
 21
248.71741
 31
0.0
  0
LINE
  5
97F4
330
9721
100
AcDbEntity
  8
1
  6
Continuous
100
AcDbLine
 10
61.04784399999999
 20
249.50441
 30
0.0
 11
59.366544
 21
249.50441
 31
0.0
  0
LINE
  5
97F5
330
9721
100
AcDbEntity
  8
1
  6
Continuous
100
AcDbLine
 10
61.44124399999999
 20
249.11141
 30
0.0
 11
63.32894399999999
 21
249.11141
 31
0.0
  0
LINE
  5
97F6
330
9721
100
AcDbEntity
  8
1
  6
Continuous
100
AcDbLine
 10
62.91394399999999
 20
249.9054099999999
 30
0.0
 11
59.59614399999999
 21
250.79441
 31
0.0
  0
LINE
  5
97F7
330
9721
100
AcDbEntity
  8
1
  6
Continuous
100
AcDbLine
 10
61.44124399999999
 20
251.92641
 30
0.0
 11
61.44124399999999
 21
250.2994099999999
 31
0.0
  0
LINE
  5
97F8
330
9721
100
AcDbEntity
  8
1
  6
Continuous
100
AcDbLine
 10
52.441244
 20
248.33641
 30
0.0
 11
52.441244
 21
242.016168
 31
0.0
  0
LINE
  5
97F9
330
9721
100
AcDbEntity
  8
1
  6
Continuous
100
AcDbLine
 10
52.441244
 20
248.33641
 30
0.0
 11
56.933644
 21
254.1764099999999
 31
0.0
  0
LINE
  5
97FA
330
9721
100
AcDbEntity
  8
1
  6
Continuous
100
AcDbLine
 10
59.67264399999999
 20
236.17641
 30
0.0
 11
56.933644
 21
236.17641
 31
0.0
  0
LINE
  5
97FB
330
9721
100
AcDbEntity
  8
1
  6
Continuous
100
AcDbLine
 10
59.67264399999999
 20
254.1764099999999
 30
0.0
 11
56.933644
 21
254.1764099999999
 31
0.0
  0
LINE
  5
97FC
330
9721
100
AcDbEntity
  8
1
  6
Continuous
100
AcDbLine
 10
59.67264399999999
 20
254.1764099999999
 30
0.0
 11
69.44124399999998
 21
248.52041
 31
0.0
  0
LINE
  5
97FD
330
9721
100
AcDbEntity
  8
1
  6
Continuous
100
AcDbLine
 10
59.67264399999999
 20
236.17641
 30
0.0
 11
69.44124399999998
 21
241.8314099999999
 31
0.0
  0
LINE
  5
97FE
330
9721
100
AcDbEntity
  8
1
  6
Continuous
100
AcDbLine
 10
69.44124399999998
 20
241.8314099999999
 30
0.0
 11
69.44124399999998
 21
248.52041
 31
0.0
  0
LINE
  5
97FF
330
9721
100
AcDbEntity
  8
1
  6
Continuous
100
AcDbLine
 10
52.441244
 20
242.016168
 30
0.0
 11
56.933644
 21
236.17641
 31
0.0
  0
LINE
  5
9800
330
9721
100
AcDbEntity
  8
1
  6
Continuous
100
AcDbLine
 10
51.622944
 20
241.4416179999999
 30
0.0
 11
56.14104399999999
 21
235.5664099999999
 31
0.0
  0
LINE
  5
9801
330
9721
100
AcDbEntity
  8
1
  6
Continuous
100
AcDbLine
 10
446.534
 20
67.4131
 30
0.0
 11
454.534
 21
67.4131
 31
0.0
  0
LINE
  5
9802
330
9721
100
AcDbEntity
  8
1
  6
Continuous
100
AcDbLine
 10
379.8309999999998
 20
112.413
 30
0.0
 11
364.783
 21
112.413
 31
0.0
  0
LINE
  5
9803
330
9721
100
AcDbEntity
  8
1
  6
Continuous
100
AcDbLine
 10
379.8309999999998
 20
98.4131
 30
0.0
 11
364.783
 21
98.4131
 31
0.0
  0
LINE
  5
9804
330
9721
100
AcDbEntity
  8
1
  6
Continuous
100
AcDbLine
 10
377.8309999999998
 20
247.263
 30
0.0
 11
356.034
 21
247.263
 31
0.0
  0
LINE
  5
9805
330
9721
100
AcDbEntity
  8
1
  6
Continuous
100
AcDbLine
 10
186.1289999999999
 20
130.4129999999998
 30
0.0
 11
161.629
 21
130.4129999999998
 31
0.0
  0
LINE
  5
9806
330
9721
100
AcDbEntity
  8
1
  6
Continuous
100
AcDbLine
 10
186.1289999999999
 20
80.41310000000001
 30
0.0
 11
161.629
 21
80.41310000000001
 31
0.0
  0
LINE
  5
9807
330
9721
100
AcDbEntity
  8
1
  6
Continuous
100
AcDbLine
 10
186.1289999999999
 20
80.41310000000001
 30
0.0
 11
186.1289999999999
 21
130.4129999999998
 31
0.0
  0
LINE
  5
9808
330
9721
100
AcDbEntity
  8
4
  6
CENTER
100
AcDbLine
 10
191.274
 20
105.413
 30
0.0
 11
155.4809999999999
 21
105.413
 31
0.0
  0
LINE
  5
9809
330
9721
100
AcDbEntity
  8
1
  6
Continuous
100
AcDbLine
 10
184.1289999999999
 20
80.41310000000001
 30
0.0
 11
184.1289999999999
 21
130.4129999999998
 31
0.0
  0
LINE
  5
980A
330
9721
100
AcDbEntity
  8
1
  6
Continuous
100
AcDbLine
 10
161.629
 20
80.41310000000001
 30
0.0
 11
161.629
 21
130.4129999999998
 31
0.0
  0
LINE
  5
980B
330
9721
100
AcDbEntity
  8
4
  6
CENTER
100
AcDbLine
 10
163.7
 20
85.41310000000001
 30
0.0
 11
154.625
 21
85.41310000000001
 31
0.0
  0
LINE
  5
980C
330
9721
100
AcDbEntity
  8
4
  6
CENTER
100
AcDbLine
 10
164.388
 20
125.4129999999999
 30
0.0
 11
154.4869999999999
 21
125.4129999999999
 31
0.0
  0
LINE
  5
980D
330
9721
100
AcDbEntity
  8
4
  6
CENTER
100
AcDbLine
 10
8.97418
 20
105.413
 30
0.0
 11
123.713
 21
105.413
 31
0.0
  0
LINE
  5
980E
330
9721
100
AcDbEntity
  8
4
  6
CENTER
100
AcDbLine
 10
73.926
 20
47.54249999999998
 30
0.0
 11
73.926
 21
163.9929999999999
 31
0.0
  0
LINE
  5
980F
330
9721
100
AcDbEntity
  8
4
  6
CENTER
100
AcDbLine
 10
56.426
 20
52.6072
 30
0.0
 11
56.426
 21
157.66
 31
0.0
  0
LINE
  5
9810
330
9721
100
AcDbEntity
  8
1
  6
Continuous
100
AcDbLine
 10
10.425966
 20
99.413
 30
0.0
 11
10.425966
 21
111.413
 31
0.0
  0
LINE
  5
9811
330
9721
100
AcDbEntity
  8
1
  6
Continuous
100
AcDbLine
 10
20.42599999999999
 20
65.4131
 30
0.0
 11
20.42599999999999
 21
98.4131
 31
0.0
  0
LINE
  5
9812
330
9721
100
AcDbEntity
  8
1
  6
Continuous
100
AcDbLine
 10
55.8255
 20
65.4131
 30
0.0
 11
90.87569999999999
 21
100.4629999999998
 31
0.0
  0
LINE
  5
9813
330
9721
100
AcDbEntity
  8
1
  6
Continuous
100
AcDbLine
 10
20.42599999999999
 20
145.4129999999999
 30
0.0
 11
55.8255
 21
145.4129999999999
 31
0.0
  0
LINE
  5
9814
330
9721
100
AcDbEntity
  8
1
  6
Continuous
100
AcDbLine
 10
20.42599999999999
 20
65.4131
 30
0.0
 11
55.8255
 21
65.4131
 31
0.0
  0
LINE
  5
9815
330
9721
100
AcDbEntity
  8
1
  6
Continuous
100
AcDbLine
 10
55.8255
 20
145.4129999999999
 30
0.0
 11
90.87569999999999
 21
110.363
 31
0.0
  0
LINE
  5
9816
330
9721
100
AcDbEntity
  8
4
  6
CENTER
100
AcDbLine
 10
85.926
 20
99.41310000000001
 30
0.0
 11
85.926
 21
111.413
 31
0.0
  0
LINE
  5
9817
330
9721
100
AcDbEntity
  8
4
  6
CENTER
100
AcDbLine
 10
56.926
 20
75.4131
 30
0.0
 11
44.926
 21
75.4131
 31
0.0
  0
LINE
  5
9818
330
9721
100
AcDbEntity
  8
4
  6
CENTER
100
AcDbLine
 10
50.926
 20
69.4131
 30
0.0
 11
50.926
 21
81.4131
 31
0.0
  0
LINE
  5
9819
330
9721
100
AcDbEntity
  8
4
  6
CENTER
100
AcDbLine
 10
56.926
 20
135.4129999999998
 30
0.0
 11
44.926
 21
135.4129999999998
 31
0.0
  0
LINE
  5
981A
330
9721
100
AcDbEntity
  8
4
  6
CENTER
100
AcDbLine
 10
50.926
 20
129.4129999999998
 30
0.0
 11
50.926
 21
141.4129999999999
 31
0.0
  0
LINE
  5
981B
330
9721
100
AcDbEntity
  8
4
  6
CENTER
100
AcDbLine
 10
17.14971999999999
 20
135.4129999999998
 30
0.0
 11
28.7131
 21
135.4129999999998
 31
0.0
  0
LINE
  5
981C
330
9721
100
AcDbEntity
  8
4
  6
CENTER
100
AcDbLine
 10
17.14971999999999
 20
75.4131
 30
0.0
 11
28.8882
 21
75.4131
 31
0.0
  0
LINE
  5
981D
330
9721
100
AcDbEntity
  8
1
  6
Continuous
100
AcDbLine
 10
47.4263
 20
64.9131
 30
0.0
 11
47.4263
 21
65.4131
 31
0.0
  0
LINE
  5
981E
330
9721
100
AcDbEntity
  8
1
  6
Continuous
100
AcDbLine
 10
97.926
 20
64.9131
 30
0.0
 11
47.4263
 21
64.9131
 31
0.0
  0
LINE
  5
981F
330
9721
100
AcDbEntity
  8
1
  6
Continuous
100
AcDbLine
 10
97.926
 20
145.9129999999998
 30
0.0
 11
47.4263
 21
145.9129999999998
 31
0.0
  0
LINE
  5
9820
330
9721
100
AcDbEntity
  8
1
  6
Continuous
100
AcDbLine
 10
47.4263
 20
145.4129999999999
 30
0.0
 11
47.4263
 21
145.9129999999998
 31
0.0
  0
LINE
  5
9821
330
9721
100
AcDbEntity
  8
1
  6
Continuous
100
AcDbLine
 10
94.2544
 20
126.085
 30
0.0
 11
93.7476
 21
125.848
 31
0.0
  0
LINE
  5
9822
330
9721
100
AcDbEntity
  8
1
  6
Continuous
100
AcDbLine
 10
93.7476
 20
125.848
 30
0.0
 11
92.86839999999999
 21
125.8329999999999
 31
0.0
  0
LINE
  5
9823
330
9721
100
AcDbEntity
  8
1
  6
Continuous
100
AcDbLine
 10
93.7476
 20
124.9779999999998
 30
0.0
 11
92.86839999999999
 21
124.9929999999999
 31
0.0
  0
LINE
  5
9824
330
9721
100
AcDbEntity
  8
1
  6
Continuous
100
AcDbLine
 10
94.2543
 20
124.741
 30
0.0
 11
93.7476
 21
124.9779999999998
 31
0.0
  0
LINE
  5
9825
330
9721
100
AcDbEntity
  8
1
  6
Continuous
100
AcDbLine
 10
95.5976
 20
124.741
 30
0.0
 11
95.36129999999998
 21
124.235
 31
0.0
  0
LINE
  5
9826
330
9721
100
AcDbEntity
  8
1
  6
Continuous
100
AcDbLine
 10
95.36129999999998
 20
124.235
 30
0.0
 11
95.34589999999999
 21
123.3559999999999
 31
0.0
  0
LINE
  5
9827
330
9721
100
AcDbEntity
  8
1
  6
Continuous
100
AcDbLine
 10
94.49060000000001
 20
124.235
 30
0.0
 11
94.5059
 21
123.355
 31
0.0
  0
LINE
  5
9828
330
9721
100
AcDbEntity
  8
1
  6
Continuous
100
AcDbLine
 10
94.2543
 20
124.741
 30
0.0
 11
94.49060000000001
 21
124.235
 31
0.0
  0
LINE
  5
9829
330
9721
100
AcDbEntity
  8
1
  6
Continuous
100
AcDbLine
 10
95.5976
 20
126.085
 30
0.0
 11
96.1043
 21
125.848
 31
0.0
  0
LINE
  5
982A
330
9721
100
AcDbEntity
  8
1
  6
Continuous
100
AcDbLine
 10
96.1043
 20
125.848
 30
0.0
 11
96.98350000000001
 21
125.8329999999999
 31
0.0
  0
LINE
  5
982B
330
9721
100
AcDbEntity
  8
1
  6
Continuous
100
AcDbLine
 10
96.1043
 20
124.9779999999998
 30
0.0
 11
96.98350000000001
 21
124.9929999999999
 31
0.0
  0
LINE
  5
982C
330
9721
100
AcDbEntity
  8
1
  6
Continuous
100
AcDbLine
 10
95.5976
 20
124.741
 30
0.0
 11
96.1043
 21
124.9779999999998
 31
0.0
  0
LINE
  5
982D
330
9721
100
AcDbEntity
  8
1
  6
Continuous
100
AcDbLine
 10
94.2543
 20
126.085
 30
0.0
 11
94.49060000000001
 21
126.5909999999999
 31
0.0
  0
LINE
  5
982E
330
9721
100
AcDbEntity
  8
1
  6
Continuous
100
AcDbLine
 10
94.49060000000001
 20
126.5909999999999
 30
0.0
 11
94.5059
 21
127.471
 31
0.0
  0
LINE
  5
982F
330
9721
100
AcDbEntity
  8
1
  6
Continuous
100
AcDbLine
 10
95.36129999999998
 20
126.5909999999999
 30
0.0
 11
95.34589999999999
 21
127.471
 31
0.0
  0
LINE
  5
9830
330
9721
100
AcDbEntity
  8
1
  6
Continuous
100
AcDbLine
 10
95.5976
 20
126.085
 30
0.0
 11
95.36129999999998
 21
126.5909999999999
 31
0.0
  0
LINE
  5
9831
330
9721
100
AcDbEntity
  8
1
  6
Continuous
100
AcDbLine
 10
390.926
 20
247.263
 30
0.0
 11
381.8309999999998
 21
247.263
 31
0.0
  0
LINE
  5
9832
330
9721
100
AcDbEntity
  8
1
  6
Continuous
100
AcDbLine
 10
383.336
 20
257.2629999999999
 30
0.0
 11
381.8309999999998
 21
257.2629999999999
 31
0.0
  0
LINE
  5
9833
330
9721
100
AcDbEntity
  8
1
  6
Continuous
100
AcDbLine
 10
94.49060000000001
 20
84.2347
 30
0.0
 11
94.50599999999999
 21
83.35550000000003
 31
0.0
  0
LINE
  5
9834
330
9721
100
AcDbEntity
  8
1
  6
Continuous
100
AcDbLine
 10
94.2543
 20
84.74149999999999
 30
0.0
 11
94.49060000000001
 21
84.2347
 31
0.0
  0
LINE
  5
9835
330
9721
100
AcDbEntity
  8
1
  6
Continuous
100
AcDbLine
 10
94.2543
 20
84.74149999999999
 30
0.0
 11
93.7476
 21
84.9777
 31
0.0
  0
LINE
  5
9836
330
9721
100
AcDbEntity
  8
1
  6
Continuous
100
AcDbLine
 10
93.7476
 20
84.9777
 30
0.0
 11
92.86839999999999
 21
84.99309999999999
 31
0.0
  0
LINE
  5
9837
330
9721
100
AcDbEntity
  8
1
  6
Continuous
100
AcDbLine
 10
93.7476
 20
85.84839999999998
 30
0.0
 11
92.86839999999999
 21
85.8331
 31
0.0
  0
LINE
  5
9838
330
9721
100
AcDbEntity
  8
1
  6
Continuous
100
AcDbLine
 10
94.2543
 20
86.0847
 30
0.0
 11
93.7476
 21
85.84839999999998
 31
0.0
  0
LINE
  5
9839
330
9721
100
AcDbEntity
  8
1
  6
Continuous
100
AcDbLine
 10
94.2543
 20
86.0847
 30
0.0
 11
94.49060000000001
 21
86.59139999999998
 31
0.0
  0
LINE
  5
983A
330
9721
100
AcDbEntity
  8
1
  6
Continuous
100
AcDbLine
 10
94.49060000000001
 20
86.59139999999998
 30
0.0
 11
94.5059
 21
87.47060000000002
 31
0.0
  0
LINE
  5
983B
330
9721
100
AcDbEntity
  8
1
  6
Continuous
100
AcDbLine
 10
95.36129999999998
 20
86.59139999999998
 30
0.0
 11
95.34589999999999
 21
87.47060000000002
 31
0.0
  0
LINE
  5
983C
330
9721
100
AcDbEntity
  8
1
  6
Continuous
100
AcDbLine
 10
95.5976
 20
86.0847
 30
0.0
 11
95.36129999999998
 21
86.59139999999998
 31
0.0
  0
LINE
  5
983D
330
9721
100
AcDbEntity
  8
1
  6
Continuous
100
AcDbLine
 10
95.5976
 20
86.0847
 30
0.0
 11
96.1043
 21
85.84839999999998
 31
0.0
  0
LINE
  5
983E
330
9721
100
AcDbEntity
  8
1
  6
Continuous
100
AcDbLine
 10
96.1043
 20
84.9777
 30
0.0
 11
96.98350000000001
 21
84.99309999999999
 31
0.0
  0
LINE
  5
983F
330
9721
100
AcDbEntity
  8
1
  6
Continuous
100
AcDbLine
 10
96.1043
 20
85.84839999999998
 30
0.0
 11
96.98350000000001
 21
85.8331
 31
0.0
  0
LINE
  5
9840
330
9721
100
AcDbEntity
  8
1
  6
Continuous
100
AcDbLine
 10
95.5976
 20
84.7414
 30
0.0
 11
96.1043
 21
84.9777
 31
0.0
  0
LINE
  5
9841
330
9721
100
AcDbEntity
  8
1
  6
Continuous
100
AcDbLine
 10
95.36129999999998
 20
84.2347
 30
0.0
 11
95.34600000000001
 21
83.35550000000003
 31
0.0
  0
LINE
  5
9842
330
9721
100
AcDbEntity
  8
1
  6
Continuous
100
AcDbLine
 10
95.5976
 20
84.7414
 30
0.0
 11
95.36129999999998
 21
84.2347
 31
0.0
  0
LINE
  5
9843
330
9721
100
AcDbEntity
  8
1
  6
Continuous
100
AcDbLine
 10
85.23290000000001
 20
106.1059999999999
 30
0.0
 11
84.6836
 21
105.8499999999998
 31
0.0
  0
LINE
  5
9844
330
9721
100
AcDbEntity
  8
1
  6
Continuous
100
AcDbLine
 10
84.6836
 20
105.8499999999998
 30
0.0
 11
83.7155
 21
105.8329999999999
 31
0.0
  0
LINE
  5
9845
330
9721
100
AcDbEntity
  8
1
  6
Continuous
100
AcDbLine
 10
84.6836
 20
104.976
 30
0.0
 11
83.7155
 21
104.993
 31
0.0
  0
LINE
  5
9846
330
9721
100
AcDbEntity
  8
1
  6
Continuous
100
AcDbLine
 10
85.23290000000001
 20
104.7199999999999
 30
0.0
 11
84.6836
 21
104.976
 31
0.0
  0
LINE
  5
9847
330
9721
100
AcDbEntity
  8
1
  6
Continuous
100
AcDbLine
 10
86.61900000000001
 20
104.7199999999999
 30
0.0
 11
86.36289999999998
 21
104.171
 31
0.0
  0
LINE
  5
9848
330
9721
100
AcDbEntity
  8
1
  6
Continuous
100
AcDbLine
 10
86.36279999999997
 20
104.171
 30
0.0
 11
86.34590000000001
 21
103.203
 31
0.0
  0
LINE
  5
9849
330
9721
100
AcDbEntity
  8
1
  6
Continuous
100
AcDbLine
 10
85.48909999999997
 20
104.171
 30
0.0
 11
85.50600000000001
 21
103.203
 31
0.0
  0
LINE
  5
984A
330
9721
100
AcDbEntity
  8
1
  6
Continuous
100
AcDbLine
 10
85.23290000000001
 20
104.7199999999999
 30
0.0
 11
85.48899999999997
 21
104.171
 31
0.0
  0
LINE
  5
984B
330
9721
100
AcDbEntity
  8
1
  6
Continuous
100
AcDbLine
 10
86.61900000000001
 20
106.1059999999999
 30
0.0
 11
87.16829999999999
 21
105.8499999999998
 31
0.0
  0
LINE
  5
984C
330
9721
100
AcDbEntity
  8
1
  6
Continuous
100
AcDbLine
 10
87.16829999999999
 20
105.8499999999998
 30
0.0
 11
88.13639999999997
 21
105.8329999999999
 31
0.0
  0
LINE
  5
984D
330
9721
100
AcDbEntity
  8
1
  6
Continuous
100
AcDbLine
 10
87.16829999999999
 20
104.976
 30
0.0
 11
88.13639999999997
 21
104.993
 31
0.0
  0
LINE
  5
984E
330
9721
100
AcDbEntity
  8
1
  6
Continuous
100
AcDbLine
 10
86.61900000000001
 20
104.7199999999999
 30
0.0
 11
87.16829999999999
 21
104.976
 31
0.0
  0
LINE
  5
984F
330
9721
100
AcDbEntity
  8
1
  6
Continuous
100
AcDbLine
 10
85.23290000000001
 20
106.1059999999999
 30
0.0
 11
85.48909999999997
 21
106.655
 31
0.0
  0
LINE
  5
9850
330
9721
100
AcDbEntity
  8
1
  6
Continuous
100
AcDbLine
 10
85.48899999999997
 20
106.655
 30
0.0
 11
85.50589999999997
 21
107.624
 31
0.0
  0
LINE
  5
9851
330
9721
100
AcDbEntity
  8
1
  6
Continuous
100
AcDbLine
 10
86.36279999999997
 20
106.655
 30
0.0
 11
86.34590000000001
 21
107.624
 31
0.0
  0
LINE
  5
9852
330
9721
100
AcDbEntity
  8
1
  6
Continuous
100
AcDbLine
 10
86.61900000000001
 20
106.1059999999999
 30
0.0
 11
86.36289999999998
 21
106.655
 31
0.0
  0
LINE
  5
9853
330
9721
100
AcDbEntity
  8
1
  6
Continuous
100
AcDbLine
 10
50.2329
 20
136.1059999999999
 30
0.0
 11
49.6836
 21
135.85
 31
0.0
  0
LINE
  5
9854
330
9721
100
AcDbEntity
  8
1
  6
Continuous
100
AcDbLine
 10
49.6836
 20
135.85
 30
0.0
 11
48.7155
 21
135.833
 31
0.0
  0
LINE
  5
9855
330
9721
100
AcDbEntity
  8
1
  6
Continuous
100
AcDbLine
 10
49.6836
 20
134.976
 30
0.0
 11
48.7156
 21
134.993
 31
0.0
  0
LINE
  5
9856
330
9721
100
AcDbEntity
  8
1
  6
Continuous
100
AcDbLine
 10
50.2329
 20
134.7199999999999
 30
0.0
 11
49.6836
 21
134.976
 31
0.0
  0
LINE
  5
9857
330
9721
100
AcDbEntity
  8
1
  6
Continuous
100
AcDbLine
 10
51.619
 20
134.7199999999999
 30
0.0
 11
51.3629
 21
134.1709999999999
 31
0.0
  0
LINE
  5
9858
330
9721
100
AcDbEntity
  8
1
  6
Continuous
100
AcDbLine
 10
51.3629
 20
134.1709999999999
 30
0.0
 11
51.34599999999998
 21
133.203
 31
0.0
  0
LINE
  5
9859
330
9721
100
AcDbEntity
  8
1
  6
Continuous
100
AcDbLine
 10
50.4891
 20
134.1709999999999
 30
0.0
 11
50.506
 21
133.203
 31
0.0
  0
LINE
  5
985A
330
9721
100
AcDbEntity
  8
1
  6
Continuous
100
AcDbLine
 10
50.2329
 20
134.7199999999999
 30
0.0
 11
50.4891
 21
134.1709999999999
 31
0.0
  0
LINE
  5
985B
330
9721
100
AcDbEntity
  8
1
  6
Continuous
100
AcDbLine
 10
51.619
 20
136.1059999999999
 30
0.0
 11
52.1683
 21
135.85
 31
0.0
  0
LINE
  5
985C
330
9721
100
AcDbEntity
  8
1
  6
Continuous
100
AcDbLine
 10
52.1684
 20
135.85
 30
0.0
 11
53.1364
 21
135.833
 31
0.0
  0
LINE
  5
985D
330
9721
100
AcDbEntity
  8
1
  6
Continuous
100
AcDbLine
 10
52.1683
 20
134.976
 30
0.0
 11
53.1364
 21
134.993
 31
0.0
  0
LINE
  5
985E
330
9721
100
AcDbEntity
  8
1
  6
Continuous
100
AcDbLine
 10
51.619
 20
134.7199999999999
 30
0.0
 11
52.1683
 21
134.976
 31
0.0
  0
LINE
  5
985F
330
9721
100
AcDbEntity
  8
1
  6
Continuous
100
AcDbLine
 10
50.2329
 20
136.1059999999999
 30
0.0
 11
50.4891
 21
136.6549999999998
 31
0.0
  0
LINE
  5
9860
330
9721
100
AcDbEntity
  8
1
  6
Continuous
100
AcDbLine
 10
50.4891
 20
136.6549999999998
 30
0.0
 11
50.506
 21
137.6239999999999
 31
0.0
  0
LINE
  5
9861
330
9721
100
AcDbEntity
  8
1
  6
Continuous
100
AcDbLine
 10
51.3629
 20
136.6549999999998
 30
0.0
 11
51.34599999999998
 21
137.6239999999999
 31
0.0
  0
LINE
  5
9862
330
9721
100
AcDbEntity
  8
1
  6
Continuous
100
AcDbLine
 10
51.619
 20
136.1059999999999
 30
0.0
 11
51.3628
 21
136.6549999999998
 31
0.0
  0
LINE
  5
9863
330
9721
100
AcDbEntity
  8
1
  6
Continuous
100
AcDbLine
 10
50.2329
 20
76.1061
 30
0.0
 11
49.6836
 21
75.84999999999998
 31
0.0
  0
LINE
  5
9864
330
9721
100
AcDbEntity
  8
1
  6
Continuous
100
AcDbLine
 10
49.6836
 20
75.84999999999998
 30
0.0
 11
48.7155
 21
75.8331
 31
0.0
  0
LINE
  5
9865
330
9721
100
AcDbEntity
  8
1
  6
Continuous
100
AcDbLine
 10
49.6836
 20
74.97620000000002
 30
0.0
 11
48.7155
 21
74.9931
 31
0.0
  0
LINE
  5
9866
330
9721
100
AcDbEntity
  8
1
  6
Continuous
100
AcDbLine
 10
50.2329
 20
74.72
 30
0.0
 11
49.6836
 21
74.97620000000002
 31
0.0
  0
LINE
  5
9867
330
9721
100
AcDbEntity
  8
1
  6
Continuous
100
AcDbLine
 10
51.619
 20
74.72
 30
0.0
 11
51.3629
 21
74.17069999999998
 31
0.0
  0
LINE
  5
9868
330
9721
100
AcDbEntity
  8
1
  6
Continuous
100
AcDbLine
 10
51.3629
 20
74.17069999999998
 30
0.0
 11
51.34599999999998
 21
73.20260000000001
 31
0.0
  0
LINE
  5
9869
330
9721
100
AcDbEntity
  8
1
  6
Continuous
100
AcDbLine
 10
50.4891
 20
74.17069999999998
 30
0.0
 11
50.506
 21
73.20260000000001
 31
0.0
  0
LINE
  5
986A
330
9721
100
AcDbEntity
  8
1
  6
Continuous
100
AcDbLine
 10
50.2329
 20
74.72
 30
0.0
 11
50.4891
 21
74.17069999999998
 31
0.0
  0
LINE
  5
986B
330
9721
100
AcDbEntity
  8
1
  6
Continuous
100
AcDbLine
 10
51.619
 20
76.1061
 30
0.0
 11
52.1684
 21
75.84999999999998
 31
0.0
  0
LINE
  5
986C
330
9721
100
AcDbEntity
  8
1
  6
Continuous
100
AcDbLine
 10
52.1684
 20
75.84999999999998
 30
0.0
 11
53.1364
 21
75.8331
 31
0.0
  0
LINE
  5
986D
330
9721
100
AcDbEntity
  8
1
  6
Continuous
100
AcDbLine
 10
52.1684
 20
74.97620000000002
 30
0.0
 11
53.1364
 21
74.9931
 31
0.0
  0
LINE
  5
986E
330
9721
100
AcDbEntity
  8
1
  6
Continuous
100
AcDbLine
 10
51.619
 20
74.72
 30
0.0
 11
52.1684
 21
74.97620000000002
 31
0.0
  0
LINE
  5
986F
330
9721
100
AcDbEntity
  8
1
  6
Continuous
100
AcDbLine
 10
50.2329
 20
76.1061
 30
0.0
 11
50.4891
 21
76.6555
 31
0.0
  0
LINE
  5
9870
330
9721
100
AcDbEntity
  8
1
  6
Continuous
100
AcDbLine
 10
50.4891
 20
76.6554
 30
0.0
 11
50.506
 21
77.62350000000002
 31
0.0
  0
LINE
  5
9871
330
9721
100
AcDbEntity
  8
1
  6
Continuous
100
AcDbLine
 10
51.3629
 20
76.6554
 30
0.0
 11
51.34599999999998
 21
77.62350000000002
 31
0.0
  0
LINE
  5
9872
330
9721
100
AcDbEntity
  8
1
  6
Continuous
100
AcDbLine
 10
51.619
 20
76.1061
 30
0.0
 11
51.3629
 21
76.6554
 31
0.0
  0
LINE
  5
9873
330
9721
100
AcDbEntity
  8
5
  6
PHANTOM
100
AcDbLine
 10
342.6739999999999
 20
225.91
 30
0.0
 11
319.645
 21
207.01
 31
0.0
  0
LINE
  5
9874
330
9721
100
AcDbEntity
  8
1
  6
Continuous
100
AcDbLine
 10
207.1289999999999
 20
102.9129999999999
 30
0.0
 11
203.1289999999999
 21
102.9129999999999
 31
0.0
  0
LINE
  5
9875
330
9721
100
AcDbEntity
  8
1
  6
Continuous
100
AcDbLine
 10
207.1289999999999
 20
107.9129999999999
 30
0.0
 11
203.1289999999999
 21
107.9129999999999
 31
0.0
  0
LINE
  5
9876
330
9721
100
AcDbEntity
  8
1
  6
Continuous
100
AcDbLine
 10
213.329
 20
130.4129999999998
 30
0.0
 11
213.329
 21
137.9129999999999
 31
0.0
  0
LINE
  5
9877
330
9721
100
AcDbEntity
  8
1
  6
Continuous
100
AcDbLine
 10
213.329
 20
90.41310000000001
 30
0.0
 11
213.329
 21
120.4129999999999
 31
0.0
  0
LINE
  5
9878
330
9721
100
AcDbEntity
  8
4
  6
CENTER
100
AcDbLine
 10
224.1289999999999
 20
54.7492
 30
0.0
 11
224.1289999999999
 21
157.66
 31
0.0
  0
LINE
  5
9879
330
9721
100
AcDbEntity
  8
4
  6
CENTER
100
AcDbLine
 10
452.5339999999998
 20
52.4732
 30
0.0
 11
452.5339999999998
 21
155.5979999999999
 31
0.0
  0
LINE
  5
987A
330
9721
100
AcDbEntity
  8
1
  6
Continuous
100
AcDbLine
 10
312.2889999999998
 20
289.563
 30
0.0
 11
312.2889999999998
 21
288.7629999999999
 31
0.0
  0
LINE
  5
987B
330
9721
100
AcDbEntity
  8
1
  6
Continuous
100
AcDbLine
 10
302.2889999999998
 20
289.563
 30
0.0
 11
312.2889999999998
 21
289.563
 31
0.0
  0
LINE
  5
987C
330
9721
100
AcDbEntity
  8
1
  6
Continuous
100
AcDbLine
 10
302.2889999999998
 20
289.563
 30
0.0
 11
302.2889999999998
 21
288.7629999999999
 31
0.0
  0
LINE
  5
987D
330
9721
100
AcDbEntity
  8
1
  6
Continuous
100
AcDbLine
 10
303.4889999999998
 20
290.563
 30
0.0
 11
303.4889999999998
 21
289.563
 31
0.0
  0
LINE
  5
987E
330
9721
100
AcDbEntity
  8
1
  6
Continuous
100
AcDbLine
 10
306.87
 20
290.563
 30
0.0
 11
307.709
 21
289.563
 31
0.0
  0
LINE
  5
987F
330
9721
100
AcDbEntity
  8
1
  6
Continuous
100
AcDbLine
 10
303.4889999999998
 20
290.563
 30
0.0
 11
311.0889999999999
 21
290.563
 31
0.0
  0
LINE
  5
9880
330
9721
100
AcDbEntity
  8
1
  6
Continuous
100
AcDbLine
 10
311.0889999999999
 20
290.563
 30
0.0
 11
311.0889999999999
 21
289.563
 31
0.0
  0
LINE
  5
9881
330
9721
100
AcDbEntity
  8
1
  6
Continuous
100
AcDbLine
 10
310.7889999999998
 20
290.563
 30
0.0
 11
310.6909999999999
 21
291.682
 31
0.0
  0
LINE
  5
9882
330
9721
100
AcDbEntity
  8
1
  6
Continuous
100
AcDbLine
 10
303.7889999999998
 20
290.563
 30
0.0
 11
303.887
 21
291.682
 31
0.0
  0
LINE
  5
9883
330
9721
100
AcDbEntity
  8
4
  6
CENTER
100
AcDbLine
 10
94.92600000000001
 20
118.913
 30
0.0
 11
94.92600000000001
 21
131.9129999999999
 31
0.0
  0
LINE
  5
9884
330
9721
100
AcDbEntity
  8
4
  6
CENTER
100
AcDbLine
 10
101.4259999999999
 20
125.4129999999999
 30
0.0
 11
88.426
 21
125.4129999999999
 31
0.0
  0
LINE
  5
9885
330
9721
100
AcDbEntity
  8
4
  6
CENTER
100
AcDbLine
 10
94.92600000000001
 20
78.9131
 30
0.0
 11
94.92600000000001
 21
91.91309999999999
 31
0.0
  0
LINE
  5
9886
330
9721
100
AcDbEntity
  8
4
  6
CENTER
100
AcDbLine
 10
101.4259999999999
 20
85.41310000000001
 30
0.0
 11
88.426
 21
85.41310000000001
 31
0.0
  0
LINE
  5
9887
330
9721
100
AcDbEntity
  8
1
  6
Continuous
100
AcDbLine
 10
159.829
 20
124.994
 30
0.0
 11
160.829
 21
125.8329999999999
 31
0.0
  0
LINE
  5
9888
330
9721
100
AcDbEntity
  8
1
  6
Continuous
100
AcDbLine
 10
159.829
 20
128.9129999999999
 30
0.0
 11
158.709
 21
128.8149999999999
 31
0.0
  0
LINE
  5
9889
330
9721
100
AcDbEntity
  8
1
  6
Continuous
100
AcDbLine
 10
159.829
 20
121.913
 30
0.0
 11
158.709
 21
122.011
 31
0.0
  0
LINE
  5
988A
330
9721
100
AcDbEntity
  8
1
  6
Continuous
100
AcDbLine
 10
160.829
 20
120.4129999999999
 30
0.0
 11
160.829
 21
130.4129999999998
 31
0.0
  0
LINE
  5
988B
330
9721
100
AcDbEntity
  8
1
  6
Continuous
100
AcDbLine
 10
159.829
 20
121.6129999999999
 30
0.0
 11
159.829
 21
129.213
 31
0.0
  0
LINE
  5
988C
330
9721
100
AcDbEntity
  8
1
  6
Continuous
100
AcDbLine
 10
160.829
 20
129.213
 30
0.0
 11
159.829
 21
129.213
 31
0.0
  0
LINE
  5
988D
330
9721
100
AcDbEntity
  8
1
  6
Continuous
100
AcDbLine
 10
160.829
 20
121.6129999999999
 30
0.0
 11
159.829
 21
121.6129999999999
 31
0.0
  0
LINE
  5
988E
330
9721
100
AcDbEntity
  8
1
  6
Continuous
100
AcDbLine
 10
161.629
 20
120.4129999999999
 30
0.0
 11
160.829
 21
120.4129999999999
 31
0.0
  0
LINE
  5
988F
330
9721
100
AcDbEntity
  8
1
  6
Continuous
100
AcDbLine
 10
161.629
 20
130.4129999999998
 30
0.0
 11
160.829
 21
130.4129999999998
 31
0.0
  0
LINE
  5
9890
330
9721
100
AcDbEntity
  8
1
  6
Continuous
100
AcDbLine
 10
159.829
 20
84.99349999999997
 30
0.0
 11
160.829
 21
85.8326
 31
0.0
  0
LINE
  5
9891
330
9721
100
AcDbEntity
  8
1
  6
Continuous
100
AcDbLine
 10
159.829
 20
88.9131
 30
0.0
 11
158.709
 21
88.8152
 31
0.0
  0
LINE
  5
9892
330
9721
100
AcDbEntity
  8
1
  6
Continuous
100
AcDbLine
 10
159.829
 20
81.91309999999999
 30
0.0
 11
158.709
 21
82.01100000000002
 31
0.0
  0
LINE
  5
9893
330
9721
100
AcDbEntity
  8
1
  6
Continuous
100
AcDbLine
 10
160.829
 20
80.41310000000001
 30
0.0
 11
160.829
 21
90.41310000000001
 31
0.0
  0
LINE
  5
9894
330
9721
100
AcDbEntity
  8
1
  6
Continuous
100
AcDbLine
 10
159.829
 20
81.6131
 30
0.0
 11
159.829
 21
89.21309999999998
 31
0.0
  0
LINE
  5
9895
330
9721
100
AcDbEntity
  8
1
  6
Continuous
100
AcDbLine
 10
160.829
 20
89.21309999999998
 30
0.0
 11
159.829
 21
89.21309999999998
 31
0.0
  0
LINE
  5
9896
330
9721
100
AcDbEntity
  8
1
  6
Continuous
100
AcDbLine
 10
160.829
 20
81.6131
 30
0.0
 11
159.829
 21
81.6131
 31
0.0
  0
LINE
  5
9897
330
9721
100
AcDbEntity
  8
1
  6
Continuous
100
AcDbLine
 10
161.629
 20
80.41310000000001
 30
0.0
 11
160.829
 21
80.41310000000001
 31
0.0
  0
LINE
  5
9898
330
9721
100
AcDbEntity
  8
1
  6
Continuous
100
AcDbLine
 10
161.629
 20
90.41310000000001
 30
0.0
 11
160.829
 21
90.41310000000001
 31
0.0
  0
LINE
  5
9899
330
9721
100
AcDbEntity
  8
4
  6
CENTER
100
AcDbLine
 10
307.3309999999999
 20
241.812
 30
0.0
 11
307.3309999999999
 21
256.142
 31
0.0
  0
LINE
  5
989A
330
9721
100
AcDbEntity
  8
1
  6
Continuous
100
AcDbLine
 10
302.3299999999999
 20
241.0169999999999
 30
0.0
 11
302.3299999999999
 21
251.263
 31
0.0
  0
LINE
  5
989B
330
9721
100
AcDbEntity
  8
1
  6
Continuous
100
AcDbLine
 10
314.3299999999999
 20
247.033
 30
0.0
 11
314.3299999999999
 21
251.263
 31
0.0
  0
LINE
  5
989C
330
9721
100
AcDbEntity
  8
1
  6
Continuous
100
AcDbLine
 10
288.7679999999999
 20
82.4131
 30
0.0
 11
288.7679999999999
 21
128.4129999999999
 31
0.0
  0
LINE
  5
989D
330
9721
100
AcDbEntity
  8
1
  6
Continuous
100
AcDbLine
 10
103.926
 20
70.9131
 30
0.0
 11
103.926
 21
80.41310000000001
 31
0.0
  0
LINE
  5
989E
330
9721
100
AcDbEntity
  8
1
  6
Continuous
100
AcDbLine
 10
103.926
 20
130.4129999999998
 30
0.0
 11
103.926
 21
139.9129999999999
 31
0.0
  0
LINE
  5
989F
330
9721
100
AcDbEntity
  8
1
  6
Continuous
100
AcDbLine
 10
355.8309999999999
 20
142.9129999999998
 30
0.0
 11
334.8309999999999
 21
142.9129999999998
 31
0.0
  0
LINE
  5
98A0
330
9721
100
AcDbEntity
  8
1
  6
Continuous
100
AcDbLine
 10
355.8309999999999
 20
142.9129999999998
 30
0.0
 11
355.8309999999999
 21
67.9131
 31
0.0
  0
LINE
  5
98A1
330
9721
100
AcDbEntity
  8
1
  6
Continuous
100
AcDbLine
 10
331.8309999999998
 20
139.9129999999999
 30
0.0
 11
331.8309999999998
 21
129.4189999999999
 31
0.0
  0
LINE
  5
98A2
330
9721
100
AcDbEntity
  8
1
  6
Continuous
100
AcDbLine
 10
355.8309999999999
 20
67.9131
 30
0.0
 11
306.0350000000001
 21
67.9131
 31
0.0
  0
ARC
  5
98A3
330
9721
100
AcDbEntity
  8
1
  6
Continuous
100
AcDbCircle
 10
-143.6689999999998
 20
105.413
 30
0.0
 40
508.4999999999998
100
AcDbArc
 50
355.532
 51
4.46842
  0
ARC
  5
98A4
330
9721
100
AcDbEntity
  8
1
  6
Continuous
100
AcDbCircle
 10
800.331
 20
105.413
 30
0.0
 40
508.4999999999998
100
AcDbArc
 50
175.532
 51
184.4679999999999
  0
ARC
  5
98A5
330
9721
100
AcDbEntity
  8
1
  6
Continuous
100
AcDbCircle
 10
328.3309999999999
 20
-348.5869999999999
 30
0.0
 40
500.0
100
AcDbArc
 50
86.63769999999997
 51
93.3623
  0
ARC
  5
98A6
330
9721
100
AcDbEntity
  8
1
  6
Continuous
100
AcDbCircle
 10
328.3309999999999
 20
559.4129999999998
 30
0.0
 40
500.0
100
AcDbArc
 50
266.6379999999999
 51
273.362
  0
ARC
  5
98A7
330
9721
100
AcDbEntity
  8
1
  6
Continuous
100
AcDbCircle
 10
299.358
 20
144.5629999999999
 30
0.0
 40
6.0
100
AcDbArc
 50
93.3623
 51
175.532
  0
ARC
  5
98A8
330
9721
100
AcDbEntity
  8
1
  6
Continuous
100
AcDbCircle
 10
357.3039999999999
 20
144.5629999999999
 30
0.0
 40
6.0
100
AcDbArc
 50
4.468429999999998
 51
86.63769999999997
  0
ARC
  5
98A9
330
9721
100
AcDbEntity
  8
1
  6
Continuous
100
AcDbCircle
 10
357.3039999999999
 20
66.2634
 30
0.0
 40
6.0
100
AcDbArc
 50
273.362
 51
355.532
  0
ARC
  5
98AA
330
9721
100
AcDbEntity
  8
1
  6
Continuous
100
AcDbCircle
 10
299.358
 20
66.2634
 30
0.0
 40
6.0
100
AcDbArc
 50
184.4679999999999
 51
266.6379999999999
  0
ARC
  5
98AB
330
9721
100
AcDbEntity
  8
1
  6
Continuous
100
AcDbCircle
 10
800.331
 20
105.413
 30
0.0
 40
500.0
100
AcDbArc
 50
175.9619999999999
 51
184.0379999999998
  0
ARC
  5
98AC
330
9721
100
AcDbEntity
  8
1
  6
Continuous
100
AcDbCircle
 10
304.565
 20
70.4131
 30
0.0
 40
3.0
100
AcDbArc
 50
184.0379999999998
 51
270.0
  0
ARC
  5
98AD
330
9721
100
AcDbEntity
  8
1
  6
Continuous
100
AcDbCircle
 10
304.565
 20
140.4129999999998
 30
0.0
 40
3.0
100
AcDbArc
 50
90.0
 51
175.9619999999999
  0
ARC
  5
98AE
330
9721
100
AcDbEntity
  8
1
  6
Continuous
100
AcDbCircle
 10
-465.371
 20
105.413
 30
0.0
 40
700.0
100
AcDbArc
 50
356.309
 51
3.691119999999998
  0
ARC
  5
98AF
330
9721
100
AcDbEntity
  8
1
  6
Continuous
100
AcDbCircle
 10
232.179
 20
150.4129999999999
 30
0.0
 40
1.0
100
AcDbArc
 50
3.691119999999998
 51
90.0
  0
ARC
  5
98B0
330
9721
100
AcDbEntity
  8
1
  6
Continuous
100
AcDbCircle
 10
232.179
 20
60.4131
 30
0.0
 40
1.0
100
AcDbArc
 50
270.0
 51
356.309
  0
ARC
  5
98B1
330
9721
100
AcDbEntity
  8
1
  6
Continuous
100
AcDbCircle
 10
221.329
 20
72.9131
 30
0.0
 40
8.0
100
AcDbArc
 50
180.0
 51
270.0
  0
ARC
  5
98B2
330
9721
100
AcDbEntity
  8
1
  6
Continuous
100
AcDbCircle
 10
221.329
 20
137.9129999999999
 30
0.0
 40
8.0
100
AcDbArc
 50
90.0
 51
180.0
  0
ARC
  5
98B3
330
9721
100
AcDbEntity
  8
1
  6
Continuous
100
AcDbCircle
 10
1142.029999999999
 20
105.413
 30
0.0
 40
700.0
100
AcDbArc
 50
176.309
 51
183.6909999999998
  0
ARC
  5
98B4
330
9721
100
AcDbEntity
  8
1
  6
Continuous
100
AcDbCircle
 10
444.484
 20
150.4129999999999
 30
0.0
 40
1.0
100
AcDbArc
 50
90.0
 51
176.309
  0
ARC
  5
98B5
330
9721
100
AcDbEntity
  8
1
  6
Continuous
100
AcDbCircle
 10
444.484
 20
60.4131
 30
0.0
 40
1.0
100
AcDbArc
 50
183.6909999999998
 51
270.0
  0
ARC
  5
98B6
330
9721
100
AcDbEntity
  8
1
  6
Continuous
100
AcDbCircle
 10
455.334
 20
72.9131
 30
0.0
 40
8.0
100
AcDbArc
 50
270.0
 51
298.976
  0
ARC
  5
98B7
330
9721
100
AcDbEntity
  8
1
  6
Continuous
100
AcDbCircle
 10
455.334
 20
137.9129999999999
 30
0.0
 40
8.0
100
AcDbArc
 50
61.02409999999999
 51
90.0
  0
ARC
  5
98B8
330
9721
100
AcDbEntity
  8
1
  6
Continuous
100
AcDbCircle
 10
447.534
 20
141.4129999999999
 30
0.0
 40
1.0
100
AcDbArc
 50
180.0
 51
270.0
  0
ARC
  5
98B9
330
9721
100
AcDbEntity
  8
1
  6
Continuous
100
AcDbCircle
 10
448.5339999999998
 20
141.4129999999999
 30
0.0
 40
1.0
100
AcDbArc
 50
180.0
 51
270.0
  0
ARC
  5
98BA
330
9721
100
AcDbEntity
  8
1
  6
Continuous
100
AcDbCircle
 10
448.5339999999998
 20
69.4131
 30
0.0
 40
1.0
100
AcDbArc
 50
90.0
 51
180.0
  0
ARC
  5
98BB
330
9721
100
AcDbEntity
  8
1
  6
Continuous
100
AcDbCircle
 10
447.534
 20
69.4131
 30
0.0
 40
1.0
100
AcDbArc
 50
90.0
 51
180.0
  0
ARC
  5
98BC
330
9721
100
AcDbEntity
  8
1
  6
Continuous
100
AcDbCircle
 10
328.3309999999999
 20
925.763
 30
0.0
 40
700.0
100
AcDbArc
 50
267.0889999999999
 51
272.9109999999999
  0
ARC
  5
98BD
330
9721
100
AcDbEntity
  8
1
  6
Continuous
100
AcDbCircle
 10
363.8309999999998
 20
227.665
 30
0.0
 40
1.0
100
AcDbArc
 50
272.9109999999999
 51
0.000009
  0
ARC
  5
98BE
330
9721
100
AcDbEntity
  8
1
  6
Continuous
100
AcDbCircle
 10
292.8309999999999
 20
227.665
 30
0.0
 40
1.0
100
AcDbArc
 50
180.0
 51
267.0889999999999
  0
ARC
  5
98BF
330
9721
100
AcDbEntity
  8
5
  6
PHANTOM
100
AcDbCircle
 10
-105.115
 20
758.1479999999997
 30
0.0
 40
700.0
100
AcDbArc
 50
307.469
 51
310.529
  0
ARC
  5
98C0
330
9721
100
AcDbEntity
  8
5
  6
PHANTOM
100
AcDbCircle
 10
319.1929999999999
 20
204.5519999999999
 30
0.0
 40
2.5
100
AcDbArc
 50
79.57930000000001
 51
307.469
  0
ARC
  5
98C1
330
9721
100
AcDbEntity
  8
5
  6
PHANTOM
100
AcDbCircle
 10
326.2869999999999
 20
225.3979999999998
 30
0.0
 40
1.0
100
AcDbArc
 50
158.22
 51
219.375
  0
ARC
  5
98C2
330
9721
100
AcDbEntity
  8
5
  6
PHANTOM
100
AcDbCircle
 10
356.4189999999999
 20
235.183
 30
0.0
 40
2.5
100
AcDbArc
 50
311.43
 51
39.3755
  0
ARC
  5
98C3
330
9721
100
AcDbEntity
  8
1
  6
Continuous
100
AcDbCircle
 10
460.5339999999998
 20
67.4131
 30
0.0
 40
2.0
100
AcDbArc
 50
180.0
 51
270.0
  0
ARC
  5
98C4
330
9721
100
AcDbEntity
  8
1
  6
Continuous
100
AcDbCircle
 10
460.5339999999998
 20
143.4129999999998
 30
0.0
 40
2.0
100
AcDbArc
 50
90.0
 51
180.0
  0
CIRCLE
  5
98C5
330
9721
100
AcDbEntity
  8
2
  6
Continuous
100
AcDbCircle
 10
465.5339999999998
 20
75.4131
 30
0.0
 40
2.5
  0
CIRCLE
  5
98C6
330
9721
100
AcDbEntity
  8
2
  6
Continuous
100
AcDbCircle
 10
465.5339999999998
 20
135.4129999999998
 30
0.0
 40
2.5
  0
CIRCLE
  5
98C7
330
9721
100
AcDbEntity
  8
1
  6
Continuous
100
AcDbCircle
 10
465.5339999999998
 20
75.4131
 30
0.0
 40
2.066999999999997
  0
CIRCLE
  5
98C8
330
9721
100
AcDbEntity
  8
1
  6
Continuous
100
AcDbCircle
 10
465.5339999999998
 20
135.4129999999998
 30
0.0
 40
2.066999999999997
  0
ARC
  5
98C9
330
9721
100
AcDbEntity
  8
1
  6
Continuous
100
AcDbCircle
 10
379.8309999999998
 20
257.2629999999999
 30
0.0
 40
2.0
100
AcDbArc
 50
0.0
 51
90.0
  0
ARC
  5
98CA
330
9721
100
AcDbEntity
  8
1
  6
Continuous
100
AcDbCircle
 10
216.129
 20
67.4131
 30
0.0
 40
2.0
100
AcDbArc
 50
270.0
 51
311.471
  0
ARC
  5
98CB
330
9721
100
AcDbEntity
  8
1
  6
Continuous
100
AcDbCircle
 10
216.129
 20
143.4129999999998
 30
0.0
 40
2.0
100
AcDbArc
 50
48.52920000000001
 51
90.0
  0
ARC
  5
98CC
330
9721
100
AcDbEntity
  8
1
  6
Continuous
100
AcDbCircle
 10
390.8309999999998
 20
99.41310000000001
 30
0.0
 40
1.0
100
AcDbArc
 50
270.0
 51
0.000005
  0
ARC
  5
98CD
330
9721
100
AcDbEntity
  8
1
  6
Continuous
100
AcDbCircle
 10
390.8309999999998
 20
111.413
 30
0.0
 40
1.0
100
AcDbArc
 50
0.0
 51
90.0
  0
ARC
  5
98CE
330
9721
100
AcDbEntity
  8
5
  6
PHANTOM
100
AcDbCircle
 10
380.926
 20
248.2629999999999
 30
0.0
 40
1.0
100
AcDbArc
 50
270.0
 51
31.0183
  0
ARC
  5
98CF
330
9721
100
AcDbEntity
  8
5
  6
PHANTOM
100
AcDbCircle
 10
360.3569999999999
 20
235.895
 30
0.0
 40
25.0
100
AcDbArc
 50
31.0183
 51
58.7266
  0
ARC
  5
98D0
330
9721
100
AcDbEntity
  8
1
  6
Continuous
100
AcDbCircle
 10
464.534
 20
99.41310000000001
 30
0.0
 40
1.0
100
AcDbArc
 50
180.0
 51
270.0
  0
ARC
  5
98D1
330
9721
100
AcDbEntity
  8
1
  6
Continuous
100
AcDbCircle
 10
464.534
 20
111.413
 30
0.0
 40
1.0
100
AcDbArc
 50
90.0
 51
180.0
  0
ARC
  5
98D2
330
9721
100
AcDbEntity
  8
1
  6
Continuous
100
AcDbCircle
 10
472.534
 20
111.413
 30
0.0
 40
1.0
100
AcDbArc
 50
0.0
 51
90.0
  0
ARC
  5
98D3
330
9721
100
AcDbEntity
  8
1
  6
Continuous
100
AcDbCircle
 10
472.534
 20
99.41310000000001
 30
0.0
 40
1.0
100
AcDbArc
 50
270.0
 51
0.000005
  0
ARC
  5
98D4
330
9721
100
AcDbEntity
  8
1
  6
Continuous
100
AcDbCircle
 10
302.3309999999999
 20
286.7629999999999
 30
0.0
 40
2.0
100
AcDbArc
 50
90.0
 51
165.0
  0
ARC
  5
98D5
330
9721
100
AcDbEntity
  8
1
  6
Continuous
100
AcDbCircle
 10
294.7679999999999
 20
266.2629999999999
 30
0.0
 40
2.0
100
AcDbArc
 50
270.0
 51
345.0
  0
ARC
  5
98D6
330
9721
100
AcDbEntity
  8
1
  6
Continuous
100
AcDbCircle
 10
89.92600000000001
 20
82.4131
 30
0.0
 40
2.0
100
AcDbArc
 50
180.0
 51
270.0
  0
ARC
  5
98D7
330
9721
100
AcDbEntity
  8
1
  6
Continuous
100
AcDbCircle
 10
89.92600000000001
 20
128.4129999999999
 30
0.0
 40
2.0
100
AcDbArc
 50
90.0
 51
180.0
  0
ARC
  5
98D8
330
9721
100
AcDbEntity
  8
1
  6
Continuous
100
AcDbCircle
 10
111.49
 20
82.4131
 30
0.0
 40
2.0
100
AcDbArc
 50
270.0
 51
0.000005
  0
ARC
  5
98D9
330
9721
100
AcDbEntity
  8
1
  6
Continuous
100
AcDbCircle
 10
111.49
 20
128.4129999999999
 30
0.0
 40
2.0
100
AcDbArc
 50
0.0
 51
90.0
  0
ARC
  5
98DA
330
9721
100
AcDbEntity
  8
1
  6
Continuous
100
AcDbCircle
 10
87.926
 20
105.413
 30
0.0
 40
6.0
100
AcDbArc
 50
293.586
 51
66.4141
  0
ARC
  5
98DB
330
9721
100
AcDbEntity
  8
1
  6
Continuous
100
AcDbCircle
 10
378.8309999999999
 20
79.9131
 30
0.0
 40
1.0
100
AcDbArc
 50
270.0
 51
0.000005
  0
ARC
  5
98DC
330
9721
100
AcDbEntity
  8
1
  6
Continuous
100
AcDbCircle
 10
378.8309999999999
 20
70.9131
 30
0.0
 40
1.0
100
AcDbArc
 50
0.0
 51
90.0
  0
ARC
  5
98DD
330
9721
100
AcDbEntity
  8
1
  6
Continuous
100
AcDbCircle
 10
378.8309999999999
 20
253.763
 30
0.0
 40
1.0
100
AcDbArc
 50
270.0
 51
0.000009
  0
ARC
  5
98DE
330
9721
100
AcDbEntity
  8
1
  6
Continuous
100
AcDbCircle
 10
378.8309999999999
 20
244.763
 30
0.0
 40
1.0
100
AcDbArc
 50
0.0
 51
90.0
  0
ARC
  5
98DF
330
9721
100
AcDbEntity
  8
1
  6
Continuous
100
AcDbCircle
 10
378.8309999999999
 20
139.9129999999999
 30
0.0
 40
1.0
100
AcDbArc
 50
270.0
 51
0.000005
  0
ARC
  5
98E0
330
9721
100
AcDbEntity
  8
1
  6
Continuous
100
AcDbCircle
 10
378.8309999999999
 20
130.9129999999999
 30
0.0
 40
1.0
100
AcDbArc
 50
0.0
 51
90.0
  0
CIRCLE
  5
98E1
330
9721
100
AcDbEntity
  8
1
  6
Continuous
100
AcDbCircle
 10
331.3309999999999
 20
77.4131
 30
0.0
 40
6.7
  0
ARC
  5
98E2
330
9721
100
AcDbEntity
  8
1
  6
Continuous
100
AcDbCircle
 10
84.44124399999997
 20
245.17641
 30
0.0
 40
1.0
100
AcDbArc
 50
315.0
 51
45.0
  0
ARC
  5
98E3
330
9721
100
AcDbEntity
  8
1
  6
Continuous
100
AcDbCircle
 10
73.94124399999999
 20
241.17641
 30
0.0
 40
0.5
100
AcDbArc
 50
270.0
 51
0.0
  0
ARC
  5
98E4
330
9721
100
AcDbEntity
  8
1
  6
Continuous
100
AcDbCircle
 10
73.94124399999999
 20
249.17641
 30
0.0
 40
0.5
100
AcDbArc
 50
0.0
 51
90.0
  0
ARC
  5
98E5
330
9721
100
AcDbEntity
  8
1
  6
Continuous
100
AcDbCircle
 10
53.94124399999999
 20
247.67641
 30
0.0
 40
0.5
100
AcDbArc
 50
90.0
 51
180.0
  0
ARC
  5
98E6
330
9721
100
AcDbEntity
  8
1
  6
Continuous
100
AcDbCircle
 10
55.441244
 20
247.67641
 30
0.0
 40
0.5
100
AcDbArc
 50
0.0
 51
90.0
  0
ARC
  5
98E7
330
9721
100
AcDbEntity
  8
1
  6
Continuous
100
AcDbCircle
 10
52.441244
 20
248.33641
 30
0.0
 40
1.0
100
AcDbArc
 50
142.431
 51
180.0
  0
ARC
  5
98E8
330
9721
100
AcDbEntity
  8
1
  6
Continuous
100
AcDbCircle
 10
52.441244
 20
242.01641
 30
0.0
 40
1.0
100
AcDbArc
 50
180.0
 51
217.5689999999999
  0
ARC
  5
98E9
330
9721
100
AcDbEntity
  8
1
  6
Continuous
100
AcDbCircle
 10
56.933644
 20
236.17641
 30
0.0
 40
1.0
100
AcDbArc
 50
217.5689999999999
 51
270.0
  0
ARC
  5
98EA
330
9721
100
AcDbEntity
  8
1
  6
Continuous
100
AcDbCircle
 10
59.67264399999999
 20
236.17641
 30
0.0
 40
1.0
100
AcDbArc
 50
270.0
 51
300.069
  0
ARC
  5
98EB
330
9721
100
AcDbEntity
  8
1
  6
Continuous
100
AcDbCircle
 10
56.933644
 20
254.1764099999999
 30
0.0
 40
1.0
100
AcDbArc
 50
90.0
 51
142.431
  0
ARC
  5
98EC
330
9721
100
AcDbEntity
  8
1
  6
Continuous
100
AcDbCircle
 10
59.67264399999999
 20
254.1764099999999
 30
0.0
 40
1.0
100
AcDbArc
 50
59.9314
 51
90.0
  0
ARC
  5
98ED
330
9721
100
AcDbEntity
  8
1
  6
Continuous
100
AcDbCircle
 10
61.44124399999999
 20
240.4544099999998
 30
0.0
 40
2.0282
100
AcDbArc
 50
215.5379999999999
 51
256.5369999999999
  0
ARC
  5
98EE
330
9721
100
AcDbEntity
  8
1
  6
Continuous
100
AcDbCircle
 10
68.05184399999999
 20
245.17641
 30
0.0
 40
10.1519
100
AcDbArc
 50
144.462
 51
215.5379999999999
  0
ARC
  5
98EF
330
9721
100
AcDbEntity
  8
1
  6
Continuous
100
AcDbCircle
 10
61.44124399999999
 20
249.89841
 30
0.0
 40
2.0282
100
AcDbArc
 50
45.6988
 51
144.462
  0
ARC
  5
98F0
330
9721
100
AcDbEntity
  8
1
  6
Continuous
100
AcDbCircle
 10
61.44124399999999
 20
240.4544099999998
 30
0.0
 40
2.0282
100
AcDbArc
 50
256.5369999999999
 51
324.4619999999998
  0
ARC
  5
98F1
330
9721
100
AcDbEntity
  8
1
  6
Continuous
100
AcDbCircle
 10
54.83074399999999
 20
245.17641
 30
0.0
 40
10.1519
100
AcDbArc
 50
324.4619999999998
 51
35.5377
  0
ARC
  5
98F2
330
9721
100
AcDbEntity
  8
1
  6
Continuous
100
AcDbCircle
 10
61.44124399999999
 20
249.89841
 30
0.0
 40
2.0282
100
AcDbArc
 50
35.5377
 51
45.6988
  0
ARC
  5
98F3
330
9721
100
AcDbEntity
  8
1
  6
Continuous
100
AcDbCircle
 10
59.98934399999999
 20
241.2414099999999
 30
0.0
 40
0.3935
100
AcDbArc
 50
206.014
 51
270.0
  0
ARC
  5
98F4
330
9721
100
AcDbEntity
  8
1
  6
Continuous
100
AcDbCircle
 10
68.05184399999999
 20
245.17641
 30
0.0
 40
9.3649
100
AcDbArc
 50
202.944
 51
206.014
  0
ARC
  5
98F5
330
9721
100
AcDbEntity
  8
1
  6
Continuous
100
AcDbCircle
 10
59.500244
 20
241.55641
 30
0.0
 40
0.0787
100
AcDbArc
 50
90.0
 51
202.944
  0
ARC
  5
98F6
330
9721
100
AcDbEntity
  8
1
  6
Continuous
100
AcDbCircle
 10
63.38234400000001
 20
241.55641
 30
0.0
 40
0.0787
100
AcDbArc
 50
337.0559999999999
 51
90.0
  0
ARC
  5
98F7
330
9721
100
AcDbEntity
  8
1
  6
Continuous
100
AcDbCircle
 10
54.83074399999999
 20
245.17641
 30
0.0
 40
9.3649
100
AcDbArc
 50
333.9859999999998
 51
337.0559999999999
  0
ARC
  5
98F8
330
9721
100
AcDbEntity
  8
1
  6
Continuous
100
AcDbCircle
 10
54.83074399999999
 20
245.17641
 30
0.0
 40
9.3649
100
AcDbArc
 50
333.9859999999998
 51
334.7709999999999
  0
ARC
  5
98F9
330
9721
100
AcDbEntity
  8
1
  6
Continuous
100
AcDbCircle
 10
62.89324399999999
 20
241.2414099999999
 30
0.0
 40
0.3935
100
AcDbArc
 50
270.0
 51
333.9859999999998
  0
ARC
  5
98FA
330
9721
100
AcDbEntity
  8
1
  6
Continuous
100
AcDbCircle
 10
58.99384399999998
 20
243.13041
 30
0.0
 40
0.0787
100
AcDbArc
 50
90.0
 51
192.729
  0
ARC
  5
98FB
330
9721
100
AcDbEntity
  8
1
  6
Continuous
100
AcDbCircle
 10
68.05184399999999
 20
245.17641
 30
0.0
 40
9.3649
100
AcDbArc
 50
192.729
 51
193.2679999999999
  0
ARC
  5
98FC
330
9721
100
AcDbEntity
  8
1
  6
Continuous
100
AcDbCircle
 10
68.05184399999999
 20
245.17641
 30
0.0
 40
9.3649
100
AcDbArc
 50
193.2679999999999
 51
195.257
  0
ARC
  5
98FD
330
9721
100
AcDbEntity
  8
1
  6
Continuous
100
AcDbCircle
 10
59.39654399999999
 20
242.8154099999999
 30
0.0
 40
0.3935
100
AcDbArc
 50
195.257
 51
270.0
  0
ARC
  5
98FE
330
9721
100
AcDbEntity
  8
1
  6
Continuous
100
AcDbCircle
 10
63.48594399999999
 20
242.8154099999999
 30
0.0
 40
0.3935
100
AcDbArc
 50
270.0
 51
344.7419999999998
  0
ARC
  5
98FF
330
9721
100
AcDbEntity
  8
1
  6
Continuous
100
AcDbCircle
 10
54.83074399999999
 20
245.17641
 30
0.0
 40
9.3649
100
AcDbArc
 50
344.7419999999998
 51
344.794
  0
ARC
  5
9900
330
9721
100
AcDbEntity
  8
1
  6
Continuous
100
AcDbCircle
 10
54.83074399999999
 20
245.17641
 30
0.0
 40
9.3649
100
AcDbArc
 50
344.794
 51
347.2709999999998
  0
ARC
  5
9901
330
9721
100
AcDbEntity
  8
1
  6
Continuous
100
AcDbCircle
 10
63.88874399999998
 20
243.13041
 30
0.0
 40
0.0787
100
AcDbArc
 50
347.2709999999998
 51
90.0
  0
ARC
  5
9902
330
9721
100
AcDbEntity
  8
1
  6
Continuous
100
AcDbCircle
 10
59.21954399999999
 20
246.7504099999999
 30
0.0
 40
0.3935
100
AcDbArc
 50
90.0
 51
169.896
  0
ARC
  5
9903
330
9721
100
AcDbEntity
  8
1
  6
Continuous
100
AcDbCircle
 10
68.05184399999999
 20
245.17641
 30
0.0
 40
9.3649
100
AcDbArc
 50
169.896
 51
172.2069999999999
  0
ARC
  5
9904
330
9721
100
AcDbEntity
  8
1
  6
Continuous
100
AcDbCircle
 10
58.851344
 20
246.4354099999999
 30
0.0
 40
0.0787
100
AcDbArc
 50
172.2069999999999
 51
270.0
  0
ARC
  5
9905
330
9721
100
AcDbEntity
  8
1
  6
Continuous
100
AcDbCircle
 10
64.031244
 20
246.4354099999999
 30
0.0
 40
0.0787
100
AcDbArc
 50
270.0
 51
7.792900000000001
  0
ARC
  5
9906
330
9721
100
AcDbEntity
  8
1
  6
Continuous
100
AcDbCircle
 10
54.83074399999999
 20
245.17641
 30
0.0
 40
9.3649
100
AcDbArc
 50
7.792900000000001
 51
10.1042
  0
ARC
  5
9907
330
9721
100
AcDbEntity
  8
1
  6
Continuous
100
AcDbCircle
 10
63.66304399999999
 20
246.7504099999999
 30
0.0
 40
0.3935
100
AcDbArc
 50
10.1042
 51
90.0
  0
ARC
  5
9908
330
9721
100
AcDbEntity
  8
1
  6
Continuous
100
AcDbCircle
 10
61.04784399999999
 20
249.11141
 30
0.0
 40
0.3935
100
AcDbArc
 50
270.0
 51
90.0
  0
CIRCLE
  5
9909
330
9721
100
AcDbEntity
  8
1
  6
Continuous
100
AcDbCircle
 10
345.8309999999999
 20
236.263
 30
0.0
 40
4.0
  0
ARC
  5
990A
330
9721
100
AcDbEntity
  8
1
  6
Continuous
100
AcDbCircle
 10
-398.074
 20
105.413
 30
0.0
 40
508.4999999999998
100
AcDbArc
 50
355.532
 51
357.182
  0
ARC
  5
990B
330
9721
100
AcDbEntity
  8
1
  6
Continuous
100
AcDbCircle
 10
73.926
 20
-348.5869999999999
 30
0.0
 40
500.0
100
AcDbArc
 50
86.63769999999997
 51
93.3623
  0
ARC
  5
990C
330
9721
100
AcDbEntity
  8
1
  6
Continuous
100
AcDbCircle
 10
73.926
 20
559.4129999999998
 30
0.0
 40
500.0
100
AcDbArc
 50
266.6379999999999
 51
273.362
  0
ARC
  5
990D
330
9721
100
AcDbEntity
  8
1
  6
Continuous
100
AcDbCircle
 10
102.8985999999999
 20
144.5629999999999
 30
0.0
 40
6.0
100
AcDbArc
 50
4.468429999999998
 51
86.63769999999997
  0
ARC
  5
990E
330
9721
100
AcDbEntity
  8
1
  6
Continuous
100
AcDbCircle
 10
44.9534
 20
144.5629999999999
 30
0.0
 40
6.0
100
AcDbArc
 50
93.3623
 51
171.852
  0
ARC
  5
990F
330
9721
100
AcDbEntity
  8
1
  6
Continuous
100
AcDbCircle
 10
44.9534
 20
66.2634
 30
0.0
 40
6.0
100
AcDbArc
 50
188.148
 51
266.6379999999999
  0
ARC
  5
9910
330
9721
100
AcDbEntity
  8
1
  6
Continuous
100
AcDbCircle
 10
102.8985999999999
 20
66.2634
 30
0.0
 40
6.0
100
AcDbArc
 50
273.362
 51
355.532
  0
ARC
  5
9911
330
9721
100
AcDbEntity
  8
1
  6
Continuous
100
AcDbCircle
 10
85.926
 20
105.413
 30
0.0
 40
7.0
100
AcDbArc
 50
315.0
 51
45.0
  0
ARC
  5
9912
330
9721
100
AcDbEntity
  8
1
  6
Continuous
100
AcDbCircle
 10
-398.074
 20
105.413
 30
0.0
 40
508.4999999999998
100
AcDbArc
 50
2.81804
 51
4.468429999999998
  0
ARC
  5
9913
330
9721
100
AcDbEntity
  8
1
  6
Continuous
100
AcDbCircle
 10
94.92600000000001
 20
125.4129999999999
 30
0.0
 40
2.1
100
AcDbArc
 50
168.463
 51
191.5369999999998
  0
ARC
  5
9914
330
9721
100
AcDbEntity
  8
1
  6
Continuous
100
AcDbCircle
 10
94.92600000000001
 20
125.4129999999999
 30
0.0
 40
2.1
100
AcDbArc
 50
258.4629999999999
 51
281.5369999999999
  0
ARC
  5
9915
330
9721
100
AcDbEntity
  8
1
  6
Continuous
100
AcDbCircle
 10
94.92600000000001
 20
125.4129999999999
 30
0.0
 40
2.1
100
AcDbArc
 50
348.463
 51
11.537
  0
ARC
  5
9916
330
9721
100
AcDbEntity
  8
1
  6
Continuous
100
AcDbCircle
 10
94.92600000000001
 20
125.4129999999999
 30
0.0
 40
2.1
100
AcDbArc
 50
78.46299999999998
 51
101.537
  0
CIRCLE
  5
9917
330
9721
100
AcDbEntity
  8
1
  6
Continuous
100
AcDbCircle
 10
94.92589999999998
 20
125.4129999999999
 30
0.0
 40
3.5
  0
ARC
  5
9918
330
9721
100
AcDbEntity
  8
1
  6
Continuous
100
AcDbCircle
 10
390.926
 20
248.2629999999999
 30
0.0
 40
1.0
100
AcDbArc
 50
270.0
 51
31.0183
  0
ARC
  5
9919
330
9721
100
AcDbEntity
  8
1
  6
Continuous
100
AcDbCircle
 10
370.3569999999999
 20
235.895
 30
0.0
 40
25.0
100
AcDbArc
 50
31.0183
 51
58.7266
  0
ARC
  5
991A
330
9721
100
AcDbEntity
  8
1
  6
Continuous
100
AcDbCircle
 10
94.92600000000001
 20
85.41310000000001
 30
0.0
 40
2.1
100
AcDbArc
 50
258.4629999999999
 51
281.5369999999999
  0
ARC
  5
991B
330
9721
100
AcDbEntity
  8
1
  6
Continuous
100
AcDbCircle
 10
94.92600000000001
 20
85.41310000000001
 30
0.0
 40
2.1
100
AcDbArc
 50
168.463
 51
191.5369999999998
  0
ARC
  5
991C
330
9721
100
AcDbEntity
  8
1
  6
Continuous
100
AcDbCircle
 10
94.92600000000001
 20
85.41310000000001
 30
0.0
 40
2.1
100
AcDbArc
 50
78.46299999999998
 51
101.537
  0
ARC
  5
991D
330
9721
100
AcDbEntity
  8
1
  6
Continuous
100
AcDbCircle
 10
94.92600000000001
 20
85.41310000000001
 30
0.0
 40
2.1
100
AcDbArc
 50
348.463
 51
11.537
  0
CIRCLE
  5
991E
330
9721
100
AcDbEntity
  8
1
  6
Continuous
100
AcDbCircle
 10
94.92589999999998
 20
85.41310000000001
 30
0.0
 40
3.5
  0
ARC
  5
991F
330
9721
100
AcDbEntity
  8
1
  6
Continuous
100
AcDbCircle
 10
85.926
 20
105.413
 30
0.0
 40
2.25
100
AcDbArc
 50
169.242
 51
190.758
  0
ARC
  5
9920
330
9721
100
AcDbEntity
  8
1
  6
Continuous
100
AcDbCircle
 10
85.926
 20
105.413
 30
0.0
 40
2.25
100
AcDbArc
 50
259.242
 51
280.7579999999999
  0
ARC
  5
9921
330
9721
100
AcDbEntity
  8
1
  6
Continuous
100
AcDbCircle
 10
85.926
 20
105.413
 30
0.0
 40
2.25
100
AcDbArc
 50
349.2419999999999
 51
10.7583
  0
ARC
  5
9922
330
9721
100
AcDbEntity
  8
1
  6
Continuous
100
AcDbCircle
 10
85.926
 20
105.413
 30
0.0
 40
2.25
100
AcDbArc
 50
79.24169999999998
 51
100.7579999999999
  0
CIRCLE
  5
9923
330
9721
100
AcDbEntity
  8
1
  6
Continuous
100
AcDbCircle
 10
85.926
 20
105.413
 30
0.0
 40
4.0
  0
ARC
  5
9924
330
9721
100
AcDbEntity
  8
1
  6
Continuous
100
AcDbCircle
 10
50.926
 20
135.4129999999998
 30
0.0
 40
2.25
100
AcDbArc
 50
169.242
 51
190.758
  0
ARC
  5
9925
330
9721
100
AcDbEntity
  8
1
  6
Continuous
100
AcDbCircle
 10
50.926
 20
135.4129999999998
 30
0.0
 40
2.25
100
AcDbArc
 50
259.242
 51
280.7579999999999
  0
ARC
  5
9926
330
9721
100
AcDbEntity
  8
1
  6
Continuous
100
AcDbCircle
 10
50.926
 20
135.4129999999998
 30
0.0
 40
2.25
100
AcDbArc
 50
349.2419999999999
 51
10.7583
  0
ARC
  5
9927
330
9721
100
AcDbEntity
  8
1
  6
Continuous
100
AcDbCircle
 10
50.926
 20
135.4129999999998
 30
0.0
 40
2.25
100
AcDbArc
 50
79.24169999999998
 51
100.7579999999999
  0
CIRCLE
  5
9928
330
9721
100
AcDbEntity
  8
1
  6
Continuous
100
AcDbCircle
 10
50.926
 20
135.4129999999998
 30
0.0
 40
4.0
  0
ARC
  5
9929
330
9721
100
AcDbEntity
  8
1
  6
Continuous
100
AcDbCircle
 10
50.926
 20
75.4131
 30
0.0
 40
2.25
100
AcDbArc
 50
169.242
 51
190.758
  0
ARC
  5
992A
330
9721
100
AcDbEntity
  8
1
  6
Continuous
100
AcDbCircle
 10
50.926
 20
75.4131
 30
0.0
 40
2.25
100
AcDbArc
 50
259.242
 51
280.7579999999999
  0
ARC
  5
992B
330
9721
100
AcDbEntity
  8
1
  6
Continuous
100
AcDbCircle
 10
50.926
 20
75.4131
 30
0.0
 40
2.25
100
AcDbArc
 50
349.2419999999999
 51
10.7583
  0
ARC
  5
992C
330
9721
100
AcDbEntity
  8
1
  6
Continuous
100
AcDbCircle
 10
50.926
 20
75.4131
 30
0.0
 40
2.25
100
AcDbArc
 50
79.24169999999998
 51
100.7579999999999
  0
CIRCLE
  5
992D
330
9721
100
AcDbEntity
  8
1
  6
Continuous
100
AcDbCircle
 10
50.926
 20
75.4131
 30
0.0
 40
4.0
  0
ARC
  5
992E
330
9721
100
AcDbEntity
  8
5
  6
PHANTOM
100
AcDbCircle
 10
-105.115
 20
758.1479999999997
 30
0.0
 40
700.0
100
AcDbArc
 50
311.237
 51
311.43
  0
ARC
  5
992F
330
9721
100
AcDbEntity
  8
1
  6
Continuous
100
AcDbCircle
 10
309.3959999999999
 20
291.569
 30
0.0
 40
1.3
100
AcDbArc
 50
4.999979999999999
 51
74.1191
  0
ARC
  5
9930
330
9721
100
AcDbEntity
  8
1
  6
Continuous
100
AcDbCircle
 10
307.289
 20
284.163
 30
0.0
 40
9.0
100
AcDbArc
 50
74.1191
 51
105.881
  0
ARC
  5
9931
330
9721
100
AcDbEntity
  8
1
  6
Continuous
100
AcDbCircle
 10
305.182
 20
291.569
 30
0.0
 40
1.3
100
AcDbArc
 50
105.881
 51
175.0
  0
CIRCLE
  5
9932
330
9721
100
AcDbEntity
  8
1
  6
Continuous
100
AcDbCircle
 10
94.92600000000001
 20
85.41310000000001
 30
0.0
 40
3.799999999999998
  0
CIRCLE
  5
9933
330
9721
100
AcDbEntity
  8
1
  6
Continuous
100
AcDbCircle
 10
94.92600000000001
 20
85.41310000000001
 30
0.0
 40
5.0
  0
CIRCLE
  5
9934
330
9721
100
AcDbEntity
  8
1
  6
Continuous
100
AcDbCircle
 10
94.92600000000001
 20
125.4129999999999
 30
0.0
 40
5.0
  0
CIRCLE
  5
9935
330
9721
100
AcDbEntity
  8
1
  6
Continuous
100
AcDbCircle
 10
94.92600000000001
 20
125.4129999999999
 30
0.0
 40
3.799999999999998
  0
ARC
  5
9936
330
9721
100
AcDbEntity
  8
1
  6
Continuous
100
AcDbCircle
 10
158.8219999999998
 20
127.5199999999999
 30
0.0
 40
1.3
100
AcDbArc
 50
95.0
 51
164.119
  0
ARC
  5
9937
330
9721
100
AcDbEntity
  8
1
  6
Continuous
100
AcDbCircle
 10
166.229
 20
125.4129999999999
 30
0.0
 40
9.0
100
AcDbArc
 50
164.119
 51
195.8809999999998
  0
ARC
  5
9938
330
9721
100
AcDbEntity
  8
1
  6
Continuous
100
AcDbCircle
 10
158.8219999999998
 20
123.306
 30
0.0
 40
1.3
100
AcDbArc
 50
195.8809999999998
 51
265.0
  0
ARC
  5
9939
330
9721
100
AcDbEntity
  8
1
  6
Continuous
100
AcDbCircle
 10
158.8219999999998
 20
87.5201
 30
0.0
 40
1.3
100
AcDbArc
 50
95.0
 51
164.119
  0
ARC
  5
993A
330
9721
100
AcDbEntity
  8
1
  6
Continuous
100
AcDbCircle
 10
166.229
 20
85.41299999999997
 30
0.0
 40
9.0
100
AcDbArc
 50
164.119
 51
195.8809999999998
  0
ARC
  5
993B
330
9721
100
AcDbEntity
  8
1
  6
Continuous
100
AcDbCircle
 10
158.8219999999998
 20
83.30599999999998
 30
0.0
 40
1.3
100
AcDbArc
 50
195.8809999999998
 51
265.0
  0
ARC
  5
993C
330
9721
100
AcDbEntity
  8
1
  6
Continuous
100
AcDbCircle
 10
315.3299999999999
 20
230.0629999999999
 30
0.0
 40
17.0
100
AcDbArc
 50
90.0
 51
179.326
  0
ARC
  5
993D
330
9721
100
AcDbEntity
  8
1
  6
Continuous
100
AcDbCircle
 10
214.983
 20
85.41310000000001
 30
0.0
 40
5.011899999999998
100
AcDbArc
 50
273.9489999999999
 51
86.05079999999999
  0
ARC
  5
993E
330
9721
100
AcDbEntity
  8
1
  6
Continuous
100
AcDbCircle
 10
214.983
 20
125.4129999999999
 30
0.0
 40
5.011899999999998
100
AcDbArc
 50
273.9489999999999
 51
86.05079999999999
  0
ARC
  5
993F
330
9721
100
AcDbEntity
  8
1
  6
Continuous
100
AcDbCircle
 10
304.3299999999999
 20
251.263
 30
0.0
 40
2.0
100
AcDbArc
 50
90.0
 51
180.0
  0
ARC
  5
9940
330
9721
100
AcDbEntity
  8
1
  6
Continuous
100
AcDbCircle
 10
312.3299999999999
 20
251.263
 30
0.0
 40
2.0
100
AcDbArc
 50
0.0
 51
90.0
  0
ARC
  5
9941
330
9721
100
AcDbEntity
  8
1
  6
Continuous
100
AcDbCircle
 10
290.7679999999999
 20
82.4131
 30
0.0
 40
2.0
100
AcDbArc
 50
180.0
 51
270.0
  0
ARC
  5
9942
330
9721
100
AcDbEntity
  8
1
  6
Continuous
100
AcDbCircle
 10
290.7679999999999
 20
128.4129999999999
 30
0.0
 40
2.0
100
AcDbArc
 50
90.0
 51
180.0
  0
ARC
  5
9943
330
9721
100
AcDbEntity
  8
1
  6
Continuous
100
AcDbCircle
 10
97.926
 20
70.9131
 30
0.0
 40
6.0
100
AcDbArc
 50
270.0
 51
0.000005
  0
ARC
  5
9944
330
9721
100
AcDbEntity
  8
1
  6
Continuous
100
AcDbCircle
 10
97.926
 20
139.9129999999999
 30
0.0
 40
6.0
100
AcDbArc
 50
0.0
 51
90.0
  0
ARC
  5
9945
330
9721
100
AcDbEntity
  8
1
  6
Continuous
100
AcDbCircle
 10
799.831
 20
105.413
 30
0.0
 40
498.0
100
AcDbArc
 50
183.23
 51
183.997
  0
ARC
  5
9946
330
9721
100
AcDbEntity
  8
1
  6
Continuous
100
AcDbCircle
 10
306.0350000000001
 20
70.9131
 30
0.0
 40
3.0
100
AcDbArc
 50
183.997
 51
270.0
  0
ARC
  5
9947
330
9721
100
AcDbEntity
  8
1
  6
Continuous
100
AcDbCircle
 10
312.607
 20
77.9131
 30
0.0
 40
10.0
100
AcDbArc
 50
120.859
 51
183.23
  0
ARC
  5
9948
330
9721
100
AcDbEntity
  8
1
  6
Continuous
100
AcDbCircle
 10
281.8309999999998
 20
129.4189999999999
 30
0.0
 40
50.0
100
AcDbArc
 50
300.8589999999998
 51
0.000005
  0
ARC
  5
9949
330
9721
100
AcDbEntity
  8
1
  6
Continuous
100
AcDbCircle
 10
334.8309999999999
 20
139.9129999999999
 30
0.0
 40
3.0
100
AcDbArc
 50
90.0
 51
180.0
  0
LINE
  5
994A
330
9721
100
AcDbEntity
  8
1
  6
Continuous
100
AcDbLine
 10
22.42599999999999
 20
98.213
 30
0.0
 11
22.42599999999999
 21
112.613
 31
0.0
  0
LINE
  5
994B
330
9721
100
AcDbEntity
  8
1
  6
Continuous
100
AcDbLine
 10
18.92599999999999
 20
98.4131
 30
0.0
 11
18.92599999999999
 21
112.413
 31
0.0
  0
LINE
  5
994C
330
9721
100
AcDbEntity
  8
1
  6
Continuous
100
AcDbLine
 10
20.42599999999999
 20
112.413
 30
0.0
 11
20.42599999999999
 21
145.4129999999999
 31
0.0
  0
LINE
  5
994D
330
9721
100
AcDbEntity
  8
1
  6
Continuous
100
AcDbLine
 10
11.425966
 20
112.413
 30
0.0
 11
22.42599999999999
 21
112.413
 31
0.0
  0
LINE
  5
994E
330
9721
100
AcDbEntity
  8
1
  6
Continuous
100
AcDbLine
 10
11.425966
 20
98.413
 30
0.0
 11
22.42599999999999
 21
98.413
 31
0.0
  0
LINE
  5
994F
330
9721
100
AcDbEntity
  8
1
  6
Continuous
100
AcDbLine
 10
20.42599999999999
 20
112.613
 30
0.0
 11
22.42599999999999
 21
112.613
 31
0.0
  0
LINE
  5
9950
330
9721
100
AcDbEntity
  8
1
  6
Continuous
100
AcDbLine
 10
20.42599999999999
 20
98.213
 30
0.0
 11
22.42599999999999
 21
98.213
 31
0.0
  0
ARC
  5
9951
330
9721
100
AcDbEntity
  8
1
  6
Continuous
100
AcDbCircle
 10
11.425966
 20
111.413
 30
0.0
 40
1.0
100
AcDbArc
 50
90.0
 51
180.0
  0
ARC
  5
9952
330
9721
100
AcDbEntity
  8
1
  6
Continuous
100
AcDbCircle
 10
11.425966
 20
99.413
 30
0.0
 40
1.0
100
AcDbArc
 50
180.0
 51
270.0
  0
LINE
  5
9953
330
9721
100
AcDbEntity
  8
4
  6
CENTER
100
AcDbLine
 10
47.96182199999999
 20
245.17641
 30
0.0
 11
88.74303999999998
 21
245.17641
 31
0.0
  0
LINE
  5
9954
330
9721
100
AcDbEntity
  8
1
  6
Continuous
100
AcDbLine
 10
55.441244
 20
242.17641
 30
0.0
 11
53.94124399999999
 21
242.17641
 31
0.0
  0
ARC
  5
9955
330
9721
100
AcDbEntity
  8
1
  6
Continuous
100
AcDbCircle
 10
55.441244
 20
242.67641
 30
0.0
 40
0.5
100
AcDbArc
 50
270.0
 51
0.0
  0
ARC
  5
9956
330
9721
100
AcDbEntity
  8
1
  6
Continuous
100
AcDbCircle
 10
53.94124399999999
 20
242.67641
 30
0.0
 40
0.5
100
AcDbArc
 50
180.0
 51
270.0
  0
ENDSEC
  0
SECTION
  2
OBJECTS
  0
DICTIONARY
  5
970F
330
0
100
AcDbDictionary
281
     1
  3
ACAD_CIP_PREVIOUS_PRODUCT_INFO
350
99BC
  3
ACAD_COLOR
350
999E
  3
ACAD_DETAILVIEWSTYLE
350
99B7
  3
ACAD_GROUP
350
9710
  3
ACAD_LAYOUT
350
971C
  3
ACAD_MATERIAL
350
996C
  3
ACAD_MLEADERSTYLE
350
99B3
  3
ACAD_MLINESTYLE
350
9719
  3
ACAD_PLOTSETTINGS
350
971B
  3
ACAD_PLOTSTYLENAME
350
996A
  3
ACAD_SCALELIST
350
99A1
  3
ACAD_SECTIONVIEWSTYLE
350
99B5
  3
ACAD_TABLESTYLE
350
999F
  3
ACAD_VISUALSTYLE
350
9985
  3
ACDB_RECOMPOSE_DATA
350
99DA
  3
AcDbVariableDictionary
350
99CD
  3
DWGPROPS
350
99DB
  0
DICTIONARY
  5
99BD
330
9713
100
AcDbDictionary
280
     1
281
     1
  3
ADSK_XREC_LAYER_RECONCILED
360
99BE
  0
DICTIONARY
  5
99BF
330
9729
100
AcDbDictionary
280
     1
281
     1
  3
ADSK_XREC_LAYER_RECONCILED
360
99C0
  0
DICTIONARY
  5
99C1
330
972A
100
AcDbDictionary
280
     1
281
     1
  3
ADSK_XREC_LAYER_RECONCILED
360
99C2
  0
DICTIONARY
  5
99C3
330
972B
100
AcDbDictionary
280
     1
281
     1
  3
ADSK_XREC_LAYER_RECONCILED
360
99C4
  0
DICTIONARY
  5
99C5
330
972C
100
AcDbDictionary
280
     1
281
     1
  3
ADSK_XREC_LAYER_RECONCILED
360
99C6
  0
DICTIONARY
  5
99C7
330
972D
100
AcDbDictionary
280
     1
281
     1
  3
ADSK_XREC_LAYER_RECONCILED
360
99C8
  0
DICTIONARY
  5
99C9
330
972E
100
AcDbDictionary
280
     1
281
     1
  3
ADSK_XREC_LAYER_RECONCILED
360
99CA
  0
DICTIONARY
  5
99CB
330
972F
100
AcDbDictionary
280
     1
281
     1
  3
ADSK_XREC_LAYER_RECONCILED
360
99CC
  0
DICTIONARY
  5
9965
330
9721
100
AcDbDictionary
281
     1
  3
ACAD_LAYOUTSELFREF
350
9966
  0
DICTIONARY
  5
9963
330
971D
100
AcDbDictionary
281
     1
  3
ACAD_LAYOUTSELFREF
350
9964
  0
XRECORD
  5
99BC
102
{ACAD_REACTORS
330
970F
102
}
330
970F
100
AcDbXrecord
280
     1
300
ACDLT
300
2014
300
ACDLT_F_S
  0
DICTIONARY
  5
999E
102
{ACAD_REACTORS
330
970F
102
}
330
970F
100
AcDbDictionary
281
     1
  0
DICTIONARY
  5
99B7
102
{ACAD_REACTORS
330
970F
102
}
330
970F
100
AcDbDictionary
281
     1
  3
Imperial24
350
99B8
  0
DICTIONARY
  5
9710
102
{ACAD_REACTORS
330
970F
102
}
330
970F
100
AcDbDictionary
281
     1
  0
DICTIONARY
  5
971C
102
{ACAD_REACTORS
330
970F
102
}
330
970F
100
AcDbDictionary
281
     1
  3
Model
350
99B9
  3
レイアウト1
350
99BA
  0
DICTIONARY
  5
996C
102
{ACAD_REACTORS
330
970F
102
}
330
970F
100
AcDbDictionary
281
     1
  3
ByBlock
350
9975
  3
ByLayer
350
996D
  3
Global
350
997D
  0
DICTIONARY
  5
99B3
102
{ACAD_REACTORS
330
970F
102
}
330
970F
100
AcDbDictionary
281
     1
  3
Standard
350
99B4
  0
DICTIONARY
  5
9719
102
{ACAD_REACTORS
330
970F
102
}
330
970F
100
AcDbDictionary
281
     1
  3
STANDARD
350
971A
  0
DICTIONARY
  5
971B
102
{ACAD_REACTORS
330
970F
102
}
330
970F
100
AcDbDictionary
281
     1
  0
ACDBDICTIONARYWDFLT
  5
996A
102
{ACAD_REACTORS
330
970F
102
}
330
970F
100
AcDbDictionary
281
     1
  3
Normal
350
996B
100
AcDbDictionaryWithDefault
340
996B
  0
DICTIONARY
  5
99A1
102
{ACAD_REACTORS
330
970F
102
}
330
970F
100
AcDbDictionary
281
     1
  3
A0
350
99A2
  3
A1
350
99A3
  3
A2
350
99A4
  3
A3
350
99A5
  3
A4
350
99A6
  3
A5
350
99A7
  3
A6
350
99A8
  3
A7
350
99A9
  3
A8
350
99AA
  3
A9
350
99AB
  3
B0
350
99AC
  3
B1
350
99AD
  3
B2
350
99AE
  3
B3
350
99AF
  3
B4
350
99B0
  3
B5
350
99B1
  3
B6
350
99B2
  0
DICTIONARY
  5
99B5
102
{ACAD_REACTORS
330
970F
102
}
330
970F
100
AcDbDictionary
281
     1
  3
Imperial24
350
99B6
  0
DICTIONARY
  5
999F
102
{ACAD_REACTORS
330
970F
102
}
330
970F
100
AcDbDictionary
281
     1
  3
Standard
350
99A0
  0
DICTIONARY
  5
9985
102
{ACAD_REACTORS
330
970F
102
}
330
970F
100
AcDbDictionary
281
     1
  3
2dWireframe
350
998B
  3
Basic
350
998A
  3
Brighten
350
9991
  3
ColorChange
350
9995
  3
Conceptual
350
998E
  3
Dim
350
9990
  3
EdgeColorOff
350
999D
  3
Facepattern
350
9994
  3
Flat
350
9986
  3
FlatWithEdges
350
9987
  3
Gouraud
350
9988
  3
GouraudWithEdges
350
9989
  3
Hidden
350
998D
  3
JitterOff
350
999B
  3
Linepattern
350
9993
  3
OverhangOff
350
999C
  3
Realistic
350
998F
  3
Shaded
350
999A
  3
Shaded with edges
350
9999
  3
Shades of Gray
350
9996
  3
Sketchy
350
9997
  3
Thicken
350
9992
  3
Wireframe
350
998C
  3
X-Ray
350
9998
  0
XRECORD
  5
99DA
102
{ACAD_REACTORS
330
970F
102
}
330
970F
100
AcDbXrecord
280
     1
 90
        1
330
99A0
  0
DICTIONARY
  5
99CD
102
{ACAD_REACTORS
330
970F
102
}
330
970F
100
AcDbDictionary
281
     1
  3
CANNOSCALE
350
99D2
  3
CMLEADERSTYLE
350
99CF
  3
CTABLESTYLE
350
99CE
  3
CVIEWDETAILSTYLE
350
99D0
  3
CVIEWSECTIONSTYLE
350
99D1
  3
DIMASSOC
350
99D5
  3
INDEXCTL
350
99D4
  3
SORTENTS
350
99D3
  3
XCLIPFRAME
350
99D6
  0
XRECORD
  5
99DB
102
{ACAD_REACTORS
330
970F
102
}
330
970F
100
AcDbXrecord
280
     1
  1
DWGPROPS COOKIE
  2

  3

  4

  6

  7

  8
Yoshitsune
  9

300
=
301
=
302
=
303
=
304
=
305
=
306
=
307
=
308
=
309
=
 40
0.0000140393518519
 41
2450737.662348612
 42
2457192.640146817
  1

 90
        0
  0
XRECORD
  5
99BE
102
{ACAD_REACTORS
330
99BD
102
}
330
99BD
100
AcDbXrecord
280
     1
290
     1
  0
XRECORD
  5
99C0
102
{ACAD_REACTORS
330
99BF
102
}
330
99BF
100
AcDbXrecord
280
     1
290
     1
  0
XRECORD
  5
99C2
102
{ACAD_REACTORS
330
99C1
102
}
330
99C1
100
AcDbXrecord
280
     1
290
     1
  0
XRECORD
  5
99C4
102
{ACAD_REACTORS
330
99C3
102
}
330
99C3
100
AcDbXrecord
280
     1
290
     1
  0
XRECORD
  5
99C6
102
{ACAD_REACTORS
330
99C5
102
}
330
99C5
100
AcDbXrecord
280
     1
290
     1
  0
XRECORD
  5
99C8
102
{ACAD_REACTORS
330
99C7
102
}
330
99C7
100
AcDbXrecord
280
     1
290
     1
  0
XRECORD
  5
99CA
102
{ACAD_REACTORS
330
99C9
102
}
330
99C9
100
AcDbXrecord
280
     1
290
     1
  0
XRECORD
  5
99CC
102
{ACAD_REACTORS
330
99CB
102
}
330
99CB
100
AcDbXrecord
280
     1
290
     1
  0
XRECORD
  5
9966
102
{ACAD_REACTORS
330
9965
102
}
330
9965
100
AcDbXrecord
280
     1
340
9721
  0
XRECORD
  5
9964
102
{ACAD_REACTORS
330
9963
102
}
330
9963
100
AcDbXrecord
280
     1
340
971D
  0
ACDBDETAILVIEWSTYLE
  5
99B8
102
{ACAD_XDICTIONARY
360
9A13
102
}
102
{ACAD_REACTORS
330
99B7
102
}
330
99B7
100
AcDbModelDocViewStyle
 70
     0
  3
Imperial24
290
     0
100
AcDbDetailViewStyle
 70
     0
 71
     0
 90
        3
 71
     1
340
9714
 40
0.24
340
0
 40
0.24
300

 40
0.36
280
     3
 71
     2
340
9718
 90
       25
 71
     3
340
9714
 40
0.24
 90
        1
 40
0.75
 90
        1
300
%<\AcVar ViewType \f "%tc1">% %<\AcVar ViewDetailId>%\PSCALE %<\AcVar ViewScale \f "%sn">%
 71
     4
340
9718
 90
       25
340
9718
 90
       25
280
     0
  0
LAYOUT
  5
99B9
102
{ACAD_XDICTIONARY
360
9A15
102
}
102
{ACAD_REACTORS
330
971C
102
}
330
971C
100
AcDbPlotSettings
  1

  2
Canon LBP9100C
  4

  6

 40
0.0
 41
0.0
 42
0.0
 43
0.0
 44
0.0
 45
0.0
 46
0.0
 47
0.0
 48
0.0
 49
0.0
140
0.0
141
0.0
142
1.0
143
1.0
 70
  1712
 72
     0
 73
     0
 74
     0
  7

 75
     0
147
1.0
148
0.0
149
0.0
100
AcDbLayout
  1
Model
 70
     1
 71
     0
 10
0.0
 20
0.0
 11
12.0
 21
9.0
 12
0.0
 22
0.0
 32
0.0
 14
0.0
 24
0.0
 34
0.0
 15
0.0
 25
0.0
 35
0.0
146
0.0
 13
0.0
 23
0.0
 33
0.0
 16
1.0
 26
0.0
 36
0.0
 17
0.0
 27
1.0
 37
0.0
 76
     0
330
9721
331
9962
  0
LAYOUT
  5
99BA
102
{ACAD_XDICTIONARY
360
9A17
102
}
102
{ACAD_REACTORS
330
971C
102
}
330
971C
100
AcDbPlotSettings
  1

  2
Canon LBP9100C
  4

  6

 40
0.0
 41
0.0
 42
0.0
 43
0.0
 44
0.0
 45
0.0
 46
0.0
 47
0.0
 48
0.0
 49
0.0
140
0.0
141
0.0
142
1.0
143
1.0
 70
   688
 72
     0
 73
     0
 74
     5
  7

 75
    16
147
1.0
148
0.0
149
0.0
100
AcDbLayout
  1
レイアウト1
 70
     0
 71
     1
 10
0.0
 20
0.0
 11
420.0
 21
297.0
 12
0.0
 22
0.0
 32
0.0
 14
1.000000000000000E+20
 24
1.000000000000000E+20
 34
1.000000000000000E+20
 15
-1.000000000000000E+20
 25
-1.000000000000000E+20
 35
-1.000000000000000E+20
146
0.0
 13
0.0
 23
0.0
 33
0.0
 16
1.0
 26
0.0
 36
0.0
 17
0.0
 27
1.0
 37
0.0
 76
     0
330
971D
  0
MATERIAL
  5
9975
102
{ACAD_XDICTIONARY
360
9976
102
}
102
{ACAD_REACTORS
330
996C
102
}
330
996C
100
AcDbMaterial
  1
ByBlock
 72
     0
 43
0.0208333333333333
 43
0.0
 43
0.0
 43
0.0
 43
0.0
 43
0.0208333333333333
 43
0.0
 43
0.0
 43
0.0
 43
0.0
 43
1.0
 43
0.0
 43
0.0
 43
0.0
 43
0.0
 43
1.0
 77
     0
 47
0.0208333333333333
 47
0.0
 47
0.0
 47
0.0
 47
0.0
 47
0.0208333333333333
 47
0.0
 47
0.0
 47
0.0
 47
0.0
 47
1.0
 47
0.0
 47
0.0
 47
0.0
 47
0.0
 47
1.0
171
     0
 49
0.0208333333333333
 49
0.0
 49
0.0
 49
0.0
 49
0.0
 49
0.0208333333333333
 49
0.0
 49
0.0
 49
0.0
 49
0.0
 49
1.0
 49
0.0
 49
0.0
 49
0.0
 49
0.0
 49
1.0
175
     0
142
0.0208333333333333
142
0.0
142
0.0
142
0.0
142
0.0
142
0.0208333333333333
142
0.0
142
0.0
142
0.0
142
0.0
142
1.0
142
0.0
142
0.0
142
0.0
142
0.0
142
1.0
179
     0
144
0.0208333333333333
144
0.0
144
0.0
144
0.0
144
0.0
144
0.0208333333333333
144
0.0
144
0.0
144
0.0
144
0.0
144
1.0
144
0.0
144
0.0
144
0.0
144
0.0
144
1.0
147
0.0208333333333333
147
0.0
147
0.0
147
0.0
147
0.0
147
0.0208333333333333
147
0.0
147
0.0
147
0.0
147
0.0
147
1.0
147
0.0
147
0.0
147
0.0
147
0.0
147
1.0
  0
MATERIAL
  5
996D
102
{ACAD_XDICTIONARY
360
996E
102
}
102
{ACAD_REACTORS
330
996C
102
}
330
996C
100
AcDbMaterial
  1
ByLayer
 72
     0
 43
0.0208333333333333
 43
0.0
 43
0.0
 43
0.0
 43
0.0
 43
0.0208333333333333
 43
0.0
 43
0.0
 43
0.0
 43
0.0
 43
1.0
 43
0.0
 43
0.0
 43
0.0
 43
0.0
 43
1.0
 77
     0
 47
0.0208333333333333
 47
0.0
 47
0.0
 47
0.0
 47
0.0
 47
0.0208333333333333
 47
0.0
 47
0.0
 47
0.0
 47
0.0
 47
1.0
 47
0.0
 47
0.0
 47
0.0
 47
0.0
 47
1.0
171
     0
 49
0.0208333333333333
 49
0.0
 49
0.0
 49
0.0
 49
0.0
 49
0.0208333333333333
 49
0.0
 49
0.0
 49
0.0
 49
0.0
 49
1.0
 49
0.0
 49
0.0
 49
0.0
 49
0.0
 49
1.0
175
     0
142
0.0208333333333333
142
0.0
142
0.0
142
0.0
142
0.0
142
0.0208333333333333
142
0.0
142
0.0
142
0.0
142
0.0
142
1.0
142
0.0
142
0.0
142
0.0
142
0.0
142
1.0
179
     0
144
0.0208333333333333
144
0.0
144
0.0
144
0.0
144
0.0
144
0.0208333333333333
144
0.0
144
0.0
144
0.0
144
0.0
144
1.0
144
0.0
144
0.0
144
0.0
144
0.0
144
1.0
147
0.0208333333333333
147
0.0
147
0.0
147
0.0
147
0.0
147
0.0208333333333333
147
0.0
147
0.0
147
0.0
147
0.0
147
1.0
147
0.0
147
0.0
147
0.0
147
0.0
147
1.0
  0
MATERIAL
  5
997D
102
{ACAD_XDICTIONARY
360
997E
102
}
102
{ACAD_REACTORS
330
996C
102
}
330
996C
100
AcDbMaterial
  1
Global
 72
     0
 43
0.0208333333333333
 43
0.0
 43
0.0
 43
0.0
 43
0.0
 43
0.0208333333333333
 43
0.0
 43
0.0
 43
0.0
 43
0.0
 43
1.0
 43
0.0
 43
0.0
 43
0.0
 43
0.0
 43
1.0
 77
     0
 47
0.0208333333333333
 47
0.0
 47
0.0
 47
0.0
 47
0.0
 47
0.0208333333333333
 47
0.0
 47
0.0
 47
0.0
 47
0.0
 47
1.0
 47
0.0
 47
0.0
 47
0.0
 47
0.0
 47
1.0
171
     0
 49
0.0208333333333333
 49
0.0
 49
0.0
 49
0.0
 49
0.0
 49
0.0208333333333333
 49
0.0
 49
0.0
 49
0.0
 49
0.0
 49
1.0
 49
0.0
 49
0.0
 49
0.0
 49
0.0
 49
1.0
175
     0
142
0.0208333333333333
142
0.0
142
0.0
142
0.0
142
0.0
142
0.0208333333333333
142
0.0
142
0.0
142
0.0
142
0.0
142
1.0
142
0.0
142
0.0
142
0.0
142
0.0
142
1.0
179
     0
144
0.0208333333333333
144
0.0
144
0.0
144
0.0
144
0.0
144
0.0208333333333333
144
0.0
144
0.0
144
0.0
144
0.0
144
1.0
144
0.0
144
0.0
144
0.0
144
0.0
144
1.0
147
0.0208333333333333
147
0.0
147
0.0
147
0.0
147
0.0
147
0.0208333333333333
147
0.0
147
0.0
147
0.0
147
0.0
147
1.0
147
0.0
147
0.0
147
0.0
147
0.0
147
1.0
  0
MLEADERSTYLE
  5
99B4
102
{ACAD_REACTORS
330
99B3
102
}
330
99B3
100
AcDbMLeaderStyle
170
     2
171
     1
172
     0
 90
        2
 40
0.0
 41
0.0
173
     1
 91
-1056964608
340
9716
 92
       -2
290
     1
 42
0.09
291
     1
 43
0.36
  3
Standard
 44
0.18
300

342
9714
174
     1
178
     6
175
     1
176
     0
 93
-1056964608
 45
0.18
292
     0
297
     0
 46
0.18
 94
-1056964608
 47
1.0
 49
1.0
140
1.0
293
     1
141
0.0
294
     1
177
     0
142
1.0
295
     0
296
     0
143
0.125
1001
ACAD_MLEADERVER
1070
     2
  0
MLINESTYLE
  5
971A
102
{ACAD_REACTORS
330
9719
102
}
330
9719
100
AcDbMlineStyle
  2
STANDARD
 70
     0
  3

 62
   256
 51
90.0
 52
90.0
 71
     2
 49
0.5
 62
   256
  6
BYLAYER
 49
-0.5
 62
   256
  6
BYLAYER
  0
ACDBPLACEHOLDER
  5
996B
102
{ACAD_REACTORS
330
996A
102
}
330
996A
  0
SCALE
  5
99A2
102
{ACAD_REACTORS
330
99A1
102
}
330
99A1
100
AcDbScale
 70
     0
300
1:1
140
1.0
141
1.0
290
     1
  0
SCALE
  5
99A3
102
{ACAD_REACTORS
330
99A1
102
}
330
99A1
100
AcDbScale
 70
     0
300
1/128" = 1'-0"
140
0.0078125
141
12.0
290
     0
  0
SCALE
  5
99A4
102
{ACAD_REACTORS
330
99A1
102
}
330
99A1
100
AcDbScale
 70
     0
300
1/64" = 1'-0"
140
0.015625
141
12.0
290
     0
  0
SCALE
  5
99A5
102
{ACAD_REACTORS
330
99A1
102
}
330
99A1
100
AcDbScale
 70
     0
300
1/32" = 1'-0"
140
0.03125
141
12.0
290
     0
  0
SCALE
  5
99A6
102
{ACAD_REACTORS
330
99A1
102
}
330
99A1
100
AcDbScale
 70
     0
300
1/16" = 1'-0"
140
0.0625
141
12.0
290
     0
  0
SCALE
  5
99A7
102
{ACAD_REACTORS
330
99A1
102
}
330
99A1
100
AcDbScale
 70
     0
300
3/32" = 1'-0"
140
0.09375
141
12.0
290
     0
  0
SCALE
  5
99A8
102
{ACAD_REACTORS
330
99A1
102
}
330
99A1
100
AcDbScale
 70
     0
300
1/8" = 1'-0"
140
0.125
141
12.0
290
     0
  0
SCALE
  5
99A9
102
{ACAD_REACTORS
330
99A1
102
}
330
99A1
100
AcDbScale
 70
     0
300
3/16" = 1'-0"
140
0.1875
141
12.0
290
     0
  0
SCALE
  5
99AA
102
{ACAD_REACTORS
330
99A1
102
}
330
99A1
100
AcDbScale
 70
     0
300
1/4" = 1'-0"
140
0.25
141
12.0
290
     0
  0
SCALE
  5
99AB
102
{ACAD_REACTORS
330
99A1
102
}
330
99A1
100
AcDbScale
 70
     0
300
3/8" = 1'-0"
140
0.375
141
12.0
290
     0
  0
SCALE
  5
99AC
102
{ACAD_REACTORS
330
99A1
102
}
330
99A1
100
AcDbScale
 70
     0
300
1/2" = 1'-0"
140
0.5
141
12.0
290
     0
  0
SCALE
  5
99AD
102
{ACAD_REACTORS
330
99A1
102
}
330
99A1
100
AcDbScale
 70
     0
300
3/4" = 1'-0"
140
0.75
141
12.0
290
     0
  0
SCALE
  5
99AE
102
{ACAD_REACTORS
330
99A1
102
}
330
99A1
100
AcDbScale
 70
     0
300
1" = 1'-0"
140
1.0
141
12.0
290
     0
  0
SCALE
  5
99AF
102
{ACAD_REACTORS
330
99A1
102
}
330
99A1
100
AcDbScale
 70
     0
300
1-1/2" = 1'-0"
140
1.5
141
12.0
290
     0
  0
SCALE
  5
99B0
102
{ACAD_REACTORS
330
99A1
102
}
330
99A1
100
AcDbScale
 70
     0
300
3" = 1'-0"
140
3.0
141
12.0
290
     0
  0
SCALE
  5
99B1
102
{ACAD_REACTORS
330
99A1
102
}
330
99A1
100
AcDbScale
 70
     0
300
6" = 1'-0"
140
6.0
141
12.0
290
     0
  0
SCALE
  5
99B2
102
{ACAD_REACTORS
330
99A1
102
}
330
99A1
100
AcDbScale
 70
     0
300
1'-0" = 1'-0"
140
12.0
141
12.0
290
     0
  0
ACDBSECTIONVIEWSTYLE
  5
99B6
102
{ACAD_XDICTIONARY
360
9A11
102
}
102
{ACAD_REACTORS
330
99B5
102
}
330
99B5
100
AcDbModelDocViewStyle
 70
     0
  3
Imperial24
290
     0
100
AcDbSectionViewStyle
 70
     0
 71
     0
 90
       78
 71
     1
340
9714
 40
0.24
340
0
340
0
 40
0.24
300
I, O, Q, S, X, Z
 40
0.48
 90
        3
 40
0.18
 90
        1
 71
     2
340
9718
 90
       25
340
9718
 90
       50
 40
0.24
 40
0.0
 40
0.24
 71
     3
340
9714
 40
0.24
 90
        1
 40
0.75
 90
        1
300
%<\AcVar ViewType \f "%tc1">% %<\AcVar ViewSectionStartId>%-%<\AcVar ViewSectionEndId>%\PSCALE %<\AcVar ViewScale \f "%sn">%
 71
     4
300
ANSI31
 40
1.0
 90
        0
290
     0
290
     0
 90
        6
 40
0.0
 40
1.570796326794896
 40
0.2617993877991494
 40
1.308996938995747
 40
-0.2617993877991494
 40
1.832595714594046
  0
TABLESTYLE
  5
99A0
102
{ACAD_XDICTIONARY
360
99D8
102
}
102
{ACAD_REACTORS
330
999F
102
}
330
999F
100
AcDbTableStyle
  3
Standard
 70
     0
 71
     0
 40
0.06
 41
0.06
280
     0
281
     0
  7
STANDARD
140
0.18
170
     2
 62
     0
 63
     7
283
     0
274
    -2
284
     1
 64
     0
275
    -2
285
     1
 65
     0
276
    -2
286
     1
 66
     0
277
    -2
287
     1
 67
     0
278
    -2
288
     1
 68
     0
279
    -2
289
     1
 69
     0
  7
STANDARD
140
0.25
170
     5
 62
     0
 63
     7
283
     0
274
    -2
284
     1
 64
     0
275
    -2
285
     1
 65
     0
276
    -2
286
     1
 66
     0
277
    -2
287
     1
 67
     0
278
    -2
288
     1
 68
     0
279
    -2
289
     1
 69
     0
  7
STANDARD
140
0.18
170
     5
 62
     0
 63
     7
283
     0
274
    -2
284
     1
 64
     0
275
    -2
285
     1
 65
     0
276
    -2
286
     1
 66
     0
277
    -2
287
     1
 67
     0
278
    -2
288
     1
 68
     0
279
    -2
289
     1
 69
     0
  0
VISUALSTYLE
  5
998B
102
{ACAD_XDICTIONARY
360
99E9
102
}
102
{ACAD_REACTORS
330
9985
102
}
330
9985
100
AcDbVisualStyle
  2
2dWireframe
 70
     4
 71
     0
 72
     2
 73
     0
 90
        0
 40
-0.6
 41
-30.0
 62
     5
 63
     7
 74
     1
 91
        4
 64
     7
 65
   257
 75
     1
175
     1
 42
1.0
 92
        0
 66
   257
 43
1.0
 76
     1
 77
     6
 78
     2
 67
     7
 79
     5
170
     0
171
     0
290
     0
174
     0
 93
        1
 44
0.0
173
     0
291
     0
 45
0.0
1001
ACAD
1000
AcDbSavedByObjectVersion
1070
     0
  0
VISUALSTYLE
  5
998A
102
{ACAD_XDICTIONARY
360
99E7
102
}
102
{ACAD_REACTORS
330
9985
102
}
330
9985
100
AcDbVisualStyle
  2
Basic
 70
     7
 71
     1
 72
     0
 73
     1
 90
        0
 40
-0.6
 41
-30.0
 62
     5
 63
     7
 74
     0
 91
        4
 64
     7
 65
   257
 75
     1
175
     1
 42
1.0
 92
        8
 66
     7
 43
1.0
 76
     1
 77
     6
 78
     2
 67
     7
 79
     5
170
     0
171
     0
290
     0
174
     0
 93
        1
 44
0.0
173
     0
291
     1
 45
0.0
1001
ACAD
1000
AcDbSavedByObjectVersion
1070
     0
  0
VISUALSTYLE
  5
9991
102
{ACAD_XDICTIONARY
360
99F5
102
}
102
{ACAD_REACTORS
330
9985
102
}
330
9985
100
AcDbVisualStyle
  2
Brighten
 70
    12
 71
     2
 72
     2
 73
     0
 90
        0
 40
-0.6
 41
-30.0
 62
     5
 63
     7
 74
     1
 91
        4
 64
     7
 65
   257
 75
     1
175
     1
 42
1.0
 92
        8
 66
     7
 43
1.0
 76
     1
 77
     6
 78
     2
 67
     7
 79
     5
170
     0
171
     0
290
     0
174
     0
 93
        1
 44
50.0
173
     0
291
     1
 45
0.0
1001
ACAD
1000
AcDbSavedByObjectVersion
1070
     0
  0
VISUALSTYLE
  5
9995
102
{ACAD_XDICTIONARY
360
99FD
102
}
102
{ACAD_REACTORS
330
9985
102
}
330
9985
100
AcDbVisualStyle
  2
ColorChange
 70
    16
 71
     2
 72
     2
 73
     3
 90
        0
 40
-0.6
 41
-30.0
 62
     5
 63
     8
 74
     1
 91
        4
 64
     7
 65
   257
 75
     1
175
     1
 42
1.0
 92
        8
 66
     8
 43
1.0
 76
     1
 77
     6
 78
     2
 67
     7
 79
     5
170
     0
171
     0
290
     0
174
     0
 93
        1
 44
0.0
173
     0
291
     1
 45
0.0
1001
ACAD
1000
AcDbSavedByObjectVersion
1070
     0
  0
VISUALSTYLE
  5
998E
102
{ACAD_XDICTIONARY
360
99EF
102
}
102
{ACAD_REACTORS
330
9985
102
}
330
9985
100
AcDbVisualStyle
  2
Conceptual
 70
     9
 71
     3
 72
     2
 73
     0
 90
        0
 40
-0.6
 41
-30.0
 62
     5
 63
     7
 74
     2
 91
        2
 64
     7
 65
   257
 75
     1
175
     1
 42
179.0
 92
        8
 66
     7
 43
1.0
 76
     1
 77
     6
 78
     2
 67
     7
 79
     3
170
     0
171
     0
290
     0
174
     0
 93
        1
 44
0.0
173
     0
291
     0
 45
0.0
1001
ACAD
1000
AcDbSavedByObjectVersion
1070
     0
  0
VISUALSTYLE
  5
9990
102
{ACAD_XDICTIONARY
360
99F3
102
}
102
{ACAD_REACTORS
330
9985
102
}
330
9985
100
AcDbVisualStyle
  2
Dim
 70
    11
 71
     2
 72
     2
 73
     0
 90
        0
 40
-0.6
 41
-30.0
 62
     5
 63
     7
 74
     1
 91
        4
 64
     7
 65
   257
 75
     1
175
     1
 42
1.0
 92
        8
 66
     7
 43
1.0
 76
     1
 77
     6
 78
     2
 67
     7
 79
     5
170
     0
171
     0
290
     0
174
     0
 93
        1
 44
-50.0
173
     0
291
     1
 45
0.0
1001
ACAD
1000
AcDbSavedByObjectVersion
1070
     0
  0
VISUALSTYLE
  5
999D
102
{ACAD_XDICTIONARY
360
9A0D
102
}
102
{ACAD_REACTORS
330
9985
102
}
330
9985
100
AcDbVisualStyle
  2
EdgeColorOff
 70
    22
 71
     2
 72
     2
 73
     0
 90
        0
 40
-0.6
 41
-30.0
 62
     5
 63
     7
 74
     1
 91
        4
 64
     7
 65
   257
 75
     1
175
     1
 42
1.0
 92
        8
 66
     7
 43
1.0
 76
     1
 77
     6
 78
     2
 67
     7
 79
     5
170
     0
171
     0
290
     0
174
     0
 93
        1
 44
0.0
173
     0
291
     1
 45
0.0
1001
ACAD
1000
AcDbSavedByObjectVersion
1070
     0
  0
VISUALSTYLE
  5
9994
102
{ACAD_XDICTIONARY
360
99FB
102
}
102
{ACAD_REACTORS
330
9985
102
}
330
9985
100
AcDbVisualStyle
  2
Facepattern
 70
    15
 71
     2
 72
     2
 73
     0
 90
        0
 40
-0.6
 41
-30.0
 62
     5
 63
     7
 74
     1
 91
        4
 64
     7
 65
   257
 75
     1
175
     1
 42
1.0
 92
        8
 66
     7
 43
1.0
 76
     1
 77
     6
 78
     2
 67
     7
 79
     5
170
     0
171
     0
290
     0
174
     0
 93
        1
 44
0.0
173
     0
291
     1
 45
0.0
1001
ACAD
1000
AcDbSavedByObjectVersion
1070
     0
  0
VISUALSTYLE
  5
9986
102
{ACAD_XDICTIONARY
360
99DF
102
}
102
{ACAD_REACTORS
330
9985
102
}
330
9985
100
AcDbVisualStyle
  2
Flat
 70
     0
 71
     2
 72
     1
 73
     1
 90
        2
 40
-0.6
 41
30.0
 62
     5
 63
     7
 74
     0
 91
        0
 64
     7
 65
   257
 75
     1
175
     1
 42
1.0
 92
        8
 66
     7
 43
1.0
 76
     1
 77
     6
 78
     2
 67
     7
 79
     5
170
     0
171
     0
290
     0
174
     0
 93
       13
 44
0.0
173
     0
291
     1
 45
0.0
1001
ACAD
1000
AcDbSavedByObjectVersion
1070
     0
  0
VISUALSTYLE
  5
9987
102
{ACAD_XDICTIONARY
360
99E1
102
}
102
{ACAD_REACTORS
330
9985
102
}
330
9985
100
AcDbVisualStyle
  2
FlatWithEdges
 70
     1
 71
     2
 72
     1
 73
     1
 90
        2
 40
-0.6
 41
30.0
 62
     5
 63
     7
 74
     1
 91
        0
 64
     7
 65
   257
 75
     1
175
     1
 42
1.0
 92
        0
 66
   257
 43
1.0
 76
     1
 77
     6
 78
     2
 67
     7
 79
     5
170
     0
171
     0
290
     0
174
     0
 93
       13
 44
0.0
173
     0
291
     1
 45
0.0
1001
ACAD
1000
AcDbSavedByObjectVersion
1070
     0
  0
VISUALSTYLE
  5
9988
102
{ACAD_XDICTIONARY
360
99E3
102
}
102
{ACAD_REACTORS
330
9985
102
}
330
9985
100
AcDbVisualStyle
  2
Gouraud
 70
     2
 71
     2
 72
     2
 73
     1
 90
        2
 40
-0.6
 41
30.0
 62
     5
 63
     7
 74
     0
 91
        0
 64
     7
 65
   257
 75
     1
175
     1
 42
1.0
 92
        0
 66
     7
 43
1.0
 76
     1
 77
     6
 78
     2
 67
     7
 79
     5
170
     0
171
     0
290
     0
174
     0
 93
       13
 44
0.0
173
     0
291
     1
 45
0.0
1001
ACAD
1000
AcDbSavedByObjectVersion
1070
     0
  0
VISUALSTYLE
  5
9989
102
{ACAD_XDICTIONARY
360
99E5
102
}
102
{ACAD_REACTORS
330
9985
102
}
330
9985
100
AcDbVisualStyle
  2
GouraudWithEdges
 70
     3
 71
     2
 72
     2
 73
     1
 90
        2
 40
-0.6
 41
30.0
 62
     5
 63
     7
 74
     1
 91
        0
 64
     7
 65
   257
 75
     1
175
     1
 42
1.0
 92
        0
 66
   257
 43
1.0
 76
     1
 77
     6
 78
     2
 67
     7
 79
     5
170
     0
171
     0
290
     0
174
     0
 93
       13
 44
0.0
173
     0
291
     1
 45
0.0
1001
ACAD
1000
AcDbSavedByObjectVersion
1070
     0
  0
VISUALSTYLE
  5
998D
102
{ACAD_XDICTIONARY
360
99ED
102
}
102
{ACAD_REACTORS
330
9985
102
}
330
9985
100
AcDbVisualStyle
  2
Hidden
 70
     6
 71
     1
 72
     2
 73
     2
 90
        0
 40
-0.6
 41
-30.0
 62
     5
 63
     7
 74
     2
 91
        2
 64
     7
 65
   257
 75
     2
175
     1
 42
40.0
 92
        0
 66
   257
 43
1.0
 76
     1
 77
     6
 78
     2
 67
     7
 79
     3
170
     0
171
     0
290
     0
174
     0
 93
        1
 44
0.0
173
     0
291
     0
 45
0.0
1001
ACAD
1000
AcDbSavedByObjectVersion
1070
     0
  0
VISUALSTYLE
  5
999B
102
{ACAD_XDICTIONARY
360
9A09
102
}
102
{ACAD_REACTORS
330
9985
102
}
330
9985
100
AcDbVisualStyle
  2
JitterOff
 70
    20
 71
     2
 72
     2
 73
     0
 90
        0
 40
-0.6
 41
-30.0
 62
     5
 63
     7
 74
     1
 91
        4
 64
     7
 65
   257
 75
     1
175
     1
 42
1.0
 92
       10
 66
     7
 43
1.0
 76
     1
 77
     6
 78
     2
 67
     7
 79
     5
170
     0
171
     0
290
     0
174
     0
 93
        1
 44
0.0
173
     0
291
     1
 45
0.0
1001
ACAD
1000
AcDbSavedByObjectVersion
1070
     0
  0
VISUALSTYLE
  5
9993
102
{ACAD_XDICTIONARY
360
99F9
102
}
102
{ACAD_REACTORS
330
9985
102
}
330
9985
100
AcDbVisualStyle
  2
Linepattern
 70
    14
 71
     2
 72
     2
 73
     0
 90
        0
 40
-0.6
 41
-30.0
 62
     5
 63
     7
 74
     1
 91
        4
 64
     7
 65
   257
 75
     7
175
     7
 42
1.0
 92
        8
 66
     7
 43
1.0
 76
     1
 77
     6
 78
     2
 67
     7
 79
     5
170
     0
171
     0
290
     0
174
     0
 93
        1
 44
0.0
173
     0
291
     1
 45
0.0
1001
ACAD
1000
AcDbSavedByObjectVersion
1070
     0
  0
VISUALSTYLE
  5
999C
102
{ACAD_XDICTIONARY
360
9A0B
102
}
102
{ACAD_REACTORS
330
9985
102
}
330
9985
100
AcDbVisualStyle
  2
OverhangOff
 70
    21
 71
     2
 72
     2
 73
     0
 90
        0
 40
-0.6
 41
-30.0
 62
     5
 63
     7
 74
     1
 91
        4
 64
     7
 65
   257
 75
     1
175
     1
 42
1.0
 92
        9
 66
     7
 43
1.0
 76
     1
 77
     6
 78
     2
 67
     7
 79
     5
170
     0
171
     0
290
     0
174
     0
 93
        1
 44
0.0
173
     0
291
     1
 45
0.0
1001
ACAD
1000
AcDbSavedByObjectVersion
1070
     0
  0
VISUALSTYLE
  5
998F
102
{ACAD_XDICTIONARY
360
99F1
102
}
102
{ACAD_REACTORS
330
9985
102
}
330
9985
100
AcDbVisualStyle
  2
Realistic
 70
     8
 71
     2
 72
     3
 73
     0
 90
        2
 40
-0.6
 41
30.0
 62
     5
 63
     7
 74
     0
 91
        0
 64
     7
 65
   257
 75
     1
175
     1
 42
1.0
 92
        8
 66
   257
 43
1.0
 76
     1
 77
     6
 78
     2
 67
     7
 79
     3
170
     0
171
     0
290
     0
174
     0
 93
       13
 44
0.0
173
     0
291
     0
 45
0.0
1001
ACAD
1000
AcDbSavedByObjectVersion
1070
     0
  0
VISUALSTYLE
  5
999A
102
{ACAD_XDICTIONARY
360
9A07
102
}
102
{ACAD_REACTORS
330
9985
102
}
330
9985
100
AcDbVisualStyle
  2
Shaded
 70
    27
 71
     2
 72
     2
 73
     1
 90
        2
 40
-0.6
 41
30.0
 62
     5
 63
     7
 74
     0
 91
        4
 64
     7
 65
   257
 75
     1
175
     1
 42
1.0
 92
        8
 66
   257
 43
1.0
 76
     1
 77
     6
 78
     2
 67
     8
 79
     3
170
     0
171
     0
290
     0
174
     0
 93
        5
 44
0.0
173
     0
291
     0
 45
0.0
1001
ACAD
1000
AcDbSavedByObjectVersion
1070
     0
  0
VISUALSTYLE
  5
9999
102
{ACAD_XDICTIONARY
360
9A05
102
}
102
{ACAD_REACTORS
330
9985
102
}
330
9985
100
AcDbVisualStyle
  2
Shaded with edges
 70
    26
 71
     2
 72
     2
 73
     1
 90
        2
 40
-0.6
 41
30.0
 62
     5
 63
     7
 74
     1
 91
       10
 64
     7
 65
   257
 75
     2
175
     1
 42
1.0
 92
        8
 66
   257
 43
1.0
 76
     1
 77
     6
 78
     2
 67
     7
 79
     3
170
     0
171
     0
290
     0
174
     0
 93
        5
 44
0.0
173
     0
291
     0
 45
0.0
1001
ACAD
1000
AcDbSavedByObjectVersion
1070
     0
  0
VISUALSTYLE
  5
9996
102
{ACAD_XDICTIONARY
360
99FF
102
}
102
{ACAD_REACTORS
330
9985
102
}
330
9985
100
AcDbVisualStyle
  2
Shades of Gray
 70
    23
 71
     2
 72
     2
 73
     3
 90
        0
 40
-0.6
 41
-30.0
 62
     5
 63
     7
 74
     2
 91
        2
 64
     7
 65
     7
 75
     1
175
     1
 42
40.0
 92
        8
 66
     7
 43
1.0
 76
     1
 77
     6
 78
     2
 67
     7
 79
     3
170
     0
171
     0
290
     0
174
     0
 93
        1
 44
0.0
173
     0
291
     0
 45
0.0
1001
ACAD
1000
AcDbSavedByObjectVersion
1070
     0
  0
VISUALSTYLE
  5
9997
102
{ACAD_XDICTIONARY
360
9A01
102
}
102
{ACAD_REACTORS
330
9985
102
}
330
9985
100
AcDbVisualStyle
  2
Sketchy
 70
    24
 71
     1
 72
     2
 73
     2
 90
        0
 40
-0.6
 41
-30.0
 62
     5
 63
     7
 74
     2
 91
        2
 64
     7
 65
     7
 75
     1
175
     1
 42
40.0
 92
       11
 66
     7
 43
1.0
 76
     1
 77
     6
 78
     2
 67
     7
 79
     6
170
     0
171
     0
290
     0
174
     0
 93
        1
 44
0.0
173
     0
291
     0
 45
0.0
1001
ACAD
1000
AcDbSavedByObjectVersion
1070
     0
  0
VISUALSTYLE
  5
9992
102
{ACAD_XDICTIONARY
360
99F7
102
}
102
{ACAD_REACTORS
330
9985
102
}
330
9985
100
AcDbVisualStyle
  2
Thicken
 70
    13
 71
     2
 72
     2
 73
     0
 90
        0
 40
-0.6
 41
-30.0
 62
     5
 63
     7
 74
     1
 91
        4
 64
     7
 65
   257
 75
     1
175
     1
 42
1.0
 92
       12
 66
     7
 43
1.0
 76
     1
 77
     6
 78
     2
 67
     7
 79
     5
170
     0
171
     0
290
     0
174
     0
 93
        1
 44
0.0
173
     0
291
     1
 45
0.0
1001
ACAD
1000
AcDbSavedByObjectVersion
1070
     0
  0
VISUALSTYLE
  5
998C
102
{ACAD_XDICTIONARY
360
99EB
102
}
102
{ACAD_REACTORS
330
9985
102
}
330
9985
100
AcDbVisualStyle
  2
Wireframe
 70
     5
 71
     0
 72
     2
 73
     0
 90
        0
 40
-0.6
 41
-30.0
 62
     5
 63
     7
 74
     1
 91
        4
 64
     7
 65
   257
 75
     1
175
     1
 42
1.0
 92
        0
 66
   257
 43
1.0
 76
     1
 77
     6
 78
     2
 67
     7
 79
     3
170
     0
171
     0
290
     0
174
     0
 93
        1
 44
0.0
173
     0
291
     0
 45
0.0
1001
ACAD
1000
AcDbSavedByObjectVersion
1070
     0
  0
VISUALSTYLE
  5
9998
102
{ACAD_XDICTIONARY
360
9A03
102
}
102
{ACAD_REACTORS
330
9985
102
}
330
9985
100
AcDbVisualStyle
  2
X-Ray
 70
    25
 71
     2
 72
     2
 73
     1
 90
        1
 40
0.5
 41
-30.0
 62
     5
 63
     7
 74
     1
 91
        0
 64
     7
 65
   257
 75
     1
175
     1
 42
1.0
 92
        8
 66
     7
 43
1.0
 76
     1
 77
     6
 78
     2
 67
     7
 79
     3
170
     0
171
     0
290
     0
174
     0
 93
       13
 44
0.0
173
     0
291
     0
 45
0.0
1001
ACAD
1000
AcDbSavedByObjectVersion
1070
     0
  0
DICTIONARYVAR
  5
99D2
102
{ACAD_REACTORS
330
99CD
102
}
330
99CD
100
DictionaryVariables
280
     0
  1
1:1
  0
DICTIONARYVAR
  5
99CF
102
{ACAD_REACTORS
330
99CD
102
}
330
99CD
100
DictionaryVariables
280
     0
  1
STANDARD
  0
DICTIONARYVAR
  5
99CE
102
{ACAD_REACTORS
330
99CD
102
}
330
99CD
100
DictionaryVariables
280
     0
  1
STANDARD
  0
DICTIONARYVAR
  5
99D0
102
{ACAD_REACTORS
330
99CD
102
}
330
99CD
100
DictionaryVariables
280
     0
  1
Imperial24
  0
DICTIONARYVAR
  5
99D1
102
{ACAD_REACTORS
330
99CD
102
}
330
99CD
100
DictionaryVariables
280
     0
  1
Imperial24
  0
DICTIONARYVAR
  5
99D5
102
{ACAD_REACTORS
330
99CD
102
}
330
99CD
100
DictionaryVariables
280
     0
  1
1
  0
DICTIONARYVAR
  5
99D4
102
{ACAD_REACTORS
330
99CD
102
}
330
99CD
100
DictionaryVariables
280
     0
  1
0
  0
DICTIONARYVAR
  5
99D3
102
{ACAD_REACTORS
330
99CD
102
}
330
99CD
100
DictionaryVariables
280
     0
  1
127
  0
DICTIONARYVAR
  5
99D6
102
{ACAD_REACTORS
330
99CD
102
}
330
99CD
100
DictionaryVariables
280
     0
  1
2
  0
DICTIONARY
  5
9A13
330
99B8
100
AcDbDictionary
280
     1
281
     1
  3
ACAD_XREC_ROUNDTRIP
360
9A14
  0
DICTIONARY
  5
9A15
330
99B9
100
AcDbDictionary
280
     1
281
     1
  3
ACAD_XREC_ROUNDTRIP
360
9A16
  0
DICTIONARY
  5
9A17
330
99BA
100
AcDbDictionary
280
     1
281
     1
  3
ACAD_XREC_ROUNDTRIP
360
9A18
  0
DICTIONARY
  5
9976
330
9975
100
AcDbDictionary
280
     1
281
     1
  3
ACAD_XREC_ROUNDTRIP
360
99DD
  3
BUMPTILE
360
9978
  3
DIFFUSETILE
360
9977
  3
OPACITYTILE
360
997B
  3
REFLECTIONTILE
360
997A
  3
REFRACTIONTILE
360
997C
  3
SPECULARTILE
360
9979
  0
DICTIONARY
  5
996E
330
996D
100
AcDbDictionary
280
     1
281
     1
  3
ACAD_XREC_ROUNDTRIP
360
99DC
  3
BUMPTILE
360
9970
  3
DIFFUSETILE
360
996F
  3
OPACITYTILE
360
9973
  3
REFLECTIONTILE
360
9972
  3
REFRACTIONTILE
360
9974
  3
SPECULARTILE
360
9971
  0
DICTIONARY
  5
997E
330
997D
100
AcDbDictionary
280
     1
281
     1
  3
ACAD_XREC_ROUNDTRIP
360
99DE
  3
BUMPTILE
360
9980
  3
DIFFUSETILE
360
997F
  3
OPACITYTILE
360
9983
  3
REFLECTIONTILE
360
9982
  3
REFRACTIONTILE
360
9984
  3
SPECULARTILE
360
9981
  0
DICTIONARY
  5
9A11
330
99B6
100
AcDbDictionary
280
     1
281
     1
  3
ACAD_XREC_ROUNDTRIP
360
9A12
  0
DICTIONARY
  5
99D8
330
99A0
100
AcDbDictionary
280
     1
281
     1
  3
ACAD_ROUNDTRIP_2008_TABLESTYLE_CELLSTYLEMAP
360
99D9
  3
ACAD_XREC_ROUNDTRIP
360
9A0F
  0
DICTIONARY
  5
99E9
330
998B
100
AcDbDictionary
280
     1
281
     1
  3
ACAD_XREC_ROUNDTRIP
360
99EA
  0
DICTIONARY
  5
99E7
330
998A
100
AcDbDictionary
280
     1
281
     1
  3
ACAD_XREC_ROUNDTRIP
360
99E8
  0
DICTIONARY
  5
99F5
330
9991
100
AcDbDictionary
280
     1
281
     1
  3
ACAD_XREC_ROUNDTRIP
360
99F6
  0
DICTIONARY
  5
99FD
330
9995
100
AcDbDictionary
280
     1
281
     1
  3
ACAD_XREC_ROUNDTRIP
360
99FE
  0
DICTIONARY
  5
99EF
330
998E
100
AcDbDictionary
280
     1
281
     1
  3
ACAD_XREC_ROUNDTRIP
360
99F0
  0
DICTIONARY
  5
99F3
330
9990
100
AcDbDictionary
280
     1
281
     1
  3
ACAD_XREC_ROUNDTRIP
360
99F4
  0
DICTIONARY
  5
9A0D
330
999D
100
AcDbDictionary
280
     1
281
     1
  3
ACAD_XREC_ROUNDTRIP
360
9A0E
  0
DICTIONARY
  5
99FB
330
9994
100
AcDbDictionary
280
     1
281
     1
  3
ACAD_XREC_ROUNDTRIP
360
99FC
  0
DICTIONARY
  5
99DF
330
9986
100
AcDbDictionary
280
     1
281
     1
  3
ACAD_XREC_ROUNDTRIP
360
99E0
  0
DICTIONARY
  5
99E1
330
9987
100
AcDbDictionary
280
     1
281
     1
  3
ACAD_XREC_ROUNDTRIP
360
99E2
  0
DICTIONARY
  5
99E3
330
9988
100
AcDbDictionary
280
     1
281
     1
  3
ACAD_XREC_ROUNDTRIP
360
99E4
  0
DICTIONARY
  5
99E5
330
9989
100
AcDbDictionary
280
     1
281
     1
  3
ACAD_XREC_ROUNDTRIP
360
99E6
  0
DICTIONARY
  5
99ED
330
998D
100
AcDbDictionary
280
     1
281
     1
  3
ACAD_XREC_ROUNDTRIP
360
99EE
  0
DICTIONARY
  5
9A09
330
999B
100
AcDbDictionary
280
     1
281
     1
  3
ACAD_XREC_ROUNDTRIP
360
9A0A
  0
DICTIONARY
  5
99F9
330
9993
100
AcDbDictionary
280
     1
281
     1
  3
ACAD_XREC_ROUNDTRIP
360
99FA
  0
DICTIONARY
  5
9A0B
330
999C
100
AcDbDictionary
280
     1
281
     1
  3
ACAD_XREC_ROUNDTRIP
360
9A0C
  0
DICTIONARY
  5
99F1
330
998F
100
AcDbDictionary
280
     1
281
     1
  3
ACAD_XREC_ROUNDTRIP
360
99F2
  0
DICTIONARY
  5
9A07
330
999A
100
AcDbDictionary
280
     1
281
     1
  3
ACAD_XREC_ROUNDTRIP
360
9A08
  0
DICTIONARY
  5
9A05
330
9999
100
AcDbDictionary
280
     1
281
     1
  3
ACAD_XREC_ROUNDTRIP
360
9A06
  0
DICTIONARY
  5
99FF
330
9996
100
AcDbDictionary
280
     1
281
     1
  3
ACAD_XREC_ROUNDTRIP
360
9A00
  0
DICTIONARY
  5
9A01
330
9997
100
AcDbDictionary
280
     1
281
     1
  3
ACAD_XREC_ROUNDTRIP
360
9A02
  0
DICTIONARY
  5
99F7
330
9992
100
AcDbDictionary
280
     1
281
     1
  3
ACAD_XREC_ROUNDTRIP
360
99F8
  0
DICTIONARY
  5
99EB
330
998C
100
AcDbDictionary
280
     1
281
     1
  3
ACAD_XREC_ROUNDTRIP
360
99EC
  0
DICTIONARY
  5
9A03
330
9998
100
AcDbDictionary
280
     1
281
     1
  3
ACAD_XREC_ROUNDTRIP
360
9A04
  0
XRECORD
  5
9A14
102
{ACAD_REACTORS
330
9A13
102
}
330
9A13
100
AcDbXrecord
280
     1
102
DISPLAYNAME
  1
Imperial24
102
FLAGS
 90
        0
  0
XRECORD
  5
9A16
102
{ACAD_REACTORS
330
9A15
102
}
330
9A15
100
AcDbXrecord
280
     1
102
SHADEPLOT
 70
     0
102
SHADEPLOTRESLEVEL
 70
     2
102
SHADEPLOTCUSTOMDPI
 70
   300
  0
XRECORD
  5
9A18
102
{ACAD_REACTORS
330
9A17
102
}
330
9A17
100
AcDbXrecord
280
     1
102
SHADEPLOT
 70
     0
102
SHADEPLOTRESLEVEL
 70
     2
102
SHADEPLOTCUSTOMDPI
 70
   300
  0
XRECORD
  5
99DD
102
{ACAD_REACTORS
330
9976
102
}
330
9976
100
AcDbXrecord
280
     1
102
MATERIAL
148
0.0
149
0.0
149
0.0
 93
        0
 94
      127
282
     0
 72
     0
 77
     0
171
     0
175
     0
179
     0
273
     0
  0
XRECORD
  5
9978
102
{ACAD_REACTORS
330
9976
102
}
330
9976
100
AcDbXrecord
280
     1
270
     1
271
     1
  0
XRECORD
  5
9977
102
{ACAD_REACTORS
330
9976
102
}
330
9976
100
AcDbXrecord
280
     1
270
     1
271
     1
  0
XRECORD
  5
997B
102
{ACAD_REACTORS
330
9976
102
}
330
9976
100
AcDbXrecord
280
     1
270
     1
271
     1
  0
XRECORD
  5
997A
102
{ACAD_REACTORS
330
9976
102
}
330
9976
100
AcDbXrecord
280
     1
270
     1
271
     1
  0
XRECORD
  5
997C
102
{ACAD_REACTORS
330
9976
102
}
330
9976
100
AcDbXrecord
280
     1
270
     1
271
     1
  0
XRECORD
  5
9979
102
{ACAD_REACTORS
330
9976
102
}
330
9976
100
AcDbXrecord
280
     1
270
     1
271
     1
  0
XRECORD
  5
99DC
102
{ACAD_REACTORS
330
996E
102
}
330
996E
100
AcDbXrecord
280
     1
102
MATERIAL
148
0.0
149
0.0
149
0.0
 93
        0
 94
      127
282
     0
 72
     0
 77
     0
171
     0
175
     0
179
     0
273
     0
  0
XRECORD
  5
9970
102
{ACAD_REACTORS
330
996E
102
}
330
996E
100
AcDbXrecord
280
     1
270
     1
271
     1
  0
XRECORD
  5
996F
102
{ACAD_REACTORS
330
996E
102
}
330
996E
100
AcDbXrecord
280
     1
270
     1
271
     1
  0
XRECORD
  5
9973
102
{ACAD_REACTORS
330
996E
102
}
330
996E
100
AcDbXrecord
280
     1
270
     1
271
     1
  0
XRECORD
  5
9972
102
{ACAD_REACTORS
330
996E
102
}
330
996E
100
AcDbXrecord
280
     1
270
     1
271
     1
  0
XRECORD
  5
9974
102
{ACAD_REACTORS
330
996E
102
}
330
996E
100
AcDbXrecord
280
     1
270
     1
271
     1
  0
XRECORD
  5
9971
102
{ACAD_REACTORS
330
996E
102
}
330
996E
100
AcDbXrecord
280
     1
270
     1
271
     1
  0
XRECORD
  5
99DE
102
{ACAD_REACTORS
330
997E
102
}
330
997E
100
AcDbXrecord
280
     1
102
MATERIAL
148
0.0
149
0.0
149
0.0
 93
        0
 94
      127
282
     0
 72
     0
 77
     0
171
     0
175
     0
179
     0
273
     0
  0
XRECORD
  5
9980
102
{ACAD_REACTORS
330
997E
102
}
330
997E
100
AcDbXrecord
280
     1
270
     1
271
     1
  0
XRECORD
  5
997F
102
{ACAD_REACTORS
330
997E
102
}
330
997E
100
AcDbXrecord
280
     1
270
     1
271
     1
  0
XRECORD
  5
9983
102
{ACAD_REACTORS
330
997E
102
}
330
997E
100
AcDbXrecord
280
     1
270
     1
271
     1
  0
XRECORD
  5
9982
102
{ACAD_REACTORS
330
997E
102
}
330
997E
100
AcDbXrecord
280
     1
270
     1
271
     1
  0
XRECORD
  5
9984
102
{ACAD_REACTORS
330
997E
102
}
330
997E
100
AcDbXrecord
280
     1
270
     1
271
     1
  0
XRECORD
  5
9981
102
{ACAD_REACTORS
330
997E
102
}
330
997E
100
AcDbXrecord
280
     1
270
     1
271
     1
  0
XRECORD
  5
9A12
102
{ACAD_REACTORS
330
9A11
102
}
330
9A11
100
AcDbXrecord
280
     1
102
DISPLAYNAME
  1
Imperial24
102
FLAGS
 90
        0
  0
CELLSTYLEMAP
  5
99D9
102
{ACAD_REACTORS
330
99D8
102
}
330
99D8
100
AcDbCellStyleMap
 90
        3
300
CELLSTYLE
  1
TABLEFORMAT_BEGIN
 90
        5
170
     1
 91
        0
 92
    32768
 62
   257
 93
        1
300
CONTENTFORMAT
  1
CONTENTFORMAT_BEGIN
 90
        0
 91
        0
 92
      512
 93
        0
300

 40
0.0
140
1.0
 94
        5
 62
     0
340
9714
144
0.25
309
CONTENTFORMAT_END
171
     0
 94
        0
309
TABLEFORMAT_END
  1
CELLSTYLE_BEGIN
 90
        1
 91
        1
300
_TITLE
309
CELLSTYLE_END
300
CELLSTYLE
  1
TABLEFORMAT_BEGIN
 90
        5
170
     1
 91
        0
 92
        0
 62
   257
 93
        1
300
CONTENTFORMAT
  1
CONTENTFORMAT_BEGIN
 90
        0
 91
        0
 92
      512
 93
        0
300

 40
0.0
140
1.0
 94
        5
 62
     0
340
9714
144
0.18
309
CONTENTFORMAT_END
171
     0
 94
        0
309
TABLEFORMAT_END
  1
CELLSTYLE_BEGIN
 90
        2
 91
        1
300
_HEADER
309
CELLSTYLE_END
300
CELLSTYLE
  1
TABLEFORMAT_BEGIN
 90
        5
170
     1
 91
        0
 92
        0
 62
   257
 93
        1
300
CONTENTFORMAT
  1
CONTENTFORMAT_BEGIN
 90
        0
 91
        0
 92
      512
 93
        0
300

 40
0.0
140
1.0
 94
        2
 62
     0
340
9714
144
0.18
309
CONTENTFORMAT_END
171
     0
 94
        0
309
TABLEFORMAT_END
  1
CELLSTYLE_BEGIN
 90
        3
 91
        2
300
_DATA
309
CELLSTYLE_END
  0
XRECORD
  5
9A0F
102
{ACAD_REACTORS
330
99D8
102
}
330
99D8
100
AcDbXrecord
280
     1
102
ACAD_ROUNDTRIP_PRE2007_TABLESTYLE
 90
      512
 91
        0
  1

 92
      512
 93
        0
  2

 94
      512
 95
        0
  3

  0
XRECORD
  5
99EA
102
{ACAD_REACTORS
330
99E9
102
}
330
99E9
100
AcDbXrecord
280
     1
102
RTVSPost2010Prop28
280
     1
102
RTVSPost2010PropOp28
 70
     1
102
RTVSPost2010Prop29
280
     1
102
RTVSPost2010PropOp29
 70
     1
102
RTVSPost2010Prop30
280
     0
102
RTVSPost2010PropOp30
 70
     1
102
RTVSPost2010Prop31
280
     0
102
RTVSPost2010PropOp31
 70
     1
102
RTVSPost2010Prop32
280
     0
102
RTVSPost2010PropOp32
 70
     1
102
RTVSPost2010Prop33
280
     0
102
RTVSPost2010PropOp33
 70
     1
102
RTVSPost2010Prop34
280
     0
102
RTVSPost2010PropOp34
 70
     1
102
RTVSPost2010Prop35
280
     0
102
RTVSPost2010PropOp35
 70
     1
102
RTVSPost2010Prop36
280
     0
102
RTVSPost2010PropOp36
 70
     1
102
RTVSPost2010Prop37
 90
       50
102
RTVSPost2010PropOp37
 70
     1
102
RTVSPost2010Prop38
140
0.0
102
RTVSPost2010PropOp38
 70
     1
102
RTVSPost2010Prop39
140
1.0
102
RTVSPost2010PropOp39
 70
     1
102
RTVSPost2010Prop40
 90
        0
102
RTVSPost2010PropOp40
 70
     1
102
RTVSPost2010Prop41ColorIndex
 90
       18
102
RTVSPost2010Prop41ColorRGB
 90
        0
102
RTVSPost2010PropOp41
 70
     1
102
RTVSPost2010Prop42
 90
       50
102
RTVSPost2010PropOp42
 70
     1
102
RTVSPost2010Prop43
 90
        3
102
RTVSPost2010PropOp43
 70
     1
102
RTVSPost2010Prop44ColorIndex
 90
        5
102
RTVSPost2010Prop44ColorRGB
 90
      255
102
RTVSPost2010PropOp44
 70
     1
102
RTVSPost2010Prop45
280
     0
102
RTVSPost2010PropOp45
 70
     1
102
RTVSPost2010Prop46
 90
       50
102
RTVSPost2010PropOp46
 70
     1
102
RTVSPost2010Prop47
 90
       50
102
RTVSPost2010PropOp47
 70
     1
102
RTVSPost2010Prop48
 90
       50
102
RTVSPost2010PropOp48
 70
     1
102
RTVSPost2010Prop49
280
     0
102
RTVSPost2010PropOp49
 70
     1
102
RTVSPost2010Prop50
 90
       50
102
RTVSPost2010PropOp50
 70
     1
102
RTVSPost2010Prop51ColorIndex
 90
      256
102
RTVSPost2010Prop51ColorRGB
 90
-16777216
102
RTVSPost2010PropOp51
 70
     0
102
RTVSPost2010Prop52
140
1.0
102
RTVSPost2010PropOp52
 70
     0
102
RTVSPost2010Prop53
 90
        2
102
RTVSPost2010PropOp53
 70
     1
102
RTVSPost2010Prop54
  1
strokes_ogs.tif
102
RTVSPost2010PropOp54
 70
     1
102
RTVSPost2010Prop55
280
     0
102
RTVSPost2010PropOp55
 70
     1
102
RTVSPost2010Prop56
140
1.0
102
RTVSPost2010PropOp56
 70
     1
102
RTVSPost2010Prop57
140
1.0
102
RTVSPost2010PropOp57
 70
     1
102
RTVSPropertyOp0
 70
     1
102
RTVSPropertyOp1
 70
     1
102
RTVSPropertyOp2
 70
     1
102
RTVSPropertyOp3
 70
     1
102
RTVSPropertyOp4
 70
     1
102
RTVSPropertyOp5
 70
     1
102
RTVSPropertyOp6
 70
     1
102
RTVSPropertyOp7
 70
     1
102
RTVSPropertyOp8
 70
     1
102
RTVSPropertyOp9
 70
     1
102
RTVSPropertyOp10
 70
     1
102
RTVSPropertyOp11
 70
     1
102
RTVSPropertyOp12
 70
     1
102
RTVSPropertyOp13
 70
     1
102
RTVSPropertyOp14
 70
     1
102
RTVSPropertyOp15
 70
     1
102
RTVSPropertyOp16
 70
     1
102
RTVSPropertyOp17
 70
     1
102
RTVSPropertyOp18
 70
     1
102
RTVSPropertyOp19
 70
     1
102
RTVSPropertyOp20
 70
     1
102
RTVSPropertyOp21
 70
     1
102
RTVSPropertyOp22
 70
     1
102
RTVSPropertyOp23
 70
     1
102
RTVSPropertyOp24
 70
     1
102
RTVSPropertyOp25
 70
     1
102
RTVSPropertyOp26
 70
     1
102
RTVSPropertyOp27
 70
     1
102
RTVSPropertyOp28
 70
     1
102
RTVSPropertyOp29
 70
     1
102
RTVSPropertyOp30
 70
     1
102
RTVSPropertyOp31
 70
     1
102
RTVSPropertyOp32
 70
     1
102
RTVSPropertyOp33
 70
     1
102
RTVSPropertyOp34
 70
     1
102
RTVSPropertyOp35
 70
     1
102
RTVSPropertyOp36
 70
     1
102
RTVSPropertyOp37
 70
     1
102
RTVSPropertyOp38
 70
     1
102
RTVSPropertyOp39
 70
     1
102
RTVSPropertyOp40
 70
     1
102
RTVSPropertyOp41
 70
     1
102
RTVSPropertyOp42
 70
     1
102
RTVSPropertyOp43
 70
     1
102
RTVSPropertyOp44
 70
     1
102
RTVSPropertyOp45
 70
     1
102
RTVSPropertyOp46
 70
     1
102
RTVSPropertyOp47
 70
     1
102
RTVSPropertyOp48
 70
     1
102
RTVSPropertyOp49
 70
     1
102
RTVSPropertyOp50
 70
     1
102
RTVSPropertyOp51
 70
     0
102
RTVSPropertyOp52
 70
     0
102
RTVSPropertyOp53
 70
     1
102
RTVSPropertyOp54
 70
     1
102
RTVSPropertyOp55
 70
     1
102
RTVSPropertyOp56
 70
     1
102
RTVSPropertyOp57
 70
     1
102
RTVSPropertyOp58
 70
     1
102
RTVSPropertyOp59
 70
     1
102
RTVSPropertyOp60
 70
     1
102
RTVSPropertyOp61
 70
     1
102
RTVSPropertyOp62
 70
     1
  0
XRECORD
  5
99E8
102
{ACAD_REACTORS
330
99E7
102
}
330
99E7
100
AcDbXrecord
280
     1
102
RTVSPost2010Prop28
280
     0
102
RTVSPost2010PropOp28
 70
     1
102
RTVSPost2010Prop29
280
     1
102
RTVSPost2010PropOp29
 70
     1
102
RTVSPost2010Prop30
280
     1
102
RTVSPost2010PropOp30
 70
     1
102
RTVSPost2010Prop31
280
     0
102
RTVSPost2010PropOp31
 70
     1
102
RTVSPost2010Prop32
280
     0
102
RTVSPost2010PropOp32
 70
     1
102
RTVSPost2010Prop33
280
     0
102
RTVSPost2010PropOp33
 70
     1
102
RTVSPost2010Prop34
280
     0
102
RTVSPost2010PropOp34
 70
     1
102
RTVSPost2010Prop35
280
     0
102
RTVSPost2010PropOp35
 70
     1
102
RTVSPost2010Prop36
280
     0
102
RTVSPost2010PropOp36
 70
     1
102
RTVSPost2010Prop37
 90
       50
102
RTVSPost2010PropOp37
 70
     1
102
RTVSPost2010Prop38
140
0.0
102
RTVSPost2010PropOp38
 70
     1
102
RTVSPost2010Prop39
140
1.0
102
RTVSPost2010PropOp39
 70
     1
102
RTVSPost2010Prop40
 90
        0
102
RTVSPost2010PropOp40
 70
     1
102
RTVSPost2010Prop41ColorIndex
 90
       18
102
RTVSPost2010Prop41ColorRGB
 90
        0
102
RTVSPost2010PropOp41
 70
     1
102
RTVSPost2010Prop42
 90
       50
102
RTVSPost2010PropOp42
 70
     1
102
RTVSPost2010Prop43
 90
        3
102
RTVSPost2010PropOp43
 70
     1
102
RTVSPost2010Prop44ColorIndex
 90
        5
102
RTVSPost2010Prop44ColorRGB
 90
      255
102
RTVSPost2010PropOp44
 70
     1
102
RTVSPost2010Prop45
280
     0
102
RTVSPost2010PropOp45
 70
     1
102
RTVSPost2010Prop46
 90
       50
102
RTVSPost2010PropOp46
 70
     1
102
RTVSPost2010Prop47
 90
       50
102
RTVSPost2010PropOp47
 70
     1
102
RTVSPost2010Prop48
 90
       50
102
RTVSPost2010PropOp48
 70
     1
102
RTVSPost2010Prop49
280
     0
102
RTVSPost2010PropOp49
 70
     1
102
RTVSPost2010Prop50
 90
       50
102
RTVSPost2010PropOp50
 70
     1
102
RTVSPost2010Prop51ColorIndex
 90
      256
102
RTVSPost2010Prop51ColorRGB
 90
-16777216
102
RTVSPost2010PropOp51
 70
     0
102
RTVSPost2010Prop52
140
1.0
102
RTVSPost2010PropOp52
 70
     0
102
RTVSPost2010Prop53
 90
        2
102
RTVSPost2010PropOp53
 70
     1
102
RTVSPost2010Prop54
  1
strokes_ogs.tif
102
RTVSPost2010PropOp54
 70
     1
102
RTVSPost2010Prop55
280
     0
102
RTVSPost2010PropOp55
 70
     1
102
RTVSPost2010Prop56
140
1.0
102
RTVSPost2010PropOp56
 70
     1
102
RTVSPost2010Prop57
140
1.0
102
RTVSPost2010PropOp57
 70
     1
102
RTVSPropertyOp0
 70
     1
102
RTVSPropertyOp1
 70
     1
102
RTVSPropertyOp2
 70
     1
102
RTVSPropertyOp3
 70
     1
102
RTVSPropertyOp4
 70
     1
102
RTVSPropertyOp5
 70
     1
102
RTVSPropertyOp6
 70
     1
102
RTVSPropertyOp7
 70
     1
102
RTVSPropertyOp8
 70
     1
102
RTVSPropertyOp9
 70
     1
102
RTVSPropertyOp10
 70
     1
102
RTVSPropertyOp11
 70
     1
102
RTVSPropertyOp12
 70
     1
102
RTVSPropertyOp13
 70
     1
102
RTVSPropertyOp14
 70
     1
102
RTVSPropertyOp15
 70
     1
102
RTVSPropertyOp16
 70
     1
102
RTVSPropertyOp17
 70
     1
102
RTVSPropertyOp18
 70
     1
102
RTVSPropertyOp19
 70
     1
102
RTVSPropertyOp20
 70
     1
102
RTVSPropertyOp21
 70
     1
102
RTVSPropertyOp22
 70
     1
102
RTVSPropertyOp23
 70
     1
102
RTVSPropertyOp24
 70
     1
102
RTVSPropertyOp25
 70
     1
102
RTVSPropertyOp26
 70
     1
102
RTVSPropertyOp27
 70
     1
102
RTVSPropertyOp28
 70
     1
102
RTVSPropertyOp29
 70
     1
102
RTVSPropertyOp30
 70
     1
102
RTVSPropertyOp31
 70
     1
102
RTVSPropertyOp32
 70
     1
102
RTVSPropertyOp33
 70
     1
102
RTVSPropertyOp34
 70
     1
102
RTVSPropertyOp35
 70
     1
102
RTVSPropertyOp36
 70
     1
102
RTVSPropertyOp37
 70
     1
102
RTVSPropertyOp38
 70
     1
102
RTVSPropertyOp39
 70
     1
102
RTVSPropertyOp40
 70
     1
102
RTVSPropertyOp41
 70
     1
102
RTVSPropertyOp42
 70
     1
102
RTVSPropertyOp43
 70
     1
102
RTVSPropertyOp44
 70
     1
102
RTVSPropertyOp45
 70
     1
102
RTVSPropertyOp46
 70
     1
102
RTVSPropertyOp47
 70
     1
102
RTVSPropertyOp48
 70
     1
102
RTVSPropertyOp49
 70
     1
102
RTVSPropertyOp50
 70
     1
102
RTVSPropertyOp51
 70
     0
102
RTVSPropertyOp52
 70
     0
102
RTVSPropertyOp53
 70
     1
102
RTVSPropertyOp54
 70
     1
102
RTVSPropertyOp55
 70
     1
102
RTVSPropertyOp56
 70
     1
102
RTVSPropertyOp57
 70
     1
102
RTVSPropertyOp58
 70
     1
102
RTVSPropertyOp59
 70
     1
102
RTVSPropertyOp60
 70
     1
102
RTVSPropertyOp61
 70
     1
102
RTVSPropertyOp62
 70
     1
  0
XRECORD
  5
99F6
102
{ACAD_REACTORS
330
99F5
102
}
330
99F5
100
AcDbXrecord
280
     1
102
RTVSPost2010Prop28
280
     0
102
RTVSPost2010PropOp28
 70
     1
102
RTVSPost2010Prop29
280
     1
102
RTVSPost2010PropOp29
 70
     1
102
RTVSPost2010Prop30
280
     1
102
RTVSPost2010PropOp30
 70
     1
102
RTVSPost2010Prop31
280
     0
102
RTVSPost2010PropOp31
 70
     1
102
RTVSPost2010Prop32
280
     0
102
RTVSPost2010PropOp32
 70
     1
102
RTVSPost2010Prop33
280
     0
102
RTVSPost2010PropOp33
 70
     1
102
RTVSPost2010Prop34
280
     0
102
RTVSPost2010PropOp34
 70
     1
102
RTVSPost2010Prop35
280
     0
102
RTVSPost2010PropOp35
 70
     1
102
RTVSPost2010Prop36
280
     0
102
RTVSPost2010PropOp36
 70
     1
102
RTVSPost2010Prop37
 90
       50
102
RTVSPost2010PropOp37
 70
     1
102
RTVSPost2010Prop38
140
0.0
102
RTVSPost2010PropOp38
 70
     1
102
RTVSPost2010Prop39
140
1.0
102
RTVSPost2010PropOp39
 70
     1
102
RTVSPost2010Prop40
 90
        0
102
RTVSPost2010PropOp40
 70
     1
102
RTVSPost2010Prop41ColorIndex
 90
       18
102
RTVSPost2010Prop41ColorRGB
 90
        0
102
RTVSPost2010PropOp41
 70
     1
102
RTVSPost2010Prop42
 90
       50
102
RTVSPost2010PropOp42
 70
     1
102
RTVSPost2010Prop43
 90
        3
102
RTVSPost2010PropOp43
 70
     1
102
RTVSPost2010Prop44ColorIndex
 90
        5
102
RTVSPost2010Prop44ColorRGB
 90
      255
102
RTVSPost2010PropOp44
 70
     1
102
RTVSPost2010Prop45
280
     0
102
RTVSPost2010PropOp45
 70
     1
102
RTVSPost2010Prop46
 90
       50
102
RTVSPost2010PropOp46
 70
     1
102
RTVSPost2010Prop47
 90
       50
102
RTVSPost2010PropOp47
 70
     1
102
RTVSPost2010Prop48
 90
       50
102
RTVSPost2010PropOp48
 70
     1
102
RTVSPost2010Prop49
280
     0
102
RTVSPost2010PropOp49
 70
     1
102
RTVSPost2010Prop50
 90
       50
102
RTVSPost2010PropOp50
 70
     1
102
RTVSPost2010Prop51ColorIndex
 90
      256
102
RTVSPost2010Prop51ColorRGB
 90
-16777216
102
RTVSPost2010PropOp51
 70
     0
102
RTVSPost2010Prop52
140
1.0
102
RTVSPost2010PropOp52
 70
     0
102
RTVSPost2010Prop53
 90
        2
102
RTVSPost2010PropOp53
 70
     1
102
RTVSPost2010Prop54
  1
strokes_ogs.tif
102
RTVSPost2010PropOp54
 70
     1
102
RTVSPost2010Prop55
280
     0
102
RTVSPost2010PropOp55
 70
     1
102
RTVSPost2010Prop56
140
1.0
102
RTVSPost2010PropOp56
 70
     1
102
RTVSPost2010Prop57
140
1.0
102
RTVSPost2010PropOp57
 70
     1
102
RTVSPropertyOp0
 70
     1
102
RTVSPropertyOp1
 70
     1
102
RTVSPropertyOp2
 70
     1
102
RTVSPropertyOp3
 70
     1
102
RTVSPropertyOp4
 70
     1
102
RTVSPropertyOp5
 70
     1
102
RTVSPropertyOp6
 70
     1
102
RTVSPropertyOp7
 70
     1
102
RTVSPropertyOp8
 70
     1
102
RTVSPropertyOp9
 70
     1
102
RTVSPropertyOp10
 70
     1
102
RTVSPropertyOp11
 70
     1
102
RTVSPropertyOp12
 70
     1
102
RTVSPropertyOp13
 70
     1
102
RTVSPropertyOp14
 70
     1
102
RTVSPropertyOp15
 70
     1
102
RTVSPropertyOp16
 70
     1
102
RTVSPropertyOp17
 70
     1
102
RTVSPropertyOp18
 70
     1
102
RTVSPropertyOp19
 70
     1
102
RTVSPropertyOp20
 70
     1
102
RTVSPropertyOp21
 70
     1
102
RTVSPropertyOp22
 70
     1
102
RTVSPropertyOp23
 70
     1
102
RTVSPropertyOp24
 70
     1
102
RTVSPropertyOp25
 70
     1
102
RTVSPropertyOp26
 70
     1
102
RTVSPropertyOp27
 70
     1
102
RTVSPropertyOp28
 70
     1
102
RTVSPropertyOp29
 70
     1
102
RTVSPropertyOp30
 70
     1
102
RTVSPropertyOp31
 70
     1
102
RTVSPropertyOp32
 70
     1
102
RTVSPropertyOp33
 70
     1
102
RTVSPropertyOp34
 70
     1
102
RTVSPropertyOp35
 70
     1
102
RTVSPropertyOp36
 70
     1
102
RTVSPropertyOp37
 70
     1
102
RTVSPropertyOp38
 70
     1
102
RTVSPropertyOp39
 70
     1
102
RTVSPropertyOp40
 70
     1
102
RTVSPropertyOp41
 70
     1
102
RTVSPropertyOp42
 70
     1
102
RTVSPropertyOp43
 70
     1
102
RTVSPropertyOp44
 70
     1
102
RTVSPropertyOp45
 70
     1
102
RTVSPropertyOp46
 70
     1
102
RTVSPropertyOp47
 70
     1
102
RTVSPropertyOp48
 70
     1
102
RTVSPropertyOp49
 70
     1
102
RTVSPropertyOp50
 70
     1
102
RTVSPropertyOp51
 70
     0
102
RTVSPropertyOp52
 70
     0
102
RTVSPropertyOp53
 70
     1
102
RTVSPropertyOp54
 70
     1
102
RTVSPropertyOp55
 70
     1
102
RTVSPropertyOp56
 70
     1
102
RTVSPropertyOp57
 70
     1
102
RTVSPropertyOp58
 70
     1
102
RTVSPropertyOp59
 70
     1
102
RTVSPropertyOp60
 70
     1
102
RTVSPropertyOp61
 70
     1
102
RTVSPropertyOp62
 70
     1
  0
XRECORD
  5
99FE
102
{ACAD_REACTORS
330
99FD
102
}
330
99FD
100
AcDbXrecord
280
     1
102
RTVSPost2010Prop28
280
     0
102
RTVSPost2010PropOp28
 70
     1
102
RTVSPost2010Prop29
280
     1
102
RTVSPost2010PropOp29
 70
     1
102
RTVSPost2010Prop30
280
     1
102
RTVSPost2010PropOp30
 70
     1
102
RTVSPost2010Prop31
280
     0
102
RTVSPost2010PropOp31
 70
     1
102
RTVSPost2010Prop32
280
     0
102
RTVSPost2010PropOp32
 70
     1
102
RTVSPost2010Prop33
280
     0
102
RTVSPost2010PropOp33
 70
     1
102
RTVSPost2010Prop34
280
     0
102
RTVSPost2010PropOp34
 70
     1
102
RTVSPost2010Prop35
280
     0
102
RTVSPost2010PropOp35
 70
     1
102
RTVSPost2010Prop36
280
     0
102
RTVSPost2010PropOp36
 70
     1
102
RTVSPost2010Prop37
 90
       50
102
RTVSPost2010PropOp37
 70
     1
102
RTVSPost2010Prop38
140
0.0
102
RTVSPost2010PropOp38
 70
     1
102
RTVSPost2010Prop39
140
1.0
102
RTVSPost2010PropOp39
 70
     1
102
RTVSPost2010Prop40
 90
        0
102
RTVSPost2010PropOp40
 70
     1
102
RTVSPost2010Prop41ColorIndex
 90
       18
102
RTVSPost2010Prop41ColorRGB
 90
        0
102
RTVSPost2010PropOp41
 70
     1
102
RTVSPost2010Prop42
 90
       50
102
RTVSPost2010PropOp42
 70
     1
102
RTVSPost2010Prop43
 90
        3
102
RTVSPost2010PropOp43
 70
     1
102
RTVSPost2010Prop44ColorIndex
 90
        5
102
RTVSPost2010Prop44ColorRGB
 90
      255
102
RTVSPost2010PropOp44
 70
     1
102
RTVSPost2010Prop45
280
     0
102
RTVSPost2010PropOp45
 70
     1
102
RTVSPost2010Prop46
 90
       50
102
RTVSPost2010PropOp46
 70
     1
102
RTVSPost2010Prop47
 90
       50
102
RTVSPost2010PropOp47
 70
     1
102
RTVSPost2010Prop48
 90
       50
102
RTVSPost2010PropOp48
 70
     1
102
RTVSPost2010Prop49
280
     0
102
RTVSPost2010PropOp49
 70
     1
102
RTVSPost2010Prop50
 90
       50
102
RTVSPost2010PropOp50
 70
     1
102
RTVSPost2010Prop51ColorIndex
 90
      256
102
RTVSPost2010Prop51ColorRGB
 90
-16777216
102
RTVSPost2010PropOp51
 70
     0
102
RTVSPost2010Prop52
140
1.0
102
RTVSPost2010PropOp52
 70
     0
102
RTVSPost2010Prop53
 90
        2
102
RTVSPost2010PropOp53
 70
     1
102
RTVSPost2010Prop54
  1
strokes_ogs.tif
102
RTVSPost2010PropOp54
 70
     1
102
RTVSPost2010Prop55
280
     0
102
RTVSPost2010PropOp55
 70
     1
102
RTVSPost2010Prop56
140
1.0
102
RTVSPost2010PropOp56
 70
     1
102
RTVSPost2010Prop57
140
1.0
102
RTVSPost2010PropOp57
 70
     1
102
RTVSPropertyOp0
 70
     1
102
RTVSPropertyOp1
 70
     1
102
RTVSPropertyOp2
 70
     1
102
RTVSPropertyOp3
 70
     1
102
RTVSPropertyOp4
 70
     1
102
RTVSPropertyOp5
 70
     1
102
RTVSPropertyOp6
 70
     1
102
RTVSPropertyOp7
 70
     1
102
RTVSPropertyOp8
 70
     1
102
RTVSPropertyOp9
 70
     1
102
RTVSPropertyOp10
 70
     1
102
RTVSPropertyOp11
 70
     1
102
RTVSPropertyOp12
 70
     1
102
RTVSPropertyOp13
 70
     1
102
RTVSPropertyOp14
 70
     1
102
RTVSPropertyOp15
 70
     1
102
RTVSPropertyOp16
 70
     1
102
RTVSPropertyOp17
 70
     1
102
RTVSPropertyOp18
 70
     1
102
RTVSPropertyOp19
 70
     1
102
RTVSPropertyOp20
 70
     1
102
RTVSPropertyOp21
 70
     1
102
RTVSPropertyOp22
 70
     1
102
RTVSPropertyOp23
 70
     1
102
RTVSPropertyOp24
 70
     1
102
RTVSPropertyOp25
 70
     1
102
RTVSPropertyOp26
 70
     1
102
RTVSPropertyOp27
 70
     1
102
RTVSPropertyOp28
 70
     1
102
RTVSPropertyOp29
 70
     1
102
RTVSPropertyOp30
 70
     1
102
RTVSPropertyOp31
 70
     1
102
RTVSPropertyOp32
 70
     1
102
RTVSPropertyOp33
 70
     1
102
RTVSPropertyOp34
 70
     1
102
RTVSPropertyOp35
 70
     1
102
RTVSPropertyOp36
 70
     1
102
RTVSPropertyOp37
 70
     1
102
RTVSPropertyOp38
 70
     1
102
RTVSPropertyOp39
 70
     1
102
RTVSPropertyOp40
 70
     1
102
RTVSPropertyOp41
 70
     1
102
RTVSPropertyOp42
 70
     1
102
RTVSPropertyOp43
 70
     1
102
RTVSPropertyOp44
 70
     1
102
RTVSPropertyOp45
 70
     1
102
RTVSPropertyOp46
 70
     1
102
RTVSPropertyOp47
 70
     1
102
RTVSPropertyOp48
 70
     1
102
RTVSPropertyOp49
 70
     1
102
RTVSPropertyOp50
 70
     1
102
RTVSPropertyOp51
 70
     0
102
RTVSPropertyOp52
 70
     0
102
RTVSPropertyOp53
 70
     1
102
RTVSPropertyOp54
 70
     1
102
RTVSPropertyOp55
 70
     1
102
RTVSPropertyOp56
 70
     1
102
RTVSPropertyOp57
 70
     1
102
RTVSPropertyOp58
 70
     1
102
RTVSPropertyOp59
 70
     1
102
RTVSPropertyOp60
 70
     1
102
RTVSPropertyOp61
 70
     1
102
RTVSPropertyOp62
 70
     1
  0
XRECORD
  5
99F0
102
{ACAD_REACTORS
330
99EF
102
}
330
99EF
100
AcDbXrecord
280
     1
102
RTVSPost2010Prop28
280
     0
102
RTVSPost2010PropOp28
 70
     1
102
RTVSPost2010Prop29
280
     1
102
RTVSPost2010PropOp29
 70
     1
102
RTVSPost2010Prop30
280
     1
102
RTVSPost2010PropOp30
 70
     1
102
RTVSPost2010Prop31
280
     0
102
RTVSPost2010PropOp31
 70
     1
102
RTVSPost2010Prop32
280
     0
102
RTVSPost2010PropOp32
 70
     1
102
RTVSPost2010Prop33
280
     0
102
RTVSPost2010PropOp33
 70
     1
102
RTVSPost2010Prop34
280
     0
102
RTVSPost2010PropOp34
 70
     1
102
RTVSPost2010Prop35
280
     0
102
RTVSPost2010PropOp35
 70
     1
102
RTVSPost2010Prop36
280
     0
102
RTVSPost2010PropOp36
 70
     1
102
RTVSPost2010Prop37
 90
       50
102
RTVSPost2010PropOp37
 70
     1
102
RTVSPost2010Prop38
140
0.0
102
RTVSPost2010PropOp38
 70
     1
102
RTVSPost2010Prop39
140
1.0
102
RTVSPost2010PropOp39
 70
     1
102
RTVSPost2010Prop40
 90
        0
102
RTVSPost2010PropOp40
 70
     1
102
RTVSPost2010Prop41ColorIndex
 90
       18
102
RTVSPost2010Prop41ColorRGB
 90
        0
102
RTVSPost2010PropOp41
 70
     1
102
RTVSPost2010Prop42
 90
       50
102
RTVSPost2010PropOp42
 70
     1
102
RTVSPost2010Prop43
 90
        3
102
RTVSPost2010PropOp43
 70
     1
102
RTVSPost2010Prop44ColorIndex
 90
        5
102
RTVSPost2010Prop44ColorRGB
 90
      255
102
RTVSPost2010PropOp44
 70
     1
102
RTVSPost2010Prop45
280
     0
102
RTVSPost2010PropOp45
 70
     1
102
RTVSPost2010Prop46
 90
       50
102
RTVSPost2010PropOp46
 70
     1
102
RTVSPost2010Prop47
 90
       50
102
RTVSPost2010PropOp47
 70
     1
102
RTVSPost2010Prop48
 90
       50
102
RTVSPost2010PropOp48
 70
     1
102
RTVSPost2010Prop49
280
     0
102
RTVSPost2010PropOp49
 70
     1
102
RTVSPost2010Prop50
 90
       50
102
RTVSPost2010PropOp50
 70
     1
102
RTVSPost2010Prop51ColorIndex
 90
      256
102
RTVSPost2010Prop51ColorRGB
 90
-16777216
102
RTVSPost2010PropOp51
 70
     0
102
RTVSPost2010Prop52
140
1.0
102
RTVSPost2010PropOp52
 70
     0
102
RTVSPost2010Prop53
 90
        2
102
RTVSPost2010PropOp53
 70
     1
102
RTVSPost2010Prop54
  1
strokes_ogs.tif
102
RTVSPost2010PropOp54
 70
     1
102
RTVSPost2010Prop55
280
     0
102
RTVSPost2010PropOp55
 70
     1
102
RTVSPost2010Prop56
140
1.0
102
RTVSPost2010PropOp56
 70
     1
102
RTVSPost2010Prop57
140
1.0
102
RTVSPost2010PropOp57
 70
     1
102
RTVSPropertyOp0
 70
     1
102
RTVSPropertyOp1
 70
     1
102
RTVSPropertyOp2
 70
     1
102
RTVSPropertyOp3
 70
     1
102
RTVSPropertyOp4
 70
     1
102
RTVSPropertyOp5
 70
     1
102
RTVSPropertyOp6
 70
     1
102
RTVSPropertyOp7
 70
     1
102
RTVSPropertyOp8
 70
     1
102
RTVSPropertyOp9
 70
     1
102
RTVSPropertyOp10
 70
     1
102
RTVSPropertyOp11
 70
     1
102
RTVSPropertyOp12
 70
     1
102
RTVSPropertyOp13
 70
     1
102
RTVSPropertyOp14
 70
     1
102
RTVSPropertyOp15
 70
     1
102
RTVSPropertyOp16
 70
     1
102
RTVSPropertyOp17
 70
     1
102
RTVSPropertyOp18
 70
     1
102
RTVSPropertyOp19
 70
     1
102
RTVSPropertyOp20
 70
     1
102
RTVSPropertyOp21
 70
     1
102
RTVSPropertyOp22
 70
     1
102
RTVSPropertyOp23
 70
     1
102
RTVSPropertyOp24
 70
     1
102
RTVSPropertyOp25
 70
     1
102
RTVSPropertyOp26
 70
     1
102
RTVSPropertyOp27
 70
     1
102
RTVSPropertyOp28
 70
     1
102
RTVSPropertyOp29
 70
     1
102
RTVSPropertyOp30
 70
     1
102
RTVSPropertyOp31
 70
     1
102
RTVSPropertyOp32
 70
     1
102
RTVSPropertyOp33
 70
     1
102
RTVSPropertyOp34
 70
     1
102
RTVSPropertyOp35
 70
     1
102
RTVSPropertyOp36
 70
     1
102
RTVSPropertyOp37
 70
     1
102
RTVSPropertyOp38
 70
     1
102
RTVSPropertyOp39
 70
     1
102
RTVSPropertyOp40
 70
     1
102
RTVSPropertyOp41
 70
     1
102
RTVSPropertyOp42
 70
     1
102
RTVSPropertyOp43
 70
     1
102
RTVSPropertyOp44
 70
     1
102
RTVSPropertyOp45
 70
     1
102
RTVSPropertyOp46
 70
     1
102
RTVSPropertyOp47
 70
     1
102
RTVSPropertyOp48
 70
     1
102
RTVSPropertyOp49
 70
     1
102
RTVSPropertyOp50
 70
     1
102
RTVSPropertyOp51
 70
     0
102
RTVSPropertyOp52
 70
     0
102
RTVSPropertyOp53
 70
     1
102
RTVSPropertyOp54
 70
     1
102
RTVSPropertyOp55
 70
     1
102
RTVSPropertyOp56
 70
     1
102
RTVSPropertyOp57
 70
     1
102
RTVSPropertyOp58
 70
     1
102
RTVSPropertyOp59
 70
     1
102
RTVSPropertyOp60
 70
     1
102
RTVSPropertyOp61
 70
     1
102
RTVSPropertyOp62
 70
     1
  0
XRECORD
  5
99F4
102
{ACAD_REACTORS
330
99F3
102
}
330
99F3
100
AcDbXrecord
280
     1
102
RTVSPost2010Prop28
280
     0
102
RTVSPost2010PropOp28
 70
     1
102
RTVSPost2010Prop29
280
     1
102
RTVSPost2010PropOp29
 70
     1
102
RTVSPost2010Prop30
280
     1
102
RTVSPost2010PropOp30
 70
     1
102
RTVSPost2010Prop31
280
     0
102
RTVSPost2010PropOp31
 70
     1
102
RTVSPost2010Prop32
280
     0
102
RTVSPost2010PropOp32
 70
     1
102
RTVSPost2010Prop33
280
     0
102
RTVSPost2010PropOp33
 70
     1
102
RTVSPost2010Prop34
280
     0
102
RTVSPost2010PropOp34
 70
     1
102
RTVSPost2010Prop35
280
     0
102
RTVSPost2010PropOp35
 70
     1
102
RTVSPost2010Prop36
280
     0
102
RTVSPost2010PropOp36
 70
     1
102
RTVSPost2010Prop37
 90
       50
102
RTVSPost2010PropOp37
 70
     1
102
RTVSPost2010Prop38
140
0.0
102
RTVSPost2010PropOp38
 70
     1
102
RTVSPost2010Prop39
140
1.0
102
RTVSPost2010PropOp39
 70
     1
102
RTVSPost2010Prop40
 90
        0
102
RTVSPost2010PropOp40
 70
     1
102
RTVSPost2010Prop41ColorIndex
 90
       18
102
RTVSPost2010Prop41ColorRGB
 90
        0
102
RTVSPost2010PropOp41
 70
     1
102
RTVSPost2010Prop42
 90
       50
102
RTVSPost2010PropOp42
 70
     1
102
RTVSPost2010Prop43
 90
        3
102
RTVSPost2010PropOp43
 70
     1
102
RTVSPost2010Prop44ColorIndex
 90
        5
102
RTVSPost2010Prop44ColorRGB
 90
      255
102
RTVSPost2010PropOp44
 70
     1
102
RTVSPost2010Prop45
280
     0
102
RTVSPost2010PropOp45
 70
     1
102
RTVSPost2010Prop46
 90
       50
102
RTVSPost2010PropOp46
 70
     1
102
RTVSPost2010Prop47
 90
       50
102
RTVSPost2010PropOp47
 70
     1
102
RTVSPost2010Prop48
 90
       50
102
RTVSPost2010PropOp48
 70
     1
102
RTVSPost2010Prop49
280
     0
102
RTVSPost2010PropOp49
 70
     1
102
RTVSPost2010Prop50
 90
       50
102
RTVSPost2010PropOp50
 70
     1
102
RTVSPost2010Prop51ColorIndex
 90
      256
102
RTVSPost2010Prop51ColorRGB
 90
-16777216
102
RTVSPost2010PropOp51
 70
     0
102
RTVSPost2010Prop52
140
1.0
102
RTVSPost2010PropOp52
 70
     0
102
RTVSPost2010Prop53
 90
        2
102
RTVSPost2010PropOp53
 70
     1
102
RTVSPost2010Prop54
  1
strokes_ogs.tif
102
RTVSPost2010PropOp54
 70
     1
102
RTVSPost2010Prop55
280
     0
102
RTVSPost2010PropOp55
 70
     1
102
RTVSPost2010Prop56
140
1.0
102
RTVSPost2010PropOp56
 70
     1
102
RTVSPost2010Prop57
140
1.0
102
RTVSPost2010PropOp57
 70
     1
102
RTVSPropertyOp0
 70
     1
102
RTVSPropertyOp1
 70
     1
102
RTVSPropertyOp2
 70
     1
102
RTVSPropertyOp3
 70
     1
102
RTVSPropertyOp4
 70
     1
102
RTVSPropertyOp5
 70
     1
102
RTVSPropertyOp6
 70
     1
102
RTVSPropertyOp7
 70
     1
102
RTVSPropertyOp8
 70
     1
102
RTVSPropertyOp9
 70
     1
102
RTVSPropertyOp10
 70
     1
102
RTVSPropertyOp11
 70
     1
102
RTVSPropertyOp12
 70
     1
102
RTVSPropertyOp13
 70
     1
102
RTVSPropertyOp14
 70
     1
102
RTVSPropertyOp15
 70
     1
102
RTVSPropertyOp16
 70
     1
102
RTVSPropertyOp17
 70
     1
102
RTVSPropertyOp18
 70
     1
102
RTVSPropertyOp19
 70
     1
102
RTVSPropertyOp20
 70
     1
102
RTVSPropertyOp21
 70
     1
102
RTVSPropertyOp22
 70
     1
102
RTVSPropertyOp23
 70
     1
102
RTVSPropertyOp24
 70
     1
102
RTVSPropertyOp25
 70
     1
102
RTVSPropertyOp26
 70
     1
102
RTVSPropertyOp27
 70
     1
102
RTVSPropertyOp28
 70
     1
102
RTVSPropertyOp29
 70
     1
102
RTVSPropertyOp30
 70
     1
102
RTVSPropertyOp31
 70
     1
102
RTVSPropertyOp32
 70
     1
102
RTVSPropertyOp33
 70
     1
102
RTVSPropertyOp34
 70
     1
102
RTVSPropertyOp35
 70
     1
102
RTVSPropertyOp36
 70
     1
102
RTVSPropertyOp37
 70
     1
102
RTVSPropertyOp38
 70
     1
102
RTVSPropertyOp39
 70
     1
102
RTVSPropertyOp40
 70
     1
102
RTVSPropertyOp41
 70
     1
102
RTVSPropertyOp42
 70
     1
102
RTVSPropertyOp43
 70
     1
102
RTVSPropertyOp44
 70
     1
102
RTVSPropertyOp45
 70
     1
102
RTVSPropertyOp46
 70
     1
102
RTVSPropertyOp47
 70
     1
102
RTVSPropertyOp48
 70
     1
102
RTVSPropertyOp49
 70
     1
102
RTVSPropertyOp50
 70
     1
102
RTVSPropertyOp51
 70
     0
102
RTVSPropertyOp52
 70
     0
102
RTVSPropertyOp53
 70
     1
102
RTVSPropertyOp54
 70
     1
102
RTVSPropertyOp55
 70
     1
102
RTVSPropertyOp56
 70
     1
102
RTVSPropertyOp57
 70
     1
102
RTVSPropertyOp58
 70
     1
102
RTVSPropertyOp59
 70
     1
102
RTVSPropertyOp60
 70
     1
102
RTVSPropertyOp61
 70
     1
102
RTVSPropertyOp62
 70
     1
  0
XRECORD
  5
9A0E
102
{ACAD_REACTORS
330
9A0D
102
}
330
9A0D
100
AcDbXrecord
280
     1
102
RTVSPost2010Prop28
280
     0
102
RTVSPost2010PropOp28
 70
     1
102
RTVSPost2010Prop29
280
     1
102
RTVSPost2010PropOp29
 70
     1
102
RTVSPost2010Prop30
280
     1
102
RTVSPost2010PropOp30
 70
     1
102
RTVSPost2010Prop31
280
     0
102
RTVSPost2010PropOp31
 70
     1
102
RTVSPost2010Prop32
280
     0
102
RTVSPost2010PropOp32
 70
     1
102
RTVSPost2010Prop33
280
     0
102
RTVSPost2010PropOp33
 70
     1
102
RTVSPost2010Prop34
280
     0
102
RTVSPost2010PropOp34
 70
     1
102
RTVSPost2010Prop35
280
     0
102
RTVSPost2010PropOp35
 70
     1
102
RTVSPost2010Prop36
280
     0
102
RTVSPost2010PropOp36
 70
     1
102
RTVSPost2010Prop37
 90
       50
102
RTVSPost2010PropOp37
 70
     0
102
RTVSPost2010Prop38
140
0.0
102
RTVSPost2010PropOp38
 70
     0
102
RTVSPost2010Prop39
140
1.0
102
RTVSPost2010PropOp39
 70
     0
102
RTVSPost2010Prop40
 90
        0
102
RTVSPost2010PropOp40
 70
     0
102
RTVSPost2010Prop41ColorIndex
 90
       18
102
RTVSPost2010Prop41ColorRGB
 90
        0
102
RTVSPost2010PropOp41
 70
     0
102
RTVSPost2010Prop42
 90
       50
102
RTVSPost2010PropOp42
 70
     0
102
RTVSPost2010Prop43
 90
        3
102
RTVSPost2010PropOp43
 70
     0
102
RTVSPost2010Prop44ColorIndex
 90
        5
102
RTVSPost2010Prop44ColorRGB
 90
      255
102
RTVSPost2010PropOp44
 70
     0
102
RTVSPost2010Prop45
280
     0
102
RTVSPost2010PropOp45
 70
     1
102
RTVSPost2010Prop46
 90
       50
102
RTVSPost2010PropOp46
 70
     0
102
RTVSPost2010Prop47
 90
       50
102
RTVSPost2010PropOp47
 70
     0
102
RTVSPost2010Prop48
 90
       50
102
RTVSPost2010PropOp48
 70
     0
102
RTVSPost2010Prop49
280
     0
102
RTVSPost2010PropOp49
 70
     1
102
RTVSPost2010Prop50
 90
       50
102
RTVSPost2010PropOp50
 70
     0
102
RTVSPost2010Prop51ColorIndex
 90
      256
102
RTVSPost2010Prop51ColorRGB
 90
-16777216
102
RTVSPost2010PropOp51
 70
     0
102
RTVSPost2010Prop52
140
1.0
102
RTVSPost2010PropOp52
 70
     0
102
RTVSPost2010Prop53
 90
        2
102
RTVSPost2010PropOp53
 70
     0
102
RTVSPost2010Prop54
  1
strokes_ogs.tif
102
RTVSPost2010PropOp54
 70
     0
102
RTVSPost2010Prop55
280
     0
102
RTVSPost2010PropOp55
 70
     1
102
RTVSPost2010Prop56
140
1.0
102
RTVSPost2010PropOp56
 70
     0
102
RTVSPost2010Prop57
140
1.0
102
RTVSPost2010PropOp57
 70
     0
102
RTVSPropertyOp0
 70
     0
102
RTVSPropertyOp1
 70
     0
102
RTVSPropertyOp2
 70
     0
102
RTVSPropertyOp3
 70
     0
102
RTVSPropertyOp4
 70
     0
102
RTVSPropertyOp5
 70
     0
102
RTVSPropertyOp6
 70
     0
102
RTVSPropertyOp7
 70
     0
102
RTVSPropertyOp8
 70
     0
102
RTVSPropertyOp9
 70
     0
102
RTVSPropertyOp10
 70
     0
102
RTVSPropertyOp11
 70
     0
102
RTVSPropertyOp12
 70
     0
102
RTVSPropertyOp13
 70
     0
102
RTVSPropertyOp14
 70
     2
102
RTVSPropertyOp15
 70
     0
102
RTVSPropertyOp16
 70
     0
102
RTVSPropertyOp17
 70
     0
102
RTVSPropertyOp18
 70
     0
102
RTVSPropertyOp19
 70
     0
102
RTVSPropertyOp20
 70
     0
102
RTVSPropertyOp21
 70
     0
102
RTVSPropertyOp22
 70
     0
102
RTVSPropertyOp23
 70
     0
102
RTVSPropertyOp24
 70
     0
102
RTVSPropertyOp25
 70
     0
102
RTVSPropertyOp26
 70
     0
102
RTVSPropertyOp27
 70
     0
102
RTVSPropertyOp28
 70
     1
102
RTVSPropertyOp29
 70
     1
102
RTVSPropertyOp30
 70
     1
102
RTVSPropertyOp31
 70
     1
102
RTVSPropertyOp32
 70
     1
102
RTVSPropertyOp33
 70
     1
102
RTVSPropertyOp34
 70
     1
102
RTVSPropertyOp35
 70
     1
102
RTVSPropertyOp36
 70
     1
102
RTVSPropertyOp37
 70
     0
102
RTVSPropertyOp38
 70
     0
102
RTVSPropertyOp39
 70
     0
102
RTVSPropertyOp40
 70
     0
102
RTVSPropertyOp41
 70
     0
102
RTVSPropertyOp42
 70
     0
102
RTVSPropertyOp43
 70
     0
102
RTVSPropertyOp44
 70
     0
102
RTVSPropertyOp45
 70
     1
102
RTVSPropertyOp46
 70
     0
102
RTVSPropertyOp47
 70
     0
102
RTVSPropertyOp48
 70
     0
102
RTVSPropertyOp49
 70
     1
102
RTVSPropertyOp50
 70
     0
102
RTVSPropertyOp51
 70
     0
102
RTVSPropertyOp52
 70
     0
102
RTVSPropertyOp53
 70
     0
102
RTVSPropertyOp54
 70
     0
102
RTVSPropertyOp55
 70
     1
102
RTVSPropertyOp56
 70
     0
102
RTVSPropertyOp57
 70
     0
102
RTVSPropertyOp58
 70
     0
102
RTVSPropertyOp59
 70
     0
102
RTVSPropertyOp60
 70
     0
102
RTVSPropertyOp61
 70
     0
102
RTVSPropertyOp62
 70
     0
  0
XRECORD
  5
99FC
102
{ACAD_REACTORS
330
99FB
102
}
330
99FB
100
AcDbXrecord
280
     1
102
RTVSPost2010Prop28
280
     0
102
RTVSPost2010PropOp28
 70
     1
102
RTVSPost2010Prop29
280
     1
102
RTVSPost2010PropOp29
 70
     1
102
RTVSPost2010Prop30
280
     1
102
RTVSPost2010PropOp30
 70
     1
102
RTVSPost2010Prop31
280
     0
102
RTVSPost2010PropOp31
 70
     1
102
RTVSPost2010Prop32
280
     0
102
RTVSPost2010PropOp32
 70
     1
102
RTVSPost2010Prop33
280
     0
102
RTVSPost2010PropOp33
 70
     1
102
RTVSPost2010Prop34
280
     0
102
RTVSPost2010PropOp34
 70
     1
102
RTVSPost2010Prop35
280
     0
102
RTVSPost2010PropOp35
 70
     1
102
RTVSPost2010Prop36
280
     0
102
RTVSPost2010PropOp36
 70
     1
102
RTVSPost2010Prop37
 90
       50
102
RTVSPost2010PropOp37
 70
     1
102
RTVSPost2010Prop38
140
0.0
102
RTVSPost2010PropOp38
 70
     1
102
RTVSPost2010Prop39
140
1.0
102
RTVSPost2010PropOp39
 70
     1
102
RTVSPost2010Prop40
 90
        0
102
RTVSPost2010PropOp40
 70
     1
102
RTVSPost2010Prop41ColorIndex
 90
       18
102
RTVSPost2010Prop41ColorRGB
 90
        0
102
RTVSPost2010PropOp41
 70
     1
102
RTVSPost2010Prop42
 90
       50
102
RTVSPost2010PropOp42
 70
     1
102
RTVSPost2010Prop43
 90
        3
102
RTVSPost2010PropOp43
 70
     1
102
RTVSPost2010Prop44ColorIndex
 90
        5
102
RTVSPost2010Prop44ColorRGB
 90
      255
102
RTVSPost2010PropOp44
 70
     1
102
RTVSPost2010Prop45
280
     0
102
RTVSPost2010PropOp45
 70
     1
102
RTVSPost2010Prop46
 90
       50
102
RTVSPost2010PropOp46
 70
     1
102
RTVSPost2010Prop47
 90
       50
102
RTVSPost2010PropOp47
 70
     1
102
RTVSPost2010Prop48
 90
       50
102
RTVSPost2010PropOp48
 70
     1
102
RTVSPost2010Prop49
280
     0
102
RTVSPost2010PropOp49
 70
     1
102
RTVSPost2010Prop50
 90
       50
102
RTVSPost2010PropOp50
 70
     1
102
RTVSPost2010Prop51ColorIndex
 90
      256
102
RTVSPost2010Prop51ColorRGB
 90
-16777216
102
RTVSPost2010PropOp51
 70
     0
102
RTVSPost2010Prop52
140
1.0
102
RTVSPost2010PropOp52
 70
     0
102
RTVSPost2010Prop53
 90
        2
102
RTVSPost2010PropOp53
 70
     1
102
RTVSPost2010Prop54
  1
strokes_ogs.tif
102
RTVSPost2010PropOp54
 70
     1
102
RTVSPost2010Prop55
280
     0
102
RTVSPost2010PropOp55
 70
     1
102
RTVSPost2010Prop56
140
1.0
102
RTVSPost2010PropOp56
 70
     1
102
RTVSPost2010Prop57
140
1.0
102
RTVSPost2010PropOp57
 70
     1
102
RTVSPropertyOp0
 70
     1
102
RTVSPropertyOp1
 70
     1
102
RTVSPropertyOp2
 70
     1
102
RTVSPropertyOp3
 70
     1
102
RTVSPropertyOp4
 70
     1
102
RTVSPropertyOp5
 70
     1
102
RTVSPropertyOp6
 70
     1
102
RTVSPropertyOp7
 70
     1
102
RTVSPropertyOp8
 70
     1
102
RTVSPropertyOp9
 70
     1
102
RTVSPropertyOp10
 70
     1
102
RTVSPropertyOp11
 70
     1
102
RTVSPropertyOp12
 70
     1
102
RTVSPropertyOp13
 70
     1
102
RTVSPropertyOp14
 70
     1
102
RTVSPropertyOp15
 70
     1
102
RTVSPropertyOp16
 70
     1
102
RTVSPropertyOp17
 70
     1
102
RTVSPropertyOp18
 70
     1
102
RTVSPropertyOp19
 70
     1
102
RTVSPropertyOp20
 70
     1
102
RTVSPropertyOp21
 70
     1
102
RTVSPropertyOp22
 70
     1
102
RTVSPropertyOp23
 70
     1
102
RTVSPropertyOp24
 70
     1
102
RTVSPropertyOp25
 70
     1
102
RTVSPropertyOp26
 70
     1
102
RTVSPropertyOp27
 70
     1
102
RTVSPropertyOp28
 70
     1
102
RTVSPropertyOp29
 70
     1
102
RTVSPropertyOp30
 70
     1
102
RTVSPropertyOp31
 70
     1
102
RTVSPropertyOp32
 70
     1
102
RTVSPropertyOp33
 70
     1
102
RTVSPropertyOp34
 70
     1
102
RTVSPropertyOp35
 70
     1
102
RTVSPropertyOp36
 70
     1
102
RTVSPropertyOp37
 70
     1
102
RTVSPropertyOp38
 70
     1
102
RTVSPropertyOp39
 70
     1
102
RTVSPropertyOp40
 70
     1
102
RTVSPropertyOp41
 70
     1
102
RTVSPropertyOp42
 70
     1
102
RTVSPropertyOp43
 70
     1
102
RTVSPropertyOp44
 70
     1
102
RTVSPropertyOp45
 70
     1
102
RTVSPropertyOp46
 70
     1
102
RTVSPropertyOp47
 70
     1
102
RTVSPropertyOp48
 70
     1
102
RTVSPropertyOp49
 70
     1
102
RTVSPropertyOp50
 70
     1
102
RTVSPropertyOp51
 70
     0
102
RTVSPropertyOp52
 70
     0
102
RTVSPropertyOp53
 70
     1
102
RTVSPropertyOp54
 70
     1
102
RTVSPropertyOp55
 70
     1
102
RTVSPropertyOp56
 70
     1
102
RTVSPropertyOp57
 70
     1
102
RTVSPropertyOp58
 70
     1
102
RTVSPropertyOp59
 70
     1
102
RTVSPropertyOp60
 70
     1
102
RTVSPropertyOp61
 70
     1
102
RTVSPropertyOp62
 70
     1
  0
XRECORD
  5
99E0
102
{ACAD_REACTORS
330
99DF
102
}
330
99DF
100
AcDbXrecord
280
     1
102
RTVSPost2010Prop28
280
     0
102
RTVSPost2010PropOp28
 70
     1
102
RTVSPost2010Prop29
280
     1
102
RTVSPost2010PropOp29
 70
     1
102
RTVSPost2010Prop30
280
     1
102
RTVSPost2010PropOp30
 70
     1
102
RTVSPost2010Prop31
280
     0
102
RTVSPost2010PropOp31
 70
     1
102
RTVSPost2010Prop32
280
     0
102
RTVSPost2010PropOp32
 70
     1
102
RTVSPost2010Prop33
280
     0
102
RTVSPost2010PropOp33
 70
     1
102
RTVSPost2010Prop34
280
     0
102
RTVSPost2010PropOp34
 70
     1
102
RTVSPost2010Prop35
280
     0
102
RTVSPost2010PropOp35
 70
     1
102
RTVSPost2010Prop36
280
     0
102
RTVSPost2010PropOp36
 70
     1
102
RTVSPost2010Prop37
 90
       50
102
RTVSPost2010PropOp37
 70
     1
102
RTVSPost2010Prop38
140
0.0
102
RTVSPost2010PropOp38
 70
     1
102
RTVSPost2010Prop39
140
1.0
102
RTVSPost2010PropOp39
 70
     1
102
RTVSPost2010Prop40
 90
        0
102
RTVSPost2010PropOp40
 70
     1
102
RTVSPost2010Prop41ColorIndex
 90
       18
102
RTVSPost2010Prop41ColorRGB
 90
        0
102
RTVSPost2010PropOp41
 70
     1
102
RTVSPost2010Prop42
 90
       50
102
RTVSPost2010PropOp42
 70
     1
102
RTVSPost2010Prop43
 90
        3
102
RTVSPost2010PropOp43
 70
     1
102
RTVSPost2010Prop44ColorIndex
 90
        5
102
RTVSPost2010Prop44ColorRGB
 90
      255
102
RTVSPost2010PropOp44
 70
     1
102
RTVSPost2010Prop45
280
     0
102
RTVSPost2010PropOp45
 70
     1
102
RTVSPost2010Prop46
 90
       50
102
RTVSPost2010PropOp46
 70
     1
102
RTVSPost2010Prop47
 90
       50
102
RTVSPost2010PropOp47
 70
     1
102
RTVSPost2010Prop48
 90
       50
102
RTVSPost2010PropOp48
 70
     1
102
RTVSPost2010Prop49
280
     0
102
RTVSPost2010PropOp49
 70
     1
102
RTVSPost2010Prop50
 90
       50
102
RTVSPost2010PropOp50
 70
     1
102
RTVSPost2010Prop51ColorIndex
 90
      256
102
RTVSPost2010Prop51ColorRGB
 90
-16777216
102
RTVSPost2010PropOp51
 70
     0
102
RTVSPost2010Prop52
140
1.0
102
RTVSPost2010PropOp52
 70
     0
102
RTVSPost2010Prop53
 90
        2
102
RTVSPost2010PropOp53
 70
     1
102
RTVSPost2010Prop54
  1
strokes_ogs.tif
102
RTVSPost2010PropOp54
 70
     1
102
RTVSPost2010Prop55
280
     0
102
RTVSPost2010PropOp55
 70
     1
102
RTVSPost2010Prop56
140
1.0
102
RTVSPost2010PropOp56
 70
     1
102
RTVSPost2010Prop57
140
1.0
102
RTVSPost2010PropOp57
 70
     1
102
RTVSPropertyOp0
 70
     1
102
RTVSPropertyOp1
 70
     1
102
RTVSPropertyOp2
 70
     1
102
RTVSPropertyOp3
 70
     1
102
RTVSPropertyOp4
 70
     1
102
RTVSPropertyOp5
 70
     1
102
RTVSPropertyOp6
 70
     1
102
RTVSPropertyOp7
 70
     1
102
RTVSPropertyOp8
 70
     1
102
RTVSPropertyOp9
 70
     1
102
RTVSPropertyOp10
 70
     1
102
RTVSPropertyOp11
 70
     1
102
RTVSPropertyOp12
 70
     1
102
RTVSPropertyOp13
 70
     1
102
RTVSPropertyOp14
 70
     1
102
RTVSPropertyOp15
 70
     1
102
RTVSPropertyOp16
 70
     1
102
RTVSPropertyOp17
 70
     1
102
RTVSPropertyOp18
 70
     1
102
RTVSPropertyOp19
 70
     1
102
RTVSPropertyOp20
 70
     1
102
RTVSPropertyOp21
 70
     1
102
RTVSPropertyOp22
 70
     1
102
RTVSPropertyOp23
 70
     1
102
RTVSPropertyOp24
 70
     1
102
RTVSPropertyOp25
 70
     1
102
RTVSPropertyOp26
 70
     1
102
RTVSPropertyOp27
 70
     1
102
RTVSPropertyOp28
 70
     1
102
RTVSPropertyOp29
 70
     1
102
RTVSPropertyOp30
 70
     1
102
RTVSPropertyOp31
 70
     1
102
RTVSPropertyOp32
 70
     1
102
RTVSPropertyOp33
 70
     1
102
RTVSPropertyOp34
 70
     1
102
RTVSPropertyOp35
 70
     1
102
RTVSPropertyOp36
 70
     1
102
RTVSPropertyOp37
 70
     1
102
RTVSPropertyOp38
 70
     1
102
RTVSPropertyOp39
 70
     1
102
RTVSPropertyOp40
 70
     1
102
RTVSPropertyOp41
 70
     1
102
RTVSPropertyOp42
 70
     1
102
RTVSPropertyOp43
 70
     1
102
RTVSPropertyOp44
 70
     1
102
RTVSPropertyOp45
 70
     1
102
RTVSPropertyOp46
 70
     1
102
RTVSPropertyOp47
 70
     1
102
RTVSPropertyOp48
 70
     1
102
RTVSPropertyOp49
 70
     1
102
RTVSPropertyOp50
 70
     1
102
RTVSPropertyOp51
 70
     0
102
RTVSPropertyOp52
 70
     0
102
RTVSPropertyOp53
 70
     1
102
RTVSPropertyOp54
 70
     1
102
RTVSPropertyOp55
 70
     1
102
RTVSPropertyOp56
 70
     1
102
RTVSPropertyOp57
 70
     1
102
RTVSPropertyOp58
 70
     1
102
RTVSPropertyOp59
 70
     1
102
RTVSPropertyOp60
 70
     1
102
RTVSPropertyOp61
 70
     1
102
RTVSPropertyOp62
 70
     1
  0
XRECORD
  5
99E2
102
{ACAD_REACTORS
330
99E1
102
}
330
99E1
100
AcDbXrecord
280
     1
102
RTVSPost2010Prop28
280
     0
102
RTVSPost2010PropOp28
 70
     1
102
RTVSPost2010Prop29
280
     1
102
RTVSPost2010PropOp29
 70
     1
102
RTVSPost2010Prop30
280
     1
102
RTVSPost2010PropOp30
 70
     1
102
RTVSPost2010Prop31
280
     0
102
RTVSPost2010PropOp31
 70
     1
102
RTVSPost2010Prop32
280
     0
102
RTVSPost2010PropOp32
 70
     1
102
RTVSPost2010Prop33
280
     0
102
RTVSPost2010PropOp33
 70
     1
102
RTVSPost2010Prop34
280
     0
102
RTVSPost2010PropOp34
 70
     1
102
RTVSPost2010Prop35
280
     0
102
RTVSPost2010PropOp35
 70
     1
102
RTVSPost2010Prop36
280
     0
102
RTVSPost2010PropOp36
 70
     1
102
RTVSPost2010Prop37
 90
       50
102
RTVSPost2010PropOp37
 70
     1
102
RTVSPost2010Prop38
140
0.0
102
RTVSPost2010PropOp38
 70
     1
102
RTVSPost2010Prop39
140
1.0
102
RTVSPost2010PropOp39
 70
     1
102
RTVSPost2010Prop40
 90
        0
102
RTVSPost2010PropOp40
 70
     1
102
RTVSPost2010Prop41ColorIndex
 90
       18
102
RTVSPost2010Prop41ColorRGB
 90
        0
102
RTVSPost2010PropOp41
 70
     1
102
RTVSPost2010Prop42
 90
       50
102
RTVSPost2010PropOp42
 70
     1
102
RTVSPost2010Prop43
 90
        3
102
RTVSPost2010PropOp43
 70
     1
102
RTVSPost2010Prop44ColorIndex
 90
        5
102
RTVSPost2010Prop44ColorRGB
 90
      255
102
RTVSPost2010PropOp44
 70
     1
102
RTVSPost2010Prop45
280
     0
102
RTVSPost2010PropOp45
 70
     1
102
RTVSPost2010Prop46
 90
       50
102
RTVSPost2010PropOp46
 70
     1
102
RTVSPost2010Prop47
 90
       50
102
RTVSPost2010PropOp47
 70
     1
102
RTVSPost2010Prop48
 90
       50
102
RTVSPost2010PropOp48
 70
     1
102
RTVSPost2010Prop49
280
     0
102
RTVSPost2010PropOp49
 70
     1
102
RTVSPost2010Prop50
 90
       50
102
RTVSPost2010PropOp50
 70
     1
102
RTVSPost2010Prop51ColorIndex
 90
      256
102
RTVSPost2010Prop51ColorRGB
 90
-16777216
102
RTVSPost2010PropOp51
 70
     0
102
RTVSPost2010Prop52
140
1.0
102
RTVSPost2010PropOp52
 70
     0
102
RTVSPost2010Prop53
 90
        2
102
RTVSPost2010PropOp53
 70
     1
102
RTVSPost2010Prop54
  1
strokes_ogs.tif
102
RTVSPost2010PropOp54
 70
     1
102
RTVSPost2010Prop55
280
     0
102
RTVSPost2010PropOp55
 70
     1
102
RTVSPost2010Prop56
140
1.0
102
RTVSPost2010PropOp56
 70
     1
102
RTVSPost2010Prop57
140
1.0
102
RTVSPost2010PropOp57
 70
     1
102
RTVSPropertyOp0
 70
     1
102
RTVSPropertyOp1
 70
     1
102
RTVSPropertyOp2
 70
     1
102
RTVSPropertyOp3
 70
     1
102
RTVSPropertyOp4
 70
     1
102
RTVSPropertyOp5
 70
     1
102
RTVSPropertyOp6
 70
     1
102
RTVSPropertyOp7
 70
     1
102
RTVSPropertyOp8
 70
     1
102
RTVSPropertyOp9
 70
     1
102
RTVSPropertyOp10
 70
     1
102
RTVSPropertyOp11
 70
     1
102
RTVSPropertyOp12
 70
     1
102
RTVSPropertyOp13
 70
     1
102
RTVSPropertyOp14
 70
     1
102
RTVSPropertyOp15
 70
     1
102
RTVSPropertyOp16
 70
     1
102
RTVSPropertyOp17
 70
     1
102
RTVSPropertyOp18
 70
     1
102
RTVSPropertyOp19
 70
     1
102
RTVSPropertyOp20
 70
     1
102
RTVSPropertyOp21
 70
     1
102
RTVSPropertyOp22
 70
     1
102
RTVSPropertyOp23
 70
     1
102
RTVSPropertyOp24
 70
     1
102
RTVSPropertyOp25
 70
     1
102
RTVSPropertyOp26
 70
     1
102
RTVSPropertyOp27
 70
     1
102
RTVSPropertyOp28
 70
     1
102
RTVSPropertyOp29
 70
     1
102
RTVSPropertyOp30
 70
     1
102
RTVSPropertyOp31
 70
     1
102
RTVSPropertyOp32
 70
     1
102
RTVSPropertyOp33
 70
     1
102
RTVSPropertyOp34
 70
     1
102
RTVSPropertyOp35
 70
     1
102
RTVSPropertyOp36
 70
     1
102
RTVSPropertyOp37
 70
     1
102
RTVSPropertyOp38
 70
     1
102
RTVSPropertyOp39
 70
     1
102
RTVSPropertyOp40
 70
     1
102
RTVSPropertyOp41
 70
     1
102
RTVSPropertyOp42
 70
     1
102
RTVSPropertyOp43
 70
     1
102
RTVSPropertyOp44
 70
     1
102
RTVSPropertyOp45
 70
     1
102
RTVSPropertyOp46
 70
     1
102
RTVSPropertyOp47
 70
     1
102
RTVSPropertyOp48
 70
     1
102
RTVSPropertyOp49
 70
     1
102
RTVSPropertyOp50
 70
     1
102
RTVSPropertyOp51
 70
     0
102
RTVSPropertyOp52
 70
     0
102
RTVSPropertyOp53
 70
     1
102
RTVSPropertyOp54
 70
     1
102
RTVSPropertyOp55
 70
     1
102
RTVSPropertyOp56
 70
     1
102
RTVSPropertyOp57
 70
     1
102
RTVSPropertyOp58
 70
     1
102
RTVSPropertyOp59
 70
     1
102
RTVSPropertyOp60
 70
     1
102
RTVSPropertyOp61
 70
     1
102
RTVSPropertyOp62
 70
     1
  0
XRECORD
  5
99E4
102
{ACAD_REACTORS
330
99E3
102
}
330
99E3
100
AcDbXrecord
280
     1
102
RTVSPost2010Prop28
280
     0
102
RTVSPost2010PropOp28
 70
     1
102
RTVSPost2010Prop29
280
     1
102
RTVSPost2010PropOp29
 70
     1
102
RTVSPost2010Prop30
280
     1
102
RTVSPost2010PropOp30
 70
     1
102
RTVSPost2010Prop31
280
     0
102
RTVSPost2010PropOp31
 70
     1
102
RTVSPost2010Prop32
280
     0
102
RTVSPost2010PropOp32
 70
     1
102
RTVSPost2010Prop33
280
     0
102
RTVSPost2010PropOp33
 70
     1
102
RTVSPost2010Prop34
280
     0
102
RTVSPost2010PropOp34
 70
     1
102
RTVSPost2010Prop35
280
     0
102
RTVSPost2010PropOp35
 70
     1
102
RTVSPost2010Prop36
280
     0
102
RTVSPost2010PropOp36
 70
     1
102
RTVSPost2010Prop37
 90
       50
102
RTVSPost2010PropOp37
 70
     1
102
RTVSPost2010Prop38
140
0.0
102
RTVSPost2010PropOp38
 70
     1
102
RTVSPost2010Prop39
140
1.0
102
RTVSPost2010PropOp39
 70
     1
102
RTVSPost2010Prop40
 90
        0
102
RTVSPost2010PropOp40
 70
     1
102
RTVSPost2010Prop41ColorIndex
 90
       18
102
RTVSPost2010Prop41ColorRGB
 90
        0
102
RTVSPost2010PropOp41
 70
     1
102
RTVSPost2010Prop42
 90
       50
102
RTVSPost2010PropOp42
 70
     1
102
RTVSPost2010Prop43
 90
        3
102
RTVSPost2010PropOp43
 70
     1
102
RTVSPost2010Prop44ColorIndex
 90
        5
102
RTVSPost2010Prop44ColorRGB
 90
      255
102
RTVSPost2010PropOp44
 70
     1
102
RTVSPost2010Prop45
280
     0
102
RTVSPost2010PropOp45
 70
     1
102
RTVSPost2010Prop46
 90
       50
102
RTVSPost2010PropOp46
 70
     1
102
RTVSPost2010Prop47
 90
       50
102
RTVSPost2010PropOp47
 70
     1
102
RTVSPost2010Prop48
 90
       50
102
RTVSPost2010PropOp48
 70
     1
102
RTVSPost2010Prop49
280
     0
102
RTVSPost2010PropOp49
 70
     1
102
RTVSPost2010Prop50
 90
       50
102
RTVSPost2010PropOp50
 70
     1
102
RTVSPost2010Prop51ColorIndex
 90
      256
102
RTVSPost2010Prop51ColorRGB
 90
-16777216
102
RTVSPost2010PropOp51
 70
     0
102
RTVSPost2010Prop52
140
1.0
102
RTVSPost2010PropOp52
 70
     0
102
RTVSPost2010Prop53
 90
        2
102
RTVSPost2010PropOp53
 70
     1
102
RTVSPost2010Prop54
  1
strokes_ogs.tif
102
RTVSPost2010PropOp54
 70
     1
102
RTVSPost2010Prop55
280
     0
102
RTVSPost2010PropOp55
 70
     1
102
RTVSPost2010Prop56
140
1.0
102
RTVSPost2010PropOp56
 70
     1
102
RTVSPost2010Prop57
140
1.0
102
RTVSPost2010PropOp57
 70
     1
102
RTVSPropertyOp0
 70
     1
102
RTVSPropertyOp1
 70
     1
102
RTVSPropertyOp2
 70
     1
102
RTVSPropertyOp3
 70
     1
102
RTVSPropertyOp4
 70
     1
102
RTVSPropertyOp5
 70
     1
102
RTVSPropertyOp6
 70
     1
102
RTVSPropertyOp7
 70
     1
102
RTVSPropertyOp8
 70
     1
102
RTVSPropertyOp9
 70
     1
102
RTVSPropertyOp10
 70
     1
102
RTVSPropertyOp11
 70
     1
102
RTVSPropertyOp12
 70
     1
102
RTVSPropertyOp13
 70
     1
102
RTVSPropertyOp14
 70
     1
102
RTVSPropertyOp15
 70
     1
102
RTVSPropertyOp16
 70
     1
102
RTVSPropertyOp17
 70
     1
102
RTVSPropertyOp18
 70
     1
102
RTVSPropertyOp19
 70
     1
102
RTVSPropertyOp20
 70
     1
102
RTVSPropertyOp21
 70
     1
102
RTVSPropertyOp22
 70
     1
102
RTVSPropertyOp23
 70
     1
102
RTVSPropertyOp24
 70
     1
102
RTVSPropertyOp25
 70
     1
102
RTVSPropertyOp26
 70
     1
102
RTVSPropertyOp27
 70
     1
102
RTVSPropertyOp28
 70
     1
102
RTVSPropertyOp29
 70
     1
102
RTVSPropertyOp30
 70
     1
102
RTVSPropertyOp31
 70
     1
102
RTVSPropertyOp32
 70
     1
102
RTVSPropertyOp33
 70
     1
102
RTVSPropertyOp34
 70
     1
102
RTVSPropertyOp35
 70
     1
102
RTVSPropertyOp36
 70
     1
102
RTVSPropertyOp37
 70
     1
102
RTVSPropertyOp38
 70
     1
102
RTVSPropertyOp39
 70
     1
102
RTVSPropertyOp40
 70
     1
102
RTVSPropertyOp41
 70
     1
102
RTVSPropertyOp42
 70
     1
102
RTVSPropertyOp43
 70
     1
102
RTVSPropertyOp44
 70
     1
102
RTVSPropertyOp45
 70
     1
102
RTVSPropertyOp46
 70
     1
102
RTVSPropertyOp47
 70
     1
102
RTVSPropertyOp48
 70
     1
102
RTVSPropertyOp49
 70
     1
102
RTVSPropertyOp50
 70
     1
102
RTVSPropertyOp51
 70
     0
102
RTVSPropertyOp52
 70
     0
102
RTVSPropertyOp53
 70
     1
102
RTVSPropertyOp54
 70
     1
102
RTVSPropertyOp55
 70
     1
102
RTVSPropertyOp56
 70
     1
102
RTVSPropertyOp57
 70
     1
102
RTVSPropertyOp58
 70
     1
102
RTVSPropertyOp59
 70
     1
102
RTVSPropertyOp60
 70
     1
102
RTVSPropertyOp61
 70
     1
102
RTVSPropertyOp62
 70
     1
  0
XRECORD
  5
99E6
102
{ACAD_REACTORS
330
99E5
102
}
330
99E5
100
AcDbXrecord
280
     1
102
RTVSPost2010Prop28
280
     0
102
RTVSPost2010PropOp28
 70
     1
102
RTVSPost2010Prop29
280
     1
102
RTVSPost2010PropOp29
 70
     1
102
RTVSPost2010Prop30
280
     1
102
RTVSPost2010PropOp30
 70
     1
102
RTVSPost2010Prop31
280
     0
102
RTVSPost2010PropOp31
 70
     1
102
RTVSPost2010Prop32
280
     0
102
RTVSPost2010PropOp32
 70
     1
102
RTVSPost2010Prop33
280
     0
102
RTVSPost2010PropOp33
 70
     1
102
RTVSPost2010Prop34
280
     0
102
RTVSPost2010PropOp34
 70
     1
102
RTVSPost2010Prop35
280
     0
102
RTVSPost2010PropOp35
 70
     1
102
RTVSPost2010Prop36
280
     0
102
RTVSPost2010PropOp36
 70
     1
102
RTVSPost2010Prop37
 90
       50
102
RTVSPost2010PropOp37
 70
     1
102
RTVSPost2010Prop38
140
0.0
102
RTVSPost2010PropOp38
 70
     1
102
RTVSPost2010Prop39
140
1.0
102
RTVSPost2010PropOp39
 70
     1
102
RTVSPost2010Prop40
 90
        0
102
RTVSPost2010PropOp40
 70
     1
102
RTVSPost2010Prop41ColorIndex
 90
       18
102
RTVSPost2010Prop41ColorRGB
 90
        0
102
RTVSPost2010PropOp41
 70
     1
102
RTVSPost2010Prop42
 90
       50
102
RTVSPost2010PropOp42
 70
     1
102
RTVSPost2010Prop43
 90
        3
102
RTVSPost2010PropOp43
 70
     1
102
RTVSPost2010Prop44ColorIndex
 90
        5
102
RTVSPost2010Prop44ColorRGB
 90
      255
102
RTVSPost2010PropOp44
 70
     1
102
RTVSPost2010Prop45
280
     0
102
RTVSPost2010PropOp45
 70
     1
102
RTVSPost2010Prop46
 90
       50
102
RTVSPost2010PropOp46
 70
     1
102
RTVSPost2010Prop47
 90
       50
102
RTVSPost2010PropOp47
 70
     1
102
RTVSPost2010Prop48
 90
       50
102
RTVSPost2010PropOp48
 70
     1
102
RTVSPost2010Prop49
280
     0
102
RTVSPost2010PropOp49
 70
     1
102
RTVSPost2010Prop50
 90
       50
102
RTVSPost2010PropOp50
 70
     1
102
RTVSPost2010Prop51ColorIndex
 90
      256
102
RTVSPost2010Prop51ColorRGB
 90
-16777216
102
RTVSPost2010PropOp51
 70
     0
102
RTVSPost2010Prop52
140
1.0
102
RTVSPost2010PropOp52
 70
     0
102
RTVSPost2010Prop53
 90
        2
102
RTVSPost2010PropOp53
 70
     1
102
RTVSPost2010Prop54
  1
strokes_ogs.tif
102
RTVSPost2010PropOp54
 70
     1
102
RTVSPost2010Prop55
280
     0
102
RTVSPost2010PropOp55
 70
     1
102
RTVSPost2010Prop56
140
1.0
102
RTVSPost2010PropOp56
 70
     1
102
RTVSPost2010Prop57
140
1.0
102
RTVSPost2010PropOp57
 70
     1
102
RTVSPropertyOp0
 70
     1
102
RTVSPropertyOp1
 70
     1
102
RTVSPropertyOp2
 70
     1
102
RTVSPropertyOp3
 70
     1
102
RTVSPropertyOp4
 70
     1
102
RTVSPropertyOp5
 70
     1
102
RTVSPropertyOp6
 70
     1
102
RTVSPropertyOp7
 70
     1
102
RTVSPropertyOp8
 70
     1
102
RTVSPropertyOp9
 70
     1
102
RTVSPropertyOp10
 70
     1
102
RTVSPropertyOp11
 70
     1
102
RTVSPropertyOp12
 70
     1
102
RTVSPropertyOp13
 70
     1
102
RTVSPropertyOp14
 70
     1
102
RTVSPropertyOp15
 70
     1
102
RTVSPropertyOp16
 70
     1
102
RTVSPropertyOp17
 70
     1
102
RTVSPropertyOp18
 70
     1
102
RTVSPropertyOp19
 70
     1
102
RTVSPropertyOp20
 70
     1
102
RTVSPropertyOp21
 70
     1
102
RTVSPropertyOp22
 70
     1
102
RTVSPropertyOp23
 70
     1
102
RTVSPropertyOp24
 70
     1
102
RTVSPropertyOp25
 70
     1
102
RTVSPropertyOp26
 70
     1
102
RTVSPropertyOp27
 70
     1
102
RTVSPropertyOp28
 70
     1
102
RTVSPropertyOp29
 70
     1
102
RTVSPropertyOp30
 70
     1
102
RTVSPropertyOp31
 70
     1
102
RTVSPropertyOp32
 70
     1
102
RTVSPropertyOp33
 70
     1
102
RTVSPropertyOp34
 70
     1
102
RTVSPropertyOp35
 70
     1
102
RTVSPropertyOp36
 70
     1
102
RTVSPropertyOp37
 70
     1
102
RTVSPropertyOp38
 70
     1
102
RTVSPropertyOp39
 70
     1
102
RTVSPropertyOp40
 70
     1
102
RTVSPropertyOp41
 70
     1
102
RTVSPropertyOp42
 70
     1
102
RTVSPropertyOp43
 70
     1
102
RTVSPropertyOp44
 70
     1
102
RTVSPropertyOp45
 70
     1
102
RTVSPropertyOp46
 70
     1
102
RTVSPropertyOp47
 70
     1
102
RTVSPropertyOp48
 70
     1
102
RTVSPropertyOp49
 70
     1
102
RTVSPropertyOp50
 70
     1
102
RTVSPropertyOp51
 70
     0
102
RTVSPropertyOp52
 70
     0
102
RTVSPropertyOp53
 70
     1
102
RTVSPropertyOp54
 70
     1
102
RTVSPropertyOp55
 70
     1
102
RTVSPropertyOp56
 70
     1
102
RTVSPropertyOp57
 70
     1
102
RTVSPropertyOp58
 70
     1
102
RTVSPropertyOp59
 70
     1
102
RTVSPropertyOp60
 70
     1
102
RTVSPropertyOp61
 70
     1
102
RTVSPropertyOp62
 70
     1
  0
XRECORD
  5
99EE
102
{ACAD_REACTORS
330
99ED
102
}
330
99ED
100
AcDbXrecord
280
     1
102
RTVSPost2010Prop28
280
     0
102
RTVSPost2010PropOp28
 70
     1
102
RTVSPost2010Prop29
280
     1
102
RTVSPost2010PropOp29
 70
     1
102
RTVSPost2010Prop30
280
     1
102
RTVSPost2010PropOp30
 70
     1
102
RTVSPost2010Prop31
280
     0
102
RTVSPost2010PropOp31
 70
     1
102
RTVSPost2010Prop32
280
     0
102
RTVSPost2010PropOp32
 70
     1
102
RTVSPost2010Prop33
280
     0
102
RTVSPost2010PropOp33
 70
     1
102
RTVSPost2010Prop34
280
     0
102
RTVSPost2010PropOp34
 70
     1
102
RTVSPost2010Prop35
280
     0
102
RTVSPost2010PropOp35
 70
     1
102
RTVSPost2010Prop36
280
     0
102
RTVSPost2010PropOp36
 70
     1
102
RTVSPost2010Prop37
 90
       50
102
RTVSPost2010PropOp37
 70
     1
102
RTVSPost2010Prop38
140
0.0
102
RTVSPost2010PropOp38
 70
     1
102
RTVSPost2010Prop39
140
1.0
102
RTVSPost2010PropOp39
 70
     1
102
RTVSPost2010Prop40
 90
        0
102
RTVSPost2010PropOp40
 70
     1
102
RTVSPost2010Prop41ColorIndex
 90
       18
102
RTVSPost2010Prop41ColorRGB
 90
        0
102
RTVSPost2010PropOp41
 70
     1
102
RTVSPost2010Prop42
 90
       50
102
RTVSPost2010PropOp42
 70
     1
102
RTVSPost2010Prop43
 90
        3
102
RTVSPost2010PropOp43
 70
     1
102
RTVSPost2010Prop44ColorIndex
 90
        5
102
RTVSPost2010Prop44ColorRGB
 90
      255
102
RTVSPost2010PropOp44
 70
     1
102
RTVSPost2010Prop45
280
     0
102
RTVSPost2010PropOp45
 70
     1
102
RTVSPost2010Prop46
 90
       50
102
RTVSPost2010PropOp46
 70
     1
102
RTVSPost2010Prop47
 90
       50
102
RTVSPost2010PropOp47
 70
     1
102
RTVSPost2010Prop48
 90
       50
102
RTVSPost2010PropOp48
 70
     1
102
RTVSPost2010Prop49
280
     0
102
RTVSPost2010PropOp49
 70
     1
102
RTVSPost2010Prop50
 90
       50
102
RTVSPost2010PropOp50
 70
     1
102
RTVSPost2010Prop51ColorIndex
 90
      256
102
RTVSPost2010Prop51ColorRGB
 90
-16777216
102
RTVSPost2010PropOp51
 70
     0
102
RTVSPost2010Prop52
140
1.0
102
RTVSPost2010PropOp52
 70
     0
102
RTVSPost2010Prop53
 90
        2
102
RTVSPost2010PropOp53
 70
     1
102
RTVSPost2010Prop54
  1
strokes_ogs.tif
102
RTVSPost2010PropOp54
 70
     1
102
RTVSPost2010Prop55
280
     0
102
RTVSPost2010PropOp55
 70
     1
102
RTVSPost2010Prop56
140
1.0
102
RTVSPost2010PropOp56
 70
     1
102
RTVSPost2010Prop57
140
1.0
102
RTVSPost2010PropOp57
 70
     1
102
RTVSPropertyOp0
 70
     1
102
RTVSPropertyOp1
 70
     1
102
RTVSPropertyOp2
 70
     1
102
RTVSPropertyOp3
 70
     1
102
RTVSPropertyOp4
 70
     1
102
RTVSPropertyOp5
 70
     1
102
RTVSPropertyOp6
 70
     1
102
RTVSPropertyOp7
 70
     1
102
RTVSPropertyOp8
 70
     1
102
RTVSPropertyOp9
 70
     1
102
RTVSPropertyOp10
 70
     1
102
RTVSPropertyOp11
 70
     1
102
RTVSPropertyOp12
 70
     1
102
RTVSPropertyOp13
 70
     1
102
RTVSPropertyOp14
 70
     1
102
RTVSPropertyOp15
 70
     1
102
RTVSPropertyOp16
 70
     1
102
RTVSPropertyOp17
 70
     1
102
RTVSPropertyOp18
 70
     1
102
RTVSPropertyOp19
 70
     1
102
RTVSPropertyOp20
 70
     1
102
RTVSPropertyOp21
 70
     1
102
RTVSPropertyOp22
 70
     1
102
RTVSPropertyOp23
 70
     1
102
RTVSPropertyOp24
 70
     1
102
RTVSPropertyOp25
 70
     1
102
RTVSPropertyOp26
 70
     1
102
RTVSPropertyOp27
 70
     1
102
RTVSPropertyOp28
 70
     1
102
RTVSPropertyOp29
 70
     1
102
RTVSPropertyOp30
 70
     1
102
RTVSPropertyOp31
 70
     1
102
RTVSPropertyOp32
 70
     1
102
RTVSPropertyOp33
 70
     1
102
RTVSPropertyOp34
 70
     1
102
RTVSPropertyOp35
 70
     1
102
RTVSPropertyOp36
 70
     1
102
RTVSPropertyOp37
 70
     1
102
RTVSPropertyOp38
 70
     1
102
RTVSPropertyOp39
 70
     1
102
RTVSPropertyOp40
 70
     1
102
RTVSPropertyOp41
 70
     1
102
RTVSPropertyOp42
 70
     1
102
RTVSPropertyOp43
 70
     1
102
RTVSPropertyOp44
 70
     1
102
RTVSPropertyOp45
 70
     1
102
RTVSPropertyOp46
 70
     1
102
RTVSPropertyOp47
 70
     1
102
RTVSPropertyOp48
 70
     1
102
RTVSPropertyOp49
 70
     1
102
RTVSPropertyOp50
 70
     1
102
RTVSPropertyOp51
 70
     0
102
RTVSPropertyOp52
 70
     0
102
RTVSPropertyOp53
 70
     1
102
RTVSPropertyOp54
 70
     1
102
RTVSPropertyOp55
 70
     1
102
RTVSPropertyOp56
 70
     1
102
RTVSPropertyOp57
 70
     1
102
RTVSPropertyOp58
 70
     1
102
RTVSPropertyOp59
 70
     1
102
RTVSPropertyOp60
 70
     1
102
RTVSPropertyOp61
 70
     1
102
RTVSPropertyOp62
 70
     1
  0
XRECORD
  5
9A0A
102
{ACAD_REACTORS
330
9A09
102
}
330
9A09
100
AcDbXrecord
280
     1
102
RTVSPost2010Prop28
280
     0
102
RTVSPost2010PropOp28
 70
     1
102
RTVSPost2010Prop29
280
     1
102
RTVSPost2010PropOp29
 70
     1
102
RTVSPost2010Prop30
280
     1
102
RTVSPost2010PropOp30
 70
     1
102
RTVSPost2010Prop31
280
     0
102
RTVSPost2010PropOp31
 70
     1
102
RTVSPost2010Prop32
280
     0
102
RTVSPost2010PropOp32
 70
     1
102
RTVSPost2010Prop33
280
     0
102
RTVSPost2010PropOp33
 70
     1
102
RTVSPost2010Prop34
280
     0
102
RTVSPost2010PropOp34
 70
     1
102
RTVSPost2010Prop35
280
     0
102
RTVSPost2010PropOp35
 70
     1
102
RTVSPost2010Prop36
280
     0
102
RTVSPost2010PropOp36
 70
     1
102
RTVSPost2010Prop37
 90
       50
102
RTVSPost2010PropOp37
 70
     0
102
RTVSPost2010Prop38
140
0.0
102
RTVSPost2010PropOp38
 70
     0
102
RTVSPost2010Prop39
140
1.0
102
RTVSPost2010PropOp39
 70
     0
102
RTVSPost2010Prop40
 90
        0
102
RTVSPost2010PropOp40
 70
     0
102
RTVSPost2010Prop41ColorIndex
 90
       18
102
RTVSPost2010Prop41ColorRGB
 90
        0
102
RTVSPost2010PropOp41
 70
     0
102
RTVSPost2010Prop42
 90
       50
102
RTVSPost2010PropOp42
 70
     0
102
RTVSPost2010Prop43
 90
        3
102
RTVSPost2010PropOp43
 70
     0
102
RTVSPost2010Prop44ColorIndex
 90
        5
102
RTVSPost2010Prop44ColorRGB
 90
      255
102
RTVSPost2010PropOp44
 70
     0
102
RTVSPost2010Prop45
280
     0
102
RTVSPost2010PropOp45
 70
     1
102
RTVSPost2010Prop46
 90
       50
102
RTVSPost2010PropOp46
 70
     0
102
RTVSPost2010Prop47
 90
       50
102
RTVSPost2010PropOp47
 70
     0
102
RTVSPost2010Prop48
 90
       50
102
RTVSPost2010PropOp48
 70
     0
102
RTVSPost2010Prop49
280
     0
102
RTVSPost2010PropOp49
 70
     1
102
RTVSPost2010Prop50
 90
       50
102
RTVSPost2010PropOp50
 70
     0
102
RTVSPost2010Prop51ColorIndex
 90
      256
102
RTVSPost2010Prop51ColorRGB
 90
-16777216
102
RTVSPost2010PropOp51
 70
     0
102
RTVSPost2010Prop52
140
1.0
102
RTVSPost2010PropOp52
 70
     0
102
RTVSPost2010Prop53
 90
        2
102
RTVSPost2010PropOp53
 70
     0
102
RTVSPost2010Prop54
  1
strokes_ogs.tif
102
RTVSPost2010PropOp54
 70
     0
102
RTVSPost2010Prop55
280
     0
102
RTVSPost2010PropOp55
 70
     1
102
RTVSPost2010Prop56
140
1.0
102
RTVSPost2010PropOp56
 70
     0
102
RTVSPost2010Prop57
140
1.0
102
RTVSPost2010PropOp57
 70
     0
102
RTVSPropertyOp0
 70
     0
102
RTVSPropertyOp1
 70
     0
102
RTVSPropertyOp2
 70
     0
102
RTVSPropertyOp3
 70
     0
102
RTVSPropertyOp4
 70
     0
102
RTVSPropertyOp5
 70
     0
102
RTVSPropertyOp6
 70
     0
102
RTVSPropertyOp7
 70
     0
102
RTVSPropertyOp8
 70
     0
102
RTVSPropertyOp9
 70
     0
102
RTVSPropertyOp10
 70
     0
102
RTVSPropertyOp11
 70
     0
102
RTVSPropertyOp12
 70
     0
102
RTVSPropertyOp13
 70
     0
102
RTVSPropertyOp14
 70
     2
102
RTVSPropertyOp15
 70
     0
102
RTVSPropertyOp16
 70
     0
102
RTVSPropertyOp17
 70
     0
102
RTVSPropertyOp18
 70
     0
102
RTVSPropertyOp19
 70
     0
102
RTVSPropertyOp20
 70
     0
102
RTVSPropertyOp21
 70
     0
102
RTVSPropertyOp22
 70
     0
102
RTVSPropertyOp23
 70
     0
102
RTVSPropertyOp24
 70
     0
102
RTVSPropertyOp25
 70
     0
102
RTVSPropertyOp26
 70
     0
102
RTVSPropertyOp27
 70
     0
102
RTVSPropertyOp28
 70
     1
102
RTVSPropertyOp29
 70
     1
102
RTVSPropertyOp30
 70
     1
102
RTVSPropertyOp31
 70
     1
102
RTVSPropertyOp32
 70
     1
102
RTVSPropertyOp33
 70
     1
102
RTVSPropertyOp34
 70
     1
102
RTVSPropertyOp35
 70
     1
102
RTVSPropertyOp36
 70
     1
102
RTVSPropertyOp37
 70
     0
102
RTVSPropertyOp38
 70
     0
102
RTVSPropertyOp39
 70
     0
102
RTVSPropertyOp40
 70
     0
102
RTVSPropertyOp41
 70
     0
102
RTVSPropertyOp42
 70
     0
102
RTVSPropertyOp43
 70
     0
102
RTVSPropertyOp44
 70
     0
102
RTVSPropertyOp45
 70
     1
102
RTVSPropertyOp46
 70
     0
102
RTVSPropertyOp47
 70
     0
102
RTVSPropertyOp48
 70
     0
102
RTVSPropertyOp49
 70
     1
102
RTVSPropertyOp50
 70
     0
102
RTVSPropertyOp51
 70
     0
102
RTVSPropertyOp52
 70
     0
102
RTVSPropertyOp53
 70
     0
102
RTVSPropertyOp54
 70
     0
102
RTVSPropertyOp55
 70
     1
102
RTVSPropertyOp56
 70
     0
102
RTVSPropertyOp57
 70
     0
102
RTVSPropertyOp58
 70
     0
102
RTVSPropertyOp59
 70
     0
102
RTVSPropertyOp60
 70
     0
102
RTVSPropertyOp61
 70
     0
102
RTVSPropertyOp62
 70
     0
  0
XRECORD
  5
99FA
102
{ACAD_REACTORS
330
99F9
102
}
330
99F9
100
AcDbXrecord
280
     1
102
RTVSPost2010Prop28
280
     0
102
RTVSPost2010PropOp28
 70
     1
102
RTVSPost2010Prop29
280
     1
102
RTVSPost2010PropOp29
 70
     1
102
RTVSPost2010Prop30
280
     1
102
RTVSPost2010PropOp30
 70
     1
102
RTVSPost2010Prop31
280
     0
102
RTVSPost2010PropOp31
 70
     1
102
RTVSPost2010Prop32
280
     0
102
RTVSPost2010PropOp32
 70
     1
102
RTVSPost2010Prop33
280
     0
102
RTVSPost2010PropOp33
 70
     1
102
RTVSPost2010Prop34
280
     0
102
RTVSPost2010PropOp34
 70
     1
102
RTVSPost2010Prop35
280
     0
102
RTVSPost2010PropOp35
 70
     1
102
RTVSPost2010Prop36
280
     0
102
RTVSPost2010PropOp36
 70
     1
102
RTVSPost2010Prop37
 90
       50
102
RTVSPost2010PropOp37
 70
     1
102
RTVSPost2010Prop38
140
0.0
102
RTVSPost2010PropOp38
 70
     1
102
RTVSPost2010Prop39
140
1.0
102
RTVSPost2010PropOp39
 70
     1
102
RTVSPost2010Prop40
 90
        0
102
RTVSPost2010PropOp40
 70
     1
102
RTVSPost2010Prop41ColorIndex
 90
       18
102
RTVSPost2010Prop41ColorRGB
 90
        0
102
RTVSPost2010PropOp41
 70
     1
102
RTVSPost2010Prop42
 90
       50
102
RTVSPost2010PropOp42
 70
     1
102
RTVSPost2010Prop43
 90
        3
102
RTVSPost2010PropOp43
 70
     1
102
RTVSPost2010Prop44ColorIndex
 90
        5
102
RTVSPost2010Prop44ColorRGB
 90
      255
102
RTVSPost2010PropOp44
 70
     1
102
RTVSPost2010Prop45
280
     0
102
RTVSPost2010PropOp45
 70
     1
102
RTVSPost2010Prop46
 90
       50
102
RTVSPost2010PropOp46
 70
     1
102
RTVSPost2010Prop47
 90
       50
102
RTVSPost2010PropOp47
 70
     1
102
RTVSPost2010Prop48
 90
       50
102
RTVSPost2010PropOp48
 70
     1
102
RTVSPost2010Prop49
280
     0
102
RTVSPost2010PropOp49
 70
     1
102
RTVSPost2010Prop50
 90
       50
102
RTVSPost2010PropOp50
 70
     1
102
RTVSPost2010Prop51ColorIndex
 90
      256
102
RTVSPost2010Prop51ColorRGB
 90
-16777216
102
RTVSPost2010PropOp51
 70
     0
102
RTVSPost2010Prop52
140
1.0
102
RTVSPost2010PropOp52
 70
     0
102
RTVSPost2010Prop53
 90
        2
102
RTVSPost2010PropOp53
 70
     1
102
RTVSPost2010Prop54
  1
strokes_ogs.tif
102
RTVSPost2010PropOp54
 70
     1
102
RTVSPost2010Prop55
280
     0
102
RTVSPost2010PropOp55
 70
     1
102
RTVSPost2010Prop56
140
1.0
102
RTVSPost2010PropOp56
 70
     1
102
RTVSPost2010Prop57
140
1.0
102
RTVSPost2010PropOp57
 70
     1
102
RTVSPropertyOp0
 70
     1
102
RTVSPropertyOp1
 70
     1
102
RTVSPropertyOp2
 70
     1
102
RTVSPropertyOp3
 70
     1
102
RTVSPropertyOp4
 70
     1
102
RTVSPropertyOp5
 70
     1
102
RTVSPropertyOp6
 70
     1
102
RTVSPropertyOp7
 70
     1
102
RTVSPropertyOp8
 70
     1
102
RTVSPropertyOp9
 70
     1
102
RTVSPropertyOp10
 70
     1
102
RTVSPropertyOp11
 70
     1
102
RTVSPropertyOp12
 70
     1
102
RTVSPropertyOp13
 70
     1
102
RTVSPropertyOp14
 70
     1
102
RTVSPropertyOp15
 70
     1
102
RTVSPropertyOp16
 70
     1
102
RTVSPropertyOp17
 70
     1
102
RTVSPropertyOp18
 70
     1
102
RTVSPropertyOp19
 70
     1
102
RTVSPropertyOp20
 70
     1
102
RTVSPropertyOp21
 70
     1
102
RTVSPropertyOp22
 70
     1
102
RTVSPropertyOp23
 70
     1
102
RTVSPropertyOp24
 70
     1
102
RTVSPropertyOp25
 70
     1
102
RTVSPropertyOp26
 70
     1
102
RTVSPropertyOp27
 70
     1
102
RTVSPropertyOp28
 70
     1
102
RTVSPropertyOp29
 70
     1
102
RTVSPropertyOp30
 70
     1
102
RTVSPropertyOp31
 70
     1
102
RTVSPropertyOp32
 70
     1
102
RTVSPropertyOp33
 70
     1
102
RTVSPropertyOp34
 70
     1
102
RTVSPropertyOp35
 70
     1
102
RTVSPropertyOp36
 70
     1
102
RTVSPropertyOp37
 70
     1
102
RTVSPropertyOp38
 70
     1
102
RTVSPropertyOp39
 70
     1
102
RTVSPropertyOp40
 70
     1
102
RTVSPropertyOp41
 70
     1
102
RTVSPropertyOp42
 70
     1
102
RTVSPropertyOp43
 70
     1
102
RTVSPropertyOp44
 70
     1
102
RTVSPropertyOp45
 70
     1
102
RTVSPropertyOp46
 70
     1
102
RTVSPropertyOp47
 70
     1
102
RTVSPropertyOp48
 70
     1
102
RTVSPropertyOp49
 70
     1
102
RTVSPropertyOp50
 70
     1
102
RTVSPropertyOp51
 70
     0
102
RTVSPropertyOp52
 70
     0
102
RTVSPropertyOp53
 70
     1
102
RTVSPropertyOp54
 70
     1
102
RTVSPropertyOp55
 70
     1
102
RTVSPropertyOp56
 70
     1
102
RTVSPropertyOp57
 70
     1
102
RTVSPropertyOp58
 70
     1
102
RTVSPropertyOp59
 70
     1
102
RTVSPropertyOp60
 70
     1
102
RTVSPropertyOp61
 70
     1
102
RTVSPropertyOp62
 70
     1
  0
XRECORD
  5
9A0C
102
{ACAD_REACTORS
330
9A0B
102
}
330
9A0B
100
AcDbXrecord
280
     1
102
RTVSPost2010Prop28
280
     0
102
RTVSPost2010PropOp28
 70
     1
102
RTVSPost2010Prop29
280
     1
102
RTVSPost2010PropOp29
 70
     1
102
RTVSPost2010Prop30
280
     1
102
RTVSPost2010PropOp30
 70
     1
102
RTVSPost2010Prop31
280
     0
102
RTVSPost2010PropOp31
 70
     1
102
RTVSPost2010Prop32
280
     0
102
RTVSPost2010PropOp32
 70
     1
102
RTVSPost2010Prop33
280
     0
102
RTVSPost2010PropOp33
 70
     1
102
RTVSPost2010Prop34
280
     0
102
RTVSPost2010PropOp34
 70
     1
102
RTVSPost2010Prop35
280
     0
102
RTVSPost2010PropOp35
 70
     1
102
RTVSPost2010Prop36
280
     0
102
RTVSPost2010PropOp36
 70
     1
102
RTVSPost2010Prop37
 90
       50
102
RTVSPost2010PropOp37
 70
     0
102
RTVSPost2010Prop38
140
0.0
102
RTVSPost2010PropOp38
 70
     0
102
RTVSPost2010Prop39
140
1.0
102
RTVSPost2010PropOp39
 70
     0
102
RTVSPost2010Prop40
 90
        0
102
RTVSPost2010PropOp40
 70
     0
102
RTVSPost2010Prop41ColorIndex
 90
       18
102
RTVSPost2010Prop41ColorRGB
 90
        0
102
RTVSPost2010PropOp41
 70
     0
102
RTVSPost2010Prop42
 90
       50
102
RTVSPost2010PropOp42
 70
     0
102
RTVSPost2010Prop43
 90
        3
102
RTVSPost2010PropOp43
 70
     0
102
RTVSPost2010Prop44ColorIndex
 90
        5
102
RTVSPost2010Prop44ColorRGB
 90
      255
102
RTVSPost2010PropOp44
 70
     0
102
RTVSPost2010Prop45
280
     0
102
RTVSPost2010PropOp45
 70
     1
102
RTVSPost2010Prop46
 90
       50
102
RTVSPost2010PropOp46
 70
     0
102
RTVSPost2010Prop47
 90
       50
102
RTVSPost2010PropOp47
 70
     0
102
RTVSPost2010Prop48
 90
       50
102
RTVSPost2010PropOp48
 70
     0
102
RTVSPost2010Prop49
280
     0
102
RTVSPost2010PropOp49
 70
     1
102
RTVSPost2010Prop50
 90
       50
102
RTVSPost2010PropOp50
 70
     0
102
RTVSPost2010Prop51ColorIndex
 90
      256
102
RTVSPost2010Prop51ColorRGB
 90
-16777216
102
RTVSPost2010PropOp51
 70
     0
102
RTVSPost2010Prop52
140
1.0
102
RTVSPost2010PropOp52
 70
     0
102
RTVSPost2010Prop53
 90
        2
102
RTVSPost2010PropOp53
 70
     0
102
RTVSPost2010Prop54
  1
strokes_ogs.tif
102
RTVSPost2010PropOp54
 70
     0
102
RTVSPost2010Prop55
280
     0
102
RTVSPost2010PropOp55
 70
     1
102
RTVSPost2010Prop56
140
1.0
102
RTVSPost2010PropOp56
 70
     0
102
RTVSPost2010Prop57
140
1.0
102
RTVSPost2010PropOp57
 70
     0
102
RTVSPropertyOp0
 70
     0
102
RTVSPropertyOp1
 70
     0
102
RTVSPropertyOp2
 70
     0
102
RTVSPropertyOp3
 70
     0
102
RTVSPropertyOp4
 70
     0
102
RTVSPropertyOp5
 70
     0
102
RTVSPropertyOp6
 70
     0
102
RTVSPropertyOp7
 70
     0
102
RTVSPropertyOp8
 70
     0
102
RTVSPropertyOp9
 70
     0
102
RTVSPropertyOp10
 70
     0
102
RTVSPropertyOp11
 70
     0
102
RTVSPropertyOp12
 70
     0
102
RTVSPropertyOp13
 70
     0
102
RTVSPropertyOp14
 70
     2
102
RTVSPropertyOp15
 70
     0
102
RTVSPropertyOp16
 70
     0
102
RTVSPropertyOp17
 70
     0
102
RTVSPropertyOp18
 70
     0
102
RTVSPropertyOp19
 70
     0
102
RTVSPropertyOp20
 70
     0
102
RTVSPropertyOp21
 70
     0
102
RTVSPropertyOp22
 70
     0
102
RTVSPropertyOp23
 70
     0
102
RTVSPropertyOp24
 70
     0
102
RTVSPropertyOp25
 70
     0
102
RTVSPropertyOp26
 70
     0
102
RTVSPropertyOp27
 70
     0
102
RTVSPropertyOp28
 70
     1
102
RTVSPropertyOp29
 70
     1
102
RTVSPropertyOp30
 70
     1
102
RTVSPropertyOp31
 70
     1
102
RTVSPropertyOp32
 70
     1
102
RTVSPropertyOp33
 70
     1
102
RTVSPropertyOp34
 70
     1
102
RTVSPropertyOp35
 70
     1
102
RTVSPropertyOp36
 70
     1
102
RTVSPropertyOp37
 70
     0
102
RTVSPropertyOp38
 70
     0
102
RTVSPropertyOp39
 70
     0
102
RTVSPropertyOp40
 70
     0
102
RTVSPropertyOp41
 70
     0
102
RTVSPropertyOp42
 70
     0
102
RTVSPropertyOp43
 70
     0
102
RTVSPropertyOp44
 70
     0
102
RTVSPropertyOp45
 70
     1
102
RTVSPropertyOp46
 70
     0
102
RTVSPropertyOp47
 70
     0
102
RTVSPropertyOp48
 70
     0
102
RTVSPropertyOp49
 70
     1
102
RTVSPropertyOp50
 70
     0
102
RTVSPropertyOp51
 70
     0
102
RTVSPropertyOp52
 70
     0
102
RTVSPropertyOp53
 70
     0
102
RTVSPropertyOp54
 70
     0
102
RTVSPropertyOp55
 70
     1
102
RTVSPropertyOp56
 70
     0
102
RTVSPropertyOp57
 70
     0
102
RTVSPropertyOp58
 70
     0
102
RTVSPropertyOp59
 70
     0
102
RTVSPropertyOp60
 70
     0
102
RTVSPropertyOp61
 70
     0
102
RTVSPropertyOp62
 70
     0
  0
XRECORD
  5
99F2
102
{ACAD_REACTORS
330
99F1
102
}
330
99F1
100
AcDbXrecord
280
     1
102
RTVSPost2010Prop28
280
     0
102
RTVSPost2010PropOp28
 70
     1
102
RTVSPost2010Prop29
280
     1
102
RTVSPost2010PropOp29
 70
     1
102
RTVSPost2010Prop30
280
     1
102
RTVSPost2010PropOp30
 70
     1
102
RTVSPost2010Prop31
280
     0
102
RTVSPost2010PropOp31
 70
     1
102
RTVSPost2010Prop32
280
     0
102
RTVSPost2010PropOp32
 70
     1
102
RTVSPost2010Prop33
280
     0
102
RTVSPost2010PropOp33
 70
     1
102
RTVSPost2010Prop34
280
     0
102
RTVSPost2010PropOp34
 70
     1
102
RTVSPost2010Prop35
280
     0
102
RTVSPost2010PropOp35
 70
     1
102
RTVSPost2010Prop36
280
     0
102
RTVSPost2010PropOp36
 70
     1
102
RTVSPost2010Prop37
 90
       50
102
RTVSPost2010PropOp37
 70
     1
102
RTVSPost2010Prop38
140
0.0
102
RTVSPost2010PropOp38
 70
     1
102
RTVSPost2010Prop39
140
1.0
102
RTVSPost2010PropOp39
 70
     1
102
RTVSPost2010Prop40
 90
        0
102
RTVSPost2010PropOp40
 70
     1
102
RTVSPost2010Prop41ColorIndex
 90
       18
102
RTVSPost2010Prop41ColorRGB
 90
        0
102
RTVSPost2010PropOp41
 70
     1
102
RTVSPost2010Prop42
 90
       50
102
RTVSPost2010PropOp42
 70
     1
102
RTVSPost2010Prop43
 90
        3
102
RTVSPost2010PropOp43
 70
     1
102
RTVSPost2010Prop44ColorIndex
 90
        5
102
RTVSPost2010Prop44ColorRGB
 90
      255
102
RTVSPost2010PropOp44
 70
     1
102
RTVSPost2010Prop45
280
     0
102
RTVSPost2010PropOp45
 70
     1
102
RTVSPost2010Prop46
 90
       50
102
RTVSPost2010PropOp46
 70
     1
102
RTVSPost2010Prop47
 90
       50
102
RTVSPost2010PropOp47
 70
     1
102
RTVSPost2010Prop48
 90
       50
102
RTVSPost2010PropOp48
 70
     1
102
RTVSPost2010Prop49
280
     0
102
RTVSPost2010PropOp49
 70
     1
102
RTVSPost2010Prop50
 90
       50
102
RTVSPost2010PropOp50
 70
     1
102
RTVSPost2010Prop51ColorIndex
 90
      256
102
RTVSPost2010Prop51ColorRGB
 90
-16777216
102
RTVSPost2010PropOp51
 70
     0
102
RTVSPost2010Prop52
140
1.0
102
RTVSPost2010PropOp52
 70
     0
102
RTVSPost2010Prop53
 90
        2
102
RTVSPost2010PropOp53
 70
     1
102
RTVSPost2010Prop54
  1
strokes_ogs.tif
102
RTVSPost2010PropOp54
 70
     1
102
RTVSPost2010Prop55
280
     0
102
RTVSPost2010PropOp55
 70
     1
102
RTVSPost2010Prop56
140
1.0
102
RTVSPost2010PropOp56
 70
     1
102
RTVSPost2010Prop57
140
1.0
102
RTVSPost2010PropOp57
 70
     1
102
RTVSPropertyOp0
 70
     1
102
RTVSPropertyOp1
 70
     1
102
RTVSPropertyOp2
 70
     1
102
RTVSPropertyOp3
 70
     1
102
RTVSPropertyOp4
 70
     1
102
RTVSPropertyOp5
 70
     1
102
RTVSPropertyOp6
 70
     1
102
RTVSPropertyOp7
 70
     1
102
RTVSPropertyOp8
 70
     1
102
RTVSPropertyOp9
 70
     1
102
RTVSPropertyOp10
 70
     1
102
RTVSPropertyOp11
 70
     1
102
RTVSPropertyOp12
 70
     1
102
RTVSPropertyOp13
 70
     1
102
RTVSPropertyOp14
 70
     1
102
RTVSPropertyOp15
 70
     1
102
RTVSPropertyOp16
 70
     1
102
RTVSPropertyOp17
 70
     1
102
RTVSPropertyOp18
 70
     1
102
RTVSPropertyOp19
 70
     1
102
RTVSPropertyOp20
 70
     1
102
RTVSPropertyOp21
 70
     1
102
RTVSPropertyOp22
 70
     1
102
RTVSPropertyOp23
 70
     1
102
RTVSPropertyOp24
 70
     1
102
RTVSPropertyOp25
 70
     1
102
RTVSPropertyOp26
 70
     1
102
RTVSPropertyOp27
 70
     1
102
RTVSPropertyOp28
 70
     1
102
RTVSPropertyOp29
 70
     1
102
RTVSPropertyOp30
 70
     1
102
RTVSPropertyOp31
 70
     1
102
RTVSPropertyOp32
 70
     1
102
RTVSPropertyOp33
 70
     1
102
RTVSPropertyOp34
 70
     1
102
RTVSPropertyOp35
 70
     1
102
RTVSPropertyOp36
 70
     1
102
RTVSPropertyOp37
 70
     1
102
RTVSPropertyOp38
 70
     1
102
RTVSPropertyOp39
 70
     1
102
RTVSPropertyOp40
 70
     1
102
RTVSPropertyOp41
 70
     1
102
RTVSPropertyOp42
 70
     1
102
RTVSPropertyOp43
 70
     1
102
RTVSPropertyOp44
 70
     1
102
RTVSPropertyOp45
 70
     1
102
RTVSPropertyOp46
 70
     1
102
RTVSPropertyOp47
 70
     1
102
RTVSPropertyOp48
 70
     1
102
RTVSPropertyOp49
 70
     1
102
RTVSPropertyOp50
 70
     1
102
RTVSPropertyOp51
 70
     0
102
RTVSPropertyOp52
 70
     0
102
RTVSPropertyOp53
 70
     1
102
RTVSPropertyOp54
 70
     1
102
RTVSPropertyOp55
 70
     1
102
RTVSPropertyOp56
 70
     1
102
RTVSPropertyOp57
 70
     1
102
RTVSPropertyOp58
 70
     1
102
RTVSPropertyOp59
 70
     1
102
RTVSPropertyOp60
 70
     1
102
RTVSPropertyOp61
 70
     1
102
RTVSPropertyOp62
 70
     1
  0
XRECORD
  5
9A08
102
{ACAD_REACTORS
330
9A07
102
}
330
9A07
100
AcDbXrecord
280
     1
102
RTVSPost2010Prop28
280
     0
102
RTVSPost2010PropOp28
 70
     1
102
RTVSPost2010Prop29
280
     1
102
RTVSPost2010PropOp29
 70
     1
102
RTVSPost2010Prop30
280
     1
102
RTVSPost2010PropOp30
 70
     1
102
RTVSPost2010Prop31
280
     0
102
RTVSPost2010PropOp31
 70
     1
102
RTVSPost2010Prop32
280
     0
102
RTVSPost2010PropOp32
 70
     1
102
RTVSPost2010Prop33
280
     0
102
RTVSPost2010PropOp33
 70
     1
102
RTVSPost2010Prop34
280
     0
102
RTVSPost2010PropOp34
 70
     1
102
RTVSPost2010Prop35
280
     0
102
RTVSPost2010PropOp35
 70
     1
102
RTVSPost2010Prop36
280
     0
102
RTVSPost2010PropOp36
 70
     1
102
RTVSPost2010Prop37
 90
       50
102
RTVSPost2010PropOp37
 70
     1
102
RTVSPost2010Prop38
140
0.0
102
RTVSPost2010PropOp38
 70
     1
102
RTVSPost2010Prop39
140
1.0
102
RTVSPost2010PropOp39
 70
     1
102
RTVSPost2010Prop40
 90
        0
102
RTVSPost2010PropOp40
 70
     1
102
RTVSPost2010Prop41ColorIndex
 90
       18
102
RTVSPost2010Prop41ColorRGB
 90
        0
102
RTVSPost2010PropOp41
 70
     1
102
RTVSPost2010Prop42
 90
       50
102
RTVSPost2010PropOp42
 70
     1
102
RTVSPost2010Prop43
 90
        3
102
RTVSPost2010PropOp43
 70
     1
102
RTVSPost2010Prop44ColorIndex
 90
        5
102
RTVSPost2010Prop44ColorRGB
 90
      255
102
RTVSPost2010PropOp44
 70
     1
102
RTVSPost2010Prop45
280
     0
102
RTVSPost2010PropOp45
 70
     1
102
RTVSPost2010Prop46
 90
       50
102
RTVSPost2010PropOp46
 70
     1
102
RTVSPost2010Prop47
 90
       50
102
RTVSPost2010PropOp47
 70
     1
102
RTVSPost2010Prop48
 90
       50
102
RTVSPost2010PropOp48
 70
     1
102
RTVSPost2010Prop49
280
     0
102
RTVSPost2010PropOp49
 70
     1
102
RTVSPost2010Prop50
 90
       50
102
RTVSPost2010PropOp50
 70
     1
102
RTVSPost2010Prop51ColorIndex
 90
      256
102
RTVSPost2010Prop51ColorRGB
 90
-16777216
102
RTVSPost2010PropOp51
 70
     0
102
RTVSPost2010Prop52
140
1.0
102
RTVSPost2010PropOp52
 70
     0
102
RTVSPost2010Prop53
 90
        2
102
RTVSPost2010PropOp53
 70
     1
102
RTVSPost2010Prop54
  1
strokes_ogs.tif
102
RTVSPost2010PropOp54
 70
     1
102
RTVSPost2010Prop55
280
     0
102
RTVSPost2010PropOp55
 70
     1
102
RTVSPost2010Prop56
140
1.0
102
RTVSPost2010PropOp56
 70
     1
102
RTVSPost2010Prop57
140
1.0
102
RTVSPost2010PropOp57
 70
     1
102
RTVSPropertyOp0
 70
     1
102
RTVSPropertyOp1
 70
     1
102
RTVSPropertyOp2
 70
     1
102
RTVSPropertyOp3
 70
     1
102
RTVSPropertyOp4
 70
     1
102
RTVSPropertyOp5
 70
     1
102
RTVSPropertyOp6
 70
     1
102
RTVSPropertyOp7
 70
     1
102
RTVSPropertyOp8
 70
     1
102
RTVSPropertyOp9
 70
     1
102
RTVSPropertyOp10
 70
     1
102
RTVSPropertyOp11
 70
     1
102
RTVSPropertyOp12
 70
     1
102
RTVSPropertyOp13
 70
     1
102
RTVSPropertyOp14
 70
     1
102
RTVSPropertyOp15
 70
     1
102
RTVSPropertyOp16
 70
     1
102
RTVSPropertyOp17
 70
     1
102
RTVSPropertyOp18
 70
     1
102
RTVSPropertyOp19
 70
     1
102
RTVSPropertyOp20
 70
     1
102
RTVSPropertyOp21
 70
     1
102
RTVSPropertyOp22
 70
     1
102
RTVSPropertyOp23
 70
     1
102
RTVSPropertyOp24
 70
     1
102
RTVSPropertyOp25
 70
     1
102
RTVSPropertyOp26
 70
     1
102
RTVSPropertyOp27
 70
     1
102
RTVSPropertyOp28
 70
     1
102
RTVSPropertyOp29
 70
     1
102
RTVSPropertyOp30
 70
     1
102
RTVSPropertyOp31
 70
     1
102
RTVSPropertyOp32
 70
     1
102
RTVSPropertyOp33
 70
     1
102
RTVSPropertyOp34
 70
     1
102
RTVSPropertyOp35
 70
     1
102
RTVSPropertyOp36
 70
     1
102
RTVSPropertyOp37
 70
     1
102
RTVSPropertyOp38
 70
     1
102
RTVSPropertyOp39
 70
     1
102
RTVSPropertyOp40
 70
     1
102
RTVSPropertyOp41
 70
     1
102
RTVSPropertyOp42
 70
     1
102
RTVSPropertyOp43
 70
     1
102
RTVSPropertyOp44
 70
     1
102
RTVSPropertyOp45
 70
     1
102
RTVSPropertyOp46
 70
     1
102
RTVSPropertyOp47
 70
     1
102
RTVSPropertyOp48
 70
     1
102
RTVSPropertyOp49
 70
     1
102
RTVSPropertyOp50
 70
     1
102
RTVSPropertyOp51
 70
     0
102
RTVSPropertyOp52
 70
     0
102
RTVSPropertyOp53
 70
     1
102
RTVSPropertyOp54
 70
     1
102
RTVSPropertyOp55
 70
     1
102
RTVSPropertyOp56
 70
     1
102
RTVSPropertyOp57
 70
     1
102
RTVSPropertyOp58
 70
     1
102
RTVSPropertyOp59
 70
     1
102
RTVSPropertyOp60
 70
     1
102
RTVSPropertyOp61
 70
     1
102
RTVSPropertyOp62
 70
     1
  0
XRECORD
  5
9A06
102
{ACAD_REACTORS
330
9A05
102
}
330
9A05
100
AcDbXrecord
280
     1
102
RTVSPost2010Prop28
280
     0
102
RTVSPost2010PropOp28
 70
     1
102
RTVSPost2010Prop29
280
     1
102
RTVSPost2010PropOp29
 70
     1
102
RTVSPost2010Prop30
280
     1
102
RTVSPost2010PropOp30
 70
     1
102
RTVSPost2010Prop31
280
     0
102
RTVSPost2010PropOp31
 70
     1
102
RTVSPost2010Prop32
280
     0
102
RTVSPost2010PropOp32
 70
     1
102
RTVSPost2010Prop33
280
     0
102
RTVSPost2010PropOp33
 70
     1
102
RTVSPost2010Prop34
280
     0
102
RTVSPost2010PropOp34
 70
     1
102
RTVSPost2010Prop35
280
     0
102
RTVSPost2010PropOp35
 70
     1
102
RTVSPost2010Prop36
280
     0
102
RTVSPost2010PropOp36
 70
     1
102
RTVSPost2010Prop37
 90
       50
102
RTVSPost2010PropOp37
 70
     1
102
RTVSPost2010Prop38
140
0.0
102
RTVSPost2010PropOp38
 70
     1
102
RTVSPost2010Prop39
140
1.0
102
RTVSPost2010PropOp39
 70
     1
102
RTVSPost2010Prop40
 90
        0
102
RTVSPost2010PropOp40
 70
     1
102
RTVSPost2010Prop41ColorIndex
 90
       18
102
RTVSPost2010Prop41ColorRGB
 90
        0
102
RTVSPost2010PropOp41
 70
     1
102
RTVSPost2010Prop42
 90
       50
102
RTVSPost2010PropOp42
 70
     1
102
RTVSPost2010Prop43
 90
        3
102
RTVSPost2010PropOp43
 70
     1
102
RTVSPost2010Prop44ColorIndex
 90
        5
102
RTVSPost2010Prop44ColorRGB
 90
      255
102
RTVSPost2010PropOp44
 70
     1
102
RTVSPost2010Prop45
280
     0
102
RTVSPost2010PropOp45
 70
     1
102
RTVSPost2010Prop46
 90
       50
102
RTVSPost2010PropOp46
 70
     1
102
RTVSPost2010Prop47
 90
       50
102
RTVSPost2010PropOp47
 70
     1
102
RTVSPost2010Prop48
 90
       50
102
RTVSPost2010PropOp48
 70
     1
102
RTVSPost2010Prop49
280
     0
102
RTVSPost2010PropOp49
 70
     1
102
RTVSPost2010Prop50
 90
       50
102
RTVSPost2010PropOp50
 70
     1
102
RTVSPost2010Prop51ColorIndex
 90
      256
102
RTVSPost2010Prop51ColorRGB
 90
-16777216
102
RTVSPost2010PropOp51
 70
     0
102
RTVSPost2010Prop52
140
1.0
102
RTVSPost2010PropOp52
 70
     0
102
RTVSPost2010Prop53
 90
        2
102
RTVSPost2010PropOp53
 70
     1
102
RTVSPost2010Prop54
  1
strokes_ogs.tif
102
RTVSPost2010PropOp54
 70
     1
102
RTVSPost2010Prop55
280
     0
102
RTVSPost2010PropOp55
 70
     1
102
RTVSPost2010Prop56
140
1.0
102
RTVSPost2010PropOp56
 70
     1
102
RTVSPost2010Prop57
140
1.0
102
RTVSPost2010PropOp57
 70
     1
102
RTVSPropertyOp0
 70
     1
102
RTVSPropertyOp1
 70
     1
102
RTVSPropertyOp2
 70
     1
102
RTVSPropertyOp3
 70
     1
102
RTVSPropertyOp4
 70
     1
102
RTVSPropertyOp5
 70
     1
102
RTVSPropertyOp6
 70
     1
102
RTVSPropertyOp7
 70
     1
102
RTVSPropertyOp8
 70
     1
102
RTVSPropertyOp9
 70
     1
102
RTVSPropertyOp10
 70
     1
102
RTVSPropertyOp11
 70
     1
102
RTVSPropertyOp12
 70
     1
102
RTVSPropertyOp13
 70
     1
102
RTVSPropertyOp14
 70
     1
102
RTVSPropertyOp15
 70
     1
102
RTVSPropertyOp16
 70
     1
102
RTVSPropertyOp17
 70
     1
102
RTVSPropertyOp18
 70
     1
102
RTVSPropertyOp19
 70
     1
102
RTVSPropertyOp20
 70
     1
102
RTVSPropertyOp21
 70
     1
102
RTVSPropertyOp22
 70
     1
102
RTVSPropertyOp23
 70
     1
102
RTVSPropertyOp24
 70
     1
102
RTVSPropertyOp25
 70
     1
102
RTVSPropertyOp26
 70
     1
102
RTVSPropertyOp27
 70
     1
102
RTVSPropertyOp28
 70
     1
102
RTVSPropertyOp29
 70
     1
102
RTVSPropertyOp30
 70
     1
102
RTVSPropertyOp31
 70
     1
102
RTVSPropertyOp32
 70
     1
102
RTVSPropertyOp33
 70
     1
102
RTVSPropertyOp34
 70
     1
102
RTVSPropertyOp35
 70
     1
102
RTVSPropertyOp36
 70
     1
102
RTVSPropertyOp37
 70
     1
102
RTVSPropertyOp38
 70
     1
102
RTVSPropertyOp39
 70
     1
102
RTVSPropertyOp40
 70
     1
102
RTVSPropertyOp41
 70
     1
102
RTVSPropertyOp42
 70
     1
102
RTVSPropertyOp43
 70
     1
102
RTVSPropertyOp44
 70
     1
102
RTVSPropertyOp45
 70
     1
102
RTVSPropertyOp46
 70
     1
102
RTVSPropertyOp47
 70
     1
102
RTVSPropertyOp48
 70
     1
102
RTVSPropertyOp49
 70
     1
102
RTVSPropertyOp50
 70
     1
102
RTVSPropertyOp51
 70
     0
102
RTVSPropertyOp52
 70
     0
102
RTVSPropertyOp53
 70
     1
102
RTVSPropertyOp54
 70
     1
102
RTVSPropertyOp55
 70
     1
102
RTVSPropertyOp56
 70
     1
102
RTVSPropertyOp57
 70
     1
102
RTVSPropertyOp58
 70
     1
102
RTVSPropertyOp59
 70
     1
102
RTVSPropertyOp60
 70
     1
102
RTVSPropertyOp61
 70
     1
102
RTVSPropertyOp62
 70
     1
  0
XRECORD
  5
9A00
102
{ACAD_REACTORS
330
99FF
102
}
330
99FF
100
AcDbXrecord
280
     1
102
RTVSPost2010Prop28
280
     0
102
RTVSPost2010PropOp28
 70
     1
102
RTVSPost2010Prop29
280
     1
102
RTVSPost2010PropOp29
 70
     1
102
RTVSPost2010Prop30
280
     1
102
RTVSPost2010PropOp30
 70
     1
102
RTVSPost2010Prop31
280
     0
102
RTVSPost2010PropOp31
 70
     1
102
RTVSPost2010Prop32
280
     0
102
RTVSPost2010PropOp32
 70
     1
102
RTVSPost2010Prop33
280
     0
102
RTVSPost2010PropOp33
 70
     1
102
RTVSPost2010Prop34
280
     0
102
RTVSPost2010PropOp34
 70
     1
102
RTVSPost2010Prop35
280
     0
102
RTVSPost2010PropOp35
 70
     1
102
RTVSPost2010Prop36
280
     0
102
RTVSPost2010PropOp36
 70
     1
102
RTVSPost2010Prop37
 90
       50
102
RTVSPost2010PropOp37
 70
     1
102
RTVSPost2010Prop38
140
0.0
102
RTVSPost2010PropOp38
 70
     1
102
RTVSPost2010Prop39
140
1.0
102
RTVSPost2010PropOp39
 70
     1
102
RTVSPost2010Prop40
 90
        0
102
RTVSPost2010PropOp40
 70
     1
102
RTVSPost2010Prop41ColorIndex
 90
       18
102
RTVSPost2010Prop41ColorRGB
 90
        0
102
RTVSPost2010PropOp41
 70
     1
102
RTVSPost2010Prop42
 90
       50
102
RTVSPost2010PropOp42
 70
     1
102
RTVSPost2010Prop43
 90
        3
102
RTVSPost2010PropOp43
 70
     1
102
RTVSPost2010Prop44ColorIndex
 90
        5
102
RTVSPost2010Prop44ColorRGB
 90
      255
102
RTVSPost2010PropOp44
 70
     1
102
RTVSPost2010Prop45
280
     0
102
RTVSPost2010PropOp45
 70
     1
102
RTVSPost2010Prop46
 90
       50
102
RTVSPost2010PropOp46
 70
     1
102
RTVSPost2010Prop47
 90
       50
102
RTVSPost2010PropOp47
 70
     1
102
RTVSPost2010Prop48
 90
       50
102
RTVSPost2010PropOp48
 70
     1
102
RTVSPost2010Prop49
280
     0
102
RTVSPost2010PropOp49
 70
     1
102
RTVSPost2010Prop50
 90
       50
102
RTVSPost2010PropOp50
 70
     1
102
RTVSPost2010Prop51ColorIndex
 90
      256
102
RTVSPost2010Prop51ColorRGB
 90
-16777216
102
RTVSPost2010PropOp51
 70
     0
102
RTVSPost2010Prop52
140
1.0
102
RTVSPost2010PropOp52
 70
     0
102
RTVSPost2010Prop53
 90
        2
102
RTVSPost2010PropOp53
 70
     1
102
RTVSPost2010Prop54
  1
strokes_ogs.tif
102
RTVSPost2010PropOp54
 70
     1
102
RTVSPost2010Prop55
280
     0
102
RTVSPost2010PropOp55
 70
     1
102
RTVSPost2010Prop56
140
1.0
102
RTVSPost2010PropOp56
 70
     1
102
RTVSPost2010Prop57
140
1.0
102
RTVSPost2010PropOp57
 70
     1
102
RTVSPropertyOp0
 70
     1
102
RTVSPropertyOp1
 70
     1
102
RTVSPropertyOp2
 70
     1
102
RTVSPropertyOp3
 70
     1
102
RTVSPropertyOp4
 70
     1
102
RTVSPropertyOp5
 70
     1
102
RTVSPropertyOp6
 70
     1
102
RTVSPropertyOp7
 70
     1
102
RTVSPropertyOp8
 70
     1
102
RTVSPropertyOp9
 70
     1
102
RTVSPropertyOp10
 70
     1
102
RTVSPropertyOp11
 70
     1
102
RTVSPropertyOp12
 70
     1
102
RTVSPropertyOp13
 70
     1
102
RTVSPropertyOp14
 70
     1
102
RTVSPropertyOp15
 70
     1
102
RTVSPropertyOp16
 70
     1
102
RTVSPropertyOp17
 70
     1
102
RTVSPropertyOp18
 70
     1
102
RTVSPropertyOp19
 70
     1
102
RTVSPropertyOp20
 70
     1
102
RTVSPropertyOp21
 70
     1
102
RTVSPropertyOp22
 70
     1
102
RTVSPropertyOp23
 70
     1
102
RTVSPropertyOp24
 70
     1
102
RTVSPropertyOp25
 70
     1
102
RTVSPropertyOp26
 70
     1
102
RTVSPropertyOp27
 70
     1
102
RTVSPropertyOp28
 70
     1
102
RTVSPropertyOp29
 70
     1
102
RTVSPropertyOp30
 70
     1
102
RTVSPropertyOp31
 70
     1
102
RTVSPropertyOp32
 70
     1
102
RTVSPropertyOp33
 70
     1
102
RTVSPropertyOp34
 70
     1
102
RTVSPropertyOp35
 70
     1
102
RTVSPropertyOp36
 70
     1
102
RTVSPropertyOp37
 70
     1
102
RTVSPropertyOp38
 70
     1
102
RTVSPropertyOp39
 70
     1
102
RTVSPropertyOp40
 70
     1
102
RTVSPropertyOp41
 70
     1
102
RTVSPropertyOp42
 70
     1
102
RTVSPropertyOp43
 70
     1
102
RTVSPropertyOp44
 70
     1
102
RTVSPropertyOp45
 70
     1
102
RTVSPropertyOp46
 70
     1
102
RTVSPropertyOp47
 70
     1
102
RTVSPropertyOp48
 70
     1
102
RTVSPropertyOp49
 70
     1
102
RTVSPropertyOp50
 70
     1
102
RTVSPropertyOp51
 70
     0
102
RTVSPropertyOp52
 70
     0
102
RTVSPropertyOp53
 70
     1
102
RTVSPropertyOp54
 70
     1
102
RTVSPropertyOp55
 70
     1
102
RTVSPropertyOp56
 70
     1
102
RTVSPropertyOp57
 70
     1
102
RTVSPropertyOp58
 70
     1
102
RTVSPropertyOp59
 70
     1
102
RTVSPropertyOp60
 70
     1
102
RTVSPropertyOp61
 70
     1
102
RTVSPropertyOp62
 70
     1
  0
XRECORD
  5
9A02
102
{ACAD_REACTORS
330
9A01
102
}
330
9A01
100
AcDbXrecord
280
     1
102
RTVSPost2010Prop28
280
     0
102
RTVSPost2010PropOp28
 70
     1
102
RTVSPost2010Prop29
280
     1
102
RTVSPost2010PropOp29
 70
     1
102
RTVSPost2010Prop30
280
     1
102
RTVSPost2010PropOp30
 70
     1
102
RTVSPost2010Prop31
280
     0
102
RTVSPost2010PropOp31
 70
     1
102
RTVSPost2010Prop32
280
     0
102
RTVSPost2010PropOp32
 70
     1
102
RTVSPost2010Prop33
280
     0
102
RTVSPost2010PropOp33
 70
     1
102
RTVSPost2010Prop34
280
     0
102
RTVSPost2010PropOp34
 70
     1
102
RTVSPost2010Prop35
280
     0
102
RTVSPost2010PropOp35
 70
     1
102
RTVSPost2010Prop36
280
     0
102
RTVSPost2010PropOp36
 70
     1
102
RTVSPost2010Prop37
 90
       50
102
RTVSPost2010PropOp37
 70
     1
102
RTVSPost2010Prop38
140
0.0
102
RTVSPost2010PropOp38
 70
     1
102
RTVSPost2010Prop39
140
1.0
102
RTVSPost2010PropOp39
 70
     1
102
RTVSPost2010Prop40
 90
        0
102
RTVSPost2010PropOp40
 70
     1
102
RTVSPost2010Prop41ColorIndex
 90
       18
102
RTVSPost2010Prop41ColorRGB
 90
        0
102
RTVSPost2010PropOp41
 70
     1
102
RTVSPost2010Prop42
 90
       50
102
RTVSPost2010PropOp42
 70
     1
102
RTVSPost2010Prop43
 90
        3
102
RTVSPost2010PropOp43
 70
     1
102
RTVSPost2010Prop44ColorIndex
 90
        5
102
RTVSPost2010Prop44ColorRGB
 90
      255
102
RTVSPost2010PropOp44
 70
     1
102
RTVSPost2010Prop45
280
     0
102
RTVSPost2010PropOp45
 70
     1
102
RTVSPost2010Prop46
 90
       50
102
RTVSPost2010PropOp46
 70
     1
102
RTVSPost2010Prop47
 90
       50
102
RTVSPost2010PropOp47
 70
     1
102
RTVSPost2010Prop48
 90
       50
102
RTVSPost2010PropOp48
 70
     1
102
RTVSPost2010Prop49
280
     0
102
RTVSPost2010PropOp49
 70
     1
102
RTVSPost2010Prop50
 90
       50
102
RTVSPost2010PropOp50
 70
     1
102
RTVSPost2010Prop51ColorIndex
 90
      256
102
RTVSPost2010Prop51ColorRGB
 90
-16777216
102
RTVSPost2010PropOp51
 70
     0
102
RTVSPost2010Prop52
140
1.0
102
RTVSPost2010PropOp52
 70
     0
102
RTVSPost2010Prop53
 90
        2
102
RTVSPost2010PropOp53
 70
     1
102
RTVSPost2010Prop54
  1
strokes_ogs.tif
102
RTVSPost2010PropOp54
 70
     1
102
RTVSPost2010Prop55
280
     0
102
RTVSPost2010PropOp55
 70
     1
102
RTVSPost2010Prop56
140
1.0
102
RTVSPost2010PropOp56
 70
     1
102
RTVSPost2010Prop57
140
1.0
102
RTVSPost2010PropOp57
 70
     1
102
RTVSPropertyOp0
 70
     1
102
RTVSPropertyOp1
 70
     1
102
RTVSPropertyOp2
 70
     1
102
RTVSPropertyOp3
 70
     1
102
RTVSPropertyOp4
 70
     1
102
RTVSPropertyOp5
 70
     1
102
RTVSPropertyOp6
 70
     1
102
RTVSPropertyOp7
 70
     1
102
RTVSPropertyOp8
 70
     1
102
RTVSPropertyOp9
 70
     1
102
RTVSPropertyOp10
 70
     1
102
RTVSPropertyOp11
 70
     1
102
RTVSPropertyOp12
 70
     1
102
RTVSPropertyOp13
 70
     1
102
RTVSPropertyOp14
 70
     1
102
RTVSPropertyOp15
 70
     1
102
RTVSPropertyOp16
 70
     1
102
RTVSPropertyOp17
 70
     1
102
RTVSPropertyOp18
 70
     1
102
RTVSPropertyOp19
 70
     1
102
RTVSPropertyOp20
 70
     1
102
RTVSPropertyOp21
 70
     1
102
RTVSPropertyOp22
 70
     1
102
RTVSPropertyOp23
 70
     1
102
RTVSPropertyOp24
 70
     1
102
RTVSPropertyOp25
 70
     1
102
RTVSPropertyOp26
 70
     1
102
RTVSPropertyOp27
 70
     1
102
RTVSPropertyOp28
 70
     1
102
RTVSPropertyOp29
 70
     1
102
RTVSPropertyOp30
 70
     1
102
RTVSPropertyOp31
 70
     1
102
RTVSPropertyOp32
 70
     1
102
RTVSPropertyOp33
 70
     1
102
RTVSPropertyOp34
 70
     1
102
RTVSPropertyOp35
 70
     1
102
RTVSPropertyOp36
 70
     1
102
RTVSPropertyOp37
 70
     1
102
RTVSPropertyOp38
 70
     1
102
RTVSPropertyOp39
 70
     1
102
RTVSPropertyOp40
 70
     1
102
RTVSPropertyOp41
 70
     1
102
RTVSPropertyOp42
 70
     1
102
RTVSPropertyOp43
 70
     1
102
RTVSPropertyOp44
 70
     1
102
RTVSPropertyOp45
 70
     1
102
RTVSPropertyOp46
 70
     1
102
RTVSPropertyOp47
 70
     1
102
RTVSPropertyOp48
 70
     1
102
RTVSPropertyOp49
 70
     1
102
RTVSPropertyOp50
 70
     1
102
RTVSPropertyOp51
 70
     0
102
RTVSPropertyOp52
 70
     0
102
RTVSPropertyOp53
 70
     1
102
RTVSPropertyOp54
 70
     1
102
RTVSPropertyOp55
 70
     1
102
RTVSPropertyOp56
 70
     1
102
RTVSPropertyOp57
 70
     1
102
RTVSPropertyOp58
 70
     1
102
RTVSPropertyOp59
 70
     1
102
RTVSPropertyOp60
 70
     1
102
RTVSPropertyOp61
 70
     1
102
RTVSPropertyOp62
 70
     1
  0
XRECORD
  5
99F8
102
{ACAD_REACTORS
330
99F7
102
}
330
99F7
100
AcDbXrecord
280
     1
102
RTVSPost2010Prop28
280
     0
102
RTVSPost2010PropOp28
 70
     1
102
RTVSPost2010Prop29
280
     1
102
RTVSPost2010PropOp29
 70
     1
102
RTVSPost2010Prop30
280
     1
102
RTVSPost2010PropOp30
 70
     1
102
RTVSPost2010Prop31
280
     0
102
RTVSPost2010PropOp31
 70
     1
102
RTVSPost2010Prop32
280
     0
102
RTVSPost2010PropOp32
 70
     1
102
RTVSPost2010Prop33
280
     0
102
RTVSPost2010PropOp33
 70
     1
102
RTVSPost2010Prop34
280
     0
102
RTVSPost2010PropOp34
 70
     1
102
RTVSPost2010Prop35
280
     0
102
RTVSPost2010PropOp35
 70
     1
102
RTVSPost2010Prop36
280
     0
102
RTVSPost2010PropOp36
 70
     1
102
RTVSPost2010Prop37
 90
       50
102
RTVSPost2010PropOp37
 70
     1
102
RTVSPost2010Prop38
140
0.0
102
RTVSPost2010PropOp38
 70
     1
102
RTVSPost2010Prop39
140
1.0
102
RTVSPost2010PropOp39
 70
     1
102
RTVSPost2010Prop40
 90
        0
102
RTVSPost2010PropOp40
 70
     1
102
RTVSPost2010Prop41ColorIndex
 90
       18
102
RTVSPost2010Prop41ColorRGB
 90
        0
102
RTVSPost2010PropOp41
 70
     1
102
RTVSPost2010Prop42
 90
       50
102
RTVSPost2010PropOp42
 70
     1
102
RTVSPost2010Prop43
 90
        3
102
RTVSPost2010PropOp43
 70
     1
102
RTVSPost2010Prop44ColorIndex
 90
        5
102
RTVSPost2010Prop44ColorRGB
 90
      255
102
RTVSPost2010PropOp44
 70
     1
102
RTVSPost2010Prop45
280
     0
102
RTVSPost2010PropOp45
 70
     1
102
RTVSPost2010Prop46
 90
       50
102
RTVSPost2010PropOp46
 70
     1
102
RTVSPost2010Prop47
 90
       50
102
RTVSPost2010PropOp47
 70
     1
102
RTVSPost2010Prop48
 90
       50
102
RTVSPost2010PropOp48
 70
     1
102
RTVSPost2010Prop49
280
     0
102
RTVSPost2010PropOp49
 70
     1
102
RTVSPost2010Prop50
 90
       50
102
RTVSPost2010PropOp50
 70
     1
102
RTVSPost2010Prop51ColorIndex
 90
      256
102
RTVSPost2010Prop51ColorRGB
 90
-16777216
102
RTVSPost2010PropOp51
 70
     0
102
RTVSPost2010Prop52
140
1.0
102
RTVSPost2010PropOp52
 70
     0
102
RTVSPost2010Prop53
 90
        2
102
RTVSPost2010PropOp53
 70
     1
102
RTVSPost2010Prop54
  1
strokes_ogs.tif
102
RTVSPost2010PropOp54
 70
     1
102
RTVSPost2010Prop55
280
     0
102
RTVSPost2010PropOp55
 70
     1
102
RTVSPost2010Prop56
140
1.0
102
RTVSPost2010PropOp56
 70
     1
102
RTVSPost2010Prop57
140
1.0
102
RTVSPost2010PropOp57
 70
     1
102
RTVSPropertyOp0
 70
     1
102
RTVSPropertyOp1
 70
     1
102
RTVSPropertyOp2
 70
     1
102
RTVSPropertyOp3
 70
     1
102
RTVSPropertyOp4
 70
     1
102
RTVSPropertyOp5
 70
     1
102
RTVSPropertyOp6
 70
     1
102
RTVSPropertyOp7
 70
     1
102
RTVSPropertyOp8
 70
     1
102
RTVSPropertyOp9
 70
     1
102
RTVSPropertyOp10
 70
     1
102
RTVSPropertyOp11
 70
     1
102
RTVSPropertyOp12
 70
     1
102
RTVSPropertyOp13
 70
     1
102
RTVSPropertyOp14
 70
     1
102
RTVSPropertyOp15
 70
     1
102
RTVSPropertyOp16
 70
     1
102
RTVSPropertyOp17
 70
     1
102
RTVSPropertyOp18
 70
     1
102
RTVSPropertyOp19
 70
     1
102
RTVSPropertyOp20
 70
     1
102
RTVSPropertyOp21
 70
     1
102
RTVSPropertyOp22
 70
     1
102
RTVSPropertyOp23
 70
     1
102
RTVSPropertyOp24
 70
     1
102
RTVSPropertyOp25
 70
     1
102
RTVSPropertyOp26
 70
     1
102
RTVSPropertyOp27
 70
     1
102
RTVSPropertyOp28
 70
     1
102
RTVSPropertyOp29
 70
     1
102
RTVSPropertyOp30
 70
     1
102
RTVSPropertyOp31
 70
     1
102
RTVSPropertyOp32
 70
     1
102
RTVSPropertyOp33
 70
     1
102
RTVSPropertyOp34
 70
     1
102
RTVSPropertyOp35
 70
     1
102
RTVSPropertyOp36
 70
     1
102
RTVSPropertyOp37
 70
     1
102
RTVSPropertyOp38
 70
     1
102
RTVSPropertyOp39
 70
     1
102
RTVSPropertyOp40
 70
     1
102
RTVSPropertyOp41
 70
     1
102
RTVSPropertyOp42
 70
     1
102
RTVSPropertyOp43
 70
     1
102
RTVSPropertyOp44
 70
     1
102
RTVSPropertyOp45
 70
     1
102
RTVSPropertyOp46
 70
     1
102
RTVSPropertyOp47
 70
     1
102
RTVSPropertyOp48
 70
     1
102
RTVSPropertyOp49
 70
     1
102
RTVSPropertyOp50
 70
     1
102
RTVSPropertyOp51
 70
     0
102
RTVSPropertyOp52
 70
     0
102
RTVSPropertyOp53
 70
     1
102
RTVSPropertyOp54
 70
     1
102
RTVSPropertyOp55
 70
     1
102
RTVSPropertyOp56
 70
     1
102
RTVSPropertyOp57
 70
     1
102
RTVSPropertyOp58
 70
     1
102
RTVSPropertyOp59
 70
     1
102
RTVSPropertyOp60
 70
     1
102
RTVSPropertyOp61
 70
     1
102
RTVSPropertyOp62
 70
     1
  0
XRECORD
  5
99EC
102
{ACAD_REACTORS
330
99EB
102
}
330
99EB
100
AcDbXrecord
280
     1
102
RTVSPost2010Prop28
280
     0
102
RTVSPost2010PropOp28
 70
     1
102
RTVSPost2010Prop29
280
     1
102
RTVSPost2010PropOp29
 70
     1
102
RTVSPost2010Prop30
280
     1
102
RTVSPost2010PropOp30
 70
     1
102
RTVSPost2010Prop31
280
     0
102
RTVSPost2010PropOp31
 70
     1
102
RTVSPost2010Prop32
280
     0
102
RTVSPost2010PropOp32
 70
     1
102
RTVSPost2010Prop33
280
     0
102
RTVSPost2010PropOp33
 70
     1
102
RTVSPost2010Prop34
280
     0
102
RTVSPost2010PropOp34
 70
     1
102
RTVSPost2010Prop35
280
     0
102
RTVSPost2010PropOp35
 70
     1
102
RTVSPost2010Prop36
280
     0
102
RTVSPost2010PropOp36
 70
     1
102
RTVSPost2010Prop37
 90
       50
102
RTVSPost2010PropOp37
 70
     1
102
RTVSPost2010Prop38
140
0.0
102
RTVSPost2010PropOp38
 70
     1
102
RTVSPost2010Prop39
140
1.0
102
RTVSPost2010PropOp39
 70
     1
102
RTVSPost2010Prop40
 90
        0
102
RTVSPost2010PropOp40
 70
     1
102
RTVSPost2010Prop41ColorIndex
 90
       18
102
RTVSPost2010Prop41ColorRGB
 90
        0
102
RTVSPost2010PropOp41
 70
     1
102
RTVSPost2010Prop42
 90
       50
102
RTVSPost2010PropOp42
 70
     1
102
RTVSPost2010Prop43
 90
        3
102
RTVSPost2010PropOp43
 70
     1
102
RTVSPost2010Prop44ColorIndex
 90
        5
102
RTVSPost2010Prop44ColorRGB
 90
      255
102
RTVSPost2010PropOp44
 70
     1
102
RTVSPost2010Prop45
280
     0
102
RTVSPost2010PropOp45
 70
     1
102
RTVSPost2010Prop46
 90
       50
102
RTVSPost2010PropOp46
 70
     1
102
RTVSPost2010Prop47
 90
       50
102
RTVSPost2010PropOp47
 70
     1
102
RTVSPost2010Prop48
 90
       50
102
RTVSPost2010PropOp48
 70
     1
102
RTVSPost2010Prop49
280
     0
102
RTVSPost2010PropOp49
 70
     1
102
RTVSPost2010Prop50
 90
       50
102
RTVSPost2010PropOp50
 70
     1
102
RTVSPost2010Prop51ColorIndex
 90
      256
102
RTVSPost2010Prop51ColorRGB
 90
-16777216
102
RTVSPost2010PropOp51
 70
     0
102
RTVSPost2010Prop52
140
1.0
102
RTVSPost2010PropOp52
 70
     0
102
RTVSPost2010Prop53
 90
        2
102
RTVSPost2010PropOp53
 70
     1
102
RTVSPost2010Prop54
  1
strokes_ogs.tif
102
RTVSPost2010PropOp54
 70
     1
102
RTVSPost2010Prop55
280
     0
102
RTVSPost2010PropOp55
 70
     1
102
RTVSPost2010Prop56
140
1.0
102
RTVSPost2010PropOp56
 70
     1
102
RTVSPost2010Prop57
140
1.0
102
RTVSPost2010PropOp57
 70
     1
102
RTVSPropertyOp0
 70
     1
102
RTVSPropertyOp1
 70
     1
102
RTVSPropertyOp2
 70
     1
102
RTVSPropertyOp3
 70
     1
102
RTVSPropertyOp4
 70
     1
102
RTVSPropertyOp5
 70
     1
102
RTVSPropertyOp6
 70
     1
102
RTVSPropertyOp7
 70
     1
102
RTVSPropertyOp8
 70
     1
102
RTVSPropertyOp9
 70
     1
102
RTVSPropertyOp10
 70
     1
102
RTVSPropertyOp11
 70
     1
102
RTVSPropertyOp12
 70
     1
102
RTVSPropertyOp13
 70
     1
102
RTVSPropertyOp14
 70
     1
102
RTVSPropertyOp15
 70
     1
102
RTVSPropertyOp16
 70
     1
102
RTVSPropertyOp17
 70
     1
102
RTVSPropertyOp18
 70
     1
102
RTVSPropertyOp19
 70
     1
102
RTVSPropertyOp20
 70
     1
102
RTVSPropertyOp21
 70
     1
102
RTVSPropertyOp22
 70
     1
102
RTVSPropertyOp23
 70
     1
102
RTVSPropertyOp24
 70
     1
102
RTVSPropertyOp25
 70
     1
102
RTVSPropertyOp26
 70
     1
102
RTVSPropertyOp27
 70
     1
102
RTVSPropertyOp28
 70
     1
102
RTVSPropertyOp29
 70
     1
102
RTVSPropertyOp30
 70
     1
102
RTVSPropertyOp31
 70
     1
102
RTVSPropertyOp32
 70
     1
102
RTVSPropertyOp33
 70
     1
102
RTVSPropertyOp34
 70
     1
102
RTVSPropertyOp35
 70
     1
102
RTVSPropertyOp36
 70
     1
102
RTVSPropertyOp37
 70
     1
102
RTVSPropertyOp38
 70
     1
102
RTVSPropertyOp39
 70
     1
102
RTVSPropertyOp40
 70
     1
102
RTVSPropertyOp41
 70
     1
102
RTVSPropertyOp42
 70
     1
102
RTVSPropertyOp43
 70
     1
102
RTVSPropertyOp44
 70
     1
102
RTVSPropertyOp45
 70
     1
102
RTVSPropertyOp46
 70
     1
102
RTVSPropertyOp47
 70
     1
102
RTVSPropertyOp48
 70
     1
102
RTVSPropertyOp49
 70
     1
102
RTVSPropertyOp50
 70
     1
102
RTVSPropertyOp51
 70
     0
102
RTVSPropertyOp52
 70
     0
102
RTVSPropertyOp53
 70
     1
102
RTVSPropertyOp54
 70
     1
102
RTVSPropertyOp55
 70
     1
102
RTVSPropertyOp56
 70
     1
102
RTVSPropertyOp57
 70
     1
102
RTVSPropertyOp58
 70
     1
102
RTVSPropertyOp59
 70
     1
102
RTVSPropertyOp60
 70
     1
102
RTVSPropertyOp61
 70
     1
102
RTVSPropertyOp62
 70
     1
  0
XRECORD
  5
9A04
102
{ACAD_REACTORS
330
9A03
102
}
330
9A03
100
AcDbXrecord
280
     1
102
RTVSPost2010Prop28
280
     0
102
RTVSPost2010PropOp28
 70
     1
102
RTVSPost2010Prop29
280
     1
102
RTVSPost2010PropOp29
 70
     1
102
RTVSPost2010Prop30
280
     1
102
RTVSPost2010PropOp30
 70
     1
102
RTVSPost2010Prop31
280
     0
102
RTVSPost2010PropOp31
 70
     1
102
RTVSPost2010Prop32
280
     0
102
RTVSPost2010PropOp32
 70
     1
102
RTVSPost2010Prop33
280
     0
102
RTVSPost2010PropOp33
 70
     1
102
RTVSPost2010Prop34
280
     0
102
RTVSPost2010PropOp34
 70
     1
102
RTVSPost2010Prop35
280
     0
102
RTVSPost2010PropOp35
 70
     1
102
RTVSPost2010Prop36
280
     0
102
RTVSPost2010PropOp36
 70
     1
102
RTVSPost2010Prop37
 90
       50
102
RTVSPost2010PropOp37
 70
     1
102
RTVSPost2010Prop38
140
0.0
102
RTVSPost2010PropOp38
 70
     1
102
RTVSPost2010Prop39
140
1.0
102
RTVSPost2010PropOp39
 70
     1
102
RTVSPost2010Prop40
 90
        0
102
RTVSPost2010PropOp40
 70
     1
102
RTVSPost2010Prop41ColorIndex
 90
       18
102
RTVSPost2010Prop41ColorRGB
 90
        0
102
RTVSPost2010PropOp41
 70
     1
102
RTVSPost2010Prop42
 90
       50
102
RTVSPost2010PropOp42
 70
     1
102
RTVSPost2010Prop43
 90
        3
102
RTVSPost2010PropOp43
 70
     1
102
RTVSPost2010Prop44ColorIndex
 90
        5
102
RTVSPost2010Prop44ColorRGB
 90
      255
102
RTVSPost2010PropOp44
 70
     1
102
RTVSPost2010Prop45
280
     0
102
RTVSPost2010PropOp45
 70
     1
102
RTVSPost2010Prop46
 90
       50
102
RTVSPost2010PropOp46
 70
     1
102
RTVSPost2010Prop47
 90
       50
102
RTVSPost2010PropOp47
 70
     1
102
RTVSPost2010Prop48
 90
       50
102
RTVSPost2010PropOp48
 70
     1
102
RTVSPost2010Prop49
280
     0
102
RTVSPost2010PropOp49
 70
     1
102
RTVSPost2010Prop50
 90
       50
102
RTVSPost2010PropOp50
 70
     1
102
RTVSPost2010Prop51ColorIndex
 90
      256
102
RTVSPost2010Prop51ColorRGB
 90
-16777216
102
RTVSPost2010PropOp51
 70
     0
102
RTVSPost2010Prop52
140
1.0
102
RTVSPost2010PropOp52
 70
     0
102
RTVSPost2010Prop53
 90
        2
102
RTVSPost2010PropOp53
 70
     1
102
RTVSPost2010Prop54
  1
strokes_ogs.tif
102
RTVSPost2010PropOp54
 70
     1
102
RTVSPost2010Prop55
280
     0
102
RTVSPost2010PropOp55
 70
     1
102
RTVSPost2010Prop56
140
1.0
102
RTVSPost2010PropOp56
 70
     1
102
RTVSPost2010Prop57
140
1.0
102
RTVSPost2010PropOp57
 70
     1
102
RTVSPropertyOp0
 70
     1
102
RTVSPropertyOp1
 70
     1
102
RTVSPropertyOp2
 70
     1
102
RTVSPropertyOp3
 70
     1
102
RTVSPropertyOp4
 70
     1
102
RTVSPropertyOp5
 70
     1
102
RTVSPropertyOp6
 70
     1
102
RTVSPropertyOp7
 70
     1
102
RTVSPropertyOp8
 70
     1
102
RTVSPropertyOp9
 70
     1
102
RTVSPropertyOp10
 70
     1
102
RTVSPropertyOp11
 70
     1
102
RTVSPropertyOp12
 70
     1
102
RTVSPropertyOp13
 70
     1
102
RTVSPropertyOp14
 70
     1
102
RTVSPropertyOp15
 70
     1
102
RTVSPropertyOp16
 70
     1
102
RTVSPropertyOp17
 70
     1
102
RTVSPropertyOp18
 70
     1
102
RTVSPropertyOp19
 70
     1
102
RTVSPropertyOp20
 70
     1
102
RTVSPropertyOp21
 70
     1
102
RTVSPropertyOp22
 70
     1
102
RTVSPropertyOp23
 70
     1
102
RTVSPropertyOp24
 70
     1
102
RTVSPropertyOp25
 70
     1
102
RTVSPropertyOp26
 70
     1
102
RTVSPropertyOp27
 70
     1
102
RTVSPropertyOp28
 70
     1
102
RTVSPropertyOp29
 70
     1
102
RTVSPropertyOp30
 70
     1
102
RTVSPropertyOp31
 70
     1
102
RTVSPropertyOp32
 70
     1
102
RTVSPropertyOp33
 70
     1
102
RTVSPropertyOp34
 70
     1
102
RTVSPropertyOp35
 70
     1
102
RTVSPropertyOp36
 70
     1
102
RTVSPropertyOp37
 70
     1
102
RTVSPropertyOp38
 70
     1
102
RTVSPropertyOp39
 70
     1
102
RTVSPropertyOp40
 70
     1
102
RTVSPropertyOp41
 70
     1
102
RTVSPropertyOp42
 70
     1
102
RTVSPropertyOp43
 70
     1
102
RTVSPropertyOp44
 70
     1
102
RTVSPropertyOp45
 70
     1
102
RTVSPropertyOp46
 70
     1
102
RTVSPropertyOp47
 70
     1
102
RTVSPropertyOp48
 70
     1
102
RTVSPropertyOp49
 70
     1
102
RTVSPropertyOp50
 70
     1
102
RTVSPropertyOp51
 70
     0
102
RTVSPropertyOp52
 70
     0
102
RTVSPropertyOp53
 70
     1
102
RTVSPropertyOp54
 70
     1
102
RTVSPropertyOp55
 70
     1
102
RTVSPropertyOp56
 70
     1
102
RTVSPropertyOp57
 70
     1
102
RTVSPropertyOp58
 70
     1
102
RTVSPropertyOp59
 70
     1
102
RTVSPropertyOp60
 70
     1
102
RTVSPropertyOp61
 70
     1
102
RTVSPropertyOp62
 70
     1
  0
ENDSEC
  0
EOF
