  0
SECTION
  2
HEADER
  9
$ACADVER
  1
AC1015
  9
$ACADMAINTVER
 70
    20
  9
$DWGCODEPAGE
  3
ANSI_932
  9
$INSBASE
 10
0.0
 20
0.0
 30
0.0
  9
$EXTMIN
 10
9.0484
 20
9.999999999999998
 30
0.0
  9
$EXTMAX
 10
495.392
 20
286.855
 30
0.0
  9
$LIMMIN
 10
0.0
 20
0.0
  9
$LIMMAX
 10
495.0
 20
341.25
  9
$ORTHOMODE
 70
     1
  9
$REGENMODE
 70
     1
  9
$FILLMODE
 70
     1
  9
$QTEXTMODE
 70
     0
  9
$MIRRTEXT
 70
     1
  9
$LTSCALE
 40
20.0
  9
$ATTMODE
 70
     1
  9
$TEXTSIZE
 40
5.0
  9
$TRACEWID
 40
1.0
  9
$TEXTSTYLE
  7
STANDARD
  9
$CLAYER
  8
0
  9
$CELTYPE
  6
BYLAYER
  9
$CECOLOR
 62
   256
  9
$CELTSCALE
 40
1.0
  9
$DISPSILH
 70
     0
  9
$DIMSCALE
 40
1.0
  9
$DIMASZ
 40
3.0
  9
$DIMEXO
 40
1.0
  9
$DIMDLI
 40
10.0
  9
$DIMRND
 40
0.0
  9
$DIMDLE
 40
0.0
  9
$DIMEXE
 40
1.0
  9
$DIMTP
 40
0.0
  9
$DIMTM
 40
0.0
  9
$DIMTXT
 40
3.2
  9
$DIMCEN
 40
0.0
  9
$DIMTSZ
 40
0.0
  9
$DIMTOL
 70
     0
  9
$DIMLIM
 70
     0
  9
$DIMTIH
 70
     0
  9
$DIMTOH
 70
     0
  9
$DIMSE1
 70
     0
  9
$DIMSE2
 70
     0
  9
$DIMTAD
 70
     3
  9
$DIMZIN
 70
     8
  9
$DIMBLK
  1

  9
$DIMASO
 70
     1
  9
$DIMSHO
 70
     1
  9
$DIMPOST
  1

  9
$DIMAPOST
  1

  9
$DIMALT
 70
     0
  9
$DIMALTD
 70
     2
  9
$DIMALTF
 40
25.4
  9
$DIMLFAC
 40
1.0
  9
$DIMTOFL
 70
     1
  9
$DIMTVP
 40
0.0
  9
$DIMTIX
 70
     0
  9
$DIMSOXD
 70
     0
  9
$DIMSAH
 70
     1
  9
$DIMBLK1
  1

  9
$DIMBLK2
  1

  9
$DIMSTYLE
  2
STANDARD
  9
$DIMCLRD
 70
     0
  9
$DIMCLRE
 70
     0
  9
$DIMCLRT
 70
     0
  9
$DIMTFAC
 40
1.0
  9
$DIMGAP
 40
1.0
  9
$DIMJUST
 70
     0
  9
$DIMSD1
 70
     0
  9
$DIMSD2
 70
     0
  9
$DIMTOLJ
 70
     1
  9
$DIMTZIN
 70
     0
  9
$DIMALTZ
 70
     0
  9
$DIMALTTZ
 70
     0
  9
$DIMUPT
 70
     0
  9
$DIMDEC
 70
     4
  9
$DIMTDEC
 70
     4
  9
$DIMALTU
 70
     2
  9
$DIMALTTD
 70
     2
  9
$DIMTXSTY
  7
STANDARD
  9
$DIMAUNIT
 70
     0
  9
$DIMADEC
 70
     0
  9
$DIMALTRND
 40
0.0
  9
$DIMAZIN
 70
     0
  9
$DIMDSEP
 70
    46
  9
$DIMATFIT
 70
     3
  9
$DIMFRAC
 70
     0
  9
$DIMLDRBLK
  1

  9
$DIMLUNIT
 70
     2
  9
$DIMLWD
 70
    -2
  9
$DIMLWE
 70
    -2
  9
$DIMTMOVE
 70
     0
  9
$LUNITS
 70
     2
  9
$LUPREC
 70
     4
  9
$SKETCHINC
 40
1.0
  9
$FILLETRAD
 40
2.5
  9
$AUNITS
 70
     0
  9
$AUPREC
 70
     2
  9
$MENU
  1
.
  9
$ELEVATION
 40
0.0
  9
$PELEVATION
 40
0.0
  9
$THICKNESS
 40
0.0
  9
$LIMCHECK
 70
     0
  9
$CHAMFERA
 40
10.0
  9
$CHAMFERB
 40
10.0
  9
$CHAMFERC
 40
0.0
  9
$CHAMFERD
 40
0.0
  9
$SKPOLY
 70
     0
  9
$TDCREATE
 40
2450737.664621875
  9
$TDUCREATE
 40
2450737.289621875
  9
$TDUPDATE
 40
2457192.640179630
  9
$TDUUPDATE
 40
2457192.265179630
  9
$TDINDWG
 40
0.0000154861
  9
$TDUSRTIMER
 40
0.0000146296
  9
$USRTIMER
 70
     1
  9
$ANGBASE
 50
0.0
  9
$ANGDIR
 70
     0
  9
$PDMODE
 70
     0
  9
$PDSIZE
 40
0.0
  9
$PLINEWID
 40
0.0
  9
$SPLFRAME
 70
     0
  9
$SPLINETYPE
 70
     6
  9
$SPLINESEGS
 70
     8
  9
$HANDSEED
  5
9AA3
  9
$SURFTAB1
 70
     6
  9
$SURFTAB2
 70
     6
  9
$SURFTYPE
 70
     6
  9
$SURFU
 70
     6
  9
$SURFV
 70
     6
  9
$UCSBASE
  2

  9
$UCSNAME
  2

  9
$UCSORG
 10
0.0
 20
0.0
 30
0.0
  9
$UCSXDIR
 10
1.0
 20
0.0
 30
0.0
  9
$UCSYDIR
 10
0.0
 20
1.0
 30
0.0
  9
$UCSORTHOREF
  2

  9
$UCSORTHOVIEW
 70
     0
  9
$UCSORGTOP
 10
0.0
 20
0.0
 30
0.0
  9
$UCSORGBOTTOM
 10
0.0
 20
0.0
 30
0.0
  9
$UCSORGLEFT
 10
0.0
 20
0.0
 30
0.0
  9
$UCSORGRIGHT
 10
0.0
 20
0.0
 30
0.0
  9
$UCSORGFRONT
 10
0.0
 20
0.0
 30
0.0
  9
$UCSORGBACK
 10
0.0
 20
0.0
 30
0.0
  9
$PUCSBASE
  2

  9
$PUCSNAME
  2

  9
$PUCSORG
 10
0.0
 20
0.0
 30
0.0
  9
$PUCSXDIR
 10
1.0
 20
0.0
 30
0.0
  9
$PUCSYDIR
 10
0.0
 20
1.0
 30
0.0
  9
$PUCSORTHOREF
  2

  9
$PUCSORTHOVIEW
 70
     0
  9
$PUCSORGTOP
 10
0.0
 20
0.0
 30
0.0
  9
$PUCSORGBOTTOM
 10
0.0
 20
0.0
 30
0.0
  9
$PUCSORGLEFT
 10
0.0
 20
0.0
 30
0.0
  9
$PUCSORGRIGHT
 10
0.0
 20
0.0
 30
0.0
  9
$PUCSORGFRONT
 10
0.0
 20
0.0
 30
0.0
  9
$PUCSORGBACK
 10
0.0
 20
0.0
 30
0.0
  9
$USERI1
 70
     0
  9
$USERI2
 70
     0
  9
$USERI3
 70
     0
  9
$USERI4
 70
     0
  9
$USERI5
 70
     0
  9
$USERR1
 40
0.0
  9
$USERR2
 40
0.0
  9
$USERR3
 40
0.0
  9
$USERR4
 40
0.0
  9
$USERR5
 40
0.0
  9
$WORLDVIEW
 70
     1
  9
$SHADEDGE
 70
     3
  9
$SHADEDIF
 70
    70
  9
$TILEMODE
 70
     1
  9
$MAXACTVP
 70
    16
  9
$PINSBASE
 10
0.0
 20
0.0
 30
0.0
  9
$PLIMCHECK
 70
     0
  9
$PEXTMIN
 10
1.000000000000000E+20
 20
1.000000000000000E+20
 30
1.000000000000000E+20
  9
$PEXTMAX
 10
-1.000000000000000E+20
 20
-1.000000000000000E+20
 30
-1.000000000000000E+20
  9
$PLIMMIN
 10
0.0
 20
0.0
  9
$PLIMMAX
 10
420.0
 20
297.0
  9
$UNITMODE
 70
     0
  9
$VISRETAIN
 70
     0
  9
$PLINEGEN
 70
     0
  9
$PSLTSCALE
 70
     0
  9
$TREEDEPTH
 70
  3020
  9
$CMLSTYLE
  2
STANDARD
  9
$CMLJUST
 70
     0
  9
$CMLSCALE
 40
1.0
  9
$PROXYGRAPHICS
 70
     1
  9
$MEASUREMENT
 70
     0
  9
$CELWEIGHT
370
    -1
  9
$ENDCAPS
280
     0
  9
$JOINSTYLE
280
     0
  9
$LWDISPLAY
290
     0
  9
$INSUNITS
 70
     0
  9
$HYPERLINKBASE
  1

  9
$STYLESHEET
  1

  9
$XEDIT
290
     1
  9
$CEPSNTYPE
380
     0
  9
$PSTYLEMODE
290
     1
  9
$FINGERPRINTGUID
  2
{7EF492AF-FD2E-47B3-AB29-D6F93B9670D7}
  9
$VERSIONGUID
  2
{97FAC7EA-6E12-47D5-BBCD-E028DF3E29DB}
  9
$EXTNAMES
290
     1
  9
$PSVPSCALE
 40
0.0
  9
$OLESTARTUP
290
     0
  0
ENDSEC
  0
SECTION
  2
CLASSES
  0
CLASS
  1
ACDBDICTIONARYWDFLT
  2
AcDbDictionaryWithDefault
  3
ObjectDBX Classes
 90
        0
280
     0
281
     0
  0
CLASS
  1
ACDBPLACEHOLDER
  2
AcDbPlaceHolder
  3
ObjectDBX Classes
 90
        0
280
     0
281
     0
  0
CLASS
  1
LAYOUT
  2
AcDbLayout
  3
ObjectDBX Classes
 90
        0
280
     0
281
     0
  0
CLASS
  1
DICTIONARYVAR
  2
AcDbDictionaryVar
  3
ObjectDBX Classes
 90
        0
280
     0
281
     0
  0
CLASS
  1
MATERIAL
  2
AcDbMaterial
  3
ObjectDBX Classes
 90
     1153
280
     0
281
     0
  0
CLASS
  1
VISUALSTYLE
  2
AcDbVisualStyle
  3
ObjectDBX Classes
 90
     4095
280
     0
281
     0
  0
CLASS
  1
TABLESTYLE
  2
AcDbTableStyle
  3
ObjectDBX Classes
 90
     4095
280
     0
281
     0
  0
CLASS
  1
SCALE
  2
AcDbScale
  3
ObjectDBX Classes
 90
     1153
280
     0
281
     0
  0
CLASS
  1
MLEADERSTYLE
  2
AcDbMLeaderStyle
  3
ACDB_MLEADERSTYLE_CLASS
 90
     4095
280
     0
281
     0
  0
CLASS
  1
ACDBSECTIONVIEWSTYLE
  2
AcDbSectionViewStyle
  3
ObjectDBX Classes
 90
     1025
280
     0
281
     0
  0
CLASS
  1
ACDBDETAILVIEWSTYLE
  2
AcDbDetailViewStyle
  3
ObjectDBX Classes
 90
     1025
280
     0
281
     0
  0
CLASS
  1
CELLSTYLEMAP
  2
AcDbCellStyleMap
  3
ObjectDBX Classes
 90
     1152
280
     0
281
     0
  0
ENDSEC
  0
SECTION
  2
TABLES
  0
TABLE
  2
VPORT
  5
97D4
330
0
100
AcDbSymbolTable
 70
     1
  0
VPORT
  5
99EC
330
97D4
100
AcDbSymbolTableRecord
100
AcDbViewportTableRecord
  2
*ACTIVE
 70
     0
 10
0.0
 20
0.0
 11
1.0
 21
1.0
 12
336.0684119743728
 22
148.4298999843941
 13
0.0
 23
0.0
 14
10.0
 24
10.0
 15
10.0
 25
10.0
 16
0.0
 26
0.0
 36
1.0
 17
0.0
 27
0.0
 37
0.0
 40
279.992265060769
 41
1.899603698811096
 42
50.0
 43
0.0
 44
0.0
 50
0.0
 51
0.0
 71
     0
 72
   100
 73
     1
 74
     0
 75
     0
 76
     0
 77
     0
 78
     0
281
     0
 65
     1
110
0.0
120
0.0
130
0.0
111
1.0
121
0.0
131
0.0
112
0.0
122
1.0
132
0.0
 79
     0
146
0.0
1001
ACAD_NAV_VCDISPLAY
1070
     3
  0
ENDTAB
  0
TABLE
  2
LTYPE
  5
97D1
330
0
100
AcDbSymbolTable
 70
     4
  0
LTYPE
  5
97DF
330
97D1
100
AcDbSymbolTableRecord
100
AcDbLinetypeTableRecord
  2
BYBLOCK
 70
     0
  3

 72
    65
 73
     0
 40
0.0
  0
LTYPE
  5
97E0
330
97D1
100
AcDbSymbolTableRecord
100
AcDbLinetypeTableRecord
  2
BYLAYER
 70
     0
  3

 72
    65
 73
     0
 40
0.0
  0
LTYPE
  5
97E1
330
97D1
100
AcDbSymbolTableRecord
100
AcDbLinetypeTableRecord
  2
CONTINUOUS
 70
     0
  3
Solid line
 72
    65
 73
     0
 40
0.0
  0
LTYPE
  5
97EE
330
97D1
100
AcDbSymbolTableRecord
100
AcDbLinetypeTableRecord
  2
CENTER
 70
     0
  3
____ _ ____ _ ____ _ ____ _ ____ _ ____ _ ____ 
 72
    65
 73
     4
 40
2.0
 49
1.25
 74
     0
 49
-0.25
 74
     0
 49
0.25
 74
     0
 49
-0.25
 74
     0
  0
LTYPE
  5
97F0
330
97D1
100
AcDbSymbolTableRecord
100
AcDbLinetypeTableRecord
  2
DASHED
 70
     0
  3
__ __ __ __ __ __ __ __ __ __ __ __ __ __ __ __
 72
    65
 73
     2
 40
0.75
 49
0.5
 74
     0
 49
-0.25
 74
     0
  0
LTYPE
  5
97F1
330
97D1
100
AcDbSymbolTableRecord
100
AcDbLinetypeTableRecord
  2
PHANTOM
 70
     0
  3
______  __  __  ______  __  __  ______  __  __ 
 72
    65
 73
     6
 40
2.5
 49
1.25
 74
     0
 49
-0.25
 74
     0
 49
0.25
 74
     0
 49
-0.25
 74
     0
 49
0.25
 74
     0
 49
-0.25
 74
     0
  0
ENDTAB
  0
TABLE
  2
LAYER
  5
97CE
330
0
100
AcDbSymbolTable
 70
     8
  0
LAYER
  5
97DC
102
{ACAD_XDICTIONARY
360
9A47
102
}
330
97CE
100
AcDbSymbolTableRecord
100
AcDbLayerTableRecord
  2
0
 70
     0
 62
     7
  6
CONTINUOUS
370
    -3
390
99F5
  0
LAYER
  5
97F2
102
{ACAD_XDICTIONARY
360
9A49
102
}
330
97CE
100
AcDbSymbolTableRecord
100
AcDbLayerTableRecord
  2
4
 70
     0
 62
     1
  6
CENTER
370
    -3
390
99F5
  0
LAYER
  5
97F3
102
{ACAD_XDICTIONARY
360
9A4B
102
}
330
97CE
100
AcDbSymbolTableRecord
100
AcDbLayerTableRecord
  2
5
 70
     0
 62
     6
  6
PHANTOM
370
    -3
390
99F5
  0
LAYER
  5
97F4
102
{ACAD_XDICTIONARY
360
9A4D
102
}
330
97CE
100
AcDbSymbolTableRecord
100
AcDbLayerTableRecord
  2
1
 70
     0
 62
     7
  6
CONTINUOUS
370
    -3
390
99F5
  0
LAYER
  5
97F5
102
{ACAD_XDICTIONARY
360
9A4F
102
}
330
97CE
100
AcDbSymbolTableRecord
100
AcDbLayerTableRecord
  2
2
 70
     0
 62
     4
  6
CONTINUOUS
370
    -3
390
99F5
  0
LAYER
  5
97F6
102
{ACAD_XDICTIONARY
360
9A51
102
}
330
97CE
100
AcDbSymbolTableRecord
100
AcDbLayerTableRecord
  2
3
 70
     0
 62
     2
  6
DASHED
370
    -3
390
99F5
  0
LAYER
  5
97F7
102
{ACAD_XDICTIONARY
360
9A53
102
}
330
97CE
100
AcDbSymbolTableRecord
100
AcDbLayerTableRecord
  2
6
 70
     0
 62
     5
  6
CONTINUOUS
370
    -3
390
99F5
  0
LAYER
  5
97F8
102
{ACAD_XDICTIONARY
360
9A55
102
}
330
97CE
100
AcDbSymbolTableRecord
100
AcDbLayerTableRecord
  2
7
 70
     0
 62
     3
  6
CONTINUOUS
370
    -3
390
99F5
  0
ENDTAB
  0
TABLE
  2
STYLE
  5
97CF
330
0
100
AcDbSymbolTable
 70
     1
  0
STYLE
  5
97DD
330
97CF
100
AcDbSymbolTableRecord
100
AcDbTextStyleTableRecord
  2
STANDARD
 70
     0
 40
0.0
 41
1.0
 50
0.0
 71
     0
 42
5.0
  3
txt
  4

  0
ENDTAB
  0
TABLE
  2
VIEW
  5
97D2
330
0
100
AcDbSymbolTable
 70
     0
  0
ENDTAB
  0
TABLE
  2
UCS
  5
97D3
330
0
100
AcDbSymbolTable
 70
     0
  0
ENDTAB
  0
TABLE
  2
APPID
  5
97D5
330
0
100
AcDbSymbolTable
 70
     3
  0
APPID
  5
97DE
330
97D5
100
AcDbSymbolTableRecord
100
AcDbRegAppTableRecord
  2
ACAD
 70
     0
  0
APPID
  5
9A61
330
97D5
100
AcDbSymbolTableRecord
100
AcDbRegAppTableRecord
  2
ACAD_NAV_VCDISPLAY
 70
     0
  0
APPID
  5
9A9A
330
97D5
100
AcDbSymbolTableRecord
100
AcDbRegAppTableRecord
  2
ACAD_MLEADERVER
 70
     0
  0
ENDTAB
  0
TABLE
  2
DIMSTYLE
  5
97D6
330
0
100
AcDbSymbolTable
 70
     1
100
AcDbDimStyleTable
 71
     0
  0
DIMSTYLE
105
97FA
330
97D6
100
AcDbSymbolTableRecord
100
AcDbDimStyleTableRecord
  2
STANDARD
 70
     0
 41
3.0
 42
1.0
 43
10.0
 44
1.0
 73
     0
 74
     0
 77
     3
 78
     8
140
3.2
141
0.0
147
1.0
172
     1
173
     1
284
     8
285
     8
286
     8
340
97DD
  0
ENDTAB
  0
TABLE
  2
BLOCK_RECORD
  5
97CD
330
0
100
AcDbSymbolTable
 70
     0
  0
BLOCK_RECORD
  5
97EA
102
{ACAD_XDICTIONARY
360
99EF
102
}
330
97CD
100
AcDbSymbolTableRecord
100
AcDbBlockTableRecord
  2
*MODEL_SPACE
340
9A43
  0
BLOCK_RECORD
  5
97E6
102
{ACAD_XDICTIONARY
360
99ED
102
}
330
97CD
100
AcDbSymbolTableRecord
100
AcDbBlockTableRecord
  2
*PAPER_SPACE
340
9A44
  0
ENDTAB
  0
ENDSEC
  0
SECTION
  2
BLOCKS
  0
BLOCK
  5
97EB
330
97EA
100
AcDbEntity
  8
0
100
AcDbBlockBegin
  2
*MODEL_SPACE
 70
     0
 10
0.0
 20
0.0
 30
0.0
  3
*MODEL_SPACE
  1

  0
ENDBLK
  5
97EC
330
97EA
100
AcDbEntity
  8
0
100
AcDbBlockEnd
  0
BLOCK
  5
97E7
330
97E6
100
AcDbEntity
 67
     1
  8
0
100
AcDbBlockBegin
  2
*PAPER_SPACE
 70
     0
 10
0.0
 20
0.0
 30
0.0
  3
*PAPER_SPACE
  1

  0
ENDBLK
  5
97E8
330
97E6
100
AcDbEntity
 67
     1
  8
0
100
AcDbBlockEnd
  0
ENDSEC
  0
SECTION
  2
ENTITIES
  0
TEXT
  5
9802
330
97EA
100
AcDbEntity
  8
7
  6
Continuous
100
AcDbText
 10
10.0
 20
18.0
 30
0.0
 40
3.0
  1
TYPE No.THA-282-2
100
AcDbText
  0
TEXT
  5
9803
330
97EA
100
AcDbEntity
  8
7
  6
Continuous
100
AcDbText
 10
10.0
 20
26.0
 30
0.0
 40
3.0
  1
CODE No.3225
100
AcDbText
  0
TEXT
  5
9804
330
97EA
100
AcDbEntity
  8
1
  6
Continuous
100
AcDbText
 10
10.0
 20
10.0
 30
0.0
 40
1.399999999999999
  1
LAYER
100
AcDbText
  0
TEXT
  5
9805
330
97EA
100
AcDbEntity
  8
1
  6
Continuous
100
AcDbText
 10
17.97951099999998
 20
10.04873699999998
 30
0.0
 40
1.399999999999999
  1
1
100
AcDbText
  0
TEXT
  5
9806
330
97EA
100
AcDbEntity
  8
7
  6
Continuous
100
AcDbText
 10
29.97951099999999
 20
10.04873699999998
 30
0.0
 40
1.399999999999999
  1
7
100
AcDbText
  0
TEXT
  5
9807
330
97EA
100
AcDbEntity
  8
4
  6
CENTER
100
AcDbText
 10
23.97951099999999
 20
10.04873699999998
 30
0.0
 40
1.399999999999999
  1
4
100
AcDbText
  0
TEXT
  5
9808
330
97EA
100
AcDbEntity
  8
3
  6
DASHED
100
AcDbText
 10
21.979511
 20
10.04873699999998
 30
0.0
 40
1.399999999999999
  1
3
100
AcDbText
  0
TEXT
  5
9809
330
97EA
100
AcDbEntity
  8
2
  6
Continuous
100
AcDbText
 10
19.97951099999999
 20
10.04873699999998
 30
0.0
 40
1.399999999999999
  1
2
100
AcDbText
  0
TEXT
  5
980A
330
97EA
100
AcDbEntity
  8
6
  6
Continuous
100
AcDbText
 10
27.979511
 20
10.04873699999998
 30
0.0
 40
1.399999999999999
  1
6
100
AcDbText
  0
TEXT
  5
980B
330
97EA
100
AcDbEntity
  8
5
  6
PHANTOM
100
AcDbText
 10
25.97951099999999
 20
10.04873699999998
 30
0.0
 40
1.399999999999999
  1
5
100
AcDbText
  0
LINE
  5
980C
330
97EA
100
AcDbEntity
  8
1
  6
Continuous
100
AcDbLine
 10
128.1929999999998
 20
145.8189999999999
 30
0.0
 11
128.1929999999998
 21
59.8193
 31
0.0
  0
LINE
  5
980D
330
97EA
100
AcDbEntity
  8
1
  6
Continuous
100
AcDbLine
 10
128.1929999999998
 20
145.8189999999999
 30
0.0
 11
189.5809999999999
 21
145.8189999999999
 31
0.0
  0
LINE
  5
980E
330
97EA
100
AcDbEntity
  8
1
  6
Continuous
100
AcDbLine
 10
128.1929999999998
 20
59.8193
 30
0.0
 11
189.5809999999999
 21
59.8193
 31
0.0
  0
LINE
  5
980F
330
97EA
100
AcDbEntity
  8
1
  6
Continuous
100
AcDbLine
 10
128.6929999999999
 20
145.319
 30
0.0
 11
128.6929999999999
 21
60.3193
 31
0.0
  0
LINE
  5
9810
330
97EA
100
AcDbEntity
  8
1
  6
Continuous
100
AcDbLine
 10
128.6929999999999
 20
145.319
 30
0.0
 11
155.6939999999999
 21
145.319
 31
0.0
  0
LINE
  5
9811
330
97EA
100
AcDbEntity
  8
1
  6
Continuous
100
AcDbLine
 10
128.6929999999999
 20
60.3193
 30
0.0
 11
188.115
 21
60.3193
 31
0.0
  0
LINE
  5
9812
330
97EA
100
AcDbEntity
  8
1
  6
Continuous
100
AcDbLine
 10
158.694
 20
142.3189999999999
 30
0.0
 11
158.694
 21
123.859
 31
0.0
  0
LINE
  5
9813
330
97EA
100
AcDbEntity
  8
1
  6
Continuous
100
AcDbLine
 10
128.1929999999998
 20
98.31929999999999
 30
0.0
 11
128.6929999999999
 21
98.31929999999999
 31
0.0
  0
LINE
  5
9814
330
97EA
100
AcDbEntity
  8
1
  6
Continuous
100
AcDbLine
 10
128.1929999999998
 20
107.319
 30
0.0
 11
128.6929999999999
 21
107.319
 31
0.0
  0
LINE
  5
9815
330
97EA
100
AcDbEntity
  8
1
  6
Continuous
100
AcDbLine
 10
133.6929999999999
 20
60.3193
 30
0.0
 11
133.6929999999999
 21
59.8193
 31
0.0
  0
LINE
  5
9816
330
97EA
100
AcDbEntity
  8
1
  6
Continuous
100
AcDbLine
 10
133.6929999999999
 20
145.8189999999999
 30
0.0
 11
133.6929999999999
 21
145.319
 31
0.0
  0
LINE
  5
9817
330
97EA
100
AcDbEntity
  8
1
  6
Continuous
100
AcDbLine
 10
137.6929999999999
 20
60.3193
 30
0.0
 11
137.6929999999999
 21
59.8193
 31
0.0
  0
LINE
  5
9818
330
97EA
100
AcDbEntity
  8
1
  6
Continuous
100
AcDbLine
 10
137.6929999999999
 20
145.8189999999999
 30
0.0
 11
137.6929999999999
 21
145.319
 31
0.0
  0
LINE
  5
9819
330
97EA
100
AcDbEntity
  8
1
  6
Continuous
100
AcDbLine
 10
142.6929999999998
 20
60.3193
 30
0.0
 11
142.6929999999998
 21
59.8193
 31
0.0
  0
LINE
  5
981A
330
97EA
100
AcDbEntity
  8
1
  6
Continuous
100
AcDbLine
 10
142.6929999999998
 20
145.8189999999999
 30
0.0
 11
142.6929999999998
 21
145.319
 31
0.0
  0
LINE
  5
981B
330
97EA
100
AcDbEntity
  8
1
  6
Continuous
100
AcDbLine
 10
119.693
 20
224.067
 30
0.0
 11
119.693
 21
226.6159999999999
 31
0.0
  0
LINE
  5
981C
330
97EA
100
AcDbEntity
  8
1
  6
Continuous
100
AcDbLine
 10
202.6939999999999
 20
224.36
 30
0.0
 11
202.6939999999999
 21
226.6159999999999
 31
0.0
  0
LINE
  5
981D
330
97EA
100
AcDbEntity
  8
1
  6
Continuous
100
AcDbLine
 10
119.693
 20
226.6159999999999
 30
0.0
 11
202.6939999999999
 21
226.6159999999999
 31
0.0
  0
LINE
  5
981E
330
97EA
100
AcDbEntity
  8
1
  6
Continuous
100
AcDbLine
 10
128.1929999999998
 20
226.6159999999999
 30
0.0
 11
128.1929999999998
 21
253.6159999999999
 31
0.0
  0
LINE
  5
981F
330
97EA
100
AcDbEntity
  8
1
  6
Continuous
100
AcDbLine
 10
104.6929999999999
 20
253.6159999999999
 30
0.0
 11
187.194
 21
253.6159999999999
 31
0.0
  0
LINE
  5
9820
330
97EA
100
AcDbEntity
  8
1
  6
Continuous
100
AcDbLine
 10
128.1929999999998
 20
243.4159999999998
 30
0.0
 11
179.1939999999999
 21
243.4159999999998
 31
0.0
  0
LINE
  5
9821
330
97EA
100
AcDbEntity
  8
1
  6
Continuous
100
AcDbLine
 10
196.194
 20
226.6159999999999
 30
0.0
 11
196.194
 21
244.6159999999999
 31
0.0
  0
LINE
  5
9822
330
97EA
100
AcDbEntity
  8
1
  6
Continuous
100
AcDbLine
 10
151.6939999999999
 20
245.616
 30
0.0
 11
151.6939999999999
 21
253.6159999999999
 31
0.0
  0
LINE
  5
9823
330
97EA
100
AcDbEntity
  8
1
  6
Continuous
100
AcDbLine
 10
138.1929999999998
 20
243.4159999999998
 30
0.0
 11
138.1929999999998
 21
253.6159999999999
 31
0.0
  0
LINE
  5
9824
330
97EA
100
AcDbEntity
  8
1
  6
Continuous
100
AcDbLine
 10
176.1939999999999
 20
243.4159999999998
 30
0.0
 11
176.1939999999999
 21
253.6159999999999
 31
0.0
  0
LINE
  5
9825
330
97EA
100
AcDbEntity
  8
1
  6
Continuous
100
AcDbLine
 10
186.1939999999999
 20
241.908
 30
0.0
 11
186.1939999999999
 21
253.6159999999999
 31
0.0
  0
LINE
  5
9826
330
97EA
100
AcDbEntity
  8
1
  6
Continuous
100
AcDbLine
 10
163.6939999999999
 20
243.4159999999998
 30
0.0
 11
163.6939999999999
 21
251.1159999999999
 31
0.0
  0
LINE
  5
9827
330
97EA
100
AcDbEntity
  8
1
  6
Continuous
100
AcDbLine
 10
173.6939999999999
 20
243.4159999999998
 30
0.0
 11
173.6939999999999
 21
251.1159999999999
 31
0.0
  0
LINE
  5
9828
330
97EA
100
AcDbEntity
  8
1
  6
Continuous
100
AcDbLine
 10
163.6939999999999
 20
251.1159999999999
 30
0.0
 11
173.6939999999999
 21
251.1159999999999
 31
0.0
  0
LINE
  5
9829
330
97EA
100
AcDbEntity
  8
1
  6
Continuous
100
AcDbLine
 10
165.6939999999999
 20
251.1159999999999
 30
0.0
 11
165.6939999999999
 21
253.6159999999999
 31
0.0
  0
LINE
  5
982A
330
97EA
100
AcDbEntity
  8
1
  6
Continuous
100
AcDbLine
 10
171.6939999999999
 20
251.1159999999999
 30
0.0
 11
171.6939999999999
 21
253.6159999999999
 31
0.0
  0
LINE
  5
982B
330
97EA
100
AcDbEntity
  8
1
  6
Continuous
100
AcDbLine
 10
181.1939999999999
 20
246.6159999999999
 30
0.0
 11
194.1939999999999
 21
246.6159999999999
 31
0.0
  0
LINE
  5
982C
330
97EA
100
AcDbEntity
  8
1
  6
Continuous
100
AcDbLine
 10
46.7616
 20
153.8189999999999
 30
0.0
 11
44.9337
 21
153.8189999999999
 31
0.0
  0
LINE
  5
982D
330
97EA
100
AcDbEntity
  8
1
  6
Continuous
100
AcDbLine
 10
46.7616
 20
51.8193
 30
0.0
 11
44.9337
 21
51.8193
 31
0.0
  0
LINE
  5
982E
330
97EA
100
AcDbEntity
  8
1
  6
Continuous
100
AcDbLine
 10
44.9337
 20
153.8189999999999
 30
0.0
 11
44.9337
 21
51.8193
 31
0.0
  0
LINE
  5
982F
330
97EA
100
AcDbEntity
  8
1
  6
Continuous
100
AcDbLine
 10
36.13369999999999
 20
57.3193
 30
0.0
 11
44.9337
 21
57.3193
 31
0.0
  0
LINE
  5
9830
330
97EA
100
AcDbEntity
  8
1
  6
Continuous
100
AcDbLine
 10
36.13369999999999
 20
148.319
 30
0.0
 11
44.9337
 21
148.319
 31
0.0
  0
LINE
  5
9831
330
97EA
100
AcDbEntity
  8
1
  6
Continuous
100
AcDbLine
 10
36.9337
 20
59.8193
 30
0.0
 11
44.9337
 21
59.8193
 31
0.0
  0
LINE
  5
9832
330
97EA
100
AcDbEntity
  8
1
  6
Continuous
100
AcDbLine
 10
36.9337
 20
145.8189999999999
 30
0.0
 11
44.9337
 21
145.8189999999999
 31
0.0
  0
LINE
  5
9833
330
97EA
100
AcDbEntity
  8
1
  6
Continuous
100
AcDbLine
 10
32.9337
 20
98.8193
 30
0.0
 11
44.9337
 21
98.8193
 31
0.0
  0
LINE
  5
9834
330
97EA
100
AcDbEntity
  8
1
  6
Continuous
100
AcDbLine
 10
32.9337
 20
106.8189999999999
 30
0.0
 11
44.9337
 21
106.8189999999999
 31
0.0
  0
LINE
  5
9835
330
97EA
100
AcDbEntity
  8
1
  6
Continuous
100
AcDbLine
 10
36.9337
 20
98.8193
 30
0.0
 11
36.9337
 21
59.8193
 31
0.0
  0
LINE
  5
9836
330
97EA
100
AcDbEntity
  8
1
  6
Continuous
100
AcDbLine
 10
36.9337
 20
145.8189999999999
 30
0.0
 11
36.9337
 21
106.8189999999999
 31
0.0
  0
LINE
  5
9837
330
97EA
100
AcDbEntity
  8
1
  6
Continuous
100
AcDbLine
 10
102.6929999999999
 20
57.8193
 30
0.0
 11
121.6339999999999
 21
57.8193
 31
0.0
  0
LINE
  5
9838
330
97EA
100
AcDbEntity
  8
1
  6
Continuous
100
AcDbLine
 10
102.6929999999999
 20
147.8189999999998
 30
0.0
 11
121.721
 21
147.8189999999998
 31
0.0
  0
LINE
  5
9839
330
97EA
100
AcDbEntity
  8
1
  6
Continuous
100
AcDbLine
 10
105.6929999999999
 20
69.2193
 30
0.0
 11
106.6929999999999
 21
69.2193
 31
0.0
  0
LINE
  5
983A
330
97EA
100
AcDbEntity
  8
1
  6
Continuous
100
AcDbLine
 10
105.6929999999999
 20
76.41930000000002
 30
0.0
 11
106.6929999999999
 21
76.41930000000002
 31
0.0
  0
LINE
  5
983B
330
97EA
100
AcDbEntity
  8
1
  6
Continuous
100
AcDbLine
 10
106.6929999999999
 20
76.41930000000002
 30
0.0
 11
106.6929999999999
 21
69.2193
 31
0.0
  0
LINE
  5
983C
330
97EA
100
AcDbEntity
  8
1
  6
Continuous
100
AcDbLine
 10
105.6929999999999
 20
129.2189999999999
 30
0.0
 11
106.6929999999999
 21
129.2189999999999
 31
0.0
  0
LINE
  5
983D
330
97EA
100
AcDbEntity
  8
1
  6
Continuous
100
AcDbLine
 10
105.6929999999999
 20
136.4189999999998
 30
0.0
 11
106.6929999999999
 21
136.4189999999998
 31
0.0
  0
LINE
  5
983E
330
97EA
100
AcDbEntity
  8
1
  6
Continuous
100
AcDbLine
 10
106.6929999999999
 20
136.4189999999998
 30
0.0
 11
106.6929999999999
 21
129.2189999999999
 31
0.0
  0
LINE
  5
983F
330
97EA
100
AcDbEntity
  8
1
  6
Continuous
100
AcDbLine
 10
102.6929999999999
 20
238.6159999999999
 30
0.0
 11
102.6929999999999
 21
253.6159999999999
 31
0.0
  0
LINE
  5
9840
330
97EA
100
AcDbEntity
  8
1
  6
Continuous
100
AcDbLine
 10
104.6929999999999
 20
255.6159999999999
 30
0.0
 11
187.194
 21
255.6159999999999
 31
0.0
  0
LINE
  5
9841
330
97EA
100
AcDbEntity
  8
1
  6
Continuous
100
AcDbLine
 10
104.6929999999999
 20
238.6159999999999
 30
0.0
 11
104.6929999999999
 21
253.6159999999999
 31
0.0
  0
LINE
  5
9842
330
97EA
100
AcDbEntity
  8
1
  6
Continuous
100
AcDbLine
 10
102.6929999999999
 20
238.6159999999999
 30
0.0
 11
104.6929999999999
 21
238.6159999999999
 31
0.0
  0
LINE
  5
9843
330
97EA
100
AcDbEntity
  8
1
  6
Continuous
100
AcDbLine
 10
187.194
 20
253.6159999999999
 30
0.0
 11
187.194
 21
255.6159999999999
 31
0.0
  0
LINE
  5
9844
330
97EA
100
AcDbEntity
  8
1
  6
Continuous
100
AcDbLine
 10
105.6929999999999
 20
249.2159999999998
 30
0.0
 11
106.6929999999999
 21
249.2159999999998
 31
0.0
  0
LINE
  5
9845
330
97EA
100
AcDbEntity
  8
1
  6
Continuous
100
AcDbLine
 10
105.6929999999999
 20
242.016
 30
0.0
 11
106.6929999999999
 21
242.016
 31
0.0
  0
LINE
  5
9846
330
97EA
100
AcDbEntity
  8
1
  6
Continuous
100
AcDbLine
 10
106.6929999999999
 20
242.016
 30
0.0
 11
106.6929999999999
 21
249.2159999999998
 31
0.0
  0
LINE
  5
9847
330
97EA
100
AcDbEntity
  8
1
  6
Continuous
100
AcDbLine
 10
92.69299999999999
 20
108.8189999999999
 30
0.0
 11
92.69299999999999
 21
96.81930000000001
 31
0.0
  0
LINE
  5
9848
330
97EA
100
AcDbEntity
  8
1
  6
Continuous
100
AcDbLine
 10
93.693
 20
243.616
 30
0.0
 11
102.6929999999999
 21
243.616
 31
0.0
  0
LINE
  5
9849
330
97EA
100
AcDbEntity
  8
1
  6
Continuous
100
AcDbLine
 10
101.279
 20
253.6159999999999
 30
0.0
 11
102.6929999999999
 21
253.6159999999999
 31
0.0
  0
LINE
  5
984A
330
97EA
100
AcDbEntity
  8
1
  6
Continuous
100
AcDbLine
 10
106.6929999999999
 20
243.616
 30
0.0
 11
128.1929999999998
 21
243.616
 31
0.0
  0
LINE
  5
984B
330
97EA
100
AcDbEntity
  8
1
  6
Continuous
100
AcDbLine
 10
15.9337
 20
147.8189999999998
 30
0.0
 11
15.9337
 21
57.8193
 31
0.0
  0
LINE
  5
984C
330
97EA
100
AcDbEntity
  8
1
  6
Continuous
100
AcDbLine
 10
29.9337
 20
147.8189999999998
 30
0.0
 11
15.9337
 21
147.8189999999998
 31
0.0
  0
LINE
  5
984D
330
97EA
100
AcDbEntity
  8
1
  6
Continuous
100
AcDbLine
 10
29.9337
 20
57.8193
 30
0.0
 11
15.9337
 21
57.8193
 31
0.0
  0
LINE
  5
984E
330
97EA
100
AcDbEntity
  8
1
  6
Continuous
100
AcDbLine
 10
36.9337
 20
62.8193
 30
0.0
 11
43.93369999999999
 21
62.8193
 31
0.0
  0
LINE
  5
984F
330
97EA
100
AcDbEntity
  8
1
  6
Continuous
100
AcDbLine
 10
36.9337
 20
142.8189999999998
 30
0.0
 11
43.93369999999999
 21
142.8189999999998
 31
0.0
  0
LINE
  5
9850
330
97EA
100
AcDbEntity
  8
1
  6
Continuous
100
AcDbLine
 10
43.93369999999999
 20
61.8193
 30
0.0
 11
43.93369999999999
 21
59.8193
 31
0.0
  0
LINE
  5
9851
330
97EA
100
AcDbEntity
  8
1
  6
Continuous
100
AcDbLine
 10
43.93369999999999
 20
145.8189999999999
 30
0.0
 11
43.93369999999999
 21
143.8189999999998
 31
0.0
  0
LINE
  5
9852
330
97EA
100
AcDbEntity
  8
1
  6
Continuous
100
AcDbLine
 10
27.9337
 20
95.81929999999998
 30
0.0
 11
27.9337
 21
109.8189999999999
 31
0.0
  0
LINE
  5
9853
330
97EA
100
AcDbEntity
  8
1
  6
Continuous
100
AcDbLine
 10
17.9337
 20
95.81929999999998
 30
0.0
 11
17.9337
 21
109.8189999999999
 31
0.0
  0
LINE
  5
9854
330
97EA
100
AcDbEntity
  8
1
  6
Continuous
100
AcDbLine
 10
26.2266
 20
97.76800000000001
 30
0.0
 11
26.2266
 21
107.9129999999999
 31
0.0
  0
LINE
  5
9855
330
97EA
100
AcDbEntity
  8
1
  6
Continuous
100
AcDbLine
 10
27.9337
 20
109.8189999999999
 30
0.0
 11
15.9337
 21
109.8189999999999
 31
0.0
  0
LINE
  5
9856
330
97EA
100
AcDbEntity
  8
1
  6
Continuous
100
AcDbLine
 10
27.9337
 20
95.81929999999998
 30
0.0
 11
15.9337
 21
95.81929999999998
 31
0.0
  0
LINE
  5
9857
330
97EA
100
AcDbEntity
  8
4
  6
CENTER
100
AcDbLine
 10
29.9337
 20
72.8193
 30
0.0
 11
21.9337
 21
72.8193
 31
0.0
  0
LINE
  5
9858
330
97EA
100
AcDbEntity
  8
4
  6
CENTER
100
AcDbLine
 10
25.9337
 20
76.8193
 30
0.0
 11
25.9337
 21
68.8193
 31
0.0
  0
LINE
  5
9859
330
97EA
100
AcDbEntity
  8
4
  6
CENTER
100
AcDbLine
 10
29.9337
 20
132.8189999999999
 30
0.0
 11
21.9337
 21
132.8189999999999
 31
0.0
  0
LINE
  5
985A
330
97EA
100
AcDbEntity
  8
4
  6
CENTER
100
AcDbLine
 10
25.9337
 20
136.819
 30
0.0
 11
25.9337
 21
128.8189999999999
 31
0.0
  0
LINE
  5
985B
330
97EA
100
AcDbEntity
  8
4
  6
CENTER
100
AcDbLine
 10
110.677
 20
72.8193
 30
0.0
 11
99.114
 21
72.8193
 31
0.0
  0
LINE
  5
985C
330
97EA
100
AcDbEntity
  8
4
  6
CENTER
100
AcDbLine
 10
110.8729999999999
 20
132.8189999999999
 30
0.0
 11
99.50600000000001
 21
132.8189999999999
 31
0.0
  0
LINE
  5
985D
330
97EA
100
AcDbEntity
  8
4
  6
CENTER
100
AcDbLine
 10
144.1929999999999
 20
232.6159999999999
 30
0.0
 11
133.1929999999998
 21
232.6159999999999
 31
0.0
  0
LINE
  5
985E
330
97EA
100
AcDbEntity
  8
4
  6
CENTER
100
AcDbLine
 10
138.6929999999999
 20
227.116
 30
0.0
 11
138.6929999999999
 21
238.1159999999999
 31
0.0
  0
LINE
  5
985F
330
97EA
100
AcDbEntity
  8
1
  6
Continuous
100
AcDbLine
 10
186.1509999999999
 20
277.5749999999998
 30
0.0
 11
197.1509999999999
 21
277.5749999999998
 31
0.0
  0
LINE
  5
9860
330
97EA
100
AcDbEntity
  8
1
  6
Continuous
100
AcDbLine
 10
197.1509999999999
 20
277.5749999999998
 30
0.0
 11
197.1509999999999
 21
260.075
 31
0.0
  0
LINE
  5
9861
330
97EA
100
AcDbEntity
  8
1
  6
Continuous
100
AcDbLine
 10
199.1509999999999
 20
258.077
 30
0.0
 11
206.651
 21
258.077
 31
0.0
  0
LINE
  5
9862
330
97EA
100
AcDbEntity
  8
1
  6
Continuous
100
AcDbLine
 10
199.1509999999999
 20
260.074
 30
0.0
 11
206.651
 21
260.074
 31
0.0
  0
LINE
  5
9863
330
97EA
100
AcDbEntity
  8
1
  6
Continuous
100
AcDbLine
 10
199.1509999999999
 20
277.5749999999998
 30
0.0
 11
199.1509999999999
 21
260.075
 31
0.0
  0
LINE
  5
9864
330
97EA
100
AcDbEntity
  8
1
  6
Continuous
100
AcDbLine
 10
186.1509999999999
 20
279.5749999999998
 30
0.0
 11
197.1509999999999
 21
279.5749999999998
 31
0.0
  0
LINE
  5
9865
330
97EA
100
AcDbEntity
  8
1
  6
Continuous
100
AcDbLine
 10
206.6519999999999
 20
258.075
 30
0.0
 11
206.6519999999999
 21
260.075
 31
0.0
  0
LINE
  5
9866
330
97EA
100
AcDbEntity
  8
1
  6
Continuous
100
AcDbLine
 10
186.1519999999999
 20
277.5749999999998
 30
0.0
 11
186.1519999999999
 21
279.5749999999998
 31
0.0
  0
LINE
  5
9867
330
97EA
100
AcDbEntity
  8
4
  6
CENTER
100
AcDbLine
 10
9.0484
 20
102.8189999999999
 30
0.0
 11
54.5203
 21
102.8189999999999
 31
0.0
  0
LINE
  5
9868
330
97EA
100
AcDbEntity
  8
4
  6
CENTER
100
AcDbLine
 10
84.33100000000001
 20
102.8189999999999
 30
0.0
 11
213.952
 21
102.8189999999999
 31
0.0
  0
LINE
  5
9869
330
97EA
100
AcDbEntity
  8
1
  6
Continuous
100
AcDbLine
 10
208.489
 20
64.8193
 30
0.0
 11
208.489
 21
140.8189999999999
 31
0.0
  0
LINE
  5
986A
330
97EA
100
AcDbEntity
  8
1
  6
Continuous
100
AcDbLine
 10
206.489
 20
62.8193
 30
0.0
 11
201.1179999999999
 21
62.8193
 31
0.0
  0
LINE
  5
986B
330
97EA
100
AcDbEntity
  8
1
  6
Continuous
100
AcDbLine
 10
206.489
 20
142.8189999999998
 30
0.0
 11
201.1179999999999
 21
142.8189999999998
 31
0.0
  0
LINE
  5
986C
330
97EA
100
AcDbEntity
  8
4
  6
CENTER
100
AcDbLine
 10
181.1939999999999
 20
250.2969999999999
 30
0.0
 11
181.1939999999999
 21
257.218
 31
0.0
  0
LINE
  5
986D
330
97EA
100
AcDbEntity
  8
4
  6
CENTER
100
AcDbLine
 10
133.1929999999998
 20
250.2969999999999
 30
0.0
 11
133.1929999999998
 21
257.218
 31
0.0
  0
LINE
  5
986E
330
97EA
100
AcDbEntity
  8
1
  6
Continuous
100
AcDbLine
 10
104.6929999999999
 20
57.8193
 30
0.0
 11
104.6929999999999
 21
147.8189999999998
 31
0.0
  0
LINE
  5
986F
330
97EA
100
AcDbEntity
  8
1
  6
Continuous
100
AcDbLine
 10
102.6929999999999
 20
57.8193
 30
0.0
 11
102.6929999999999
 21
147.8189999999998
 31
0.0
  0
LINE
  5
9870
330
97EA
100
AcDbEntity
  8
1
  6
Continuous
100
AcDbLine
 10
93.693
 20
109.8189999999999
 30
0.0
 11
102.6929999999999
 21
109.8189999999999
 31
0.0
  0
LINE
  5
9871
330
97EA
100
AcDbEntity
  8
1
  6
Continuous
100
AcDbLine
 10
104.6929999999999
 20
109.8189999999999
 30
0.0
 11
119.742
 21
109.8189999999999
 31
0.0
  0
LINE
  5
9872
330
97EA
100
AcDbEntity
  8
1
  6
Continuous
100
AcDbLine
 10
93.693
 20
95.81929999999998
 30
0.0
 11
102.6929999999999
 21
95.81929999999998
 31
0.0
  0
LINE
  5
9873
330
97EA
100
AcDbEntity
  8
1
  6
Continuous
100
AcDbLine
 10
104.6929999999999
 20
95.81929999999998
 30
0.0
 11
119.742
 21
95.81929999999998
 31
0.0
  0
LINE
  5
9874
330
97EA
100
AcDbEntity
  8
1
  6
Continuous
100
AcDbLine
 10
32.9337
 20
60.81929999999999
 30
0.0
 11
32.9337
 21
144.8189999999998
 31
0.0
  0
LINE
  5
9875
330
97EA
100
AcDbEntity
  8
5
  6
PHANTOM
100
AcDbLine
 10
125.3649999999999
 20
231.043
 30
0.0
 11
128.1939999999998
 21
235.067
 31
0.0
  0
LINE
  5
9876
330
97EA
100
AcDbEntity
  8
5
  6
PHANTOM
100
AcDbLine
 10
127.062
 20
233.4569999999999
 30
0.0
 11
128.1929999999998
 21
232.662
 31
0.0
  0
LINE
  5
9877
330
97EA
100
AcDbEntity
  8
5
  6
PHANTOM
100
AcDbLine
 10
142.9779999999998
 20
222.2719999999999
 30
0.0
 11
174.7859999999998
 21
199.919
 31
0.0
  0
LINE
  5
9878
330
97EA
100
AcDbEntity
  8
1
  6
Continuous
100
AcDbLine
 10
255.6249999999999
 20
153.8189999999999
 30
0.0
 11
257.4529999999999
 21
153.8189999999999
 31
0.0
  0
LINE
  5
9879
330
97EA
100
AcDbEntity
  8
1
  6
Continuous
100
AcDbLine
 10
255.6249999999999
 20
51.8193
 30
0.0
 11
257.4529999999999
 21
51.8193
 31
0.0
  0
LINE
  5
987A
330
97EA
100
AcDbEntity
  8
1
  6
Continuous
100
AcDbLine
 10
257.4529999999999
 20
153.8189999999999
 30
0.0
 11
257.4529999999999
 21
51.8193
 31
0.0
  0
LINE
  5
987B
330
97EA
100
AcDbEntity
  8
1
  6
Continuous
100
AcDbLine
 10
266.2529999999998
 20
57.3193
 30
0.0
 11
257.4529999999999
 21
57.3193
 31
0.0
  0
LINE
  5
987C
330
97EA
100
AcDbEntity
  8
1
  6
Continuous
100
AcDbLine
 10
266.2529999999998
 20
148.319
 30
0.0
 11
257.4529999999999
 21
148.319
 31
0.0
  0
LINE
  5
987D
330
97EA
100
AcDbEntity
  8
1
  6
Continuous
100
AcDbLine
 10
286.4529999999998
 20
147.8189999999998
 30
0.0
 11
286.4529999999998
 21
57.8193
 31
0.0
  0
LINE
  5
987E
330
97EA
100
AcDbEntity
  8
1
  6
Continuous
100
AcDbLine
 10
272.4529999999999
 20
147.8189999999998
 30
0.0
 11
286.4529999999998
 21
147.8189999999998
 31
0.0
  0
LINE
  5
987F
330
97EA
100
AcDbEntity
  8
1
  6
Continuous
100
AcDbLine
 10
272.4529999999999
 20
57.8193
 30
0.0
 11
286.4529999999998
 21
57.8193
 31
0.0
  0
LINE
  5
9880
330
97EA
100
AcDbEntity
  8
4
  6
CENTER
100
AcDbLine
 10
293.339
 20
102.8189999999999
 30
0.0
 11
247.867
 21
102.8189999999999
 31
0.0
  0
LINE
  5
9881
330
97EA
100
AcDbEntity
  8
1
  6
Continuous
100
AcDbLine
 10
274.2529999999998
 20
140.3189999999999
 30
0.0
 11
274.2529999999998
 21
132.8189999999999
 31
0.0
  0
LINE
  5
9882
330
97EA
100
AcDbEntity
  8
1
  6
Continuous
100
AcDbLine
 10
284.4529999999998
 20
112.419
 30
0.0
 11
277.4529999999999
 21
112.419
 31
0.0
  0
LINE
  5
9883
330
97EA
100
AcDbEntity
  8
1
  6
Continuous
100
AcDbLine
 10
284.4529999999998
 20
93.2193
 30
0.0
 11
277.4529999999999
 21
93.2193
 31
0.0
  0
LINE
  5
9884
330
97EA
100
AcDbEntity
  8
4
  6
CENTER
100
AcDbLine
 10
289.38
 20
72.8193
 30
0.0
 11
276.4529999999999
 21
72.8193
 31
0.0
  0
LINE
  5
9885
330
97EA
100
AcDbEntity
  8
4
  6
CENTER
100
AcDbLine
 10
289.678
 20
132.8189999999999
 30
0.0
 11
276.4529999999999
 21
132.8189999999999
 31
0.0
  0
LINE
  5
9886
330
97EA
100
AcDbEntity
  8
1
  6
Continuous
100
AcDbLine
 10
284.4529999999998
 20
137.8189999999999
 30
0.0
 11
274.2529999999998
 21
137.8189999999999
 31
0.0
  0
LINE
  5
9887
330
97EA
100
AcDbEntity
  8
1
  6
Continuous
100
AcDbLine
 10
284.4529999999998
 20
127.819
 30
0.0
 11
277.4529999999999
 21
127.819
 31
0.0
  0
LINE
  5
9888
330
97EA
100
AcDbEntity
  8
1
  6
Continuous
100
AcDbLine
 10
284.4529999999998
 20
77.8193
 30
0.0
 11
277.4529999999999
 21
77.8193
 31
0.0
  0
LINE
  5
9889
330
97EA
100
AcDbEntity
  8
1
  6
Continuous
100
AcDbLine
 10
284.4529999999998
 20
67.8193
 30
0.0
 11
274.2529999999998
 21
67.8193
 31
0.0
  0
LINE
  5
988A
330
97EA
100
AcDbEntity
  8
4
  6
CENTER
100
AcDbLine
 10
290.591
 20
120.3189999999999
 30
0.0
 11
274.3589999999999
 21
120.3189999999999
 31
0.0
  0
LINE
  5
988B
330
97EA
100
AcDbEntity
  8
4
  6
CENTER
100
AcDbLine
 10
289.5229999999999
 20
85.3193
 30
0.0
 11
273.505
 21
85.3193
 31
0.0
  0
LINE
  5
988C
330
97EA
100
AcDbEntity
  8
1
  6
Continuous
100
AcDbLine
 10
277.4529999999999
 20
131.8189999999999
 30
0.0
 11
277.4529999999999
 21
112.419
 31
0.0
  0
LINE
  5
988D
330
97EA
100
AcDbEntity
  8
1
  6
Continuous
100
AcDbLine
 10
284.4529999999998
 20
147.8189999999998
 30
0.0
 11
284.4529999999998
 21
57.8193
 31
0.0
  0
LINE
  5
988E
330
97EA
100
AcDbEntity
  8
1
  6
Continuous
100
AcDbLine
 10
276.4529999999999
 20
82.8193
 30
0.0
 11
257.4529999999999
 21
82.8193
 31
0.0
  0
LINE
  5
988F
330
97EA
100
AcDbEntity
  8
1
  6
Continuous
100
AcDbLine
 10
276.4529999999999
 20
122.819
 30
0.0
 11
257.4529999999999
 21
122.819
 31
0.0
  0
LINE
  5
9890
330
97EA
100
AcDbEntity
  8
1
  6
Continuous
100
AcDbLine
 10
276.4529999999999
 20
132.8189999999999
 30
0.0
 11
257.4529999999999
 21
132.8189999999999
 31
0.0
  0
LINE
  5
9891
330
97EA
100
AcDbEntity
  8
1
  6
Continuous
100
AcDbLine
 10
276.4529999999999
 20
72.8193
 30
0.0
 11
257.4529999999999
 21
72.8193
 31
0.0
  0
LINE
  5
9892
330
97EA
100
AcDbEntity
  8
1
  6
Continuous
100
AcDbLine
 10
274.2529999999998
 20
72.8193
 30
0.0
 11
274.2529999999998
 21
65.3193
 31
0.0
  0
LINE
  5
9893
330
97EA
100
AcDbEntity
  8
1
  6
Continuous
100
AcDbLine
 10
277.4529999999999
 20
93.2193
 30
0.0
 11
277.4529999999999
 21
73.8193
 31
0.0
  0
LINE
  5
9894
330
97EA
100
AcDbEntity
  8
1
  6
Continuous
100
AcDbLine
 10
308.362
 20
62.8193
 30
0.0
 11
308.362
 21
142.8189999999998
 31
0.0
  0
LINE
  5
9895
330
97EA
100
AcDbEntity
  8
1
  6
Continuous
100
AcDbLine
 10
310.362
 20
62.8193
 30
0.0
 11
310.362
 21
142.8189999999998
 31
0.0
  0
LINE
  5
9896
330
97EA
100
AcDbEntity
  8
1
  6
Continuous
100
AcDbLine
 10
329.8619999999999
 20
62.8193
 30
0.0
 11
329.8619999999999
 21
142.8189999999998
 31
0.0
  0
LINE
  5
9897
330
97EA
100
AcDbEntity
  8
1
  6
Continuous
100
AcDbLine
 10
308.362
 20
62.8193
 30
0.0
 11
329.8619999999999
 21
62.8193
 31
0.0
  0
LINE
  5
9898
330
97EA
100
AcDbEntity
  8
1
  6
Continuous
100
AcDbLine
 10
308.362
 20
142.8189999999998
 30
0.0
 11
329.8619999999999
 21
142.8189999999998
 31
0.0
  0
LINE
  5
9899
330
97EA
100
AcDbEntity
  8
4
  6
CENTER
100
AcDbLine
 10
192.1519999999999
 20
241.4629999999999
 30
0.0
 11
192.1519999999999
 21
251.36
 31
0.0
  0
LINE
  5
989A
330
97EA
100
AcDbEntity
  8
4
  6
CENTER
100
AcDbLine
 10
192.1519999999999
 20
273.7149999999999
 30
0.0
 11
192.1519999999999
 21
286.855
 31
0.0
  0
LINE
  5
989B
330
97EA
100
AcDbEntity
  8
4
  6
CENTER
100
AcDbLine
 10
303.865
 20
102.8189999999999
 30
0.0
 11
335.435
 21
102.8189999999999
 31
0.0
  0
LINE
  5
989C
330
97EA
100
AcDbEntity
  8
4
  6
CENTER
100
AcDbLine
 10
326.862
 20
77.8193
 30
0.0
 11
337.2619999999999
 21
77.8193
 31
0.0
  0
LINE
  5
989D
330
97EA
100
AcDbEntity
  8
4
  6
CENTER
100
AcDbLine
 10
326.862
 20
127.819
 30
0.0
 11
337.2619999999999
 21
127.819
 31
0.0
  0
LINE
  5
989E
330
97EA
100
AcDbEntity
  8
1
  6
Continuous
100
AcDbLine
 10
330.6619999999999
 20
132.8189999999999
 30
0.0
 11
330.6619999999999
 21
122.819
 31
0.0
  0
LINE
  5
989F
330
97EA
100
AcDbEntity
  8
1
  6
Continuous
100
AcDbLine
 10
331.6619999999999
 20
131.6189999999998
 30
0.0
 11
331.6619999999999
 21
124.0189999999999
 31
0.0
  0
LINE
  5
98A0
330
97EA
100
AcDbEntity
  8
1
  6
Continuous
100
AcDbLine
 10
331.6619999999999
 20
128.281
 30
0.0
 11
330.6619999999999
 21
127.4419999999999
 31
0.0
  0
LINE
  5
98A1
330
97EA
100
AcDbEntity
  8
1
  6
Continuous
100
AcDbLine
 10
331.6619999999999
 20
131.3189999999998
 30
0.0
 11
332.7809999999999
 21
131.221
 31
0.0
  0
LINE
  5
98A2
330
97EA
100
AcDbEntity
  8
1
  6
Continuous
100
AcDbLine
 10
331.6619999999999
 20
124.319
 30
0.0
 11
332.7809999999999
 21
124.4169999999999
 31
0.0
  0
LINE
  5
98A3
330
97EA
100
AcDbEntity
  8
1
  6
Continuous
100
AcDbLine
 10
451.5299999999998
 20
148.319
 30
0.0
 11
451.5299999999998
 21
147.8189999999998
 31
0.0
  0
LINE
  5
98A4
330
97EA
100
AcDbEntity
  8
1
  6
Continuous
100
AcDbLine
 10
477.0299999999998
 20
57.8193
 30
0.0
 11
395.5299999999999
 21
57.8193
 31
0.0
  0
LINE
  5
98A5
330
97EA
100
AcDbEntity
  8
1
  6
Continuous
100
AcDbLine
 10
477.0299999999998
 20
147.8189999999998
 30
0.0
 11
395.5299999999999
 21
147.8189999999998
 31
0.0
  0
LINE
  5
98A6
330
97EA
100
AcDbEntity
  8
1
  6
Continuous
100
AcDbLine
 10
487.0299999999998
 20
108.8189999999999
 30
0.0
 11
487.0299999999998
 21
96.81930000000001
 31
0.0
  0
LINE
  5
98A7
330
97EA
100
AcDbEntity
  8
4
  6
CENTER
100
AcDbLine
 10
471.457
 20
72.8193
 30
0.0
 11
482.269
 21
72.8193
 31
0.0
  0
LINE
  5
98A8
330
97EA
100
AcDbEntity
  8
4
  6
CENTER
100
AcDbLine
 10
471.6979999999998
 20
132.8189999999999
 30
0.0
 11
482.0289999999998
 21
132.8189999999999
 31
0.0
  0
LINE
  5
98A9
330
97EA
100
AcDbEntity
  8
4
  6
CENTER
100
AcDbLine
 10
495.392
 20
102.8189999999999
 30
0.0
 11
365.7709999999998
 21
102.8189999999999
 31
0.0
  0
LINE
  5
98AA
330
97EA
100
AcDbEntity
  8
1
  6
Continuous
100
AcDbLine
 10
391.7339999999999
 20
140.8189999999999
 30
0.0
 11
391.7339999999999
 21
114.819
 31
0.0
  0
LINE
  5
98AB
330
97EA
100
AcDbEntity
  8
1
  6
Continuous
100
AcDbLine
 10
389.7339999999999
 20
142.8189999999998
 30
0.0
 11
373.2339999999999
 21
142.8189999999998
 31
0.0
  0
LINE
  5
98AC
330
97EA
100
AcDbEntity
  8
1
  6
Continuous
100
AcDbLine
 10
389.7339999999999
 20
62.8193
 30
0.0
 11
373.2339999999999
 21
62.8193
 31
0.0
  0
LINE
  5
98AD
330
97EA
100
AcDbEntity
  8
1
  6
Continuous
100
AcDbLine
 10
477.0299999999998
 20
57.8193
 30
0.0
 11
477.0299999999998
 21
95.81929999999998
 31
0.0
  0
LINE
  5
98AE
330
97EA
100
AcDbEntity
  8
1
  6
Continuous
100
AcDbLine
 10
486.0299999999998
 20
109.8189999999999
 30
0.0
 11
475.03
 21
109.8189999999999
 31
0.0
  0
LINE
  5
98AF
330
97EA
100
AcDbEntity
  8
1
  6
Continuous
100
AcDbLine
 10
486.0299999999998
 20
95.81929999999998
 30
0.0
 11
475.03
 21
95.81929999999998
 31
0.0
  0
LINE
  5
98B0
330
97EA
100
AcDbEntity
  8
1
  6
Continuous
100
AcDbLine
 10
371.2339999999999
 20
140.8189999999999
 30
0.0
 11
371.2339999999999
 21
64.8193
 31
0.0
  0
LINE
  5
98B1
330
97EA
100
AcDbEntity
  8
1
  6
Continuous
100
AcDbLine
 10
386.734
 20
112.819
 30
0.0
 11
389.7339999999999
 21
112.819
 31
0.0
  0
LINE
  5
98B2
330
97EA
100
AcDbEntity
  8
1
  6
Continuous
100
AcDbLine
 10
386.734
 20
92.8193
 30
0.0
 11
389.7339999999999
 21
92.8193
 31
0.0
  0
LINE
  5
98B3
330
97EA
100
AcDbEntity
  8
1
  6
Continuous
100
AcDbLine
 10
386.734
 20
112.819
 30
0.0
 11
386.734
 21
92.8193
 31
0.0
  0
LINE
  5
98B4
330
97EA
100
AcDbEntity
  8
1
  6
Continuous
100
AcDbLine
 10
391.7339999999999
 20
90.81929999999998
 30
0.0
 11
391.7339999999999
 21
64.8193
 31
0.0
  0
LINE
  5
98B5
330
97EA
100
AcDbEntity
  8
1
  6
Continuous
100
AcDbLine
 10
389.5299999999999
 20
57.3193
 30
0.0
 11
451.5299999999998
 21
57.3193
 31
0.0
  0
LINE
  5
98B6
330
97EA
100
AcDbEntity
  8
1
  6
Continuous
100
AcDbLine
 10
389.5299999999999
 20
148.319
 30
0.0
 11
451.5299999999998
 21
148.319
 31
0.0
  0
LINE
  5
98B7
330
97EA
100
AcDbEntity
  8
1
  6
Continuous
100
AcDbLine
 10
386.406
 20
77.1477
 30
0.0
 11
386.9119999999999
 21
77.384
 31
0.0
  0
LINE
  5
98B8
330
97EA
100
AcDbEntity
  8
1
  6
Continuous
100
AcDbLine
 10
386.9119999999999
 20
77.384
 30
0.0
 11
387.7909999999998
 21
77.39929999999998
 31
0.0
  0
LINE
  5
98B9
330
97EA
100
AcDbEntity
  8
1
  6
Continuous
100
AcDbLine
 10
386.9119999999999
 20
78.2547
 30
0.0
 11
387.7909999999998
 21
78.2393
 31
0.0
  0
LINE
  5
98BA
330
97EA
100
AcDbEntity
  8
1
  6
Continuous
100
AcDbLine
 10
386.406
 20
78.49089999999998
 30
0.0
 11
386.9119999999999
 21
78.25459999999998
 31
0.0
  0
LINE
  5
98BB
330
97EA
100
AcDbEntity
  8
1
  6
Continuous
100
AcDbLine
 10
385.0619999999998
 20
78.49089999999998
 30
0.0
 11
385.2989999999999
 21
78.99769999999998
 31
0.0
  0
LINE
  5
98BC
330
97EA
100
AcDbEntity
  8
1
  6
Continuous
100
AcDbLine
 10
385.2989999999999
 20
78.9976
 30
0.0
 11
385.314
 21
79.8769
 31
0.0
  0
LINE
  5
98BD
330
97EA
100
AcDbEntity
  8
1
  6
Continuous
100
AcDbLine
 10
386.1689999999999
 20
78.99769999999998
 30
0.0
 11
386.154
 21
79.8769
 31
0.0
  0
LINE
  5
98BE
330
97EA
100
AcDbEntity
  8
1
  6
Continuous
100
AcDbLine
 10
386.406
 20
78.49089999999998
 30
0.0
 11
386.1689999999999
 21
78.99769999999998
 31
0.0
  0
LINE
  5
98BF
330
97EA
100
AcDbEntity
  8
1
  6
Continuous
100
AcDbLine
 10
385.0619999999998
 20
77.1477
 30
0.0
 11
384.5559999999999
 21
77.384
 31
0.0
  0
LINE
  5
98C0
330
97EA
100
AcDbEntity
  8
1
  6
Continuous
100
AcDbLine
 10
384.5559999999999
 20
77.384
 30
0.0
 11
383.6759999999999
 21
77.39929999999998
 31
0.0
  0
LINE
  5
98C1
330
97EA
100
AcDbEntity
  8
1
  6
Continuous
100
AcDbLine
 10
384.5559999999999
 20
78.2547
 30
0.0
 11
383.6759999999999
 21
78.2393
 31
0.0
  0
LINE
  5
98C2
330
97EA
100
AcDbEntity
  8
1
  6
Continuous
100
AcDbLine
 10
385.0619999999998
 20
78.49089999999998
 30
0.0
 11
384.5559999999999
 21
78.2547
 31
0.0
  0
LINE
  5
98C3
330
97EA
100
AcDbEntity
  8
1
  6
Continuous
100
AcDbLine
 10
386.406
 20
77.1477
 30
0.0
 11
386.1689999999999
 21
76.64100000000002
 31
0.0
  0
LINE
  5
98C4
330
97EA
100
AcDbEntity
  8
1
  6
Continuous
100
AcDbLine
 10
386.1689999999999
 20
76.64100000000002
 30
0.0
 11
386.154
 21
75.76170000000002
 31
0.0
  0
LINE
  5
98C5
330
97EA
100
AcDbEntity
  8
1
  6
Continuous
100
AcDbLine
 10
385.2989999999999
 20
76.64100000000002
 30
0.0
 11
385.314
 21
75.76170000000002
 31
0.0
  0
LINE
  5
98C6
330
97EA
100
AcDbEntity
  8
1
  6
Continuous
100
AcDbLine
 10
385.0619999999998
 20
77.1477
 30
0.0
 11
385.2989999999999
 21
76.64100000000002
 31
0.0
  0
LINE
  5
98C7
330
97EA
100
AcDbEntity
  8
1
  6
Continuous
100
AcDbLine
 10
386.406
 20
127.1479999999999
 30
0.0
 11
386.9119999999999
 21
127.384
 31
0.0
  0
LINE
  5
98C8
330
97EA
100
AcDbEntity
  8
1
  6
Continuous
100
AcDbLine
 10
386.9119999999999
 20
127.384
 30
0.0
 11
387.7909999999998
 21
127.3989999999999
 31
0.0
  0
LINE
  5
98C9
330
97EA
100
AcDbEntity
  8
1
  6
Continuous
100
AcDbLine
 10
386.9119999999999
 20
128.255
 30
0.0
 11
387.7909999999998
 21
128.239
 31
0.0
  0
LINE
  5
98CA
330
97EA
100
AcDbEntity
  8
1
  6
Continuous
100
AcDbLine
 10
386.406
 20
128.491
 30
0.0
 11
386.9119999999999
 21
128.255
 31
0.0
  0
LINE
  5
98CB
330
97EA
100
AcDbEntity
  8
1
  6
Continuous
100
AcDbLine
 10
385.0619999999998
 20
128.491
 30
0.0
 11
385.2989999999999
 21
128.9979999999999
 31
0.0
  0
LINE
  5
98CC
330
97EA
100
AcDbEntity
  8
1
  6
Continuous
100
AcDbLine
 10
385.2989999999999
 20
128.9979999999999
 30
0.0
 11
385.314
 21
129.877
 31
0.0
  0
LINE
  5
98CD
330
97EA
100
AcDbEntity
  8
1
  6
Continuous
100
AcDbLine
 10
386.1689999999999
 20
128.9979999999999
 30
0.0
 11
386.154
 21
129.877
 31
0.0
  0
LINE
  5
98CE
330
97EA
100
AcDbEntity
  8
1
  6
Continuous
100
AcDbLine
 10
386.406
 20
128.491
 30
0.0
 11
386.1689999999999
 21
128.9979999999999
 31
0.0
  0
LINE
  5
98CF
330
97EA
100
AcDbEntity
  8
1
  6
Continuous
100
AcDbLine
 10
385.0619999999998
 20
127.1479999999999
 30
0.0
 11
384.5559999999999
 21
127.384
 31
0.0
  0
LINE
  5
98D0
330
97EA
100
AcDbEntity
  8
1
  6
Continuous
100
AcDbLine
 10
384.5559999999999
 20
127.384
 30
0.0
 11
383.6759999999999
 21
127.3989999999999
 31
0.0
  0
LINE
  5
98D1
330
97EA
100
AcDbEntity
  8
1
  6
Continuous
100
AcDbLine
 10
384.5559999999999
 20
128.255
 30
0.0
 11
383.6759999999999
 21
128.239
 31
0.0
  0
LINE
  5
98D2
330
97EA
100
AcDbEntity
  8
1
  6
Continuous
100
AcDbLine
 10
385.0619999999998
 20
128.491
 30
0.0
 11
384.5559999999999
 21
128.255
 31
0.0
  0
LINE
  5
98D3
330
97EA
100
AcDbEntity
  8
1
  6
Continuous
100
AcDbLine
 10
386.406
 20
127.1479999999999
 30
0.0
 11
386.1689999999999
 21
126.641
 31
0.0
  0
LINE
  5
98D4
330
97EA
100
AcDbEntity
  8
1
  6
Continuous
100
AcDbLine
 10
386.1689999999999
 20
126.641
 30
0.0
 11
386.154
 21
125.7619999999999
 31
0.0
  0
LINE
  5
98D5
330
97EA
100
AcDbEntity
  8
1
  6
Continuous
100
AcDbLine
 10
385.2989999999999
 20
126.641
 30
0.0
 11
385.314
 21
125.7619999999999
 31
0.0
  0
LINE
  5
98D6
330
97EA
100
AcDbEntity
  8
1
  6
Continuous
100
AcDbLine
 10
385.0619999999998
 20
127.1479999999999
 30
0.0
 11
385.2989999999999
 21
126.641
 31
0.0
  0
LINE
  5
98D7
330
97EA
100
AcDbEntity
  8
4
  6
CENTER
100
AcDbLine
 10
392.2339999999999
 20
77.8193
 30
0.0
 11
379.2339999999999
 21
77.8193
 31
0.0
  0
LINE
  5
98D8
330
97EA
100
AcDbEntity
  8
4
  6
CENTER
100
AcDbLine
 10
385.7339999999999
 20
84.31929999999999
 30
0.0
 11
385.7339999999999
 21
71.3193
 31
0.0
  0
LINE
  5
98D9
330
97EA
100
AcDbEntity
  8
4
  6
CENTER
100
AcDbLine
 10
392.2339999999999
 20
127.819
 30
0.0
 11
379.2339999999999
 21
127.819
 31
0.0
  0
LINE
  5
98DA
330
97EA
100
AcDbEntity
  8
4
  6
CENTER
100
AcDbLine
 10
385.7339999999999
 20
134.3189999999998
 30
0.0
 11
385.7339999999999
 21
121.3189999999999
 31
0.0
  0
LINE
  5
98DB
330
97EA
100
AcDbEntity
  8
1
  6
Continuous
100
AcDbLine
 10
477.0299999999998
 20
110.019
 30
0.0
 11
475.03
 21
110.019
 31
0.0
  0
LINE
  5
98DC
330
97EA
100
AcDbEntity
  8
1
  6
Continuous
100
AcDbLine
 10
477.0299999999998
 20
95.6193
 30
0.0
 11
475.03
 21
95.6193
 31
0.0
  0
LINE
  5
98DD
330
97EA
100
AcDbEntity
  8
1
  6
Continuous
100
AcDbLine
 10
475.03
 20
95.6193
 30
0.0
 11
475.03
 21
110.019
 31
0.0
  0
LINE
  5
98DE
330
97EA
100
AcDbEntity
  8
1
  6
Continuous
100
AcDbLine
 10
392.53
 20
60.81929999999999
 30
0.0
 11
392.53
 21
144.8189999999998
 31
0.0
  0
LINE
  5
98DF
330
97EA
100
AcDbEntity
  8
1
  6
Continuous
100
AcDbLine
 10
451.5299999999998
 20
57.8193
 30
0.0
 11
451.5299999999998
 21
57.3193
 31
0.0
  0
LINE
  5
98E0
330
97EA
100
AcDbEntity
  8
1
  6
Continuous
100
AcDbLine
 10
447.223
 20
72.1263
 30
0.0
 11
447.7719999999997
 21
72.38240000000002
 31
0.0
  0
LINE
  5
98E1
330
97EA
100
AcDbEntity
  8
1
  6
Continuous
100
AcDbLine
 10
447.7719999999997
 20
72.38240000000002
 30
0.0
 11
448.74
 21
72.39929999999998
 31
0.0
  0
LINE
  5
98E2
330
97EA
100
AcDbEntity
  8
1
  6
Continuous
100
AcDbLine
 10
447.7719999999997
 20
73.2562
 30
0.0
 11
448.74
 21
73.2393
 31
0.0
  0
LINE
  5
98E3
330
97EA
100
AcDbEntity
  8
1
  6
Continuous
100
AcDbLine
 10
447.223
 20
73.51229999999998
 30
0.0
 11
447.7719999999997
 21
73.2562
 31
0.0
  0
LINE
  5
98E4
330
97EA
100
AcDbEntity
  8
1
  6
Continuous
100
AcDbLine
 10
445.837
 20
73.51229999999998
 30
0.0
 11
446.093
 21
74.0617
 31
0.0
  0
LINE
  5
98E5
330
97EA
100
AcDbEntity
  8
1
  6
Continuous
100
AcDbLine
 10
446.093
 20
74.0617
 30
0.0
 11
446.11
 21
75.02979999999998
 31
0.0
  0
LINE
  5
98E6
330
97EA
100
AcDbEntity
  8
1
  6
Continuous
100
AcDbLine
 10
446.9669999999998
 20
74.0617
 30
0.0
 11
446.95
 21
75.02979999999998
 31
0.0
  0
LINE
  5
98E7
330
97EA
100
AcDbEntity
  8
1
  6
Continuous
100
AcDbLine
 10
447.223
 20
73.5124
 30
0.0
 11
446.9669999999998
 21
74.0617
 31
0.0
  0
LINE
  5
98E8
330
97EA
100
AcDbEntity
  8
1
  6
Continuous
100
AcDbLine
 10
445.837
 20
72.12619999999998
 30
0.0
 11
445.2869999999998
 21
72.38240000000002
 31
0.0
  0
LINE
  5
98E9
330
97EA
100
AcDbEntity
  8
1
  6
Continuous
100
AcDbLine
 10
445.2869999999998
 20
72.38240000000002
 30
0.0
 11
444.319
 21
72.39929999999998
 31
0.0
  0
LINE
  5
98EA
330
97EA
100
AcDbEntity
  8
1
  6
Continuous
100
AcDbLine
 10
445.2869999999998
 20
73.2562
 30
0.0
 11
444.319
 21
73.2393
 31
0.0
  0
LINE
  5
98EB
330
97EA
100
AcDbEntity
  8
1
  6
Continuous
100
AcDbLine
 10
445.837
 20
73.5124
 30
0.0
 11
445.2869999999998
 21
73.2562
 31
0.0
  0
LINE
  5
98EC
330
97EA
100
AcDbEntity
  8
1
  6
Continuous
100
AcDbLine
 10
447.223
 20
72.1263
 30
0.0
 11
446.9669999999998
 21
71.57689999999998
 31
0.0
  0
LINE
  5
98ED
330
97EA
100
AcDbEntity
  8
1
  6
Continuous
100
AcDbLine
 10
446.9669999999998
 20
71.57689999999998
 30
0.0
 11
446.95
 21
70.60890000000002
 31
0.0
  0
LINE
  5
98EE
330
97EA
100
AcDbEntity
  8
1
  6
Continuous
100
AcDbLine
 10
446.093
 20
71.57689999999998
 30
0.0
 11
446.11
 21
70.60890000000002
 31
0.0
  0
LINE
  5
98EF
330
97EA
100
AcDbEntity
  8
1
  6
Continuous
100
AcDbLine
 10
445.837
 20
72.12619999999998
 30
0.0
 11
446.093
 21
71.57689999999998
 31
0.0
  0
LINE
  5
98F0
330
97EA
100
AcDbEntity
  8
1
  6
Continuous
100
AcDbLine
 10
447.223
 20
132.126
 30
0.0
 11
447.7719999999997
 21
132.3819999999997
 31
0.0
  0
LINE
  5
98F1
330
97EA
100
AcDbEntity
  8
1
  6
Continuous
100
AcDbLine
 10
447.7719999999997
 20
132.3819999999997
 30
0.0
 11
448.74
 21
132.399
 31
0.0
  0
LINE
  5
98F2
330
97EA
100
AcDbEntity
  8
1
  6
Continuous
100
AcDbLine
 10
447.7719999999997
 20
133.2559999999998
 30
0.0
 11
448.74
 21
133.2389999999997
 31
0.0
  0
LINE
  5
98F3
330
97EA
100
AcDbEntity
  8
1
  6
Continuous
100
AcDbLine
 10
447.223
 20
133.512
 30
0.0
 11
447.7719999999997
 21
133.2559999999998
 31
0.0
  0
LINE
  5
98F4
330
97EA
100
AcDbEntity
  8
1
  6
Continuous
100
AcDbLine
 10
445.837
 20
133.512
 30
0.0
 11
446.093
 21
134.062
 31
0.0
  0
LINE
  5
98F5
330
97EA
100
AcDbEntity
  8
1
  6
Continuous
100
AcDbLine
 10
446.093
 20
134.062
 30
0.0
 11
446.11
 21
135.03
 31
0.0
  0
LINE
  5
98F6
330
97EA
100
AcDbEntity
  8
1
  6
Continuous
100
AcDbLine
 10
446.9669999999998
 20
134.062
 30
0.0
 11
446.95
 21
135.03
 31
0.0
  0
LINE
  5
98F7
330
97EA
100
AcDbEntity
  8
1
  6
Continuous
100
AcDbLine
 10
447.223
 20
133.512
 30
0.0
 11
446.9669999999998
 21
134.062
 31
0.0
  0
LINE
  5
98F8
330
97EA
100
AcDbEntity
  8
1
  6
Continuous
100
AcDbLine
 10
445.837
 20
132.126
 30
0.0
 11
445.2869999999998
 21
132.3819999999997
 31
0.0
  0
LINE
  5
98F9
330
97EA
100
AcDbEntity
  8
1
  6
Continuous
100
AcDbLine
 10
445.2869999999998
 20
132.3819999999997
 30
0.0
 11
444.319
 21
132.399
 31
0.0
  0
LINE
  5
98FA
330
97EA
100
AcDbEntity
  8
1
  6
Continuous
100
AcDbLine
 10
445.2869999999998
 20
133.2559999999998
 30
0.0
 11
444.319
 21
133.2389999999997
 31
0.0
  0
LINE
  5
98FB
330
97EA
100
AcDbEntity
  8
1
  6
Continuous
100
AcDbLine
 10
445.837
 20
133.512
 30
0.0
 11
445.2869999999998
 21
133.2559999999998
 31
0.0
  0
LINE
  5
98FC
330
97EA
100
AcDbEntity
  8
1
  6
Continuous
100
AcDbLine
 10
447.223
 20
132.126
 30
0.0
 11
446.9669999999998
 21
131.577
 31
0.0
  0
LINE
  5
98FD
330
97EA
100
AcDbEntity
  8
1
  6
Continuous
100
AcDbLine
 10
446.9669999999998
 20
131.577
 30
0.0
 11
446.95
 21
130.609
 31
0.0
  0
LINE
  5
98FE
330
97EA
100
AcDbEntity
  8
1
  6
Continuous
100
AcDbLine
 10
446.093
 20
131.577
 30
0.0
 11
446.11
 21
130.609
 31
0.0
  0
LINE
  5
98FF
330
97EA
100
AcDbEntity
  8
1
  6
Continuous
100
AcDbLine
 10
445.837
 20
132.126
 30
0.0
 11
446.093
 21
131.577
 31
0.0
  0
LINE
  5
9900
330
97EA
100
AcDbEntity
  8
1
  6
Continuous
100
AcDbLine
 10
399.223
 20
84.62619999999999
 30
0.0
 11
399.772
 21
84.88240000000002
 31
0.0
  0
LINE
  5
9901
330
97EA
100
AcDbEntity
  8
1
  6
Continuous
100
AcDbLine
 10
399.772
 20
84.88240000000002
 30
0.0
 11
400.74
 21
84.89929999999999
 31
0.0
  0
LINE
  5
9902
330
97EA
100
AcDbEntity
  8
1
  6
Continuous
100
AcDbLine
 10
399.772
 20
85.7562
 30
0.0
 11
400.74
 21
85.7393
 31
0.0
  0
LINE
  5
9903
330
97EA
100
AcDbEntity
  8
1
  6
Continuous
100
AcDbLine
 10
399.223
 20
86.01229999999999
 30
0.0
 11
399.772
 21
85.7562
 31
0.0
  0
LINE
  5
9904
330
97EA
100
AcDbEntity
  8
1
  6
Continuous
100
AcDbLine
 10
397.8369999999999
 20
86.0124
 30
0.0
 11
398.093
 21
86.56170000000001
 31
0.0
  0
LINE
  5
9905
330
97EA
100
AcDbEntity
  8
1
  6
Continuous
100
AcDbLine
 10
398.093
 20
86.56170000000001
 30
0.0
 11
398.1099999999998
 21
87.52970000000003
 31
0.0
  0
LINE
  5
9906
330
97EA
100
AcDbEntity
  8
1
  6
Continuous
100
AcDbLine
 10
398.9669999999999
 20
86.56170000000001
 30
0.0
 11
398.9499999999999
 21
87.52979999999999
 31
0.0
  0
LINE
  5
9907
330
97EA
100
AcDbEntity
  8
1
  6
Continuous
100
AcDbLine
 10
399.223
 20
86.0124
 30
0.0
 11
398.9669999999999
 21
86.56170000000001
 31
0.0
  0
LINE
  5
9908
330
97EA
100
AcDbEntity
  8
1
  6
Continuous
100
AcDbLine
 10
397.8369999999999
 20
84.62619999999999
 30
0.0
 11
397.2869999999998
 21
84.88240000000002
 31
0.0
  0
LINE
  5
9909
330
97EA
100
AcDbEntity
  8
1
  6
Continuous
100
AcDbLine
 10
397.2869999999998
 20
84.88240000000002
 30
0.0
 11
396.319
 21
84.89929999999999
 31
0.0
  0
LINE
  5
990A
330
97EA
100
AcDbEntity
  8
1
  6
Continuous
100
AcDbLine
 10
397.2869999999998
 20
85.7562
 30
0.0
 11
396.319
 21
85.7393
 31
0.0
  0
LINE
  5
990B
330
97EA
100
AcDbEntity
  8
1
  6
Continuous
100
AcDbLine
 10
397.8369999999999
 20
86.0124
 30
0.0
 11
397.2869999999998
 21
85.7562
 31
0.0
  0
LINE
  5
990C
330
97EA
100
AcDbEntity
  8
1
  6
Continuous
100
AcDbLine
 10
399.223
 20
84.6263
 30
0.0
 11
398.9669999999999
 21
84.07689999999998
 31
0.0
  0
LINE
  5
990D
330
97EA
100
AcDbEntity
  8
1
  6
Continuous
100
AcDbLine
 10
398.9669999999999
 20
84.07689999999998
 30
0.0
 11
398.9499999999999
 21
83.1089
 31
0.0
  0
LINE
  5
990E
330
97EA
100
AcDbEntity
  8
1
  6
Continuous
100
AcDbLine
 10
398.093
 20
84.07689999999998
 30
0.0
 11
398.1099999999998
 21
83.1089
 31
0.0
  0
LINE
  5
990F
330
97EA
100
AcDbEntity
  8
1
  6
Continuous
100
AcDbLine
 10
397.8369999999999
 20
84.6263
 30
0.0
 11
398.093
 21
84.07689999999998
 31
0.0
  0
LINE
  5
9910
330
97EA
100
AcDbEntity
  8
1
  6
Continuous
100
AcDbLine
 10
399.223
 20
119.626
 30
0.0
 11
399.772
 21
119.8819999999999
 31
0.0
  0
LINE
  5
9911
330
97EA
100
AcDbEntity
  8
1
  6
Continuous
100
AcDbLine
 10
399.772
 20
119.8819999999999
 30
0.0
 11
400.74
 21
119.899
 31
0.0
  0
LINE
  5
9912
330
97EA
100
AcDbEntity
  8
1
  6
Continuous
100
AcDbLine
 10
399.772
 20
120.7559999999999
 30
0.0
 11
400.74
 21
120.7389999999999
 31
0.0
  0
LINE
  5
9913
330
97EA
100
AcDbEntity
  8
1
  6
Continuous
100
AcDbLine
 10
399.223
 20
121.012
 30
0.0
 11
399.772
 21
120.7559999999999
 31
0.0
  0
LINE
  5
9914
330
97EA
100
AcDbEntity
  8
1
  6
Continuous
100
AcDbLine
 10
397.8369999999999
 20
121.012
 30
0.0
 11
398.093
 21
121.562
 31
0.0
  0
LINE
  5
9915
330
97EA
100
AcDbEntity
  8
1
  6
Continuous
100
AcDbLine
 10
398.093
 20
121.562
 30
0.0
 11
398.1099999999998
 21
122.53
 31
0.0
  0
LINE
  5
9916
330
97EA
100
AcDbEntity
  8
1
  6
Continuous
100
AcDbLine
 10
398.9669999999999
 20
121.562
 30
0.0
 11
398.9499999999999
 21
122.53
 31
0.0
  0
LINE
  5
9917
330
97EA
100
AcDbEntity
  8
1
  6
Continuous
100
AcDbLine
 10
399.223
 20
121.012
 30
0.0
 11
398.9669999999999
 21
121.562
 31
0.0
  0
LINE
  5
9918
330
97EA
100
AcDbEntity
  8
1
  6
Continuous
100
AcDbLine
 10
397.8369999999999
 20
119.626
 30
0.0
 11
397.2869999999998
 21
119.8819999999999
 31
0.0
  0
LINE
  5
9919
330
97EA
100
AcDbEntity
  8
1
  6
Continuous
100
AcDbLine
 10
397.2869999999998
 20
119.8819999999999
 30
0.0
 11
396.319
 21
119.899
 31
0.0
  0
LINE
  5
991A
330
97EA
100
AcDbEntity
  8
1
  6
Continuous
100
AcDbLine
 10
397.2869999999998
 20
120.7559999999999
 30
0.0
 11
396.319
 21
120.7389999999999
 31
0.0
  0
LINE
  5
991B
330
97EA
100
AcDbEntity
  8
1
  6
Continuous
100
AcDbLine
 10
397.8369999999999
 20
121.012
 30
0.0
 11
397.2869999999998
 21
120.7559999999999
 31
0.0
  0
LINE
  5
991C
330
97EA
100
AcDbEntity
  8
1
  6
Continuous
100
AcDbLine
 10
399.223
 20
119.626
 30
0.0
 11
398.9669999999999
 21
119.077
 31
0.0
  0
LINE
  5
991D
330
97EA
100
AcDbEntity
  8
1
  6
Continuous
100
AcDbLine
 10
398.9669999999999
 20
119.077
 30
0.0
 11
398.9499999999999
 21
118.1089999999999
 31
0.0
  0
LINE
  5
991E
330
97EA
100
AcDbEntity
  8
1
  6
Continuous
100
AcDbLine
 10
398.093
 20
119.077
 30
0.0
 11
398.1099999999998
 21
118.1089999999999
 31
0.0
  0
LINE
  5
991F
330
97EA
100
AcDbEntity
  8
1
  6
Continuous
100
AcDbLine
 10
397.8369999999999
 20
119.626
 30
0.0
 11
398.093
 21
119.077
 31
0.0
  0
LINE
  5
9920
330
97EA
100
AcDbEntity
  8
4
  6
CENTER
100
AcDbLine
 10
414.5299999999998
 20
85.3193
 30
0.0
 11
407.5299999999998
 21
85.3193
 31
0.0
  0
LINE
  5
9921
330
97EA
100
AcDbEntity
  8
4
  6
CENTER
100
AcDbLine
 10
411.0299999999998
 20
88.8193
 30
0.0
 11
411.0299999999998
 21
81.81929999999999
 31
0.0
  0
LINE
  5
9922
330
97EA
100
AcDbEntity
  8
4
  6
CENTER
100
AcDbLine
 10
414.5299999999998
 20
120.3189999999999
 30
0.0
 11
407.5299999999998
 21
120.3189999999999
 31
0.0
  0
LINE
  5
9923
330
97EA
100
AcDbEntity
  8
4
  6
CENTER
100
AcDbLine
 10
411.0299999999998
 20
123.819
 30
0.0
 11
411.0299999999998
 21
116.819
 31
0.0
  0
LINE
  5
9924
330
97EA
100
AcDbEntity
  8
4
  6
CENTER
100
AcDbLine
 10
404.03
 20
120.3189999999999
 30
0.0
 11
393.0299999999999
 21
120.3189999999999
 31
0.0
  0
LINE
  5
9925
330
97EA
100
AcDbEntity
  8
4
  6
CENTER
100
AcDbLine
 10
398.5299999999999
 20
125.819
 30
0.0
 11
398.5299999999999
 21
114.819
 31
0.0
  0
LINE
  5
9926
330
97EA
100
AcDbEntity
  8
4
  6
CENTER
100
AcDbLine
 10
404.03
 20
85.3193
 30
0.0
 11
393.0299999999999
 21
85.3193
 31
0.0
  0
LINE
  5
9927
330
97EA
100
AcDbEntity
  8
4
  6
CENTER
100
AcDbLine
 10
398.5299999999999
 20
90.81929999999998
 30
0.0
 11
398.5299999999999
 21
79.8193
 31
0.0
  0
LINE
  5
9928
330
97EA
100
AcDbEntity
  8
4
  6
CENTER
100
AcDbLine
 10
452.0299999999998
 20
72.8193
 30
0.0
 11
441.0299999999998
 21
72.8193
 31
0.0
  0
LINE
  5
9929
330
97EA
100
AcDbEntity
  8
4
  6
CENTER
100
AcDbLine
 10
446.53
 20
78.31929999999998
 30
0.0
 11
446.53
 21
67.3193
 31
0.0
  0
LINE
  5
992A
330
97EA
100
AcDbEntity
  8
4
  6
CENTER
100
AcDbLine
 10
452.0299999999998
 20
132.8189999999999
 30
0.0
 11
441.0299999999998
 21
132.8189999999999
 31
0.0
  0
LINE
  5
992B
330
97EA
100
AcDbEntity
  8
4
  6
CENTER
100
AcDbLine
 10
446.53
 20
138.3189999999999
 30
0.0
 11
446.53
 21
127.319
 31
0.0
  0
LINE
  5
992C
330
97EA
100
AcDbEntity
  8
1
  6
Continuous
100
AcDbLine
 10
390.0299999999999
 20
92.7973
 30
0.0
 11
390.0299999999999
 21
112.8409999999999
 31
0.0
  0
LINE
  5
992D
330
97EA
100
AcDbEntity
  8
1
  6
Continuous
100
AcDbLine
 10
392.53
 20
112.419
 30
0.0
 11
390.0299999999999
 21
112.419
 31
0.0
  0
LINE
  5
992E
330
97EA
100
AcDbEntity
  8
1
  6
Continuous
100
AcDbLine
 10
392.53
 20
93.2193
 30
0.0
 11
390.0299999999999
 21
93.2193
 31
0.0
  0
LINE
  5
992F
330
97EA
100
AcDbEntity
  8
1
  6
Continuous
100
AcDbLine
 10
392.53
 20
72.8193
 30
0.0
 11
391.7339999999999
 21
72.8193
 31
0.0
  0
LINE
  5
9930
330
97EA
100
AcDbEntity
  8
1
  6
Continuous
100
AcDbLine
 10
392.53
 20
132.8189999999999
 30
0.0
 11
391.7339999999999
 21
132.8189999999999
 31
0.0
  0
LINE
  5
9931
330
97EA
100
AcDbEntity
  8
1
  6
Continuous
100
AcDbLine
 10
151.6939999999999
 20
245.616
 30
0.0
 11
163.6939999999999
 21
245.616
 31
0.0
  0
LINE
  5
9932
330
97EA
100
AcDbEntity
  8
1
  6
Continuous
100
AcDbLine
 10
175.6939999999999
 20
245.616
 30
0.0
 11
175.6939999999999
 21
253.6159999999999
 31
0.0
  0
LINE
  5
9933
330
97EA
100
AcDbEntity
  8
1
  6
Continuous
100
AcDbLine
 10
173.592
 20
245.616
 30
0.0
 11
175.6939999999999
 21
245.616
 31
0.0
  0
LINE
  5
9934
330
97EA
100
AcDbEntity
  8
1
  6
Continuous
100
AcDbLine
 10
284.4529999999998
 20
90.3193
 30
0.0
 11
277.4529999999999
 21
90.3193
 31
0.0
  0
LINE
  5
9935
330
97EA
100
AcDbEntity
  8
1
  6
Continuous
100
AcDbLine
 10
284.4529999999998
 20
80.3193
 30
0.0
 11
277.4529999999999
 21
80.3193
 31
0.0
  0
LINE
  5
9936
330
97EA
100
AcDbEntity
  8
1
  6
Continuous
100
AcDbLine
 10
284.4529999999998
 20
125.319
 30
0.0
 11
277.4529999999999
 21
125.319
 31
0.0
  0
LINE
  5
9937
330
97EA
100
AcDbEntity
  8
1
  6
Continuous
100
AcDbLine
 10
284.4529999999998
 20
115.319
 30
0.0
 11
277.4529999999999
 21
115.319
 31
0.0
  0
LINE
  5
9938
330
97EA
100
AcDbEntity
  8
1
  6
Continuous
100
AcDbLine
 10
272.745
 20
122.819
 30
0.0
 11
272.745
 21
82.8193
 31
0.0
  0
LINE
  5
9939
330
97EA
100
AcDbEntity
  8
4
  6
CENTER
100
AcDbLine
 10
277.4529999999999
 20
127.819
 30
0.0
 11
251.2299999999999
 21
127.819
 31
0.0
  0
LINE
  5
993A
330
97EA
100
AcDbEntity
  8
4
  6
CENTER
100
AcDbLine
 10
277.4529999999999
 20
77.8193
 30
0.0
 11
251.88
 21
77.8193
 31
0.0
  0
LINE
  5
993B
330
97EA
100
AcDbEntity
  8
4
  6
CENTER
100
AcDbLine
 10
29.86909999999999
 20
77.8193
 30
0.0
 11
51.7175
 21
77.8193
 31
0.0
  0
LINE
  5
993C
330
97EA
100
AcDbEntity
  8
4
  6
CENTER
100
AcDbLine
 10
29.86909999999999
 20
127.819
 30
0.0
 11
51.7175
 21
127.819
 31
0.0
  0
LINE
  5
993D
330
97EA
100
AcDbEntity
  8
1
  6
Continuous
100
AcDbLine
 10
330.6619999999999
 20
124.0189999999999
 30
0.0
 11
331.6619999999999
 21
124.0189999999999
 31
0.0
  0
LINE
  5
993E
330
97EA
100
AcDbEntity
  8
1
  6
Continuous
100
AcDbLine
 10
330.6619999999999
 20
131.6189999999998
 30
0.0
 11
331.6619999999999
 21
131.6189999999998
 31
0.0
  0
LINE
  5
993F
330
97EA
100
AcDbEntity
  8
1
  6
Continuous
100
AcDbLine
 10
329.8619999999999
 20
132.8189999999999
 30
0.0
 11
330.6619999999999
 21
132.8189999999999
 31
0.0
  0
LINE
  5
9940
330
97EA
100
AcDbEntity
  8
1
  6
Continuous
100
AcDbLine
 10
329.8619999999999
 20
122.819
 30
0.0
 11
330.6619999999999
 21
122.819
 31
0.0
  0
LINE
  5
9941
330
97EA
100
AcDbEntity
  8
1
  6
Continuous
100
AcDbLine
 10
197.1519999999999
 20
280.3749999999999
 30
0.0
 11
187.1519999999999
 21
280.3749999999999
 31
0.0
  0
LINE
  5
9942
330
97EA
100
AcDbEntity
  8
1
  6
Continuous
100
AcDbLine
 10
197.1519999999999
 20
279.5749999999998
 30
0.0
 11
197.1519999999999
 21
280.3749999999999
 31
0.0
  0
LINE
  5
9943
330
97EA
100
AcDbEntity
  8
1
  6
Continuous
100
AcDbLine
 10
195.9519999999999
 20
280.3749999999999
 30
0.0
 11
195.9519999999999
 21
281.375
 31
0.0
  0
LINE
  5
9944
330
97EA
100
AcDbEntity
  8
1
  6
Continuous
100
AcDbLine
 10
195.9519999999999
 20
281.375
 30
0.0
 11
188.352
 21
281.375
 31
0.0
  0
LINE
  5
9945
330
97EA
100
AcDbEntity
  8
1
  6
Continuous
100
AcDbLine
 10
195.6519999999999
 20
281.375
 30
0.0
 11
195.554
 21
282.495
 31
0.0
  0
LINE
  5
9946
330
97EA
100
AcDbEntity
  8
1
  6
Continuous
100
AcDbLine
 10
188.6519999999999
 20
281.375
 30
0.0
 11
188.75
 21
282.4940000000001
 31
0.0
  0
LINE
  5
9947
330
97EA
100
AcDbEntity
  8
1
  6
Continuous
100
AcDbLine
 10
188.352
 20
280.3749999999999
 30
0.0
 11
188.352
 21
281.375
 31
0.0
  0
LINE
  5
9948
330
97EA
100
AcDbEntity
  8
1
  6
Continuous
100
AcDbLine
 10
187.1519999999999
 20
279.5749999999998
 30
0.0
 11
187.1519999999999
 21
280.3749999999999
 31
0.0
  0
LINE
  5
9949
330
97EA
100
AcDbEntity
  8
1
  6
Continuous
100
AcDbLine
 10
191.6909999999998
 20
281.375
 30
0.0
 11
192.53
 21
280.3749999999999
 31
0.0
  0
LINE
  5
994A
330
97EA
100
AcDbEntity
  8
1
  6
Continuous
100
AcDbLine
 10
330.6619999999999
 20
82.8193
 30
0.0
 11
330.6619999999999
 21
72.8193
 31
0.0
  0
LINE
  5
994B
330
97EA
100
AcDbEntity
  8
1
  6
Continuous
100
AcDbLine
 10
331.6619999999999
 20
81.61929999999998
 30
0.0
 11
331.6619999999999
 21
74.0193
 31
0.0
  0
LINE
  5
994C
330
97EA
100
AcDbEntity
  8
1
  6
Continuous
100
AcDbLine
 10
331.6619999999999
 20
78.28069999999998
 30
0.0
 11
330.6619999999999
 21
77.44159999999998
 31
0.0
  0
LINE
  5
994D
330
97EA
100
AcDbEntity
  8
1
  6
Continuous
100
AcDbLine
 10
331.6619999999999
 20
81.3193
 30
0.0
 11
332.7809999999999
 21
81.22139999999998
 31
0.0
  0
LINE
  5
994E
330
97EA
100
AcDbEntity
  8
1
  6
Continuous
100
AcDbLine
 10
331.6619999999999
 20
74.3193
 30
0.0
 11
332.7809999999999
 21
74.41719999999998
 31
0.0
  0
LINE
  5
994F
330
97EA
100
AcDbEntity
  8
1
  6
Continuous
100
AcDbLine
 10
330.6619999999999
 20
74.0193
 30
0.0
 11
331.6619999999999
 21
74.0193
 31
0.0
  0
LINE
  5
9950
330
97EA
100
AcDbEntity
  8
1
  6
Continuous
100
AcDbLine
 10
330.6619999999999
 20
81.61929999999998
 30
0.0
 11
331.6619999999999
 21
81.61929999999998
 31
0.0
  0
LINE
  5
9951
330
97EA
100
AcDbEntity
  8
1
  6
Continuous
100
AcDbLine
 10
329.8619999999999
 20
82.8193
 30
0.0
 11
330.6619999999999
 21
82.8193
 31
0.0
  0
LINE
  5
9952
330
97EA
100
AcDbEntity
  8
1
  6
Continuous
100
AcDbLine
 10
329.8619999999999
 20
72.8193
 30
0.0
 11
330.6619999999999
 21
72.8193
 31
0.0
  0
ARC
  5
9953
330
97EA
100
AcDbEntity
  8
1
  6
Continuous
100
AcDbCircle
 10
161.1939999999998
 20
-346.1809999999999
 30
0.0
 40
500.0
100
AcDbArc
 50
86.102
 51
93.89799999999999
  0
ARC
  5
9954
330
97EA
100
AcDbEntity
  8
1
  6
Continuous
100
AcDbCircle
 10
161.1939999999998
 20
551.8189999999998
 30
0.0
 40
500.0
100
AcDbArc
 50
266.1019999999999
 51
273.8979999999999
  0
ARC
  5
9955
330
97EA
100
AcDbEntity
  8
1
  6
Continuous
100
AcDbCircle
 10
-305.807
 20
102.8189999999999
 30
0.0
 40
508.4999999999998
100
AcDbArc
 50
354.9929999999998
 51
5.006999999999997
  0
ARC
  5
9956
330
97EA
100
AcDbEntity
  8
1
  6
Continuous
100
AcDbCircle
 10
-305.807
 20
102.8189999999999
 30
0.0
 40
500.0
100
AcDbArc
 50
355.384
 51
4.616299999999998
  0
ARC
  5
9957
330
97EA
100
AcDbEntity
  8
1
  6
Continuous
100
AcDbCircle
 10
127.611
 20
146.6769999999999
 30
0.0
 40
6.0
100
AcDbArc
 50
93.89799999999999
 51
174.993
  0
ARC
  5
9958
330
97EA
100
AcDbEntity
  8
1
  6
Continuous
100
AcDbCircle
 10
194.7759999999999
 20
146.6769999999999
 30
0.0
 40
6.0
100
AcDbArc
 50
5.006999999999997
 51
86.102
  0
ARC
  5
9959
330
97EA
100
AcDbEntity
  8
1
  6
Continuous
100
AcDbCircle
 10
194.7759999999999
 20
58.96209999999999
 30
0.0
 40
6.0
100
AcDbArc
 50
273.8979999999999
 51
354.9929999999998
  0
ARC
  5
995A
330
97EA
100
AcDbEntity
  8
1
  6
Continuous
100
AcDbCircle
 10
127.611
 20
58.96209999999999
 30
0.0
 40
6.0
100
AcDbArc
 50
185.007
 51
266.1019999999999
  0
ARC
  5
995B
330
97EA
100
AcDbEntity
  8
1
  6
Continuous
100
AcDbCircle
 10
189.5809999999999
 20
142.8189999999998
 30
0.0
 40
3.0
100
AcDbArc
 50
4.616299999999998
 51
90.0
  0
ARC
  5
995C
330
97EA
100
AcDbEntity
  8
1
  6
Continuous
100
AcDbCircle
 10
189.5809999999999
 20
62.8193
 30
0.0
 40
3.0
100
AcDbArc
 50
270.0
 51
355.384
  0
ARC
  5
995D
330
97EA
100
AcDbEntity
  8
1
  6
Continuous
100
AcDbCircle
 10
-305.307
 20
102.8189999999999
 30
0.0
 40
498.0
100
AcDbArc
 50
355.423
 51
356.1809999999999
  0
ARC
  5
995E
330
97EA
100
AcDbEntity
  8
1
  6
Continuous
100
AcDbCircle
 10
181.61
 20
70.3193
 30
0.0
 40
10.0
100
AcDbArc
 50
356.1809999999999
 51
63.1671
  0
ARC
  5
995F
330
97EA
100
AcDbEntity
  8
1
  6
Continuous
100
AcDbCircle
 10
188.115
 20
63.31929999999999
 30
0.0
 40
3.0
100
AcDbArc
 50
270.0
 51
355.423
  0
ARC
  5
9960
330
97EA
100
AcDbEntity
  8
1
  6
Continuous
100
AcDbCircle
 10
208.6939999999999
 20
123.859
 30
0.0
 40
50.0
100
AcDbArc
 50
180.0
 51
243.1669999999999
  0
ARC
  5
9961
330
97EA
100
AcDbEntity
  8
1
  6
Continuous
100
AcDbCircle
 10
155.6939999999999
 20
142.3189999999999
 30
0.0
 40
3.0
100
AcDbArc
 50
0.0
 51
90.0
  0
CIRCLE
  5
9962
330
97EA
100
AcDbEntity
  8
1
  6
Continuous
100
AcDbCircle
 10
138.6929999999999
 20
232.6159999999999
 30
0.0
 40
2.5
  0
CIRCLE
  5
9963
330
97EA
100
AcDbEntity
  8
1
  6
Continuous
100
AcDbCircle
 10
138.6929999999999
 20
232.6159999999999
 30
0.0
 40
4.0
  0
ARC
  5
9964
330
97EA
100
AcDbEntity
  8
1
  6
Continuous
100
AcDbCircle
 10
179.1939999999999
 20
226.4159999999999
 30
0.0
 40
17.0
100
AcDbArc
 50
0.674041
 51
90.00010000000001
  0
ARC
  5
9965
330
97EA
100
AcDbEntity
  8
1
  6
Continuous
100
AcDbCircle
 10
194.1939999999999
 20
244.6159999999999
 30
0.0
 40
2.0
100
AcDbArc
 50
0.0
 51
90.00010000000001
  0
ARC
  5
9966
330
97EA
100
AcDbEntity
  8
1
  6
Continuous
100
AcDbCircle
 10
36.13369999999999
 20
65.3193
 30
0.0
 40
8.0
100
AcDbArc
 50
237.922
 51
270.0
  0
ARC
  5
9967
330
97EA
100
AcDbEntity
  8
1
  6
Continuous
100
AcDbCircle
 10
36.13369999999999
 20
140.3189999999999
 30
0.0
 40
8.0
100
AcDbArc
 50
90.0
 51
122.0779999999999
  0
ARC
  5
9968
330
97EA
100
AcDbEntity
  8
1
  6
Continuous
100
AcDbCircle
 10
105.6929999999999
 20
77.4193
 30
0.0
 40
1.0
100
AcDbArc
 50
180.0
 51
270.0
  0
ARC
  5
9969
330
97EA
100
AcDbEntity
  8
1
  6
Continuous
100
AcDbCircle
 10
105.6929999999999
 20
68.2193
 30
0.0
 40
1.0
100
AcDbArc
 50
90.0
 51
180.0
  0
ARC
  5
996A
330
97EA
100
AcDbEntity
  8
1
  6
Continuous
100
AcDbCircle
 10
105.6929999999999
 20
137.4189999999998
 30
0.0
 40
1.0
100
AcDbArc
 50
180.0
 51
270.0
  0
ARC
  5
996B
330
97EA
100
AcDbEntity
  8
1
  6
Continuous
100
AcDbCircle
 10
105.6929999999999
 20
128.2189999999999
 30
0.0
 40
1.0
100
AcDbArc
 50
90.0
 51
180.0
  0
ARC
  5
996C
330
97EA
100
AcDbEntity
  8
1
  6
Continuous
100
AcDbCircle
 10
104.6929999999999
 20
253.6159999999999
 30
0.0
 40
2.0
100
AcDbArc
 50
90.00010000000001
 51
180.0
  0
ARC
  5
996D
330
97EA
100
AcDbEntity
  8
1
  6
Continuous
100
AcDbCircle
 10
105.6929999999999
 20
241.0159999999999
 30
0.0
 40
1.0
100
AcDbArc
 50
90.00010000000001
 51
180.0
  0
ARC
  5
996E
330
97EA
100
AcDbEntity
  8
1
  6
Continuous
100
AcDbCircle
 10
105.6929999999999
 20
250.2159999999999
 30
0.0
 40
1.0
100
AcDbArc
 50
180.0
 51
270.0
  0
ARC
  5
996F
330
97EA
100
AcDbEntity
  8
1
  6
Continuous
100
AcDbCircle
 10
93.693
 20
108.8189999999999
 30
0.0
 40
1.0
100
AcDbArc
 50
90.0
 51
180.0
  0
ARC
  5
9970
330
97EA
100
AcDbEntity
  8
1
  6
Continuous
100
AcDbCircle
 10
93.693
 20
96.81930000000001
 30
0.0
 40
1.0
100
AcDbArc
 50
180.0
 51
270.0
  0
ARC
  5
9971
330
97EA
100
AcDbEntity
  8
1
  6
Continuous
100
AcDbCircle
 10
93.693
 20
244.6159999999999
 30
0.0
 40
1.0
100
AcDbArc
 50
148.993
 51
270.0
  0
ARC
  5
9972
330
97EA
100
AcDbEntity
  8
1
  6
Continuous
100
AcDbCircle
 10
29.9337
 20
60.81929999999999
 30
0.0
 40
3.0
100
AcDbArc
 50
270.0
 51
0.0
  0
ARC
  5
9973
330
97EA
100
AcDbEntity
  8
1
  6
Continuous
100
AcDbCircle
 10
29.9337
 20
144.8189999999998
 30
0.0
 40
3.0
100
AcDbArc
 50
0.0
 51
90.0
  0
ARC
  5
9974
330
97EA
100
AcDbEntity
  8
1
  6
Continuous
100
AcDbCircle
 10
42.9337
 20
143.8189999999998
 30
0.0
 40
1.0
100
AcDbArc
 50
270.0
 51
0.0
  0
ARC
  5
9975
330
97EA
100
AcDbEntity
  8
1
  6
Continuous
100
AcDbCircle
 10
42.9337
 20
61.8193
 30
0.0
 40
1.0
100
AcDbArc
 50
0.0
 51
90.0
  0
ARC
  5
9976
330
97EA
100
AcDbEntity
  8
1
  6
Continuous
100
AcDbCircle
 10
43.93369999999999
 20
61.8193
 30
0.0
 40
1.0
100
AcDbArc
 50
0.0
 51
90.0
  0
ARC
  5
9977
330
97EA
100
AcDbEntity
  8
1
  6
Continuous
100
AcDbCircle
 10
43.93369999999999
 20
143.8189999999998
 30
0.0
 40
1.0
100
AcDbArc
 50
270.0
 51
0.0
  0
ARC
  5
9978
330
97EA
100
AcDbEntity
  8
1
  6
Continuous
100
AcDbCircle
 10
26.9337
 20
108.8189999999999
 30
0.0
 40
1.0
100
AcDbArc
 50
0.0
 51
90.0
  0
ARC
  5
9979
330
97EA
100
AcDbEntity
  8
1
  6
Continuous
100
AcDbCircle
 10
26.9337
 20
96.81930000000001
 30
0.0
 40
1.0
100
AcDbArc
 50
270.0
 51
0.0
  0
ARC
  5
997A
330
97EA
100
AcDbEntity
  8
1
  6
Continuous
100
AcDbCircle
 10
18.9337
 20
96.81930000000001
 30
0.0
 40
1.0
100
AcDbArc
 50
180.0
 51
270.0
  0
ARC
  5
997B
330
97EA
100
AcDbEntity
  8
1
  6
Continuous
100
AcDbCircle
 10
18.9337
 20
108.8189999999999
 30
0.0
 40
1.0
100
AcDbArc
 50
90.0
 51
180.0
  0
CIRCLE
  5
997C
330
97EA
100
AcDbEntity
  8
2
  6
Continuous
100
AcDbCircle
 10
25.9337
 20
72.8193
 30
0.0
 40
2.5
  0
CIRCLE
  5
997D
330
97EA
100
AcDbEntity
  8
2
  6
Continuous
100
AcDbCircle
 10
25.9337
 20
132.8189999999999
 30
0.0
 40
2.5
  0
ARC
  5
997E
330
97EA
100
AcDbEntity
  8
1
  6
Continuous
100
AcDbCircle
 10
197.1509999999999
 20
277.5749999999998
 30
0.0
 40
2.0
100
AcDbArc
 50
0.00009
 51
90.00010000000001
  0
ARC
  5
997F
330
97EA
100
AcDbEntity
  8
1
  6
Continuous
100
AcDbCircle
 10
199.1509999999999
 20
260.075
 30
0.0
 40
2.0
100
AcDbArc
 50
180.0
 51
270.0
  0
ARC
  5
9980
330
97EA
100
AcDbEntity
  8
5
  6
PHANTOM
100
AcDbCircle
 10
103.6929999999999
 20
244.6159999999999
 30
0.0
 40
1.0
100
AcDbArc
 50
148.993
 51
270.0
  0
ARC
  5
9981
330
97EA
100
AcDbEntity
  8
1
  6
Continuous
100
AcDbCircle
 10
206.489
 20
64.8193
 30
0.0
 40
2.0
100
AcDbArc
 50
270.0
 51
0.0
  0
ARC
  5
9982
330
97EA
100
AcDbEntity
  8
1
  6
Continuous
100
AcDbCircle
 10
206.489
 20
140.8189999999999
 30
0.0
 40
2.0
100
AcDbArc
 50
0.0
 51
90.0
  0
ARC
  5
9983
330
97EA
100
AcDbEntity
  8
1
  6
Continuous
100
AcDbCircle
 10
158.489
 20
971.5049999999999
 30
0.0
 40
749.3939999999999
100
AcDbArc
 50
267.105
 51
273.309
  0
ARC
  5
9984
330
97EA
100
AcDbEntity
  8
1
  6
Continuous
100
AcDbCircle
 10
201.6939999999999
 20
224.36
 30
0.0
 40
1.0
100
AcDbArc
 50
273.309
 51
0.0
  0
ARC
  5
9985
330
97EA
100
AcDbEntity
  8
1
  6
Continuous
100
AcDbCircle
 10
120.693
 20
224.0659999999998
 30
0.0
 40
1.0
100
AcDbArc
 50
180.0
 51
267.105
  0
ARC
  5
9986
330
97EA
100
AcDbEntity
  8
1
  6
Continuous
100
AcDbCircle
 10
46.7616
 20
52.8193
 30
0.0
 40
1.0
100
AcDbArc
 50
270.0
 51
356.169
  0
ARC
  5
9987
330
97EA
100
AcDbEntity
  8
1
  6
Continuous
100
AcDbCircle
 10
-699.96
 20
102.8189999999999
 30
0.0
 40
749.3939999999999
100
AcDbArc
 50
356.169
 51
3.830769999999998
  0
ARC
  5
9988
330
97EA
100
AcDbEntity
  8
1
  6
Continuous
100
AcDbCircle
 10
46.7616
 20
152.8189999999999
 30
0.0
 40
1.0
100
AcDbArc
 50
3.830769999999998
 51
90.0
  0
ARC
  5
9989
330
97EA
100
AcDbEntity
  8
5
  6
PHANTOM
100
AcDbCircle
 10
175.7019999999999
 20
197.5929999999999
 30
0.0
 40
2.5
100
AcDbArc
 50
237.252
 51
111.4829999999999
  0
ARC
  5
998A
330
97EA
100
AcDbEntity
  8
5
  6
PHANTOM
100
AcDbCircle
 10
579.727
 20
825.7759999999999
 30
0.0
 40
749.3939999999999
100
AcDbArc
 50
233.6149999999999
 51
237.252
  0
ARC
  5
998B
330
97EA
100
AcDbEntity
  8
1
  6
Continuous
100
AcDbCircle
 10
114.2639999999999
 20
232.2529999999999
 30
0.0
 40
25.0
100
AcDbArc
 50
121.2909999999999
 51
148.993
  0
ARC
  5
998C
330
97EA
100
AcDbEntity
  8
5
  6
PHANTOM
100
AcDbCircle
 10
124.2639999999999
 20
232.2529999999999
 30
0.0
 40
25.0
100
AcDbArc
 50
121.2909999999999
 51
148.993
  0
ARC
  5
998D
330
97EA
100
AcDbEntity
  8
5
  6
PHANTOM
100
AcDbCircle
 10
579.727
 20
825.7759999999999
 30
0.0
 40
749.3939999999999
100
AcDbArc
 50
232.697
 51
232.9479999999998
  0
ARC
  5
998E
330
97EA
100
AcDbEntity
  8
5
  6
PHANTOM
100
AcDbCircle
 10
126.184
 20
230.4679999999999
 30
0.0
 40
1.0
100
AcDbArc
 50
144.903
 51
232.697
  0
ARC
  5
998F
330
97EA
100
AcDbEntity
  8
1
  6
Continuous
100
AcDbCircle
 10
266.2529999999998
 20
65.3193
 30
0.0
 40
8.0
100
AcDbArc
 50
270.0
 51
0.0
  0
ARC
  5
9990
330
97EA
100
AcDbEntity
  8
1
  6
Continuous
100
AcDbCircle
 10
266.2529999999998
 20
140.3189999999999
 30
0.0
 40
8.0
100
AcDbArc
 50
0.0
 51
90.0
  0
ARC
  5
9991
330
97EA
100
AcDbEntity
  8
1
  6
Continuous
100
AcDbCircle
 10
272.4529999999999
 20
60.81929999999999
 30
0.0
 40
3.0
100
AcDbArc
 50
229.4229999999998
 51
270.0
  0
ARC
  5
9992
330
97EA
100
AcDbEntity
  8
1
  6
Continuous
100
AcDbCircle
 10
272.4529999999999
 20
144.8189999999998
 30
0.0
 40
3.0
100
AcDbArc
 50
90.0
 51
130.577
  0
ARC
  5
9993
330
97EA
100
AcDbEntity
  8
1
  6
Continuous
100
AcDbCircle
 10
255.6249999999999
 20
52.8193
 30
0.0
 40
1.0
100
AcDbArc
 50
183.8309999999999
 51
270.0
  0
ARC
  5
9994
330
97EA
100
AcDbEntity
  8
1
  6
Continuous
100
AcDbCircle
 10
1002.35
 20
102.8189999999999
 30
0.0
 40
749.3939999999999
100
AcDbArc
 50
176.169
 51
183.8309999999999
  0
ARC
  5
9995
330
97EA
100
AcDbEntity
  8
1
  6
Continuous
100
AcDbCircle
 10
255.6249999999999
 20
152.8189999999999
 30
0.0
 40
1.0
100
AcDbArc
 50
90.0
 51
176.169
  0
ARC
  5
9996
330
97EA
100
AcDbEntity
  8
1
  6
Continuous
100
AcDbCircle
 10
332.668
 20
129.9259999999999
 30
0.0
 40
1.3
100
AcDbArc
 50
15.8809
 51
85.0
  0
ARC
  5
9997
330
97EA
100
AcDbEntity
  8
1
  6
Continuous
100
AcDbCircle
 10
325.262
 20
127.819
 30
0.0
 40
9.0
100
AcDbArc
 50
344.1190000000001
 51
15.8809
  0
ARC
  5
9998
330
97EA
100
AcDbEntity
  8
1
  6
Continuous
100
AcDbCircle
 10
332.668
 20
125.712
 30
0.0
 40
1.3
100
AcDbArc
 50
275.0
 51
344.1190000000001
  0
ARC
  5
9999
330
97EA
100
AcDbEntity
  8
1
  6
Continuous
100
AcDbCircle
 10
418.5299999999998
 20
-346.1809999999999
 30
0.0
 40
500.0
100
AcDbArc
 50
86.102
 51
93.89799999999999
  0
ARC
  5
999A
330
97EA
100
AcDbEntity
  8
1
  6
Continuous
100
AcDbCircle
 10
418.5299999999998
 20
551.8189999999998
 30
0.0
 40
500.0
100
AcDbArc
 50
266.1019999999999
 51
273.8979999999999
  0
ARC
  5
999B
330
97EA
100
AcDbEntity
  8
1
  6
Continuous
100
AcDbCircle
 10
885.5299999999997
 20
102.8189999999999
 30
0.0
 40
508.4999999999998
100
AcDbArc
 50
174.993
 51
175.4879999999998
  0
ARC
  5
999C
330
97EA
100
AcDbEntity
  8
1
  6
Continuous
100
AcDbCircle
 10
452.1119999999998
 20
146.6769999999999
 30
0.0
 40
6.0
100
AcDbArc
 50
10.9799
 51
86.102
  0
ARC
  5
999D
330
97EA
100
AcDbEntity
  8
1
  6
Continuous
100
AcDbCircle
 10
384.9469999999998
 20
146.6769999999999
 30
0.0
 40
6.0
100
AcDbArc
 50
93.89799999999999
 51
174.993
  0
ARC
  5
999E
330
97EA
100
AcDbEntity
  8
1
  6
Continuous
100
AcDbCircle
 10
384.9469999999998
 20
58.96209999999999
 30
0.0
 40
6.0
100
AcDbArc
 50
185.007
 51
266.1019999999999
  0
ARC
  5
999F
330
97EA
100
AcDbEntity
  8
1
  6
Continuous
100
AcDbCircle
 10
452.1119999999998
 20
58.96209999999999
 30
0.0
 40
6.0
100
AcDbArc
 50
273.8979999999999
 51
349.0199999999999
  0
ARC
  5
99A0
330
97EA
100
AcDbEntity
  8
1
  6
Continuous
100
AcDbCircle
 10
486.0299999999998
 20
108.8189999999999
 30
0.0
 40
1.0
100
AcDbArc
 50
0.000022
 51
90.0
  0
ARC
  5
99A1
330
97EA
100
AcDbEntity
  8
1
  6
Continuous
100
AcDbCircle
 10
486.0299999999998
 20
96.81930000000001
 30
0.0
 40
1.0
100
AcDbArc
 50
270.0
 51
0.000022
  0
ARC
  5
99A2
330
97EA
100
AcDbEntity
  8
1
  6
Continuous
100
AcDbCircle
 10
389.7339999999999
 20
140.8189999999999
 30
0.0
 40
2.0
100
AcDbArc
 50
0.0
 51
90.00010000000001
  0
ARC
  5
99A3
330
97EA
100
AcDbEntity
  8
1
  6
Continuous
100
AcDbCircle
 10
389.7339999999999
 20
64.8193
 30
0.0
 40
2.0
100
AcDbArc
 50
270.0
 51
0.0
  0
ARC
  5
99A4
330
97EA
100
AcDbEntity
  8
1
  6
Continuous
100
AcDbCircle
 10
373.2339999999999
 20
64.8193
 30
0.0
 40
2.0
100
AcDbArc
 50
180.0
 51
270.0
  0
ARC
  5
99A5
330
97EA
100
AcDbEntity
  8
1
  6
Continuous
100
AcDbCircle
 10
373.2339999999999
 20
140.8189999999999
 30
0.0
 40
2.0
100
AcDbArc
 50
90.0
 51
180.0
  0
ARC
  5
99A6
330
97EA
100
AcDbEntity
  8
1
  6
Continuous
100
AcDbCircle
 10
389.7339999999999
 20
90.81929999999998
 30
0.0
 40
2.0
100
AcDbArc
 50
0.0
 51
90.0
  0
ARC
  5
99A7
330
97EA
100
AcDbEntity
  8
1
  6
Continuous
100
AcDbCircle
 10
389.7339999999999
 20
114.819
 30
0.0
 40
2.0
100
AcDbArc
 50
270.0
 51
0.0
  0
ARC
  5
99A8
330
97EA
100
AcDbEntity
  8
1
  6
Continuous
100
AcDbCircle
 10
885.5299999999997
 20
102.8189999999999
 30
0.0
 40
508.4999999999998
100
AcDbArc
 50
184.512
 51
185.007
  0
ARC
  5
99A9
330
97EA
100
AcDbEntity
  8
1
  6
Continuous
100
AcDbCircle
 10
389.5299999999999
 20
142.3189999999999
 30
0.0
 40
6.0
100
AcDbArc
 50
90.0
 51
175.22
  0
ARC
  5
99AA
330
97EA
100
AcDbEntity
  8
1
  6
Continuous
100
AcDbCircle
 10
389.5299999999999
 20
63.31929999999999
 30
0.0
 40
6.0
100
AcDbArc
 50
184.78
 51
270.0
  0
ARC
  5
99AB
330
97EA
100
AcDbEntity
  8
1
  6
Continuous
100
AcDbCircle
 10
385.7339999999999
 20
77.8193
 30
0.0
 40
2.1
100
AcDbArc
 50
348.463
 51
11.537
  0
ARC
  5
99AC
330
97EA
100
AcDbEntity
  8
1
  6
Continuous
100
AcDbCircle
 10
385.7339999999999
 20
77.8193
 30
0.0
 40
2.1
100
AcDbArc
 50
78.46299999999998
 51
101.537
  0
ARC
  5
99AD
330
97EA
100
AcDbEntity
  8
1
  6
Continuous
100
AcDbCircle
 10
385.7339999999999
 20
77.8193
 30
0.0
 40
2.1
100
AcDbArc
 50
168.463
 51
191.5369999999998
  0
ARC
  5
99AE
330
97EA
100
AcDbEntity
  8
1
  6
Continuous
100
AcDbCircle
 10
385.7339999999999
 20
77.8193
 30
0.0
 40
2.1
100
AcDbArc
 50
258.4629999999999
 51
281.5369999999999
  0
CIRCLE
  5
99AF
330
97EA
100
AcDbEntity
  8
1
  6
Continuous
100
AcDbCircle
 10
385.7339999999999
 20
77.8193
 30
0.0
 40
3.5
  0
ARC
  5
99B0
330
97EA
100
AcDbEntity
  8
1
  6
Continuous
100
AcDbCircle
 10
385.7339999999999
 20
127.819
 30
0.0
 40
2.1
100
AcDbArc
 50
348.463
 51
11.537
  0
ARC
  5
99B1
330
97EA
100
AcDbEntity
  8
1
  6
Continuous
100
AcDbCircle
 10
385.7339999999999
 20
127.819
 30
0.0
 40
2.1
100
AcDbArc
 50
78.46299999999998
 51
101.537
  0
ARC
  5
99B2
330
97EA
100
AcDbEntity
  8
1
  6
Continuous
100
AcDbCircle
 10
385.7339999999999
 20
127.819
 30
0.0
 40
2.1
100
AcDbArc
 50
168.463
 51
191.5369999999998
  0
ARC
  5
99B3
330
97EA
100
AcDbEntity
  8
1
  6
Continuous
100
AcDbCircle
 10
385.7339999999999
 20
127.819
 30
0.0
 40
2.1
100
AcDbArc
 50
258.4629999999999
 51
281.5369999999999
  0
CIRCLE
  5
99B4
330
97EA
100
AcDbEntity
  8
1
  6
Continuous
100
AcDbCircle
 10
385.7339999999999
 20
127.819
 30
0.0
 40
3.5
  0
CIRCLE
  5
99B5
330
97EA
100
AcDbEntity
  8
1
  6
Continuous
100
AcDbCircle
 10
385.7339999999999
 20
127.819
 30
0.0
 40
3.799999999999998
  0
CIRCLE
  5
99B6
330
97EA
100
AcDbEntity
  8
1
  6
Continuous
100
AcDbCircle
 10
385.7339999999999
 20
77.8193
 30
0.0
 40
3.799999999999998
  0
CIRCLE
  5
99B7
330
97EA
100
AcDbEntity
  8
1
  6
Continuous
100
AcDbCircle
 10
385.7339999999999
 20
127.819
 30
0.0
 40
5.0
  0
CIRCLE
  5
99B8
330
97EA
100
AcDbEntity
  8
1
  6
Continuous
100
AcDbCircle
 10
385.7339999999999
 20
77.8193
 30
0.0
 40
5.0
  0
ARC
  5
99B9
330
97EA
100
AcDbEntity
  8
1
  6
Continuous
100
AcDbCircle
 10
395.5299999999999
 20
60.81929999999999
 30
0.0
 40
3.0
100
AcDbArc
 50
180.0
 51
270.0
  0
ARC
  5
99BA
330
97EA
100
AcDbEntity
  8
1
  6
Continuous
100
AcDbCircle
 10
395.5299999999999
 20
144.8189999999998
 30
0.0
 40
3.0
100
AcDbArc
 50
90.0
 51
180.0
  0
ARC
  5
99BB
330
97EA
100
AcDbEntity
  8
1
  6
Continuous
100
AcDbCircle
 10
446.53
 20
72.8193
 30
0.0
 40
2.25
100
AcDbArc
 50
349.2419999999999
 51
10.7583
  0
ARC
  5
99BC
330
97EA
100
AcDbEntity
  8
1
  6
Continuous
100
AcDbCircle
 10
446.53
 20
72.8193
 30
0.0
 40
2.25
100
AcDbArc
 50
79.24169999999998
 51
100.7579999999999
  0
ARC
  5
99BD
330
97EA
100
AcDbEntity
  8
1
  6
Continuous
100
AcDbCircle
 10
446.53
 20
72.8193
 30
0.0
 40
2.25
100
AcDbArc
 50
169.242
 51
190.758
  0
ARC
  5
99BE
330
97EA
100
AcDbEntity
  8
1
  6
Continuous
100
AcDbCircle
 10
446.53
 20
72.8193
 30
0.0
 40
2.25
100
AcDbArc
 50
259.242
 51
280.7579999999999
  0
CIRCLE
  5
99BF
330
97EA
100
AcDbEntity
  8
1
  6
Continuous
100
AcDbCircle
 10
446.53
 20
72.8193
 30
0.0
 40
4.0
  0
ARC
  5
99C0
330
97EA
100
AcDbEntity
  8
1
  6
Continuous
100
AcDbCircle
 10
446.53
 20
132.8189999999999
 30
0.0
 40
2.25
100
AcDbArc
 50
349.2419999999999
 51
10.7583
  0
ARC
  5
99C1
330
97EA
100
AcDbEntity
  8
1
  6
Continuous
100
AcDbCircle
 10
446.53
 20
132.8189999999999
 30
0.0
 40
2.25
100
AcDbArc
 50
79.24169999999998
 51
100.7579999999999
  0
ARC
  5
99C2
330
97EA
100
AcDbEntity
  8
1
  6
Continuous
100
AcDbCircle
 10
446.53
 20
132.8189999999999
 30
0.0
 40
2.25
100
AcDbArc
 50
169.242
 51
190.758
  0
ARC
  5
99C3
330
97EA
100
AcDbEntity
  8
1
  6
Continuous
100
AcDbCircle
 10
446.53
 20
132.8189999999999
 30
0.0
 40
2.25
100
AcDbArc
 50
259.242
 51
280.7579999999999
  0
CIRCLE
  5
99C4
330
97EA
100
AcDbEntity
  8
1
  6
Continuous
100
AcDbCircle
 10
446.53
 20
132.8189999999999
 30
0.0
 40
4.0
  0
CIRCLE
  5
99C5
330
97EA
100
AcDbEntity
  8
1
  6
Continuous
100
AcDbCircle
 10
411.0299999999998
 20
85.3193
 30
0.0
 40
2.75
  0
CIRCLE
  5
99C6
330
97EA
100
AcDbEntity
  8
1
  6
Continuous
100
AcDbCircle
 10
411.0299999999998
 20
120.3189999999999
 30
0.0
 40
2.75
  0
ARC
  5
99C7
330
97EA
100
AcDbEntity
  8
1
  6
Continuous
100
AcDbCircle
 10
398.5299999999999
 20
85.3193
 30
0.0
 40
2.25
100
AcDbArc
 50
349.2419999999999
 51
10.7583
  0
ARC
  5
99C8
330
97EA
100
AcDbEntity
  8
1
  6
Continuous
100
AcDbCircle
 10
398.5299999999999
 20
85.3193
 30
0.0
 40
2.25
100
AcDbArc
 50
79.24169999999998
 51
100.7579999999999
  0
ARC
  5
99C9
330
97EA
100
AcDbEntity
  8
1
  6
Continuous
100
AcDbCircle
 10
398.5299999999999
 20
85.3193
 30
0.0
 40
2.25
100
AcDbArc
 50
169.242
 51
190.758
  0
ARC
  5
99CA
330
97EA
100
AcDbEntity
  8
1
  6
Continuous
100
AcDbCircle
 10
398.5299999999999
 20
85.3193
 30
0.0
 40
2.25
100
AcDbArc
 50
259.242
 51
280.7579999999999
  0
CIRCLE
  5
99CB
330
97EA
100
AcDbEntity
  8
1
  6
Continuous
100
AcDbCircle
 10
398.5299999999999
 20
85.3193
 30
0.0
 40
4.0
  0
ARC
  5
99CC
330
97EA
100
AcDbEntity
  8
1
  6
Continuous
100
AcDbCircle
 10
398.5299999999999
 20
120.3189999999999
 30
0.0
 40
2.25
100
AcDbArc
 50
349.2419999999999
 51
10.7583
  0
ARC
  5
99CD
330
97EA
100
AcDbEntity
  8
1
  6
Continuous
100
AcDbCircle
 10
398.5299999999999
 20
120.3189999999999
 30
0.0
 40
2.25
100
AcDbArc
 50
79.24169999999998
 51
100.7579999999999
  0
ARC
  5
99CE
330
97EA
100
AcDbEntity
  8
1
  6
Continuous
100
AcDbCircle
 10
398.5299999999999
 20
120.3189999999999
 30
0.0
 40
2.25
100
AcDbArc
 50
169.242
 51
190.758
  0
ARC
  5
99CF
330
97EA
100
AcDbEntity
  8
1
  6
Continuous
100
AcDbCircle
 10
398.5299999999999
 20
120.3189999999999
 30
0.0
 40
2.25
100
AcDbArc
 50
259.242
 51
280.7579999999999
  0
CIRCLE
  5
99D0
330
97EA
100
AcDbEntity
  8
1
  6
Continuous
100
AcDbCircle
 10
398.5299999999999
 20
120.3189999999999
 30
0.0
 40
4.0
  0
ARC
  5
99D1
330
97EA
100
AcDbEntity
  8
1
  6
Continuous
100
AcDbCircle
 10
628.193
 20
102.8189999999999
 30
0.0
 40
508.4999999999998
100
AcDbArc
 50
174.993
 51
185.007
  0
CIRCLE
  5
99D2
330
97EA
100
AcDbEntity
  8
1
  6
Continuous
100
AcDbCircle
 10
25.9337
 20
72.8193
 30
0.0
 40
2.066999999999997
  0
CIRCLE
  5
99D3
330
97EA
100
AcDbEntity
  8
1
  6
Continuous
100
AcDbCircle
 10
25.9337
 20
132.8189999999999
 30
0.0
 40
2.066999999999997
  0
ARC
  5
99D4
330
97EA
100
AcDbEntity
  8
1
  6
Continuous
100
AcDbCircle
 10
276.4529999999999
 20
131.8189999999999
 30
0.0
 40
1.0
100
AcDbArc
 50
0.0
 51
90.0
  0
ARC
  5
99D5
330
97EA
100
AcDbEntity
  8
1
  6
Continuous
100
AcDbCircle
 10
276.4529999999999
 20
73.8193
 30
0.0
 40
1.0
100
AcDbArc
 50
270.0
 51
0.0
  0
ARC
  5
99D6
330
97EA
100
AcDbEntity
  8
1
  6
Continuous
100
AcDbCircle
 10
276.4529999999999
 20
81.81929999999999
 30
0.0
 40
1.0
100
AcDbArc
 50
0.0
 51
90.0
  0
ARC
  5
99D7
330
97EA
100
AcDbEntity
  8
1
  6
Continuous
100
AcDbCircle
 10
276.4529999999999
 20
123.819
 30
0.0
 40
1.0
100
AcDbArc
 50
270.0
 51
0.0
  0
ARC
  5
99D8
330
97EA
100
AcDbEntity
  8
1
  6
Continuous
100
AcDbCircle
 10
194.2589999999999
 20
282.3809999999999
 30
0.0
 40
1.3
100
AcDbArc
 50
5.00004
 51
74.1191
  0
ARC
  5
99D9
330
97EA
100
AcDbEntity
  8
1
  6
Continuous
100
AcDbCircle
 10
192.1519999999999
 20
274.975
 30
0.0
 40
9.0
100
AcDbArc
 50
74.1191
 51
105.881
  0
ARC
  5
99DA
330
97EA
100
AcDbEntity
  8
1
  6
Continuous
100
AcDbCircle
 10
190.045
 20
282.3809999999999
 30
0.0
 40
1.3
100
AcDbArc
 50
105.881
 51
175.0
  0
ARC
  5
99DB
330
97EA
100
AcDbEntity
  8
1
  6
Continuous
100
AcDbCircle
 10
332.668
 20
79.9263
 30
0.0
 40
1.3
100
AcDbArc
 50
15.8809
 51
85.0
  0
ARC
  5
99DC
330
97EA
100
AcDbEntity
  8
1
  6
Continuous
100
AcDbCircle
 10
325.262
 20
77.8193
 30
0.0
 40
9.0
100
AcDbArc
 50
344.1190000000001
 51
15.8809
  0
ARC
  5
99DD
330
97EA
100
AcDbEntity
  8
1
  6
Continuous
100
AcDbCircle
 10
332.668
 20
75.71229999999999
 30
0.0
 40
1.3
100
AcDbArc
 50
275.0
 51
344.1190000000001
  0
LINE
  5
99DE
330
97EA
100
AcDbEntity
  8
1
  6
Continuous
100
AcDbLine
 10
477.0299999999998
 20
109.8189999999999
 30
0.0
 11
477.0299999999998
 21
147.8189999999998
 31
0.0
  0
LINE
  5
99DF
330
97EA
100
AcDbEntity
  8
1
  6
Continuous
100
AcDbLine
 10
478.4299999999998
 20
95.81929999999998
 30
0.0
 11
478.4299999999998
 21
109.8189999999999
 31
0.0
  0
LINE
  5
99E0
330
97EA
100
AcDbEntity
  8
4
  6
CENTER
100
AcDbLine
 10
110.144185
 20
245.616
 30
0.0
 11
99.53525
 21
245.616
 31
0.0
  0
ENDSEC
  0
SECTION
  2
OBJECTS
  0
DICTIONARY
  5
97D8
330
0
100
AcDbDictionary
281
     1
  3
ACAD_CIP_PREVIOUS_PRODUCT_INFO
350
9A46
  3
ACAD_COLOR
350
9A28
  3
ACAD_DETAILVIEWSTYLE
350
9A41
  3
ACAD_GROUP
350
97D9
  3
ACAD_LAYOUT
350
97E5
  3
ACAD_MATERIAL
350
99F6
  3
ACAD_MLEADERSTYLE
350
9A3D
  3
ACAD_MLINESTYLE
350
97E2
  3
ACAD_PLOTSETTINGS
350
97E4
  3
ACAD_PLOTSTYLENAME
350
99F4
  3
ACAD_SCALELIST
350
9A2B
  3
ACAD_SECTIONVIEWSTYLE
350
9A3F
  3
ACAD_TABLESTYLE
350
9A29
  3
ACAD_VISUALSTYLE
350
9A0F
  3
ACDB_RECOMPOSE_DATA
350
9A64
  3
AcDbVariableDictionary
350
9A57
  3
DWGPROPS
350
9A65
  0
DICTIONARY
  5
9A47
330
97DC
100
AcDbDictionary
280
     1
281
     1
  3
ADSK_XREC_LAYER_RECONCILED
360
9A48
  0
DICTIONARY
  5
9A49
330
97F2
100
AcDbDictionary
280
     1
281
     1
  3
ADSK_XREC_LAYER_RECONCILED
360
9A4A
  0
DICTIONARY
  5
9A4B
330
97F3
100
AcDbDictionary
280
     1
281
     1
  3
ADSK_XREC_LAYER_RECONCILED
360
9A4C
  0
DICTIONARY
  5
9A4D
330
97F4
100
AcDbDictionary
280
     1
281
     1
  3
ADSK_XREC_LAYER_RECONCILED
360
9A4E
  0
DICTIONARY
  5
9A4F
330
97F5
100
AcDbDictionary
280
     1
281
     1
  3
ADSK_XREC_LAYER_RECONCILED
360
9A50
  0
DICTIONARY
  5
9A51
330
97F6
100
AcDbDictionary
280
     1
281
     1
  3
ADSK_XREC_LAYER_RECONCILED
360
9A52
  0
DICTIONARY
  5
9A53
330
97F7
100
AcDbDictionary
280
     1
281
     1
  3
ADSK_XREC_LAYER_RECONCILED
360
9A54
  0
DICTIONARY
  5
9A55
330
97F8
100
AcDbDictionary
280
     1
281
     1
  3
ADSK_XREC_LAYER_RECONCILED
360
9A56
  0
DICTIONARY
  5
99EF
330
97EA
100
AcDbDictionary
281
     1
  3
ACAD_LAYOUTSELFREF
350
99F0
  0
DICTIONARY
  5
99ED
330
97E6
100
AcDbDictionary
281
     1
  3
ACAD_LAYOUTSELFREF
350
99EE
  0
XRECORD
  5
9A46
102
{ACAD_REACTORS
330
97D8
102
}
330
97D8
100
AcDbXrecord
280
     1
300
ACDLT
300
2014
300
ACDLT_F_S
  0
DICTIONARY
  5
9A28
102
{ACAD_REACTORS
330
97D8
102
}
330
97D8
100
AcDbDictionary
281
     1
  0
DICTIONARY
  5
9A41
102
{ACAD_REACTORS
330
97D8
102
}
330
97D8
100
AcDbDictionary
281
     1
  3
Imperial24
350
9A42
  0
DICTIONARY
  5
97D9
102
{ACAD_REACTORS
330
97D8
102
}
330
97D8
100
AcDbDictionary
281
     1
  0
DICTIONARY
  5
97E5
102
{ACAD_REACTORS
330
97D8
102
}
330
97D8
100
AcDbDictionary
281
     1
  3
Model
350
9A43
  3
レイアウト1
350
9A44
  0
DICTIONARY
  5
99F6
102
{ACAD_REACTORS
330
97D8
102
}
330
97D8
100
AcDbDictionary
281
     1
  3
ByBlock
350
99FF
  3
ByLayer
350
99F7
  3
Global
350
9A07
  0
DICTIONARY
  5
9A3D
102
{ACAD_REACTORS
330
97D8
102
}
330
97D8
100
AcDbDictionary
281
     1
  3
Standard
350
9A3E
  0
DICTIONARY
  5
97E2
102
{ACAD_REACTORS
330
97D8
102
}
330
97D8
100
AcDbDictionary
281
     1
  3
STANDARD
350
97E3
  0
DICTIONARY
  5
97E4
102
{ACAD_REACTORS
330
97D8
102
}
330
97D8
100
AcDbDictionary
281
     1
  0
ACDBDICTIONARYWDFLT
  5
99F4
102
{ACAD_REACTORS
330
97D8
102
}
330
97D8
100
AcDbDictionary
281
     1
  3
Normal
350
99F5
100
AcDbDictionaryWithDefault
340
99F5
  0
DICTIONARY
  5
9A2B
102
{ACAD_REACTORS
330
97D8
102
}
330
97D8
100
AcDbDictionary
281
     1
  3
A0
350
9A2C
  3
A1
350
9A2D
  3
A2
350
9A2E
  3
A3
350
9A2F
  3
A4
350
9A30
  3
A5
350
9A31
  3
A6
350
9A32
  3
A7
350
9A33
  3
A8
350
9A34
  3
A9
350
9A35
  3
B0
350
9A36
  3
B1
350
9A37
  3
B2
350
9A38
  3
B3
350
9A39
  3
B4
350
9A3A
  3
B5
350
9A3B
  3
B6
350
9A3C
  0
DICTIONARY
  5
9A3F
102
{ACAD_REACTORS
330
97D8
102
}
330
97D8
100
AcDbDictionary
281
     1
  3
Imperial24
350
9A40
  0
DICTIONARY
  5
9A29
102
{ACAD_REACTORS
330
97D8
102
}
330
97D8
100
AcDbDictionary
281
     1
  3
Standard
350
9A2A
  0
DICTIONARY
  5
9A0F
102
{ACAD_REACTORS
330
97D8
102
}
330
97D8
100
AcDbDictionary
281
     1
  3
2dWireframe
350
9A15
  3
Basic
350
9A14
  3
Brighten
350
9A1B
  3
ColorChange
350
9A1F
  3
Conceptual
350
9A18
  3
Dim
350
9A1A
  3
EdgeColorOff
350
9A27
  3
Facepattern
350
9A1E
  3
Flat
350
9A10
  3
FlatWithEdges
350
9A11
  3
Gouraud
350
9A12
  3
GouraudWithEdges
350
9A13
  3
Hidden
350
9A17
  3
JitterOff
350
9A25
  3
Linepattern
350
9A1D
  3
OverhangOff
350
9A26
  3
Realistic
350
9A19
  3
Shaded
350
9A24
  3
Shaded with edges
350
9A23
  3
Shades of Gray
350
9A20
  3
Sketchy
350
9A21
  3
Thicken
350
9A1C
  3
Wireframe
350
9A16
  3
X-Ray
350
9A22
  0
XRECORD
  5
9A64
102
{ACAD_REACTORS
330
97D8
102
}
330
97D8
100
AcDbXrecord
280
     1
 90
        1
330
9A2A
  0
DICTIONARY
  5
9A57
102
{ACAD_REACTORS
330
97D8
102
}
330
97D8
100
AcDbDictionary
281
     1
  3
CANNOSCALE
350
9A5C
  3
CMLEADERSTYLE
350
9A59
  3
CTABLESTYLE
350
9A58
  3
CVIEWDETAILSTYLE
350
9A5A
  3
CVIEWSECTIONSTYLE
350
9A5B
  3
DIMASSOC
350
9A5F
  3
INDEXCTL
350
9A5E
  3
SORTENTS
350
9A5D
  3
XCLIPFRAME
350
9A60
  0
XRECORD
  5
9A65
102
{ACAD_REACTORS
330
97D8
102
}
330
97D8
100
AcDbXrecord
280
     1
  1
DWGPROPS COOKIE
  2

  3

  4

  6

  7

  8
Yoshitsune
  9

300
=
301
=
302
=
303
=
304
=
305
=
306
=
307
=
308
=
309
=
 40
0.0000148032407407
 41
2450737.664621875
 42
2457192.64017963
  1

 90
        0
  0
XRECORD
  5
9A48
102
{ACAD_REACTORS
330
9A47
102
}
330
9A47
100
AcDbXrecord
280
     1
290
     1
  0
XRECORD
  5
9A4A
102
{ACAD_REACTORS
330
9A49
102
}
330
9A49
100
AcDbXrecord
280
     1
290
     1
  0
XRECORD
  5
9A4C
102
{ACAD_REACTORS
330
9A4B
102
}
330
9A4B
100
AcDbXrecord
280
     1
290
     1
  0
XRECORD
  5
9A4E
102
{ACAD_REACTORS
330
9A4D
102
}
330
9A4D
100
AcDbXrecord
280
     1
290
     1
  0
XRECORD
  5
9A50
102
{ACAD_REACTORS
330
9A4F
102
}
330
9A4F
100
AcDbXrecord
280
     1
290
     1
  0
XRECORD
  5
9A52
102
{ACAD_REACTORS
330
9A51
102
}
330
9A51
100
AcDbXrecord
280
     1
290
     1
  0
XRECORD
  5
9A54
102
{ACAD_REACTORS
330
9A53
102
}
330
9A53
100
AcDbXrecord
280
     1
290
     1
  0
XRECORD
  5
9A56
102
{ACAD_REACTORS
330
9A55
102
}
330
9A55
100
AcDbXrecord
280
     1
290
     1
  0
XRECORD
  5
99F0
102
{ACAD_REACTORS
330
99EF
102
}
330
99EF
100
AcDbXrecord
280
     1
340
97EA
  0
XRECORD
  5
99EE
102
{ACAD_REACTORS
330
99ED
102
}
330
99ED
100
AcDbXrecord
280
     1
340
97E6
  0
ACDBDETAILVIEWSTYLE
  5
9A42
102
{ACAD_XDICTIONARY
360
9A9D
102
}
102
{ACAD_REACTORS
330
9A41
102
}
330
9A41
100
AcDbModelDocViewStyle
 70
     0
  3
Imperial24
290
     0
100
AcDbDetailViewStyle
 70
     0
 71
     0
 90
        3
 71
     1
340
97DD
 40
0.24
340
0
 40
0.24
300

 40
0.36
280
     3
 71
     2
340
97E1
 90
       25
 71
     3
340
97DD
 40
0.24
 90
        1
 40
0.75
 90
        1
300
%<\AcVar ViewType \f "%tc1">% %<\AcVar ViewDetailId>%\PSCALE %<\AcVar ViewScale \f "%sn">%
 71
     4
340
97E1
 90
       25
340
97E1
 90
       25
280
     0
  0
LAYOUT
  5
9A43
102
{ACAD_XDICTIONARY
360
9A9F
102
}
102
{ACAD_REACTORS
330
97E5
102
}
330
97E5
100
AcDbPlotSettings
  1

  2
Canon LBP9100C
  4

  6

 40
0.0
 41
0.0
 42
0.0
 43
0.0
 44
0.0
 45
0.0
 46
0.0
 47
0.0
 48
0.0
 49
0.0
140
0.0
141
0.0
142
1.0
143
1.0
 70
  1712
 72
     0
 73
     0
 74
     0
  7

 75
     0
147
1.0
148
0.0
149
0.0
100
AcDbLayout
  1
Model
 70
     1
 71
     0
 10
0.0
 20
0.0
 11
12.0
 21
9.0
 12
0.0
 22
0.0
 32
0.0
 14
0.0
 24
0.0
 34
0.0
 15
0.0
 25
0.0
 35
0.0
146
0.0
 13
0.0
 23
0.0
 33
0.0
 16
1.0
 26
0.0
 36
0.0
 17
0.0
 27
1.0
 37
0.0
 76
     0
330
97EA
331
99EC
  0
LAYOUT
  5
9A44
102
{ACAD_XDICTIONARY
360
9AA1
102
}
102
{ACAD_REACTORS
330
97E5
102
}
330
97E5
100
AcDbPlotSettings
  1

  2
Canon LBP9100C
  4

  6

 40
0.0
 41
0.0
 42
0.0
 43
0.0
 44
0.0
 45
0.0
 46
0.0
 47
0.0
 48
0.0
 49
0.0
140
0.0
141
0.0
142
1.0
143
1.0
 70
   688
 72
     0
 73
     0
 74
     5
  7

 75
    16
147
1.0
148
0.0
149
0.0
100
AcDbLayout
  1
レイアウト1
 70
     0
 71
     1
 10
0.0
 20
0.0
 11
420.0
 21
297.0
 12
0.0
 22
0.0
 32
0.0
 14
1.000000000000000E+20
 24
1.000000000000000E+20
 34
1.000000000000000E+20
 15
-1.000000000000000E+20
 25
-1.000000000000000E+20
 35
-1.000000000000000E+20
146
0.0
 13
0.0
 23
0.0
 33
0.0
 16
1.0
 26
0.0
 36
0.0
 17
0.0
 27
1.0
 37
0.0
 76
     0
330
97E6
  0
MATERIAL
  5
99FF
102
{ACAD_XDICTIONARY
360
9A00
102
}
102
{ACAD_REACTORS
330
99F6
102
}
330
99F6
100
AcDbMaterial
  1
ByBlock
 72
     0
 43
0.0208333333333333
 43
0.0
 43
0.0
 43
0.0
 43
0.0
 43
0.0208333333333333
 43
0.0
 43
0.0
 43
0.0
 43
0.0
 43
1.0
 43
0.0
 43
0.0
 43
0.0
 43
0.0
 43
1.0
 77
     0
 47
0.0208333333333333
 47
0.0
 47
0.0
 47
0.0
 47
0.0
 47
0.0208333333333333
 47
0.0
 47
0.0
 47
0.0
 47
0.0
 47
1.0
 47
0.0
 47
0.0
 47
0.0
 47
0.0
 47
1.0
171
     0
 49
0.0208333333333333
 49
0.0
 49
0.0
 49
0.0
 49
0.0
 49
0.0208333333333333
 49
0.0
 49
0.0
 49
0.0
 49
0.0
 49
1.0
 49
0.0
 49
0.0
 49
0.0
 49
0.0
 49
1.0
175
     0
142
0.0208333333333333
142
0.0
142
0.0
142
0.0
142
0.0
142
0.0208333333333333
142
0.0
142
0.0
142
0.0
142
0.0
142
1.0
142
0.0
142
0.0
142
0.0
142
0.0
142
1.0
179
     0
144
0.0208333333333333
144
0.0
144
0.0
144
0.0
144
0.0
144
0.0208333333333333
144
0.0
144
0.0
144
0.0
144
0.0
144
1.0
144
0.0
144
0.0
144
0.0
144
0.0
144
1.0
147
0.0208333333333333
147
0.0
147
0.0
147
0.0
147
0.0
147
0.0208333333333333
147
0.0
147
0.0
147
0.0
147
0.0
147
1.0
147
0.0
147
0.0
147
0.0
147
0.0
147
1.0
  0
MATERIAL
  5
99F7
102
{ACAD_XDICTIONARY
360
99F8
102
}
102
{ACAD_REACTORS
330
99F6
102
}
330
99F6
100
AcDbMaterial
  1
ByLayer
 72
     0
 43
0.0208333333333333
 43
0.0
 43
0.0
 43
0.0
 43
0.0
 43
0.0208333333333333
 43
0.0
 43
0.0
 43
0.0
 43
0.0
 43
1.0
 43
0.0
 43
0.0
 43
0.0
 43
0.0
 43
1.0
 77
     0
 47
0.0208333333333333
 47
0.0
 47
0.0
 47
0.0
 47
0.0
 47
0.0208333333333333
 47
0.0
 47
0.0
 47
0.0
 47
0.0
 47
1.0
 47
0.0
 47
0.0
 47
0.0
 47
0.0
 47
1.0
171
     0
 49
0.0208333333333333
 49
0.0
 49
0.0
 49
0.0
 49
0.0
 49
0.0208333333333333
 49
0.0
 49
0.0
 49
0.0
 49
0.0
 49
1.0
 49
0.0
 49
0.0
 49
0.0
 49
0.0
 49
1.0
175
     0
142
0.0208333333333333
142
0.0
142
0.0
142
0.0
142
0.0
142
0.0208333333333333
142
0.0
142
0.0
142
0.0
142
0.0
142
1.0
142
0.0
142
0.0
142
0.0
142
0.0
142
1.0
179
     0
144
0.0208333333333333
144
0.0
144
0.0
144
0.0
144
0.0
144
0.0208333333333333
144
0.0
144
0.0
144
0.0
144
0.0
144
1.0
144
0.0
144
0.0
144
0.0
144
0.0
144
1.0
147
0.0208333333333333
147
0.0
147
0.0
147
0.0
147
0.0
147
0.0208333333333333
147
0.0
147
0.0
147
0.0
147
0.0
147
1.0
147
0.0
147
0.0
147
0.0
147
0.0
147
1.0
  0
MATERIAL
  5
9A07
102
{ACAD_XDICTIONARY
360
9A08
102
}
102
{ACAD_REACTORS
330
99F6
102
}
330
99F6
100
AcDbMaterial
  1
Global
 72
     0
 43
0.0208333333333333
 43
0.0
 43
0.0
 43
0.0
 43
0.0
 43
0.0208333333333333
 43
0.0
 43
0.0
 43
0.0
 43
0.0
 43
1.0
 43
0.0
 43
0.0
 43
0.0
 43
0.0
 43
1.0
 77
     0
 47
0.0208333333333333
 47
0.0
 47
0.0
 47
0.0
 47
0.0
 47
0.0208333333333333
 47
0.0
 47
0.0
 47
0.0
 47
0.0
 47
1.0
 47
0.0
 47
0.0
 47
0.0
 47
0.0
 47
1.0
171
     0
 49
0.0208333333333333
 49
0.0
 49
0.0
 49
0.0
 49
0.0
 49
0.0208333333333333
 49
0.0
 49
0.0
 49
0.0
 49
0.0
 49
1.0
 49
0.0
 49
0.0
 49
0.0
 49
0.0
 49
1.0
175
     0
142
0.0208333333333333
142
0.0
142
0.0
142
0.0
142
0.0
142
0.0208333333333333
142
0.0
142
0.0
142
0.0
142
0.0
142
1.0
142
0.0
142
0.0
142
0.0
142
0.0
142
1.0
179
     0
144
0.0208333333333333
144
0.0
144
0.0
144
0.0
144
0.0
144
0.0208333333333333
144
0.0
144
0.0
144
0.0
144
0.0
144
1.0
144
0.0
144
0.0
144
0.0
144
0.0
144
1.0
147
0.0208333333333333
147
0.0
147
0.0
147
0.0
147
0.0
147
0.0208333333333333
147
0.0
147
0.0
147
0.0
147
0.0
147
1.0
147
0.0
147
0.0
147
0.0
147
0.0
147
1.0
  0
MLEADERSTYLE
  5
9A3E
102
{ACAD_REACTORS
330
9A3D
102
}
330
9A3D
100
AcDbMLeaderStyle
170
     2
171
     1
172
     0
 90
        2
 40
0.0
 41
0.0
173
     1
 91
-1056964608
340
97DF
 92
       -2
290
     1
 42
0.09
291
     1
 43
0.36
  3
Standard
 44
0.18
300

342
97DD
174
     1
178
     6
175
     1
176
     0
 93
-1056964608
 45
0.18
292
     0
297
     0
 46
0.18
 94
-1056964608
 47
1.0
 49
1.0
140
1.0
293
     1
141
0.0
294
     1
177
     0
142
1.0
295
     0
296
     0
143
0.125
1001
ACAD_MLEADERVER
1070
     2
  0
MLINESTYLE
  5
97E3
102
{ACAD_REACTORS
330
97E2
102
}
330
97E2
100
AcDbMlineStyle
  2
STANDARD
 70
     0
  3

 62
   256
 51
90.0
 52
90.0
 71
     2
 49
0.5
 62
   256
  6
BYLAYER
 49
-0.5
 62
   256
  6
BYLAYER
  0
ACDBPLACEHOLDER
  5
99F5
102
{ACAD_REACTORS
330
99F4
102
}
330
99F4
  0
SCALE
  5
9A2C
102
{ACAD_REACTORS
330
9A2B
102
}
330
9A2B
100
AcDbScale
 70
     0
300
1:1
140
1.0
141
1.0
290
     1
  0
SCALE
  5
9A2D
102
{ACAD_REACTORS
330
9A2B
102
}
330
9A2B
100
AcDbScale
 70
     0
300
1/128" = 1'-0"
140
0.0078125
141
12.0
290
     0
  0
SCALE
  5
9A2E
102
{ACAD_REACTORS
330
9A2B
102
}
330
9A2B
100
AcDbScale
 70
     0
300
1/64" = 1'-0"
140
0.015625
141
12.0
290
     0
  0
SCALE
  5
9A2F
102
{ACAD_REACTORS
330
9A2B
102
}
330
9A2B
100
AcDbScale
 70
     0
300
1/32" = 1'-0"
140
0.03125
141
12.0
290
     0
  0
SCALE
  5
9A30
102
{ACAD_REACTORS
330
9A2B
102
}
330
9A2B
100
AcDbScale
 70
     0
300
1/16" = 1'-0"
140
0.0625
141
12.0
290
     0
  0
SCALE
  5
9A31
102
{ACAD_REACTORS
330
9A2B
102
}
330
9A2B
100
AcDbScale
 70
     0
300
3/32" = 1'-0"
140
0.09375
141
12.0
290
     0
  0
SCALE
  5
9A32
102
{ACAD_REACTORS
330
9A2B
102
}
330
9A2B
100
AcDbScale
 70
     0
300
1/8" = 1'-0"
140
0.125
141
12.0
290
     0
  0
SCALE
  5
9A33
102
{ACAD_REACTORS
330
9A2B
102
}
330
9A2B
100
AcDbScale
 70
     0
300
3/16" = 1'-0"
140
0.1875
141
12.0
290
     0
  0
SCALE
  5
9A34
102
{ACAD_REACTORS
330
9A2B
102
}
330
9A2B
100
AcDbScale
 70
     0
300
1/4" = 1'-0"
140
0.25
141
12.0
290
     0
  0
SCALE
  5
9A35
102
{ACAD_REACTORS
330
9A2B
102
}
330
9A2B
100
AcDbScale
 70
     0
300
3/8" = 1'-0"
140
0.375
141
12.0
290
     0
  0
SCALE
  5
9A36
102
{ACAD_REACTORS
330
9A2B
102
}
330
9A2B
100
AcDbScale
 70
     0
300
1/2" = 1'-0"
140
0.5
141
12.0
290
     0
  0
SCALE
  5
9A37
102
{ACAD_REACTORS
330
9A2B
102
}
330
9A2B
100
AcDbScale
 70
     0
300
3/4" = 1'-0"
140
0.75
141
12.0
290
     0
  0
SCALE
  5
9A38
102
{ACAD_REACTORS
330
9A2B
102
}
330
9A2B
100
AcDbScale
 70
     0
300
1" = 1'-0"
140
1.0
141
12.0
290
     0
  0
SCALE
  5
9A39
102
{ACAD_REACTORS
330
9A2B
102
}
330
9A2B
100
AcDbScale
 70
     0
300
1-1/2" = 1'-0"
140
1.5
141
12.0
290
     0
  0
SCALE
  5
9A3A
102
{ACAD_REACTORS
330
9A2B
102
}
330
9A2B
100
AcDbScale
 70
     0
300
3" = 1'-0"
140
3.0
141
12.0
290
     0
  0
SCALE
  5
9A3B
102
{ACAD_REACTORS
330
9A2B
102
}
330
9A2B
100
AcDbScale
 70
     0
300
6" = 1'-0"
140
6.0
141
12.0
290
     0
  0
SCALE
  5
9A3C
102
{ACAD_REACTORS
330
9A2B
102
}
330
9A2B
100
AcDbScale
 70
     0
300
1'-0" = 1'-0"
140
12.0
141
12.0
290
     0
  0
ACDBSECTIONVIEWSTYLE
  5
9A40
102
{ACAD_XDICTIONARY
360
9A9B
102
}
102
{ACAD_REACTORS
330
9A3F
102
}
330
9A3F
100
AcDbModelDocViewStyle
 70
     0
  3
Imperial24
290
     0
100
AcDbSectionViewStyle
 70
     0
 71
     0
 90
       78
 71
     1
340
97DD
 40
0.24
340
0
340
0
 40
0.24
300
I, O, Q, S, X, Z
 40
0.48
 90
        3
 40
0.18
 90
        1
 71
     2
340
97E1
 90
       25
340
97E1
 90
       50
 40
0.24
 40
0.0
 40
0.24
 71
     3
340
97DD
 40
0.24
 90
        1
 40
0.75
 90
        1
300
%<\AcVar ViewType \f "%tc1">% %<\AcVar ViewSectionStartId>%-%<\AcVar ViewSectionEndId>%\PSCALE %<\AcVar ViewScale \f "%sn">%
 71
     4
300
ANSI31
 40
1.0
 90
        0
290
     0
290
     0
 90
        6
 40
0.0
 40
1.570796326794896
 40
0.2617993877991494
 40
1.308996938995747
 40
-0.2617993877991494
 40
1.832595714594046
  0
TABLESTYLE
  5
9A2A
102
{ACAD_XDICTIONARY
360
9A62
102
}
102
{ACAD_REACTORS
330
9A29
102
}
330
9A29
100
AcDbTableStyle
  3
Standard
 70
     0
 71
     0
 40
0.06
 41
0.06
280
     0
281
     0
  7
STANDARD
140
0.18
170
     2
 62
     0
 63
     7
283
     0
274
    -2
284
     1
 64
     0
275
    -2
285
     1
 65
     0
276
    -2
286
     1
 66
     0
277
    -2
287
     1
 67
     0
278
    -2
288
     1
 68
     0
279
    -2
289
     1
 69
     0
  7
STANDARD
140
0.25
170
     5
 62
     0
 63
     7
283
     0
274
    -2
284
     1
 64
     0
275
    -2
285
     1
 65
     0
276
    -2
286
     1
 66
     0
277
    -2
287
     1
 67
     0
278
    -2
288
     1
 68
     0
279
    -2
289
     1
 69
     0
  7
STANDARD
140
0.18
170
     5
 62
     0
 63
     7
283
     0
274
    -2
284
     1
 64
     0
275
    -2
285
     1
 65
     0
276
    -2
286
     1
 66
     0
277
    -2
287
     1
 67
     0
278
    -2
288
     1
 68
     0
279
    -2
289
     1
 69
     0
  0
VISUALSTYLE
  5
9A15
102
{ACAD_XDICTIONARY
360
9A73
102
}
102
{ACAD_REACTORS
330
9A0F
102
}
330
9A0F
100
AcDbVisualStyle
  2
2dWireframe
 70
     4
 71
     0
 72
     2
 73
     0
 90
        0
 40
-0.6
 41
-30.0
 62
     5
 63
     7
 74
     1
 91
        4
 64
     7
 65
   257
 75
     1
175
     1
 42
1.0
 92
        0
 66
   257
 43
1.0
 76
     1
 77
     6
 78
     2
 67
     7
 79
     5
170
     0
171
     0
290
     0
174
     0
 93
        1
 44
0.0
173
     0
291
     0
 45
0.0
1001
ACAD
1000
AcDbSavedByObjectVersion
1070
     0
  0
VISUALSTYLE
  5
9A14
102
{ACAD_XDICTIONARY
360
9A71
102
}
102
{ACAD_REACTORS
330
9A0F
102
}
330
9A0F
100
AcDbVisualStyle
  2
Basic
 70
     7
 71
     1
 72
     0
 73
     1
 90
        0
 40
-0.6
 41
-30.0
 62
     5
 63
     7
 74
     0
 91
        4
 64
     7
 65
   257
 75
     1
175
     1
 42
1.0
 92
        8
 66
     7
 43
1.0
 76
     1
 77
     6
 78
     2
 67
     7
 79
     5
170
     0
171
     0
290
     0
174
     0
 93
        1
 44
0.0
173
     0
291
     1
 45
0.0
1001
ACAD
1000
AcDbSavedByObjectVersion
1070
     0
  0
VISUALSTYLE
  5
9A1B
102
{ACAD_XDICTIONARY
360
9A7F
102
}
102
{ACAD_REACTORS
330
9A0F
102
}
330
9A0F
100
AcDbVisualStyle
  2
Brighten
 70
    12
 71
     2
 72
     2
 73
     0
 90
        0
 40
-0.6
 41
-30.0
 62
     5
 63
     7
 74
     1
 91
        4
 64
     7
 65
   257
 75
     1
175
     1
 42
1.0
 92
        8
 66
     7
 43
1.0
 76
     1
 77
     6
 78
     2
 67
     7
 79
     5
170
     0
171
     0
290
     0
174
     0
 93
        1
 44
50.0
173
     0
291
     1
 45
0.0
1001
ACAD
1000
AcDbSavedByObjectVersion
1070
     0
  0
VISUALSTYLE
  5
9A1F
102
{ACAD_XDICTIONARY
360
9A87
102
}
102
{ACAD_REACTORS
330
9A0F
102
}
330
9A0F
100
AcDbVisualStyle
  2
ColorChange
 70
    16
 71
     2
 72
     2
 73
     3
 90
        0
 40
-0.6
 41
-30.0
 62
     5
 63
     8
 74
     1
 91
        4
 64
     7
 65
   257
 75
     1
175
     1
 42
1.0
 92
        8
 66
     8
 43
1.0
 76
     1
 77
     6
 78
     2
 67
     7
 79
     5
170
     0
171
     0
290
     0
174
     0
 93
        1
 44
0.0
173
     0
291
     1
 45
0.0
1001
ACAD
1000
AcDbSavedByObjectVersion
1070
     0
  0
VISUALSTYLE
  5
9A18
102
{ACAD_XDICTIONARY
360
9A79
102
}
102
{ACAD_REACTORS
330
9A0F
102
}
330
9A0F
100
AcDbVisualStyle
  2
Conceptual
 70
     9
 71
     3
 72
     2
 73
     0
 90
        0
 40
-0.6
 41
-30.0
 62
     5
 63
     7
 74
     2
 91
        2
 64
     7
 65
   257
 75
     1
175
     1
 42
179.0
 92
        8
 66
     7
 43
1.0
 76
     1
 77
     6
 78
     2
 67
     7
 79
     3
170
     0
171
     0
290
     0
174
     0
 93
        1
 44
0.0
173
     0
291
     0
 45
0.0
1001
ACAD
1000
AcDbSavedByObjectVersion
1070
     0
  0
VISUALSTYLE
  5
9A1A
102
{ACAD_XDICTIONARY
360
9A7D
102
}
102
{ACAD_REACTORS
330
9A0F
102
}
330
9A0F
100
AcDbVisualStyle
  2
Dim
 70
    11
 71
     2
 72
     2
 73
     0
 90
        0
 40
-0.6
 41
-30.0
 62
     5
 63
     7
 74
     1
 91
        4
 64
     7
 65
   257
 75
     1
175
     1
 42
1.0
 92
        8
 66
     7
 43
1.0
 76
     1
 77
     6
 78
     2
 67
     7
 79
     5
170
     0
171
     0
290
     0
174
     0
 93
        1
 44
-50.0
173
     0
291
     1
 45
0.0
1001
ACAD
1000
AcDbSavedByObjectVersion
1070
     0
  0
VISUALSTYLE
  5
9A27
102
{ACAD_XDICTIONARY
360
9A97
102
}
102
{ACAD_REACTORS
330
9A0F
102
}
330
9A0F
100
AcDbVisualStyle
  2
EdgeColorOff
 70
    22
 71
     2
 72
     2
 73
     0
 90
        0
 40
-0.6
 41
-30.0
 62
     5
 63
     7
 74
     1
 91
        4
 64
     7
 65
   257
 75
     1
175
     1
 42
1.0
 92
        8
 66
     7
 43
1.0
 76
     1
 77
     6
 78
     2
 67
     7
 79
     5
170
     0
171
     0
290
     0
174
     0
 93
        1
 44
0.0
173
     0
291
     1
 45
0.0
1001
ACAD
1000
AcDbSavedByObjectVersion
1070
     0
  0
VISUALSTYLE
  5
9A1E
102
{ACAD_XDICTIONARY
360
9A85
102
}
102
{ACAD_REACTORS
330
9A0F
102
}
330
9A0F
100
AcDbVisualStyle
  2
Facepattern
 70
    15
 71
     2
 72
     2
 73
     0
 90
        0
 40
-0.6
 41
-30.0
 62
     5
 63
     7
 74
     1
 91
        4
 64
     7
 65
   257
 75
     1
175
     1
 42
1.0
 92
        8
 66
     7
 43
1.0
 76
     1
 77
     6
 78
     2
 67
     7
 79
     5
170
     0
171
     0
290
     0
174
     0
 93
        1
 44
0.0
173
     0
291
     1
 45
0.0
1001
ACAD
1000
AcDbSavedByObjectVersion
1070
     0
  0
VISUALSTYLE
  5
9A10
102
{ACAD_XDICTIONARY
360
9A69
102
}
102
{ACAD_REACTORS
330
9A0F
102
}
330
9A0F
100
AcDbVisualStyle
  2
Flat
 70
     0
 71
     2
 72
     1
 73
     1
 90
        2
 40
-0.6
 41
30.0
 62
     5
 63
     7
 74
     0
 91
        0
 64
     7
 65
   257
 75
     1
175
     1
 42
1.0
 92
        8
 66
     7
 43
1.0
 76
     1
 77
     6
 78
     2
 67
     7
 79
     5
170
     0
171
     0
290
     0
174
     0
 93
       13
 44
0.0
173
     0
291
     1
 45
0.0
1001
ACAD
1000
AcDbSavedByObjectVersion
1070
     0
  0
VISUALSTYLE
  5
9A11
102
{ACAD_XDICTIONARY
360
9A6B
102
}
102
{ACAD_REACTORS
330
9A0F
102
}
330
9A0F
100
AcDbVisualStyle
  2
FlatWithEdges
 70
     1
 71
     2
 72
     1
 73
     1
 90
        2
 40
-0.6
 41
30.0
 62
     5
 63
     7
 74
     1
 91
        0
 64
     7
 65
   257
 75
     1
175
     1
 42
1.0
 92
        0
 66
   257
 43
1.0
 76
     1
 77
     6
 78
     2
 67
     7
 79
     5
170
     0
171
     0
290
     0
174
     0
 93
       13
 44
0.0
173
     0
291
     1
 45
0.0
1001
ACAD
1000
AcDbSavedByObjectVersion
1070
     0
  0
VISUALSTYLE
  5
9A12
102
{ACAD_XDICTIONARY
360
9A6D
102
}
102
{ACAD_REACTORS
330
9A0F
102
}
330
9A0F
100
AcDbVisualStyle
  2
Gouraud
 70
     2
 71
     2
 72
     2
 73
     1
 90
        2
 40
-0.6
 41
30.0
 62
     5
 63
     7
 74
     0
 91
        0
 64
     7
 65
   257
 75
     1
175
     1
 42
1.0
 92
        0
 66
     7
 43
1.0
 76
     1
 77
     6
 78
     2
 67
     7
 79
     5
170
     0
171
     0
290
     0
174
     0
 93
       13
 44
0.0
173
     0
291
     1
 45
0.0
1001
ACAD
1000
AcDbSavedByObjectVersion
1070
     0
  0
VISUALSTYLE
  5
9A13
102
{ACAD_XDICTIONARY
360
9A6F
102
}
102
{ACAD_REACTORS
330
9A0F
102
}
330
9A0F
100
AcDbVisualStyle
  2
GouraudWithEdges
 70
     3
 71
     2
 72
     2
 73
     1
 90
        2
 40
-0.6
 41
30.0
 62
     5
 63
     7
 74
     1
 91
        0
 64
     7
 65
   257
 75
     1
175
     1
 42
1.0
 92
        0
 66
   257
 43
1.0
 76
     1
 77
     6
 78
     2
 67
     7
 79
     5
170
     0
171
     0
290
     0
174
     0
 93
       13
 44
0.0
173
     0
291
     1
 45
0.0
1001
ACAD
1000
AcDbSavedByObjectVersion
1070
     0
  0
VISUALSTYLE
  5
9A17
102
{ACAD_XDICTIONARY
360
9A77
102
}
102
{ACAD_REACTORS
330
9A0F
102
}
330
9A0F
100
AcDbVisualStyle
  2
Hidden
 70
     6
 71
     1
 72
     2
 73
     2
 90
        0
 40
-0.6
 41
-30.0
 62
     5
 63
     7
 74
     2
 91
        2
 64
     7
 65
   257
 75
     2
175
     1
 42
40.0
 92
        0
 66
   257
 43
1.0
 76
     1
 77
     6
 78
     2
 67
     7
 79
     3
170
     0
171
     0
290
     0
174
     0
 93
        1
 44
0.0
173
     0
291
     0
 45
0.0
1001
ACAD
1000
AcDbSavedByObjectVersion
1070
     0
  0
VISUALSTYLE
  5
9A25
102
{ACAD_XDICTIONARY
360
9A93
102
}
102
{ACAD_REACTORS
330
9A0F
102
}
330
9A0F
100
AcDbVisualStyle
  2
JitterOff
 70
    20
 71
     2
 72
     2
 73
     0
 90
        0
 40
-0.6
 41
-30.0
 62
     5
 63
     7
 74
     1
 91
        4
 64
     7
 65
   257
 75
     1
175
     1
 42
1.0
 92
       10
 66
     7
 43
1.0
 76
     1
 77
     6
 78
     2
 67
     7
 79
     5
170
     0
171
     0
290
     0
174
     0
 93
        1
 44
0.0
173
     0
291
     1
 45
0.0
1001
ACAD
1000
AcDbSavedByObjectVersion
1070
     0
  0
VISUALSTYLE
  5
9A1D
102
{ACAD_XDICTIONARY
360
9A83
102
}
102
{ACAD_REACTORS
330
9A0F
102
}
330
9A0F
100
AcDbVisualStyle
  2
Linepattern
 70
    14
 71
     2
 72
     2
 73
     0
 90
        0
 40
-0.6
 41
-30.0
 62
     5
 63
     7
 74
     1
 91
        4
 64
     7
 65
   257
 75
     7
175
     7
 42
1.0
 92
        8
 66
     7
 43
1.0
 76
     1
 77
     6
 78
     2
 67
     7
 79
     5
170
     0
171
     0
290
     0
174
     0
 93
        1
 44
0.0
173
     0
291
     1
 45
0.0
1001
ACAD
1000
AcDbSavedByObjectVersion
1070
     0
  0
VISUALSTYLE
  5
9A26
102
{ACAD_XDICTIONARY
360
9A95
102
}
102
{ACAD_REACTORS
330
9A0F
102
}
330
9A0F
100
AcDbVisualStyle
  2
OverhangOff
 70
    21
 71
     2
 72
     2
 73
     0
 90
        0
 40
-0.6
 41
-30.0
 62
     5
 63
     7
 74
     1
 91
        4
 64
     7
 65
   257
 75
     1
175
     1
 42
1.0
 92
        9
 66
     7
 43
1.0
 76
     1
 77
     6
 78
     2
 67
     7
 79
     5
170
     0
171
     0
290
     0
174
     0
 93
        1
 44
0.0
173
     0
291
     1
 45
0.0
1001
ACAD
1000
AcDbSavedByObjectVersion
1070
     0
  0
VISUALSTYLE
  5
9A19
102
{ACAD_XDICTIONARY
360
9A7B
102
}
102
{ACAD_REACTORS
330
9A0F
102
}
330
9A0F
100
AcDbVisualStyle
  2
Realistic
 70
     8
 71
     2
 72
     3
 73
     0
 90
        2
 40
-0.6
 41
30.0
 62
     5
 63
     7
 74
     0
 91
        0
 64
     7
 65
   257
 75
     1
175
     1
 42
1.0
 92
        8
 66
   257
 43
1.0
 76
     1
 77
     6
 78
     2
 67
     7
 79
     3
170
     0
171
     0
290
     0
174
     0
 93
       13
 44
0.0
173
     0
291
     0
 45
0.0
1001
ACAD
1000
AcDbSavedByObjectVersion
1070
     0
  0
VISUALSTYLE
  5
9A24
102
{ACAD_XDICTIONARY
360
9A91
102
}
102
{ACAD_REACTORS
330
9A0F
102
}
330
9A0F
100
AcDbVisualStyle
  2
Shaded
 70
    27
 71
     2
 72
     2
 73
     1
 90
        2
 40
-0.6
 41
30.0
 62
     5
 63
     7
 74
     0
 91
        4
 64
     7
 65
   257
 75
     1
175
     1
 42
1.0
 92
        8
 66
   257
 43
1.0
 76
     1
 77
     6
 78
     2
 67
     8
 79
     3
170
     0
171
     0
290
     0
174
     0
 93
        5
 44
0.0
173
     0
291
     0
 45
0.0
1001
ACAD
1000
AcDbSavedByObjectVersion
1070
     0
  0
VISUALSTYLE
  5
9A23
102
{ACAD_XDICTIONARY
360
9A8F
102
}
102
{ACAD_REACTORS
330
9A0F
102
}
330
9A0F
100
AcDbVisualStyle
  2
Shaded with edges
 70
    26
 71
     2
 72
     2
 73
     1
 90
        2
 40
-0.6
 41
30.0
 62
     5
 63
     7
 74
     1
 91
       10
 64
     7
 65
   257
 75
     2
175
     1
 42
1.0
 92
        8
 66
   257
 43
1.0
 76
     1
 77
     6
 78
     2
 67
     7
 79
     3
170
     0
171
     0
290
     0
174
     0
 93
        5
 44
0.0
173
     0
291
     0
 45
0.0
1001
ACAD
1000
AcDbSavedByObjectVersion
1070
     0
  0
VISUALSTYLE
  5
9A20
102
{ACAD_XDICTIONARY
360
9A89
102
}
102
{ACAD_REACTORS
330
9A0F
102
}
330
9A0F
100
AcDbVisualStyle
  2
Shades of Gray
 70
    23
 71
     2
 72
     2
 73
     3
 90
        0
 40
-0.6
 41
-30.0
 62
     5
 63
     7
 74
     2
 91
        2
 64
     7
 65
     7
 75
     1
175
     1
 42
40.0
 92
        8
 66
     7
 43
1.0
 76
     1
 77
     6
 78
     2
 67
     7
 79
     3
170
     0
171
     0
290
     0
174
     0
 93
        1
 44
0.0
173
     0
291
     0
 45
0.0
1001
ACAD
1000
AcDbSavedByObjectVersion
1070
     0
  0
VISUALSTYLE
  5
9A21
102
{ACAD_XDICTIONARY
360
9A8B
102
}
102
{ACAD_REACTORS
330
9A0F
102
}
330
9A0F
100
AcDbVisualStyle
  2
Sketchy
 70
    24
 71
     1
 72
     2
 73
     2
 90
        0
 40
-0.6
 41
-30.0
 62
     5
 63
     7
 74
     2
 91
        2
 64
     7
 65
     7
 75
     1
175
     1
 42
40.0
 92
       11
 66
     7
 43
1.0
 76
     1
 77
     6
 78
     2
 67
     7
 79
     6
170
     0
171
     0
290
     0
174
     0
 93
        1
 44
0.0
173
     0
291
     0
 45
0.0
1001
ACAD
1000
AcDbSavedByObjectVersion
1070
     0
  0
VISUALSTYLE
  5
9A1C
102
{ACAD_XDICTIONARY
360
9A81
102
}
102
{ACAD_REACTORS
330
9A0F
102
}
330
9A0F
100
AcDbVisualStyle
  2
Thicken
 70
    13
 71
     2
 72
     2
 73
     0
 90
        0
 40
-0.6
 41
-30.0
 62
     5
 63
     7
 74
     1
 91
        4
 64
     7
 65
   257
 75
     1
175
     1
 42
1.0
 92
       12
 66
     7
 43
1.0
 76
     1
 77
     6
 78
     2
 67
     7
 79
     5
170
     0
171
     0
290
     0
174
     0
 93
        1
 44
0.0
173
     0
291
     1
 45
0.0
1001
ACAD
1000
AcDbSavedByObjectVersion
1070
     0
  0
VISUALSTYLE
  5
9A16
102
{ACAD_XDICTIONARY
360
9A75
102
}
102
{ACAD_REACTORS
330
9A0F
102
}
330
9A0F
100
AcDbVisualStyle
  2
Wireframe
 70
     5
 71
     0
 72
     2
 73
     0
 90
        0
 40
-0.6
 41
-30.0
 62
     5
 63
     7
 74
     1
 91
        4
 64
     7
 65
   257
 75
     1
175
     1
 42
1.0
 92
        0
 66
   257
 43
1.0
 76
     1
 77
     6
 78
     2
 67
     7
 79
     3
170
     0
171
     0
290
     0
174
     0
 93
        1
 44
0.0
173
     0
291
     0
 45
0.0
1001
ACAD
1000
AcDbSavedByObjectVersion
1070
     0
  0
VISUALSTYLE
  5
9A22
102
{ACAD_XDICTIONARY
360
9A8D
102
}
102
{ACAD_REACTORS
330
9A0F
102
}
330
9A0F
100
AcDbVisualStyle
  2
X-Ray
 70
    25
 71
     2
 72
     2
 73
     1
 90
        1
 40
0.5
 41
-30.0
 62
     5
 63
     7
 74
     1
 91
        0
 64
     7
 65
   257
 75
     1
175
     1
 42
1.0
 92
        8
 66
     7
 43
1.0
 76
     1
 77
     6
 78
     2
 67
     7
 79
     3
170
     0
171
     0
290
     0
174
     0
 93
       13
 44
0.0
173
     0
291
     0
 45
0.0
1001
ACAD
1000
AcDbSavedByObjectVersion
1070
     0
  0
DICTIONARYVAR
  5
9A5C
102
{ACAD_REACTORS
330
9A57
102
}
330
9A57
100
DictionaryVariables
280
     0
  1
1:1
  0
DICTIONARYVAR
  5
9A59
102
{ACAD_REACTORS
330
9A57
102
}
330
9A57
100
DictionaryVariables
280
     0
  1
STANDARD
  0
DICTIONARYVAR
  5
9A58
102
{ACAD_REACTORS
330
9A57
102
}
330
9A57
100
DictionaryVariables
280
     0
  1
STANDARD
  0
DICTIONARYVAR
  5
9A5A
102
{ACAD_REACTORS
330
9A57
102
}
330
9A57
100
DictionaryVariables
280
     0
  1
Imperial24
  0
DICTIONARYVAR
  5
9A5B
102
{ACAD_REACTORS
330
9A57
102
}
330
9A57
100
DictionaryVariables
280
     0
  1
Imperial24
  0
DICTIONARYVAR
  5
9A5F
102
{ACAD_REACTORS
330
9A57
102
}
330
9A57
100
DictionaryVariables
280
     0
  1
1
  0
DICTIONARYVAR
  5
9A5E
102
{ACAD_REACTORS
330
9A57
102
}
330
9A57
100
DictionaryVariables
280
     0
  1
0
  0
DICTIONARYVAR
  5
9A5D
102
{ACAD_REACTORS
330
9A57
102
}
330
9A57
100
DictionaryVariables
280
     0
  1
127
  0
DICTIONARYVAR
  5
9A60
102
{ACAD_REACTORS
330
9A57
102
}
330
9A57
100
DictionaryVariables
280
     0
  1
2
  0
DICTIONARY
  5
9A9D
330
9A42
100
AcDbDictionary
280
     1
281
     1
  3
ACAD_XREC_ROUNDTRIP
360
9A9E
  0
DICTIONARY
  5
9A9F
330
9A43
100
AcDbDictionary
280
     1
281
     1
  3
ACAD_XREC_ROUNDTRIP
360
9AA0
  0
DICTIONARY
  5
9AA1
330
9A44
100
AcDbDictionary
280
     1
281
     1
  3
ACAD_XREC_ROUNDTRIP
360
9AA2
  0
DICTIONARY
  5
9A00
330
99FF
100
AcDbDictionary
280
     1
281
     1
  3
ACAD_XREC_ROUNDTRIP
360
9A67
  3
BUMPTILE
360
9A02
  3
DIFFUSETILE
360
9A01
  3
OPACITYTILE
360
9A05
  3
REFLECTIONTILE
360
9A04
  3
REFRACTIONTILE
360
9A06
  3
SPECULARTILE
360
9A03
  0
DICTIONARY
  5
99F8
330
99F7
100
AcDbDictionary
280
     1
281
     1
  3
ACAD_XREC_ROUNDTRIP
360
9A66
  3
BUMPTILE
360
99FA
  3
DIFFUSETILE
360
99F9
  3
OPACITYTILE
360
99FD
  3
REFLECTIONTILE
360
99FC
  3
REFRACTIONTILE
360
99FE
  3
SPECULARTILE
360
99FB
  0
DICTIONARY
  5
9A08
330
9A07
100
AcDbDictionary
280
     1
281
     1
  3
ACAD_XREC_ROUNDTRIP
360
9A68
  3
BUMPTILE
360
9A0A
  3
DIFFUSETILE
360
9A09
  3
OPACITYTILE
360
9A0D
  3
REFLECTIONTILE
360
9A0C
  3
REFRACTIONTILE
360
9A0E
  3
SPECULARTILE
360
9A0B
  0
DICTIONARY
  5
9A9B
330
9A40
100
AcDbDictionary
280
     1
281
     1
  3
ACAD_XREC_ROUNDTRIP
360
9A9C
  0
DICTIONARY
  5
9A62
330
9A2A
100
AcDbDictionary
280
     1
281
     1
  3
ACAD_ROUNDTRIP_2008_TABLESTYLE_CELLSTYLEMAP
360
9A63
  3
ACAD_XREC_ROUNDTRIP
360
9A99
  0
DICTIONARY
  5
9A73
330
9A15
100
AcDbDictionary
280
     1
281
     1
  3
ACAD_XREC_ROUNDTRIP
360
9A74
  0
DICTIONARY
  5
9A71
330
9A14
100
AcDbDictionary
280
     1
281
     1
  3
ACAD_XREC_ROUNDTRIP
360
9A72
  0
DICTIONARY
  5
9A7F
330
9A1B
100
AcDbDictionary
280
     1
281
     1
  3
ACAD_XREC_ROUNDTRIP
360
9A80
  0
DICTIONARY
  5
9A87
330
9A1F
100
AcDbDictionary
280
     1
281
     1
  3
ACAD_XREC_ROUNDTRIP
360
9A88
  0
DICTIONARY
  5
9A79
330
9A18
100
AcDbDictionary
280
     1
281
     1
  3
ACAD_XREC_ROUNDTRIP
360
9A7A
  0
DICTIONARY
  5
9A7D
330
9A1A
100
AcDbDictionary
280
     1
281
     1
  3
ACAD_XREC_ROUNDTRIP
360
9A7E
  0
DICTIONARY
  5
9A97
330
9A27
100
AcDbDictionary
280
     1
281
     1
  3
ACAD_XREC_ROUNDTRIP
360
9A98
  0
DICTIONARY
  5
9A85
330
9A1E
100
AcDbDictionary
280
     1
281
     1
  3
ACAD_XREC_ROUNDTRIP
360
9A86
  0
DICTIONARY
  5
9A69
330
9A10
100
AcDbDictionary
280
     1
281
     1
  3
ACAD_XREC_ROUNDTRIP
360
9A6A
  0
DICTIONARY
  5
9A6B
330
9A11
100
AcDbDictionary
280
     1
281
     1
  3
ACAD_XREC_ROUNDTRIP
360
9A6C
  0
DICTIONARY
  5
9A6D
330
9A12
100
AcDbDictionary
280
     1
281
     1
  3
ACAD_XREC_ROUNDTRIP
360
9A6E
  0
DICTIONARY
  5
9A6F
330
9A13
100
AcDbDictionary
280
     1
281
     1
  3
ACAD_XREC_ROUNDTRIP
360
9A70
  0
DICTIONARY
  5
9A77
330
9A17
100
AcDbDictionary
280
     1
281
     1
  3
ACAD_XREC_ROUNDTRIP
360
9A78
  0
DICTIONARY
  5
9A93
330
9A25
100
AcDbDictionary
280
     1
281
     1
  3
ACAD_XREC_ROUNDTRIP
360
9A94
  0
DICTIONARY
  5
9A83
330
9A1D
100
AcDbDictionary
280
     1
281
     1
  3
ACAD_XREC_ROUNDTRIP
360
9A84
  0
DICTIONARY
  5
9A95
330
9A26
100
AcDbDictionary
280
     1
281
     1
  3
ACAD_XREC_ROUNDTRIP
360
9A96
  0
DICTIONARY
  5
9A7B
330
9A19
100
AcDbDictionary
280
     1
281
     1
  3
ACAD_XREC_ROUNDTRIP
360
9A7C
  0
DICTIONARY
  5
9A91
330
9A24
100
AcDbDictionary
280
     1
281
     1
  3
ACAD_XREC_ROUNDTRIP
360
9A92
  0
DICTIONARY
  5
9A8F
330
9A23
100
AcDbDictionary
280
     1
281
     1
  3
ACAD_XREC_ROUNDTRIP
360
9A90
  0
DICTIONARY
  5
9A89
330
9A20
100
AcDbDictionary
280
     1
281
     1
  3
ACAD_XREC_ROUNDTRIP
360
9A8A
  0
DICTIONARY
  5
9A8B
330
9A21
100
AcDbDictionary
280
     1
281
     1
  3
ACAD_XREC_ROUNDTRIP
360
9A8C
  0
DICTIONARY
  5
9A81
330
9A1C
100
AcDbDictionary
280
     1
281
     1
  3
ACAD_XREC_ROUNDTRIP
360
9A82
  0
DICTIONARY
  5
9A75
330
9A16
100
AcDbDictionary
280
     1
281
     1
  3
ACAD_XREC_ROUNDTRIP
360
9A76
  0
DICTIONARY
  5
9A8D
330
9A22
100
AcDbDictionary
280
     1
281
     1
  3
ACAD_XREC_ROUNDTRIP
360
9A8E
  0
XRECORD
  5
9A9E
102
{ACAD_REACTORS
330
9A9D
102
}
330
9A9D
100
AcDbXrecord
280
     1
102
DISPLAYNAME
  1
Imperial24
102
FLAGS
 90
        0
  0
XRECORD
  5
9AA0
102
{ACAD_REACTORS
330
9A9F
102
}
330
9A9F
100
AcDbXrecord
280
     1
102
SHADEPLOT
 70
     0
102
SHADEPLOTRESLEVEL
 70
     2
102
SHADEPLOTCUSTOMDPI
 70
   300
  0
XRECORD
  5
9AA2
102
{ACAD_REACTORS
330
9AA1
102
}
330
9AA1
100
AcDbXrecord
280
     1
102
SHADEPLOT
 70
     0
102
SHADEPLOTRESLEVEL
 70
     2
102
SHADEPLOTCUSTOMDPI
 70
   300
  0
XRECORD
  5
9A67
102
{ACAD_REACTORS
330
9A00
102
}
330
9A00
100
AcDbXrecord
280
     1
102
MATERIAL
148
0.0
149
0.0
149
0.0
 93
        0
 94
      127
282
     0
 72
     0
 77
     0
171
     0
175
     0
179
     0
273
     0
  0
XRECORD
  5
9A02
102
{ACAD_REACTORS
330
9A00
102
}
330
9A00
100
AcDbXrecord
280
     1
270
     1
271
     1
  0
XRECORD
  5
9A01
102
{ACAD_REACTORS
330
9A00
102
}
330
9A00
100
AcDbXrecord
280
     1
270
     1
271
     1
  0
XRECORD
  5
9A05
102
{ACAD_REACTORS
330
9A00
102
}
330
9A00
100
AcDbXrecord
280
     1
270
     1
271
     1
  0
XRECORD
  5
9A04
102
{ACAD_REACTORS
330
9A00
102
}
330
9A00
100
AcDbXrecord
280
     1
270
     1
271
     1
  0
XRECORD
  5
9A06
102
{ACAD_REACTORS
330
9A00
102
}
330
9A00
100
AcDbXrecord
280
     1
270
     1
271
     1
  0
XRECORD
  5
9A03
102
{ACAD_REACTORS
330
9A00
102
}
330
9A00
100
AcDbXrecord
280
     1
270
     1
271
     1
  0
XRECORD
  5
9A66
102
{ACAD_REACTORS
330
99F8
102
}
330
99F8
100
AcDbXrecord
280
     1
102
MATERIAL
148
0.0
149
0.0
149
0.0
 93
        0
 94
      127
282
     0
 72
     0
 77
     0
171
     0
175
     0
179
     0
273
     0
  0
XRECORD
  5
99FA
102
{ACAD_REACTORS
330
99F8
102
}
330
99F8
100
AcDbXrecord
280
     1
270
     1
271
     1
  0
XRECORD
  5
99F9
102
{ACAD_REACTORS
330
99F8
102
}
330
99F8
100
AcDbXrecord
280
     1
270
     1
271
     1
  0
XRECORD
  5
99FD
102
{ACAD_REACTORS
330
99F8
102
}
330
99F8
100
AcDbXrecord
280
     1
270
     1
271
     1
  0
XRECORD
  5
99FC
102
{ACAD_REACTORS
330
99F8
102
}
330
99F8
100
AcDbXrecord
280
     1
270
     1
271
     1
  0
XRECORD
  5
99FE
102
{ACAD_REACTORS
330
99F8
102
}
330
99F8
100
AcDbXrecord
280
     1
270
     1
271
     1
  0
XRECORD
  5
99FB
102
{ACAD_REACTORS
330
99F8
102
}
330
99F8
100
AcDbXrecord
280
     1
270
     1
271
     1
  0
XRECORD
  5
9A68
102
{ACAD_REACTORS
330
9A08
102
}
330
9A08
100
AcDbXrecord
280
     1
102
MATERIAL
148
0.0
149
0.0
149
0.0
 93
        0
 94
      127
282
     0
 72
     0
 77
     0
171
     0
175
     0
179
     0
273
     0
  0
XRECORD
  5
9A0A
102
{ACAD_REACTORS
330
9A08
102
}
330
9A08
100
AcDbXrecord
280
     1
270
     1
271
     1
  0
XRECORD
  5
9A09
102
{ACAD_REACTORS
330
9A08
102
}
330
9A08
100
AcDbXrecord
280
     1
270
     1
271
     1
  0
XRECORD
  5
9A0D
102
{ACAD_REACTORS
330
9A08
102
}
330
9A08
100
AcDbXrecord
280
     1
270
     1
271
     1
  0
XRECORD
  5
9A0C
102
{ACAD_REACTORS
330
9A08
102
}
330
9A08
100
AcDbXrecord
280
     1
270
     1
271
     1
  0
XRECORD
  5
9A0E
102
{ACAD_REACTORS
330
9A08
102
}
330
9A08
100
AcDbXrecord
280
     1
270
     1
271
     1
  0
XRECORD
  5
9A0B
102
{ACAD_REACTORS
330
9A08
102
}
330
9A08
100
AcDbXrecord
280
     1
270
     1
271
     1
  0
XRECORD
  5
9A9C
102
{ACAD_REACTORS
330
9A9B
102
}
330
9A9B
100
AcDbXrecord
280
     1
102
DISPLAYNAME
  1
Imperial24
102
FLAGS
 90
        0
  0
CELLSTYLEMAP
  5
9A63
102
{ACAD_REACTORS
330
9A62
102
}
330
9A62
100
AcDbCellStyleMap
 90
        3
300
CELLSTYLE
  1
TABLEFORMAT_BEGIN
 90
        5
170
     1
 91
        0
 92
    32768
 62
   257
 93
        1
300
CONTENTFORMAT
  1
CONTENTFORMAT_BEGIN
 90
        0
 91
        0
 92
      512
 93
        0
300

 40
0.0
140
1.0
 94
        5
 62
     0
340
97DD
144
0.25
309
CONTENTFORMAT_END
171
     0
 94
        0
309
TABLEFORMAT_END
  1
CELLSTYLE_BEGIN
 90
        1
 91
        1
300
_TITLE
309
CELLSTYLE_END
300
CELLSTYLE
  1
TABLEFORMAT_BEGIN
 90
        5
170
     1
 91
        0
 92
        0
 62
   257
 93
        1
300
CONTENTFORMAT
  1
CONTENTFORMAT_BEGIN
 90
        0
 91
        0
 92
      512
 93
        0
300

 40
0.0
140
1.0
 94
        5
 62
     0
340
97DD
144
0.18
309
CONTENTFORMAT_END
171
     0
 94
        0
309
TABLEFORMAT_END
  1
CELLSTYLE_BEGIN
 90
        2
 91
        1
300
_HEADER
309
CELLSTYLE_END
300
CELLSTYLE
  1
TABLEFORMAT_BEGIN
 90
        5
170
     1
 91
        0
 92
        0
 62
   257
 93
        1
300
CONTENTFORMAT
  1
CONTENTFORMAT_BEGIN
 90
        0
 91
        0
 92
      512
 93
        0
300

 40
0.0
140
1.0
 94
        2
 62
     0
340
97DD
144
0.18
309
CONTENTFORMAT_END
171
     0
 94
        0
309
TABLEFORMAT_END
  1
CELLSTYLE_BEGIN
 90
        3
 91
        2
300
_DATA
309
CELLSTYLE_END
  0
XRECORD
  5
9A99
102
{ACAD_REACTORS
330
9A62
102
}
330
9A62
100
AcDbXrecord
280
     1
102
ACAD_ROUNDTRIP_PRE2007_TABLESTYLE
 90
      512
 91
        0
  1

 92
      512
 93
        0
  2

 94
      512
 95
        0
  3

  0
XRECORD
  5
9A74
102
{ACAD_REACTORS
330
9A73
102
}
330
9A73
100
AcDbXrecord
280
     1
102
RTVSPost2010Prop28
280
     1
102
RTVSPost2010PropOp28
 70
     1
102
RTVSPost2010Prop29
280
     1
102
RTVSPost2010PropOp29
 70
     1
102
RTVSPost2010Prop30
280
     0
102
RTVSPost2010PropOp30
 70
     1
102
RTVSPost2010Prop31
280
     0
102
RTVSPost2010PropOp31
 70
     1
102
RTVSPost2010Prop32
280
     0
102
RTVSPost2010PropOp32
 70
     1
102
RTVSPost2010Prop33
280
     0
102
RTVSPost2010PropOp33
 70
     1
102
RTVSPost2010Prop34
280
     0
102
RTVSPost2010PropOp34
 70
     1
102
RTVSPost2010Prop35
280
     0
102
RTVSPost2010PropOp35
 70
     1
102
RTVSPost2010Prop36
280
     0
102
RTVSPost2010PropOp36
 70
     1
102
RTVSPost2010Prop37
 90
       50
102
RTVSPost2010PropOp37
 70
     1
102
RTVSPost2010Prop38
140
0.0
102
RTVSPost2010PropOp38
 70
     1
102
RTVSPost2010Prop39
140
1.0
102
RTVSPost2010PropOp39
 70
     1
102
RTVSPost2010Prop40
 90
        0
102
RTVSPost2010PropOp40
 70
     1
102
RTVSPost2010Prop41ColorIndex
 90
       18
102
RTVSPost2010Prop41ColorRGB
 90
        0
102
RTVSPost2010PropOp41
 70
     1
102
RTVSPost2010Prop42
 90
       50
102
RTVSPost2010PropOp42
 70
     1
102
RTVSPost2010Prop43
 90
        3
102
RTVSPost2010PropOp43
 70
     1
102
RTVSPost2010Prop44ColorIndex
 90
        5
102
RTVSPost2010Prop44ColorRGB
 90
      255
102
RTVSPost2010PropOp44
 70
     1
102
RTVSPost2010Prop45
280
     0
102
RTVSPost2010PropOp45
 70
     1
102
RTVSPost2010Prop46
 90
       50
102
RTVSPost2010PropOp46
 70
     1
102
RTVSPost2010Prop47
 90
       50
102
RTVSPost2010PropOp47
 70
     1
102
RTVSPost2010Prop48
 90
       50
102
RTVSPost2010PropOp48
 70
     1
102
RTVSPost2010Prop49
280
     0
102
RTVSPost2010PropOp49
 70
     1
102
RTVSPost2010Prop50
 90
       50
102
RTVSPost2010PropOp50
 70
     1
102
RTVSPost2010Prop51ColorIndex
 90
      256
102
RTVSPost2010Prop51ColorRGB
 90
-16777216
102
RTVSPost2010PropOp51
 70
     0
102
RTVSPost2010Prop52
140
1.0
102
RTVSPost2010PropOp52
 70
     0
102
RTVSPost2010Prop53
 90
        2
102
RTVSPost2010PropOp53
 70
     1
102
RTVSPost2010Prop54
  1
strokes_ogs.tif
102
RTVSPost2010PropOp54
 70
     1
102
RTVSPost2010Prop55
280
     0
102
RTVSPost2010PropOp55
 70
     1
102
RTVSPost2010Prop56
140
1.0
102
RTVSPost2010PropOp56
 70
     1
102
RTVSPost2010Prop57
140
1.0
102
RTVSPost2010PropOp57
 70
     1
102
RTVSPropertyOp0
 70
     1
102
RTVSPropertyOp1
 70
     1
102
RTVSPropertyOp2
 70
     1
102
RTVSPropertyOp3
 70
     1
102
RTVSPropertyOp4
 70
     1
102
RTVSPropertyOp5
 70
     1
102
RTVSPropertyOp6
 70
     1
102
RTVSPropertyOp7
 70
     1
102
RTVSPropertyOp8
 70
     1
102
RTVSPropertyOp9
 70
     1
102
RTVSPropertyOp10
 70
     1
102
RTVSPropertyOp11
 70
     1
102
RTVSPropertyOp12
 70
     1
102
RTVSPropertyOp13
 70
     1
102
RTVSPropertyOp14
 70
     1
102
RTVSPropertyOp15
 70
     1
102
RTVSPropertyOp16
 70
     1
102
RTVSPropertyOp17
 70
     1
102
RTVSPropertyOp18
 70
     1
102
RTVSPropertyOp19
 70
     1
102
RTVSPropertyOp20
 70
     1
102
RTVSPropertyOp21
 70
     1
102
RTVSPropertyOp22
 70
     1
102
RTVSPropertyOp23
 70
     1
102
RTVSPropertyOp24
 70
     1
102
RTVSPropertyOp25
 70
     1
102
RTVSPropertyOp26
 70
     1
102
RTVSPropertyOp27
 70
     1
102
RTVSPropertyOp28
 70
     1
102
RTVSPropertyOp29
 70
     1
102
RTVSPropertyOp30
 70
     1
102
RTVSPropertyOp31
 70
     1
102
RTVSPropertyOp32
 70
     1
102
RTVSPropertyOp33
 70
     1
102
RTVSPropertyOp34
 70
     1
102
RTVSPropertyOp35
 70
     1
102
RTVSPropertyOp36
 70
     1
102
RTVSPropertyOp37
 70
     1
102
RTVSPropertyOp38
 70
     1
102
RTVSPropertyOp39
 70
     1
102
RTVSPropertyOp40
 70
     1
102
RTVSPropertyOp41
 70
     1
102
RTVSPropertyOp42
 70
     1
102
RTVSPropertyOp43
 70
     1
102
RTVSPropertyOp44
 70
     1
102
RTVSPropertyOp45
 70
     1
102
RTVSPropertyOp46
 70
     1
102
RTVSPropertyOp47
 70
     1
102
RTVSPropertyOp48
 70
     1
102
RTVSPropertyOp49
 70
     1
102
RTVSPropertyOp50
 70
     1
102
RTVSPropertyOp51
 70
     0
102
RTVSPropertyOp52
 70
     0
102
RTVSPropertyOp53
 70
     1
102
RTVSPropertyOp54
 70
     1
102
RTVSPropertyOp55
 70
     1
102
RTVSPropertyOp56
 70
     1
102
RTVSPropertyOp57
 70
     1
102
RTVSPropertyOp58
 70
     1
102
RTVSPropertyOp59
 70
     1
102
RTVSPropertyOp60
 70
     1
102
RTVSPropertyOp61
 70
     1
102
RTVSPropertyOp62
 70
     1
  0
XRECORD
  5
9A72
102
{ACAD_REACTORS
330
9A71
102
}
330
9A71
100
AcDbXrecord
280
     1
102
RTVSPost2010Prop28
280
     0
102
RTVSPost2010PropOp28
 70
     1
102
RTVSPost2010Prop29
280
     1
102
RTVSPost2010PropOp29
 70
     1
102
RTVSPost2010Prop30
280
     1
102
RTVSPost2010PropOp30
 70
     1
102
RTVSPost2010Prop31
280
     0
102
RTVSPost2010PropOp31
 70
     1
102
RTVSPost2010Prop32
280
     0
102
RTVSPost2010PropOp32
 70
     1
102
RTVSPost2010Prop33
280
     0
102
RTVSPost2010PropOp33
 70
     1
102
RTVSPost2010Prop34
280
     0
102
RTVSPost2010PropOp34
 70
     1
102
RTVSPost2010Prop35
280
     0
102
RTVSPost2010PropOp35
 70
     1
102
RTVSPost2010Prop36
280
     0
102
RTVSPost2010PropOp36
 70
     1
102
RTVSPost2010Prop37
 90
       50
102
RTVSPost2010PropOp37
 70
     1
102
RTVSPost2010Prop38
140
0.0
102
RTVSPost2010PropOp38
 70
     1
102
RTVSPost2010Prop39
140
1.0
102
RTVSPost2010PropOp39
 70
     1
102
RTVSPost2010Prop40
 90
        0
102
RTVSPost2010PropOp40
 70
     1
102
RTVSPost2010Prop41ColorIndex
 90
       18
102
RTVSPost2010Prop41ColorRGB
 90
        0
102
RTVSPost2010PropOp41
 70
     1
102
RTVSPost2010Prop42
 90
       50
102
RTVSPost2010PropOp42
 70
     1
102
RTVSPost2010Prop43
 90
        3
102
RTVSPost2010PropOp43
 70
     1
102
RTVSPost2010Prop44ColorIndex
 90
        5
102
RTVSPost2010Prop44ColorRGB
 90
      255
102
RTVSPost2010PropOp44
 70
     1
102
RTVSPost2010Prop45
280
     0
102
RTVSPost2010PropOp45
 70
     1
102
RTVSPost2010Prop46
 90
       50
102
RTVSPost2010PropOp46
 70
     1
102
RTVSPost2010Prop47
 90
       50
102
RTVSPost2010PropOp47
 70
     1
102
RTVSPost2010Prop48
 90
       50
102
RTVSPost2010PropOp48
 70
     1
102
RTVSPost2010Prop49
280
     0
102
RTVSPost2010PropOp49
 70
     1
102
RTVSPost2010Prop50
 90
       50
102
RTVSPost2010PropOp50
 70
     1
102
RTVSPost2010Prop51ColorIndex
 90
      256
102
RTVSPost2010Prop51ColorRGB
 90
-16777216
102
RTVSPost2010PropOp51
 70
     0
102
RTVSPost2010Prop52
140
1.0
102
RTVSPost2010PropOp52
 70
     0
102
RTVSPost2010Prop53
 90
        2
102
RTVSPost2010PropOp53
 70
     1
102
RTVSPost2010Prop54
  1
strokes_ogs.tif
102
RTVSPost2010PropOp54
 70
     1
102
RTVSPost2010Prop55
280
     0
102
RTVSPost2010PropOp55
 70
     1
102
RTVSPost2010Prop56
140
1.0
102
RTVSPost2010PropOp56
 70
     1
102
RTVSPost2010Prop57
140
1.0
102
RTVSPost2010PropOp57
 70
     1
102
RTVSPropertyOp0
 70
     1
102
RTVSPropertyOp1
 70
     1
102
RTVSPropertyOp2
 70
     1
102
RTVSPropertyOp3
 70
     1
102
RTVSPropertyOp4
 70
     1
102
RTVSPropertyOp5
 70
     1
102
RTVSPropertyOp6
 70
     1
102
RTVSPropertyOp7
 70
     1
102
RTVSPropertyOp8
 70
     1
102
RTVSPropertyOp9
 70
     1
102
RTVSPropertyOp10
 70
     1
102
RTVSPropertyOp11
 70
     1
102
RTVSPropertyOp12
 70
     1
102
RTVSPropertyOp13
 70
     1
102
RTVSPropertyOp14
 70
     1
102
RTVSPropertyOp15
 70
     1
102
RTVSPropertyOp16
 70
     1
102
RTVSPropertyOp17
 70
     1
102
RTVSPropertyOp18
 70
     1
102
RTVSPropertyOp19
 70
     1
102
RTVSPropertyOp20
 70
     1
102
RTVSPropertyOp21
 70
     1
102
RTVSPropertyOp22
 70
     1
102
RTVSPropertyOp23
 70
     1
102
RTVSPropertyOp24
 70
     1
102
RTVSPropertyOp25
 70
     1
102
RTVSPropertyOp26
 70
     1
102
RTVSPropertyOp27
 70
     1
102
RTVSPropertyOp28
 70
     1
102
RTVSPropertyOp29
 70
     1
102
RTVSPropertyOp30
 70
     1
102
RTVSPropertyOp31
 70
     1
102
RTVSPropertyOp32
 70
     1
102
RTVSPropertyOp33
 70
     1
102
RTVSPropertyOp34
 70
     1
102
RTVSPropertyOp35
 70
     1
102
RTVSPropertyOp36
 70
     1
102
RTVSPropertyOp37
 70
     1
102
RTVSPropertyOp38
 70
     1
102
RTVSPropertyOp39
 70
     1
102
RTVSPropertyOp40
 70
     1
102
RTVSPropertyOp41
 70
     1
102
RTVSPropertyOp42
 70
     1
102
RTVSPropertyOp43
 70
     1
102
RTVSPropertyOp44
 70
     1
102
RTVSPropertyOp45
 70
     1
102
RTVSPropertyOp46
 70
     1
102
RTVSPropertyOp47
 70
     1
102
RTVSPropertyOp48
 70
     1
102
RTVSPropertyOp49
 70
     1
102
RTVSPropertyOp50
 70
     1
102
RTVSPropertyOp51
 70
     0
102
RTVSPropertyOp52
 70
     0
102
RTVSPropertyOp53
 70
     1
102
RTVSPropertyOp54
 70
     1
102
RTVSPropertyOp55
 70
     1
102
RTVSPropertyOp56
 70
     1
102
RTVSPropertyOp57
 70
     1
102
RTVSPropertyOp58
 70
     1
102
RTVSPropertyOp59
 70
     1
102
RTVSPropertyOp60
 70
     1
102
RTVSPropertyOp61
 70
     1
102
RTVSPropertyOp62
 70
     1
  0
XRECORD
  5
9A80
102
{ACAD_REACTORS
330
9A7F
102
}
330
9A7F
100
AcDbXrecord
280
     1
102
RTVSPost2010Prop28
280
     0
102
RTVSPost2010PropOp28
 70
     1
102
RTVSPost2010Prop29
280
     1
102
RTVSPost2010PropOp29
 70
     1
102
RTVSPost2010Prop30
280
     1
102
RTVSPost2010PropOp30
 70
     1
102
RTVSPost2010Prop31
280
     0
102
RTVSPost2010PropOp31
 70
     1
102
RTVSPost2010Prop32
280
     0
102
RTVSPost2010PropOp32
 70
     1
102
RTVSPost2010Prop33
280
     0
102
RTVSPost2010PropOp33
 70
     1
102
RTVSPost2010Prop34
280
     0
102
RTVSPost2010PropOp34
 70
     1
102
RTVSPost2010Prop35
280
     0
102
RTVSPost2010PropOp35
 70
     1
102
RTVSPost2010Prop36
280
     0
102
RTVSPost2010PropOp36
 70
     1
102
RTVSPost2010Prop37
 90
       50
102
RTVSPost2010PropOp37
 70
     1
102
RTVSPost2010Prop38
140
0.0
102
RTVSPost2010PropOp38
 70
     1
102
RTVSPost2010Prop39
140
1.0
102
RTVSPost2010PropOp39
 70
     1
102
RTVSPost2010Prop40
 90
        0
102
RTVSPost2010PropOp40
 70
     1
102
RTVSPost2010Prop41ColorIndex
 90
       18
102
RTVSPost2010Prop41ColorRGB
 90
        0
102
RTVSPost2010PropOp41
 70
     1
102
RTVSPost2010Prop42
 90
       50
102
RTVSPost2010PropOp42
 70
     1
102
RTVSPost2010Prop43
 90
        3
102
RTVSPost2010PropOp43
 70
     1
102
RTVSPost2010Prop44ColorIndex
 90
        5
102
RTVSPost2010Prop44ColorRGB
 90
      255
102
RTVSPost2010PropOp44
 70
     1
102
RTVSPost2010Prop45
280
     0
102
RTVSPost2010PropOp45
 70
     1
102
RTVSPost2010Prop46
 90
       50
102
RTVSPost2010PropOp46
 70
     1
102
RTVSPost2010Prop47
 90
       50
102
RTVSPost2010PropOp47
 70
     1
102
RTVSPost2010Prop48
 90
       50
102
RTVSPost2010PropOp48
 70
     1
102
RTVSPost2010Prop49
280
     0
102
RTVSPost2010PropOp49
 70
     1
102
RTVSPost2010Prop50
 90
       50
102
RTVSPost2010PropOp50
 70
     1
102
RTVSPost2010Prop51ColorIndex
 90
      256
102
RTVSPost2010Prop51ColorRGB
 90
-16777216
102
RTVSPost2010PropOp51
 70
     0
102
RTVSPost2010Prop52
140
1.0
102
RTVSPost2010PropOp52
 70
     0
102
RTVSPost2010Prop53
 90
        2
102
RTVSPost2010PropOp53
 70
     1
102
RTVSPost2010Prop54
  1
strokes_ogs.tif
102
RTVSPost2010PropOp54
 70
     1
102
RTVSPost2010Prop55
280
     0
102
RTVSPost2010PropOp55
 70
     1
102
RTVSPost2010Prop56
140
1.0
102
RTVSPost2010PropOp56
 70
     1
102
RTVSPost2010Prop57
140
1.0
102
RTVSPost2010PropOp57
 70
     1
102
RTVSPropertyOp0
 70
     1
102
RTVSPropertyOp1
 70
     1
102
RTVSPropertyOp2
 70
     1
102
RTVSPropertyOp3
 70
     1
102
RTVSPropertyOp4
 70
     1
102
RTVSPropertyOp5
 70
     1
102
RTVSPropertyOp6
 70
     1
102
RTVSPropertyOp7
 70
     1
102
RTVSPropertyOp8
 70
     1
102
RTVSPropertyOp9
 70
     1
102
RTVSPropertyOp10
 70
     1
102
RTVSPropertyOp11
 70
     1
102
RTVSPropertyOp12
 70
     1
102
RTVSPropertyOp13
 70
     1
102
RTVSPropertyOp14
 70
     1
102
RTVSPropertyOp15
 70
     1
102
RTVSPropertyOp16
 70
     1
102
RTVSPropertyOp17
 70
     1
102
RTVSPropertyOp18
 70
     1
102
RTVSPropertyOp19
 70
     1
102
RTVSPropertyOp20
 70
     1
102
RTVSPropertyOp21
 70
     1
102
RTVSPropertyOp22
 70
     1
102
RTVSPropertyOp23
 70
     1
102
RTVSPropertyOp24
 70
     1
102
RTVSPropertyOp25
 70
     1
102
RTVSPropertyOp26
 70
     1
102
RTVSPropertyOp27
 70
     1
102
RTVSPropertyOp28
 70
     1
102
RTVSPropertyOp29
 70
     1
102
RTVSPropertyOp30
 70
     1
102
RTVSPropertyOp31
 70
     1
102
RTVSPropertyOp32
 70
     1
102
RTVSPropertyOp33
 70
     1
102
RTVSPropertyOp34
 70
     1
102
RTVSPropertyOp35
 70
     1
102
RTVSPropertyOp36
 70
     1
102
RTVSPropertyOp37
 70
     1
102
RTVSPropertyOp38
 70
     1
102
RTVSPropertyOp39
 70
     1
102
RTVSPropertyOp40
 70
     1
102
RTVSPropertyOp41
 70
     1
102
RTVSPropertyOp42
 70
     1
102
RTVSPropertyOp43
 70
     1
102
RTVSPropertyOp44
 70
     1
102
RTVSPropertyOp45
 70
     1
102
RTVSPropertyOp46
 70
     1
102
RTVSPropertyOp47
 70
     1
102
RTVSPropertyOp48
 70
     1
102
RTVSPropertyOp49
 70
     1
102
RTVSPropertyOp50
 70
     1
102
RTVSPropertyOp51
 70
     0
102
RTVSPropertyOp52
 70
     0
102
RTVSPropertyOp53
 70
     1
102
RTVSPropertyOp54
 70
     1
102
RTVSPropertyOp55
 70
     1
102
RTVSPropertyOp56
 70
     1
102
RTVSPropertyOp57
 70
     1
102
RTVSPropertyOp58
 70
     1
102
RTVSPropertyOp59
 70
     1
102
RTVSPropertyOp60
 70
     1
102
RTVSPropertyOp61
 70
     1
102
RTVSPropertyOp62
 70
     1
  0
XRECORD
  5
9A88
102
{ACAD_REACTORS
330
9A87
102
}
330
9A87
100
AcDbXrecord
280
     1
102
RTVSPost2010Prop28
280
     0
102
RTVSPost2010PropOp28
 70
     1
102
RTVSPost2010Prop29
280
     1
102
RTVSPost2010PropOp29
 70
     1
102
RTVSPost2010Prop30
280
     1
102
RTVSPost2010PropOp30
 70
     1
102
RTVSPost2010Prop31
280
     0
102
RTVSPost2010PropOp31
 70
     1
102
RTVSPost2010Prop32
280
     0
102
RTVSPost2010PropOp32
 70
     1
102
RTVSPost2010Prop33
280
     0
102
RTVSPost2010PropOp33
 70
     1
102
RTVSPost2010Prop34
280
     0
102
RTVSPost2010PropOp34
 70
     1
102
RTVSPost2010Prop35
280
     0
102
RTVSPost2010PropOp35
 70
     1
102
RTVSPost2010Prop36
280
     0
102
RTVSPost2010PropOp36
 70
     1
102
RTVSPost2010Prop37
 90
       50
102
RTVSPost2010PropOp37
 70
     1
102
RTVSPost2010Prop38
140
0.0
102
RTVSPost2010PropOp38
 70
     1
102
RTVSPost2010Prop39
140
1.0
102
RTVSPost2010PropOp39
 70
     1
102
RTVSPost2010Prop40
 90
        0
102
RTVSPost2010PropOp40
 70
     1
102
RTVSPost2010Prop41ColorIndex
 90
       18
102
RTVSPost2010Prop41ColorRGB
 90
        0
102
RTVSPost2010PropOp41
 70
     1
102
RTVSPost2010Prop42
 90
       50
102
RTVSPost2010PropOp42
 70
     1
102
RTVSPost2010Prop43
 90
        3
102
RTVSPost2010PropOp43
 70
     1
102
RTVSPost2010Prop44ColorIndex
 90
        5
102
RTVSPost2010Prop44ColorRGB
 90
      255
102
RTVSPost2010PropOp44
 70
     1
102
RTVSPost2010Prop45
280
     0
102
RTVSPost2010PropOp45
 70
     1
102
RTVSPost2010Prop46
 90
       50
102
RTVSPost2010PropOp46
 70
     1
102
RTVSPost2010Prop47
 90
       50
102
RTVSPost2010PropOp47
 70
     1
102
RTVSPost2010Prop48
 90
       50
102
RTVSPost2010PropOp48
 70
     1
102
RTVSPost2010Prop49
280
     0
102
RTVSPost2010PropOp49
 70
     1
102
RTVSPost2010Prop50
 90
       50
102
RTVSPost2010PropOp50
 70
     1
102
RTVSPost2010Prop51ColorIndex
 90
      256
102
RTVSPost2010Prop51ColorRGB
 90
-16777216
102
RTVSPost2010PropOp51
 70
     0
102
RTVSPost2010Prop52
140
1.0
102
RTVSPost2010PropOp52
 70
     0
102
RTVSPost2010Prop53
 90
        2
102
RTVSPost2010PropOp53
 70
     1
102
RTVSPost2010Prop54
  1
strokes_ogs.tif
102
RTVSPost2010PropOp54
 70
     1
102
RTVSPost2010Prop55
280
     0
102
RTVSPost2010PropOp55
 70
     1
102
RTVSPost2010Prop56
140
1.0
102
RTVSPost2010PropOp56
 70
     1
102
RTVSPost2010Prop57
140
1.0
102
RTVSPost2010PropOp57
 70
     1
102
RTVSPropertyOp0
 70
     1
102
RTVSPropertyOp1
 70
     1
102
RTVSPropertyOp2
 70
     1
102
RTVSPropertyOp3
 70
     1
102
RTVSPropertyOp4
 70
     1
102
RTVSPropertyOp5
 70
     1
102
RTVSPropertyOp6
 70
     1
102
RTVSPropertyOp7
 70
     1
102
RTVSPropertyOp8
 70
     1
102
RTVSPropertyOp9
 70
     1
102
RTVSPropertyOp10
 70
     1
102
RTVSPropertyOp11
 70
     1
102
RTVSPropertyOp12
 70
     1
102
RTVSPropertyOp13
 70
     1
102
RTVSPropertyOp14
 70
     1
102
RTVSPropertyOp15
 70
     1
102
RTVSPropertyOp16
 70
     1
102
RTVSPropertyOp17
 70
     1
102
RTVSPropertyOp18
 70
     1
102
RTVSPropertyOp19
 70
     1
102
RTVSPropertyOp20
 70
     1
102
RTVSPropertyOp21
 70
     1
102
RTVSPropertyOp22
 70
     1
102
RTVSPropertyOp23
 70
     1
102
RTVSPropertyOp24
 70
     1
102
RTVSPropertyOp25
 70
     1
102
RTVSPropertyOp26
 70
     1
102
RTVSPropertyOp27
 70
     1
102
RTVSPropertyOp28
 70
     1
102
RTVSPropertyOp29
 70
     1
102
RTVSPropertyOp30
 70
     1
102
RTVSPropertyOp31
 70
     1
102
RTVSPropertyOp32
 70
     1
102
RTVSPropertyOp33
 70
     1
102
RTVSPropertyOp34
 70
     1
102
RTVSPropertyOp35
 70
     1
102
RTVSPropertyOp36
 70
     1
102
RTVSPropertyOp37
 70
     1
102
RTVSPropertyOp38
 70
     1
102
RTVSPropertyOp39
 70
     1
102
RTVSPropertyOp40
 70
     1
102
RTVSPropertyOp41
 70
     1
102
RTVSPropertyOp42
 70
     1
102
RTVSPropertyOp43
 70
     1
102
RTVSPropertyOp44
 70
     1
102
RTVSPropertyOp45
 70
     1
102
RTVSPropertyOp46
 70
     1
102
RTVSPropertyOp47
 70
     1
102
RTVSPropertyOp48
 70
     1
102
RTVSPropertyOp49
 70
     1
102
RTVSPropertyOp50
 70
     1
102
RTVSPropertyOp51
 70
     0
102
RTVSPropertyOp52
 70
     0
102
RTVSPropertyOp53
 70
     1
102
RTVSPropertyOp54
 70
     1
102
RTVSPropertyOp55
 70
     1
102
RTVSPropertyOp56
 70
     1
102
RTVSPropertyOp57
 70
     1
102
RTVSPropertyOp58
 70
     1
102
RTVSPropertyOp59
 70
     1
102
RTVSPropertyOp60
 70
     1
102
RTVSPropertyOp61
 70
     1
102
RTVSPropertyOp62
 70
     1
  0
XRECORD
  5
9A7A
102
{ACAD_REACTORS
330
9A79
102
}
330
9A79
100
AcDbXrecord
280
     1
102
RTVSPost2010Prop28
280
     0
102
RTVSPost2010PropOp28
 70
     1
102
RTVSPost2010Prop29
280
     1
102
RTVSPost2010PropOp29
 70
     1
102
RTVSPost2010Prop30
280
     1
102
RTVSPost2010PropOp30
 70
     1
102
RTVSPost2010Prop31
280
     0
102
RTVSPost2010PropOp31
 70
     1
102
RTVSPost2010Prop32
280
     0
102
RTVSPost2010PropOp32
 70
     1
102
RTVSPost2010Prop33
280
     0
102
RTVSPost2010PropOp33
 70
     1
102
RTVSPost2010Prop34
280
     0
102
RTVSPost2010PropOp34
 70
     1
102
RTVSPost2010Prop35
280
     0
102
RTVSPost2010PropOp35
 70
     1
102
RTVSPost2010Prop36
280
     0
102
RTVSPost2010PropOp36
 70
     1
102
RTVSPost2010Prop37
 90
       50
102
RTVSPost2010PropOp37
 70
     1
102
RTVSPost2010Prop38
140
0.0
102
RTVSPost2010PropOp38
 70
     1
102
RTVSPost2010Prop39
140
1.0
102
RTVSPost2010PropOp39
 70
     1
102
RTVSPost2010Prop40
 90
        0
102
RTVSPost2010PropOp40
 70
     1
102
RTVSPost2010Prop41ColorIndex
 90
       18
102
RTVSPost2010Prop41ColorRGB
 90
        0
102
RTVSPost2010PropOp41
 70
     1
102
RTVSPost2010Prop42
 90
       50
102
RTVSPost2010PropOp42
 70
     1
102
RTVSPost2010Prop43
 90
        3
102
RTVSPost2010PropOp43
 70
     1
102
RTVSPost2010Prop44ColorIndex
 90
        5
102
RTVSPost2010Prop44ColorRGB
 90
      255
102
RTVSPost2010PropOp44
 70
     1
102
RTVSPost2010Prop45
280
     0
102
RTVSPost2010PropOp45
 70
     1
102
RTVSPost2010Prop46
 90
       50
102
RTVSPost2010PropOp46
 70
     1
102
RTVSPost2010Prop47
 90
       50
102
RTVSPost2010PropOp47
 70
     1
102
RTVSPost2010Prop48
 90
       50
102
RTVSPost2010PropOp48
 70
     1
102
RTVSPost2010Prop49
280
     0
102
RTVSPost2010PropOp49
 70
     1
102
RTVSPost2010Prop50
 90
       50
102
RTVSPost2010PropOp50
 70
     1
102
RTVSPost2010Prop51ColorIndex
 90
      256
102
RTVSPost2010Prop51ColorRGB
 90
-16777216
102
RTVSPost2010PropOp51
 70
     0
102
RTVSPost2010Prop52
140
1.0
102
RTVSPost2010PropOp52
 70
     0
102
RTVSPost2010Prop53
 90
        2
102
RTVSPost2010PropOp53
 70
     1
102
RTVSPost2010Prop54
  1
strokes_ogs.tif
102
RTVSPost2010PropOp54
 70
     1
102
RTVSPost2010Prop55
280
     0
102
RTVSPost2010PropOp55
 70
     1
102
RTVSPost2010Prop56
140
1.0
102
RTVSPost2010PropOp56
 70
     1
102
RTVSPost2010Prop57
140
1.0
102
RTVSPost2010PropOp57
 70
     1
102
RTVSPropertyOp0
 70
     1
102
RTVSPropertyOp1
 70
     1
102
RTVSPropertyOp2
 70
     1
102
RTVSPropertyOp3
 70
     1
102
RTVSPropertyOp4
 70
     1
102
RTVSPropertyOp5
 70
     1
102
RTVSPropertyOp6
 70
     1
102
RTVSPropertyOp7
 70
     1
102
RTVSPropertyOp8
 70
     1
102
RTVSPropertyOp9
 70
     1
102
RTVSPropertyOp10
 70
     1
102
RTVSPropertyOp11
 70
     1
102
RTVSPropertyOp12
 70
     1
102
RTVSPropertyOp13
 70
     1
102
RTVSPropertyOp14
 70
     1
102
RTVSPropertyOp15
 70
     1
102
RTVSPropertyOp16
 70
     1
102
RTVSPropertyOp17
 70
     1
102
RTVSPropertyOp18
 70
     1
102
RTVSPropertyOp19
 70
     1
102
RTVSPropertyOp20
 70
     1
102
RTVSPropertyOp21
 70
     1
102
RTVSPropertyOp22
 70
     1
102
RTVSPropertyOp23
 70
     1
102
RTVSPropertyOp24
 70
     1
102
RTVSPropertyOp25
 70
     1
102
RTVSPropertyOp26
 70
     1
102
RTVSPropertyOp27
 70
     1
102
RTVSPropertyOp28
 70
     1
102
RTVSPropertyOp29
 70
     1
102
RTVSPropertyOp30
 70
     1
102
RTVSPropertyOp31
 70
     1
102
RTVSPropertyOp32
 70
     1
102
RTVSPropertyOp33
 70
     1
102
RTVSPropertyOp34
 70
     1
102
RTVSPropertyOp35
 70
     1
102
RTVSPropertyOp36
 70
     1
102
RTVSPropertyOp37
 70
     1
102
RTVSPropertyOp38
 70
     1
102
RTVSPropertyOp39
 70
     1
102
RTVSPropertyOp40
 70
     1
102
RTVSPropertyOp41
 70
     1
102
RTVSPropertyOp42
 70
     1
102
RTVSPropertyOp43
 70
     1
102
RTVSPropertyOp44
 70
     1
102
RTVSPropertyOp45
 70
     1
102
RTVSPropertyOp46
 70
     1
102
RTVSPropertyOp47
 70
     1
102
RTVSPropertyOp48
 70
     1
102
RTVSPropertyOp49
 70
     1
102
RTVSPropertyOp50
 70
     1
102
RTVSPropertyOp51
 70
     0
102
RTVSPropertyOp52
 70
     0
102
RTVSPropertyOp53
 70
     1
102
RTVSPropertyOp54
 70
     1
102
RTVSPropertyOp55
 70
     1
102
RTVSPropertyOp56
 70
     1
102
RTVSPropertyOp57
 70
     1
102
RTVSPropertyOp58
 70
     1
102
RTVSPropertyOp59
 70
     1
102
RTVSPropertyOp60
 70
     1
102
RTVSPropertyOp61
 70
     1
102
RTVSPropertyOp62
 70
     1
  0
XRECORD
  5
9A7E
102
{ACAD_REACTORS
330
9A7D
102
}
330
9A7D
100
AcDbXrecord
280
     1
102
RTVSPost2010Prop28
280
     0
102
RTVSPost2010PropOp28
 70
     1
102
RTVSPost2010Prop29
280
     1
102
RTVSPost2010PropOp29
 70
     1
102
RTVSPost2010Prop30
280
     1
102
RTVSPost2010PropOp30
 70
     1
102
RTVSPost2010Prop31
280
     0
102
RTVSPost2010PropOp31
 70
     1
102
RTVSPost2010Prop32
280
     0
102
RTVSPost2010PropOp32
 70
     1
102
RTVSPost2010Prop33
280
     0
102
RTVSPost2010PropOp33
 70
     1
102
RTVSPost2010Prop34
280
     0
102
RTVSPost2010PropOp34
 70
     1
102
RTVSPost2010Prop35
280
     0
102
RTVSPost2010PropOp35
 70
     1
102
RTVSPost2010Prop36
280
     0
102
RTVSPost2010PropOp36
 70
     1
102
RTVSPost2010Prop37
 90
       50
102
RTVSPost2010PropOp37
 70
     1
102
RTVSPost2010Prop38
140
0.0
102
RTVSPost2010PropOp38
 70
     1
102
RTVSPost2010Prop39
140
1.0
102
RTVSPost2010PropOp39
 70
     1
102
RTVSPost2010Prop40
 90
        0
102
RTVSPost2010PropOp40
 70
     1
102
RTVSPost2010Prop41ColorIndex
 90
       18
102
RTVSPost2010Prop41ColorRGB
 90
        0
102
RTVSPost2010PropOp41
 70
     1
102
RTVSPost2010Prop42
 90
       50
102
RTVSPost2010PropOp42
 70
     1
102
RTVSPost2010Prop43
 90
        3
102
RTVSPost2010PropOp43
 70
     1
102
RTVSPost2010Prop44ColorIndex
 90
        5
102
RTVSPost2010Prop44ColorRGB
 90
      255
102
RTVSPost2010PropOp44
 70
     1
102
RTVSPost2010Prop45
280
     0
102
RTVSPost2010PropOp45
 70
     1
102
RTVSPost2010Prop46
 90
       50
102
RTVSPost2010PropOp46
 70
     1
102
RTVSPost2010Prop47
 90
       50
102
RTVSPost2010PropOp47
 70
     1
102
RTVSPost2010Prop48
 90
       50
102
RTVSPost2010PropOp48
 70
     1
102
RTVSPost2010Prop49
280
     0
102
RTVSPost2010PropOp49
 70
     1
102
RTVSPost2010Prop50
 90
       50
102
RTVSPost2010PropOp50
 70
     1
102
RTVSPost2010Prop51ColorIndex
 90
      256
102
RTVSPost2010Prop51ColorRGB
 90
-16777216
102
RTVSPost2010PropOp51
 70
     0
102
RTVSPost2010Prop52
140
1.0
102
RTVSPost2010PropOp52
 70
     0
102
RTVSPost2010Prop53
 90
        2
102
RTVSPost2010PropOp53
 70
     1
102
RTVSPost2010Prop54
  1
strokes_ogs.tif
102
RTVSPost2010PropOp54
 70
     1
102
RTVSPost2010Prop55
280
     0
102
RTVSPost2010PropOp55
 70
     1
102
RTVSPost2010Prop56
140
1.0
102
RTVSPost2010PropOp56
 70
     1
102
RTVSPost2010Prop57
140
1.0
102
RTVSPost2010PropOp57
 70
     1
102
RTVSPropertyOp0
 70
     1
102
RTVSPropertyOp1
 70
     1
102
RTVSPropertyOp2
 70
     1
102
RTVSPropertyOp3
 70
     1
102
RTVSPropertyOp4
 70
     1
102
RTVSPropertyOp5
 70
     1
102
RTVSPropertyOp6
 70
     1
102
RTVSPropertyOp7
 70
     1
102
RTVSPropertyOp8
 70
     1
102
RTVSPropertyOp9
 70
     1
102
RTVSPropertyOp10
 70
     1
102
RTVSPropertyOp11
 70
     1
102
RTVSPropertyOp12
 70
     1
102
RTVSPropertyOp13
 70
     1
102
RTVSPropertyOp14
 70
     1
102
RTVSPropertyOp15
 70
     1
102
RTVSPropertyOp16
 70
     1
102
RTVSPropertyOp17
 70
     1
102
RTVSPropertyOp18
 70
     1
102
RTVSPropertyOp19
 70
     1
102
RTVSPropertyOp20
 70
     1
102
RTVSPropertyOp21
 70
     1
102
RTVSPropertyOp22
 70
     1
102
RTVSPropertyOp23
 70
     1
102
RTVSPropertyOp24
 70
     1
102
RTVSPropertyOp25
 70
     1
102
RTVSPropertyOp26
 70
     1
102
RTVSPropertyOp27
 70
     1
102
RTVSPropertyOp28
 70
     1
102
RTVSPropertyOp29
 70
     1
102
RTVSPropertyOp30
 70
     1
102
RTVSPropertyOp31
 70
     1
102
RTVSPropertyOp32
 70
     1
102
RTVSPropertyOp33
 70
     1
102
RTVSPropertyOp34
 70
     1
102
RTVSPropertyOp35
 70
     1
102
RTVSPropertyOp36
 70
     1
102
RTVSPropertyOp37
 70
     1
102
RTVSPropertyOp38
 70
     1
102
RTVSPropertyOp39
 70
     1
102
RTVSPropertyOp40
 70
     1
102
RTVSPropertyOp41
 70
     1
102
RTVSPropertyOp42
 70
     1
102
RTVSPropertyOp43
 70
     1
102
RTVSPropertyOp44
 70
     1
102
RTVSPropertyOp45
 70
     1
102
RTVSPropertyOp46
 70
     1
102
RTVSPropertyOp47
 70
     1
102
RTVSPropertyOp48
 70
     1
102
RTVSPropertyOp49
 70
     1
102
RTVSPropertyOp50
 70
     1
102
RTVSPropertyOp51
 70
     0
102
RTVSPropertyOp52
 70
     0
102
RTVSPropertyOp53
 70
     1
102
RTVSPropertyOp54
 70
     1
102
RTVSPropertyOp55
 70
     1
102
RTVSPropertyOp56
 70
     1
102
RTVSPropertyOp57
 70
     1
102
RTVSPropertyOp58
 70
     1
102
RTVSPropertyOp59
 70
     1
102
RTVSPropertyOp60
 70
     1
102
RTVSPropertyOp61
 70
     1
102
RTVSPropertyOp62
 70
     1
  0
XRECORD
  5
9A98
102
{ACAD_REACTORS
330
9A97
102
}
330
9A97
100
AcDbXrecord
280
     1
102
RTVSPost2010Prop28
280
     0
102
RTVSPost2010PropOp28
 70
     1
102
RTVSPost2010Prop29
280
     1
102
RTVSPost2010PropOp29
 70
     1
102
RTVSPost2010Prop30
280
     1
102
RTVSPost2010PropOp30
 70
     1
102
RTVSPost2010Prop31
280
     0
102
RTVSPost2010PropOp31
 70
     1
102
RTVSPost2010Prop32
280
     0
102
RTVSPost2010PropOp32
 70
     1
102
RTVSPost2010Prop33
280
     0
102
RTVSPost2010PropOp33
 70
     1
102
RTVSPost2010Prop34
280
     0
102
RTVSPost2010PropOp34
 70
     1
102
RTVSPost2010Prop35
280
     0
102
RTVSPost2010PropOp35
 70
     1
102
RTVSPost2010Prop36
280
     0
102
RTVSPost2010PropOp36
 70
     1
102
RTVSPost2010Prop37
 90
       50
102
RTVSPost2010PropOp37
 70
     0
102
RTVSPost2010Prop38
140
0.0
102
RTVSPost2010PropOp38
 70
     0
102
RTVSPost2010Prop39
140
1.0
102
RTVSPost2010PropOp39
 70
     0
102
RTVSPost2010Prop40
 90
        0
102
RTVSPost2010PropOp40
 70
     0
102
RTVSPost2010Prop41ColorIndex
 90
       18
102
RTVSPost2010Prop41ColorRGB
 90
        0
102
RTVSPost2010PropOp41
 70
     0
102
RTVSPost2010Prop42
 90
       50
102
RTVSPost2010PropOp42
 70
     0
102
RTVSPost2010Prop43
 90
        3
102
RTVSPost2010PropOp43
 70
     0
102
RTVSPost2010Prop44ColorIndex
 90
        5
102
RTVSPost2010Prop44ColorRGB
 90
      255
102
RTVSPost2010PropOp44
 70
     0
102
RTVSPost2010Prop45
280
     0
102
RTVSPost2010PropOp45
 70
     1
102
RTVSPost2010Prop46
 90
       50
102
RTVSPost2010PropOp46
 70
     0
102
RTVSPost2010Prop47
 90
       50
102
RTVSPost2010PropOp47
 70
     0
102
RTVSPost2010Prop48
 90
       50
102
RTVSPost2010PropOp48
 70
     0
102
RTVSPost2010Prop49
280
     0
102
RTVSPost2010PropOp49
 70
     1
102
RTVSPost2010Prop50
 90
       50
102
RTVSPost2010PropOp50
 70
     0
102
RTVSPost2010Prop51ColorIndex
 90
      256
102
RTVSPost2010Prop51ColorRGB
 90
-16777216
102
RTVSPost2010PropOp51
 70
     0
102
RTVSPost2010Prop52
140
1.0
102
RTVSPost2010PropOp52
 70
     0
102
RTVSPost2010Prop53
 90
        2
102
RTVSPost2010PropOp53
 70
     0
102
RTVSPost2010Prop54
  1
strokes_ogs.tif
102
RTVSPost2010PropOp54
 70
     0
102
RTVSPost2010Prop55
280
     0
102
RTVSPost2010PropOp55
 70
     1
102
RTVSPost2010Prop56
140
1.0
102
RTVSPost2010PropOp56
 70
     0
102
RTVSPost2010Prop57
140
1.0
102
RTVSPost2010PropOp57
 70
     0
102
RTVSPropertyOp0
 70
     0
102
RTVSPropertyOp1
 70
     0
102
RTVSPropertyOp2
 70
     0
102
RTVSPropertyOp3
 70
     0
102
RTVSPropertyOp4
 70
     0
102
RTVSPropertyOp5
 70
     0
102
RTVSPropertyOp6
 70
     0
102
RTVSPropertyOp7
 70
     0
102
RTVSPropertyOp8
 70
     0
102
RTVSPropertyOp9
 70
     0
102
RTVSPropertyOp10
 70
     0
102
RTVSPropertyOp11
 70
     0
102
RTVSPropertyOp12
 70
     0
102
RTVSPropertyOp13
 70
     0
102
RTVSPropertyOp14
 70
     2
102
RTVSPropertyOp15
 70
     0
102
RTVSPropertyOp16
 70
     0
102
RTVSPropertyOp17
 70
     0
102
RTVSPropertyOp18
 70
     0
102
RTVSPropertyOp19
 70
     0
102
RTVSPropertyOp20
 70
     0
102
RTVSPropertyOp21
 70
     0
102
RTVSPropertyOp22
 70
     0
102
RTVSPropertyOp23
 70
     0
102
RTVSPropertyOp24
 70
     0
102
RTVSPropertyOp25
 70
     0
102
RTVSPropertyOp26
 70
     0
102
RTVSPropertyOp27
 70
     0
102
RTVSPropertyOp28
 70
     1
102
RTVSPropertyOp29
 70
     1
102
RTVSPropertyOp30
 70
     1
102
RTVSPropertyOp31
 70
     1
102
RTVSPropertyOp32
 70
     1
102
RTVSPropertyOp33
 70
     1
102
RTVSPropertyOp34
 70
     1
102
RTVSPropertyOp35
 70
     1
102
RTVSPropertyOp36
 70
     1
102
RTVSPropertyOp37
 70
     0
102
RTVSPropertyOp38
 70
     0
102
RTVSPropertyOp39
 70
     0
102
RTVSPropertyOp40
 70
     0
102
RTVSPropertyOp41
 70
     0
102
RTVSPropertyOp42
 70
     0
102
RTVSPropertyOp43
 70
     0
102
RTVSPropertyOp44
 70
     0
102
RTVSPropertyOp45
 70
     1
102
RTVSPropertyOp46
 70
     0
102
RTVSPropertyOp47
 70
     0
102
RTVSPropertyOp48
 70
     0
102
RTVSPropertyOp49
 70
     1
102
RTVSPropertyOp50
 70
     0
102
RTVSPropertyOp51
 70
     0
102
RTVSPropertyOp52
 70
     0
102
RTVSPropertyOp53
 70
     0
102
RTVSPropertyOp54
 70
     0
102
RTVSPropertyOp55
 70
     1
102
RTVSPropertyOp56
 70
     0
102
RTVSPropertyOp57
 70
     0
102
RTVSPropertyOp58
 70
     0
102
RTVSPropertyOp59
 70
     0
102
RTVSPropertyOp60
 70
     0
102
RTVSPropertyOp61
 70
     0
102
RTVSPropertyOp62
 70
     0
  0
XRECORD
  5
9A86
102
{ACAD_REACTORS
330
9A85
102
}
330
9A85
100
AcDbXrecord
280
     1
102
RTVSPost2010Prop28
280
     0
102
RTVSPost2010PropOp28
 70
     1
102
RTVSPost2010Prop29
280
     1
102
RTVSPost2010PropOp29
 70
     1
102
RTVSPost2010Prop30
280
     1
102
RTVSPost2010PropOp30
 70
     1
102
RTVSPost2010Prop31
280
     0
102
RTVSPost2010PropOp31
 70
     1
102
RTVSPost2010Prop32
280
     0
102
RTVSPost2010PropOp32
 70
     1
102
RTVSPost2010Prop33
280
     0
102
RTVSPost2010PropOp33
 70
     1
102
RTVSPost2010Prop34
280
     0
102
RTVSPost2010PropOp34
 70
     1
102
RTVSPost2010Prop35
280
     0
102
RTVSPost2010PropOp35
 70
     1
102
RTVSPost2010Prop36
280
     0
102
RTVSPost2010PropOp36
 70
     1
102
RTVSPost2010Prop37
 90
       50
102
RTVSPost2010PropOp37
 70
     1
102
RTVSPost2010Prop38
140
0.0
102
RTVSPost2010PropOp38
 70
     1
102
RTVSPost2010Prop39
140
1.0
102
RTVSPost2010PropOp39
 70
     1
102
RTVSPost2010Prop40
 90
        0
102
RTVSPost2010PropOp40
 70
     1
102
RTVSPost2010Prop41ColorIndex
 90
       18
102
RTVSPost2010Prop41ColorRGB
 90
        0
102
RTVSPost2010PropOp41
 70
     1
102
RTVSPost2010Prop42
 90
       50
102
RTVSPost2010PropOp42
 70
     1
102
RTVSPost2010Prop43
 90
        3
102
RTVSPost2010PropOp43
 70
     1
102
RTVSPost2010Prop44ColorIndex
 90
        5
102
RTVSPost2010Prop44ColorRGB
 90
      255
102
RTVSPost2010PropOp44
 70
     1
102
RTVSPost2010Prop45
280
     0
102
RTVSPost2010PropOp45
 70
     1
102
RTVSPost2010Prop46
 90
       50
102
RTVSPost2010PropOp46
 70
     1
102
RTVSPost2010Prop47
 90
       50
102
RTVSPost2010PropOp47
 70
     1
102
RTVSPost2010Prop48
 90
       50
102
RTVSPost2010PropOp48
 70
     1
102
RTVSPost2010Prop49
280
     0
102
RTVSPost2010PropOp49
 70
     1
102
RTVSPost2010Prop50
 90
       50
102
RTVSPost2010PropOp50
 70
     1
102
RTVSPost2010Prop51ColorIndex
 90
      256
102
RTVSPost2010Prop51ColorRGB
 90
-16777216
102
RTVSPost2010PropOp51
 70
     0
102
RTVSPost2010Prop52
140
1.0
102
RTVSPost2010PropOp52
 70
     0
102
RTVSPost2010Prop53
 90
        2
102
RTVSPost2010PropOp53
 70
     1
102
RTVSPost2010Prop54
  1
strokes_ogs.tif
102
RTVSPost2010PropOp54
 70
     1
102
RTVSPost2010Prop55
280
     0
102
RTVSPost2010PropOp55
 70
     1
102
RTVSPost2010Prop56
140
1.0
102
RTVSPost2010PropOp56
 70
     1
102
RTVSPost2010Prop57
140
1.0
102
RTVSPost2010PropOp57
 70
     1
102
RTVSPropertyOp0
 70
     1
102
RTVSPropertyOp1
 70
     1
102
RTVSPropertyOp2
 70
     1
102
RTVSPropertyOp3
 70
     1
102
RTVSPropertyOp4
 70
     1
102
RTVSPropertyOp5
 70
     1
102
RTVSPropertyOp6
 70
     1
102
RTVSPropertyOp7
 70
     1
102
RTVSPropertyOp8
 70
     1
102
RTVSPropertyOp9
 70
     1
102
RTVSPropertyOp10
 70
     1
102
RTVSPropertyOp11
 70
     1
102
RTVSPropertyOp12
 70
     1
102
RTVSPropertyOp13
 70
     1
102
RTVSPropertyOp14
 70
     1
102
RTVSPropertyOp15
 70
     1
102
RTVSPropertyOp16
 70
     1
102
RTVSPropertyOp17
 70
     1
102
RTVSPropertyOp18
 70
     1
102
RTVSPropertyOp19
 70
     1
102
RTVSPropertyOp20
 70
     1
102
RTVSPropertyOp21
 70
     1
102
RTVSPropertyOp22
 70
     1
102
RTVSPropertyOp23
 70
     1
102
RTVSPropertyOp24
 70
     1
102
RTVSPropertyOp25
 70
     1
102
RTVSPropertyOp26
 70
     1
102
RTVSPropertyOp27
 70
     1
102
RTVSPropertyOp28
 70
     1
102
RTVSPropertyOp29
 70
     1
102
RTVSPropertyOp30
 70
     1
102
RTVSPropertyOp31
 70
     1
102
RTVSPropertyOp32
 70
     1
102
RTVSPropertyOp33
 70
     1
102
RTVSPropertyOp34
 70
     1
102
RTVSPropertyOp35
 70
     1
102
RTVSPropertyOp36
 70
     1
102
RTVSPropertyOp37
 70
     1
102
RTVSPropertyOp38
 70
     1
102
RTVSPropertyOp39
 70
     1
102
RTVSPropertyOp40
 70
     1
102
RTVSPropertyOp41
 70
     1
102
RTVSPropertyOp42
 70
     1
102
RTVSPropertyOp43
 70
     1
102
RTVSPropertyOp44
 70
     1
102
RTVSPropertyOp45
 70
     1
102
RTVSPropertyOp46
 70
     1
102
RTVSPropertyOp47
 70
     1
102
RTVSPropertyOp48
 70
     1
102
RTVSPropertyOp49
 70
     1
102
RTVSPropertyOp50
 70
     1
102
RTVSPropertyOp51
 70
     0
102
RTVSPropertyOp52
 70
     0
102
RTVSPropertyOp53
 70
     1
102
RTVSPropertyOp54
 70
     1
102
RTVSPropertyOp55
 70
     1
102
RTVSPropertyOp56
 70
     1
102
RTVSPropertyOp57
 70
     1
102
RTVSPropertyOp58
 70
     1
102
RTVSPropertyOp59
 70
     1
102
RTVSPropertyOp60
 70
     1
102
RTVSPropertyOp61
 70
     1
102
RTVSPropertyOp62
 70
     1
  0
XRECORD
  5
9A6A
102
{ACAD_REACTORS
330
9A69
102
}
330
9A69
100
AcDbXrecord
280
     1
102
RTVSPost2010Prop28
280
     0
102
RTVSPost2010PropOp28
 70
     1
102
RTVSPost2010Prop29
280
     1
102
RTVSPost2010PropOp29
 70
     1
102
RTVSPost2010Prop30
280
     1
102
RTVSPost2010PropOp30
 70
     1
102
RTVSPost2010Prop31
280
     0
102
RTVSPost2010PropOp31
 70
     1
102
RTVSPost2010Prop32
280
     0
102
RTVSPost2010PropOp32
 70
     1
102
RTVSPost2010Prop33
280
     0
102
RTVSPost2010PropOp33
 70
     1
102
RTVSPost2010Prop34
280
     0
102
RTVSPost2010PropOp34
 70
     1
102
RTVSPost2010Prop35
280
     0
102
RTVSPost2010PropOp35
 70
     1
102
RTVSPost2010Prop36
280
     0
102
RTVSPost2010PropOp36
 70
     1
102
RTVSPost2010Prop37
 90
       50
102
RTVSPost2010PropOp37
 70
     1
102
RTVSPost2010Prop38
140
0.0
102
RTVSPost2010PropOp38
 70
     1
102
RTVSPost2010Prop39
140
1.0
102
RTVSPost2010PropOp39
 70
     1
102
RTVSPost2010Prop40
 90
        0
102
RTVSPost2010PropOp40
 70
     1
102
RTVSPost2010Prop41ColorIndex
 90
       18
102
RTVSPost2010Prop41ColorRGB
 90
        0
102
RTVSPost2010PropOp41
 70
     1
102
RTVSPost2010Prop42
 90
       50
102
RTVSPost2010PropOp42
 70
     1
102
RTVSPost2010Prop43
 90
        3
102
RTVSPost2010PropOp43
 70
     1
102
RTVSPost2010Prop44ColorIndex
 90
        5
102
RTVSPost2010Prop44ColorRGB
 90
      255
102
RTVSPost2010PropOp44
 70
     1
102
RTVSPost2010Prop45
280
     0
102
RTVSPost2010PropOp45
 70
     1
102
RTVSPost2010Prop46
 90
       50
102
RTVSPost2010PropOp46
 70
     1
102
RTVSPost2010Prop47
 90
       50
102
RTVSPost2010PropOp47
 70
     1
102
RTVSPost2010Prop48
 90
       50
102
RTVSPost2010PropOp48
 70
     1
102
RTVSPost2010Prop49
280
     0
102
RTVSPost2010PropOp49
 70
     1
102
RTVSPost2010Prop50
 90
       50
102
RTVSPost2010PropOp50
 70
     1
102
RTVSPost2010Prop51ColorIndex
 90
      256
102
RTVSPost2010Prop51ColorRGB
 90
-16777216
102
RTVSPost2010PropOp51
 70
     0
102
RTVSPost2010Prop52
140
1.0
102
RTVSPost2010PropOp52
 70
     0
102
RTVSPost2010Prop53
 90
        2
102
RTVSPost2010PropOp53
 70
     1
102
RTVSPost2010Prop54
  1
strokes_ogs.tif
102
RTVSPost2010PropOp54
 70
     1
102
RTVSPost2010Prop55
280
     0
102
RTVSPost2010PropOp55
 70
     1
102
RTVSPost2010Prop56
140
1.0
102
RTVSPost2010PropOp56
 70
     1
102
RTVSPost2010Prop57
140
1.0
102
RTVSPost2010PropOp57
 70
     1
102
RTVSPropertyOp0
 70
     1
102
RTVSPropertyOp1
 70
     1
102
RTVSPropertyOp2
 70
     1
102
RTVSPropertyOp3
 70
     1
102
RTVSPropertyOp4
 70
     1
102
RTVSPropertyOp5
 70
     1
102
RTVSPropertyOp6
 70
     1
102
RTVSPropertyOp7
 70
     1
102
RTVSPropertyOp8
 70
     1
102
RTVSPropertyOp9
 70
     1
102
RTVSPropertyOp10
 70
     1
102
RTVSPropertyOp11
 70
     1
102
RTVSPropertyOp12
 70
     1
102
RTVSPropertyOp13
 70
     1
102
RTVSPropertyOp14
 70
     1
102
RTVSPropertyOp15
 70
     1
102
RTVSPropertyOp16
 70
     1
102
RTVSPropertyOp17
 70
     1
102
RTVSPropertyOp18
 70
     1
102
RTVSPropertyOp19
 70
     1
102
RTVSPropertyOp20
 70
     1
102
RTVSPropertyOp21
 70
     1
102
RTVSPropertyOp22
 70
     1
102
RTVSPropertyOp23
 70
     1
102
RTVSPropertyOp24
 70
     1
102
RTVSPropertyOp25
 70
     1
102
RTVSPropertyOp26
 70
     1
102
RTVSPropertyOp27
 70
     1
102
RTVSPropertyOp28
 70
     1
102
RTVSPropertyOp29
 70
     1
102
RTVSPropertyOp30
 70
     1
102
RTVSPropertyOp31
 70
     1
102
RTVSPropertyOp32
 70
     1
102
RTVSPropertyOp33
 70
     1
102
RTVSPropertyOp34
 70
     1
102
RTVSPropertyOp35
 70
     1
102
RTVSPropertyOp36
 70
     1
102
RTVSPropertyOp37
 70
     1
102
RTVSPropertyOp38
 70
     1
102
RTVSPropertyOp39
 70
     1
102
RTVSPropertyOp40
 70
     1
102
RTVSPropertyOp41
 70
     1
102
RTVSPropertyOp42
 70
     1
102
RTVSPropertyOp43
 70
     1
102
RTVSPropertyOp44
 70
     1
102
RTVSPropertyOp45
 70
     1
102
RTVSPropertyOp46
 70
     1
102
RTVSPropertyOp47
 70
     1
102
RTVSPropertyOp48
 70
     1
102
RTVSPropertyOp49
 70
     1
102
RTVSPropertyOp50
 70
     1
102
RTVSPropertyOp51
 70
     0
102
RTVSPropertyOp52
 70
     0
102
RTVSPropertyOp53
 70
     1
102
RTVSPropertyOp54
 70
     1
102
RTVSPropertyOp55
 70
     1
102
RTVSPropertyOp56
 70
     1
102
RTVSPropertyOp57
 70
     1
102
RTVSPropertyOp58
 70
     1
102
RTVSPropertyOp59
 70
     1
102
RTVSPropertyOp60
 70
     1
102
RTVSPropertyOp61
 70
     1
102
RTVSPropertyOp62
 70
     1
  0
XRECORD
  5
9A6C
102
{ACAD_REACTORS
330
9A6B
102
}
330
9A6B
100
AcDbXrecord
280
     1
102
RTVSPost2010Prop28
280
     0
102
RTVSPost2010PropOp28
 70
     1
102
RTVSPost2010Prop29
280
     1
102
RTVSPost2010PropOp29
 70
     1
102
RTVSPost2010Prop30
280
     1
102
RTVSPost2010PropOp30
 70
     1
102
RTVSPost2010Prop31
280
     0
102
RTVSPost2010PropOp31
 70
     1
102
RTVSPost2010Prop32
280
     0
102
RTVSPost2010PropOp32
 70
     1
102
RTVSPost2010Prop33
280
     0
102
RTVSPost2010PropOp33
 70
     1
102
RTVSPost2010Prop34
280
     0
102
RTVSPost2010PropOp34
 70
     1
102
RTVSPost2010Prop35
280
     0
102
RTVSPost2010PropOp35
 70
     1
102
RTVSPost2010Prop36
280
     0
102
RTVSPost2010PropOp36
 70
     1
102
RTVSPost2010Prop37
 90
       50
102
RTVSPost2010PropOp37
 70
     1
102
RTVSPost2010Prop38
140
0.0
102
RTVSPost2010PropOp38
 70
     1
102
RTVSPost2010Prop39
140
1.0
102
RTVSPost2010PropOp39
 70
     1
102
RTVSPost2010Prop40
 90
        0
102
RTVSPost2010PropOp40
 70
     1
102
RTVSPost2010Prop41ColorIndex
 90
       18
102
RTVSPost2010Prop41ColorRGB
 90
        0
102
RTVSPost2010PropOp41
 70
     1
102
RTVSPost2010Prop42
 90
       50
102
RTVSPost2010PropOp42
 70
     1
102
RTVSPost2010Prop43
 90
        3
102
RTVSPost2010PropOp43
 70
     1
102
RTVSPost2010Prop44ColorIndex
 90
        5
102
RTVSPost2010Prop44ColorRGB
 90
      255
102
RTVSPost2010PropOp44
 70
     1
102
RTVSPost2010Prop45
280
     0
102
RTVSPost2010PropOp45
 70
     1
102
RTVSPost2010Prop46
 90
       50
102
RTVSPost2010PropOp46
 70
     1
102
RTVSPost2010Prop47
 90
       50
102
RTVSPost2010PropOp47
 70
     1
102
RTVSPost2010Prop48
 90
       50
102
RTVSPost2010PropOp48
 70
     1
102
RTVSPost2010Prop49
280
     0
102
RTVSPost2010PropOp49
 70
     1
102
RTVSPost2010Prop50
 90
       50
102
RTVSPost2010PropOp50
 70
     1
102
RTVSPost2010Prop51ColorIndex
 90
      256
102
RTVSPost2010Prop51ColorRGB
 90
-16777216
102
RTVSPost2010PropOp51
 70
     0
102
RTVSPost2010Prop52
140
1.0
102
RTVSPost2010PropOp52
 70
     0
102
RTVSPost2010Prop53
 90
        2
102
RTVSPost2010PropOp53
 70
     1
102
RTVSPost2010Prop54
  1
strokes_ogs.tif
102
RTVSPost2010PropOp54
 70
     1
102
RTVSPost2010Prop55
280
     0
102
RTVSPost2010PropOp55
 70
     1
102
RTVSPost2010Prop56
140
1.0
102
RTVSPost2010PropOp56
 70
     1
102
RTVSPost2010Prop57
140
1.0
102
RTVSPost2010PropOp57
 70
     1
102
RTVSPropertyOp0
 70
     1
102
RTVSPropertyOp1
 70
     1
102
RTVSPropertyOp2
 70
     1
102
RTVSPropertyOp3
 70
     1
102
RTVSPropertyOp4
 70
     1
102
RTVSPropertyOp5
 70
     1
102
RTVSPropertyOp6
 70
     1
102
RTVSPropertyOp7
 70
     1
102
RTVSPropertyOp8
 70
     1
102
RTVSPropertyOp9
 70
     1
102
RTVSPropertyOp10
 70
     1
102
RTVSPropertyOp11
 70
     1
102
RTVSPropertyOp12
 70
     1
102
RTVSPropertyOp13
 70
     1
102
RTVSPropertyOp14
 70
     1
102
RTVSPropertyOp15
 70
     1
102
RTVSPropertyOp16
 70
     1
102
RTVSPropertyOp17
 70
     1
102
RTVSPropertyOp18
 70
     1
102
RTVSPropertyOp19
 70
     1
102
RTVSPropertyOp20
 70
     1
102
RTVSPropertyOp21
 70
     1
102
RTVSPropertyOp22
 70
     1
102
RTVSPropertyOp23
 70
     1
102
RTVSPropertyOp24
 70
     1
102
RTVSPropertyOp25
 70
     1
102
RTVSPropertyOp26
 70
     1
102
RTVSPropertyOp27
 70
     1
102
RTVSPropertyOp28
 70
     1
102
RTVSPropertyOp29
 70
     1
102
RTVSPropertyOp30
 70
     1
102
RTVSPropertyOp31
 70
     1
102
RTVSPropertyOp32
 70
     1
102
RTVSPropertyOp33
 70
     1
102
RTVSPropertyOp34
 70
     1
102
RTVSPropertyOp35
 70
     1
102
RTVSPropertyOp36
 70
     1
102
RTVSPropertyOp37
 70
     1
102
RTVSPropertyOp38
 70
     1
102
RTVSPropertyOp39
 70
     1
102
RTVSPropertyOp40
 70
     1
102
RTVSPropertyOp41
 70
     1
102
RTVSPropertyOp42
 70
     1
102
RTVSPropertyOp43
 70
     1
102
RTVSPropertyOp44
 70
     1
102
RTVSPropertyOp45
 70
     1
102
RTVSPropertyOp46
 70
     1
102
RTVSPropertyOp47
 70
     1
102
RTVSPropertyOp48
 70
     1
102
RTVSPropertyOp49
 70
     1
102
RTVSPropertyOp50
 70
     1
102
RTVSPropertyOp51
 70
     0
102
RTVSPropertyOp52
 70
     0
102
RTVSPropertyOp53
 70
     1
102
RTVSPropertyOp54
 70
     1
102
RTVSPropertyOp55
 70
     1
102
RTVSPropertyOp56
 70
     1
102
RTVSPropertyOp57
 70
     1
102
RTVSPropertyOp58
 70
     1
102
RTVSPropertyOp59
 70
     1
102
RTVSPropertyOp60
 70
     1
102
RTVSPropertyOp61
 70
     1
102
RTVSPropertyOp62
 70
     1
  0
XRECORD
  5
9A6E
102
{ACAD_REACTORS
330
9A6D
102
}
330
9A6D
100
AcDbXrecord
280
     1
102
RTVSPost2010Prop28
280
     0
102
RTVSPost2010PropOp28
 70
     1
102
RTVSPost2010Prop29
280
     1
102
RTVSPost2010PropOp29
 70
     1
102
RTVSPost2010Prop30
280
     1
102
RTVSPost2010PropOp30
 70
     1
102
RTVSPost2010Prop31
280
     0
102
RTVSPost2010PropOp31
 70
     1
102
RTVSPost2010Prop32
280
     0
102
RTVSPost2010PropOp32
 70
     1
102
RTVSPost2010Prop33
280
     0
102
RTVSPost2010PropOp33
 70
     1
102
RTVSPost2010Prop34
280
     0
102
RTVSPost2010PropOp34
 70
     1
102
RTVSPost2010Prop35
280
     0
102
RTVSPost2010PropOp35
 70
     1
102
RTVSPost2010Prop36
280
     0
102
RTVSPost2010PropOp36
 70
     1
102
RTVSPost2010Prop37
 90
       50
102
RTVSPost2010PropOp37
 70
     1
102
RTVSPost2010Prop38
140
0.0
102
RTVSPost2010PropOp38
 70
     1
102
RTVSPost2010Prop39
140
1.0
102
RTVSPost2010PropOp39
 70
     1
102
RTVSPost2010Prop40
 90
        0
102
RTVSPost2010PropOp40
 70
     1
102
RTVSPost2010Prop41ColorIndex
 90
       18
102
RTVSPost2010Prop41ColorRGB
 90
        0
102
RTVSPost2010PropOp41
 70
     1
102
RTVSPost2010Prop42
 90
       50
102
RTVSPost2010PropOp42
 70
     1
102
RTVSPost2010Prop43
 90
        3
102
RTVSPost2010PropOp43
 70
     1
102
RTVSPost2010Prop44ColorIndex
 90
        5
102
RTVSPost2010Prop44ColorRGB
 90
      255
102
RTVSPost2010PropOp44
 70
     1
102
RTVSPost2010Prop45
280
     0
102
RTVSPost2010PropOp45
 70
     1
102
RTVSPost2010Prop46
 90
       50
102
RTVSPost2010PropOp46
 70
     1
102
RTVSPost2010Prop47
 90
       50
102
RTVSPost2010PropOp47
 70
     1
102
RTVSPost2010Prop48
 90
       50
102
RTVSPost2010PropOp48
 70
     1
102
RTVSPost2010Prop49
280
     0
102
RTVSPost2010PropOp49
 70
     1
102
RTVSPost2010Prop50
 90
       50
102
RTVSPost2010PropOp50
 70
     1
102
RTVSPost2010Prop51ColorIndex
 90
      256
102
RTVSPost2010Prop51ColorRGB
 90
-16777216
102
RTVSPost2010PropOp51
 70
     0
102
RTVSPost2010Prop52
140
1.0
102
RTVSPost2010PropOp52
 70
     0
102
RTVSPost2010Prop53
 90
        2
102
RTVSPost2010PropOp53
 70
     1
102
RTVSPost2010Prop54
  1
strokes_ogs.tif
102
RTVSPost2010PropOp54
 70
     1
102
RTVSPost2010Prop55
280
     0
102
RTVSPost2010PropOp55
 70
     1
102
RTVSPost2010Prop56
140
1.0
102
RTVSPost2010PropOp56
 70
     1
102
RTVSPost2010Prop57
140
1.0
102
RTVSPost2010PropOp57
 70
     1
102
RTVSPropertyOp0
 70
     1
102
RTVSPropertyOp1
 70
     1
102
RTVSPropertyOp2
 70
     1
102
RTVSPropertyOp3
 70
     1
102
RTVSPropertyOp4
 70
     1
102
RTVSPropertyOp5
 70
     1
102
RTVSPropertyOp6
 70
     1
102
RTVSPropertyOp7
 70
     1
102
RTVSPropertyOp8
 70
     1
102
RTVSPropertyOp9
 70
     1
102
RTVSPropertyOp10
 70
     1
102
RTVSPropertyOp11
 70
     1
102
RTVSPropertyOp12
 70
     1
102
RTVSPropertyOp13
 70
     1
102
RTVSPropertyOp14
 70
     1
102
RTVSPropertyOp15
 70
     1
102
RTVSPropertyOp16
 70
     1
102
RTVSPropertyOp17
 70
     1
102
RTVSPropertyOp18
 70
     1
102
RTVSPropertyOp19
 70
     1
102
RTVSPropertyOp20
 70
     1
102
RTVSPropertyOp21
 70
     1
102
RTVSPropertyOp22
 70
     1
102
RTVSPropertyOp23
 70
     1
102
RTVSPropertyOp24
 70
     1
102
RTVSPropertyOp25
 70
     1
102
RTVSPropertyOp26
 70
     1
102
RTVSPropertyOp27
 70
     1
102
RTVSPropertyOp28
 70
     1
102
RTVSPropertyOp29
 70
     1
102
RTVSPropertyOp30
 70
     1
102
RTVSPropertyOp31
 70
     1
102
RTVSPropertyOp32
 70
     1
102
RTVSPropertyOp33
 70
     1
102
RTVSPropertyOp34
 70
     1
102
RTVSPropertyOp35
 70
     1
102
RTVSPropertyOp36
 70
     1
102
RTVSPropertyOp37
 70
     1
102
RTVSPropertyOp38
 70
     1
102
RTVSPropertyOp39
 70
     1
102
RTVSPropertyOp40
 70
     1
102
RTVSPropertyOp41
 70
     1
102
RTVSPropertyOp42
 70
     1
102
RTVSPropertyOp43
 70
     1
102
RTVSPropertyOp44
 70
     1
102
RTVSPropertyOp45
 70
     1
102
RTVSPropertyOp46
 70
     1
102
RTVSPropertyOp47
 70
     1
102
RTVSPropertyOp48
 70
     1
102
RTVSPropertyOp49
 70
     1
102
RTVSPropertyOp50
 70
     1
102
RTVSPropertyOp51
 70
     0
102
RTVSPropertyOp52
 70
     0
102
RTVSPropertyOp53
 70
     1
102
RTVSPropertyOp54
 70
     1
102
RTVSPropertyOp55
 70
     1
102
RTVSPropertyOp56
 70
     1
102
RTVSPropertyOp57
 70
     1
102
RTVSPropertyOp58
 70
     1
102
RTVSPropertyOp59
 70
     1
102
RTVSPropertyOp60
 70
     1
102
RTVSPropertyOp61
 70
     1
102
RTVSPropertyOp62
 70
     1
  0
XRECORD
  5
9A70
102
{ACAD_REACTORS
330
9A6F
102
}
330
9A6F
100
AcDbXrecord
280
     1
102
RTVSPost2010Prop28
280
     0
102
RTVSPost2010PropOp28
 70
     1
102
RTVSPost2010Prop29
280
     1
102
RTVSPost2010PropOp29
 70
     1
102
RTVSPost2010Prop30
280
     1
102
RTVSPost2010PropOp30
 70
     1
102
RTVSPost2010Prop31
280
     0
102
RTVSPost2010PropOp31
 70
     1
102
RTVSPost2010Prop32
280
     0
102
RTVSPost2010PropOp32
 70
     1
102
RTVSPost2010Prop33
280
     0
102
RTVSPost2010PropOp33
 70
     1
102
RTVSPost2010Prop34
280
     0
102
RTVSPost2010PropOp34
 70
     1
102
RTVSPost2010Prop35
280
     0
102
RTVSPost2010PropOp35
 70
     1
102
RTVSPost2010Prop36
280
     0
102
RTVSPost2010PropOp36
 70
     1
102
RTVSPost2010Prop37
 90
       50
102
RTVSPost2010PropOp37
 70
     1
102
RTVSPost2010Prop38
140
0.0
102
RTVSPost2010PropOp38
 70
     1
102
RTVSPost2010Prop39
140
1.0
102
RTVSPost2010PropOp39
 70
     1
102
RTVSPost2010Prop40
 90
        0
102
RTVSPost2010PropOp40
 70
     1
102
RTVSPost2010Prop41ColorIndex
 90
       18
102
RTVSPost2010Prop41ColorRGB
 90
        0
102
RTVSPost2010PropOp41
 70
     1
102
RTVSPost2010Prop42
 90
       50
102
RTVSPost2010PropOp42
 70
     1
102
RTVSPost2010Prop43
 90
        3
102
RTVSPost2010PropOp43
 70
     1
102
RTVSPost2010Prop44ColorIndex
 90
        5
102
RTVSPost2010Prop44ColorRGB
 90
      255
102
RTVSPost2010PropOp44
 70
     1
102
RTVSPost2010Prop45
280
     0
102
RTVSPost2010PropOp45
 70
     1
102
RTVSPost2010Prop46
 90
       50
102
RTVSPost2010PropOp46
 70
     1
102
RTVSPost2010Prop47
 90
       50
102
RTVSPost2010PropOp47
 70
     1
102
RTVSPost2010Prop48
 90
       50
102
RTVSPost2010PropOp48
 70
     1
102
RTVSPost2010Prop49
280
     0
102
RTVSPost2010PropOp49
 70
     1
102
RTVSPost2010Prop50
 90
       50
102
RTVSPost2010PropOp50
 70
     1
102
RTVSPost2010Prop51ColorIndex
 90
      256
102
RTVSPost2010Prop51ColorRGB
 90
-16777216
102
RTVSPost2010PropOp51
 70
     0
102
RTVSPost2010Prop52
140
1.0
102
RTVSPost2010PropOp52
 70
     0
102
RTVSPost2010Prop53
 90
        2
102
RTVSPost2010PropOp53
 70
     1
102
RTVSPost2010Prop54
  1
strokes_ogs.tif
102
RTVSPost2010PropOp54
 70
     1
102
RTVSPost2010Prop55
280
     0
102
RTVSPost2010PropOp55
 70
     1
102
RTVSPost2010Prop56
140
1.0
102
RTVSPost2010PropOp56
 70
     1
102
RTVSPost2010Prop57
140
1.0
102
RTVSPost2010PropOp57
 70
     1
102
RTVSPropertyOp0
 70
     1
102
RTVSPropertyOp1
 70
     1
102
RTVSPropertyOp2
 70
     1
102
RTVSPropertyOp3
 70
     1
102
RTVSPropertyOp4
 70
     1
102
RTVSPropertyOp5
 70
     1
102
RTVSPropertyOp6
 70
     1
102
RTVSPropertyOp7
 70
     1
102
RTVSPropertyOp8
 70
     1
102
RTVSPropertyOp9
 70
     1
102
RTVSPropertyOp10
 70
     1
102
RTVSPropertyOp11
 70
     1
102
RTVSPropertyOp12
 70
     1
102
RTVSPropertyOp13
 70
     1
102
RTVSPropertyOp14
 70
     1
102
RTVSPropertyOp15
 70
     1
102
RTVSPropertyOp16
 70
     1
102
RTVSPropertyOp17
 70
     1
102
RTVSPropertyOp18
 70
     1
102
RTVSPropertyOp19
 70
     1
102
RTVSPropertyOp20
 70
     1
102
RTVSPropertyOp21
 70
     1
102
RTVSPropertyOp22
 70
     1
102
RTVSPropertyOp23
 70
     1
102
RTVSPropertyOp24
 70
     1
102
RTVSPropertyOp25
 70
     1
102
RTVSPropertyOp26
 70
     1
102
RTVSPropertyOp27
 70
     1
102
RTVSPropertyOp28
 70
     1
102
RTVSPropertyOp29
 70
     1
102
RTVSPropertyOp30
 70
     1
102
RTVSPropertyOp31
 70
     1
102
RTVSPropertyOp32
 70
     1
102
RTVSPropertyOp33
 70
     1
102
RTVSPropertyOp34
 70
     1
102
RTVSPropertyOp35
 70
     1
102
RTVSPropertyOp36
 70
     1
102
RTVSPropertyOp37
 70
     1
102
RTVSPropertyOp38
 70
     1
102
RTVSPropertyOp39
 70
     1
102
RTVSPropertyOp40
 70
     1
102
RTVSPropertyOp41
 70
     1
102
RTVSPropertyOp42
 70
     1
102
RTVSPropertyOp43
 70
     1
102
RTVSPropertyOp44
 70
     1
102
RTVSPropertyOp45
 70
     1
102
RTVSPropertyOp46
 70
     1
102
RTVSPropertyOp47
 70
     1
102
RTVSPropertyOp48
 70
     1
102
RTVSPropertyOp49
 70
     1
102
RTVSPropertyOp50
 70
     1
102
RTVSPropertyOp51
 70
     0
102
RTVSPropertyOp52
 70
     0
102
RTVSPropertyOp53
 70
     1
102
RTVSPropertyOp54
 70
     1
102
RTVSPropertyOp55
 70
     1
102
RTVSPropertyOp56
 70
     1
102
RTVSPropertyOp57
 70
     1
102
RTVSPropertyOp58
 70
     1
102
RTVSPropertyOp59
 70
     1
102
RTVSPropertyOp60
 70
     1
102
RTVSPropertyOp61
 70
     1
102
RTVSPropertyOp62
 70
     1
  0
XRECORD
  5
9A78
102
{ACAD_REACTORS
330
9A77
102
}
330
9A77
100
AcDbXrecord
280
     1
102
RTVSPost2010Prop28
280
     0
102
RTVSPost2010PropOp28
 70
     1
102
RTVSPost2010Prop29
280
     1
102
RTVSPost2010PropOp29
 70
     1
102
RTVSPost2010Prop30
280
     1
102
RTVSPost2010PropOp30
 70
     1
102
RTVSPost2010Prop31
280
     0
102
RTVSPost2010PropOp31
 70
     1
102
RTVSPost2010Prop32
280
     0
102
RTVSPost2010PropOp32
 70
     1
102
RTVSPost2010Prop33
280
     0
102
RTVSPost2010PropOp33
 70
     1
102
RTVSPost2010Prop34
280
     0
102
RTVSPost2010PropOp34
 70
     1
102
RTVSPost2010Prop35
280
     0
102
RTVSPost2010PropOp35
 70
     1
102
RTVSPost2010Prop36
280
     0
102
RTVSPost2010PropOp36
 70
     1
102
RTVSPost2010Prop37
 90
       50
102
RTVSPost2010PropOp37
 70
     1
102
RTVSPost2010Prop38
140
0.0
102
RTVSPost2010PropOp38
 70
     1
102
RTVSPost2010Prop39
140
1.0
102
RTVSPost2010PropOp39
 70
     1
102
RTVSPost2010Prop40
 90
        0
102
RTVSPost2010PropOp40
 70
     1
102
RTVSPost2010Prop41ColorIndex
 90
       18
102
RTVSPost2010Prop41ColorRGB
 90
        0
102
RTVSPost2010PropOp41
 70
     1
102
RTVSPost2010Prop42
 90
       50
102
RTVSPost2010PropOp42
 70
     1
102
RTVSPost2010Prop43
 90
        3
102
RTVSPost2010PropOp43
 70
     1
102
RTVSPost2010Prop44ColorIndex
 90
        5
102
RTVSPost2010Prop44ColorRGB
 90
      255
102
RTVSPost2010PropOp44
 70
     1
102
RTVSPost2010Prop45
280
     0
102
RTVSPost2010PropOp45
 70
     1
102
RTVSPost2010Prop46
 90
       50
102
RTVSPost2010PropOp46
 70
     1
102
RTVSPost2010Prop47
 90
       50
102
RTVSPost2010PropOp47
 70
     1
102
RTVSPost2010Prop48
 90
       50
102
RTVSPost2010PropOp48
 70
     1
102
RTVSPost2010Prop49
280
     0
102
RTVSPost2010PropOp49
 70
     1
102
RTVSPost2010Prop50
 90
       50
102
RTVSPost2010PropOp50
 70
     1
102
RTVSPost2010Prop51ColorIndex
 90
      256
102
RTVSPost2010Prop51ColorRGB
 90
-16777216
102
RTVSPost2010PropOp51
 70
     0
102
RTVSPost2010Prop52
140
1.0
102
RTVSPost2010PropOp52
 70
     0
102
RTVSPost2010Prop53
 90
        2
102
RTVSPost2010PropOp53
 70
     1
102
RTVSPost2010Prop54
  1
strokes_ogs.tif
102
RTVSPost2010PropOp54
 70
     1
102
RTVSPost2010Prop55
280
     0
102
RTVSPost2010PropOp55
 70
     1
102
RTVSPost2010Prop56
140
1.0
102
RTVSPost2010PropOp56
 70
     1
102
RTVSPost2010Prop57
140
1.0
102
RTVSPost2010PropOp57
 70
     1
102
RTVSPropertyOp0
 70
     1
102
RTVSPropertyOp1
 70
     1
102
RTVSPropertyOp2
 70
     1
102
RTVSPropertyOp3
 70
     1
102
RTVSPropertyOp4
 70
     1
102
RTVSPropertyOp5
 70
     1
102
RTVSPropertyOp6
 70
     1
102
RTVSPropertyOp7
 70
     1
102
RTVSPropertyOp8
 70
     1
102
RTVSPropertyOp9
 70
     1
102
RTVSPropertyOp10
 70
     1
102
RTVSPropertyOp11
 70
     1
102
RTVSPropertyOp12
 70
     1
102
RTVSPropertyOp13
 70
     1
102
RTVSPropertyOp14
 70
     1
102
RTVSPropertyOp15
 70
     1
102
RTVSPropertyOp16
 70
     1
102
RTVSPropertyOp17
 70
     1
102
RTVSPropertyOp18
 70
     1
102
RTVSPropertyOp19
 70
     1
102
RTVSPropertyOp20
 70
     1
102
RTVSPropertyOp21
 70
     1
102
RTVSPropertyOp22
 70
     1
102
RTVSPropertyOp23
 70
     1
102
RTVSPropertyOp24
 70
     1
102
RTVSPropertyOp25
 70
     1
102
RTVSPropertyOp26
 70
     1
102
RTVSPropertyOp27
 70
     1
102
RTVSPropertyOp28
 70
     1
102
RTVSPropertyOp29
 70
     1
102
RTVSPropertyOp30
 70
     1
102
RTVSPropertyOp31
 70
     1
102
RTVSPropertyOp32
 70
     1
102
RTVSPropertyOp33
 70
     1
102
RTVSPropertyOp34
 70
     1
102
RTVSPropertyOp35
 70
     1
102
RTVSPropertyOp36
 70
     1
102
RTVSPropertyOp37
 70
     1
102
RTVSPropertyOp38
 70
     1
102
RTVSPropertyOp39
 70
     1
102
RTVSPropertyOp40
 70
     1
102
RTVSPropertyOp41
 70
     1
102
RTVSPropertyOp42
 70
     1
102
RTVSPropertyOp43
 70
     1
102
RTVSPropertyOp44
 70
     1
102
RTVSPropertyOp45
 70
     1
102
RTVSPropertyOp46
 70
     1
102
RTVSPropertyOp47
 70
     1
102
RTVSPropertyOp48
 70
     1
102
RTVSPropertyOp49
 70
     1
102
RTVSPropertyOp50
 70
     1
102
RTVSPropertyOp51
 70
     0
102
RTVSPropertyOp52
 70
     0
102
RTVSPropertyOp53
 70
     1
102
RTVSPropertyOp54
 70
     1
102
RTVSPropertyOp55
 70
     1
102
RTVSPropertyOp56
 70
     1
102
RTVSPropertyOp57
 70
     1
102
RTVSPropertyOp58
 70
     1
102
RTVSPropertyOp59
 70
     1
102
RTVSPropertyOp60
 70
     1
102
RTVSPropertyOp61
 70
     1
102
RTVSPropertyOp62
 70
     1
  0
XRECORD
  5
9A94
102
{ACAD_REACTORS
330
9A93
102
}
330
9A93
100
AcDbXrecord
280
     1
102
RTVSPost2010Prop28
280
     0
102
RTVSPost2010PropOp28
 70
     1
102
RTVSPost2010Prop29
280
     1
102
RTVSPost2010PropOp29
 70
     1
102
RTVSPost2010Prop30
280
     1
102
RTVSPost2010PropOp30
 70
     1
102
RTVSPost2010Prop31
280
     0
102
RTVSPost2010PropOp31
 70
     1
102
RTVSPost2010Prop32
280
     0
102
RTVSPost2010PropOp32
 70
     1
102
RTVSPost2010Prop33
280
     0
102
RTVSPost2010PropOp33
 70
     1
102
RTVSPost2010Prop34
280
     0
102
RTVSPost2010PropOp34
 70
     1
102
RTVSPost2010Prop35
280
     0
102
RTVSPost2010PropOp35
 70
     1
102
RTVSPost2010Prop36
280
     0
102
RTVSPost2010PropOp36
 70
     1
102
RTVSPost2010Prop37
 90
       50
102
RTVSPost2010PropOp37
 70
     0
102
RTVSPost2010Prop38
140
0.0
102
RTVSPost2010PropOp38
 70
     0
102
RTVSPost2010Prop39
140
1.0
102
RTVSPost2010PropOp39
 70
     0
102
RTVSPost2010Prop40
 90
        0
102
RTVSPost2010PropOp40
 70
     0
102
RTVSPost2010Prop41ColorIndex
 90
       18
102
RTVSPost2010Prop41ColorRGB
 90
        0
102
RTVSPost2010PropOp41
 70
     0
102
RTVSPost2010Prop42
 90
       50
102
RTVSPost2010PropOp42
 70
     0
102
RTVSPost2010Prop43
 90
        3
102
RTVSPost2010PropOp43
 70
     0
102
RTVSPost2010Prop44ColorIndex
 90
        5
102
RTVSPost2010Prop44ColorRGB
 90
      255
102
RTVSPost2010PropOp44
 70
     0
102
RTVSPost2010Prop45
280
     0
102
RTVSPost2010PropOp45
 70
     1
102
RTVSPost2010Prop46
 90
       50
102
RTVSPost2010PropOp46
 70
     0
102
RTVSPost2010Prop47
 90
       50
102
RTVSPost2010PropOp47
 70
     0
102
RTVSPost2010Prop48
 90
       50
102
RTVSPost2010PropOp48
 70
     0
102
RTVSPost2010Prop49
280
     0
102
RTVSPost2010PropOp49
 70
     1
102
RTVSPost2010Prop50
 90
       50
102
RTVSPost2010PropOp50
 70
     0
102
RTVSPost2010Prop51ColorIndex
 90
      256
102
RTVSPost2010Prop51ColorRGB
 90
-16777216
102
RTVSPost2010PropOp51
 70
     0
102
RTVSPost2010Prop52
140
1.0
102
RTVSPost2010PropOp52
 70
     0
102
RTVSPost2010Prop53
 90
        2
102
RTVSPost2010PropOp53
 70
     0
102
RTVSPost2010Prop54
  1
strokes_ogs.tif
102
RTVSPost2010PropOp54
 70
     0
102
RTVSPost2010Prop55
280
     0
102
RTVSPost2010PropOp55
 70
     1
102
RTVSPost2010Prop56
140
1.0
102
RTVSPost2010PropOp56
 70
     0
102
RTVSPost2010Prop57
140
1.0
102
RTVSPost2010PropOp57
 70
     0
102
RTVSPropertyOp0
 70
     0
102
RTVSPropertyOp1
 70
     0
102
RTVSPropertyOp2
 70
     0
102
RTVSPropertyOp3
 70
     0
102
RTVSPropertyOp4
 70
     0
102
RTVSPropertyOp5
 70
     0
102
RTVSPropertyOp6
 70
     0
102
RTVSPropertyOp7
 70
     0
102
RTVSPropertyOp8
 70
     0
102
RTVSPropertyOp9
 70
     0
102
RTVSPropertyOp10
 70
     0
102
RTVSPropertyOp11
 70
     0
102
RTVSPropertyOp12
 70
     0
102
RTVSPropertyOp13
 70
     0
102
RTVSPropertyOp14
 70
     2
102
RTVSPropertyOp15
 70
     0
102
RTVSPropertyOp16
 70
     0
102
RTVSPropertyOp17
 70
     0
102
RTVSPropertyOp18
 70
     0
102
RTVSPropertyOp19
 70
     0
102
RTVSPropertyOp20
 70
     0
102
RTVSPropertyOp21
 70
     0
102
RTVSPropertyOp22
 70
     0
102
RTVSPropertyOp23
 70
     0
102
RTVSPropertyOp24
 70
     0
102
RTVSPropertyOp25
 70
     0
102
RTVSPropertyOp26
 70
     0
102
RTVSPropertyOp27
 70
     0
102
RTVSPropertyOp28
 70
     1
102
RTVSPropertyOp29
 70
     1
102
RTVSPropertyOp30
 70
     1
102
RTVSPropertyOp31
 70
     1
102
RTVSPropertyOp32
 70
     1
102
RTVSPropertyOp33
 70
     1
102
RTVSPropertyOp34
 70
     1
102
RTVSPropertyOp35
 70
     1
102
RTVSPropertyOp36
 70
     1
102
RTVSPropertyOp37
 70
     0
102
RTVSPropertyOp38
 70
     0
102
RTVSPropertyOp39
 70
     0
102
RTVSPropertyOp40
 70
     0
102
RTVSPropertyOp41
 70
     0
102
RTVSPropertyOp42
 70
     0
102
RTVSPropertyOp43
 70
     0
102
RTVSPropertyOp44
 70
     0
102
RTVSPropertyOp45
 70
     1
102
RTVSPropertyOp46
 70
     0
102
RTVSPropertyOp47
 70
     0
102
RTVSPropertyOp48
 70
     0
102
RTVSPropertyOp49
 70
     1
102
RTVSPropertyOp50
 70
     0
102
RTVSPropertyOp51
 70
     0
102
RTVSPropertyOp52
 70
     0
102
RTVSPropertyOp53
 70
     0
102
RTVSPropertyOp54
 70
     0
102
RTVSPropertyOp55
 70
     1
102
RTVSPropertyOp56
 70
     0
102
RTVSPropertyOp57
 70
     0
102
RTVSPropertyOp58
 70
     0
102
RTVSPropertyOp59
 70
     0
102
RTVSPropertyOp60
 70
     0
102
RTVSPropertyOp61
 70
     0
102
RTVSPropertyOp62
 70
     0
  0
XRECORD
  5
9A84
102
{ACAD_REACTORS
330
9A83
102
}
330
9A83
100
AcDbXrecord
280
     1
102
RTVSPost2010Prop28
280
     0
102
RTVSPost2010PropOp28
 70
     1
102
RTVSPost2010Prop29
280
     1
102
RTVSPost2010PropOp29
 70
     1
102
RTVSPost2010Prop30
280
     1
102
RTVSPost2010PropOp30
 70
     1
102
RTVSPost2010Prop31
280
     0
102
RTVSPost2010PropOp31
 70
     1
102
RTVSPost2010Prop32
280
     0
102
RTVSPost2010PropOp32
 70
     1
102
RTVSPost2010Prop33
280
     0
102
RTVSPost2010PropOp33
 70
     1
102
RTVSPost2010Prop34
280
     0
102
RTVSPost2010PropOp34
 70
     1
102
RTVSPost2010Prop35
280
     0
102
RTVSPost2010PropOp35
 70
     1
102
RTVSPost2010Prop36
280
     0
102
RTVSPost2010PropOp36
 70
     1
102
RTVSPost2010Prop37
 90
       50
102
RTVSPost2010PropOp37
 70
     1
102
RTVSPost2010Prop38
140
0.0
102
RTVSPost2010PropOp38
 70
     1
102
RTVSPost2010Prop39
140
1.0
102
RTVSPost2010PropOp39
 70
     1
102
RTVSPost2010Prop40
 90
        0
102
RTVSPost2010PropOp40
 70
     1
102
RTVSPost2010Prop41ColorIndex
 90
       18
102
RTVSPost2010Prop41ColorRGB
 90
        0
102
RTVSPost2010PropOp41
 70
     1
102
RTVSPost2010Prop42
 90
       50
102
RTVSPost2010PropOp42
 70
     1
102
RTVSPost2010Prop43
 90
        3
102
RTVSPost2010PropOp43
 70
     1
102
RTVSPost2010Prop44ColorIndex
 90
        5
102
RTVSPost2010Prop44ColorRGB
 90
      255
102
RTVSPost2010PropOp44
 70
     1
102
RTVSPost2010Prop45
280
     0
102
RTVSPost2010PropOp45
 70
     1
102
RTVSPost2010Prop46
 90
       50
102
RTVSPost2010PropOp46
 70
     1
102
RTVSPost2010Prop47
 90
       50
102
RTVSPost2010PropOp47
 70
     1
102
RTVSPost2010Prop48
 90
       50
102
RTVSPost2010PropOp48
 70
     1
102
RTVSPost2010Prop49
280
     0
102
RTVSPost2010PropOp49
 70
     1
102
RTVSPost2010Prop50
 90
       50
102
RTVSPost2010PropOp50
 70
     1
102
RTVSPost2010Prop51ColorIndex
 90
      256
102
RTVSPost2010Prop51ColorRGB
 90
-16777216
102
RTVSPost2010PropOp51
 70
     0
102
RTVSPost2010Prop52
140
1.0
102
RTVSPost2010PropOp52
 70
     0
102
RTVSPost2010Prop53
 90
        2
102
RTVSPost2010PropOp53
 70
     1
102
RTVSPost2010Prop54
  1
strokes_ogs.tif
102
RTVSPost2010PropOp54
 70
     1
102
RTVSPost2010Prop55
280
     0
102
RTVSPost2010PropOp55
 70
     1
102
RTVSPost2010Prop56
140
1.0
102
RTVSPost2010PropOp56
 70
     1
102
RTVSPost2010Prop57
140
1.0
102
RTVSPost2010PropOp57
 70
     1
102
RTVSPropertyOp0
 70
     1
102
RTVSPropertyOp1
 70
     1
102
RTVSPropertyOp2
 70
     1
102
RTVSPropertyOp3
 70
     1
102
RTVSPropertyOp4
 70
     1
102
RTVSPropertyOp5
 70
     1
102
RTVSPropertyOp6
 70
     1
102
RTVSPropertyOp7
 70
     1
102
RTVSPropertyOp8
 70
     1
102
RTVSPropertyOp9
 70
     1
102
RTVSPropertyOp10
 70
     1
102
RTVSPropertyOp11
 70
     1
102
RTVSPropertyOp12
 70
     1
102
RTVSPropertyOp13
 70
     1
102
RTVSPropertyOp14
 70
     1
102
RTVSPropertyOp15
 70
     1
102
RTVSPropertyOp16
 70
     1
102
RTVSPropertyOp17
 70
     1
102
RTVSPropertyOp18
 70
     1
102
RTVSPropertyOp19
 70
     1
102
RTVSPropertyOp20
 70
     1
102
RTVSPropertyOp21
 70
     1
102
RTVSPropertyOp22
 70
     1
102
RTVSPropertyOp23
 70
     1
102
RTVSPropertyOp24
 70
     1
102
RTVSPropertyOp25
 70
     1
102
RTVSPropertyOp26
 70
     1
102
RTVSPropertyOp27
 70
     1
102
RTVSPropertyOp28
 70
     1
102
RTVSPropertyOp29
 70
     1
102
RTVSPropertyOp30
 70
     1
102
RTVSPropertyOp31
 70
     1
102
RTVSPropertyOp32
 70
     1
102
RTVSPropertyOp33
 70
     1
102
RTVSPropertyOp34
 70
     1
102
RTVSPropertyOp35
 70
     1
102
RTVSPropertyOp36
 70
     1
102
RTVSPropertyOp37
 70
     1
102
RTVSPropertyOp38
 70
     1
102
RTVSPropertyOp39
 70
     1
102
RTVSPropertyOp40
 70
     1
102
RTVSPropertyOp41
 70
     1
102
RTVSPropertyOp42
 70
     1
102
RTVSPropertyOp43
 70
     1
102
RTVSPropertyOp44
 70
     1
102
RTVSPropertyOp45
 70
     1
102
RTVSPropertyOp46
 70
     1
102
RTVSPropertyOp47
 70
     1
102
RTVSPropertyOp48
 70
     1
102
RTVSPropertyOp49
 70
     1
102
RTVSPropertyOp50
 70
     1
102
RTVSPropertyOp51
 70
     0
102
RTVSPropertyOp52
 70
     0
102
RTVSPropertyOp53
 70
     1
102
RTVSPropertyOp54
 70
     1
102
RTVSPropertyOp55
 70
     1
102
RTVSPropertyOp56
 70
     1
102
RTVSPropertyOp57
 70
     1
102
RTVSPropertyOp58
 70
     1
102
RTVSPropertyOp59
 70
     1
102
RTVSPropertyOp60
 70
     1
102
RTVSPropertyOp61
 70
     1
102
RTVSPropertyOp62
 70
     1
  0
XRECORD
  5
9A96
102
{ACAD_REACTORS
330
9A95
102
}
330
9A95
100
AcDbXrecord
280
     1
102
RTVSPost2010Prop28
280
     0
102
RTVSPost2010PropOp28
 70
     1
102
RTVSPost2010Prop29
280
     1
102
RTVSPost2010PropOp29
 70
     1
102
RTVSPost2010Prop30
280
     1
102
RTVSPost2010PropOp30
 70
     1
102
RTVSPost2010Prop31
280
     0
102
RTVSPost2010PropOp31
 70
     1
102
RTVSPost2010Prop32
280
     0
102
RTVSPost2010PropOp32
 70
     1
102
RTVSPost2010Prop33
280
     0
102
RTVSPost2010PropOp33
 70
     1
102
RTVSPost2010Prop34
280
     0
102
RTVSPost2010PropOp34
 70
     1
102
RTVSPost2010Prop35
280
     0
102
RTVSPost2010PropOp35
 70
     1
102
RTVSPost2010Prop36
280
     0
102
RTVSPost2010PropOp36
 70
     1
102
RTVSPost2010Prop37
 90
       50
102
RTVSPost2010PropOp37
 70
     0
102
RTVSPost2010Prop38
140
0.0
102
RTVSPost2010PropOp38
 70
     0
102
RTVSPost2010Prop39
140
1.0
102
RTVSPost2010PropOp39
 70
     0
102
RTVSPost2010Prop40
 90
        0
102
RTVSPost2010PropOp40
 70
     0
102
RTVSPost2010Prop41ColorIndex
 90
       18
102
RTVSPost2010Prop41ColorRGB
 90
        0
102
RTVSPost2010PropOp41
 70
     0
102
RTVSPost2010Prop42
 90
       50
102
RTVSPost2010PropOp42
 70
     0
102
RTVSPost2010Prop43
 90
        3
102
RTVSPost2010PropOp43
 70
     0
102
RTVSPost2010Prop44ColorIndex
 90
        5
102
RTVSPost2010Prop44ColorRGB
 90
      255
102
RTVSPost2010PropOp44
 70
     0
102
RTVSPost2010Prop45
280
     0
102
RTVSPost2010PropOp45
 70
     1
102
RTVSPost2010Prop46
 90
       50
102
RTVSPost2010PropOp46
 70
     0
102
RTVSPost2010Prop47
 90
       50
102
RTVSPost2010PropOp47
 70
     0
102
RTVSPost2010Prop48
 90
       50
102
RTVSPost2010PropOp48
 70
     0
102
RTVSPost2010Prop49
280
     0
102
RTVSPost2010PropOp49
 70
     1
102
RTVSPost2010Prop50
 90
       50
102
RTVSPost2010PropOp50
 70
     0
102
RTVSPost2010Prop51ColorIndex
 90
      256
102
RTVSPost2010Prop51ColorRGB
 90
-16777216
102
RTVSPost2010PropOp51
 70
     0
102
RTVSPost2010Prop52
140
1.0
102
RTVSPost2010PropOp52
 70
     0
102
RTVSPost2010Prop53
 90
        2
102
RTVSPost2010PropOp53
 70
     0
102
RTVSPost2010Prop54
  1
strokes_ogs.tif
102
RTVSPost2010PropOp54
 70
     0
102
RTVSPost2010Prop55
280
     0
102
RTVSPost2010PropOp55
 70
     1
102
RTVSPost2010Prop56
140
1.0
102
RTVSPost2010PropOp56
 70
     0
102
RTVSPost2010Prop57
140
1.0
102
RTVSPost2010PropOp57
 70
     0
102
RTVSPropertyOp0
 70
     0
102
RTVSPropertyOp1
 70
     0
102
RTVSPropertyOp2
 70
     0
102
RTVSPropertyOp3
 70
     0
102
RTVSPropertyOp4
 70
     0
102
RTVSPropertyOp5
 70
     0
102
RTVSPropertyOp6
 70
     0
102
RTVSPropertyOp7
 70
     0
102
RTVSPropertyOp8
 70
     0
102
RTVSPropertyOp9
 70
     0
102
RTVSPropertyOp10
 70
     0
102
RTVSPropertyOp11
 70
     0
102
RTVSPropertyOp12
 70
     0
102
RTVSPropertyOp13
 70
     0
102
RTVSPropertyOp14
 70
     2
102
RTVSPropertyOp15
 70
     0
102
RTVSPropertyOp16
 70
     0
102
RTVSPropertyOp17
 70
     0
102
RTVSPropertyOp18
 70
     0
102
RTVSPropertyOp19
 70
     0
102
RTVSPropertyOp20
 70
     0
102
RTVSPropertyOp21
 70
     0
102
RTVSPropertyOp22
 70
     0
102
RTVSPropertyOp23
 70
     0
102
RTVSPropertyOp24
 70
     0
102
RTVSPropertyOp25
 70
     0
102
RTVSPropertyOp26
 70
     0
102
RTVSPropertyOp27
 70
     0
102
RTVSPropertyOp28
 70
     1
102
RTVSPropertyOp29
 70
     1
102
RTVSPropertyOp30
 70
     1
102
RTVSPropertyOp31
 70
     1
102
RTVSPropertyOp32
 70
     1
102
RTVSPropertyOp33
 70
     1
102
RTVSPropertyOp34
 70
     1
102
RTVSPropertyOp35
 70
     1
102
RTVSPropertyOp36
 70
     1
102
RTVSPropertyOp37
 70
     0
102
RTVSPropertyOp38
 70
     0
102
RTVSPropertyOp39
 70
     0
102
RTVSPropertyOp40
 70
     0
102
RTVSPropertyOp41
 70
     0
102
RTVSPropertyOp42
 70
     0
102
RTVSPropertyOp43
 70
     0
102
RTVSPropertyOp44
 70
     0
102
RTVSPropertyOp45
 70
     1
102
RTVSPropertyOp46
 70
     0
102
RTVSPropertyOp47
 70
     0
102
RTVSPropertyOp48
 70
     0
102
RTVSPropertyOp49
 70
     1
102
RTVSPropertyOp50
 70
     0
102
RTVSPropertyOp51
 70
     0
102
RTVSPropertyOp52
 70
     0
102
RTVSPropertyOp53
 70
     0
102
RTVSPropertyOp54
 70
     0
102
RTVSPropertyOp55
 70
     1
102
RTVSPropertyOp56
 70
     0
102
RTVSPropertyOp57
 70
     0
102
RTVSPropertyOp58
 70
     0
102
RTVSPropertyOp59
 70
     0
102
RTVSPropertyOp60
 70
     0
102
RTVSPropertyOp61
 70
     0
102
RTVSPropertyOp62
 70
     0
  0
XRECORD
  5
9A7C
102
{ACAD_REACTORS
330
9A7B
102
}
330
9A7B
100
AcDbXrecord
280
     1
102
RTVSPost2010Prop28
280
     0
102
RTVSPost2010PropOp28
 70
     1
102
RTVSPost2010Prop29
280
     1
102
RTVSPost2010PropOp29
 70
     1
102
RTVSPost2010Prop30
280
     1
102
RTVSPost2010PropOp30
 70
     1
102
RTVSPost2010Prop31
280
     0
102
RTVSPost2010PropOp31
 70
     1
102
RTVSPost2010Prop32
280
     0
102
RTVSPost2010PropOp32
 70
     1
102
RTVSPost2010Prop33
280
     0
102
RTVSPost2010PropOp33
 70
     1
102
RTVSPost2010Prop34
280
     0
102
RTVSPost2010PropOp34
 70
     1
102
RTVSPost2010Prop35
280
     0
102
RTVSPost2010PropOp35
 70
     1
102
RTVSPost2010Prop36
280
     0
102
RTVSPost2010PropOp36
 70
     1
102
RTVSPost2010Prop37
 90
       50
102
RTVSPost2010PropOp37
 70
     1
102
RTVSPost2010Prop38
140
0.0
102
RTVSPost2010PropOp38
 70
     1
102
RTVSPost2010Prop39
140
1.0
102
RTVSPost2010PropOp39
 70
     1
102
RTVSPost2010Prop40
 90
        0
102
RTVSPost2010PropOp40
 70
     1
102
RTVSPost2010Prop41ColorIndex
 90
       18
102
RTVSPost2010Prop41ColorRGB
 90
        0
102
RTVSPost2010PropOp41
 70
     1
102
RTVSPost2010Prop42
 90
       50
102
RTVSPost2010PropOp42
 70
     1
102
RTVSPost2010Prop43
 90
        3
102
RTVSPost2010PropOp43
 70
     1
102
RTVSPost2010Prop44ColorIndex
 90
        5
102
RTVSPost2010Prop44ColorRGB
 90
      255
102
RTVSPost2010PropOp44
 70
     1
102
RTVSPost2010Prop45
280
     0
102
RTVSPost2010PropOp45
 70
     1
102
RTVSPost2010Prop46
 90
       50
102
RTVSPost2010PropOp46
 70
     1
102
RTVSPost2010Prop47
 90
       50
102
RTVSPost2010PropOp47
 70
     1
102
RTVSPost2010Prop48
 90
       50
102
RTVSPost2010PropOp48
 70
     1
102
RTVSPost2010Prop49
280
     0
102
RTVSPost2010PropOp49
 70
     1
102
RTVSPost2010Prop50
 90
       50
102
RTVSPost2010PropOp50
 70
     1
102
RTVSPost2010Prop51ColorIndex
 90
      256
102
RTVSPost2010Prop51ColorRGB
 90
-16777216
102
RTVSPost2010PropOp51
 70
     0
102
RTVSPost2010Prop52
140
1.0
102
RTVSPost2010PropOp52
 70
     0
102
RTVSPost2010Prop53
 90
        2
102
RTVSPost2010PropOp53
 70
     1
102
RTVSPost2010Prop54
  1
strokes_ogs.tif
102
RTVSPost2010PropOp54
 70
     1
102
RTVSPost2010Prop55
280
     0
102
RTVSPost2010PropOp55
 70
     1
102
RTVSPost2010Prop56
140
1.0
102
RTVSPost2010PropOp56
 70
     1
102
RTVSPost2010Prop57
140
1.0
102
RTVSPost2010PropOp57
 70
     1
102
RTVSPropertyOp0
 70
     1
102
RTVSPropertyOp1
 70
     1
102
RTVSPropertyOp2
 70
     1
102
RTVSPropertyOp3
 70
     1
102
RTVSPropertyOp4
 70
     1
102
RTVSPropertyOp5
 70
     1
102
RTVSPropertyOp6
 70
     1
102
RTVSPropertyOp7
 70
     1
102
RTVSPropertyOp8
 70
     1
102
RTVSPropertyOp9
 70
     1
102
RTVSPropertyOp10
 70
     1
102
RTVSPropertyOp11
 70
     1
102
RTVSPropertyOp12
 70
     1
102
RTVSPropertyOp13
 70
     1
102
RTVSPropertyOp14
 70
     1
102
RTVSPropertyOp15
 70
     1
102
RTVSPropertyOp16
 70
     1
102
RTVSPropertyOp17
 70
     1
102
RTVSPropertyOp18
 70
     1
102
RTVSPropertyOp19
 70
     1
102
RTVSPropertyOp20
 70
     1
102
RTVSPropertyOp21
 70
     1
102
RTVSPropertyOp22
 70
     1
102
RTVSPropertyOp23
 70
     1
102
RTVSPropertyOp24
 70
     1
102
RTVSPropertyOp25
 70
     1
102
RTVSPropertyOp26
 70
     1
102
RTVSPropertyOp27
 70
     1
102
RTVSPropertyOp28
 70
     1
102
RTVSPropertyOp29
 70
     1
102
RTVSPropertyOp30
 70
     1
102
RTVSPropertyOp31
 70
     1
102
RTVSPropertyOp32
 70
     1
102
RTVSPropertyOp33
 70
     1
102
RTVSPropertyOp34
 70
     1
102
RTVSPropertyOp35
 70
     1
102
RTVSPropertyOp36
 70
     1
102
RTVSPropertyOp37
 70
     1
102
RTVSPropertyOp38
 70
     1
102
RTVSPropertyOp39
 70
     1
102
RTVSPropertyOp40
 70
     1
102
RTVSPropertyOp41
 70
     1
102
RTVSPropertyOp42
 70
     1
102
RTVSPropertyOp43
 70
     1
102
RTVSPropertyOp44
 70
     1
102
RTVSPropertyOp45
 70
     1
102
RTVSPropertyOp46
 70
     1
102
RTVSPropertyOp47
 70
     1
102
RTVSPropertyOp48
 70
     1
102
RTVSPropertyOp49
 70
     1
102
RTVSPropertyOp50
 70
     1
102
RTVSPropertyOp51
 70
     0
102
RTVSPropertyOp52
 70
     0
102
RTVSPropertyOp53
 70
     1
102
RTVSPropertyOp54
 70
     1
102
RTVSPropertyOp55
 70
     1
102
RTVSPropertyOp56
 70
     1
102
RTVSPropertyOp57
 70
     1
102
RTVSPropertyOp58
 70
     1
102
RTVSPropertyOp59
 70
     1
102
RTVSPropertyOp60
 70
     1
102
RTVSPropertyOp61
 70
     1
102
RTVSPropertyOp62
 70
     1
  0
XRECORD
  5
9A92
102
{ACAD_REACTORS
330
9A91
102
}
330
9A91
100
AcDbXrecord
280
     1
102
RTVSPost2010Prop28
280
     0
102
RTVSPost2010PropOp28
 70
     1
102
RTVSPost2010Prop29
280
     1
102
RTVSPost2010PropOp29
 70
     1
102
RTVSPost2010Prop30
280
     1
102
RTVSPost2010PropOp30
 70
     1
102
RTVSPost2010Prop31
280
     0
102
RTVSPost2010PropOp31
 70
     1
102
RTVSPost2010Prop32
280
     0
102
RTVSPost2010PropOp32
 70
     1
102
RTVSPost2010Prop33
280
     0
102
RTVSPost2010PropOp33
 70
     1
102
RTVSPost2010Prop34
280
     0
102
RTVSPost2010PropOp34
 70
     1
102
RTVSPost2010Prop35
280
     0
102
RTVSPost2010PropOp35
 70
     1
102
RTVSPost2010Prop36
280
     0
102
RTVSPost2010PropOp36
 70
     1
102
RTVSPost2010Prop37
 90
       50
102
RTVSPost2010PropOp37
 70
     1
102
RTVSPost2010Prop38
140
0.0
102
RTVSPost2010PropOp38
 70
     1
102
RTVSPost2010Prop39
140
1.0
102
RTVSPost2010PropOp39
 70
     1
102
RTVSPost2010Prop40
 90
        0
102
RTVSPost2010PropOp40
 70
     1
102
RTVSPost2010Prop41ColorIndex
 90
       18
102
RTVSPost2010Prop41ColorRGB
 90
        0
102
RTVSPost2010PropOp41
 70
     1
102
RTVSPost2010Prop42
 90
       50
102
RTVSPost2010PropOp42
 70
     1
102
RTVSPost2010Prop43
 90
        3
102
RTVSPost2010PropOp43
 70
     1
102
RTVSPost2010Prop44ColorIndex
 90
        5
102
RTVSPost2010Prop44ColorRGB
 90
      255
102
RTVSPost2010PropOp44
 70
     1
102
RTVSPost2010Prop45
280
     0
102
RTVSPost2010PropOp45
 70
     1
102
RTVSPost2010Prop46
 90
       50
102
RTVSPost2010PropOp46
 70
     1
102
RTVSPost2010Prop47
 90
       50
102
RTVSPost2010PropOp47
 70
     1
102
RTVSPost2010Prop48
 90
       50
102
RTVSPost2010PropOp48
 70
     1
102
RTVSPost2010Prop49
280
     0
102
RTVSPost2010PropOp49
 70
     1
102
RTVSPost2010Prop50
 90
       50
102
RTVSPost2010PropOp50
 70
     1
102
RTVSPost2010Prop51ColorIndex
 90
      256
102
RTVSPost2010Prop51ColorRGB
 90
-16777216
102
RTVSPost2010PropOp51
 70
     0
102
RTVSPost2010Prop52
140
1.0
102
RTVSPost2010PropOp52
 70
     0
102
RTVSPost2010Prop53
 90
        2
102
RTVSPost2010PropOp53
 70
     1
102
RTVSPost2010Prop54
  1
strokes_ogs.tif
102
RTVSPost2010PropOp54
 70
     1
102
RTVSPost2010Prop55
280
     0
102
RTVSPost2010PropOp55
 70
     1
102
RTVSPost2010Prop56
140
1.0
102
RTVSPost2010PropOp56
 70
     1
102
RTVSPost2010Prop57
140
1.0
102
RTVSPost2010PropOp57
 70
     1
102
RTVSPropertyOp0
 70
     1
102
RTVSPropertyOp1
 70
     1
102
RTVSPropertyOp2
 70
     1
102
RTVSPropertyOp3
 70
     1
102
RTVSPropertyOp4
 70
     1
102
RTVSPropertyOp5
 70
     1
102
RTVSPropertyOp6
 70
     1
102
RTVSPropertyOp7
 70
     1
102
RTVSPropertyOp8
 70
     1
102
RTVSPropertyOp9
 70
     1
102
RTVSPropertyOp10
 70
     1
102
RTVSPropertyOp11
 70
     1
102
RTVSPropertyOp12
 70
     1
102
RTVSPropertyOp13
 70
     1
102
RTVSPropertyOp14
 70
     1
102
RTVSPropertyOp15
 70
     1
102
RTVSPropertyOp16
 70
     1
102
RTVSPropertyOp17
 70
     1
102
RTVSPropertyOp18
 70
     1
102
RTVSPropertyOp19
 70
     1
102
RTVSPropertyOp20
 70
     1
102
RTVSPropertyOp21
 70
     1
102
RTVSPropertyOp22
 70
     1
102
RTVSPropertyOp23
 70
     1
102
RTVSPropertyOp24
 70
     1
102
RTVSPropertyOp25
 70
     1
102
RTVSPropertyOp26
 70
     1
102
RTVSPropertyOp27
 70
     1
102
RTVSPropertyOp28
 70
     1
102
RTVSPropertyOp29
 70
     1
102
RTVSPropertyOp30
 70
     1
102
RTVSPropertyOp31
 70
     1
102
RTVSPropertyOp32
 70
     1
102
RTVSPropertyOp33
 70
     1
102
RTVSPropertyOp34
 70
     1
102
RTVSPropertyOp35
 70
     1
102
RTVSPropertyOp36
 70
     1
102
RTVSPropertyOp37
 70
     1
102
RTVSPropertyOp38
 70
     1
102
RTVSPropertyOp39
 70
     1
102
RTVSPropertyOp40
 70
     1
102
RTVSPropertyOp41
 70
     1
102
RTVSPropertyOp42
 70
     1
102
RTVSPropertyOp43
 70
     1
102
RTVSPropertyOp44
 70
     1
102
RTVSPropertyOp45
 70
     1
102
RTVSPropertyOp46
 70
     1
102
RTVSPropertyOp47
 70
     1
102
RTVSPropertyOp48
 70
     1
102
RTVSPropertyOp49
 70
     1
102
RTVSPropertyOp50
 70
     1
102
RTVSPropertyOp51
 70
     0
102
RTVSPropertyOp52
 70
     0
102
RTVSPropertyOp53
 70
     1
102
RTVSPropertyOp54
 70
     1
102
RTVSPropertyOp55
 70
     1
102
RTVSPropertyOp56
 70
     1
102
RTVSPropertyOp57
 70
     1
102
RTVSPropertyOp58
 70
     1
102
RTVSPropertyOp59
 70
     1
102
RTVSPropertyOp60
 70
     1
102
RTVSPropertyOp61
 70
     1
102
RTVSPropertyOp62
 70
     1
  0
XRECORD
  5
9A90
102
{ACAD_REACTORS
330
9A8F
102
}
330
9A8F
100
AcDbXrecord
280
     1
102
RTVSPost2010Prop28
280
     0
102
RTVSPost2010PropOp28
 70
     1
102
RTVSPost2010Prop29
280
     1
102
RTVSPost2010PropOp29
 70
     1
102
RTVSPost2010Prop30
280
     1
102
RTVSPost2010PropOp30
 70
     1
102
RTVSPost2010Prop31
280
     0
102
RTVSPost2010PropOp31
 70
     1
102
RTVSPost2010Prop32
280
     0
102
RTVSPost2010PropOp32
 70
     1
102
RTVSPost2010Prop33
280
     0
102
RTVSPost2010PropOp33
 70
     1
102
RTVSPost2010Prop34
280
     0
102
RTVSPost2010PropOp34
 70
     1
102
RTVSPost2010Prop35
280
     0
102
RTVSPost2010PropOp35
 70
     1
102
RTVSPost2010Prop36
280
     0
102
RTVSPost2010PropOp36
 70
     1
102
RTVSPost2010Prop37
 90
       50
102
RTVSPost2010PropOp37
 70
     1
102
RTVSPost2010Prop38
140
0.0
102
RTVSPost2010PropOp38
 70
     1
102
RTVSPost2010Prop39
140
1.0
102
RTVSPost2010PropOp39
 70
     1
102
RTVSPost2010Prop40
 90
        0
102
RTVSPost2010PropOp40
 70
     1
102
RTVSPost2010Prop41ColorIndex
 90
       18
102
RTVSPost2010Prop41ColorRGB
 90
        0
102
RTVSPost2010PropOp41
 70
     1
102
RTVSPost2010Prop42
 90
       50
102
RTVSPost2010PropOp42
 70
     1
102
RTVSPost2010Prop43
 90
        3
102
RTVSPost2010PropOp43
 70
     1
102
RTVSPost2010Prop44ColorIndex
 90
        5
102
RTVSPost2010Prop44ColorRGB
 90
      255
102
RTVSPost2010PropOp44
 70
     1
102
RTVSPost2010Prop45
280
     0
102
RTVSPost2010PropOp45
 70
     1
102
RTVSPost2010Prop46
 90
       50
102
RTVSPost2010PropOp46
 70
     1
102
RTVSPost2010Prop47
 90
       50
102
RTVSPost2010PropOp47
 70
     1
102
RTVSPost2010Prop48
 90
       50
102
RTVSPost2010PropOp48
 70
     1
102
RTVSPost2010Prop49
280
     0
102
RTVSPost2010PropOp49
 70
     1
102
RTVSPost2010Prop50
 90
       50
102
RTVSPost2010PropOp50
 70
     1
102
RTVSPost2010Prop51ColorIndex
 90
      256
102
RTVSPost2010Prop51ColorRGB
 90
-16777216
102
RTVSPost2010PropOp51
 70
     0
102
RTVSPost2010Prop52
140
1.0
102
RTVSPost2010PropOp52
 70
     0
102
RTVSPost2010Prop53
 90
        2
102
RTVSPost2010PropOp53
 70
     1
102
RTVSPost2010Prop54
  1
strokes_ogs.tif
102
RTVSPost2010PropOp54
 70
     1
102
RTVSPost2010Prop55
280
     0
102
RTVSPost2010PropOp55
 70
     1
102
RTVSPost2010Prop56
140
1.0
102
RTVSPost2010PropOp56
 70
     1
102
RTVSPost2010Prop57
140
1.0
102
RTVSPost2010PropOp57
 70
     1
102
RTVSPropertyOp0
 70
     1
102
RTVSPropertyOp1
 70
     1
102
RTVSPropertyOp2
 70
     1
102
RTVSPropertyOp3
 70
     1
102
RTVSPropertyOp4
 70
     1
102
RTVSPropertyOp5
 70
     1
102
RTVSPropertyOp6
 70
     1
102
RTVSPropertyOp7
 70
     1
102
RTVSPropertyOp8
 70
     1
102
RTVSPropertyOp9
 70
     1
102
RTVSPropertyOp10
 70
     1
102
RTVSPropertyOp11
 70
     1
102
RTVSPropertyOp12
 70
     1
102
RTVSPropertyOp13
 70
     1
102
RTVSPropertyOp14
 70
     1
102
RTVSPropertyOp15
 70
     1
102
RTVSPropertyOp16
 70
     1
102
RTVSPropertyOp17
 70
     1
102
RTVSPropertyOp18
 70
     1
102
RTVSPropertyOp19
 70
     1
102
RTVSPropertyOp20
 70
     1
102
RTVSPropertyOp21
 70
     1
102
RTVSPropertyOp22
 70
     1
102
RTVSPropertyOp23
 70
     1
102
RTVSPropertyOp24
 70
     1
102
RTVSPropertyOp25
 70
     1
102
RTVSPropertyOp26
 70
     1
102
RTVSPropertyOp27
 70
     1
102
RTVSPropertyOp28
 70
     1
102
RTVSPropertyOp29
 70
     1
102
RTVSPropertyOp30
 70
     1
102
RTVSPropertyOp31
 70
     1
102
RTVSPropertyOp32
 70
     1
102
RTVSPropertyOp33
 70
     1
102
RTVSPropertyOp34
 70
     1
102
RTVSPropertyOp35
 70
     1
102
RTVSPropertyOp36
 70
     1
102
RTVSPropertyOp37
 70
     1
102
RTVSPropertyOp38
 70
     1
102
RTVSPropertyOp39
 70
     1
102
RTVSPropertyOp40
 70
     1
102
RTVSPropertyOp41
 70
     1
102
RTVSPropertyOp42
 70
     1
102
RTVSPropertyOp43
 70
     1
102
RTVSPropertyOp44
 70
     1
102
RTVSPropertyOp45
 70
     1
102
RTVSPropertyOp46
 70
     1
102
RTVSPropertyOp47
 70
     1
102
RTVSPropertyOp48
 70
     1
102
RTVSPropertyOp49
 70
     1
102
RTVSPropertyOp50
 70
     1
102
RTVSPropertyOp51
 70
     0
102
RTVSPropertyOp52
 70
     0
102
RTVSPropertyOp53
 70
     1
102
RTVSPropertyOp54
 70
     1
102
RTVSPropertyOp55
 70
     1
102
RTVSPropertyOp56
 70
     1
102
RTVSPropertyOp57
 70
     1
102
RTVSPropertyOp58
 70
     1
102
RTVSPropertyOp59
 70
     1
102
RTVSPropertyOp60
 70
     1
102
RTVSPropertyOp61
 70
     1
102
RTVSPropertyOp62
 70
     1
  0
XRECORD
  5
9A8A
102
{ACAD_REACTORS
330
9A89
102
}
330
9A89
100
AcDbXrecord
280
     1
102
RTVSPost2010Prop28
280
     0
102
RTVSPost2010PropOp28
 70
     1
102
RTVSPost2010Prop29
280
     1
102
RTVSPost2010PropOp29
 70
     1
102
RTVSPost2010Prop30
280
     1
102
RTVSPost2010PropOp30
 70
     1
102
RTVSPost2010Prop31
280
     0
102
RTVSPost2010PropOp31
 70
     1
102
RTVSPost2010Prop32
280
     0
102
RTVSPost2010PropOp32
 70
     1
102
RTVSPost2010Prop33
280
     0
102
RTVSPost2010PropOp33
 70
     1
102
RTVSPost2010Prop34
280
     0
102
RTVSPost2010PropOp34
 70
     1
102
RTVSPost2010Prop35
280
     0
102
RTVSPost2010PropOp35
 70
     1
102
RTVSPost2010Prop36
280
     0
102
RTVSPost2010PropOp36
 70
     1
102
RTVSPost2010Prop37
 90
       50
102
RTVSPost2010PropOp37
 70
     1
102
RTVSPost2010Prop38
140
0.0
102
RTVSPost2010PropOp38
 70
     1
102
RTVSPost2010Prop39
140
1.0
102
RTVSPost2010PropOp39
 70
     1
102
RTVSPost2010Prop40
 90
        0
102
RTVSPost2010PropOp40
 70
     1
102
RTVSPost2010Prop41ColorIndex
 90
       18
102
RTVSPost2010Prop41ColorRGB
 90
        0
102
RTVSPost2010PropOp41
 70
     1
102
RTVSPost2010Prop42
 90
       50
102
RTVSPost2010PropOp42
 70
     1
102
RTVSPost2010Prop43
 90
        3
102
RTVSPost2010PropOp43
 70
     1
102
RTVSPost2010Prop44ColorIndex
 90
        5
102
RTVSPost2010Prop44ColorRGB
 90
      255
102
RTVSPost2010PropOp44
 70
     1
102
RTVSPost2010Prop45
280
     0
102
RTVSPost2010PropOp45
 70
     1
102
RTVSPost2010Prop46
 90
       50
102
RTVSPost2010PropOp46
 70
     1
102
RTVSPost2010Prop47
 90
       50
102
RTVSPost2010PropOp47
 70
     1
102
RTVSPost2010Prop48
 90
       50
102
RTVSPost2010PropOp48
 70
     1
102
RTVSPost2010Prop49
280
     0
102
RTVSPost2010PropOp49
 70
     1
102
RTVSPost2010Prop50
 90
       50
102
RTVSPost2010PropOp50
 70
     1
102
RTVSPost2010Prop51ColorIndex
 90
      256
102
RTVSPost2010Prop51ColorRGB
 90
-16777216
102
RTVSPost2010PropOp51
 70
     0
102
RTVSPost2010Prop52
140
1.0
102
RTVSPost2010PropOp52
 70
     0
102
RTVSPost2010Prop53
 90
        2
102
RTVSPost2010PropOp53
 70
     1
102
RTVSPost2010Prop54
  1
strokes_ogs.tif
102
RTVSPost2010PropOp54
 70
     1
102
RTVSPost2010Prop55
280
     0
102
RTVSPost2010PropOp55
 70
     1
102
RTVSPost2010Prop56
140
1.0
102
RTVSPost2010PropOp56
 70
     1
102
RTVSPost2010Prop57
140
1.0
102
RTVSPost2010PropOp57
 70
     1
102
RTVSPropertyOp0
 70
     1
102
RTVSPropertyOp1
 70
     1
102
RTVSPropertyOp2
 70
     1
102
RTVSPropertyOp3
 70
     1
102
RTVSPropertyOp4
 70
     1
102
RTVSPropertyOp5
 70
     1
102
RTVSPropertyOp6
 70
     1
102
RTVSPropertyOp7
 70
     1
102
RTVSPropertyOp8
 70
     1
102
RTVSPropertyOp9
 70
     1
102
RTVSPropertyOp10
 70
     1
102
RTVSPropertyOp11
 70
     1
102
RTVSPropertyOp12
 70
     1
102
RTVSPropertyOp13
 70
     1
102
RTVSPropertyOp14
 70
     1
102
RTVSPropertyOp15
 70
     1
102
RTVSPropertyOp16
 70
     1
102
RTVSPropertyOp17
 70
     1
102
RTVSPropertyOp18
 70
     1
102
RTVSPropertyOp19
 70
     1
102
RTVSPropertyOp20
 70
     1
102
RTVSPropertyOp21
 70
     1
102
RTVSPropertyOp22
 70
     1
102
RTVSPropertyOp23
 70
     1
102
RTVSPropertyOp24
 70
     1
102
RTVSPropertyOp25
 70
     1
102
RTVSPropertyOp26
 70
     1
102
RTVSPropertyOp27
 70
     1
102
RTVSPropertyOp28
 70
     1
102
RTVSPropertyOp29
 70
     1
102
RTVSPropertyOp30
 70
     1
102
RTVSPropertyOp31
 70
     1
102
RTVSPropertyOp32
 70
     1
102
RTVSPropertyOp33
 70
     1
102
RTVSPropertyOp34
 70
     1
102
RTVSPropertyOp35
 70
     1
102
RTVSPropertyOp36
 70
     1
102
RTVSPropertyOp37
 70
     1
102
RTVSPropertyOp38
 70
     1
102
RTVSPropertyOp39
 70
     1
102
RTVSPropertyOp40
 70
     1
102
RTVSPropertyOp41
 70
     1
102
RTVSPropertyOp42
 70
     1
102
RTVSPropertyOp43
 70
     1
102
RTVSPropertyOp44
 70
     1
102
RTVSPropertyOp45
 70
     1
102
RTVSPropertyOp46
 70
     1
102
RTVSPropertyOp47
 70
     1
102
RTVSPropertyOp48
 70
     1
102
RTVSPropertyOp49
 70
     1
102
RTVSPropertyOp50
 70
     1
102
RTVSPropertyOp51
 70
     0
102
RTVSPropertyOp52
 70
     0
102
RTVSPropertyOp53
 70
     1
102
RTVSPropertyOp54
 70
     1
102
RTVSPropertyOp55
 70
     1
102
RTVSPropertyOp56
 70
     1
102
RTVSPropertyOp57
 70
     1
102
RTVSPropertyOp58
 70
     1
102
RTVSPropertyOp59
 70
     1
102
RTVSPropertyOp60
 70
     1
102
RTVSPropertyOp61
 70
     1
102
RTVSPropertyOp62
 70
     1
  0
XRECORD
  5
9A8C
102
{ACAD_REACTORS
330
9A8B
102
}
330
9A8B
100
AcDbXrecord
280
     1
102
RTVSPost2010Prop28
280
     0
102
RTVSPost2010PropOp28
 70
     1
102
RTVSPost2010Prop29
280
     1
102
RTVSPost2010PropOp29
 70
     1
102
RTVSPost2010Prop30
280
     1
102
RTVSPost2010PropOp30
 70
     1
102
RTVSPost2010Prop31
280
     0
102
RTVSPost2010PropOp31
 70
     1
102
RTVSPost2010Prop32
280
     0
102
RTVSPost2010PropOp32
 70
     1
102
RTVSPost2010Prop33
280
     0
102
RTVSPost2010PropOp33
 70
     1
102
RTVSPost2010Prop34
280
     0
102
RTVSPost2010PropOp34
 70
     1
102
RTVSPost2010Prop35
280
     0
102
RTVSPost2010PropOp35
 70
     1
102
RTVSPost2010Prop36
280
     0
102
RTVSPost2010PropOp36
 70
     1
102
RTVSPost2010Prop37
 90
       50
102
RTVSPost2010PropOp37
 70
     1
102
RTVSPost2010Prop38
140
0.0
102
RTVSPost2010PropOp38
 70
     1
102
RTVSPost2010Prop39
140
1.0
102
RTVSPost2010PropOp39
 70
     1
102
RTVSPost2010Prop40
 90
        0
102
RTVSPost2010PropOp40
 70
     1
102
RTVSPost2010Prop41ColorIndex
 90
       18
102
RTVSPost2010Prop41ColorRGB
 90
        0
102
RTVSPost2010PropOp41
 70
     1
102
RTVSPost2010Prop42
 90
       50
102
RTVSPost2010PropOp42
 70
     1
102
RTVSPost2010Prop43
 90
        3
102
RTVSPost2010PropOp43
 70
     1
102
RTVSPost2010Prop44ColorIndex
 90
        5
102
RTVSPost2010Prop44ColorRGB
 90
      255
102
RTVSPost2010PropOp44
 70
     1
102
RTVSPost2010Prop45
280
     0
102
RTVSPost2010PropOp45
 70
     1
102
RTVSPost2010Prop46
 90
       50
102
RTVSPost2010PropOp46
 70
     1
102
RTVSPost2010Prop47
 90
       50
102
RTVSPost2010PropOp47
 70
     1
102
RTVSPost2010Prop48
 90
       50
102
RTVSPost2010PropOp48
 70
     1
102
RTVSPost2010Prop49
280
     0
102
RTVSPost2010PropOp49
 70
     1
102
RTVSPost2010Prop50
 90
       50
102
RTVSPost2010PropOp50
 70
     1
102
RTVSPost2010Prop51ColorIndex
 90
      256
102
RTVSPost2010Prop51ColorRGB
 90
-16777216
102
RTVSPost2010PropOp51
 70
     0
102
RTVSPost2010Prop52
140
1.0
102
RTVSPost2010PropOp52
 70
     0
102
RTVSPost2010Prop53
 90
        2
102
RTVSPost2010PropOp53
 70
     1
102
RTVSPost2010Prop54
  1
strokes_ogs.tif
102
RTVSPost2010PropOp54
 70
     1
102
RTVSPost2010Prop55
280
     0
102
RTVSPost2010PropOp55
 70
     1
102
RTVSPost2010Prop56
140
1.0
102
RTVSPost2010PropOp56
 70
     1
102
RTVSPost2010Prop57
140
1.0
102
RTVSPost2010PropOp57
 70
     1
102
RTVSPropertyOp0
 70
     1
102
RTVSPropertyOp1
 70
     1
102
RTVSPropertyOp2
 70
     1
102
RTVSPropertyOp3
 70
     1
102
RTVSPropertyOp4
 70
     1
102
RTVSPropertyOp5
 70
     1
102
RTVSPropertyOp6
 70
     1
102
RTVSPropertyOp7
 70
     1
102
RTVSPropertyOp8
 70
     1
102
RTVSPropertyOp9
 70
     1
102
RTVSPropertyOp10
 70
     1
102
RTVSPropertyOp11
 70
     1
102
RTVSPropertyOp12
 70
     1
102
RTVSPropertyOp13
 70
     1
102
RTVSPropertyOp14
 70
     1
102
RTVSPropertyOp15
 70
     1
102
RTVSPropertyOp16
 70
     1
102
RTVSPropertyOp17
 70
     1
102
RTVSPropertyOp18
 70
     1
102
RTVSPropertyOp19
 70
     1
102
RTVSPropertyOp20
 70
     1
102
RTVSPropertyOp21
 70
     1
102
RTVSPropertyOp22
 70
     1
102
RTVSPropertyOp23
 70
     1
102
RTVSPropertyOp24
 70
     1
102
RTVSPropertyOp25
 70
     1
102
RTVSPropertyOp26
 70
     1
102
RTVSPropertyOp27
 70
     1
102
RTVSPropertyOp28
 70
     1
102
RTVSPropertyOp29
 70
     1
102
RTVSPropertyOp30
 70
     1
102
RTVSPropertyOp31
 70
     1
102
RTVSPropertyOp32
 70
     1
102
RTVSPropertyOp33
 70
     1
102
RTVSPropertyOp34
 70
     1
102
RTVSPropertyOp35
 70
     1
102
RTVSPropertyOp36
 70
     1
102
RTVSPropertyOp37
 70
     1
102
RTVSPropertyOp38
 70
     1
102
RTVSPropertyOp39
 70
     1
102
RTVSPropertyOp40
 70
     1
102
RTVSPropertyOp41
 70
     1
102
RTVSPropertyOp42
 70
     1
102
RTVSPropertyOp43
 70
     1
102
RTVSPropertyOp44
 70
     1
102
RTVSPropertyOp45
 70
     1
102
RTVSPropertyOp46
 70
     1
102
RTVSPropertyOp47
 70
     1
102
RTVSPropertyOp48
 70
     1
102
RTVSPropertyOp49
 70
     1
102
RTVSPropertyOp50
 70
     1
102
RTVSPropertyOp51
 70
     0
102
RTVSPropertyOp52
 70
     0
102
RTVSPropertyOp53
 70
     1
102
RTVSPropertyOp54
 70
     1
102
RTVSPropertyOp55
 70
     1
102
RTVSPropertyOp56
 70
     1
102
RTVSPropertyOp57
 70
     1
102
RTVSPropertyOp58
 70
     1
102
RTVSPropertyOp59
 70
     1
102
RTVSPropertyOp60
 70
     1
102
RTVSPropertyOp61
 70
     1
102
RTVSPropertyOp62
 70
     1
  0
XRECORD
  5
9A82
102
{ACAD_REACTORS
330
9A81
102
}
330
9A81
100
AcDbXrecord
280
     1
102
RTVSPost2010Prop28
280
     0
102
RTVSPost2010PropOp28
 70
     1
102
RTVSPost2010Prop29
280
     1
102
RTVSPost2010PropOp29
 70
     1
102
RTVSPost2010Prop30
280
     1
102
RTVSPost2010PropOp30
 70
     1
102
RTVSPost2010Prop31
280
     0
102
RTVSPost2010PropOp31
 70
     1
102
RTVSPost2010Prop32
280
     0
102
RTVSPost2010PropOp32
 70
     1
102
RTVSPost2010Prop33
280
     0
102
RTVSPost2010PropOp33
 70
     1
102
RTVSPost2010Prop34
280
     0
102
RTVSPost2010PropOp34
 70
     1
102
RTVSPost2010Prop35
280
     0
102
RTVSPost2010PropOp35
 70
     1
102
RTVSPost2010Prop36
280
     0
102
RTVSPost2010PropOp36
 70
     1
102
RTVSPost2010Prop37
 90
       50
102
RTVSPost2010PropOp37
 70
     1
102
RTVSPost2010Prop38
140
0.0
102
RTVSPost2010PropOp38
 70
     1
102
RTVSPost2010Prop39
140
1.0
102
RTVSPost2010PropOp39
 70
     1
102
RTVSPost2010Prop40
 90
        0
102
RTVSPost2010PropOp40
 70
     1
102
RTVSPost2010Prop41ColorIndex
 90
       18
102
RTVSPost2010Prop41ColorRGB
 90
        0
102
RTVSPost2010PropOp41
 70
     1
102
RTVSPost2010Prop42
 90
       50
102
RTVSPost2010PropOp42
 70
     1
102
RTVSPost2010Prop43
 90
        3
102
RTVSPost2010PropOp43
 70
     1
102
RTVSPost2010Prop44ColorIndex
 90
        5
102
RTVSPost2010Prop44ColorRGB
 90
      255
102
RTVSPost2010PropOp44
 70
     1
102
RTVSPost2010Prop45
280
     0
102
RTVSPost2010PropOp45
 70
     1
102
RTVSPost2010Prop46
 90
       50
102
RTVSPost2010PropOp46
 70
     1
102
RTVSPost2010Prop47
 90
       50
102
RTVSPost2010PropOp47
 70
     1
102
RTVSPost2010Prop48
 90
       50
102
RTVSPost2010PropOp48
 70
     1
102
RTVSPost2010Prop49
280
     0
102
RTVSPost2010PropOp49
 70
     1
102
RTVSPost2010Prop50
 90
       50
102
RTVSPost2010PropOp50
 70
     1
102
RTVSPost2010Prop51ColorIndex
 90
      256
102
RTVSPost2010Prop51ColorRGB
 90
-16777216
102
RTVSPost2010PropOp51
 70
     0
102
RTVSPost2010Prop52
140
1.0
102
RTVSPost2010PropOp52
 70
     0
102
RTVSPost2010Prop53
 90
        2
102
RTVSPost2010PropOp53
 70
     1
102
RTVSPost2010Prop54
  1
strokes_ogs.tif
102
RTVSPost2010PropOp54
 70
     1
102
RTVSPost2010Prop55
280
     0
102
RTVSPost2010PropOp55
 70
     1
102
RTVSPost2010Prop56
140
1.0
102
RTVSPost2010PropOp56
 70
     1
102
RTVSPost2010Prop57
140
1.0
102
RTVSPost2010PropOp57
 70
     1
102
RTVSPropertyOp0
 70
     1
102
RTVSPropertyOp1
 70
     1
102
RTVSPropertyOp2
 70
     1
102
RTVSPropertyOp3
 70
     1
102
RTVSPropertyOp4
 70
     1
102
RTVSPropertyOp5
 70
     1
102
RTVSPropertyOp6
 70
     1
102
RTVSPropertyOp7
 70
     1
102
RTVSPropertyOp8
 70
     1
102
RTVSPropertyOp9
 70
     1
102
RTVSPropertyOp10
 70
     1
102
RTVSPropertyOp11
 70
     1
102
RTVSPropertyOp12
 70
     1
102
RTVSPropertyOp13
 70
     1
102
RTVSPropertyOp14
 70
     1
102
RTVSPropertyOp15
 70
     1
102
RTVSPropertyOp16
 70
     1
102
RTVSPropertyOp17
 70
     1
102
RTVSPropertyOp18
 70
     1
102
RTVSPropertyOp19
 70
     1
102
RTVSPropertyOp20
 70
     1
102
RTVSPropertyOp21
 70
     1
102
RTVSPropertyOp22
 70
     1
102
RTVSPropertyOp23
 70
     1
102
RTVSPropertyOp24
 70
     1
102
RTVSPropertyOp25
 70
     1
102
RTVSPropertyOp26
 70
     1
102
RTVSPropertyOp27
 70
     1
102
RTVSPropertyOp28
 70
     1
102
RTVSPropertyOp29
 70
     1
102
RTVSPropertyOp30
 70
     1
102
RTVSPropertyOp31
 70
     1
102
RTVSPropertyOp32
 70
     1
102
RTVSPropertyOp33
 70
     1
102
RTVSPropertyOp34
 70
     1
102
RTVSPropertyOp35
 70
     1
102
RTVSPropertyOp36
 70
     1
102
RTVSPropertyOp37
 70
     1
102
RTVSPropertyOp38
 70
     1
102
RTVSPropertyOp39
 70
     1
102
RTVSPropertyOp40
 70
     1
102
RTVSPropertyOp41
 70
     1
102
RTVSPropertyOp42
 70
     1
102
RTVSPropertyOp43
 70
     1
102
RTVSPropertyOp44
 70
     1
102
RTVSPropertyOp45
 70
     1
102
RTVSPropertyOp46
 70
     1
102
RTVSPropertyOp47
 70
     1
102
RTVSPropertyOp48
 70
     1
102
RTVSPropertyOp49
 70
     1
102
RTVSPropertyOp50
 70
     1
102
RTVSPropertyOp51
 70
     0
102
RTVSPropertyOp52
 70
     0
102
RTVSPropertyOp53
 70
     1
102
RTVSPropertyOp54
 70
     1
102
RTVSPropertyOp55
 70
     1
102
RTVSPropertyOp56
 70
     1
102
RTVSPropertyOp57
 70
     1
102
RTVSPropertyOp58
 70
     1
102
RTVSPropertyOp59
 70
     1
102
RTVSPropertyOp60
 70
     1
102
RTVSPropertyOp61
 70
     1
102
RTVSPropertyOp62
 70
     1
  0
XRECORD
  5
9A76
102
{ACAD_REACTORS
330
9A75
102
}
330
9A75
100
AcDbXrecord
280
     1
102
RTVSPost2010Prop28
280
     0
102
RTVSPost2010PropOp28
 70
     1
102
RTVSPost2010Prop29
280
     1
102
RTVSPost2010PropOp29
 70
     1
102
RTVSPost2010Prop30
280
     1
102
RTVSPost2010PropOp30
 70
     1
102
RTVSPost2010Prop31
280
     0
102
RTVSPost2010PropOp31
 70
     1
102
RTVSPost2010Prop32
280
     0
102
RTVSPost2010PropOp32
 70
     1
102
RTVSPost2010Prop33
280
     0
102
RTVSPost2010PropOp33
 70
     1
102
RTVSPost2010Prop34
280
     0
102
RTVSPost2010PropOp34
 70
     1
102
RTVSPost2010Prop35
280
     0
102
RTVSPost2010PropOp35
 70
     1
102
RTVSPost2010Prop36
280
     0
102
RTVSPost2010PropOp36
 70
     1
102
RTVSPost2010Prop37
 90
       50
102
RTVSPost2010PropOp37
 70
     1
102
RTVSPost2010Prop38
140
0.0
102
RTVSPost2010PropOp38
 70
     1
102
RTVSPost2010Prop39
140
1.0
102
RTVSPost2010PropOp39
 70
     1
102
RTVSPost2010Prop40
 90
        0
102
RTVSPost2010PropOp40
 70
     1
102
RTVSPost2010Prop41ColorIndex
 90
       18
102
RTVSPost2010Prop41ColorRGB
 90
        0
102
RTVSPost2010PropOp41
 70
     1
102
RTVSPost2010Prop42
 90
       50
102
RTVSPost2010PropOp42
 70
     1
102
RTVSPost2010Prop43
 90
        3
102
RTVSPost2010PropOp43
 70
     1
102
RTVSPost2010Prop44ColorIndex
 90
        5
102
RTVSPost2010Prop44ColorRGB
 90
      255
102
RTVSPost2010PropOp44
 70
     1
102
RTVSPost2010Prop45
280
     0
102
RTVSPost2010PropOp45
 70
     1
102
RTVSPost2010Prop46
 90
       50
102
RTVSPost2010PropOp46
 70
     1
102
RTVSPost2010Prop47
 90
       50
102
RTVSPost2010PropOp47
 70
     1
102
RTVSPost2010Prop48
 90
       50
102
RTVSPost2010PropOp48
 70
     1
102
RTVSPost2010Prop49
280
     0
102
RTVSPost2010PropOp49
 70
     1
102
RTVSPost2010Prop50
 90
       50
102
RTVSPost2010PropOp50
 70
     1
102
RTVSPost2010Prop51ColorIndex
 90
      256
102
RTVSPost2010Prop51ColorRGB
 90
-16777216
102
RTVSPost2010PropOp51
 70
     0
102
RTVSPost2010Prop52
140
1.0
102
RTVSPost2010PropOp52
 70
     0
102
RTVSPost2010Prop53
 90
        2
102
RTVSPost2010PropOp53
 70
     1
102
RTVSPost2010Prop54
  1
strokes_ogs.tif
102
RTVSPost2010PropOp54
 70
     1
102
RTVSPost2010Prop55
280
     0
102
RTVSPost2010PropOp55
 70
     1
102
RTVSPost2010Prop56
140
1.0
102
RTVSPost2010PropOp56
 70
     1
102
RTVSPost2010Prop57
140
1.0
102
RTVSPost2010PropOp57
 70
     1
102
RTVSPropertyOp0
 70
     1
102
RTVSPropertyOp1
 70
     1
102
RTVSPropertyOp2
 70
     1
102
RTVSPropertyOp3
 70
     1
102
RTVSPropertyOp4
 70
     1
102
RTVSPropertyOp5
 70
     1
102
RTVSPropertyOp6
 70
     1
102
RTVSPropertyOp7
 70
     1
102
RTVSPropertyOp8
 70
     1
102
RTVSPropertyOp9
 70
     1
102
RTVSPropertyOp10
 70
     1
102
RTVSPropertyOp11
 70
     1
102
RTVSPropertyOp12
 70
     1
102
RTVSPropertyOp13
 70
     1
102
RTVSPropertyOp14
 70
     1
102
RTVSPropertyOp15
 70
     1
102
RTVSPropertyOp16
 70
     1
102
RTVSPropertyOp17
 70
     1
102
RTVSPropertyOp18
 70
     1
102
RTVSPropertyOp19
 70
     1
102
RTVSPropertyOp20
 70
     1
102
RTVSPropertyOp21
 70
     1
102
RTVSPropertyOp22
 70
     1
102
RTVSPropertyOp23
 70
     1
102
RTVSPropertyOp24
 70
     1
102
RTVSPropertyOp25
 70
     1
102
RTVSPropertyOp26
 70
     1
102
RTVSPropertyOp27
 70
     1
102
RTVSPropertyOp28
 70
     1
102
RTVSPropertyOp29
 70
     1
102
RTVSPropertyOp30
 70
     1
102
RTVSPropertyOp31
 70
     1
102
RTVSPropertyOp32
 70
     1
102
RTVSPropertyOp33
 70
     1
102
RTVSPropertyOp34
 70
     1
102
RTVSPropertyOp35
 70
     1
102
RTVSPropertyOp36
 70
     1
102
RTVSPropertyOp37
 70
     1
102
RTVSPropertyOp38
 70
     1
102
RTVSPropertyOp39
 70
     1
102
RTVSPropertyOp40
 70
     1
102
RTVSPropertyOp41
 70
     1
102
RTVSPropertyOp42
 70
     1
102
RTVSPropertyOp43
 70
     1
102
RTVSPropertyOp44
 70
     1
102
RTVSPropertyOp45
 70
     1
102
RTVSPropertyOp46
 70
     1
102
RTVSPropertyOp47
 70
     1
102
RTVSPropertyOp48
 70
     1
102
RTVSPropertyOp49
 70
     1
102
RTVSPropertyOp50
 70
     1
102
RTVSPropertyOp51
 70
     0
102
RTVSPropertyOp52
 70
     0
102
RTVSPropertyOp53
 70
     1
102
RTVSPropertyOp54
 70
     1
102
RTVSPropertyOp55
 70
     1
102
RTVSPropertyOp56
 70
     1
102
RTVSPropertyOp57
 70
     1
102
RTVSPropertyOp58
 70
     1
102
RTVSPropertyOp59
 70
     1
102
RTVSPropertyOp60
 70
     1
102
RTVSPropertyOp61
 70
     1
102
RTVSPropertyOp62
 70
     1
  0
XRECORD
  5
9A8E
102
{ACAD_REACTORS
330
9A8D
102
}
330
9A8D
100
AcDbXrecord
280
     1
102
RTVSPost2010Prop28
280
     0
102
RTVSPost2010PropOp28
 70
     1
102
RTVSPost2010Prop29
280
     1
102
RTVSPost2010PropOp29
 70
     1
102
RTVSPost2010Prop30
280
     1
102
RTVSPost2010PropOp30
 70
     1
102
RTVSPost2010Prop31
280
     0
102
RTVSPost2010PropOp31
 70
     1
102
RTVSPost2010Prop32
280
     0
102
RTVSPost2010PropOp32
 70
     1
102
RTVSPost2010Prop33
280
     0
102
RTVSPost2010PropOp33
 70
     1
102
RTVSPost2010Prop34
280
     0
102
RTVSPost2010PropOp34
 70
     1
102
RTVSPost2010Prop35
280
     0
102
RTVSPost2010PropOp35
 70
     1
102
RTVSPost2010Prop36
280
     0
102
RTVSPost2010PropOp36
 70
     1
102
RTVSPost2010Prop37
 90
       50
102
RTVSPost2010PropOp37
 70
     1
102
RTVSPost2010Prop38
140
0.0
102
RTVSPost2010PropOp38
 70
     1
102
RTVSPost2010Prop39
140
1.0
102
RTVSPost2010PropOp39
 70
     1
102
RTVSPost2010Prop40
 90
        0
102
RTVSPost2010PropOp40
 70
     1
102
RTVSPost2010Prop41ColorIndex
 90
       18
102
RTVSPost2010Prop41ColorRGB
 90
        0
102
RTVSPost2010PropOp41
 70
     1
102
RTVSPost2010Prop42
 90
       50
102
RTVSPost2010PropOp42
 70
     1
102
RTVSPost2010Prop43
 90
        3
102
RTVSPost2010PropOp43
 70
     1
102
RTVSPost2010Prop44ColorIndex
 90
        5
102
RTVSPost2010Prop44ColorRGB
 90
      255
102
RTVSPost2010PropOp44
 70
     1
102
RTVSPost2010Prop45
280
     0
102
RTVSPost2010PropOp45
 70
     1
102
RTVSPost2010Prop46
 90
       50
102
RTVSPost2010PropOp46
 70
     1
102
RTVSPost2010Prop47
 90
       50
102
RTVSPost2010PropOp47
 70
     1
102
RTVSPost2010Prop48
 90
       50
102
RTVSPost2010PropOp48
 70
     1
102
RTVSPost2010Prop49
280
     0
102
RTVSPost2010PropOp49
 70
     1
102
RTVSPost2010Prop50
 90
       50
102
RTVSPost2010PropOp50
 70
     1
102
RTVSPost2010Prop51ColorIndex
 90
      256
102
RTVSPost2010Prop51ColorRGB
 90
-16777216
102
RTVSPost2010PropOp51
 70
     0
102
RTVSPost2010Prop52
140
1.0
102
RTVSPost2010PropOp52
 70
     0
102
RTVSPost2010Prop53
 90
        2
102
RTVSPost2010PropOp53
 70
     1
102
RTVSPost2010Prop54
  1
strokes_ogs.tif
102
RTVSPost2010PropOp54
 70
     1
102
RTVSPost2010Prop55
280
     0
102
RTVSPost2010PropOp55
 70
     1
102
RTVSPost2010Prop56
140
1.0
102
RTVSPost2010PropOp56
 70
     1
102
RTVSPost2010Prop57
140
1.0
102
RTVSPost2010PropOp57
 70
     1
102
RTVSPropertyOp0
 70
     1
102
RTVSPropertyOp1
 70
     1
102
RTVSPropertyOp2
 70
     1
102
RTVSPropertyOp3
 70
     1
102
RTVSPropertyOp4
 70
     1
102
RTVSPropertyOp5
 70
     1
102
RTVSPropertyOp6
 70
     1
102
RTVSPropertyOp7
 70
     1
102
RTVSPropertyOp8
 70
     1
102
RTVSPropertyOp9
 70
     1
102
RTVSPropertyOp10
 70
     1
102
RTVSPropertyOp11
 70
     1
102
RTVSPropertyOp12
 70
     1
102
RTVSPropertyOp13
 70
     1
102
RTVSPropertyOp14
 70
     1
102
RTVSPropertyOp15
 70
     1
102
RTVSPropertyOp16
 70
     1
102
RTVSPropertyOp17
 70
     1
102
RTVSPropertyOp18
 70
     1
102
RTVSPropertyOp19
 70
     1
102
RTVSPropertyOp20
 70
     1
102
RTVSPropertyOp21
 70
     1
102
RTVSPropertyOp22
 70
     1
102
RTVSPropertyOp23
 70
     1
102
RTVSPropertyOp24
 70
     1
102
RTVSPropertyOp25
 70
     1
102
RTVSPropertyOp26
 70
     1
102
RTVSPropertyOp27
 70
     1
102
RTVSPropertyOp28
 70
     1
102
RTVSPropertyOp29
 70
     1
102
RTVSPropertyOp30
 70
     1
102
RTVSPropertyOp31
 70
     1
102
RTVSPropertyOp32
 70
     1
102
RTVSPropertyOp33
 70
     1
102
RTVSPropertyOp34
 70
     1
102
RTVSPropertyOp35
 70
     1
102
RTVSPropertyOp36
 70
     1
102
RTVSPropertyOp37
 70
     1
102
RTVSPropertyOp38
 70
     1
102
RTVSPropertyOp39
 70
     1
102
RTVSPropertyOp40
 70
     1
102
RTVSPropertyOp41
 70
     1
102
RTVSPropertyOp42
 70
     1
102
RTVSPropertyOp43
 70
     1
102
RTVSPropertyOp44
 70
     1
102
RTVSPropertyOp45
 70
     1
102
RTVSPropertyOp46
 70
     1
102
RTVSPropertyOp47
 70
     1
102
RTVSPropertyOp48
 70
     1
102
RTVSPropertyOp49
 70
     1
102
RTVSPropertyOp50
 70
     1
102
RTVSPropertyOp51
 70
     0
102
RTVSPropertyOp52
 70
     0
102
RTVSPropertyOp53
 70
     1
102
RTVSPropertyOp54
 70
     1
102
RTVSPropertyOp55
 70
     1
102
RTVSPropertyOp56
 70
     1
102
RTVSPropertyOp57
 70
     1
102
RTVSPropertyOp58
 70
     1
102
RTVSPropertyOp59
 70
     1
102
RTVSPropertyOp60
 70
     1
102
RTVSPropertyOp61
 70
     1
102
RTVSPropertyOp62
 70
     1
  0
ENDSEC
  0
EOF
