  0
SECTION
  2
HEADER
  9
$ACADVER
  1
AC1015
  9
$ACADMAINTVER
 70
    20
  9
$DWGCODEPAGE
  3
ANSI_932
  9
$INSBASE
 10
0.0
 20
0.0
 30
0.0
  9
$EXTMIN
 10
9.0484
 20
9.999999999999998
 30
0.0
  9
$EXTMAX
 10
495.392
 20
311.855
 30
0.0
  9
$LIMMIN
 10
0.0
 20
0.0
  9
$LIMMAX
 10
495.0
 20
341.25
  9
$ORTHOMODE
 70
     1
  9
$REGENMODE
 70
     1
  9
$FILLMODE
 70
     1
  9
$QTEXTMODE
 70
     0
  9
$MIRRTEXT
 70
     1
  9
$LTSCALE
 40
20.0
  9
$ATTMODE
 70
     1
  9
$TEXTSIZE
 40
5.0
  9
$TRACEWID
 40
1.0
  9
$TEXTSTYLE
  7
STANDARD
  9
$CLAYER
  8
0
  9
$CELTYPE
  6
BYLAYER
  9
$CECOLOR
 62
   256
  9
$CELTSCALE
 40
1.0
  9
$DISPSILH
 70
     0
  9
$DIMSCALE
 40
1.0
  9
$DIMASZ
 40
3.0
  9
$DIMEXO
 40
1.0
  9
$DIMDLI
 40
10.0
  9
$DIMRND
 40
0.0
  9
$DIMDLE
 40
0.0
  9
$DIMEXE
 40
1.0
  9
$DIMTP
 40
0.0
  9
$DIMTM
 40
0.0
  9
$DIMTXT
 40
3.2
  9
$DIMCEN
 40
0.0
  9
$DIMTSZ
 40
0.0
  9
$DIMTOL
 70
     0
  9
$DIMLIM
 70
     0
  9
$DIMTIH
 70
     0
  9
$DIMTOH
 70
     0
  9
$DIMSE1
 70
     0
  9
$DIMSE2
 70
     0
  9
$DIMTAD
 70
     3
  9
$DIMZIN
 70
     8
  9
$DIMBLK
  1

  9
$DIMASO
 70
     1
  9
$DIMSHO
 70
     1
  9
$DIMPOST
  1

  9
$DIMAPOST
  1

  9
$DIMALT
 70
     0
  9
$DIMALTD
 70
     2
  9
$DIMALTF
 40
25.4
  9
$DIMLFAC
 40
1.0
  9
$DIMTOFL
 70
     1
  9
$DIMTVP
 40
0.0
  9
$DIMTIX
 70
     0
  9
$DIMSOXD
 70
     0
  9
$DIMSAH
 70
     1
  9
$DIMBLK1
  1

  9
$DIMBLK2
  1

  9
$DIMSTYLE
  2
STANDARD
  9
$DIMCLRD
 70
     0
  9
$DIMCLRE
 70
     0
  9
$DIMCLRT
 70
     0
  9
$DIMTFAC
 40
1.0
  9
$DIMGAP
 40
1.0
  9
$DIMJUST
 70
     0
  9
$DIMSD1
 70
     0
  9
$DIMSD2
 70
     0
  9
$DIMTOLJ
 70
     1
  9
$DIMTZIN
 70
     0
  9
$DIMALTZ
 70
     0
  9
$DIMALTTZ
 70
     0
  9
$DIMUPT
 70
     0
  9
$DIMDEC
 70
     4
  9
$DIMTDEC
 70
     4
  9
$DIMALTU
 70
     2
  9
$DIMALTTD
 70
     2
  9
$DIMTXSTY
  7
STANDARD
  9
$DIMAUNIT
 70
     0
  9
$DIMADEC
 70
     0
  9
$DIMALTRND
 40
0.0
  9
$DIMAZIN
 70
     0
  9
$DIMDSEP
 70
    46
  9
$DIMATFIT
 70
     3
  9
$DIMFRAC
 70
     0
  9
$DIMLDRBLK
  1

  9
$DIMLUNIT
 70
     2
  9
$DIMLWD
 70
    -2
  9
$DIMLWE
 70
    -2
  9
$DIMTMOVE
 70
     0
  9
$LUNITS
 70
     2
  9
$LUPREC
 70
     4
  9
$SKETCHINC
 40
1.0
  9
$FILLETRAD
 40
0.0
  9
$AUNITS
 70
     0
  9
$AUPREC
 70
     2
  9
$MENU
  1
.
  9
$ELEVATION
 40
0.0
  9
$PELEVATION
 40
0.0
  9
$THICKNESS
 40
0.0
  9
$LIMCHECK
 70
     0
  9
$CHAMFERA
 40
10.0
  9
$CHAMFERB
 40
10.0
  9
$CHAMFERC
 40
0.0
  9
$CHAMFERD
 40
0.0
  9
$SKPOLY
 70
     0
  9
$TDCREATE
 40
2450737.666305903
  9
$TDUCREATE
 40
2450737.291305903
  9
$TDUPDATE
 40
2457192.640208681
  9
$TDUUPDATE
 40
2457192.265208681
  9
$TDINDWG
 40
0.0000168634
  9
$TDUSRTIMER
 40
0.0000163542
  9
$USRTIMER
 70
     1
  9
$ANGBASE
 50
0.0
  9
$ANGDIR
 70
     0
  9
$PDMODE
 70
     0
  9
$PDSIZE
 40
0.0
  9
$PLINEWID
 40
0.0
  9
$SPLFRAME
 70
     0
  9
$SPLINETYPE
 70
     6
  9
$SPLINESEGS
 70
     8
  9
$HANDSEED
  5
A07C
  9
$SURFTAB1
 70
     6
  9
$SURFTAB2
 70
     6
  9
$SURFTYPE
 70
     6
  9
$SURFU
 70
     6
  9
$SURFV
 70
     6
  9
$UCSBASE
  2

  9
$UCSNAME
  2

  9
$UCSORG
 10
0.0
 20
0.0
 30
0.0
  9
$UCSXDIR
 10
1.0
 20
0.0
 30
0.0
  9
$UCSYDIR
 10
0.0
 20
1.0
 30
0.0
  9
$UCSORTHOREF
  2

  9
$UCSORTHOVIEW
 70
     0
  9
$UCSORGTOP
 10
0.0
 20
0.0
 30
0.0
  9
$UCSORGBOTTOM
 10
0.0
 20
0.0
 30
0.0
  9
$UCSORGLEFT
 10
0.0
 20
0.0
 30
0.0
  9
$UCSORGRIGHT
 10
0.0
 20
0.0
 30
0.0
  9
$UCSORGFRONT
 10
0.0
 20
0.0
 30
0.0
  9
$UCSORGBACK
 10
0.0
 20
0.0
 30
0.0
  9
$PUCSBASE
  2

  9
$PUCSNAME
  2

  9
$PUCSORG
 10
0.0
 20
0.0
 30
0.0
  9
$PUCSXDIR
 10
1.0
 20
0.0
 30
0.0
  9
$PUCSYDIR
 10
0.0
 20
1.0
 30
0.0
  9
$PUCSORTHOREF
  2

  9
$PUCSORTHOVIEW
 70
     0
  9
$PUCSORGTOP
 10
0.0
 20
0.0
 30
0.0
  9
$PUCSORGBOTTOM
 10
0.0
 20
0.0
 30
0.0
  9
$PUCSORGLEFT
 10
0.0
 20
0.0
 30
0.0
  9
$PUCSORGRIGHT
 10
0.0
 20
0.0
 30
0.0
  9
$PUCSORGFRONT
 10
0.0
 20
0.0
 30
0.0
  9
$PUCSORGBACK
 10
0.0
 20
0.0
 30
0.0
  9
$USERI1
 70
     0
  9
$USERI2
 70
     0
  9
$USERI3
 70
     0
  9
$USERI4
 70
     0
  9
$USERI5
 70
     0
  9
$USERR1
 40
0.0
  9
$USERR2
 40
0.0
  9
$USERR3
 40
0.0
  9
$USERR4
 40
0.0
  9
$USERR5
 40
0.0
  9
$WORLDVIEW
 70
     1
  9
$SHADEDGE
 70
     3
  9
$SHADEDIF
 70
    70
  9
$TILEMODE
 70
     1
  9
$MAXACTVP
 70
    16
  9
$PINSBASE
 10
0.0
 20
0.0
 30
0.0
  9
$PLIMCHECK
 70
     0
  9
$PEXTMIN
 10
1.000000000000000E+20
 20
1.000000000000000E+20
 30
1.000000000000000E+20
  9
$PEXTMAX
 10
-1.000000000000000E+20
 20
-1.000000000000000E+20
 30
-1.000000000000000E+20
  9
$PLIMMIN
 10
0.0
 20
0.0
  9
$PLIMMAX
 10
420.0
 20
297.0
  9
$UNITMODE
 70
     0
  9
$VISRETAIN
 70
     0
  9
$PLINEGEN
 70
     0
  9
$PSLTSCALE
 70
     0
  9
$TREEDEPTH
 70
  3020
  9
$CMLSTYLE
  2
STANDARD
  9
$CMLJUST
 70
     0
  9
$CMLSCALE
 40
1.0
  9
$PROXYGRAPHICS
 70
     1
  9
$MEASUREMENT
 70
     0
  9
$CELWEIGHT
370
    -1
  9
$ENDCAPS
280
     0
  9
$JOINSTYLE
280
     0
  9
$LWDISPLAY
290
     0
  9
$INSUNITS
 70
     0
  9
$HYPERLINKBASE
  1

  9
$STYLESHEET
  1

  9
$XEDIT
290
     1
  9
$CEPSNTYPE
380
     0
  9
$PSTYLEMODE
290
     1
  9
$FINGERPRINTGUID
  2
{68EF176B-6251-48AC-BF41-63968DE8A267}
  9
$VERSIONGUID
  2
{B0AAA453-2935-42BC-AB97-7DE6AEAECC4B}
  9
$EXTNAMES
290
     1
  9
$PSVPSCALE
 40
0.0
  9
$OLESTARTUP
290
     0
  0
ENDSEC
  0
SECTION
  2
CLASSES
  0
CLASS
  1
ACDBDICTIONARYWDFLT
  2
AcDbDictionaryWithDefault
  3
ObjectDBX Classes
 90
        0
280
     0
281
     0
  0
CLASS
  1
ACDBPLACEHOLDER
  2
AcDbPlaceHolder
  3
ObjectDBX Classes
 90
        0
280
     0
281
     0
  0
CLASS
  1
LAYOUT
  2
AcDbLayout
  3
ObjectDBX Classes
 90
        0
280
     0
281
     0
  0
CLASS
  1
DICTIONARYVAR
  2
AcDbDictionaryVar
  3
ObjectDBX Classes
 90
        0
280
     0
281
     0
  0
CLASS
  1
MATERIAL
  2
AcDbMaterial
  3
ObjectDBX Classes
 90
     1153
280
     0
281
     0
  0
CLASS
  1
VISUALSTYLE
  2
AcDbVisualStyle
  3
ObjectDBX Classes
 90
     4095
280
     0
281
     0
  0
CLASS
  1
TABLESTYLE
  2
AcDbTableStyle
  3
ObjectDBX Classes
 90
     4095
280
     0
281
     0
  0
CLASS
  1
SCALE
  2
AcDbScale
  3
ObjectDBX Classes
 90
     1153
280
     0
281
     0
  0
CLASS
  1
MLEADERSTYLE
  2
AcDbMLeaderStyle
  3
ACDB_MLEADERSTYLE_CLASS
 90
     4095
280
     0
281
     0
  0
CLASS
  1
ACDBSECTIONVIEWSTYLE
  2
AcDbSectionViewStyle
  3
ObjectDBX Classes
 90
     1025
280
     0
281
     0
  0
CLASS
  1
ACDBDETAILVIEWSTYLE
  2
AcDbDetailViewStyle
  3
ObjectDBX Classes
 90
     1025
280
     0
281
     0
  0
CLASS
  1
CELLSTYLEMAP
  2
AcDbCellStyleMap
  3
ObjectDBX Classes
 90
     1152
280
     0
281
     0
  0
ENDSEC
  0
SECTION
  2
TABLES
  0
TABLE
  2
VPORT
  5
9C1D
330
0
100
AcDbSymbolTable
 70
     1
  0
VPORT
  5
9FC5
330
9C1D
100
AcDbSymbolTableRecord
100
AcDbViewportTableRecord
  2
*ACTIVE
 70
     0
 10
0.0
 20
0.0
 11
1.0
 21
1.0
 12
343.6356311551269
 22
160.9268482411301
 13
0.0
 23
0.0
 14
10.0
 24
10.0
 15
10.0
 25
10.0
 16
0.0
 26
0.0
 36
1.0
 17
0.0
 27
0.0
 37
0.0
 40
305.2557512947082
 41
1.899603698811096
 42
50.0
 43
0.0
 44
0.0
 50
0.0
 51
0.0
 71
     0
 72
   100
 73
     1
 74
     0
 75
     0
 76
     0
 77
     0
 78
     0
281
     0
 65
     1
110
0.0
120
0.0
130
0.0
111
1.0
121
0.0
131
0.0
112
0.0
122
1.0
132
0.0
 79
     0
146
0.0
1001
ACAD_NAV_VCDISPLAY
1070
     3
  0
ENDTAB
  0
TABLE
  2
LTYPE
  5
9C1A
330
0
100
AcDbSymbolTable
 70
     4
  0
LTYPE
  5
9C28
330
9C1A
100
AcDbSymbolTableRecord
100
AcDbLinetypeTableRecord
  2
BYBLOCK
 70
     0
  3

 72
    65
 73
     0
 40
0.0
  0
LTYPE
  5
9C29
330
9C1A
100
AcDbSymbolTableRecord
100
AcDbLinetypeTableRecord
  2
BYLAYER
 70
     0
  3

 72
    65
 73
     0
 40
0.0
  0
LTYPE
  5
9C2A
330
9C1A
100
AcDbSymbolTableRecord
100
AcDbLinetypeTableRecord
  2
CONTINUOUS
 70
     0
  3
Solid line
 72
    65
 73
     0
 40
0.0
  0
LTYPE
  5
9C37
330
9C1A
100
AcDbSymbolTableRecord
100
AcDbLinetypeTableRecord
  2
CENTER
 70
     0
  3
____ _ ____ _ ____ _ ____ _ ____ _ ____ _ ____ 
 72
    65
 73
     4
 40
2.0
 49
1.25
 74
     0
 49
-0.25
 74
     0
 49
0.25
 74
     0
 49
-0.25
 74
     0
  0
LTYPE
  5
9C39
330
9C1A
100
AcDbSymbolTableRecord
100
AcDbLinetypeTableRecord
  2
DASHED
 70
     0
  3
__ __ __ __ __ __ __ __ __ __ __ __ __ __ __ __
 72
    65
 73
     2
 40
0.75
 49
0.5
 74
     0
 49
-0.25
 74
     0
  0
LTYPE
  5
9C3A
330
9C1A
100
AcDbSymbolTableRecord
100
AcDbLinetypeTableRecord
  2
PHANTOM
 70
     0
  3
______  __  __  ______  __  __  ______  __  __ 
 72
    65
 73
     6
 40
2.5
 49
1.25
 74
     0
 49
-0.25
 74
     0
 49
0.25
 74
     0
 49
-0.25
 74
     0
 49
0.25
 74
     0
 49
-0.25
 74
     0
  0
ENDTAB
  0
TABLE
  2
LAYER
  5
9C17
330
0
100
AcDbSymbolTable
 70
     8
  0
LAYER
  5
9C25
102
{ACAD_XDICTIONARY
360
A020
102
}
330
9C17
100
AcDbSymbolTableRecord
100
AcDbLayerTableRecord
  2
0
 70
     0
 62
     7
  6
CONTINUOUS
370
    -3
390
9FCE
  0
LAYER
  5
9C3B
102
{ACAD_XDICTIONARY
360
A022
102
}
330
9C17
100
AcDbSymbolTableRecord
100
AcDbLayerTableRecord
  2
4
 70
     0
 62
     1
  6
CENTER
370
    -3
390
9FCE
  0
LAYER
  5
9C3C
102
{ACAD_XDICTIONARY
360
A024
102
}
330
9C17
100
AcDbSymbolTableRecord
100
AcDbLayerTableRecord
  2
5
 70
     0
 62
     6
  6
PHANTOM
370
    -3
390
9FCE
  0
LAYER
  5
9C3D
102
{ACAD_XDICTIONARY
360
A026
102
}
330
9C17
100
AcDbSymbolTableRecord
100
AcDbLayerTableRecord
  2
1
 70
     0
 62
     7
  6
CONTINUOUS
370
    -3
390
9FCE
  0
LAYER
  5
9C3E
102
{ACAD_XDICTIONARY
360
A028
102
}
330
9C17
100
AcDbSymbolTableRecord
100
AcDbLayerTableRecord
  2
2
 70
     0
 62
     4
  6
CONTINUOUS
370
    -3
390
9FCE
  0
LAYER
  5
9C3F
102
{ACAD_XDICTIONARY
360
A02A
102
}
330
9C17
100
AcDbSymbolTableRecord
100
AcDbLayerTableRecord
  2
3
 70
     0
 62
     2
  6
DASHED
370
    -3
390
9FCE
  0
LAYER
  5
9C40
102
{ACAD_XDICTIONARY
360
A02C
102
}
330
9C17
100
AcDbSymbolTableRecord
100
AcDbLayerTableRecord
  2
6
 70
     0
 62
     5
  6
CONTINUOUS
370
    -3
390
9FCE
  0
LAYER
  5
9C41
102
{ACAD_XDICTIONARY
360
A02E
102
}
330
9C17
100
AcDbSymbolTableRecord
100
AcDbLayerTableRecord
  2
7
 70
     0
 62
     3
  6
CONTINUOUS
370
    -3
390
9FCE
  0
ENDTAB
  0
TABLE
  2
STYLE
  5
9C18
330
0
100
AcDbSymbolTable
 70
     1
  0
STYLE
  5
9C26
330
9C18
100
AcDbSymbolTableRecord
100
AcDbTextStyleTableRecord
  2
STANDARD
 70
     0
 40
0.0
 41
1.0
 50
0.0
 71
     0
 42
5.0
  3
txt
  4

  0
ENDTAB
  0
TABLE
  2
VIEW
  5
9C1B
330
0
100
AcDbSymbolTable
 70
     0
  0
ENDTAB
  0
TABLE
  2
UCS
  5
9C1C
330
0
100
AcDbSymbolTable
 70
     0
  0
ENDTAB
  0
TABLE
  2
APPID
  5
9C1E
330
0
100
AcDbSymbolTable
 70
     3
  0
APPID
  5
9C27
330
9C1E
100
AcDbSymbolTableRecord
100
AcDbRegAppTableRecord
  2
ACAD
 70
     0
  0
APPID
  5
A03A
330
9C1E
100
AcDbSymbolTableRecord
100
AcDbRegAppTableRecord
  2
ACAD_NAV_VCDISPLAY
 70
     0
  0
APPID
  5
A073
330
9C1E
100
AcDbSymbolTableRecord
100
AcDbRegAppTableRecord
  2
ACAD_MLEADERVER
 70
     0
  0
ENDTAB
  0
TABLE
  2
DIMSTYLE
  5
9C1F
330
0
100
AcDbSymbolTable
 70
     1
100
AcDbDimStyleTable
 71
     0
  0
DIMSTYLE
105
9C43
330
9C1F
100
AcDbSymbolTableRecord
100
AcDbDimStyleTableRecord
  2
STANDARD
 70
     0
 41
3.0
 42
1.0
 43
10.0
 44
1.0
 73
     0
 74
     0
 77
     3
 78
     8
140
3.2
141
0.0
147
1.0
172
     1
173
     1
284
     8
285
     8
286
     8
340
9C26
  0
ENDTAB
  0
TABLE
  2
BLOCK_RECORD
  5
9C16
330
0
100
AcDbSymbolTable
 70
     0
  0
BLOCK_RECORD
  5
9C33
102
{ACAD_XDICTIONARY
360
9FC8
102
}
330
9C16
100
AcDbSymbolTableRecord
100
AcDbBlockTableRecord
  2
*MODEL_SPACE
340
A01C
  0
BLOCK_RECORD
  5
9C2F
102
{ACAD_XDICTIONARY
360
9FC6
102
}
330
9C16
100
AcDbSymbolTableRecord
100
AcDbBlockTableRecord
  2
*PAPER_SPACE
340
A01D
  0
ENDTAB
  0
ENDSEC
  0
SECTION
  2
BLOCKS
  0
BLOCK
  5
9C34
330
9C33
100
AcDbEntity
  8
0
100
AcDbBlockBegin
  2
*MODEL_SPACE
 70
     0
 10
0.0
 20
0.0
 30
0.0
  3
*MODEL_SPACE
  1

  0
ENDBLK
  5
9C35
330
9C33
100
AcDbEntity
  8
0
100
AcDbBlockEnd
  0
BLOCK
  5
9C30
330
9C2F
100
AcDbEntity
 67
     1
  8
0
100
AcDbBlockBegin
  2
*PAPER_SPACE
 70
     0
 10
0.0
 20
0.0
 30
0.0
  3
*PAPER_SPACE
  1

  0
ENDBLK
  5
9C31
330
9C2F
100
AcDbEntity
 67
     1
  8
0
100
AcDbBlockEnd
  0
ENDSEC
  0
SECTION
  2
ENTITIES
  0
TEXT
  5
9C4B
330
9C33
100
AcDbEntity
  8
7
  6
Continuous
100
AcDbText
 10
10.0
 20
18.0
 30
0.0
 40
3.0
  1
TYPE No.THA-283-1
100
AcDbText
  0
TEXT
  5
9C4C
330
9C33
100
AcDbEntity
  8
7
  6
Continuous
100
AcDbText
 10
10.0
 20
26.0
 30
0.0
 40
3.0
  1
CODE No.3229
100
AcDbText
  0
TEXT
  5
9C4D
330
9C33
100
AcDbEntity
  8
1
  6
Continuous
100
AcDbText
 10
10.0
 20
10.0
 30
0.0
 40
1.399999999999999
  1
LAYER
100
AcDbText
  0
TEXT
  5
9C4E
330
9C33
100
AcDbEntity
  8
1
  6
Continuous
100
AcDbText
 10
17.97951099999998
 20
10.04873699999998
 30
0.0
 40
1.399999999999999
  1
1
100
AcDbText
  0
TEXT
  5
9C4F
330
9C33
100
AcDbEntity
  8
7
  6
Continuous
100
AcDbText
 10
29.97951099999999
 20
10.04873699999998
 30
0.0
 40
1.399999999999999
  1
7
100
AcDbText
  0
TEXT
  5
9C50
330
9C33
100
AcDbEntity
  8
4
  6
CENTER
100
AcDbText
 10
23.97951099999999
 20
10.04873699999998
 30
0.0
 40
1.399999999999999
  1
4
100
AcDbText
  0
TEXT
  5
9C51
330
9C33
100
AcDbEntity
  8
3
  6
DASHED
100
AcDbText
 10
21.979511
 20
10.04873699999998
 30
0.0
 40
1.399999999999999
  1
3
100
AcDbText
  0
TEXT
  5
9C52
330
9C33
100
AcDbEntity
  8
2
  6
Continuous
100
AcDbText
 10
19.97951099999999
 20
10.04873699999998
 30
0.0
 40
1.399999999999999
  1
2
100
AcDbText
  0
TEXT
  5
9C53
330
9C33
100
AcDbEntity
  8
6
  6
Continuous
100
AcDbText
 10
27.979511
 20
10.04873699999998
 30
0.0
 40
1.399999999999999
  1
6
100
AcDbText
  0
TEXT
  5
9C54
330
9C33
100
AcDbEntity
  8
5
  6
PHANTOM
100
AcDbText
 10
25.97951099999999
 20
10.04873699999998
 30
0.0
 40
1.399999999999999
  1
5
100
AcDbText
  0
LINE
  5
9C55
330
9C33
100
AcDbEntity
  8
1
  6
Continuous
100
AcDbLine
 10
128.1929999999998
 20
165.8189999999999
 30
0.0
 11
128.1929999999998
 21
79.8193
 31
0.0
  0
LINE
  5
9C56
330
9C33
100
AcDbEntity
  8
1
  6
Continuous
100
AcDbLine
 10
128.1929999999998
 20
165.8189999999999
 30
0.0
 11
189.5809999999999
 21
165.8189999999999
 31
0.0
  0
LINE
  5
9C57
330
9C33
100
AcDbEntity
  8
1
  6
Continuous
100
AcDbLine
 10
128.1929999999998
 20
79.8193
 30
0.0
 11
189.5809999999999
 21
79.8193
 31
0.0
  0
LINE
  5
9C58
330
9C33
100
AcDbEntity
  8
1
  6
Continuous
100
AcDbLine
 10
128.6929999999999
 20
165.3189999999999
 30
0.0
 11
128.6929999999999
 21
80.3193
 31
0.0
  0
LINE
  5
9C59
330
9C33
100
AcDbEntity
  8
1
  6
Continuous
100
AcDbLine
 10
128.6929999999999
 20
165.3189999999999
 30
0.0
 11
155.6939999999999
 21
165.3189999999999
 31
0.0
  0
LINE
  5
9C5A
330
9C33
100
AcDbEntity
  8
1
  6
Continuous
100
AcDbLine
 10
128.6929999999999
 20
80.3193
 30
0.0
 11
188.115
 21
80.3193
 31
0.0
  0
LINE
  5
9C5B
330
9C33
100
AcDbEntity
  8
1
  6
Continuous
100
AcDbLine
 10
158.694
 20
162.3189999999999
 30
0.0
 11
158.694
 21
143.859
 31
0.0
  0
LINE
  5
9C5C
330
9C33
100
AcDbEntity
  8
1
  6
Continuous
100
AcDbLine
 10
128.1929999999998
 20
118.3189999999999
 30
0.0
 11
128.6929999999999
 21
118.3189999999999
 31
0.0
  0
LINE
  5
9C5D
330
9C33
100
AcDbEntity
  8
1
  6
Continuous
100
AcDbLine
 10
128.1929999999998
 20
127.319
 30
0.0
 11
128.6929999999999
 21
127.319
 31
0.0
  0
LINE
  5
9C5E
330
9C33
100
AcDbEntity
  8
1
  6
Continuous
100
AcDbLine
 10
133.6929999999999
 20
80.3193
 30
0.0
 11
133.6929999999999
 21
79.8193
 31
0.0
  0
LINE
  5
9C5F
330
9C33
100
AcDbEntity
  8
1
  6
Continuous
100
AcDbLine
 10
133.6929999999999
 20
165.8189999999999
 30
0.0
 11
133.6929999999999
 21
165.3189999999999
 31
0.0
  0
LINE
  5
9C60
330
9C33
100
AcDbEntity
  8
1
  6
Continuous
100
AcDbLine
 10
137.6929999999999
 20
80.3193
 30
0.0
 11
137.6929999999999
 21
79.8193
 31
0.0
  0
LINE
  5
9C61
330
9C33
100
AcDbEntity
  8
1
  6
Continuous
100
AcDbLine
 10
137.6929999999999
 20
165.8189999999999
 30
0.0
 11
137.6929999999999
 21
165.3189999999999
 31
0.0
  0
LINE
  5
9C62
330
9C33
100
AcDbEntity
  8
1
  6
Continuous
100
AcDbLine
 10
142.6929999999998
 20
80.3193
 30
0.0
 11
142.6929999999998
 21
79.8193
 31
0.0
  0
LINE
  5
9C63
330
9C33
100
AcDbEntity
  8
1
  6
Continuous
100
AcDbLine
 10
142.6929999999998
 20
165.8189999999999
 30
0.0
 11
142.6929999999998
 21
165.3189999999999
 31
0.0
  0
LINE
  5
9C64
330
9C33
100
AcDbEntity
  8
1
  6
Continuous
100
AcDbLine
 10
119.693
 20
249.067
 30
0.0
 11
119.693
 21
251.6159999999999
 31
0.0
  0
LINE
  5
9C65
330
9C33
100
AcDbEntity
  8
1
  6
Continuous
100
AcDbLine
 10
202.6939999999999
 20
249.36
 30
0.0
 11
202.6939999999999
 21
251.6159999999999
 31
0.0
  0
LINE
  5
9C66
330
9C33
100
AcDbEntity
  8
1
  6
Continuous
100
AcDbLine
 10
119.693
 20
251.6159999999999
 30
0.0
 11
202.6939999999999
 21
251.6159999999999
 31
0.0
  0
LINE
  5
9C67
330
9C33
100
AcDbEntity
  8
1
  6
Continuous
100
AcDbLine
 10
128.1929999999998
 20
251.6159999999999
 30
0.0
 11
128.1929999999998
 21
278.6159999999998
 31
0.0
  0
LINE
  5
9C68
330
9C33
100
AcDbEntity
  8
1
  6
Continuous
100
AcDbLine
 10
104.6929999999999
 20
278.6159999999998
 30
0.0
 11
155.434
 21
278.6159999999998
 31
0.0
  0
LINE
  5
9C69
330
9C33
100
AcDbEntity
  8
1
  6
Continuous
100
AcDbLine
 10
128.1929999999998
 20
268.4159999999998
 30
0.0
 11
155.61
 21
268.4159999999998
 31
0.0
  0
LINE
  5
9C6A
330
9C33
100
AcDbEntity
  8
1
  6
Continuous
100
AcDbLine
 10
196.194
 20
251.6159999999999
 30
0.0
 11
196.194
 21
269.6159999999998
 31
0.0
  0
LINE
  5
9C6B
330
9C33
100
AcDbEntity
  8
1
  6
Continuous
100
AcDbLine
 10
151.6939999999999
 20
270.616
 30
0.0
 11
151.6939999999999
 21
278.6159999999998
 31
0.0
  0
LINE
  5
9C6C
330
9C33
100
AcDbEntity
  8
1
  6
Continuous
100
AcDbLine
 10
138.1929999999998
 20
268.4159999999998
 30
0.0
 11
138.1929999999998
 21
278.6159999999998
 31
0.0
  0
LINE
  5
9C6D
330
9C33
100
AcDbEntity
  8
1
  6
Continuous
100
AcDbLine
 10
176.1939999999999
 20
268.4159999999998
 30
0.0
 11
176.1939999999999
 21
278.6159999999998
 31
0.0
  0
LINE
  5
9C6E
330
9C33
100
AcDbEntity
  8
1
  6
Continuous
100
AcDbLine
 10
186.1939999999999
 20
266.908
 30
0.0
 11
186.1939999999999
 21
278.6159999999998
 31
0.0
  0
LINE
  5
9C6F
330
9C33
100
AcDbEntity
  8
1
  6
Continuous
100
AcDbLine
 10
163.6939999999999
 20
268.4159999999998
 30
0.0
 11
163.6939999999999
 21
273.966
 31
0.0
  0
LINE
  5
9C70
330
9C33
100
AcDbEntity
  8
1
  6
Continuous
100
AcDbLine
 10
173.6939999999999
 20
268.4159999999998
 30
0.0
 11
173.6939999999999
 21
276.1159999999998
 31
0.0
  0
LINE
  5
9C71
330
9C33
100
AcDbEntity
  8
1
  6
Continuous
100
AcDbLine
 10
163.6939999999999
 20
276.1159999999998
 30
0.0
 11
173.6939999999999
 21
276.1159999999998
 31
0.0
  0
LINE
  5
9C72
330
9C33
100
AcDbEntity
  8
1
  6
Continuous
100
AcDbLine
 10
165.6939999999999
 20
276.1159999999998
 30
0.0
 11
165.6939999999999
 21
278.6159999999998
 31
0.0
  0
LINE
  5
9C73
330
9C33
100
AcDbEntity
  8
1
  6
Continuous
100
AcDbLine
 10
171.6939999999999
 20
276.1159999999998
 30
0.0
 11
171.6939999999999
 21
278.6159999999998
 31
0.0
  0
LINE
  5
9C74
330
9C33
100
AcDbEntity
  8
1
  6
Continuous
100
AcDbLine
 10
181.1939999999999
 20
271.6159999999998
 30
0.0
 11
194.1939999999999
 21
271.6159999999998
 31
0.0
  0
LINE
  5
9C75
330
9C33
100
AcDbEntity
  8
1
  6
Continuous
100
AcDbLine
 10
46.7616
 20
173.8189999999999
 30
0.0
 11
44.9337
 21
173.8189999999999
 31
0.0
  0
LINE
  5
9C76
330
9C33
100
AcDbEntity
  8
1
  6
Continuous
100
AcDbLine
 10
46.7616
 20
71.8193
 30
0.0
 11
44.9337
 21
71.8193
 31
0.0
  0
LINE
  5
9C77
330
9C33
100
AcDbEntity
  8
1
  6
Continuous
100
AcDbLine
 10
44.9337
 20
173.8189999999999
 30
0.0
 11
44.9337
 21
71.8193
 31
0.0
  0
LINE
  5
9C78
330
9C33
100
AcDbEntity
  8
1
  6
Continuous
100
AcDbLine
 10
36.13369999999999
 20
77.3193
 30
0.0
 11
44.9337
 21
77.3193
 31
0.0
  0
LINE
  5
9C79
330
9C33
100
AcDbEntity
  8
1
  6
Continuous
100
AcDbLine
 10
36.13369999999999
 20
168.3189999999999
 30
0.0
 11
44.9337
 21
168.3189999999999
 31
0.0
  0
LINE
  5
9C7A
330
9C33
100
AcDbEntity
  8
1
  6
Continuous
100
AcDbLine
 10
36.9337
 20
79.8193
 30
0.0
 11
44.9337
 21
79.8193
 31
0.0
  0
LINE
  5
9C7B
330
9C33
100
AcDbEntity
  8
1
  6
Continuous
100
AcDbLine
 10
36.9337
 20
165.8189999999999
 30
0.0
 11
44.9337
 21
165.8189999999999
 31
0.0
  0
LINE
  5
9C7C
330
9C33
100
AcDbEntity
  8
1
  6
Continuous
100
AcDbLine
 10
32.9337
 20
118.819
 30
0.0
 11
44.9337
 21
118.819
 31
0.0
  0
LINE
  5
9C7D
330
9C33
100
AcDbEntity
  8
1
  6
Continuous
100
AcDbLine
 10
32.9337
 20
126.819
 30
0.0
 11
44.9337
 21
126.819
 31
0.0
  0
LINE
  5
9C7E
330
9C33
100
AcDbEntity
  8
1
  6
Continuous
100
AcDbLine
 10
36.9337
 20
118.819
 30
0.0
 11
36.9337
 21
79.8193
 31
0.0
  0
LINE
  5
9C7F
330
9C33
100
AcDbEntity
  8
1
  6
Continuous
100
AcDbLine
 10
36.9337
 20
165.8189999999999
 30
0.0
 11
36.9337
 21
126.819
 31
0.0
  0
LINE
  5
9C80
330
9C33
100
AcDbEntity
  8
1
  6
Continuous
100
AcDbLine
 10
102.6929999999999
 20
77.8193
 30
0.0
 11
121.6339999999999
 21
77.8193
 31
0.0
  0
LINE
  5
9C81
330
9C33
100
AcDbEntity
  8
1
  6
Continuous
100
AcDbLine
 10
102.6929999999999
 20
167.8189999999999
 30
0.0
 11
121.721
 21
167.8189999999999
 31
0.0
  0
LINE
  5
9C82
330
9C33
100
AcDbEntity
  8
1
  6
Continuous
100
AcDbLine
 10
105.6929999999999
 20
89.21930000000001
 30
0.0
 11
106.6929999999999
 21
89.21930000000001
 31
0.0
  0
LINE
  5
9C83
330
9C33
100
AcDbEntity
  8
1
  6
Continuous
100
AcDbLine
 10
105.6929999999999
 20
96.41930000000002
 30
0.0
 11
106.6929999999999
 21
96.41930000000002
 31
0.0
  0
LINE
  5
9C84
330
9C33
100
AcDbEntity
  8
1
  6
Continuous
100
AcDbLine
 10
106.6929999999999
 20
96.41930000000002
 30
0.0
 11
106.6929999999999
 21
89.21930000000001
 31
0.0
  0
LINE
  5
9C85
330
9C33
100
AcDbEntity
  8
1
  6
Continuous
100
AcDbLine
 10
105.6929999999999
 20
149.2189999999999
 30
0.0
 11
106.6929999999999
 21
149.2189999999999
 31
0.0
  0
LINE
  5
9C86
330
9C33
100
AcDbEntity
  8
1
  6
Continuous
100
AcDbLine
 10
105.6929999999999
 20
156.4189999999999
 30
0.0
 11
106.6929999999999
 21
156.4189999999999
 31
0.0
  0
LINE
  5
9C87
330
9C33
100
AcDbEntity
  8
1
  6
Continuous
100
AcDbLine
 10
106.6929999999999
 20
156.4189999999999
 30
0.0
 11
106.6929999999999
 21
149.2189999999999
 31
0.0
  0
LINE
  5
9C88
330
9C33
100
AcDbEntity
  8
1
  6
Continuous
100
AcDbLine
 10
102.6929999999999
 20
263.6159999999998
 30
0.0
 11
102.6929999999999
 21
278.6159999999998
 31
0.0
  0
LINE
  5
9C89
330
9C33
100
AcDbEntity
  8
1
  6
Continuous
100
AcDbLine
 10
104.6929999999999
 20
280.6159999999998
 30
0.0
 11
155.6049999999999
 21
280.6159999999998
 31
0.0
  0
LINE
  5
9C8A
330
9C33
100
AcDbEntity
  8
1
  6
Continuous
100
AcDbLine
 10
104.6929999999999
 20
263.6159999999998
 30
0.0
 11
104.6929999999999
 21
278.6159999999998
 31
0.0
  0
LINE
  5
9C8B
330
9C33
100
AcDbEntity
  8
1
  6
Continuous
100
AcDbLine
 10
102.6929999999999
 20
263.6159999999998
 30
0.0
 11
104.6929999999999
 21
263.6159999999998
 31
0.0
  0
LINE
  5
9C8C
330
9C33
100
AcDbEntity
  8
1
  6
Continuous
100
AcDbLine
 10
187.194
 20
278.6159999999998
 30
0.0
 11
187.194
 21
280.6159999999998
 31
0.0
  0
LINE
  5
9C8D
330
9C33
100
AcDbEntity
  8
1
  6
Continuous
100
AcDbLine
 10
105.6929999999999
 20
274.216
 30
0.0
 11
106.6929999999999
 21
274.216
 31
0.0
  0
LINE
  5
9C8E
330
9C33
100
AcDbEntity
  8
1
  6
Continuous
100
AcDbLine
 10
105.6929999999999
 20
267.0159999999999
 30
0.0
 11
106.6929999999999
 21
267.0159999999999
 31
0.0
  0
LINE
  5
9C8F
330
9C33
100
AcDbEntity
  8
1
  6
Continuous
100
AcDbLine
 10
106.6929999999999
 20
267.0159999999999
 30
0.0
 11
106.6929999999999
 21
274.216
 31
0.0
  0
LINE
  5
9C90
330
9C33
100
AcDbEntity
  8
1
  6
Continuous
100
AcDbLine
 10
92.69299999999999
 20
128.8189999999999
 30
0.0
 11
92.69299999999999
 21
116.819
 31
0.0
  0
LINE
  5
9C91
330
9C33
100
AcDbEntity
  8
1
  6
Continuous
100
AcDbLine
 10
93.693
 20
268.616
 30
0.0
 11
102.6929999999999
 21
268.616
 31
0.0
  0
LINE
  5
9C92
330
9C33
100
AcDbEntity
  8
1
  6
Continuous
100
AcDbLine
 10
101.279
 20
278.6159999999998
 30
0.0
 11
102.6929999999999
 21
278.6159999999998
 31
0.0
  0
LINE
  5
9C93
330
9C33
100
AcDbEntity
  8
1
  6
Continuous
100
AcDbLine
 10
106.6929999999999
 20
268.616
 30
0.0
 11
128.1929999999998
 21
268.616
 31
0.0
  0
LINE
  5
9C94
330
9C33
100
AcDbEntity
  8
1
  6
Continuous
100
AcDbLine
 10
15.9337
 20
167.8189999999999
 30
0.0
 11
15.9337
 21
77.8193
 31
0.0
  0
LINE
  5
9C95
330
9C33
100
AcDbEntity
  8
1
  6
Continuous
100
AcDbLine
 10
29.9337
 20
167.8189999999999
 30
0.0
 11
15.9337
 21
167.8189999999999
 31
0.0
  0
LINE
  5
9C96
330
9C33
100
AcDbEntity
  8
1
  6
Continuous
100
AcDbLine
 10
29.9337
 20
77.8193
 30
0.0
 11
15.9337
 21
77.8193
 31
0.0
  0
LINE
  5
9C97
330
9C33
100
AcDbEntity
  8
1
  6
Continuous
100
AcDbLine
 10
36.9337
 20
82.8193
 30
0.0
 11
43.93369999999999
 21
82.8193
 31
0.0
  0
LINE
  5
9C98
330
9C33
100
AcDbEntity
  8
1
  6
Continuous
100
AcDbLine
 10
36.9337
 20
162.819
 30
0.0
 11
43.93369999999999
 21
162.819
 31
0.0
  0
LINE
  5
9C99
330
9C33
100
AcDbEntity
  8
1
  6
Continuous
100
AcDbLine
 10
43.93369999999999
 20
81.81929999999999
 30
0.0
 11
43.93369999999999
 21
79.8193
 31
0.0
  0
LINE
  5
9C9A
330
9C33
100
AcDbEntity
  8
1
  6
Continuous
100
AcDbLine
 10
43.93369999999999
 20
165.8189999999999
 30
0.0
 11
43.93369999999999
 21
163.8189999999999
 31
0.0
  0
LINE
  5
9C9B
330
9C33
100
AcDbEntity
  8
1
  6
Continuous
100
AcDbLine
 10
27.9337
 20
115.819
 30
0.0
 11
27.9337
 21
129.8189999999999
 31
0.0
  0
LINE
  5
9C9C
330
9C33
100
AcDbEntity
  8
1
  6
Continuous
100
AcDbLine
 10
17.9337
 20
115.819
 30
0.0
 11
17.9337
 21
129.8189999999999
 31
0.0
  0
LINE
  5
9C9D
330
9C33
100
AcDbEntity
  8
1
  6
Continuous
100
AcDbLine
 10
26.2266
 20
117.7679999999998
 30
0.0
 11
26.2266
 21
127.913
 31
0.0
  0
LINE
  5
9C9E
330
9C33
100
AcDbEntity
  8
1
  6
Continuous
100
AcDbLine
 10
27.9337
 20
129.8189999999999
 30
0.0
 11
15.9337
 21
129.8189999999999
 31
0.0
  0
LINE
  5
9C9F
330
9C33
100
AcDbEntity
  8
1
  6
Continuous
100
AcDbLine
 10
27.9337
 20
115.819
 30
0.0
 11
15.9337
 21
115.819
 31
0.0
  0
LINE
  5
9CA0
330
9C33
100
AcDbEntity
  8
4
  6
CENTER
100
AcDbLine
 10
29.9337
 20
92.8193
 30
0.0
 11
21.9337
 21
92.8193
 31
0.0
  0
LINE
  5
9CA1
330
9C33
100
AcDbEntity
  8
4
  6
CENTER
100
AcDbLine
 10
25.9337
 20
96.81930000000001
 30
0.0
 11
25.9337
 21
88.8193
 31
0.0
  0
LINE
  5
9CA2
330
9C33
100
AcDbEntity
  8
4
  6
CENTER
100
AcDbLine
 10
29.9337
 20
152.8189999999999
 30
0.0
 11
21.9337
 21
152.8189999999999
 31
0.0
  0
LINE
  5
9CA3
330
9C33
100
AcDbEntity
  8
4
  6
CENTER
100
AcDbLine
 10
25.9337
 20
156.8189999999999
 30
0.0
 11
25.9337
 21
148.8189999999999
 31
0.0
  0
LINE
  5
9CA4
330
9C33
100
AcDbEntity
  8
4
  6
CENTER
100
AcDbLine
 10
110.677
 20
92.8193
 30
0.0
 11
99.114
 21
92.8193
 31
0.0
  0
LINE
  5
9CA5
330
9C33
100
AcDbEntity
  8
4
  6
CENTER
100
AcDbLine
 10
110.8729999999999
 20
152.8189999999999
 30
0.0
 11
99.50600000000001
 21
152.8189999999999
 31
0.0
  0
LINE
  5
9CA6
330
9C33
100
AcDbEntity
  8
4
  6
CENTER
100
AcDbLine
 10
144.1929999999999
 20
257.6159999999998
 30
0.0
 11
133.1929999999998
 21
257.6159999999998
 31
0.0
  0
LINE
  5
9CA7
330
9C33
100
AcDbEntity
  8
4
  6
CENTER
100
AcDbLine
 10
138.6929999999999
 20
252.116
 30
0.0
 11
138.6929999999999
 21
263.1159999999998
 31
0.0
  0
LINE
  5
9CA8
330
9C33
100
AcDbEntity
  8
1
  6
Continuous
100
AcDbLine
 10
186.1509999999999
 20
302.5749999999998
 30
0.0
 11
197.1509999999999
 21
302.5749999999998
 31
0.0
  0
LINE
  5
9CA9
330
9C33
100
AcDbEntity
  8
1
  6
Continuous
100
AcDbLine
 10
197.1509999999999
 20
302.5749999999998
 30
0.0
 11
197.1509999999999
 21
285.075
 31
0.0
  0
LINE
  5
9CAA
330
9C33
100
AcDbEntity
  8
1
  6
Continuous
100
AcDbLine
 10
199.1509999999999
 20
283.077
 30
0.0
 11
206.651
 21
283.077
 31
0.0
  0
LINE
  5
9CAB
330
9C33
100
AcDbEntity
  8
1
  6
Continuous
100
AcDbLine
 10
199.1509999999999
 20
285.074
 30
0.0
 11
206.651
 21
285.074
 31
0.0
  0
LINE
  5
9CAC
330
9C33
100
AcDbEntity
  8
1
  6
Continuous
100
AcDbLine
 10
199.1509999999999
 20
302.5749999999998
 30
0.0
 11
199.1509999999999
 21
285.075
 31
0.0
  0
LINE
  5
9CAD
330
9C33
100
AcDbEntity
  8
1
  6
Continuous
100
AcDbLine
 10
186.1509999999999
 20
304.5749999999998
 30
0.0
 11
197.1509999999999
 21
304.5749999999998
 31
0.0
  0
LINE
  5
9CAE
330
9C33
100
AcDbEntity
  8
1
  6
Continuous
100
AcDbLine
 10
206.6519999999999
 20
283.075
 30
0.0
 11
206.6519999999999
 21
285.075
 31
0.0
  0
LINE
  5
9CAF
330
9C33
100
AcDbEntity
  8
1
  6
Continuous
100
AcDbLine
 10
186.1519999999999
 20
302.5749999999998
 30
0.0
 11
186.1519999999999
 21
304.5749999999998
 31
0.0
  0
LINE
  5
9CB0
330
9C33
100
AcDbEntity
  8
4
  6
CENTER
100
AcDbLine
 10
9.0484
 20
122.819
 30
0.0
 11
54.5203
 21
122.819
 31
0.0
  0
LINE
  5
9CB1
330
9C33
100
AcDbEntity
  8
4
  6
CENTER
100
AcDbLine
 10
84.33100000000001
 20
122.819
 30
0.0
 11
213.952
 21
122.819
 31
0.0
  0
LINE
  5
9CB2
330
9C33
100
AcDbEntity
  8
1
  6
Continuous
100
AcDbLine
 10
208.489
 20
84.8193
 30
0.0
 11
208.489
 21
160.819
 31
0.0
  0
LINE
  5
9CB3
330
9C33
100
AcDbEntity
  8
1
  6
Continuous
100
AcDbLine
 10
206.489
 20
82.8193
 30
0.0
 11
201.1179999999999
 21
82.8193
 31
0.0
  0
LINE
  5
9CB4
330
9C33
100
AcDbEntity
  8
1
  6
Continuous
100
AcDbLine
 10
206.489
 20
162.819
 30
0.0
 11
201.1179999999999
 21
162.819
 31
0.0
  0
LINE
  5
9CB5
330
9C33
100
AcDbEntity
  8
1
  6
Continuous
100
AcDbLine
 10
18.54934599999999
 20
266.051443
 30
0.0
 11
18.54934599999999
 21
259.731443
 31
0.0
  0
LINE
  5
9CB6
330
9C33
100
AcDbEntity
  8
1
  6
Continuous
100
AcDbLine
 10
26.780746
 20
252.8914429999999
 30
0.0
 11
24.041746
 21
252.8914429999999
 31
0.0
  0
LINE
  5
9CB7
330
9C33
100
AcDbEntity
  8
1
  6
Continuous
100
AcDbLine
 10
26.780746
 20
272.8914429999999
 30
0.0
 11
24.041746
 21
272.8914429999999
 31
0.0
  0
LINE
  5
9CB8
330
9C33
100
AcDbEntity
  8
1
  6
Continuous
100
AcDbLine
 10
18.75674599999999
 20
266.661443
 30
0.0
 11
23.249146
 21
272.5014429999998
 31
0.0
  0
LINE
  5
9CB9
330
9C33
100
AcDbEntity
  8
1
  6
Continuous
100
AcDbLine
 10
27.281846
 20
272.756443
 30
0.0
 11
36.549346
 21
267.3914429999999
 31
0.0
  0
LINE
  5
9CBA
330
9C33
100
AcDbEntity
  8
1
  6
Continuous
100
AcDbLine
 10
27.281846
 20
253.025443
 30
0.0
 11
36.549346
 21
258.3914429999999
 31
0.0
  0
LINE
  5
9CBB
330
9C33
100
AcDbEntity
  8
1
  6
Continuous
100
AcDbLine
 10
36.549346
 20
267.3914429999999
 30
0.0
 11
41.04934599999999
 21
267.3914429999999
 31
0.0
  0
LINE
  5
9CBC
330
9C33
100
AcDbEntity
  8
1
  6
Continuous
100
AcDbLine
 10
36.549346
 20
258.3914429999999
 30
0.0
 11
41.04934599999999
 21
258.3914429999999
 31
0.0
  0
LINE
  5
9CBD
330
9C33
100
AcDbEntity
  8
1
  6
Continuous
100
AcDbLine
 10
41.54934599999999
 20
265.8914429999999
 30
0.0
 11
49.96364599999999
 21
265.8914429999999
 31
0.0
  0
LINE
  5
9CBE
330
9C33
100
AcDbEntity
  8
1
  6
Continuous
100
AcDbLine
 10
41.54934599999999
 20
259.8914429999999
 30
0.0
 11
49.96364599999999
 21
259.8914429999999
 31
0.0
  0
LINE
  5
9CBF
330
9C33
100
AcDbEntity
  8
1
  6
Continuous
100
AcDbLine
 10
41.54934599999999
 20
258.8914429999999
 30
0.0
 11
41.54934599999999
 21
259.8914429999999
 31
0.0
  0
LINE
  5
9CC0
330
9C33
100
AcDbEntity
  8
1
  6
Continuous
100
AcDbLine
 10
41.54934599999999
 20
266.891443
 30
0.0
 11
41.54934599999999
 21
265.8914429999999
 31
0.0
  0
LINE
  5
9CC1
330
9C33
100
AcDbEntity
  8
1
  6
Continuous
100
AcDbLine
 10
49.96364599999999
 20
259.8914429999999
 30
0.0
 11
52.25644599999998
 21
262.1844429999999
 31
0.0
  0
LINE
  5
9CC2
330
9C33
100
AcDbEntity
  8
1
  6
Continuous
100
AcDbLine
 10
49.96364599999999
 20
265.8914429999999
 30
0.0
 11
52.25644599999998
 21
263.5984429999999
 31
0.0
  0
LINE
  5
9CC3
330
9C33
100
AcDbEntity
  8
1
  6
Continuous
100
AcDbLine
 10
20.549346
 20
265.3914429999999
 30
0.0
 11
20.549346
 21
260.3914429999999
 31
0.0
  0
LINE
  5
9CC4
330
9C33
100
AcDbEntity
  8
1
  6
Continuous
100
AcDbLine
 10
23.049346
 20
265.3914429999999
 30
0.0
 11
23.049346
 21
260.3914429999999
 31
0.0
  0
LINE
  5
9CC5
330
9C33
100
AcDbEntity
  8
1
  6
Continuous
100
AcDbLine
 10
22.54934599999999
 20
265.8914429999999
 30
0.0
 11
21.04934599999999
 21
265.8914429999999
 31
0.0
  0
LINE
  5
9CC6
330
9C33
100
AcDbEntity
  8
1
  6
Continuous
100
AcDbLine
 10
26.390946
 20
257.7764429999999
 30
0.0
 11
29.783346
 21
257.7764429999999
 31
0.0
  0
LINE
  5
9CC7
330
9C33
100
AcDbEntity
  8
1
  6
Continuous
100
AcDbLine
 10
30.001346
 20
258.563443
 30
0.0
 11
27.097446
 21
258.563443
 31
0.0
  0
LINE
  5
9CC8
330
9C33
100
AcDbEntity
  8
1
  6
Continuous
100
AcDbLine
 10
26.608346
 20
259.3504429999999
 30
0.0
 11
30.490446
 21
259.3504429999999
 31
0.0
  0
LINE
  5
9CC9
330
9C33
100
AcDbEntity
  8
1
  6
Continuous
100
AcDbLine
 10
27.605046
 20
260.9244429999999
 30
0.0
 11
26.10194599999999
 21
260.9244429999999
 31
0.0
  0
LINE
  5
9CCA
330
9C33
100
AcDbEntity
  8
1
  6
Continuous
100
AcDbLine
 10
26.504646
 20
260.137443
 30
0.0
 11
30.59404600000001
 21
260.137443
 31
0.0
  0
LINE
  5
9CCB
330
9C33
100
AcDbEntity
  8
1
  6
Continuous
100
AcDbLine
 10
30.996846
 20
260.9244429999999
 30
0.0
 11
29.493746
 21
260.9244429999999
 31
0.0
  0
LINE
  5
9CCC
330
9C33
100
AcDbEntity
  8
1
  6
Continuous
100
AcDbLine
 10
25.86964599999999
 20
261.7104429999999
 30
0.0
 11
31.229046
 21
261.7104429999999
 31
0.0
  0
LINE
  5
9CCD
330
9C33
100
AcDbEntity
  8
1
  6
Continuous
100
AcDbLine
 10
25.80324599999999
 20
262.4974429999999
 30
0.0
 11
31.295546
 21
262.4974429999999
 31
0.0
  0
LINE
  5
9CCE
330
9C33
100
AcDbEntity
  8
1
  6
Continuous
100
AcDbLine
 10
28.549346
 20
262.4974429999999
 30
0.0
 11
28.549346
 21
261.7104429999999
 31
0.0
  0
LINE
  5
9CCF
330
9C33
100
AcDbEntity
  8
1
  6
Continuous
100
AcDbLine
 10
25.80324599999999
 20
263.284443
 30
0.0
 11
31.295546
 21
263.284443
 31
0.0
  0
LINE
  5
9CD0
330
9C33
100
AcDbEntity
  8
1
  6
Continuous
100
AcDbLine
 10
27.605046
 20
264.858443
 30
0.0
 11
26.327646
 21
264.858443
 31
0.0
  0
LINE
  5
9CD1
330
9C33
100
AcDbEntity
  8
1
  6
Continuous
100
AcDbLine
 10
25.959446
 20
264.071443
 30
0.0
 11
31.139346
 21
264.071443
 31
0.0
  0
LINE
  5
9CD2
330
9C33
100
AcDbEntity
  8
1
  6
Continuous
100
AcDbLine
 10
30.771146
 20
264.858443
 30
0.0
 11
28.549346
 21
264.858443
 31
0.0
  0
LINE
  5
9CD3
330
9C33
100
AcDbEntity
  8
1
  6
Continuous
100
AcDbLine
 10
28.549346
 20
264.858443
 30
0.0
 11
28.549346
 21
264.465443
 31
0.0
  0
LINE
  5
9CD4
330
9C33
100
AcDbEntity
  8
1
  6
Continuous
100
AcDbLine
 10
25.962446
 20
265.645443
 30
0.0
 11
30.889546
 21
265.645443
 31
0.0
  0
LINE
  5
9CD5
330
9C33
100
AcDbEntity
  8
1
  6
Continuous
100
AcDbLine
 10
26.33324599999999
 20
266.4324429999999
 30
0.0
 11
28.15594600000001
 21
266.4324429999999
 31
0.0
  0
LINE
  5
9CD6
330
9C33
100
AcDbEntity
  8
1
  6
Continuous
100
AcDbLine
 10
28.15594600000001
 20
267.219443
 30
0.0
 11
26.47464600000001
 21
267.219443
 31
0.0
  0
LINE
  5
9CD7
330
9C33
100
AcDbEntity
  8
1
  6
Continuous
100
AcDbLine
 10
28.549346
 20
266.8264429999999
 30
0.0
 11
30.43704599999999
 21
266.8264429999999
 31
0.0
  0
LINE
  5
9CD8
330
9C33
100
AcDbEntity
  8
1
  6
Continuous
100
AcDbLine
 10
30.02204600000001
 20
267.620443
 30
0.0
 11
26.704246
 21
268.5094429999999
 31
0.0
  0
LINE
  5
9CD9
330
9C33
100
AcDbEntity
  8
1
  6
Continuous
100
AcDbLine
 10
28.549346
 20
269.6414429999999
 30
0.0
 11
28.549346
 21
268.0154429999999
 31
0.0
  0
LINE
  5
9CDA
330
9C33
100
AcDbEntity
  8
1
  6
Continuous
100
AcDbLine
 10
19.54934599999998
 20
266.051443
 30
0.0
 11
19.54934599999998
 21
259.7312019999999
 31
0.0
  0
LINE
  5
9CDB
330
9C33
100
AcDbEntity
  8
1
  6
Continuous
100
AcDbLine
 10
19.54934599999998
 20
266.051443
 30
0.0
 11
24.041746
 21
271.8914429999999
 31
0.0
  0
LINE
  5
9CDC
330
9C33
100
AcDbEntity
  8
1
  6
Continuous
100
AcDbLine
 10
26.780746
 20
253.891443
 30
0.0
 11
24.041746
 21
253.891443
 31
0.0
  0
LINE
  5
9CDD
330
9C33
100
AcDbEntity
  8
1
  6
Continuous
100
AcDbLine
 10
26.780746
 20
271.8914429999999
 30
0.0
 11
24.041746
 21
271.8914429999999
 31
0.0
  0
LINE
  5
9CDE
330
9C33
100
AcDbEntity
  8
1
  6
Continuous
100
AcDbLine
 10
26.780746
 20
271.8914429999999
 30
0.0
 11
36.549346
 21
266.2354429999999
 31
0.0
  0
LINE
  5
9CDF
330
9C33
100
AcDbEntity
  8
1
  6
Continuous
100
AcDbLine
 10
26.780746
 20
253.891443
 30
0.0
 11
36.549346
 21
259.546443
 31
0.0
  0
LINE
  5
9CE0
330
9C33
100
AcDbEntity
  8
1
  6
Continuous
100
AcDbLine
 10
36.549346
 20
259.546443
 30
0.0
 11
36.549346
 21
266.2354429999999
 31
0.0
  0
LINE
  5
9CE1
330
9C33
100
AcDbEntity
  8
1
  6
Continuous
100
AcDbLine
 10
19.54934599999998
 20
259.7312019999999
 30
0.0
 11
24.041746
 21
253.891443
 31
0.0
  0
LINE
  5
9CE2
330
9C33
100
AcDbEntity
  8
1
  6
Continuous
100
AcDbLine
 10
18.73104599999998
 20
259.156652
 30
0.0
 11
23.249146
 21
253.281443
 31
0.0
  0
LINE
  5
9CE3
330
9C33
100
AcDbEntity
  8
4
  6
CENTER
100
AcDbLine
 10
181.1939999999999
 20
275.297
 30
0.0
 11
181.1939999999999
 21
282.218
 31
0.0
  0
LINE
  5
9CE4
330
9C33
100
AcDbEntity
  8
4
  6
CENTER
100
AcDbLine
 10
133.1929999999998
 20
275.297
 30
0.0
 11
133.1929999999998
 21
282.218
 31
0.0
  0
LINE
  5
9CE5
330
9C33
100
AcDbEntity
  8
1
  6
Continuous
100
AcDbLine
 10
104.6929999999999
 20
77.8193
 30
0.0
 11
104.6929999999999
 21
167.8189999999999
 31
0.0
  0
LINE
  5
9CE6
330
9C33
100
AcDbEntity
  8
1
  6
Continuous
100
AcDbLine
 10
102.6929999999999
 20
77.8193
 30
0.0
 11
102.6929999999999
 21
167.8189999999999
 31
0.0
  0
LINE
  5
9CE7
330
9C33
100
AcDbEntity
  8
1
  6
Continuous
100
AcDbLine
 10
93.693
 20
129.8189999999999
 30
0.0
 11
102.6929999999999
 21
129.8189999999999
 31
0.0
  0
LINE
  5
9CE8
330
9C33
100
AcDbEntity
  8
1
  6
Continuous
100
AcDbLine
 10
104.6929999999999
 20
129.8189999999999
 30
0.0
 11
119.742
 21
129.8189999999999
 31
0.0
  0
LINE
  5
9CE9
330
9C33
100
AcDbEntity
  8
1
  6
Continuous
100
AcDbLine
 10
93.693
 20
115.819
 30
0.0
 11
102.6929999999999
 21
115.819
 31
0.0
  0
LINE
  5
9CEA
330
9C33
100
AcDbEntity
  8
1
  6
Continuous
100
AcDbLine
 10
104.6929999999999
 20
115.819
 30
0.0
 11
119.742
 21
115.819
 31
0.0
  0
LINE
  5
9CEB
330
9C33
100
AcDbEntity
  8
1
  6
Continuous
100
AcDbLine
 10
32.9337
 20
80.81929999999998
 30
0.0
 11
32.9337
 21
164.8189999999999
 31
0.0
  0
LINE
  5
9CEC
330
9C33
100
AcDbEntity
  8
1
  6
Continuous
100
AcDbLine
 10
148.0939999999999
 20
88.76929999999999
 30
0.0
 11
157.694
 21
88.76929999999999
 31
0.0
  0
LINE
  5
9CED
330
9C33
100
AcDbEntity
  8
1
  6
Continuous
100
AcDbLine
 10
148.0939999999999
 20
90.8693
 30
0.0
 11
157.694
 21
90.8693
 31
0.0
  0
LINE
  5
9CEE
330
9C33
100
AcDbEntity
  8
1
  6
Continuous
100
AcDbLine
 10
157.694
 20
90.8693
 30
0.0
 11
157.694
 21
88.76929999999999
 31
0.0
  0
LINE
  5
9CEF
330
9C33
100
AcDbEntity
  8
1
  6
Continuous
100
AcDbLine
 10
148.0939999999999
 20
90.8693
 30
0.0
 11
148.0939999999999
 21
88.76929999999999
 31
0.0
  0
LINE
  5
9CF0
330
9C33
100
AcDbEntity
  8
4
  6
CENTER
100
AcDbLine
 10
161.8439999999999
 20
89.8193
 30
0.0
 11
144.5439999999998
 21
89.8193
 31
0.0
  0
LINE
  5
9CF1
330
9C33
100
AcDbEntity
  8
4
  6
CENTER
100
AcDbLine
 10
153.1939999999998
 20
98.4693
 30
0.0
 11
153.1939999999998
 21
81.0419
 31
0.0
  0
LINE
  5
9CF2
330
9C33
100
AcDbEntity
  8
5
  6
PHANTOM
100
AcDbLine
 10
125.3649999999999
 20
256.043
 30
0.0
 11
128.1939999999998
 21
260.067
 31
0.0
  0
LINE
  5
9CF3
330
9C33
100
AcDbEntity
  8
5
  6
PHANTOM
100
AcDbLine
 10
127.062
 20
258.4569999999998
 30
0.0
 11
128.1929999999998
 21
257.6619999999999
 31
0.0
  0
LINE
  5
9CF4
330
9C33
100
AcDbEntity
  8
5
  6
PHANTOM
100
AcDbLine
 10
142.9779999999998
 20
247.2719999999999
 30
0.0
 11
174.7859999999998
 21
224.919
 31
0.0
  0
LINE
  5
9CF5
330
9C33
100
AcDbEntity
  8
1
  6
Continuous
100
AcDbLine
 10
254.625
 20
173.8189999999999
 30
0.0
 11
256.4529999999999
 21
173.8189999999999
 31
0.0
  0
LINE
  5
9CF6
330
9C33
100
AcDbEntity
  8
1
  6
Continuous
100
AcDbLine
 10
254.625
 20
71.8193
 30
0.0
 11
256.4529999999999
 21
71.8193
 31
0.0
  0
LINE
  5
9CF7
330
9C33
100
AcDbEntity
  8
1
  6
Continuous
100
AcDbLine
 10
256.4529999999999
 20
173.8189999999999
 30
0.0
 11
256.4529999999999
 21
71.8193
 31
0.0
  0
LINE
  5
9CF8
330
9C33
100
AcDbEntity
  8
1
  6
Continuous
100
AcDbLine
 10
265.253
 20
77.3193
 30
0.0
 11
256.4529999999999
 21
77.3193
 31
0.0
  0
LINE
  5
9CF9
330
9C33
100
AcDbEntity
  8
1
  6
Continuous
100
AcDbLine
 10
265.253
 20
168.3189999999999
 30
0.0
 11
256.4529999999999
 21
168.3189999999999
 31
0.0
  0
LINE
  5
9CFA
330
9C33
100
AcDbEntity
  8
1
  6
Continuous
100
AcDbLine
 10
285.453
 20
167.8189999999999
 30
0.0
 11
285.453
 21
77.8193
 31
0.0
  0
LINE
  5
9CFB
330
9C33
100
AcDbEntity
  8
1
  6
Continuous
100
AcDbLine
 10
271.4529999999999
 20
167.8189999999999
 30
0.0
 11
285.453
 21
167.8189999999999
 31
0.0
  0
LINE
  5
9CFC
330
9C33
100
AcDbEntity
  8
1
  6
Continuous
100
AcDbLine
 10
271.4529999999999
 20
77.8193
 30
0.0
 11
285.453
 21
77.8193
 31
0.0
  0
LINE
  5
9CFD
330
9C33
100
AcDbEntity
  8
4
  6
CENTER
100
AcDbLine
 10
292.3389999999999
 20
122.819
 30
0.0
 11
246.8669999999999
 21
122.819
 31
0.0
  0
LINE
  5
9CFE
330
9C33
100
AcDbEntity
  8
1
  6
Continuous
100
AcDbLine
 10
273.253
 20
160.3189999999998
 30
0.0
 11
273.253
 21
152.8189999999999
 31
0.0
  0
LINE
  5
9CFF
330
9C33
100
AcDbEntity
  8
1
  6
Continuous
100
AcDbLine
 10
283.4529999999999
 20
132.4189999999999
 30
0.0
 11
276.4529999999999
 21
132.4189999999999
 31
0.0
  0
LINE
  5
9D00
330
9C33
100
AcDbEntity
  8
1
  6
Continuous
100
AcDbLine
 10
283.4529999999999
 20
113.219
 30
0.0
 11
276.4529999999999
 21
113.219
 31
0.0
  0
LINE
  5
9D01
330
9C33
100
AcDbEntity
  8
4
  6
CENTER
100
AcDbLine
 10
288.3799999999999
 20
92.8193
 30
0.0
 11
275.4529999999999
 21
92.8193
 31
0.0
  0
LINE
  5
9D02
330
9C33
100
AcDbEntity
  8
4
  6
CENTER
100
AcDbLine
 10
288.6779999999999
 20
152.8189999999999
 30
0.0
 11
275.4529999999999
 21
152.8189999999999
 31
0.0
  0
LINE
  5
9D03
330
9C33
100
AcDbEntity
  8
1
  6
Continuous
100
AcDbLine
 10
283.4529999999999
 20
157.819
 30
0.0
 11
273.253
 21
157.819
 31
0.0
  0
LINE
  5
9D04
330
9C33
100
AcDbEntity
  8
1
  6
Continuous
100
AcDbLine
 10
283.4529999999999
 20
147.8189999999998
 30
0.0
 11
276.4529999999999
 21
147.8189999999998
 31
0.0
  0
LINE
  5
9D05
330
9C33
100
AcDbEntity
  8
1
  6
Continuous
100
AcDbLine
 10
283.4529999999999
 20
97.8193
 30
0.0
 11
276.4529999999999
 21
97.8193
 31
0.0
  0
LINE
  5
9D06
330
9C33
100
AcDbEntity
  8
1
  6
Continuous
100
AcDbLine
 10
283.4529999999999
 20
87.8193
 30
0.0
 11
273.253
 21
87.8193
 31
0.0
  0
LINE
  5
9D07
330
9C33
100
AcDbEntity
  8
4
  6
CENTER
100
AcDbLine
 10
289.591
 20
140.3189999999999
 30
0.0
 11
273.3589999999999
 21
140.3189999999999
 31
0.0
  0
LINE
  5
9D08
330
9C33
100
AcDbEntity
  8
4
  6
CENTER
100
AcDbLine
 10
288.5229999999999
 20
105.319
 30
0.0
 11
272.5049999999999
 21
105.319
 31
0.0
  0
LINE
  5
9D09
330
9C33
100
AcDbEntity
  8
1
  6
Continuous
100
AcDbLine
 10
276.4529999999999
 20
151.8189999999998
 30
0.0
 11
276.4529999999999
 21
132.4189999999999
 31
0.0
  0
LINE
  5
9D0A
330
9C33
100
AcDbEntity
  8
1
  6
Continuous
100
AcDbLine
 10
283.4529999999999
 20
167.8189999999999
 30
0.0
 11
283.4529999999999
 21
77.8193
 31
0.0
  0
LINE
  5
9D0B
330
9C33
100
AcDbEntity
  8
1
  6
Continuous
100
AcDbLine
 10
275.4529999999999
 20
102.8189999999999
 30
0.0
 11
256.4529999999999
 21
102.8189999999999
 31
0.0
  0
LINE
  5
9D0C
330
9C33
100
AcDbEntity
  8
1
  6
Continuous
100
AcDbLine
 10
275.4529999999999
 20
142.8189999999998
 30
0.0
 11
256.4529999999999
 21
142.8189999999998
 31
0.0
  0
LINE
  5
9D0D
330
9C33
100
AcDbEntity
  8
1
  6
Continuous
100
AcDbLine
 10
275.4529999999999
 20
152.8189999999999
 30
0.0
 11
256.4529999999999
 21
152.8189999999999
 31
0.0
  0
LINE
  5
9D0E
330
9C33
100
AcDbEntity
  8
1
  6
Continuous
100
AcDbLine
 10
275.4529999999999
 20
92.8193
 30
0.0
 11
256.4529999999999
 21
92.8193
 31
0.0
  0
LINE
  5
9D0F
330
9C33
100
AcDbEntity
  8
1
  6
Continuous
100
AcDbLine
 10
273.253
 20
92.8193
 30
0.0
 11
273.253
 21
85.3193
 31
0.0
  0
LINE
  5
9D10
330
9C33
100
AcDbEntity
  8
1
  6
Continuous
100
AcDbLine
 10
276.4529999999999
 20
113.219
 30
0.0
 11
276.4529999999999
 21
93.8193
 31
0.0
  0
LINE
  5
9D11
330
9C33
100
AcDbEntity
  8
1
  6
Continuous
100
AcDbLine
 10
308.362
 20
82.8193
 30
0.0
 11
308.362
 21
162.819
 31
0.0
  0
LINE
  5
9D12
330
9C33
100
AcDbEntity
  8
1
  6
Continuous
100
AcDbLine
 10
310.362
 20
82.8193
 30
0.0
 11
310.362
 21
162.819
 31
0.0
  0
LINE
  5
9D13
330
9C33
100
AcDbEntity
  8
1
  6
Continuous
100
AcDbLine
 10
329.8619999999999
 20
82.8193
 30
0.0
 11
329.8619999999999
 21
162.819
 31
0.0
  0
LINE
  5
9D14
330
9C33
100
AcDbEntity
  8
1
  6
Continuous
100
AcDbLine
 10
308.362
 20
82.8193
 30
0.0
 11
329.8619999999999
 21
82.8193
 31
0.0
  0
LINE
  5
9D15
330
9C33
100
AcDbEntity
  8
1
  6
Continuous
100
AcDbLine
 10
308.362
 20
162.819
 30
0.0
 11
329.8619999999999
 21
162.819
 31
0.0
  0
LINE
  5
9D16
330
9C33
100
AcDbEntity
  8
4
  6
CENTER
100
AcDbLine
 10
192.1519999999999
 20
266.4629999999998
 30
0.0
 11
192.1519999999999
 21
276.36
 31
0.0
  0
LINE
  5
9D17
330
9C33
100
AcDbEntity
  8
4
  6
CENTER
100
AcDbLine
 10
192.1519999999999
 20
298.7149999999999
 30
0.0
 11
192.1519999999999
 21
311.855
 31
0.0
  0
LINE
  5
9D18
330
9C33
100
AcDbEntity
  8
4
  6
CENTER
100
AcDbLine
 10
303.865
 20
122.819
 30
0.0
 11
335.435
 21
122.819
 31
0.0
  0
LINE
  5
9D19
330
9C33
100
AcDbEntity
  8
4
  6
CENTER
100
AcDbLine
 10
326.862
 20
97.8193
 30
0.0
 11
337.2619999999999
 21
97.8193
 31
0.0
  0
LINE
  5
9D1A
330
9C33
100
AcDbEntity
  8
4
  6
CENTER
100
AcDbLine
 10
326.862
 20
147.8189999999998
 30
0.0
 11
337.2619999999999
 21
147.8189999999998
 31
0.0
  0
LINE
  5
9D1B
330
9C33
100
AcDbEntity
  8
1
  6
Continuous
100
AcDbLine
 10
330.6619999999999
 20
152.8189999999999
 30
0.0
 11
330.6619999999999
 21
142.8189999999998
 31
0.0
  0
LINE
  5
9D1C
330
9C33
100
AcDbEntity
  8
1
  6
Continuous
100
AcDbLine
 10
331.6619999999999
 20
151.6189999999998
 30
0.0
 11
331.6619999999999
 21
144.019
 31
0.0
  0
LINE
  5
9D1D
330
9C33
100
AcDbEntity
  8
1
  6
Continuous
100
AcDbLine
 10
331.6619999999999
 20
148.281
 30
0.0
 11
330.6619999999999
 21
147.442
 31
0.0
  0
LINE
  5
9D1E
330
9C33
100
AcDbEntity
  8
1
  6
Continuous
100
AcDbLine
 10
331.6619999999999
 20
151.3189999999999
 30
0.0
 11
332.7809999999999
 21
151.221
 31
0.0
  0
LINE
  5
9D1F
330
9C33
100
AcDbEntity
  8
1
  6
Continuous
100
AcDbLine
 10
331.6619999999999
 20
144.3189999999999
 30
0.0
 11
332.7809999999999
 21
144.4169999999998
 31
0.0
  0
LINE
  5
9D20
330
9C33
100
AcDbEntity
  8
1
  6
Continuous
100
AcDbLine
 10
451.5299999999998
 20
168.3189999999999
 30
0.0
 11
451.5299999999998
 21
167.8189999999999
 31
0.0
  0
LINE
  5
9D21
330
9C33
100
AcDbEntity
  8
1
  6
Continuous
100
AcDbLine
 10
477.0299999999998
 20
77.8193
 30
0.0
 11
395.5299999999999
 21
77.8193
 31
0.0
  0
LINE
  5
9D22
330
9C33
100
AcDbEntity
  8
1
  6
Continuous
100
AcDbLine
 10
477.0299999999998
 20
167.8189999999999
 30
0.0
 11
395.5299999999999
 21
167.8189999999999
 31
0.0
  0
LINE
  5
9D23
330
9C33
100
AcDbEntity
  8
1
  6
Continuous
100
AcDbLine
 10
487.0299999999998
 20
128.8189999999999
 30
0.0
 11
487.0299999999998
 21
116.819
 31
0.0
  0
LINE
  5
9D24
330
9C33
100
AcDbEntity
  8
4
  6
CENTER
100
AcDbLine
 10
471.457
 20
92.8193
 30
0.0
 11
482.269
 21
92.8193
 31
0.0
  0
LINE
  5
9D25
330
9C33
100
AcDbEntity
  8
4
  6
CENTER
100
AcDbLine
 10
471.6979999999998
 20
152.8189999999999
 30
0.0
 11
482.0289999999998
 21
152.8189999999999
 31
0.0
  0
LINE
  5
9D26
330
9C33
100
AcDbEntity
  8
4
  6
CENTER
100
AcDbLine
 10
495.392
 20
122.819
 30
0.0
 11
365.7709999999998
 21
122.819
 31
0.0
  0
LINE
  5
9D27
330
9C33
100
AcDbEntity
  8
1
  6
Continuous
100
AcDbLine
 10
391.7339999999999
 20
160.819
 30
0.0
 11
391.7339999999999
 21
134.8189999999999
 31
0.0
  0
LINE
  5
9D28
330
9C33
100
AcDbEntity
  8
1
  6
Continuous
100
AcDbLine
 10
389.7339999999999
 20
162.819
 30
0.0
 11
373.2339999999999
 21
162.819
 31
0.0
  0
LINE
  5
9D29
330
9C33
100
AcDbEntity
  8
1
  6
Continuous
100
AcDbLine
 10
389.7339999999999
 20
82.8193
 30
0.0
 11
373.2339999999999
 21
82.8193
 31
0.0
  0
LINE
  5
9D2A
330
9C33
100
AcDbEntity
  8
1
  6
Continuous
100
AcDbLine
 10
477.0299999999998
 20
77.8193
 30
0.0
 11
477.0299999999998
 21
115.819
 31
0.0
  0
LINE
  5
9D2B
330
9C33
100
AcDbEntity
  8
1
  6
Continuous
100
AcDbLine
 10
486.0299999999998
 20
129.8189999999999
 30
0.0
 11
475.03
 21
129.8189999999999
 31
0.0
  0
LINE
  5
9D2C
330
9C33
100
AcDbEntity
  8
1
  6
Continuous
100
AcDbLine
 10
486.0299999999998
 20
115.819
 30
0.0
 11
475.03
 21
115.819
 31
0.0
  0
LINE
  5
9D2D
330
9C33
100
AcDbEntity
  8
1
  6
Continuous
100
AcDbLine
 10
371.2339999999999
 20
160.819
 30
0.0
 11
371.2339999999999
 21
84.8193
 31
0.0
  0
LINE
  5
9D2E
330
9C33
100
AcDbEntity
  8
1
  6
Continuous
100
AcDbLine
 10
386.734
 20
132.8189999999999
 30
0.0
 11
389.7339999999999
 21
132.8189999999999
 31
0.0
  0
LINE
  5
9D2F
330
9C33
100
AcDbEntity
  8
1
  6
Continuous
100
AcDbLine
 10
386.734
 20
112.819
 30
0.0
 11
389.7339999999999
 21
112.819
 31
0.0
  0
LINE
  5
9D30
330
9C33
100
AcDbEntity
  8
1
  6
Continuous
100
AcDbLine
 10
386.734
 20
132.8189999999999
 30
0.0
 11
386.734
 21
112.819
 31
0.0
  0
LINE
  5
9D31
330
9C33
100
AcDbEntity
  8
1
  6
Continuous
100
AcDbLine
 10
391.7339999999999
 20
110.819
 30
0.0
 11
391.7339999999999
 21
84.8193
 31
0.0
  0
LINE
  5
9D32
330
9C33
100
AcDbEntity
  8
1
  6
Continuous
100
AcDbLine
 10
389.5299999999999
 20
77.3193
 30
0.0
 11
419.0929999999998
 21
77.3193
 31
0.0
  0
LINE
  5
9D33
330
9C33
100
AcDbEntity
  8
1
  6
Continuous
100
AcDbLine
 10
389.5299999999999
 20
168.3189999999999
 30
0.0
 11
419.0929999999998
 21
168.3189999999999
 31
0.0
  0
LINE
  5
9D34
330
9C33
100
AcDbEntity
  8
1
  6
Continuous
100
AcDbLine
 10
386.406
 20
97.14770000000001
 30
0.0
 11
386.9119999999999
 21
97.384
 31
0.0
  0
LINE
  5
9D35
330
9C33
100
AcDbEntity
  8
1
  6
Continuous
100
AcDbLine
 10
386.9119999999999
 20
97.384
 30
0.0
 11
387.7919999999999
 21
97.39930000000001
 31
0.0
  0
LINE
  5
9D36
330
9C33
100
AcDbEntity
  8
1
  6
Continuous
100
AcDbLine
 10
386.9119999999999
 20
98.25470000000001
 30
0.0
 11
387.7909999999998
 21
98.2393
 31
0.0
  0
LINE
  5
9D37
330
9C33
100
AcDbEntity
  8
1
  6
Continuous
100
AcDbLine
 10
386.406
 20
98.4909
 30
0.0
 11
386.9119999999999
 21
98.25459999999999
 31
0.0
  0
LINE
  5
9D38
330
9C33
100
AcDbEntity
  8
1
  6
Continuous
100
AcDbLine
 10
385.0619999999998
 20
98.4909
 30
0.0
 11
385.2989999999999
 21
98.9977
 31
0.0
  0
LINE
  5
9D39
330
9C33
100
AcDbEntity
  8
1
  6
Continuous
100
AcDbLine
 10
385.2989999999999
 20
98.9976
 30
0.0
 11
385.314
 21
99.8769
 31
0.0
  0
LINE
  5
9D3A
330
9C33
100
AcDbEntity
  8
1
  6
Continuous
100
AcDbLine
 10
386.1689999999999
 20
98.9977
 30
0.0
 11
386.154
 21
99.8769
 31
0.0
  0
LINE
  5
9D3B
330
9C33
100
AcDbEntity
  8
1
  6
Continuous
100
AcDbLine
 10
386.406
 20
98.4909
 30
0.0
 11
386.1689999999999
 21
98.9976
 31
0.0
  0
LINE
  5
9D3C
330
9C33
100
AcDbEntity
  8
1
  6
Continuous
100
AcDbLine
 10
385.0619999999998
 20
97.14770000000001
 30
0.0
 11
384.5559999999999
 21
97.384
 31
0.0
  0
LINE
  5
9D3D
330
9C33
100
AcDbEntity
  8
1
  6
Continuous
100
AcDbLine
 10
384.5559999999999
 20
97.384
 30
0.0
 11
383.6759999999999
 21
97.39930000000001
 31
0.0
  0
LINE
  5
9D3E
330
9C33
100
AcDbEntity
  8
1
  6
Continuous
100
AcDbLine
 10
384.5559999999999
 20
98.25470000000001
 30
0.0
 11
383.6759999999999
 21
98.2393
 31
0.0
  0
LINE
  5
9D3F
330
9C33
100
AcDbEntity
  8
1
  6
Continuous
100
AcDbLine
 10
385.0619999999998
 20
98.4909
 30
0.0
 11
384.5559999999999
 21
98.25459999999999
 31
0.0
  0
LINE
  5
9D40
330
9C33
100
AcDbEntity
  8
1
  6
Continuous
100
AcDbLine
 10
386.406
 20
97.14770000000001
 30
0.0
 11
386.1689999999999
 21
96.64100000000001
 31
0.0
  0
LINE
  5
9D41
330
9C33
100
AcDbEntity
  8
1
  6
Continuous
100
AcDbLine
 10
386.1689999999999
 20
96.64100000000001
 30
0.0
 11
386.154
 21
95.76170000000001
 31
0.0
  0
LINE
  5
9D42
330
9C33
100
AcDbEntity
  8
1
  6
Continuous
100
AcDbLine
 10
385.2989999999999
 20
96.64100000000001
 30
0.0
 11
385.314
 21
95.76170000000001
 31
0.0
  0
LINE
  5
9D43
330
9C33
100
AcDbEntity
  8
1
  6
Continuous
100
AcDbLine
 10
385.0619999999998
 20
97.14770000000001
 30
0.0
 11
385.2989999999999
 21
96.64100000000001
 31
0.0
  0
LINE
  5
9D44
330
9C33
100
AcDbEntity
  8
1
  6
Continuous
100
AcDbLine
 10
386.406
 20
147.1479999999999
 30
0.0
 11
386.9119999999999
 21
147.3839999999998
 31
0.0
  0
LINE
  5
9D45
330
9C33
100
AcDbEntity
  8
1
  6
Continuous
100
AcDbLine
 10
386.9119999999999
 20
147.3839999999998
 30
0.0
 11
387.7919999999999
 21
147.399
 31
0.0
  0
LINE
  5
9D46
330
9C33
100
AcDbEntity
  8
1
  6
Continuous
100
AcDbLine
 10
386.9119999999999
 20
148.2549999999999
 30
0.0
 11
387.7909999999998
 21
148.239
 31
0.0
  0
LINE
  5
9D47
330
9C33
100
AcDbEntity
  8
1
  6
Continuous
100
AcDbLine
 10
386.406
 20
148.491
 30
0.0
 11
386.9119999999999
 21
148.2549999999999
 31
0.0
  0
LINE
  5
9D48
330
9C33
100
AcDbEntity
  8
1
  6
Continuous
100
AcDbLine
 10
385.0619999999998
 20
148.491
 30
0.0
 11
385.2989999999999
 21
148.9979999999999
 31
0.0
  0
LINE
  5
9D49
330
9C33
100
AcDbEntity
  8
1
  6
Continuous
100
AcDbLine
 10
385.2989999999999
 20
148.9979999999999
 30
0.0
 11
385.314
 21
149.877
 31
0.0
  0
LINE
  5
9D4A
330
9C33
100
AcDbEntity
  8
1
  6
Continuous
100
AcDbLine
 10
386.1689999999999
 20
148.9979999999999
 30
0.0
 11
386.154
 21
149.877
 31
0.0
  0
LINE
  5
9D4B
330
9C33
100
AcDbEntity
  8
1
  6
Continuous
100
AcDbLine
 10
386.406
 20
148.491
 30
0.0
 11
386.1689999999999
 21
148.9979999999999
 31
0.0
  0
LINE
  5
9D4C
330
9C33
100
AcDbEntity
  8
1
  6
Continuous
100
AcDbLine
 10
385.0619999999998
 20
147.1479999999999
 30
0.0
 11
384.5559999999999
 21
147.3839999999998
 31
0.0
  0
LINE
  5
9D4D
330
9C33
100
AcDbEntity
  8
1
  6
Continuous
100
AcDbLine
 10
384.5559999999999
 20
147.3839999999998
 30
0.0
 11
383.6759999999999
 21
147.399
 31
0.0
  0
LINE
  5
9D4E
330
9C33
100
AcDbEntity
  8
1
  6
Continuous
100
AcDbLine
 10
384.5559999999999
 20
148.2549999999999
 30
0.0
 11
383.6759999999999
 21
148.239
 31
0.0
  0
LINE
  5
9D4F
330
9C33
100
AcDbEntity
  8
1
  6
Continuous
100
AcDbLine
 10
385.0619999999998
 20
148.491
 30
0.0
 11
384.5559999999999
 21
148.2549999999999
 31
0.0
  0
LINE
  5
9D50
330
9C33
100
AcDbEntity
  8
1
  6
Continuous
100
AcDbLine
 10
386.406
 20
147.1479999999999
 30
0.0
 11
386.1689999999999
 21
146.6409999999999
 31
0.0
  0
LINE
  5
9D51
330
9C33
100
AcDbEntity
  8
1
  6
Continuous
100
AcDbLine
 10
386.1689999999999
 20
146.6409999999999
 30
0.0
 11
386.154
 21
145.762
 31
0.0
  0
LINE
  5
9D52
330
9C33
100
AcDbEntity
  8
1
  6
Continuous
100
AcDbLine
 10
385.2989999999999
 20
146.6409999999999
 30
0.0
 11
385.314
 21
145.762
 31
0.0
  0
LINE
  5
9D53
330
9C33
100
AcDbEntity
  8
1
  6
Continuous
100
AcDbLine
 10
385.0619999999998
 20
147.1479999999999
 30
0.0
 11
385.2989999999999
 21
146.6409999999999
 31
0.0
  0
LINE
  5
9D54
330
9C33
100
AcDbEntity
  8
4
  6
CENTER
100
AcDbLine
 10
392.2339999999999
 20
97.8193
 30
0.0
 11
379.2339999999999
 21
97.8193
 31
0.0
  0
LINE
  5
9D55
330
9C33
100
AcDbEntity
  8
4
  6
CENTER
100
AcDbLine
 10
385.7339999999999
 20
104.319
 30
0.0
 11
385.7339999999999
 21
91.3193
 31
0.0
  0
LINE
  5
9D56
330
9C33
100
AcDbEntity
  8
4
  6
CENTER
100
AcDbLine
 10
392.2339999999999
 20
147.8189999999998
 30
0.0
 11
379.2339999999999
 21
147.8189999999998
 31
0.0
  0
LINE
  5
9D57
330
9C33
100
AcDbEntity
  8
4
  6
CENTER
100
AcDbLine
 10
385.7339999999999
 20
154.3189999999999
 30
0.0
 11
385.7339999999999
 21
141.3189999999999
 31
0.0
  0
LINE
  5
9D58
330
9C33
100
AcDbEntity
  8
1
  6
Continuous
100
AcDbLine
 10
477.0299999999998
 20
130.019
 30
0.0
 11
475.03
 21
130.019
 31
0.0
  0
LINE
  5
9D59
330
9C33
100
AcDbEntity
  8
1
  6
Continuous
100
AcDbLine
 10
477.0299999999998
 20
115.619
 30
0.0
 11
475.03
 21
115.619
 31
0.0
  0
LINE
  5
9D5A
330
9C33
100
AcDbEntity
  8
1
  6
Continuous
100
AcDbLine
 10
475.03
 20
115.619
 30
0.0
 11
475.03
 21
130.019
 31
0.0
  0
LINE
  5
9D5B
330
9C33
100
AcDbEntity
  8
1
  6
Continuous
100
AcDbLine
 10
392.53
 20
80.81929999999998
 30
0.0
 11
392.53
 21
164.8189999999999
 31
0.0
  0
LINE
  5
9D5C
330
9C33
100
AcDbEntity
  8
1
  6
Continuous
100
AcDbLine
 10
451.5299999999998
 20
77.8193
 30
0.0
 11
451.5299999999998
 21
77.3193
 31
0.0
  0
LINE
  5
9D5D
330
9C33
100
AcDbEntity
  8
1
  6
Continuous
100
AcDbLine
 10
447.223
 20
92.1263
 30
0.0
 11
447.7719999999997
 21
92.38240000000001
 31
0.0
  0
LINE
  5
9D5E
330
9C33
100
AcDbEntity
  8
1
  6
Continuous
100
AcDbLine
 10
447.7719999999997
 20
92.38240000000001
 30
0.0
 11
448.74
 21
92.39929999999999
 31
0.0
  0
LINE
  5
9D5F
330
9C33
100
AcDbEntity
  8
1
  6
Continuous
100
AcDbLine
 10
447.7719999999997
 20
93.2562
 30
0.0
 11
448.74
 21
93.2393
 31
0.0
  0
LINE
  5
9D60
330
9C33
100
AcDbEntity
  8
1
  6
Continuous
100
AcDbLine
 10
447.223
 20
93.51229999999999
 30
0.0
 11
447.7719999999997
 21
93.2562
 31
0.0
  0
LINE
  5
9D61
330
9C33
100
AcDbEntity
  8
1
  6
Continuous
100
AcDbLine
 10
445.837
 20
93.5124
 30
0.0
 11
446.093
 21
94.06170000000001
 31
0.0
  0
LINE
  5
9D62
330
9C33
100
AcDbEntity
  8
1
  6
Continuous
100
AcDbLine
 10
446.093
 20
94.06170000000001
 30
0.0
 11
446.11
 21
95.02979999999999
 31
0.0
  0
LINE
  5
9D63
330
9C33
100
AcDbEntity
  8
1
  6
Continuous
100
AcDbLine
 10
446.9669999999998
 20
94.06170000000001
 30
0.0
 11
446.95
 21
95.02979999999999
 31
0.0
  0
LINE
  5
9D64
330
9C33
100
AcDbEntity
  8
1
  6
Continuous
100
AcDbLine
 10
447.223
 20
93.51229999999999
 30
0.0
 11
446.9669999999998
 21
94.06170000000001
 31
0.0
  0
LINE
  5
9D65
330
9C33
100
AcDbEntity
  8
1
  6
Continuous
100
AcDbLine
 10
445.837
 20
92.12619999999999
 30
0.0
 11
445.2869999999998
 21
92.38240000000001
 31
0.0
  0
LINE
  5
9D66
330
9C33
100
AcDbEntity
  8
1
  6
Continuous
100
AcDbLine
 10
445.2869999999998
 20
92.38240000000001
 30
0.0
 11
444.319
 21
92.39929999999999
 31
0.0
  0
LINE
  5
9D67
330
9C33
100
AcDbEntity
  8
1
  6
Continuous
100
AcDbLine
 10
445.2869999999998
 20
93.2562
 30
0.0
 11
444.319
 21
93.2393
 31
0.0
  0
LINE
  5
9D68
330
9C33
100
AcDbEntity
  8
1
  6
Continuous
100
AcDbLine
 10
445.837
 20
93.51229999999999
 30
0.0
 11
445.2869999999998
 21
93.2562
 31
0.0
  0
LINE
  5
9D69
330
9C33
100
AcDbEntity
  8
1
  6
Continuous
100
AcDbLine
 10
447.223
 20
92.1263
 30
0.0
 11
446.9669999999998
 21
91.5769
 31
0.0
  0
LINE
  5
9D6A
330
9C33
100
AcDbEntity
  8
1
  6
Continuous
100
AcDbLine
 10
446.9669999999998
 20
91.5769
 30
0.0
 11
446.95
 21
90.6089
 31
0.0
  0
LINE
  5
9D6B
330
9C33
100
AcDbEntity
  8
1
  6
Continuous
100
AcDbLine
 10
446.093
 20
91.5769
 30
0.0
 11
446.11
 21
90.6089
 31
0.0
  0
LINE
  5
9D6C
330
9C33
100
AcDbEntity
  8
1
  6
Continuous
100
AcDbLine
 10
445.837
 20
92.12619999999999
 30
0.0
 11
446.093
 21
91.5769
 31
0.0
  0
LINE
  5
9D6D
330
9C33
100
AcDbEntity
  8
1
  6
Continuous
100
AcDbLine
 10
447.223
 20
152.126
 30
0.0
 11
447.7719999999997
 21
152.382
 31
0.0
  0
LINE
  5
9D6E
330
9C33
100
AcDbEntity
  8
1
  6
Continuous
100
AcDbLine
 10
447.7719999999997
 20
152.382
 30
0.0
 11
448.74
 21
152.3989999999998
 31
0.0
  0
LINE
  5
9D6F
330
9C33
100
AcDbEntity
  8
1
  6
Continuous
100
AcDbLine
 10
447.7719999999997
 20
153.256
 30
0.0
 11
448.74
 21
153.239
 31
0.0
  0
LINE
  5
9D70
330
9C33
100
AcDbEntity
  8
1
  6
Continuous
100
AcDbLine
 10
447.223
 20
153.512
 30
0.0
 11
447.7719999999997
 21
153.256
 31
0.0
  0
LINE
  5
9D71
330
9C33
100
AcDbEntity
  8
1
  6
Continuous
100
AcDbLine
 10
445.837
 20
153.512
 30
0.0
 11
446.093
 21
154.062
 31
0.0
  0
LINE
  5
9D72
330
9C33
100
AcDbEntity
  8
1
  6
Continuous
100
AcDbLine
 10
446.093
 20
154.062
 30
0.0
 11
446.11
 21
155.03
 31
0.0
  0
LINE
  5
9D73
330
9C33
100
AcDbEntity
  8
1
  6
Continuous
100
AcDbLine
 10
446.9669999999998
 20
154.062
 30
0.0
 11
446.95
 21
155.03
 31
0.0
  0
LINE
  5
9D74
330
9C33
100
AcDbEntity
  8
1
  6
Continuous
100
AcDbLine
 10
447.223
 20
153.512
 30
0.0
 11
446.9669999999998
 21
154.062
 31
0.0
  0
LINE
  5
9D75
330
9C33
100
AcDbEntity
  8
1
  6
Continuous
100
AcDbLine
 10
445.837
 20
152.126
 30
0.0
 11
445.2869999999998
 21
152.382
 31
0.0
  0
LINE
  5
9D76
330
9C33
100
AcDbEntity
  8
1
  6
Continuous
100
AcDbLine
 10
445.2869999999998
 20
152.382
 30
0.0
 11
444.319
 21
152.3989999999998
 31
0.0
  0
LINE
  5
9D77
330
9C33
100
AcDbEntity
  8
1
  6
Continuous
100
AcDbLine
 10
445.2869999999998
 20
153.256
 30
0.0
 11
444.319
 21
153.239
 31
0.0
  0
LINE
  5
9D78
330
9C33
100
AcDbEntity
  8
1
  6
Continuous
100
AcDbLine
 10
445.837
 20
153.512
 30
0.0
 11
445.2869999999998
 21
153.256
 31
0.0
  0
LINE
  5
9D79
330
9C33
100
AcDbEntity
  8
1
  6
Continuous
100
AcDbLine
 10
447.223
 20
152.126
 30
0.0
 11
446.9669999999998
 21
151.577
 31
0.0
  0
LINE
  5
9D7A
330
9C33
100
AcDbEntity
  8
1
  6
Continuous
100
AcDbLine
 10
446.9669999999998
 20
151.577
 30
0.0
 11
446.95
 21
150.609
 31
0.0
  0
LINE
  5
9D7B
330
9C33
100
AcDbEntity
  8
1
  6
Continuous
100
AcDbLine
 10
446.093
 20
151.577
 30
0.0
 11
446.11
 21
150.609
 31
0.0
  0
LINE
  5
9D7C
330
9C33
100
AcDbEntity
  8
1
  6
Continuous
100
AcDbLine
 10
445.837
 20
152.126
 30
0.0
 11
446.093
 21
151.577
 31
0.0
  0
LINE
  5
9D7D
330
9C33
100
AcDbEntity
  8
1
  6
Continuous
100
AcDbLine
 10
399.223
 20
104.6259999999999
 30
0.0
 11
399.772
 21
104.882
 31
0.0
  0
LINE
  5
9D7E
330
9C33
100
AcDbEntity
  8
1
  6
Continuous
100
AcDbLine
 10
399.772
 20
104.882
 30
0.0
 11
400.74
 21
104.899
 31
0.0
  0
LINE
  5
9D7F
330
9C33
100
AcDbEntity
  8
1
  6
Continuous
100
AcDbLine
 10
399.772
 20
105.756
 30
0.0
 11
400.74
 21
105.7389999999999
 31
0.0
  0
LINE
  5
9D80
330
9C33
100
AcDbEntity
  8
1
  6
Continuous
100
AcDbLine
 10
399.223
 20
106.0119999999999
 30
0.0
 11
399.772
 21
105.756
 31
0.0
  0
LINE
  5
9D81
330
9C33
100
AcDbEntity
  8
1
  6
Continuous
100
AcDbLine
 10
397.8369999999999
 20
106.0119999999999
 30
0.0
 11
398.093
 21
106.562
 31
0.0
  0
LINE
  5
9D82
330
9C33
100
AcDbEntity
  8
1
  6
Continuous
100
AcDbLine
 10
398.093
 20
106.562
 30
0.0
 11
398.1099999999998
 21
107.53
 31
0.0
  0
LINE
  5
9D83
330
9C33
100
AcDbEntity
  8
1
  6
Continuous
100
AcDbLine
 10
398.9669999999999
 20
106.562
 30
0.0
 11
398.9499999999999
 21
107.53
 31
0.0
  0
LINE
  5
9D84
330
9C33
100
AcDbEntity
  8
1
  6
Continuous
100
AcDbLine
 10
399.223
 20
106.0119999999999
 30
0.0
 11
398.9669999999999
 21
106.562
 31
0.0
  0
LINE
  5
9D85
330
9C33
100
AcDbEntity
  8
1
  6
Continuous
100
AcDbLine
 10
397.8369999999999
 20
104.6259999999999
 30
0.0
 11
397.2869999999998
 21
104.882
 31
0.0
  0
LINE
  5
9D86
330
9C33
100
AcDbEntity
  8
1
  6
Continuous
100
AcDbLine
 10
397.2869999999998
 20
104.882
 30
0.0
 11
396.319
 21
104.899
 31
0.0
  0
LINE
  5
9D87
330
9C33
100
AcDbEntity
  8
1
  6
Continuous
100
AcDbLine
 10
397.2869999999998
 20
105.756
 30
0.0
 11
396.319
 21
105.7389999999999
 31
0.0
  0
LINE
  5
9D88
330
9C33
100
AcDbEntity
  8
1
  6
Continuous
100
AcDbLine
 10
397.8369999999999
 20
106.0119999999999
 30
0.0
 11
397.2869999999998
 21
105.756
 31
0.0
  0
LINE
  5
9D89
330
9C33
100
AcDbEntity
  8
1
  6
Continuous
100
AcDbLine
 10
399.223
 20
104.6259999999999
 30
0.0
 11
398.9669999999999
 21
104.077
 31
0.0
  0
LINE
  5
9D8A
330
9C33
100
AcDbEntity
  8
1
  6
Continuous
100
AcDbLine
 10
398.9669999999999
 20
104.077
 30
0.0
 11
398.9499999999999
 21
103.109
 31
0.0
  0
LINE
  5
9D8B
330
9C33
100
AcDbEntity
  8
1
  6
Continuous
100
AcDbLine
 10
398.093
 20
104.077
 30
0.0
 11
398.1099999999998
 21
103.109
 31
0.0
  0
LINE
  5
9D8C
330
9C33
100
AcDbEntity
  8
1
  6
Continuous
100
AcDbLine
 10
397.8369999999999
 20
104.6259999999999
 30
0.0
 11
398.093
 21
104.077
 31
0.0
  0
LINE
  5
9D8D
330
9C33
100
AcDbEntity
  8
1
  6
Continuous
100
AcDbLine
 10
399.223
 20
139.626
 30
0.0
 11
399.772
 21
139.882
 31
0.0
  0
LINE
  5
9D8E
330
9C33
100
AcDbEntity
  8
1
  6
Continuous
100
AcDbLine
 10
399.772
 20
139.882
 30
0.0
 11
400.74
 21
139.8989999999998
 31
0.0
  0
LINE
  5
9D8F
330
9C33
100
AcDbEntity
  8
1
  6
Continuous
100
AcDbLine
 10
399.772
 20
140.7559999999998
 30
0.0
 11
400.74
 21
140.739
 31
0.0
  0
LINE
  5
9D90
330
9C33
100
AcDbEntity
  8
1
  6
Continuous
100
AcDbLine
 10
399.223
 20
141.012
 30
0.0
 11
399.772
 21
140.7559999999998
 31
0.0
  0
LINE
  5
9D91
330
9C33
100
AcDbEntity
  8
1
  6
Continuous
100
AcDbLine
 10
397.8369999999999
 20
141.012
 30
0.0
 11
398.093
 21
141.562
 31
0.0
  0
LINE
  5
9D92
330
9C33
100
AcDbEntity
  8
1
  6
Continuous
100
AcDbLine
 10
398.093
 20
141.562
 30
0.0
 11
398.1099999999998
 21
142.53
 31
0.0
  0
LINE
  5
9D93
330
9C33
100
AcDbEntity
  8
1
  6
Continuous
100
AcDbLine
 10
398.9669999999999
 20
141.562
 30
0.0
 11
398.9499999999999
 21
142.53
 31
0.0
  0
LINE
  5
9D94
330
9C33
100
AcDbEntity
  8
1
  6
Continuous
100
AcDbLine
 10
399.223
 20
141.012
 30
0.0
 11
398.9669999999999
 21
141.562
 31
0.0
  0
LINE
  5
9D95
330
9C33
100
AcDbEntity
  8
1
  6
Continuous
100
AcDbLine
 10
397.8369999999999
 20
139.626
 30
0.0
 11
397.2869999999998
 21
139.882
 31
0.0
  0
LINE
  5
9D96
330
9C33
100
AcDbEntity
  8
1
  6
Continuous
100
AcDbLine
 10
397.2869999999998
 20
139.882
 30
0.0
 11
396.319
 21
139.8989999999998
 31
0.0
  0
LINE
  5
9D97
330
9C33
100
AcDbEntity
  8
1
  6
Continuous
100
AcDbLine
 10
397.2869999999998
 20
140.7559999999998
 30
0.0
 11
396.319
 21
140.739
 31
0.0
  0
LINE
  5
9D98
330
9C33
100
AcDbEntity
  8
1
  6
Continuous
100
AcDbLine
 10
397.8369999999999
 20
141.012
 30
0.0
 11
397.2869999999998
 21
140.7559999999998
 31
0.0
  0
LINE
  5
9D99
330
9C33
100
AcDbEntity
  8
1
  6
Continuous
100
AcDbLine
 10
399.223
 20
139.626
 30
0.0
 11
398.9669999999999
 21
139.077
 31
0.0
  0
LINE
  5
9D9A
330
9C33
100
AcDbEntity
  8
1
  6
Continuous
100
AcDbLine
 10
398.9669999999999
 20
139.077
 30
0.0
 11
398.9499999999999
 21
138.109
 31
0.0
  0
LINE
  5
9D9B
330
9C33
100
AcDbEntity
  8
1
  6
Continuous
100
AcDbLine
 10
398.093
 20
139.077
 30
0.0
 11
398.1099999999998
 21
138.109
 31
0.0
  0
LINE
  5
9D9C
330
9C33
100
AcDbEntity
  8
1
  6
Continuous
100
AcDbLine
 10
397.8369999999999
 20
139.626
 30
0.0
 11
398.093
 21
139.077
 31
0.0
  0
LINE
  5
9D9D
330
9C33
100
AcDbEntity
  8
4
  6
CENTER
100
AcDbLine
 10
404.03
 20
140.3189999999999
 30
0.0
 11
393.0299999999999
 21
140.3189999999999
 31
0.0
  0
LINE
  5
9D9E
330
9C33
100
AcDbEntity
  8
4
  6
CENTER
100
AcDbLine
 10
398.5299999999999
 20
145.8189999999999
 30
0.0
 11
398.5299999999999
 21
134.8189999999999
 31
0.0
  0
LINE
  5
9D9F
330
9C33
100
AcDbEntity
  8
4
  6
CENTER
100
AcDbLine
 10
404.03
 20
105.319
 30
0.0
 11
393.0299999999999
 21
105.319
 31
0.0
  0
LINE
  5
9DA0
330
9C33
100
AcDbEntity
  8
4
  6
CENTER
100
AcDbLine
 10
398.5299999999999
 20
110.819
 30
0.0
 11
398.5299999999999
 21
99.8193
 31
0.0
  0
LINE
  5
9DA1
330
9C33
100
AcDbEntity
  8
4
  6
CENTER
100
AcDbLine
 10
452.0299999999998
 20
92.8193
 30
0.0
 11
441.0299999999998
 21
92.8193
 31
0.0
  0
LINE
  5
9DA2
330
9C33
100
AcDbEntity
  8
4
  6
CENTER
100
AcDbLine
 10
446.53
 20
98.31929999999999
 30
0.0
 11
446.53
 21
87.3193
 31
0.0
  0
LINE
  5
9DA3
330
9C33
100
AcDbEntity
  8
4
  6
CENTER
100
AcDbLine
 10
452.0299999999998
 20
152.8189999999999
 30
0.0
 11
441.0299999999998
 21
152.8189999999999
 31
0.0
  0
LINE
  5
9DA4
330
9C33
100
AcDbEntity
  8
4
  6
CENTER
100
AcDbLine
 10
446.53
 20
158.3189999999999
 30
0.0
 11
446.53
 21
147.3189999999999
 31
0.0
  0
LINE
  5
9DA5
330
9C33
100
AcDbEntity
  8
1
  6
Continuous
100
AcDbLine
 10
390.0299999999999
 20
112.797
 30
0.0
 11
390.0299999999999
 21
132.841
 31
0.0
  0
LINE
  5
9DA6
330
9C33
100
AcDbEntity
  8
1
  6
Continuous
100
AcDbLine
 10
392.53
 20
132.4189999999999
 30
0.0
 11
390.0299999999999
 21
132.4189999999999
 31
0.0
  0
LINE
  5
9DA7
330
9C33
100
AcDbEntity
  8
1
  6
Continuous
100
AcDbLine
 10
392.53
 20
113.219
 30
0.0
 11
390.0299999999999
 21
113.219
 31
0.0
  0
LINE
  5
9DA8
330
9C33
100
AcDbEntity
  8
1
  6
Continuous
100
AcDbLine
 10
392.53
 20
92.8193
 30
0.0
 11
391.7339999999999
 21
92.8193
 31
0.0
  0
LINE
  5
9DA9
330
9C33
100
AcDbEntity
  8
1
  6
Continuous
100
AcDbLine
 10
392.53
 20
152.8189999999999
 30
0.0
 11
391.7339999999999
 21
152.8189999999999
 31
0.0
  0
LINE
  5
9DAA
330
9C33
100
AcDbEntity
  8
1
  6
Continuous
100
AcDbLine
 10
151.6939999999999
 20
270.616
 30
0.0
 11
161.1929999999999
 21
270.616
 31
0.0
  0
LINE
  5
9DAB
330
9C33
100
AcDbEntity
  8
1
  6
Continuous
100
AcDbLine
 10
175.6939999999999
 20
270.616
 30
0.0
 11
175.6939999999999
 21
278.6159999999998
 31
0.0
  0
LINE
  5
9DAC
330
9C33
100
AcDbEntity
  8
1
  6
Continuous
100
AcDbLine
 10
173.592
 20
270.616
 30
0.0
 11
175.6939999999999
 21
270.616
 31
0.0
  0
LINE
  5
9DAD
330
9C33
100
AcDbEntity
  8
1
  6
Continuous
100
AcDbLine
 10
283.4529999999999
 20
110.319
 30
0.0
 11
276.4529999999999
 21
110.319
 31
0.0
  0
LINE
  5
9DAE
330
9C33
100
AcDbEntity
  8
1
  6
Continuous
100
AcDbLine
 10
283.4529999999999
 20
100.319
 30
0.0
 11
276.4529999999999
 21
100.319
 31
0.0
  0
LINE
  5
9DAF
330
9C33
100
AcDbEntity
  8
1
  6
Continuous
100
AcDbLine
 10
283.4529999999999
 20
145.319
 30
0.0
 11
276.4529999999999
 21
145.319
 31
0.0
  0
LINE
  5
9DB0
330
9C33
100
AcDbEntity
  8
1
  6
Continuous
100
AcDbLine
 10
283.4529999999999
 20
135.3189999999999
 30
0.0
 11
276.4529999999999
 21
135.3189999999999
 31
0.0
  0
LINE
  5
9DB1
330
9C33
100
AcDbEntity
  8
1
  6
Continuous
100
AcDbLine
 10
271.7449999999999
 20
142.8189999999998
 30
0.0
 11
271.7449999999999
 21
102.8189999999999
 31
0.0
  0
LINE
  5
9DB2
330
9C33
100
AcDbEntity
  8
4
  6
CENTER
100
AcDbLine
 10
276.4529999999999
 20
147.8189999999998
 30
0.0
 11
250.2299999999999
 21
147.8189999999998
 31
0.0
  0
LINE
  5
9DB3
330
9C33
100
AcDbEntity
  8
4
  6
CENTER
100
AcDbLine
 10
276.4529999999999
 20
97.8193
 30
0.0
 11
250.8799999999999
 21
97.8193
 31
0.0
  0
LINE
  5
9DB4
330
9C33
100
AcDbEntity
  8
4
  6
CENTER
100
AcDbLine
 10
29.86909999999999
 20
97.8193
 30
0.0
 11
51.7175
 21
97.8193
 31
0.0
  0
LINE
  5
9DB5
330
9C33
100
AcDbEntity
  8
4
  6
CENTER
100
AcDbLine
 10
29.86909999999999
 20
147.8189999999998
 30
0.0
 11
51.7175
 21
147.8189999999998
 31
0.0
  0
LINE
  5
9DB6
330
9C33
100
AcDbEntity
  8
1
  6
Continuous
100
AcDbLine
 10
330.6619999999999
 20
144.019
 30
0.0
 11
331.6619999999999
 21
144.019
 31
0.0
  0
LINE
  5
9DB7
330
9C33
100
AcDbEntity
  8
1
  6
Continuous
100
AcDbLine
 10
330.6619999999999
 20
151.6189999999998
 30
0.0
 11
331.6619999999999
 21
151.6189999999998
 31
0.0
  0
LINE
  5
9DB8
330
9C33
100
AcDbEntity
  8
1
  6
Continuous
100
AcDbLine
 10
329.8619999999999
 20
152.8189999999999
 30
0.0
 11
330.6619999999999
 21
152.8189999999999
 31
0.0
  0
LINE
  5
9DB9
330
9C33
100
AcDbEntity
  8
1
  6
Continuous
100
AcDbLine
 10
329.8619999999999
 20
142.8189999999998
 30
0.0
 11
330.6619999999999
 21
142.8189999999998
 31
0.0
  0
LINE
  5
9DBA
330
9C33
100
AcDbEntity
  8
1
  6
Continuous
100
AcDbLine
 10
197.1519999999999
 20
305.3749999999999
 30
0.0
 11
187.1519999999999
 21
305.3749999999999
 31
0.0
  0
LINE
  5
9DBB
330
9C33
100
AcDbEntity
  8
1
  6
Continuous
100
AcDbLine
 10
197.1519999999999
 20
304.5749999999998
 30
0.0
 11
197.1519999999999
 21
305.3749999999999
 31
0.0
  0
LINE
  5
9DBC
330
9C33
100
AcDbEntity
  8
1
  6
Continuous
100
AcDbLine
 10
195.9519999999999
 20
305.3749999999999
 30
0.0
 11
195.9519999999999
 21
306.375
 31
0.0
  0
LINE
  5
9DBD
330
9C33
100
AcDbEntity
  8
1
  6
Continuous
100
AcDbLine
 10
195.9519999999999
 20
306.375
 30
0.0
 11
188.352
 21
306.375
 31
0.0
  0
LINE
  5
9DBE
330
9C33
100
AcDbEntity
  8
1
  6
Continuous
100
AcDbLine
 10
195.6519999999999
 20
306.375
 30
0.0
 11
195.554
 21
307.495
 31
0.0
  0
LINE
  5
9DBF
330
9C33
100
AcDbEntity
  8
1
  6
Continuous
100
AcDbLine
 10
188.6519999999999
 20
306.375
 30
0.0
 11
188.75
 21
307.4940000000002
 31
0.0
  0
LINE
  5
9DC0
330
9C33
100
AcDbEntity
  8
1
  6
Continuous
100
AcDbLine
 10
188.352
 20
305.3749999999999
 30
0.0
 11
188.352
 21
306.375
 31
0.0
  0
LINE
  5
9DC1
330
9C33
100
AcDbEntity
  8
1
  6
Continuous
100
AcDbLine
 10
187.1519999999999
 20
304.5749999999998
 30
0.0
 11
187.1519999999999
 21
305.3749999999999
 31
0.0
  0
LINE
  5
9DC2
330
9C33
100
AcDbEntity
  8
1
  6
Continuous
100
AcDbLine
 10
191.6909999999998
 20
306.375
 30
0.0
 11
192.53
 21
305.3749999999999
 31
0.0
  0
LINE
  5
9DC3
330
9C33
100
AcDbEntity
  8
1
  6
Continuous
100
AcDbLine
 10
330.6619999999999
 20
102.8189999999999
 30
0.0
 11
330.6619999999999
 21
92.8193
 31
0.0
  0
LINE
  5
9DC4
330
9C33
100
AcDbEntity
  8
1
  6
Continuous
100
AcDbLine
 10
331.6619999999999
 20
101.6189999999999
 30
0.0
 11
331.6619999999999
 21
94.0193
 31
0.0
  0
LINE
  5
9DC5
330
9C33
100
AcDbEntity
  8
1
  6
Continuous
100
AcDbLine
 10
331.6619999999999
 20
98.2807
 30
0.0
 11
330.6619999999999
 21
97.4416
 31
0.0
  0
LINE
  5
9DC6
330
9C33
100
AcDbEntity
  8
1
  6
Continuous
100
AcDbLine
 10
331.6619999999999
 20
101.319
 30
0.0
 11
332.7809999999999
 21
101.221
 31
0.0
  0
LINE
  5
9DC7
330
9C33
100
AcDbEntity
  8
1
  6
Continuous
100
AcDbLine
 10
331.6619999999999
 20
94.31929999999999
 30
0.0
 11
332.7809999999999
 21
94.4172
 31
0.0
  0
LINE
  5
9DC8
330
9C33
100
AcDbEntity
  8
1
  6
Continuous
100
AcDbLine
 10
330.6619999999999
 20
94.0193
 30
0.0
 11
331.6619999999999
 21
94.0193
 31
0.0
  0
LINE
  5
9DC9
330
9C33
100
AcDbEntity
  8
1
  6
Continuous
100
AcDbLine
 10
330.6619999999999
 20
101.6189999999999
 30
0.0
 11
331.6619999999999
 21
101.6189999999999
 31
0.0
  0
LINE
  5
9DCA
330
9C33
100
AcDbEntity
  8
1
  6
Continuous
100
AcDbLine
 10
329.8619999999999
 20
102.8189999999999
 30
0.0
 11
330.6619999999999
 21
102.8189999999999
 31
0.0
  0
LINE
  5
9DCB
330
9C33
100
AcDbEntity
  8
1
  6
Continuous
100
AcDbLine
 10
329.8619999999999
 20
92.8193
 30
0.0
 11
330.6619999999999
 21
92.8193
 31
0.0
  0
LINE
  5
9DCC
330
9C33
100
AcDbEntity
  8
4
  6
CENTER
100
AcDbLine
 10
414.5299999999998
 20
140.3189999999999
 30
0.0
 11
407.5299999999998
 21
140.3189999999999
 31
0.0
  0
LINE
  5
9DCD
330
9C33
100
AcDbEntity
  8
4
  6
CENTER
100
AcDbLine
 10
411.0299999999998
 20
143.8189999999998
 30
0.0
 11
411.0299999999998
 21
136.819
 31
0.0
  0
LINE
  5
9DCE
330
9C33
100
AcDbEntity
  8
4
  6
CENTER
100
AcDbLine
 10
414.5299999999998
 20
105.319
 30
0.0
 11
407.5299999999998
 21
105.319
 31
0.0
  0
LINE
  5
9DCF
330
9C33
100
AcDbEntity
  8
4
  6
CENTER
100
AcDbLine
 10
411.0299999999998
 20
108.8189999999999
 30
0.0
 11
411.0299999999998
 21
101.819
 31
0.0
  0
LINE
  5
9DD0
330
9C33
100
AcDbEntity
  8
4
  6
CENTER
100
AcDbLine
 10
166.5689999999999
 20
269.6159999999998
 30
0.0
 11
149.9089999999999
 21
269.6159999999998
 31
0.0
  0
LINE
  5
9DD1
330
9C33
100
AcDbEntity
  8
4
  6
CENTER
100
AcDbLine
 10
158.6929999999999
 20
261.555
 30
0.0
 11
158.6929999999999
 21
285.278
 31
0.0
  0
LINE
  5
9DD2
330
9C33
100
AcDbEntity
  8
1
  6
Continuous
100
AcDbLine
 10
163.4429999999998
 20
269.6159999999998
 30
0.0
 11
163.4429999999998
 21
273.966
 31
0.0
  0
LINE
  5
9DD3
330
9C33
100
AcDbEntity
  8
1
  6
Continuous
100
AcDbLine
 10
153.9429999999998
 20
272.466
 30
0.0
 11
153.9429999999998
 21
273.966
 31
0.0
  0
LINE
  5
9DD4
330
9C33
100
AcDbEntity
  8
1
  6
Continuous
100
AcDbLine
 10
165.6929999999999
 20
273.966
 30
0.0
 11
151.6929999999999
 21
273.966
 31
0.0
  0
LINE
  5
9DD5
330
9C33
100
AcDbEntity
  8
1
  6
Continuous
100
AcDbLine
 10
153.9429999999998
 20
272.466
 30
0.0
 11
161.1929999999999
 21
272.466
 31
0.0
  0
LINE
  5
9DD6
330
9C33
100
AcDbEntity
  8
1
  6
Continuous
100
AcDbLine
 10
161.1929999999999
 20
267.884
 30
0.0
 11
161.1929999999999
 21
272.466
 31
0.0
  0
LINE
  5
9DD7
330
9C33
100
AcDbEntity
  8
1
  6
Continuous
100
AcDbLine
 10
155.293
 20
275.966
 30
0.0
 11
155.293
 21
276.966
 31
0.0
  0
LINE
  5
9DD8
330
9C33
100
AcDbEntity
  8
1
  6
Continuous
100
AcDbLine
 10
162.0929999999999
 20
275.966
 30
0.0
 11
162.0929999999999
 21
276.966
 31
0.0
  0
LINE
  5
9DD9
330
9C33
100
AcDbEntity
  8
1
  6
Continuous
100
AcDbLine
 10
161.284
 20
281.066
 30
0.0
 11
156.1029999999998
 21
281.066
 31
0.0
  0
LINE
  5
9DDA
330
9C33
100
AcDbEntity
  8
1
  6
Continuous
100
AcDbLine
 10
162.0929999999999
 20
276.966
 30
0.0
 11
155.293
 21
276.966
 31
0.0
  0
LINE
  5
9DDB
330
9C33
100
AcDbEntity
  8
1
  6
Continuous
100
AcDbLine
 10
162.094
 20
276.966
 30
0.0
 11
161.7829999999998
 21
280.6089999999999
 31
0.0
  0
LINE
  5
9DDC
330
9C33
100
AcDbEntity
  8
1
  6
Continuous
100
AcDbLine
 10
155.293
 20
276.966
 30
0.0
 11
155.6039999999998
 21
280.6089999999999
 31
0.0
  0
LINE
  5
9DDD
330
9C33
100
AcDbEntity
  8
1
  6
Continuous
100
AcDbLine
 10
156.474
 20
268.466
 30
0.0
 11
155.674
 21
268.466
 31
0.0
  0
LINE
  5
9DDE
330
9C33
100
AcDbEntity
  8
1
  6
Continuous
100
AcDbLine
 10
154.443
 20
267.4949999999999
 30
0.0
 11
155.674
 21
268.466
 31
0.0
  0
LINE
  5
9DDF
330
9C33
100
AcDbEntity
  8
4
  6
CENTER
100
AcDbLine
 10
154.631
 20
208.95
 30
0.0
 11
154.631
 21
167.65
 31
0.0
  0
LINE
  5
9DE0
330
9C33
100
AcDbEntity
  8
1
  6
Continuous
100
AcDbLine
 10
148.631
 20
181.6519999999999
 30
0.0
 11
148.631
 21
173.6609999999998
 31
0.0
  0
LINE
  5
9DE1
330
9C33
100
AcDbEntity
  8
1
  6
Continuous
100
AcDbLine
 10
160.631
 20
181.6519999999999
 30
0.0
 11
160.631
 21
173.8189999999999
 31
0.0
  0
LINE
  5
9DE2
330
9C33
100
AcDbEntity
  8
4
  6
CENTER
100
AcDbLine
 10
165.8409999999998
 20
185.2579999999999
 30
0.0
 11
142.125
 21
185.2579999999999
 31
0.0
  0
LINE
  5
9DE3
330
9C33
100
AcDbEntity
  8
1
  6
Continuous
100
AcDbLine
 10
160.631
 20
177.2579999999999
 30
0.0
 11
148.631
 21
177.2579999999999
 31
0.0
  0
LINE
  5
9DE4
330
9C33
100
AcDbEntity
  8
4
  6
CENTER
100
AcDbLine
 10
154.631
 20
35.70000000000001
 30
0.0
 11
154.631
 21
78.75
 31
0.0
  0
LINE
  5
9DE5
330
9C33
100
AcDbEntity
  8
1
  6
Continuous
100
AcDbLine
 10
160.631
 20
63.9866
 30
0.0
 11
160.631
 21
71.8196
 31
0.0
  0
LINE
  5
9DE6
330
9C33
100
AcDbEntity
  8
1
  6
Continuous
100
AcDbLine
 10
148.631
 20
63.9866
 30
0.0
 11
148.631
 21
71.97709999999998
 31
0.0
  0
LINE
  5
9DE7
330
9C33
100
AcDbEntity
  8
4
  6
CENTER
100
AcDbLine
 10
143.4199999999998
 20
60.3811
 30
0.0
 11
167.1359999999999
 21
60.3811
 31
0.0
  0
LINE
  5
9DE8
330
9C33
100
AcDbEntity
  8
1
  6
Continuous
100
AcDbLine
 10
148.631
 20
68.3811
 30
0.0
 11
160.631
 21
68.3811
 31
0.0
  0
LINE
  5
9DE9
330
9C33
100
AcDbEntity
  8
1
  6
Continuous
100
AcDbLine
 10
159.3809999999998
 20
204.258
 30
0.0
 11
159.3809999999998
 21
186.3579999999998
 31
0.0
  0
LINE
  5
9DEA
330
9C33
100
AcDbEntity
  8
1
  6
Continuous
100
AcDbLine
 10
149.8809999999998
 20
204.258
 30
0.0
 11
149.8809999999998
 21
201.458
 31
0.0
  0
LINE
  5
9DEB
330
9C33
100
AcDbEntity
  8
1
  6
Continuous
100
AcDbLine
 10
159.3809999999998
 20
204.258
 30
0.0
 11
149.8809999999998
 21
204.258
 31
0.0
  0
LINE
  5
9DEC
330
9C33
100
AcDbEntity
  8
1
  6
Continuous
100
AcDbLine
 10
157.7709999999999
 20
201.458
 30
0.0
 11
149.8809999999998
 21
201.458
 31
0.0
  0
LINE
  5
9DED
330
9C33
100
AcDbEntity
  8
1
  6
Continuous
100
AcDbLine
 10
157.8429999999999
 20
192.4579999999999
 30
0.0
 11
149.8809999999998
 21
192.4579999999999
 31
0.0
  0
LINE
  5
9DEE
330
9C33
100
AcDbEntity
  8
1
  6
Continuous
100
AcDbLine
 10
149.8809999999998
 20
192.4579999999999
 30
0.0
 11
149.8809999999998
 21
186.3579999999998
 31
0.0
  0
LINE
  5
9DEF
330
9C33
100
AcDbEntity
  8
1
  6
Continuous
100
AcDbLine
 10
150.381
 20
201.458
 30
0.0
 11
150.381
 21
192.4579999999999
 31
0.0
  0
LINE
  5
9DF0
330
9C33
100
AcDbEntity
  8
1
  6
Continuous
100
AcDbLine
 10
158.031
 20
186.3579999999998
 30
0.0
 11
158.031
 21
184.158
 31
0.0
  0
LINE
  5
9DF1
330
9C33
100
AcDbEntity
  8
1
  6
Continuous
100
AcDbLine
 10
151.231
 20
186.3579999999998
 30
0.0
 11
151.231
 21
184.158
 31
0.0
  0
LINE
  5
9DF2
330
9C33
100
AcDbEntity
  8
1
  6
Continuous
100
AcDbLine
 10
159.3809999999998
 20
184.158
 30
0.0
 11
156.931
 21
184.158
 31
0.0
  0
LINE
  5
9DF3
330
9C33
100
AcDbEntity
  8
1
  6
Continuous
100
AcDbLine
 10
159.3809999999998
 20
186.3579999999998
 30
0.0
 11
156.931
 21
186.3579999999998
 31
0.0
  0
LINE
  5
9DF4
330
9C33
100
AcDbEntity
  8
1
  6
Continuous
100
AcDbLine
 10
152.33
 20
186.3579999999998
 30
0.0
 11
149.8809999999998
 21
186.3579999999998
 31
0.0
  0
LINE
  5
9DF5
330
9C33
100
AcDbEntity
  8
1
  6
Continuous
100
AcDbLine
 10
152.33
 20
184.158
 30
0.0
 11
149.8809999999998
 21
184.158
 31
0.0
  0
LINE
  5
9DF6
330
9C33
100
AcDbEntity
  8
1
  6
Continuous
100
AcDbLine
 10
159.3809999999998
 20
190.6579999999999
 30
0.0
 11
157.1309999999998
 21
190.6579999999999
 31
0.0
  0
LINE
  5
9DF7
330
9C33
100
AcDbEntity
  8
1
  6
Continuous
100
AcDbLine
 10
157.1309999999998
 20
204.258
 30
0.0
 11
157.1309999999998
 21
201.458
 31
0.0
  0
LINE
  5
9DF8
330
9C33
100
AcDbEntity
  8
1
  6
Continuous
100
AcDbLine
 10
157.1309999999998
 20
192.4579999999999
 30
0.0
 11
157.1309999999998
 21
186.3579999999998
 31
0.0
  0
LINE
  5
9DF9
330
9C33
100
AcDbEntity
  8
1
  6
Continuous
100
AcDbLine
 10
149.8809999999998
 20
41.3811
 30
0.0
 11
149.8809999999998
 21
59.2811
 31
0.0
  0
LINE
  5
9DFA
330
9C33
100
AcDbEntity
  8
1
  6
Continuous
100
AcDbLine
 10
159.3809999999998
 20
41.3811
 30
0.0
 11
159.3809999999998
 21
44.1811
 31
0.0
  0
LINE
  5
9DFB
330
9C33
100
AcDbEntity
  8
1
  6
Continuous
100
AcDbLine
 10
149.8809999999998
 20
41.3811
 30
0.0
 11
159.3809999999998
 21
41.3811
 31
0.0
  0
LINE
  5
9DFC
330
9C33
100
AcDbEntity
  8
1
  6
Continuous
100
AcDbLine
 10
151.49
 20
44.1811
 30
0.0
 11
159.3809999999998
 21
44.1811
 31
0.0
  0
LINE
  5
9DFD
330
9C33
100
AcDbEntity
  8
1
  6
Continuous
100
AcDbLine
 10
151.4189999999999
 20
53.1811
 30
0.0
 11
159.3809999999998
 21
53.1811
 31
0.0
  0
LINE
  5
9DFE
330
9C33
100
AcDbEntity
  8
1
  6
Continuous
100
AcDbLine
 10
159.3809999999998
 20
53.1811
 30
0.0
 11
159.3809999999998
 21
59.2811
 31
0.0
  0
LINE
  5
9DFF
330
9C33
100
AcDbEntity
  8
1
  6
Continuous
100
AcDbLine
 10
158.881
 20
44.1811
 30
0.0
 11
158.881
 21
53.1811
 31
0.0
  0
LINE
  5
9E00
330
9C33
100
AcDbEntity
  8
1
  6
Continuous
100
AcDbLine
 10
151.231
 20
59.2811
 30
0.0
 11
151.231
 21
61.48109999999999
 31
0.0
  0
LINE
  5
9E01
330
9C33
100
AcDbEntity
  8
1
  6
Continuous
100
AcDbLine
 10
158.031
 20
59.2811
 30
0.0
 11
158.031
 21
61.48109999999999
 31
0.0
  0
LINE
  5
9E02
330
9C33
100
AcDbEntity
  8
1
  6
Continuous
100
AcDbLine
 10
149.8809999999998
 20
61.48109999999999
 30
0.0
 11
152.33
 21
61.48109999999999
 31
0.0
  0
LINE
  5
9E03
330
9C33
100
AcDbEntity
  8
1
  6
Continuous
100
AcDbLine
 10
149.8809999999998
 20
59.2811
 30
0.0
 11
152.33
 21
59.2811
 31
0.0
  0
LINE
  5
9E04
330
9C33
100
AcDbEntity
  8
1
  6
Continuous
100
AcDbLine
 10
156.931
 20
59.2811
 30
0.0
 11
159.3809999999998
 21
59.2811
 31
0.0
  0
LINE
  5
9E05
330
9C33
100
AcDbEntity
  8
1
  6
Continuous
100
AcDbLine
 10
156.931
 20
61.48109999999999
 30
0.0
 11
159.3809999999998
 21
61.48109999999999
 31
0.0
  0
LINE
  5
9E06
330
9C33
100
AcDbEntity
  8
1
  6
Continuous
100
AcDbLine
 10
149.8809999999998
 20
54.9811
 30
0.0
 11
152.1309999999998
 21
54.9811
 31
0.0
  0
LINE
  5
9E07
330
9C33
100
AcDbEntity
  8
1
  6
Continuous
100
AcDbLine
 10
152.1309999999998
 20
41.3811
 30
0.0
 11
152.1309999999998
 21
44.1811
 31
0.0
  0
LINE
  5
9E08
330
9C33
100
AcDbEntity
  8
1
  6
Continuous
100
AcDbLine
 10
152.1309999999998
 20
53.1811
 30
0.0
 11
152.1309999999998
 21
59.2811
 31
0.0
  0
LINE
  5
9E09
330
9C33
100
AcDbEntity
  8
1
  6
Continuous
100
AcDbLine
 10
431.0929999999998
 20
77.3193
 30
0.0
 11
451.5299999999998
 21
77.3193
 31
0.0
  0
LINE
  5
9E0A
330
9C33
100
AcDbEntity
  8
1
  6
Continuous
100
AcDbLine
 10
431.0929999999998
 20
168.3189999999999
 30
0.0
 11
451.5299999999998
 21
168.3189999999999
 31
0.0
  0
LINE
  5
9E0B
330
9C33
100
AcDbEntity
  8
1
  6
Continuous
100
AcDbLine
 10
22.8337
 20
53.3811
 30
0.0
 11
20.83369999999999
 21
53.3811
 31
0.0
  0
LINE
  5
9E0C
330
9C33
100
AcDbEntity
  8
1
  6
Continuous
100
AcDbLine
 10
20.83369999999999
 20
53.3811
 30
0.0
 11
20.83369999999999
 21
68.3811
 31
0.0
  0
LINE
  5
9E0D
330
9C33
100
AcDbEntity
  8
1
  6
Continuous
100
AcDbLine
 10
25.1337
 20
70.3811
 30
0.0
 11
25.1337
 21
77.8193
 31
0.0
  0
LINE
  5
9E0E
330
9C33
100
AcDbEntity
  8
4
  6
CENTER
100
AcDbLine
 10
29.1556
 20
60.3811
 30
0.0
 11
12.0832
 21
60.3811
 31
0.0
  0
LINE
  5
9E0F
330
9C33
100
AcDbEntity
  8
1
  6
Continuous
100
AcDbLine
 10
22.8337
 20
63.9866
 30
0.0
 11
20.83369999999999
 21
63.9866
 31
0.0
  0
LINE
  5
9E10
330
9C33
100
AcDbEntity
  8
1
  6
Continuous
100
AcDbLine
 10
23.1337
 20
68.3811
 30
0.0
 11
22.8337
 21
68.3811
 31
0.0
  0
LINE
  5
9E11
330
9C33
100
AcDbEntity
  8
1
  6
Continuous
100
AcDbLine
 10
23.1337
 20
70.3811
 30
0.0
 11
23.1337
 21
77.8193
 31
0.0
  0
LINE
  5
9E12
330
9C33
100
AcDbEntity
  8
1
  6
Continuous
100
AcDbLine
 10
23.1337
 20
70.3811
 30
0.0
 11
22.8337
 21
70.3811
 31
0.0
  0
LINE
  5
9E13
330
9C33
100
AcDbEntity
  8
1
  6
Continuous
100
AcDbLine
 10
22.8337
 20
192.2579999999999
 30
0.0
 11
20.83369999999999
 21
192.2579999999999
 31
0.0
  0
LINE
  5
9E14
330
9C33
100
AcDbEntity
  8
1
  6
Continuous
100
AcDbLine
 10
20.83369999999999
 20
192.2579999999999
 30
0.0
 11
20.83369999999999
 21
177.2579999999999
 31
0.0
  0
LINE
  5
9E15
330
9C33
100
AcDbEntity
  8
1
  6
Continuous
100
AcDbLine
 10
25.1337
 20
175.2579999999999
 30
0.0
 11
25.1337
 21
167.8189999999999
 31
0.0
  0
LINE
  5
9E16
330
9C33
100
AcDbEntity
  8
4
  6
CENTER
100
AcDbLine
 10
28.3489
 20
185.2579999999999
 30
0.0
 11
13.21679999999999
 21
185.2579999999999
 31
0.0
  0
LINE
  5
9E17
330
9C33
100
AcDbEntity
  8
1
  6
Continuous
100
AcDbLine
 10
22.8337
 20
181.6519999999999
 30
0.0
 11
20.83369999999999
 21
181.6519999999999
 31
0.0
  0
LINE
  5
9E18
330
9C33
100
AcDbEntity
  8
1
  6
Continuous
100
AcDbLine
 10
23.1337
 20
177.2579999999999
 30
0.0
 11
22.8337
 21
177.2579999999999
 31
0.0
  0
LINE
  5
9E19
330
9C33
100
AcDbEntity
  8
1
  6
Continuous
100
AcDbLine
 10
23.1337
 20
175.2579999999999
 30
0.0
 11
23.1337
 21
167.8189999999999
 31
0.0
  0
LINE
  5
9E1A
330
9C33
100
AcDbEntity
  8
1
  6
Continuous
100
AcDbLine
 10
23.1337
 20
175.2579999999999
 30
0.0
 11
22.8337
 21
175.2579999999999
 31
0.0
  0
LINE
  5
9E1B
330
9C33
100
AcDbEntity
  8
1
  6
Continuous
100
AcDbLine
 10
15.7337
 20
187.9459999999999
 30
0.0
 11
15.7337
 21
182.5699999999999
 31
0.0
  0
LINE
  5
9E1C
330
9C33
100
AcDbEntity
  8
1
  6
Continuous
100
AcDbLine
 10
29.8337
 20
204.258
 30
0.0
 11
22.8337
 21
204.258
 31
0.0
  0
LINE
  5
9E1D
330
9C33
100
AcDbEntity
  8
4
  6
CENTER
100
AcDbLine
 10
26.9337
 20
208.95
 30
0.0
 11
26.9337
 21
186.46
 31
0.0
  0
LINE
  5
9E1E
330
9C33
100
AcDbEntity
  8
1
  6
Continuous
100
AcDbLine
 10
31.9337
 20
201.458
 30
0.0
 11
28.3337
 21
201.458
 31
0.0
  0
LINE
  5
9E1F
330
9C33
100
AcDbEntity
  8
1
  6
Continuous
100
AcDbLine
 10
31.9337
 20
192.4579999999999
 30
0.0
 11
28.3337
 21
192.4579999999999
 31
0.0
  0
LINE
  5
9E20
330
9C33
100
AcDbEntity
  8
1
  6
Continuous
100
AcDbLine
 10
29.8337
 20
204.258
 30
0.0
 11
29.8337
 21
201.458
 31
0.0
  0
LINE
  5
9E21
330
9C33
100
AcDbEntity
  8
1
  6
Continuous
100
AcDbLine
 10
29.8337
 20
192.4579999999999
 30
0.0
 11
29.8337
 21
190.6579999999999
 31
0.0
  0
LINE
  5
9E22
330
9C33
100
AcDbEntity
  8
1
  6
Continuous
100
AcDbLine
 10
24.3337
 20
201.458
 30
0.0
 11
22.8337
 21
201.458
 31
0.0
  0
LINE
  5
9E23
330
9C33
100
AcDbEntity
  8
1
  6
Continuous
100
AcDbLine
 10
24.3337
 20
192.4579999999999
 30
0.0
 11
22.8337
 21
192.4579999999999
 31
0.0
  0
LINE
  5
9E24
330
9C33
100
AcDbEntity
  8
1
  6
Continuous
100
AcDbLine
 10
24.3337
 20
180.2579999999999
 30
0.0
 11
22.8337
 21
180.2579999999999
 31
0.0
  0
LINE
  5
9E25
330
9C33
100
AcDbEntity
  8
1
  6
Continuous
100
AcDbLine
 10
24.3337
 20
184.158
 30
0.0
 11
22.8337
 21
184.158
 31
0.0
  0
LINE
  5
9E26
330
9C33
100
AcDbEntity
  8
1
  6
Continuous
100
AcDbLine
 10
24.3337
 20
186.3579999999998
 30
0.0
 11
22.8337
 21
186.3579999999998
 31
0.0
  0
LINE
  5
9E27
330
9C33
100
AcDbEntity
  8
1
  6
Continuous
100
AcDbLine
 10
29.8337
 20
190.6579999999999
 30
0.0
 11
28.3337
 21
190.6579999999999
 31
0.0
  0
LINE
  5
9E28
330
9C33
100
AcDbEntity
  8
1
  6
Continuous
100
AcDbLine
 10
20.83369999999999
 20
188.7579999999999
 30
0.0
 11
19.8337
 21
188.7579999999999
 31
0.0
  0
LINE
  5
9E29
330
9C33
100
AcDbEntity
  8
1
  6
Continuous
100
AcDbLine
 10
20.83369999999999
 20
181.7579999999999
 30
0.0
 11
19.8337
 21
181.7579999999999
 31
0.0
  0
LINE
  5
9E2A
330
9C33
100
AcDbEntity
  8
1
  6
Continuous
100
AcDbLine
 10
19.8337
 20
181.0579999999999
 30
0.0
 11
19.2337
 21
181.0579999999999
 31
0.0
  0
LINE
  5
9E2B
330
9C33
100
AcDbEntity
  8
1
  6
Continuous
100
AcDbLine
 10
19.8337
 20
189.4579999999999
 30
0.0
 11
19.2337
 21
189.4579999999999
 31
0.0
  0
LINE
  5
9E2C
330
9C33
100
AcDbEntity
  8
1
  6
Continuous
100
AcDbLine
 10
19.8337
 20
184.352
 30
0.0
 11
19.8337
 21
181.0579999999999
 31
0.0
  0
LINE
  5
9E2D
330
9C33
100
AcDbEntity
  8
1
  6
Continuous
100
AcDbLine
 10
19.8337
 20
189.4579999999999
 30
0.0
 11
19.8337
 21
186.1629999999999
 31
0.0
  0
LINE
  5
9E2E
330
9C33
100
AcDbEntity
  8
1
  6
Continuous
100
AcDbLine
 10
19.2337
 20
189.4579999999999
 30
0.0
 11
16.0776
 21
188.4209999999999
 31
0.0
  0
LINE
  5
9E2F
330
9C33
100
AcDbEntity
  8
1
  6
Continuous
100
AcDbLine
 10
19.2337
 20
181.0579999999999
 30
0.0
 11
16.0776
 21
182.095
 31
0.0
  0
LINE
  5
9E30
330
9C33
100
AcDbEntity
  8
1
  6
Continuous
100
AcDbLine
 10
31.9337
 20
201.458
 30
0.0
 11
31.9337
 21
192.4579999999999
 31
0.0
  0
LINE
  5
9E31
330
9C33
100
AcDbEntity
  8
1
  6
Continuous
100
AcDbLine
 10
28.3337
 20
201.458
 30
0.0
 11
28.3337
 21
192.4579999999999
 31
0.0
  0
LINE
  5
9E32
330
9C33
100
AcDbEntity
  8
1
  6
Continuous
100
AcDbLine
 10
28.3337
 20
190.6579999999999
 30
0.0
 11
24.3337
 21
186.6579999999999
 31
0.0
  0
LINE
  5
9E33
330
9C33
100
AcDbEntity
  8
1
  6
Continuous
100
AcDbLine
 10
22.8337
 20
204.258
 30
0.0
 11
22.8337
 21
177.235
 31
0.0
  0
LINE
  5
9E34
330
9C33
100
AcDbEntity
  8
1
  6
Continuous
100
AcDbLine
 10
24.3337
 20
184.158
 30
0.0
 11
24.3337
 21
180.2579999999999
 31
0.0
  0
LINE
  5
9E35
330
9C33
100
AcDbEntity
  8
1
  6
Continuous
100
AcDbLine
 10
24.3337
 20
204.258
 30
0.0
 11
24.3337
 21
201.458
 31
0.0
  0
LINE
  5
9E36
330
9C33
100
AcDbEntity
  8
1
  6
Continuous
100
AcDbLine
 10
24.3337
 20
192.4579999999999
 30
0.0
 11
24.3337
 21
186.3579999999998
 31
0.0
  0
LINE
  5
9E37
330
9C33
100
AcDbEntity
  8
1
  6
Continuous
100
AcDbLine
 10
15.7337
 20
57.6931
 30
0.0
 11
15.7337
 21
63.0691
 31
0.0
  0
LINE
  5
9E38
330
9C33
100
AcDbEntity
  8
1
  6
Continuous
100
AcDbLine
 10
29.8337
 20
41.3811
 30
0.0
 11
22.8337
 21
41.3811
 31
0.0
  0
LINE
  5
9E39
330
9C33
100
AcDbEntity
  8
4
  6
CENTER
100
AcDbLine
 10
26.9337
 20
35.70000000000001
 30
0.0
 11
26.9337
 21
58.7862
 31
0.0
  0
LINE
  5
9E3A
330
9C33
100
AcDbEntity
  8
1
  6
Continuous
100
AcDbLine
 10
31.9337
 20
44.1811
 30
0.0
 11
29.8337
 21
44.1811
 31
0.0
  0
LINE
  5
9E3B
330
9C33
100
AcDbEntity
  8
1
  6
Continuous
100
AcDbLine
 10
31.9337
 20
53.1811
 30
0.0
 11
29.8337
 21
53.1811
 31
0.0
  0
LINE
  5
9E3C
330
9C33
100
AcDbEntity
  8
1
  6
Continuous
100
AcDbLine
 10
29.8337
 20
41.3811
 30
0.0
 11
29.8337
 21
44.1811
 31
0.0
  0
LINE
  5
9E3D
330
9C33
100
AcDbEntity
  8
1
  6
Continuous
100
AcDbLine
 10
29.8337
 20
53.1811
 30
0.0
 11
29.8337
 21
54.9811
 31
0.0
  0
LINE
  5
9E3E
330
9C33
100
AcDbEntity
  8
1
  6
Continuous
100
AcDbLine
 10
24.3337
 20
65.3811
 30
0.0
 11
22.8337
 21
65.3811
 31
0.0
  0
LINE
  5
9E3F
330
9C33
100
AcDbEntity
  8
1
  6
Continuous
100
AcDbLine
 10
24.3337
 20
61.48109999999999
 30
0.0
 11
22.8337
 21
61.48109999999999
 31
0.0
  0
LINE
  5
9E40
330
9C33
100
AcDbEntity
  8
1
  6
Continuous
100
AcDbLine
 10
24.3337
 20
59.2811
 30
0.0
 11
22.8337
 21
59.2811
 31
0.0
  0
LINE
  5
9E41
330
9C33
100
AcDbEntity
  8
1
  6
Continuous
100
AcDbLine
 10
29.8337
 20
54.9811
 30
0.0
 11
28.3337
 21
54.9811
 31
0.0
  0
LINE
  5
9E42
330
9C33
100
AcDbEntity
  8
1
  6
Continuous
100
AcDbLine
 10
20.83369999999999
 20
56.8811
 30
0.0
 11
19.8337
 21
56.8811
 31
0.0
  0
LINE
  5
9E43
330
9C33
100
AcDbEntity
  8
1
  6
Continuous
100
AcDbLine
 10
20.83369999999999
 20
63.88110000000001
 30
0.0
 11
19.8337
 21
63.88110000000001
 31
0.0
  0
LINE
  5
9E44
330
9C33
100
AcDbEntity
  8
1
  6
Continuous
100
AcDbLine
 10
19.8337
 20
64.58110000000001
 30
0.0
 11
19.2337
 21
64.58110000000001
 31
0.0
  0
LINE
  5
9E45
330
9C33
100
AcDbEntity
  8
1
  6
Continuous
100
AcDbLine
 10
19.8337
 20
56.1811
 30
0.0
 11
19.2337
 21
56.1811
 31
0.0
  0
LINE
  5
9E46
330
9C33
100
AcDbEntity
  8
1
  6
Continuous
100
AcDbLine
 10
19.8337
 20
61.2865
 30
0.0
 11
19.8337
 21
64.58110000000001
 31
0.0
  0
LINE
  5
9E47
330
9C33
100
AcDbEntity
  8
1
  6
Continuous
100
AcDbLine
 10
19.8337
 20
56.1811
 30
0.0
 11
19.8337
 21
59.4756
 31
0.0
  0
LINE
  5
9E48
330
9C33
100
AcDbEntity
  8
1
  6
Continuous
100
AcDbLine
 10
19.2337
 20
56.1811
 30
0.0
 11
16.0776
 21
57.2181
 31
0.0
  0
LINE
  5
9E49
330
9C33
100
AcDbEntity
  8
1
  6
Continuous
100
AcDbLine
 10
19.2337
 20
64.58110000000001
 30
0.0
 11
16.0776
 21
63.5441
 31
0.0
  0
LINE
  5
9E4A
330
9C33
100
AcDbEntity
  8
1
  6
Continuous
100
AcDbLine
 10
31.9337
 20
44.1811
 30
0.0
 11
31.9337
 21
53.1811
 31
0.0
  0
LINE
  5
9E4B
330
9C33
100
AcDbEntity
  8
1
  6
Continuous
100
AcDbLine
 10
28.3337
 20
54.9811
 30
0.0
 11
24.3337
 21
58.98109999999999
 31
0.0
  0
LINE
  5
9E4C
330
9C33
100
AcDbEntity
  8
1
  6
Continuous
100
AcDbLine
 10
22.8337
 20
41.3811
 30
0.0
 11
22.8337
 21
68.3811
 31
0.0
  0
LINE
  5
9E4D
330
9C33
100
AcDbEntity
  8
1
  6
Continuous
100
AcDbLine
 10
24.3337
 20
61.48109999999999
 30
0.0
 11
24.3337
 21
65.3811
 31
0.0
  0
LINE
  5
9E4E
330
9C33
100
AcDbEntity
  8
1
  6
Continuous
100
AcDbLine
 10
24.3337
 20
58.98109999999999
 30
0.0
 11
24.3337
 21
59.2811
 31
0.0
  0
LINE
  5
9E4F
330
9C33
100
AcDbEntity
  8
1
  6
Continuous
100
AcDbLine
 10
20.83369999999999
 20
61.3541
 30
0.0
 11
18.083
 21
61.1795
 31
0.0
  0
LINE
  5
9E50
330
9C33
100
AcDbEntity
  8
1
  6
Continuous
100
AcDbLine
 10
20.83369999999999
 20
59.408
 30
0.0
 11
18.083
 21
59.5827
 31
0.0
  0
LINE
  5
9E51
330
9C33
100
AcDbEntity
  8
1
  6
Continuous
100
AcDbLine
 10
20.83369999999999
 20
186.2309999999999
 30
0.0
 11
18.083
 21
186.0559999999999
 31
0.0
  0
LINE
  5
9E52
330
9C33
100
AcDbEntity
  8
1
  6
Continuous
100
AcDbLine
 10
20.83369999999999
 20
184.285
 30
0.0
 11
18.083
 21
184.459
 31
0.0
  0
LINE
  5
9E53
330
9C33
100
AcDbEntity
  8
1
  6
Continuous
100
AcDbLine
 10
278.553
 20
53.3811
 30
0.0
 11
280.553
 21
53.3811
 31
0.0
  0
LINE
  5
9E54
330
9C33
100
AcDbEntity
  8
1
  6
Continuous
100
AcDbLine
 10
278.553
 20
41.3811
 30
0.0
 11
278.553
 21
68.3811
 31
0.0
  0
LINE
  5
9E55
330
9C33
100
AcDbEntity
  8
1
  6
Continuous
100
AcDbLine
 10
276.2529999999998
 20
70.3811
 30
0.0
 11
276.2529999999998
 21
77.8193
 31
0.0
  0
LINE
  5
9E56
330
9C33
100
AcDbEntity
  8
4
  6
CENTER
100
AcDbLine
 10
271.778
 20
60.3811
 30
0.0
 11
288.153
 21
60.3811
 31
0.0
  0
LINE
  5
9E57
330
9C33
100
AcDbEntity
  8
1
  6
Continuous
100
AcDbLine
 10
278.553
 20
63.9866
 30
0.0
 11
280.553
 21
63.9866
 31
0.0
  0
LINE
  5
9E58
330
9C33
100
AcDbEntity
  8
1
  6
Continuous
100
AcDbLine
 10
278.2529999999998
 20
68.3811
 30
0.0
 11
278.553
 21
68.3811
 31
0.0
  0
LINE
  5
9E59
330
9C33
100
AcDbEntity
  8
1
  6
Continuous
100
AcDbLine
 10
278.2529999999998
 20
70.3811
 30
0.0
 11
278.2529999999998
 21
77.8193
 31
0.0
  0
LINE
  5
9E5A
330
9C33
100
AcDbEntity
  8
1
  6
Continuous
100
AcDbLine
 10
278.2529999999998
 20
70.3811
 30
0.0
 11
278.553
 21
70.3811
 31
0.0
  0
LINE
  5
9E5B
330
9C33
100
AcDbEntity
  8
1
  6
Continuous
100
AcDbLine
 10
278.553
 20
192.2579999999999
 30
0.0
 11
280.553
 21
192.2579999999999
 31
0.0
  0
LINE
  5
9E5C
330
9C33
100
AcDbEntity
  8
1
  6
Continuous
100
AcDbLine
 10
280.553
 20
192.2579999999999
 30
0.0
 11
280.553
 21
177.2579999999999
 31
0.0
  0
LINE
  5
9E5D
330
9C33
100
AcDbEntity
  8
1
  6
Continuous
100
AcDbLine
 10
276.2529999999998
 20
175.2579999999999
 30
0.0
 11
276.2529999999998
 21
167.8189999999999
 31
0.0
  0
LINE
  5
9E5E
330
9C33
100
AcDbEntity
  8
4
  6
CENTER
100
AcDbLine
 10
272.9729999999999
 20
185.2579999999999
 30
0.0
 11
287.8229999999998
 21
185.2579999999999
 31
0.0
  0
LINE
  5
9E5F
330
9C33
100
AcDbEntity
  8
1
  6
Continuous
100
AcDbLine
 10
278.553
 20
181.6519999999999
 30
0.0
 11
280.553
 21
181.6519999999999
 31
0.0
  0
LINE
  5
9E60
330
9C33
100
AcDbEntity
  8
1
  6
Continuous
100
AcDbLine
 10
278.2529999999998
 20
177.2579999999999
 30
0.0
 11
278.553
 21
177.2579999999999
 31
0.0
  0
LINE
  5
9E61
330
9C33
100
AcDbEntity
  8
1
  6
Continuous
100
AcDbLine
 10
278.2529999999998
 20
175.2579999999999
 30
0.0
 11
278.2529999999998
 21
167.8189999999999
 31
0.0
  0
LINE
  5
9E62
330
9C33
100
AcDbEntity
  8
1
  6
Continuous
100
AcDbLine
 10
278.2529999999998
 20
175.2579999999999
 30
0.0
 11
278.553
 21
175.2579999999999
 31
0.0
  0
LINE
  5
9E63
330
9C33
100
AcDbEntity
  8
1
  6
Continuous
100
AcDbLine
 10
285.653
 20
57.6931
 30
0.0
 11
285.653
 21
63.0691
 31
0.0
  0
LINE
  5
9E64
330
9C33
100
AcDbEntity
  8
1
  6
Continuous
100
AcDbLine
 10
271.553
 20
41.3811
 30
0.0
 11
278.553
 21
41.3811
 31
0.0
  0
LINE
  5
9E65
330
9C33
100
AcDbEntity
  8
4
  6
CENTER
100
AcDbLine
 10
274.4529999999999
 20
35.70000000000001
 30
0.0
 11
274.4529999999999
 21
58.2359
 31
0.0
  0
LINE
  5
9E66
330
9C33
100
AcDbEntity
  8
1
  6
Continuous
100
AcDbLine
 10
269.4529999999999
 20
44.1811
 30
0.0
 11
273.0529999999999
 21
44.1811
 31
0.0
  0
LINE
  5
9E67
330
9C33
100
AcDbEntity
  8
1
  6
Continuous
100
AcDbLine
 10
269.4529999999999
 20
53.1811
 30
0.0
 11
273.0529999999999
 21
53.1811
 31
0.0
  0
LINE
  5
9E68
330
9C33
100
AcDbEntity
  8
1
  6
Continuous
100
AcDbLine
 10
271.553
 20
41.3811
 30
0.0
 11
271.553
 21
44.1811
 31
0.0
  0
LINE
  5
9E69
330
9C33
100
AcDbEntity
  8
1
  6
Continuous
100
AcDbLine
 10
271.553
 20
53.1811
 30
0.0
 11
271.553
 21
54.9811
 31
0.0
  0
LINE
  5
9E6A
330
9C33
100
AcDbEntity
  8
1
  6
Continuous
100
AcDbLine
 10
277.0529999999999
 20
44.1811
 30
0.0
 11
278.553
 21
44.1811
 31
0.0
  0
LINE
  5
9E6B
330
9C33
100
AcDbEntity
  8
1
  6
Continuous
100
AcDbLine
 10
277.0529999999999
 20
53.1811
 30
0.0
 11
278.553
 21
53.1811
 31
0.0
  0
LINE
  5
9E6C
330
9C33
100
AcDbEntity
  8
1
  6
Continuous
100
AcDbLine
 10
277.0529999999999
 20
65.3811
 30
0.0
 11
278.553
 21
65.3811
 31
0.0
  0
LINE
  5
9E6D
330
9C33
100
AcDbEntity
  8
1
  6
Continuous
100
AcDbLine
 10
277.0529999999999
 20
61.48109999999999
 30
0.0
 11
278.553
 21
61.48109999999999
 31
0.0
  0
LINE
  5
9E6E
330
9C33
100
AcDbEntity
  8
1
  6
Continuous
100
AcDbLine
 10
277.0529999999999
 20
59.2811
 30
0.0
 11
278.553
 21
59.2811
 31
0.0
  0
LINE
  5
9E6F
330
9C33
100
AcDbEntity
  8
1
  6
Continuous
100
AcDbLine
 10
271.553
 20
54.9811
 30
0.0
 11
273.0529999999999
 21
54.9811
 31
0.0
  0
LINE
  5
9E70
330
9C33
100
AcDbEntity
  8
1
  6
Continuous
100
AcDbLine
 10
280.553
 20
56.8811
 30
0.0
 11
281.5529999999998
 21
56.8811
 31
0.0
  0
LINE
  5
9E71
330
9C33
100
AcDbEntity
  8
1
  6
Continuous
100
AcDbLine
 10
280.553
 20
63.88110000000001
 30
0.0
 11
281.5529999999998
 21
63.88110000000001
 31
0.0
  0
LINE
  5
9E72
330
9C33
100
AcDbEntity
  8
1
  6
Continuous
100
AcDbLine
 10
281.5529999999998
 20
64.58110000000001
 30
0.0
 11
282.153
 21
64.58110000000001
 31
0.0
  0
LINE
  5
9E73
330
9C33
100
AcDbEntity
  8
1
  6
Continuous
100
AcDbLine
 10
281.5529999999998
 20
56.1811
 30
0.0
 11
282.153
 21
56.1811
 31
0.0
  0
LINE
  5
9E74
330
9C33
100
AcDbEntity
  8
1
  6
Continuous
100
AcDbLine
 10
281.5529999999998
 20
61.2865
 30
0.0
 11
281.5529999999998
 21
64.58110000000001
 31
0.0
  0
LINE
  5
9E75
330
9C33
100
AcDbEntity
  8
1
  6
Continuous
100
AcDbLine
 10
281.5529999999998
 20
56.1811
 30
0.0
 11
281.5529999999998
 21
59.4756
 31
0.0
  0
LINE
  5
9E76
330
9C33
100
AcDbEntity
  8
1
  6
Continuous
100
AcDbLine
 10
282.153
 20
56.1811
 30
0.0
 11
285.309
 21
57.2181
 31
0.0
  0
LINE
  5
9E77
330
9C33
100
AcDbEntity
  8
1
  6
Continuous
100
AcDbLine
 10
282.153
 20
64.58110000000001
 30
0.0
 11
285.309
 21
63.5441
 31
0.0
  0
LINE
  5
9E78
330
9C33
100
AcDbEntity
  8
1
  6
Continuous
100
AcDbLine
 10
269.4529999999999
 20
44.1811
 30
0.0
 11
269.4529999999999
 21
53.1811
 31
0.0
  0
LINE
  5
9E79
330
9C33
100
AcDbEntity
  8
1
  6
Continuous
100
AcDbLine
 10
273.0529999999999
 20
44.1811
 30
0.0
 11
273.0529999999999
 21
53.1811
 31
0.0
  0
LINE
  5
9E7A
330
9C33
100
AcDbEntity
  8
1
  6
Continuous
100
AcDbLine
 10
273.0529999999999
 20
54.9811
 30
0.0
 11
277.0529999999999
 21
58.98109999999999
 31
0.0
  0
LINE
  5
9E7B
330
9C33
100
AcDbEntity
  8
1
  6
Continuous
100
AcDbLine
 10
277.0529999999999
 20
61.48109999999999
 30
0.0
 11
277.0529999999999
 21
65.3811
 31
0.0
  0
LINE
  5
9E7C
330
9C33
100
AcDbEntity
  8
1
  6
Continuous
100
AcDbLine
 10
277.0529999999999
 20
41.3811
 30
0.0
 11
277.0529999999999
 21
44.1811
 31
0.0
  0
LINE
  5
9E7D
330
9C33
100
AcDbEntity
  8
1
  6
Continuous
100
AcDbLine
 10
277.0529999999999
 20
53.1811
 30
0.0
 11
277.0529999999999
 21
59.2811
 31
0.0
  0
LINE
  5
9E7E
330
9C33
100
AcDbEntity
  8
1
  6
Continuous
100
AcDbLine
 10
285.653
 20
187.9459999999999
 30
0.0
 11
285.653
 21
182.5699999999999
 31
0.0
  0
LINE
  5
9E7F
330
9C33
100
AcDbEntity
  8
1
  6
Continuous
100
AcDbLine
 10
271.553
 20
204.258
 30
0.0
 11
278.553
 21
204.258
 31
0.0
  0
LINE
  5
9E80
330
9C33
100
AcDbEntity
  8
4
  6
CENTER
100
AcDbLine
 10
274.4529999999999
 20
208.95
 30
0.0
 11
274.4529999999999
 21
186.9479999999999
 31
0.0
  0
LINE
  5
9E81
330
9C33
100
AcDbEntity
  8
1
  6
Continuous
100
AcDbLine
 10
269.4529999999999
 20
201.458
 30
0.0
 11
271.553
 21
201.458
 31
0.0
  0
LINE
  5
9E82
330
9C33
100
AcDbEntity
  8
1
  6
Continuous
100
AcDbLine
 10
269.4529999999999
 20
192.4579999999999
 30
0.0
 11
271.553
 21
192.4579999999999
 31
0.0
  0
LINE
  5
9E83
330
9C33
100
AcDbEntity
  8
1
  6
Continuous
100
AcDbLine
 10
271.553
 20
204.258
 30
0.0
 11
271.553
 21
201.458
 31
0.0
  0
LINE
  5
9E84
330
9C33
100
AcDbEntity
  8
1
  6
Continuous
100
AcDbLine
 10
271.553
 20
192.4579999999999
 30
0.0
 11
271.553
 21
190.6579999999999
 31
0.0
  0
LINE
  5
9E85
330
9C33
100
AcDbEntity
  8
1
  6
Continuous
100
AcDbLine
 10
277.0529999999999
 20
180.2579999999999
 30
0.0
 11
278.553
 21
180.2579999999999
 31
0.0
  0
LINE
  5
9E86
330
9C33
100
AcDbEntity
  8
1
  6
Continuous
100
AcDbLine
 10
277.0529999999999
 20
184.158
 30
0.0
 11
278.553
 21
184.158
 31
0.0
  0
LINE
  5
9E87
330
9C33
100
AcDbEntity
  8
1
  6
Continuous
100
AcDbLine
 10
277.0529999999999
 20
186.3579999999998
 30
0.0
 11
278.553
 21
186.3579999999998
 31
0.0
  0
LINE
  5
9E88
330
9C33
100
AcDbEntity
  8
1
  6
Continuous
100
AcDbLine
 10
271.553
 20
190.6579999999999
 30
0.0
 11
273.0529999999999
 21
190.6579999999999
 31
0.0
  0
LINE
  5
9E89
330
9C33
100
AcDbEntity
  8
1
  6
Continuous
100
AcDbLine
 10
280.553
 20
188.7579999999999
 30
0.0
 11
281.5529999999998
 21
188.7579999999999
 31
0.0
  0
LINE
  5
9E8A
330
9C33
100
AcDbEntity
  8
1
  6
Continuous
100
AcDbLine
 10
280.553
 20
181.7579999999999
 30
0.0
 11
281.5529999999998
 21
181.7579999999999
 31
0.0
  0
LINE
  5
9E8B
330
9C33
100
AcDbEntity
  8
1
  6
Continuous
100
AcDbLine
 10
281.5529999999998
 20
181.0579999999999
 30
0.0
 11
282.153
 21
181.0579999999999
 31
0.0
  0
LINE
  5
9E8C
330
9C33
100
AcDbEntity
  8
1
  6
Continuous
100
AcDbLine
 10
281.5529999999998
 20
189.4579999999999
 30
0.0
 11
282.153
 21
189.4579999999999
 31
0.0
  0
LINE
  5
9E8D
330
9C33
100
AcDbEntity
  8
1
  6
Continuous
100
AcDbLine
 10
281.5529999999998
 20
184.352
 30
0.0
 11
281.5529999999998
 21
181.0579999999999
 31
0.0
  0
LINE
  5
9E8E
330
9C33
100
AcDbEntity
  8
1
  6
Continuous
100
AcDbLine
 10
281.5529999999998
 20
189.4579999999999
 30
0.0
 11
281.5529999999998
 21
186.1629999999999
 31
0.0
  0
LINE
  5
9E8F
330
9C33
100
AcDbEntity
  8
1
  6
Continuous
100
AcDbLine
 10
282.153
 20
189.4579999999999
 30
0.0
 11
285.309
 21
188.4209999999999
 31
0.0
  0
LINE
  5
9E90
330
9C33
100
AcDbEntity
  8
1
  6
Continuous
100
AcDbLine
 10
282.153
 20
181.0579999999999
 30
0.0
 11
285.309
 21
182.095
 31
0.0
  0
LINE
  5
9E91
330
9C33
100
AcDbEntity
  8
1
  6
Continuous
100
AcDbLine
 10
269.4529999999999
 20
201.458
 30
0.0
 11
269.4529999999999
 21
192.4579999999999
 31
0.0
  0
LINE
  5
9E92
330
9C33
100
AcDbEntity
  8
1
  6
Continuous
100
AcDbLine
 10
273.0529999999999
 20
190.6579999999999
 30
0.0
 11
277.0529999999999
 21
186.6579999999999
 31
0.0
  0
LINE
  5
9E93
330
9C33
100
AcDbEntity
  8
1
  6
Continuous
100
AcDbLine
 10
278.553
 20
204.258
 30
0.0
 11
278.553
 21
177.2579999999999
 31
0.0
  0
LINE
  5
9E94
330
9C33
100
AcDbEntity
  8
1
  6
Continuous
100
AcDbLine
 10
277.0529999999999
 20
184.158
 30
0.0
 11
277.0529999999999
 21
180.2579999999999
 31
0.0
  0
LINE
  5
9E95
330
9C33
100
AcDbEntity
  8
1
  6
Continuous
100
AcDbLine
 10
277.0529999999999
 20
186.6579999999999
 30
0.0
 11
277.0529999999999
 21
186.3579999999998
 31
0.0
  0
LINE
  5
9E96
330
9C33
100
AcDbEntity
  8
1
  6
Continuous
100
AcDbLine
 10
280.553
 20
184.285
 30
0.0
 11
283.304
 21
184.459
 31
0.0
  0
LINE
  5
9E97
330
9C33
100
AcDbEntity
  8
1
  6
Continuous
100
AcDbLine
 10
280.553
 20
186.2309999999999
 30
0.0
 11
283.304
 21
186.0559999999999
 31
0.0
  0
LINE
  5
9E98
330
9C33
100
AcDbEntity
  8
1
  6
Continuous
100
AcDbLine
 10
280.553
 20
59.40809999999999
 30
0.0
 11
283.304
 21
59.5827
 31
0.0
  0
LINE
  5
9E99
330
9C33
100
AcDbEntity
  8
1
  6
Continuous
100
AcDbLine
 10
280.553
 20
61.3541
 30
0.0
 11
283.304
 21
61.1795
 31
0.0
  0
LINE
  5
9E9A
330
9C33
100
AcDbEntity
  8
1
  6
Continuous
100
AcDbLine
 10
280.553
 20
53.3811
 30
0.0
 11
280.553
 21
68.3811
 31
0.0
  0
LINE
  5
9E9B
330
9C33
100
AcDbEntity
  8
1
  6
Continuous
100
AcDbLine
 10
165.6929999999999
 20
273.966
 30
0.0
 11
165.6929999999999
 21
275.966
 31
0.0
  0
LINE
  5
9E9C
330
9C33
100
AcDbEntity
  8
1
  6
Continuous
100
AcDbLine
 10
165.6929999999999
 20
275.966
 30
0.0
 11
151.6929999999999
 21
275.966
 31
0.0
  0
LINE
  5
9E9D
330
9C33
100
AcDbEntity
  8
1
  6
Continuous
100
AcDbLine
 10
163.4429999999998
 20
270.616
 30
0.0
 11
163.6939999999999
 21
270.616
 31
0.0
  0
LINE
  5
9E9E
330
9C33
100
AcDbEntity
  8
1
  6
Continuous
100
AcDbLine
 10
163.6939999999999
 20
275.966
 30
0.0
 11
163.6939999999999
 21
276.1159999999998
 31
0.0
  0
LINE
  5
9E9F
330
9C33
100
AcDbEntity
  8
1
  6
Continuous
100
AcDbLine
 10
161.953
 20
278.6159999999998
 30
0.0
 11
187.194
 21
278.6159999999998
 31
0.0
  0
LINE
  5
9EA0
330
9C33
100
AcDbEntity
  8
1
  6
Continuous
100
AcDbLine
 10
161.782
 20
280.6159999999998
 30
0.0
 11
187.194
 21
280.6159999999998
 31
0.0
  0
LINE
  5
9EA1
330
9C33
100
AcDbEntity
  8
1
  6
Continuous
100
AcDbLine
 10
156.4999999999998
 20
268.4159999999998
 30
0.0
 11
160.887
 21
268.4159999999998
 31
0.0
  0
LINE
  5
9EA2
330
9C33
100
AcDbEntity
  8
1
  6
Continuous
100
AcDbLine
 10
163.2889999999999
 20
268.4159999999998
 30
0.0
 11
179.1939999999999
 21
268.4159999999998
 31
0.0
  0
LINE
  5
9EA3
330
9C33
100
AcDbEntity
  8
4
  6
CENTER
100
AcDbLine
 10
425.093
 20
208.95
 30
0.0
 11
425.093
 21
161.166
 31
0.0
  0
LINE
  5
9EA4
330
9C33
100
AcDbEntity
  8
1
  6
Continuous
100
AcDbLine
 10
431.0929999999998
 20
181.6519999999999
 30
0.0
 11
431.0929999999998
 21
167.8189999999999
 31
0.0
  0
LINE
  5
9EA5
330
9C33
100
AcDbEntity
  8
1
  6
Continuous
100
AcDbLine
 10
419.0929999999998
 20
181.6519999999999
 30
0.0
 11
419.0929999999998
 21
167.8189999999999
 31
0.0
  0
LINE
  5
9EA6
330
9C33
100
AcDbEntity
  8
4
  6
CENTER
100
AcDbLine
 10
413.8819999999998
 20
185.2579999999999
 30
0.0
 11
437.598
 21
185.2579999999999
 31
0.0
  0
LINE
  5
9EA7
330
9C33
100
AcDbEntity
  8
1
  6
Continuous
100
AcDbLine
 10
419.0929999999998
 20
177.2579999999999
 30
0.0
 11
431.0929999999998
 21
177.2579999999999
 31
0.0
  0
LINE
  5
9EA8
330
9C33
100
AcDbEntity
  8
4
  6
CENTER
100
AcDbLine
 10
425.093
 20
35.70000000000001
 30
0.0
 11
425.093
 21
84.6306
 31
0.0
  0
LINE
  5
9EA9
330
9C33
100
AcDbEntity
  8
1
  6
Continuous
100
AcDbLine
 10
419.0929999999998
 20
63.9866
 30
0.0
 11
419.0929999999998
 21
77.8193
 31
0.0
  0
LINE
  5
9EAA
330
9C33
100
AcDbEntity
  8
1
  6
Continuous
100
AcDbLine
 10
431.0929999999998
 20
63.9866
 30
0.0
 11
431.0929999999998
 21
77.8193
 31
0.0
  0
LINE
  5
9EAB
330
9C33
100
AcDbEntity
  8
4
  6
CENTER
100
AcDbLine
 10
436.3030000000001
 20
60.3811
 30
0.0
 11
412.5869999999999
 21
60.3811
 31
0.0
  0
LINE
  5
9EAC
330
9C33
100
AcDbEntity
  8
1
  6
Continuous
100
AcDbLine
 10
431.0929999999998
 20
68.3811
 30
0.0
 11
419.0929999999998
 21
68.3811
 31
0.0
  0
LINE
  5
9EAD
330
9C33
100
AcDbEntity
  8
1
  6
Continuous
100
AcDbLine
 10
429.843
 20
41.3811
 30
0.0
 11
429.843
 21
55.2393
 31
0.0
  0
LINE
  5
9EAE
330
9C33
100
AcDbEntity
  8
1
  6
Continuous
100
AcDbLine
 10
420.3429999999998
 20
41.3811
 30
0.0
 11
420.3429999999998
 21
44.1811
 31
0.0
  0
LINE
  5
9EAF
330
9C33
100
AcDbEntity
  8
1
  6
Continuous
100
AcDbLine
 10
429.843
 20
41.3811
 30
0.0
 11
420.3429999999998
 21
41.3811
 31
0.0
  0
LINE
  5
9EB0
330
9C33
100
AcDbEntity
  8
1
  6
Continuous
100
AcDbLine
 10
427.593
 20
44.1811
 30
0.0
 11
420.3429999999998
 21
44.1811
 31
0.0
  0
LINE
  5
9EB1
330
9C33
100
AcDbEntity
  8
1
  6
Continuous
100
AcDbLine
 10
427.593
 20
53.1811
 30
0.0
 11
420.3429999999998
 21
53.1811
 31
0.0
  0
LINE
  5
9EB2
330
9C33
100
AcDbEntity
  8
1
  6
Continuous
100
AcDbLine
 10
420.3429999999998
 20
53.1811
 30
0.0
 11
420.3429999999998
 21
55.2393
 31
0.0
  0
LINE
  5
9EB3
330
9C33
100
AcDbEntity
  8
1
  6
Continuous
100
AcDbLine
 10
420.8429999999998
 20
44.1811
 30
0.0
 11
420.8429999999998
 21
53.1811
 31
0.0
  0
LINE
  5
9EB4
330
9C33
100
AcDbEntity
  8
1
  6
Continuous
100
AcDbLine
 10
428.4930000000001
 20
59.2811
 30
0.0
 11
428.4930000000001
 21
61.48109999999999
 31
0.0
  0
LINE
  5
9EB5
330
9C33
100
AcDbEntity
  8
1
  6
Continuous
100
AcDbLine
 10
421.6929999999998
 20
59.2811
 30
0.0
 11
421.6929999999998
 21
61.48109999999999
 31
0.0
  0
LINE
  5
9EB6
330
9C33
100
AcDbEntity
  8
1
  6
Continuous
100
AcDbLine
 10
427.593
 20
44.1811
 30
0.0
 11
427.593
 21
53.1811
 31
0.0
  0
LINE
  5
9EB7
330
9C33
100
AcDbEntity
  8
1
  6
Continuous
100
AcDbLine
 10
420.3429999999998
 20
204.258
 30
0.0
 11
420.3429999999998
 21
190.399
 31
0.0
  0
LINE
  5
9EB8
330
9C33
100
AcDbEntity
  8
1
  6
Continuous
100
AcDbLine
 10
429.843
 20
204.258
 30
0.0
 11
429.843
 21
201.458
 31
0.0
  0
LINE
  5
9EB9
330
9C33
100
AcDbEntity
  8
1
  6
Continuous
100
AcDbLine
 10
420.3429999999998
 20
204.258
 30
0.0
 11
429.843
 21
204.258
 31
0.0
  0
LINE
  5
9EBA
330
9C33
100
AcDbEntity
  8
1
  6
Continuous
100
AcDbLine
 10
422.5929999999998
 20
201.458
 30
0.0
 11
429.843
 21
201.458
 31
0.0
  0
LINE
  5
9EBB
330
9C33
100
AcDbEntity
  8
1
  6
Continuous
100
AcDbLine
 10
422.5929999999998
 20
192.4579999999999
 30
0.0
 11
429.843
 21
192.4579999999999
 31
0.0
  0
LINE
  5
9EBC
330
9C33
100
AcDbEntity
  8
1
  6
Continuous
100
AcDbLine
 10
429.843
 20
192.4579999999999
 30
0.0
 11
429.843
 21
190.399
 31
0.0
  0
LINE
  5
9EBD
330
9C33
100
AcDbEntity
  8
1
  6
Continuous
100
AcDbLine
 10
429.3429999999998
 20
201.458
 30
0.0
 11
429.3429999999998
 21
192.4579999999999
 31
0.0
  0
LINE
  5
9EBE
330
9C33
100
AcDbEntity
  8
1
  6
Continuous
100
AcDbLine
 10
421.6929999999998
 20
186.3579999999998
 30
0.0
 11
421.6929999999998
 21
184.158
 31
0.0
  0
LINE
  5
9EBF
330
9C33
100
AcDbEntity
  8
1
  6
Continuous
100
AcDbLine
 10
428.4930000000001
 20
186.3579999999998
 30
0.0
 11
428.4930000000001
 21
184.158
 31
0.0
  0
LINE
  5
9EC0
330
9C33
100
AcDbEntity
  8
1
  6
Continuous
100
AcDbLine
 10
422.5929999999998
 20
201.458
 30
0.0
 11
422.5929999999998
 21
192.4579999999999
 31
0.0
  0
ARC
  5
9EC1
330
9C33
100
AcDbEntity
  8
1
  6
Continuous
100
AcDbCircle
 10
161.1939999999998
 20
-326.181
 30
0.0
 40
500.0
100
AcDbArc
 50
86.102
 51
93.89799999999999
  0
ARC
  5
9EC2
330
9C33
100
AcDbEntity
  8
1
  6
Continuous
100
AcDbCircle
 10
161.1939999999998
 20
571.8189999999997
 30
0.0
 40
500.0
100
AcDbArc
 50
266.1019999999999
 51
273.8979999999999
  0
ARC
  5
9EC3
330
9C33
100
AcDbEntity
  8
1
  6
Continuous
100
AcDbCircle
 10
-305.807
 20
122.819
 30
0.0
 40
508.4999999999998
100
AcDbArc
 50
354.9929999999998
 51
5.006999999999997
  0
ARC
  5
9EC4
330
9C33
100
AcDbEntity
  8
1
  6
Continuous
100
AcDbCircle
 10
-305.807
 20
122.819
 30
0.0
 40
500.0
100
AcDbArc
 50
355.384
 51
4.616299999999998
  0
ARC
  5
9EC5
330
9C33
100
AcDbEntity
  8
1
  6
Continuous
100
AcDbCircle
 10
127.611
 20
166.6769999999999
 30
0.0
 40
6.0
100
AcDbArc
 50
93.89799999999999
 51
174.993
  0
ARC
  5
9EC6
330
9C33
100
AcDbEntity
  8
1
  6
Continuous
100
AcDbCircle
 10
194.7759999999999
 20
166.6769999999999
 30
0.0
 40
6.0
100
AcDbArc
 50
5.006999999999997
 51
86.102
  0
ARC
  5
9EC7
330
9C33
100
AcDbEntity
  8
1
  6
Continuous
100
AcDbCircle
 10
194.7759999999999
 20
78.9621
 30
0.0
 40
6.0
100
AcDbArc
 50
273.8979999999999
 51
354.9929999999998
  0
ARC
  5
9EC8
330
9C33
100
AcDbEntity
  8
1
  6
Continuous
100
AcDbCircle
 10
127.611
 20
78.9621
 30
0.0
 40
6.0
100
AcDbArc
 50
185.007
 51
266.1019999999999
  0
ARC
  5
9EC9
330
9C33
100
AcDbEntity
  8
1
  6
Continuous
100
AcDbCircle
 10
189.5809999999999
 20
162.819
 30
0.0
 40
3.0
100
AcDbArc
 50
4.616299999999998
 51
90.0
  0
ARC
  5
9ECA
330
9C33
100
AcDbEntity
  8
1
  6
Continuous
100
AcDbCircle
 10
189.5809999999999
 20
82.8193
 30
0.0
 40
3.0
100
AcDbArc
 50
270.0
 51
355.384
  0
ARC
  5
9ECB
330
9C33
100
AcDbEntity
  8
1
  6
Continuous
100
AcDbCircle
 10
-305.307
 20
122.819
 30
0.0
 40
498.0
100
AcDbArc
 50
355.423
 51
356.1809999999999
  0
ARC
  5
9ECC
330
9C33
100
AcDbEntity
  8
1
  6
Continuous
100
AcDbCircle
 10
181.61
 20
90.3193
 30
0.0
 40
10.0
100
AcDbArc
 50
356.1809999999999
 51
63.1671
  0
ARC
  5
9ECD
330
9C33
100
AcDbEntity
  8
1
  6
Continuous
100
AcDbCircle
 10
188.115
 20
83.31929999999998
 30
0.0
 40
3.0
100
AcDbArc
 50
270.0
 51
355.423
  0
ARC
  5
9ECE
330
9C33
100
AcDbEntity
  8
1
  6
Continuous
100
AcDbCircle
 10
208.6939999999999
 20
143.859
 30
0.0
 40
50.0
100
AcDbArc
 50
180.0
 51
243.1669999999999
  0
ARC
  5
9ECF
330
9C33
100
AcDbEntity
  8
1
  6
Continuous
100
AcDbCircle
 10
155.6939999999999
 20
162.3189999999999
 30
0.0
 40
3.0
100
AcDbArc
 50
0.0
 51
90.0
  0
CIRCLE
  5
9ED0
330
9C33
100
AcDbEntity
  8
1
  6
Continuous
100
AcDbCircle
 10
138.6929999999999
 20
257.6159999999998
 30
0.0
 40
2.5
  0
CIRCLE
  5
9ED1
330
9C33
100
AcDbEntity
  8
1
  6
Continuous
100
AcDbCircle
 10
138.6929999999999
 20
257.6159999999998
 30
0.0
 40
4.0
  0
ARC
  5
9ED2
330
9C33
100
AcDbEntity
  8
1
  6
Continuous
100
AcDbCircle
 10
179.1939999999999
 20
251.4159999999999
 30
0.0
 40
17.0
100
AcDbArc
 50
0.674041
 51
90.00010000000001
  0
ARC
  5
9ED3
330
9C33
100
AcDbEntity
  8
1
  6
Continuous
100
AcDbCircle
 10
194.1939999999999
 20
269.6159999999998
 30
0.0
 40
2.0
100
AcDbArc
 50
0.0
 51
90.00010000000001
  0
ARC
  5
9ED4
330
9C33
100
AcDbEntity
  8
1
  6
Continuous
100
AcDbCircle
 10
36.13369999999999
 20
85.3193
 30
0.0
 40
8.0
100
AcDbArc
 50
237.922
 51
270.0
  0
ARC
  5
9ED5
330
9C33
100
AcDbEntity
  8
1
  6
Continuous
100
AcDbCircle
 10
36.13369999999999
 20
160.3189999999998
 30
0.0
 40
8.0
100
AcDbArc
 50
90.0
 51
122.0779999999999
  0
ARC
  5
9ED6
330
9C33
100
AcDbEntity
  8
1
  6
Continuous
100
AcDbCircle
 10
105.6929999999999
 20
97.41930000000001
 30
0.0
 40
1.0
100
AcDbArc
 50
180.0
 51
270.0
  0
ARC
  5
9ED7
330
9C33
100
AcDbEntity
  8
1
  6
Continuous
100
AcDbCircle
 10
105.6929999999999
 20
88.2193
 30
0.0
 40
1.0
100
AcDbArc
 50
90.0
 51
180.0
  0
ARC
  5
9ED8
330
9C33
100
AcDbEntity
  8
1
  6
Continuous
100
AcDbCircle
 10
105.6929999999999
 20
157.4189999999999
 30
0.0
 40
1.0
100
AcDbArc
 50
180.0
 51
270.0
  0
ARC
  5
9ED9
330
9C33
100
AcDbEntity
  8
1
  6
Continuous
100
AcDbCircle
 10
105.6929999999999
 20
148.2189999999999
 30
0.0
 40
1.0
100
AcDbArc
 50
90.0
 51
180.0
  0
ARC
  5
9EDA
330
9C33
100
AcDbEntity
  8
1
  6
Continuous
100
AcDbCircle
 10
104.6929999999999
 20
278.6159999999998
 30
0.0
 40
2.0
100
AcDbArc
 50
90.00010000000001
 51
180.0
  0
ARC
  5
9EDB
330
9C33
100
AcDbEntity
  8
1
  6
Continuous
100
AcDbCircle
 10
105.6929999999999
 20
266.0159999999998
 30
0.0
 40
1.0
100
AcDbArc
 50
90.00010000000001
 51
180.0
  0
ARC
  5
9EDC
330
9C33
100
AcDbEntity
  8
1
  6
Continuous
100
AcDbCircle
 10
105.6929999999999
 20
275.2159999999999
 30
0.0
 40
1.0
100
AcDbArc
 50
180.0
 51
270.0
  0
ARC
  5
9EDD
330
9C33
100
AcDbEntity
  8
1
  6
Continuous
100
AcDbCircle
 10
93.693
 20
128.8189999999999
 30
0.0
 40
1.0
100
AcDbArc
 50
90.0
 51
180.0
  0
ARC
  5
9EDE
330
9C33
100
AcDbEntity
  8
1
  6
Continuous
100
AcDbCircle
 10
93.693
 20
116.819
 30
0.0
 40
1.0
100
AcDbArc
 50
180.0
 51
270.0
  0
ARC
  5
9EDF
330
9C33
100
AcDbEntity
  8
1
  6
Continuous
100
AcDbCircle
 10
93.693
 20
269.6159999999998
 30
0.0
 40
1.0
100
AcDbArc
 50
148.993
 51
270.0
  0
ARC
  5
9EE0
330
9C33
100
AcDbEntity
  8
1
  6
Continuous
100
AcDbCircle
 10
29.9337
 20
80.81929999999998
 30
0.0
 40
3.0
100
AcDbArc
 50
270.0
 51
0.0
  0
ARC
  5
9EE1
330
9C33
100
AcDbEntity
  8
1
  6
Continuous
100
AcDbCircle
 10
29.9337
 20
164.8189999999999
 30
0.0
 40
3.0
100
AcDbArc
 50
0.0
 51
90.0
  0
ARC
  5
9EE2
330
9C33
100
AcDbEntity
  8
1
  6
Continuous
100
AcDbCircle
 10
42.9337
 20
163.8189999999999
 30
0.0
 40
1.0
100
AcDbArc
 50
270.0
 51
0.0
  0
ARC
  5
9EE3
330
9C33
100
AcDbEntity
  8
1
  6
Continuous
100
AcDbCircle
 10
42.9337
 20
81.81929999999999
 30
0.0
 40
1.0
100
AcDbArc
 50
0.0
 51
90.0
  0
ARC
  5
9EE4
330
9C33
100
AcDbEntity
  8
1
  6
Continuous
100
AcDbCircle
 10
43.93369999999999
 20
81.81929999999999
 30
0.0
 40
1.0
100
AcDbArc
 50
0.0
 51
90.0
  0
ARC
  5
9EE5
330
9C33
100
AcDbEntity
  8
1
  6
Continuous
100
AcDbCircle
 10
43.93369999999999
 20
163.8189999999999
 30
0.0
 40
1.0
100
AcDbArc
 50
270.0
 51
0.0
  0
ARC
  5
9EE6
330
9C33
100
AcDbEntity
  8
1
  6
Continuous
100
AcDbCircle
 10
26.9337
 20
128.8189999999999
 30
0.0
 40
1.0
100
AcDbArc
 50
0.0
 51
90.0
  0
ARC
  5
9EE7
330
9C33
100
AcDbEntity
  8
1
  6
Continuous
100
AcDbCircle
 10
26.9337
 20
116.819
 30
0.0
 40
1.0
100
AcDbArc
 50
270.0
 51
0.0
  0
ARC
  5
9EE8
330
9C33
100
AcDbEntity
  8
1
  6
Continuous
100
AcDbCircle
 10
18.9337
 20
116.819
 30
0.0
 40
1.0
100
AcDbArc
 50
180.0
 51
270.0
  0
ARC
  5
9EE9
330
9C33
100
AcDbEntity
  8
1
  6
Continuous
100
AcDbCircle
 10
18.9337
 20
128.8189999999999
 30
0.0
 40
1.0
100
AcDbArc
 50
90.0
 51
180.0
  0
CIRCLE
  5
9EEA
330
9C33
100
AcDbEntity
  8
2
  6
Continuous
100
AcDbCircle
 10
25.9337
 20
92.8193
 30
0.0
 40
2.5
  0
CIRCLE
  5
9EEB
330
9C33
100
AcDbEntity
  8
2
  6
Continuous
100
AcDbCircle
 10
25.9337
 20
152.8189999999999
 30
0.0
 40
2.5
  0
ARC
  5
9EEC
330
9C33
100
AcDbEntity
  8
1
  6
Continuous
100
AcDbCircle
 10
197.1509999999999
 20
302.5749999999998
 30
0.0
 40
2.0
100
AcDbArc
 50
0.00009
 51
90.00010000000001
  0
ARC
  5
9EED
330
9C33
100
AcDbEntity
  8
1
  6
Continuous
100
AcDbCircle
 10
199.1509999999999
 20
285.075
 30
0.0
 40
2.0
100
AcDbArc
 50
180.0
 51
270.0
  0
ARC
  5
9EEE
330
9C33
100
AcDbEntity
  8
5
  6
PHANTOM
100
AcDbCircle
 10
103.6929999999999
 20
269.6159999999998
 30
0.0
 40
1.0
100
AcDbArc
 50
148.993
 51
270.0
  0
ARC
  5
9EEF
330
9C33
100
AcDbEntity
  8
1
  6
Continuous
100
AcDbCircle
 10
206.489
 20
84.8193
 30
0.0
 40
2.0
100
AcDbArc
 50
270.0
 51
0.0
  0
ARC
  5
9EF0
330
9C33
100
AcDbEntity
  8
1
  6
Continuous
100
AcDbCircle
 10
206.489
 20
160.819
 30
0.0
 40
2.0
100
AcDbArc
 50
0.0
 51
90.0
  0
ARC
  5
9EF1
330
9C33
100
AcDbEntity
  8
1
  6
Continuous
100
AcDbCircle
 10
51.549346
 20
262.891443
 30
0.0
 40
1.0
100
AcDbArc
 50
315.0
 51
45.0
  0
ARC
  5
9EF2
330
9C33
100
AcDbEntity
  8
1
  6
Continuous
100
AcDbCircle
 10
41.04934599999999
 20
258.8914429999999
 30
0.0
 40
0.5
100
AcDbArc
 50
270.0
 51
0.0
  0
ARC
  5
9EF3
330
9C33
100
AcDbEntity
  8
1
  6
Continuous
100
AcDbCircle
 10
41.04934599999999
 20
266.891443
 30
0.0
 40
0.5
100
AcDbArc
 50
0.0
 51
90.0
  0
ARC
  5
9EF4
330
9C33
100
AcDbEntity
  8
1
  6
Continuous
100
AcDbCircle
 10
21.04934599999999
 20
265.3914429999999
 30
0.0
 40
0.5
100
AcDbArc
 50
90.0
 51
180.0
  0
ARC
  5
9EF5
330
9C33
100
AcDbEntity
  8
1
  6
Continuous
100
AcDbCircle
 10
22.54934599999999
 20
265.3914429999999
 30
0.0
 40
0.5
100
AcDbArc
 50
0.0
 51
90.0
  0
ARC
  5
9EF6
330
9C33
100
AcDbEntity
  8
1
  6
Continuous
100
AcDbCircle
 10
19.54934599999998
 20
266.051443
 30
0.0
 40
1.0
100
AcDbArc
 50
142.431
 51
180.0
  0
ARC
  5
9EF7
330
9C33
100
AcDbEntity
  8
1
  6
Continuous
100
AcDbCircle
 10
19.54934599999998
 20
259.731443
 30
0.0
 40
1.0
100
AcDbArc
 50
180.0
 51
217.5689999999999
  0
ARC
  5
9EF8
330
9C33
100
AcDbEntity
  8
1
  6
Continuous
100
AcDbCircle
 10
24.041746
 20
253.891443
 30
0.0
 40
1.0
100
AcDbArc
 50
217.5689999999999
 51
270.0
  0
ARC
  5
9EF9
330
9C33
100
AcDbEntity
  8
1
  6
Continuous
100
AcDbCircle
 10
26.780746
 20
253.891443
 30
0.0
 40
1.0
100
AcDbArc
 50
270.0
 51
300.069
  0
ARC
  5
9EFA
330
9C33
100
AcDbEntity
  8
1
  6
Continuous
100
AcDbCircle
 10
24.041746
 20
271.8914429999999
 30
0.0
 40
1.0
100
AcDbArc
 50
90.0
 51
142.431
  0
ARC
  5
9EFB
330
9C33
100
AcDbEntity
  8
1
  6
Continuous
100
AcDbCircle
 10
26.780746
 20
271.8914429999999
 30
0.0
 40
1.0
100
AcDbArc
 50
59.9314
 51
90.0
  0
ARC
  5
9EFC
330
9C33
100
AcDbEntity
  8
1
  6
Continuous
100
AcDbCircle
 10
28.549346
 20
258.169443
 30
0.0
 40
2.0282
100
AcDbArc
 50
215.5379999999999
 51
256.5369999999999
  0
ARC
  5
9EFD
330
9C33
100
AcDbEntity
  8
1
  6
Continuous
100
AcDbCircle
 10
35.15994599999999
 20
262.891443
 30
0.0
 40
10.1519
100
AcDbArc
 50
144.462
 51
215.5379999999999
  0
ARC
  5
9EFE
330
9C33
100
AcDbEntity
  8
1
  6
Continuous
100
AcDbCircle
 10
28.549346
 20
267.613443
 30
0.0
 40
2.0282
100
AcDbArc
 50
45.6988
 51
144.462
  0
ARC
  5
9EFF
330
9C33
100
AcDbEntity
  8
1
  6
Continuous
100
AcDbCircle
 10
28.549346
 20
258.169443
 30
0.0
 40
2.0282
100
AcDbArc
 50
256.5369999999999
 51
324.4619999999998
  0
ARC
  5
9F00
330
9C33
100
AcDbEntity
  8
1
  6
Continuous
100
AcDbCircle
 10
21.938846
 20
262.891443
 30
0.0
 40
10.1519
100
AcDbArc
 50
324.4619999999998
 51
35.5377
  0
ARC
  5
9F01
330
9C33
100
AcDbEntity
  8
1
  6
Continuous
100
AcDbCircle
 10
28.549346
 20
267.613443
 30
0.0
 40
2.0282
100
AcDbArc
 50
35.5377
 51
45.6988
  0
ARC
  5
9F02
330
9C33
100
AcDbEntity
  8
1
  6
Continuous
100
AcDbCircle
 10
27.097446
 20
258.9564429999999
 30
0.0
 40
0.3935
100
AcDbArc
 50
206.014
 51
270.0
  0
ARC
  5
9F03
330
9C33
100
AcDbEntity
  8
1
  6
Continuous
100
AcDbCircle
 10
35.15994599999999
 20
262.891443
 30
0.0
 40
9.3649
100
AcDbArc
 50
202.944
 51
206.014
  0
ARC
  5
9F04
330
9C33
100
AcDbEntity
  8
1
  6
Continuous
100
AcDbCircle
 10
26.608346
 20
259.271443
 30
0.0
 40
0.0787
100
AcDbArc
 50
90.0
 51
202.944
  0
ARC
  5
9F05
330
9C33
100
AcDbEntity
  8
1
  6
Continuous
100
AcDbCircle
 10
30.490446
 20
259.271443
 30
0.0
 40
0.0787
100
AcDbArc
 50
337.0559999999999
 51
90.0
  0
ARC
  5
9F06
330
9C33
100
AcDbEntity
  8
1
  6
Continuous
100
AcDbCircle
 10
21.938846
 20
262.891443
 30
0.0
 40
9.3649
100
AcDbArc
 50
333.9859999999998
 51
337.0559999999999
  0
ARC
  5
9F07
330
9C33
100
AcDbEntity
  8
1
  6
Continuous
100
AcDbCircle
 10
21.938846
 20
262.891443
 30
0.0
 40
9.3649
100
AcDbArc
 50
333.9859999999998
 51
334.7709999999999
  0
ARC
  5
9F08
330
9C33
100
AcDbEntity
  8
1
  6
Continuous
100
AcDbCircle
 10
30.001346
 20
258.9564429999999
 30
0.0
 40
0.3935
100
AcDbArc
 50
270.0
 51
333.9859999999998
  0
ARC
  5
9F09
330
9C33
100
AcDbEntity
  8
1
  6
Continuous
100
AcDbCircle
 10
26.10194599999999
 20
260.845443
 30
0.0
 40
0.0787
100
AcDbArc
 50
90.0
 51
192.729
  0
ARC
  5
9F0A
330
9C33
100
AcDbEntity
  8
1
  6
Continuous
100
AcDbCircle
 10
35.15994599999999
 20
262.891443
 30
0.0
 40
9.3649
100
AcDbArc
 50
192.729
 51
193.2679999999999
  0
ARC
  5
9F0B
330
9C33
100
AcDbEntity
  8
1
  6
Continuous
100
AcDbCircle
 10
35.15994599999999
 20
262.891443
 30
0.0
 40
9.3649
100
AcDbArc
 50
193.2679999999999
 51
195.257
  0
ARC
  5
9F0C
330
9C33
100
AcDbEntity
  8
1
  6
Continuous
100
AcDbCircle
 10
26.504646
 20
260.5304429999999
 30
0.0
 40
0.3935
100
AcDbArc
 50
195.257
 51
270.0
  0
ARC
  5
9F0D
330
9C33
100
AcDbEntity
  8
1
  6
Continuous
100
AcDbCircle
 10
30.59404600000001
 20
260.5304429999999
 30
0.0
 40
0.3935
100
AcDbArc
 50
270.0
 51
344.7419999999998
  0
ARC
  5
9F0E
330
9C33
100
AcDbEntity
  8
1
  6
Continuous
100
AcDbCircle
 10
21.938846
 20
262.891443
 30
0.0
 40
9.3649
100
AcDbArc
 50
344.7419999999998
 51
344.794
  0
ARC
  5
9F0F
330
9C33
100
AcDbEntity
  8
1
  6
Continuous
100
AcDbCircle
 10
21.938846
 20
262.891443
 30
0.0
 40
9.3649
100
AcDbArc
 50
344.794
 51
347.2709999999998
  0
ARC
  5
9F10
330
9C33
100
AcDbEntity
  8
1
  6
Continuous
100
AcDbCircle
 10
30.996846
 20
260.845443
 30
0.0
 40
0.0787
100
AcDbArc
 50
347.2709999999998
 51
90.0
  0
ARC
  5
9F11
330
9C33
100
AcDbEntity
  8
1
  6
Continuous
100
AcDbCircle
 10
26.327646
 20
264.465443
 30
0.0
 40
0.3935
100
AcDbArc
 50
90.0
 51
169.896
  0
ARC
  5
9F12
330
9C33
100
AcDbEntity
  8
1
  6
Continuous
100
AcDbCircle
 10
35.15994599999999
 20
262.891443
 30
0.0
 40
9.3649
100
AcDbArc
 50
169.896
 51
172.2069999999999
  0
ARC
  5
9F13
330
9C33
100
AcDbEntity
  8
1
  6
Continuous
100
AcDbCircle
 10
25.959446
 20
264.1504429999999
 30
0.0
 40
0.0787
100
AcDbArc
 50
172.2069999999999
 51
270.0
  0
ARC
  5
9F14
330
9C33
100
AcDbEntity
  8
1
  6
Continuous
100
AcDbCircle
 10
31.139346
 20
264.1504429999999
 30
0.0
 40
0.0787
100
AcDbArc
 50
270.0
 51
7.792900000000001
  0
ARC
  5
9F15
330
9C33
100
AcDbEntity
  8
1
  6
Continuous
100
AcDbCircle
 10
21.938846
 20
262.891443
 30
0.0
 40
9.3649
100
AcDbArc
 50
7.792900000000001
 51
10.1042
  0
ARC
  5
9F16
330
9C33
100
AcDbEntity
  8
1
  6
Continuous
100
AcDbCircle
 10
30.771146
 20
264.465443
 30
0.0
 40
0.3935
100
AcDbArc
 50
10.1042
 51
90.0
  0
ARC
  5
9F17
330
9C33
100
AcDbEntity
  8
1
  6
Continuous
100
AcDbCircle
 10
28.15594600000001
 20
266.8264429999999
 30
0.0
 40
0.3935
100
AcDbArc
 50
270.0
 51
90.0
  0
CIRCLE
  5
9F18
330
9C33
100
AcDbEntity
  8
1
  6
Continuous
100
AcDbCircle
 10
153.1939999999998
 20
89.8193
 30
0.0
 40
6.7
  0
ARC
  5
9F19
330
9C33
100
AcDbEntity
  8
1
  6
Continuous
100
AcDbCircle
 10
158.489
 20
996.5049999999999
 30
0.0
 40
749.3939999999999
100
AcDbArc
 50
267.105
 51
273.309
  0
ARC
  5
9F1A
330
9C33
100
AcDbEntity
  8
1
  6
Continuous
100
AcDbCircle
 10
201.6939999999999
 20
249.36
 30
0.0
 40
1.0
100
AcDbArc
 50
273.309
 51
0.0
  0
ARC
  5
9F1B
330
9C33
100
AcDbEntity
  8
1
  6
Continuous
100
AcDbCircle
 10
120.693
 20
249.0659999999998
 30
0.0
 40
1.0
100
AcDbArc
 50
180.0
 51
267.105
  0
ARC
  5
9F1C
330
9C33
100
AcDbEntity
  8
1
  6
Continuous
100
AcDbCircle
 10
46.7616
 20
72.8193
 30
0.0
 40
1.0
100
AcDbArc
 50
270.0
 51
356.169
  0
ARC
  5
9F1D
330
9C33
100
AcDbEntity
  8
1
  6
Continuous
100
AcDbCircle
 10
-699.96
 20
122.819
 30
0.0
 40
749.3939999999999
100
AcDbArc
 50
356.169
 51
3.830769999999998
  0
ARC
  5
9F1E
330
9C33
100
AcDbEntity
  8
1
  6
Continuous
100
AcDbCircle
 10
46.7616
 20
172.8189999999999
 30
0.0
 40
1.0
100
AcDbArc
 50
3.830769999999998
 51
90.0
  0
ARC
  5
9F1F
330
9C33
100
AcDbEntity
  8
5
  6
PHANTOM
100
AcDbCircle
 10
175.7019999999999
 20
222.5929999999999
 30
0.0
 40
2.5
100
AcDbArc
 50
237.252
 51
111.4829999999999
  0
ARC
  5
9F20
330
9C33
100
AcDbEntity
  8
5
  6
PHANTOM
100
AcDbCircle
 10
579.727
 20
850.7759999999999
 30
0.0
 40
749.3939999999999
100
AcDbArc
 50
233.6149999999999
 51
237.252
  0
ARC
  5
9F21
330
9C33
100
AcDbEntity
  8
1
  6
Continuous
100
AcDbCircle
 10
114.2639999999999
 20
257.2529999999998
 30
0.0
 40
25.0
100
AcDbArc
 50
121.2909999999999
 51
148.993
  0
ARC
  5
9F22
330
9C33
100
AcDbEntity
  8
5
  6
PHANTOM
100
AcDbCircle
 10
124.2639999999999
 20
257.2529999999998
 30
0.0
 40
25.0
100
AcDbArc
 50
121.2909999999999
 51
148.993
  0
ARC
  5
9F23
330
9C33
100
AcDbEntity
  8
5
  6
PHANTOM
100
AcDbCircle
 10
579.727
 20
850.7759999999999
 30
0.0
 40
749.3939999999999
100
AcDbArc
 50
232.697
 51
232.9479999999998
  0
ARC
  5
9F24
330
9C33
100
AcDbEntity
  8
5
  6
PHANTOM
100
AcDbCircle
 10
126.184
 20
255.4679999999999
 30
0.0
 40
1.0
100
AcDbArc
 50
144.903
 51
232.697
  0
ARC
  5
9F25
330
9C33
100
AcDbEntity
  8
1
  6
Continuous
100
AcDbCircle
 10
265.253
 20
85.3193
 30
0.0
 40
8.0
100
AcDbArc
 50
270.0
 51
0.0
  0
ARC
  5
9F26
330
9C33
100
AcDbEntity
  8
1
  6
Continuous
100
AcDbCircle
 10
265.253
 20
160.3189999999998
 30
0.0
 40
8.0
100
AcDbArc
 50
0.0
 51
90.0
  0
ARC
  5
9F27
330
9C33
100
AcDbEntity
  8
1
  6
Continuous
100
AcDbCircle
 10
271.4529999999999
 20
80.81929999999998
 30
0.0
 40
3.0
100
AcDbArc
 50
229.4229999999998
 51
270.0
  0
ARC
  5
9F28
330
9C33
100
AcDbEntity
  8
1
  6
Continuous
100
AcDbCircle
 10
271.4529999999999
 20
164.8189999999999
 30
0.0
 40
3.0
100
AcDbArc
 50
90.0
 51
130.577
  0
ARC
  5
9F29
330
9C33
100
AcDbEntity
  8
1
  6
Continuous
100
AcDbCircle
 10
254.625
 20
72.8193
 30
0.0
 40
1.0
100
AcDbArc
 50
183.8309999999999
 51
270.0
  0
ARC
  5
9F2A
330
9C33
100
AcDbEntity
  8
1
  6
Continuous
100
AcDbCircle
 10
1001.35
 20
122.819
 30
0.0
 40
749.3939999999999
100
AcDbArc
 50
176.169
 51
183.8309999999999
  0
ARC
  5
9F2B
330
9C33
100
AcDbEntity
  8
1
  6
Continuous
100
AcDbCircle
 10
254.625
 20
172.8189999999999
 30
0.0
 40
1.0
100
AcDbArc
 50
90.0
 51
176.169
  0
ARC
  5
9F2C
330
9C33
100
AcDbEntity
  8
1
  6
Continuous
100
AcDbCircle
 10
332.668
 20
149.9259999999999
 30
0.0
 40
1.3
100
AcDbArc
 50
15.8809
 51
85.0
  0
ARC
  5
9F2D
330
9C33
100
AcDbEntity
  8
1
  6
Continuous
100
AcDbCircle
 10
325.262
 20
147.8189999999998
 30
0.0
 40
9.0
100
AcDbArc
 50
344.1190000000001
 51
15.8809
  0
ARC
  5
9F2E
330
9C33
100
AcDbEntity
  8
1
  6
Continuous
100
AcDbCircle
 10
332.668
 20
145.7119999999999
 30
0.0
 40
1.3
100
AcDbArc
 50
275.0
 51
344.1190000000001
  0
ARC
  5
9F2F
330
9C33
100
AcDbEntity
  8
1
  6
Continuous
100
AcDbCircle
 10
418.5299999999998
 20
-326.181
 30
0.0
 40
500.0
100
AcDbArc
 50
86.102
 51
88.56019999999999
  0
ARC
  5
9F30
330
9C33
100
AcDbEntity
  8
1
  6
Continuous
100
AcDbCircle
 10
418.5299999999998
 20
571.8189999999997
 30
0.0
 40
500.0
100
AcDbArc
 50
266.1019999999999
 51
270.064
  0
ARC
  5
9F31
330
9C33
100
AcDbEntity
  8
1
  6
Continuous
100
AcDbCircle
 10
885.5299999999997
 20
122.819
 30
0.0
 40
508.4999999999998
100
AcDbArc
 50
174.993
 51
175.4879999999998
  0
ARC
  5
9F32
330
9C33
100
AcDbEntity
  8
1
  6
Continuous
100
AcDbCircle
 10
452.1119999999998
 20
166.6769999999999
 30
0.0
 40
6.0
100
AcDbArc
 50
10.9799
 51
86.102
  0
ARC
  5
9F33
330
9C33
100
AcDbEntity
  8
1
  6
Continuous
100
AcDbCircle
 10
384.9469999999998
 20
166.6769999999999
 30
0.0
 40
6.0
100
AcDbArc
 50
93.89799999999999
 51
174.993
  0
ARC
  5
9F34
330
9C33
100
AcDbEntity
  8
1
  6
Continuous
100
AcDbCircle
 10
384.9469999999998
 20
78.9621
 30
0.0
 40
6.0
100
AcDbArc
 50
185.007
 51
266.1019999999999
  0
ARC
  5
9F35
330
9C33
100
AcDbEntity
  8
1
  6
Continuous
100
AcDbCircle
 10
452.1119999999998
 20
78.9621
 30
0.0
 40
6.0
100
AcDbArc
 50
273.8979999999999
 51
349.0199999999999
  0
ARC
  5
9F36
330
9C33
100
AcDbEntity
  8
1
  6
Continuous
100
AcDbCircle
 10
486.0299999999998
 20
128.8189999999999
 30
0.0
 40
1.0
100
AcDbArc
 50
0.000022
 51
90.0
  0
ARC
  5
9F37
330
9C33
100
AcDbEntity
  8
1
  6
Continuous
100
AcDbCircle
 10
486.0299999999998
 20
116.819
 30
0.0
 40
1.0
100
AcDbArc
 50
270.0
 51
0.000022
  0
ARC
  5
9F38
330
9C33
100
AcDbEntity
  8
1
  6
Continuous
100
AcDbCircle
 10
389.7339999999999
 20
160.819
 30
0.0
 40
2.0
100
AcDbArc
 50
0.0
 51
90.00010000000001
  0
ARC
  5
9F39
330
9C33
100
AcDbEntity
  8
1
  6
Continuous
100
AcDbCircle
 10
389.7339999999999
 20
84.8193
 30
0.0
 40
2.0
100
AcDbArc
 50
270.0
 51
0.0
  0
ARC
  5
9F3A
330
9C33
100
AcDbEntity
  8
1
  6
Continuous
100
AcDbCircle
 10
373.2339999999999
 20
84.8193
 30
0.0
 40
2.0
100
AcDbArc
 50
180.0
 51
270.0
  0
ARC
  5
9F3B
330
9C33
100
AcDbEntity
  8
1
  6
Continuous
100
AcDbCircle
 10
373.2339999999999
 20
160.819
 30
0.0
 40
2.0
100
AcDbArc
 50
90.0
 51
180.0
  0
ARC
  5
9F3C
330
9C33
100
AcDbEntity
  8
1
  6
Continuous
100
AcDbCircle
 10
389.7339999999999
 20
110.819
 30
0.0
 40
2.0
100
AcDbArc
 50
0.0
 51
90.0
  0
ARC
  5
9F3D
330
9C33
100
AcDbEntity
  8
1
  6
Continuous
100
AcDbCircle
 10
389.7339999999999
 20
134.8189999999999
 30
0.0
 40
2.0
100
AcDbArc
 50
270.0
 51
0.0
  0
ARC
  5
9F3E
330
9C33
100
AcDbEntity
  8
1
  6
Continuous
100
AcDbCircle
 10
885.5299999999997
 20
122.819
 30
0.0
 40
508.4999999999998
100
AcDbArc
 50
184.512
 51
185.007
  0
ARC
  5
9F3F
330
9C33
100
AcDbEntity
  8
1
  6
Continuous
100
AcDbCircle
 10
389.5299999999999
 20
162.3189999999999
 30
0.0
 40
6.0
100
AcDbArc
 50
90.0
 51
175.22
  0
ARC
  5
9F40
330
9C33
100
AcDbEntity
  8
1
  6
Continuous
100
AcDbCircle
 10
389.5299999999999
 20
83.31929999999998
 30
0.0
 40
6.0
100
AcDbArc
 50
184.78
 51
270.0
  0
ARC
  5
9F41
330
9C33
100
AcDbEntity
  8
1
  6
Continuous
100
AcDbCircle
 10
385.7339999999999
 20
97.8193
 30
0.0
 40
2.1
100
AcDbArc
 50
348.463
 51
11.537
  0
ARC
  5
9F42
330
9C33
100
AcDbEntity
  8
1
  6
Continuous
100
AcDbCircle
 10
385.7339999999999
 20
97.8193
 30
0.0
 40
2.1
100
AcDbArc
 50
78.46299999999998
 51
101.537
  0
ARC
  5
9F43
330
9C33
100
AcDbEntity
  8
1
  6
Continuous
100
AcDbCircle
 10
385.7339999999999
 20
97.8193
 30
0.0
 40
2.1
100
AcDbArc
 50
168.463
 51
191.5369999999998
  0
ARC
  5
9F44
330
9C33
100
AcDbEntity
  8
1
  6
Continuous
100
AcDbCircle
 10
385.7339999999999
 20
97.8193
 30
0.0
 40
2.1
100
AcDbArc
 50
258.4629999999999
 51
281.5369999999999
  0
CIRCLE
  5
9F45
330
9C33
100
AcDbEntity
  8
1
  6
Continuous
100
AcDbCircle
 10
385.7339999999999
 20
97.8193
 30
0.0
 40
3.5
  0
ARC
  5
9F46
330
9C33
100
AcDbEntity
  8
1
  6
Continuous
100
AcDbCircle
 10
385.7339999999999
 20
147.8189999999998
 30
0.0
 40
2.1
100
AcDbArc
 50
348.463
 51
11.537
  0
ARC
  5
9F47
330
9C33
100
AcDbEntity
  8
1
  6
Continuous
100
AcDbCircle
 10
385.7339999999999
 20
147.8189999999998
 30
0.0
 40
2.1
100
AcDbArc
 50
78.46299999999998
 51
101.537
  0
ARC
  5
9F48
330
9C33
100
AcDbEntity
  8
1
  6
Continuous
100
AcDbCircle
 10
385.7339999999999
 20
147.8189999999998
 30
0.0
 40
2.1
100
AcDbArc
 50
168.463
 51
191.5369999999998
  0
ARC
  5
9F49
330
9C33
100
AcDbEntity
  8
1
  6
Continuous
100
AcDbCircle
 10
385.7339999999999
 20
147.8189999999998
 30
0.0
 40
2.1
100
AcDbArc
 50
258.4629999999999
 51
281.5369999999999
  0
CIRCLE
  5
9F4A
330
9C33
100
AcDbEntity
  8
1
  6
Continuous
100
AcDbCircle
 10
385.7339999999999
 20
147.8189999999998
 30
0.0
 40
3.5
  0
CIRCLE
  5
9F4B
330
9C33
100
AcDbEntity
  8
1
  6
Continuous
100
AcDbCircle
 10
385.7339999999999
 20
147.8189999999998
 30
0.0
 40
3.799999999999998
  0
CIRCLE
  5
9F4C
330
9C33
100
AcDbEntity
  8
1
  6
Continuous
100
AcDbCircle
 10
385.7339999999999
 20
97.8193
 30
0.0
 40
3.799999999999998
  0
CIRCLE
  5
9F4D
330
9C33
100
AcDbEntity
  8
1
  6
Continuous
100
AcDbCircle
 10
385.7339999999999
 20
147.8189999999998
 30
0.0
 40
5.0
  0
CIRCLE
  5
9F4E
330
9C33
100
AcDbEntity
  8
1
  6
Continuous
100
AcDbCircle
 10
385.7339999999999
 20
97.8193
 30
0.0
 40
5.0
  0
ARC
  5
9F4F
330
9C33
100
AcDbEntity
  8
1
  6
Continuous
100
AcDbCircle
 10
395.5299999999999
 20
80.81929999999998
 30
0.0
 40
3.0
100
AcDbArc
 50
180.0
 51
270.0
  0
ARC
  5
9F50
330
9C33
100
AcDbEntity
  8
1
  6
Continuous
100
AcDbCircle
 10
395.5299999999999
 20
164.8189999999999
 30
0.0
 40
3.0
100
AcDbArc
 50
90.0
 51
180.0
  0
ARC
  5
9F51
330
9C33
100
AcDbEntity
  8
1
  6
Continuous
100
AcDbCircle
 10
446.53
 20
92.8193
 30
0.0
 40
2.25
100
AcDbArc
 50
349.2419999999999
 51
10.7583
  0
ARC
  5
9F52
330
9C33
100
AcDbEntity
  8
1
  6
Continuous
100
AcDbCircle
 10
446.53
 20
92.8193
 30
0.0
 40
2.25
100
AcDbArc
 50
79.24169999999998
 51
100.7579999999999
  0
ARC
  5
9F53
330
9C33
100
AcDbEntity
  8
1
  6
Continuous
100
AcDbCircle
 10
446.53
 20
92.8193
 30
0.0
 40
2.25
100
AcDbArc
 50
169.242
 51
190.758
  0
ARC
  5
9F54
330
9C33
100
AcDbEntity
  8
1
  6
Continuous
100
AcDbCircle
 10
446.53
 20
92.8193
 30
0.0
 40
2.25
100
AcDbArc
 50
259.242
 51
280.7579999999999
  0
CIRCLE
  5
9F55
330
9C33
100
AcDbEntity
  8
1
  6
Continuous
100
AcDbCircle
 10
446.53
 20
92.8193
 30
0.0
 40
4.0
  0
ARC
  5
9F56
330
9C33
100
AcDbEntity
  8
1
  6
Continuous
100
AcDbCircle
 10
446.53
 20
152.8189999999999
 30
0.0
 40
2.25
100
AcDbArc
 50
349.2419999999999
 51
10.7583
  0
ARC
  5
9F57
330
9C33
100
AcDbEntity
  8
1
  6
Continuous
100
AcDbCircle
 10
446.53
 20
152.8189999999999
 30
0.0
 40
2.25
100
AcDbArc
 50
79.24169999999998
 51
100.7579999999999
  0
ARC
  5
9F58
330
9C33
100
AcDbEntity
  8
1
  6
Continuous
100
AcDbCircle
 10
446.53
 20
152.8189999999999
 30
0.0
 40
2.25
100
AcDbArc
 50
169.242
 51
190.758
  0
ARC
  5
9F59
330
9C33
100
AcDbEntity
  8
1
  6
Continuous
100
AcDbCircle
 10
446.53
 20
152.8189999999999
 30
0.0
 40
2.25
100
AcDbArc
 50
259.242
 51
280.7579999999999
  0
CIRCLE
  5
9F5A
330
9C33
100
AcDbEntity
  8
1
  6
Continuous
100
AcDbCircle
 10
446.53
 20
152.8189999999999
 30
0.0
 40
4.0
  0
CIRCLE
  5
9F5B
330
9C33
100
AcDbEntity
  8
1
  6
Continuous
100
AcDbCircle
 10
411.0299999999998
 20
105.319
 30
0.0
 40
2.75
  0
CIRCLE
  5
9F5C
330
9C33
100
AcDbEntity
  8
1
  6
Continuous
100
AcDbCircle
 10
411.0299999999998
 20
140.3189999999999
 30
0.0
 40
2.75
  0
ARC
  5
9F5D
330
9C33
100
AcDbEntity
  8
1
  6
Continuous
100
AcDbCircle
 10
398.5299999999999
 20
105.319
 30
0.0
 40
2.25
100
AcDbArc
 50
349.2419999999999
 51
10.7583
  0
ARC
  5
9F5E
330
9C33
100
AcDbEntity
  8
1
  6
Continuous
100
AcDbCircle
 10
398.5299999999999
 20
105.319
 30
0.0
 40
2.25
100
AcDbArc
 50
79.24169999999998
 51
100.7579999999999
  0
ARC
  5
9F5F
330
9C33
100
AcDbEntity
  8
1
  6
Continuous
100
AcDbCircle
 10
398.5299999999999
 20
105.319
 30
0.0
 40
2.25
100
AcDbArc
 50
169.242
 51
190.758
  0
ARC
  5
9F60
330
9C33
100
AcDbEntity
  8
1
  6
Continuous
100
AcDbCircle
 10
398.5299999999999
 20
105.319
 30
0.0
 40
2.25
100
AcDbArc
 50
259.242
 51
280.7579999999999
  0
CIRCLE
  5
9F61
330
9C33
100
AcDbEntity
  8
1
  6
Continuous
100
AcDbCircle
 10
398.5299999999999
 20
105.319
 30
0.0
 40
4.0
  0
ARC
  5
9F62
330
9C33
100
AcDbEntity
  8
1
  6
Continuous
100
AcDbCircle
 10
398.5299999999999
 20
140.3189999999999
 30
0.0
 40
2.25
100
AcDbArc
 50
349.2419999999999
 51
10.7583
  0
ARC
  5
9F63
330
9C33
100
AcDbEntity
  8
1
  6
Continuous
100
AcDbCircle
 10
398.5299999999999
 20
140.3189999999999
 30
0.0
 40
2.25
100
AcDbArc
 50
79.24169999999998
 51
100.7579999999999
  0
ARC
  5
9F64
330
9C33
100
AcDbEntity
  8
1
  6
Continuous
100
AcDbCircle
 10
398.5299999999999
 20
140.3189999999999
 30
0.0
 40
2.25
100
AcDbArc
 50
169.242
 51
190.758
  0
ARC
  5
9F65
330
9C33
100
AcDbEntity
  8
1
  6
Continuous
100
AcDbCircle
 10
398.5299999999999
 20
140.3189999999999
 30
0.0
 40
2.25
100
AcDbArc
 50
259.242
 51
280.7579999999999
  0
CIRCLE
  5
9F66
330
9C33
100
AcDbEntity
  8
1
  6
Continuous
100
AcDbCircle
 10
398.5299999999999
 20
140.3189999999999
 30
0.0
 40
4.0
  0
ARC
  5
9F67
330
9C33
100
AcDbEntity
  8
1
  6
Continuous
100
AcDbCircle
 10
628.193
 20
122.819
 30
0.0
 40
508.4999999999998
100
AcDbArc
 50
174.993
 51
185.007
  0
CIRCLE
  5
9F68
330
9C33
100
AcDbEntity
  8
1
  6
Continuous
100
AcDbCircle
 10
25.9337
 20
92.8193
 30
0.0
 40
2.066999999999997
  0
CIRCLE
  5
9F69
330
9C33
100
AcDbEntity
  8
1
  6
Continuous
100
AcDbCircle
 10
25.9337
 20
152.8189999999999
 30
0.0
 40
2.066999999999997
  0
ARC
  5
9F6A
330
9C33
100
AcDbEntity
  8
1
  6
Continuous
100
AcDbCircle
 10
275.4529999999999
 20
151.8189999999998
 30
0.0
 40
1.0
100
AcDbArc
 50
0.0
 51
90.0
  0
ARC
  5
9F6B
330
9C33
100
AcDbEntity
  8
1
  6
Continuous
100
AcDbCircle
 10
275.4529999999999
 20
93.8193
 30
0.0
 40
1.0
100
AcDbArc
 50
270.0
 51
0.0
  0
ARC
  5
9F6C
330
9C33
100
AcDbEntity
  8
1
  6
Continuous
100
AcDbCircle
 10
275.4529999999999
 20
101.819
 30
0.0
 40
1.0
100
AcDbArc
 50
0.0
 51
90.0
  0
ARC
  5
9F6D
330
9C33
100
AcDbEntity
  8
1
  6
Continuous
100
AcDbCircle
 10
275.4529999999999
 20
143.8189999999998
 30
0.0
 40
1.0
100
AcDbArc
 50
270.0
 51
0.0
  0
ARC
  5
9F6E
330
9C33
100
AcDbEntity
  8
1
  6
Continuous
100
AcDbCircle
 10
194.2589999999999
 20
307.3809999999999
 30
0.0
 40
1.3
100
AcDbArc
 50
5.00004
 51
74.1191
  0
ARC
  5
9F6F
330
9C33
100
AcDbEntity
  8
1
  6
Continuous
100
AcDbCircle
 10
192.1519999999999
 20
299.975
 30
0.0
 40
9.0
100
AcDbArc
 50
74.1191
 51
105.881
  0
ARC
  5
9F70
330
9C33
100
AcDbEntity
  8
1
  6
Continuous
100
AcDbCircle
 10
190.045
 20
307.3809999999999
 30
0.0
 40
1.3
100
AcDbArc
 50
105.881
 51
175.0
  0
ARC
  5
9F71
330
9C33
100
AcDbEntity
  8
1
  6
Continuous
100
AcDbCircle
 10
332.668
 20
99.9263
 30
0.0
 40
1.3
100
AcDbArc
 50
15.8809
 51
85.0
  0
ARC
  5
9F72
330
9C33
100
AcDbEntity
  8
1
  6
Continuous
100
AcDbCircle
 10
325.262
 20
97.8193
 30
0.0
 40
9.0
100
AcDbArc
 50
344.1190000000001
 51
15.8809
  0
ARC
  5
9F73
330
9C33
100
AcDbEntity
  8
1
  6
Continuous
100
AcDbCircle
 10
332.668
 20
95.71229999999998
 30
0.0
 40
1.3
100
AcDbArc
 50
275.0
 51
344.1190000000001
  0
ARC
  5
9F74
330
9C33
100
AcDbEntity
  8
1
  6
Continuous
100
AcDbCircle
 10
158.6929999999999
 20
269.6159999999998
 30
0.0
 40
2.5
100
AcDbArc
 50
207.3869999999998
 51
0.000005
  0
ARC
  5
9F75
330
9C33
100
AcDbEntity
  8
1
  6
Continuous
100
AcDbCircle
 10
156.1029999999998
 20
280.5659999999999
 30
0.0
 40
0.5
100
AcDbArc
 50
90.0
 51
175.1209999999999
  0
ARC
  5
9F76
330
9C33
100
AcDbEntity
  8
1
  6
Continuous
100
AcDbCircle
 10
161.284
 20
280.5659999999999
 30
0.0
 40
0.5
100
AcDbArc
 50
4.879279999999998
 51
90.0
  0
ARC
  5
9F77
330
9C33
100
AcDbEntity
  8
1
  6
Continuous
100
AcDbCircle
 10
158.6929999999999
 20
269.6159999999998
 30
0.0
 40
4.75
100
AcDbArc
 50
206.5249999999998
 51
0.000005
  0
ARC
  5
9F78
330
9C33
100
AcDbEntity
  8
1
  6
Continuous
100
AcDbCircle
 10
162.1119999999999
 20
267.884
 30
0.0
 40
0.9181510000000001
100
AcDbArc
 50
180.0
 51
333.13
  0
ARC
  5
9F79
330
9C33
100
AcDbEntity
  8
1
  6
Continuous
100
AcDbCircle
 10
154.631
 20
185.2579999999999
 30
0.0
 40
7.0
100
AcDbArc
 50
328.997
 51
47.2679
  0
ARC
  5
9F7A
330
9C33
100
AcDbEntity
  8
1
  6
Continuous
100
AcDbCircle
 10
154.631
 20
185.2579999999999
 30
0.0
 40
3.75
100
AcDbArc
 50
342.9419999999999
 51
17.0575
  0
ARC
  5
9F7B
330
9C33
100
AcDbEntity
  8
1
  6
Continuous
100
AcDbCircle
 10
154.631
 20
60.3811
 30
0.0
 40
7.0
100
AcDbArc
 50
148.997
 51
227.268
  0
ARC
  5
9F7C
330
9C33
100
AcDbEntity
  8
1
  6
Continuous
100
AcDbCircle
 10
154.631
 20
60.3811
 30
0.0
 40
3.75
100
AcDbArc
 50
162.942
 51
197.057
  0
CIRCLE
  5
9F7D
330
9C33
100
AcDbEntity
  8
1
  6
Continuous
100
AcDbCircle
 10
154.631
 20
185.2579999999999
 30
0.0
 40
2.549999999999998
  0
ARC
  5
9F7E
330
9C33
100
AcDbEntity
  8
1
  6
Continuous
100
AcDbCircle
 10
154.631
 20
185.0999999999999
 30
0.0
 40
4.842629999999998
100
AcDbArc
 50
191.2239999999999
 51
348.776
  0
CIRCLE
  5
9F7F
330
9C33
100
AcDbEntity
  8
1
  6
Continuous
100
AcDbCircle
 10
154.631
 20
60.3811
 30
0.0
 40
2.549999999999998
  0
ARC
  5
9F80
330
9C33
100
AcDbEntity
  8
1
  6
Continuous
100
AcDbCircle
 10
154.631
 20
60.5384
 30
0.0
 40
4.842629999999998
100
AcDbArc
 50
11.2244
 51
168.7759999999999
  0
ARC
  5
9F81
330
9C33
100
AcDbEntity
  8
1
  6
Continuous
100
AcDbCircle
 10
154.631
 20
60.3811
 30
0.0
 40
7.0
100
AcDbArc
 50
312.732
 51
31.0027
  0
ARC
  5
9F82
330
9C33
100
AcDbEntity
  8
1
  6
Continuous
100
AcDbCircle
 10
154.631
 20
60.3811
 30
0.0
 40
3.75
100
AcDbArc
 50
342.9429999999999
 51
17.0577
  0
ARC
  5
9F83
330
9C33
100
AcDbEntity
  8
1
  6
Continuous
100
AcDbCircle
 10
154.631
 20
185.2579999999999
 30
0.0
 40
7.0
100
AcDbArc
 50
132.732
 51
211.003
  0
ARC
  5
9F84
330
9C33
100
AcDbEntity
  8
1
  6
Continuous
100
AcDbCircle
 10
154.631
 20
185.2579999999999
 30
0.0
 40
3.75
100
AcDbArc
 50
162.9429999999999
 51
197.0579999999999
  0
ARC
  5
9F85
330
9C33
100
AcDbEntity
  8
1
  6
Continuous
100
AcDbCircle
 10
418.5299999999998
 20
571.8189999999997
 30
0.0
 40
500.0
100
AcDbArc
 50
271.4399999999999
 51
273.8979999999999
  0
ARC
  5
9F86
330
9C33
100
AcDbEntity
  8
1
  6
Continuous
100
AcDbCircle
 10
418.5299999999998
 20
-326.181
 30
0.0
 40
500.0
100
AcDbArc
 50
89.9355
 51
93.89799999999999
  0
ARC
  5
9F87
330
9C33
100
AcDbEntity
  8
1
  6
Continuous
100
AcDbCircle
 10
23.1337
 20
70.3811
 30
0.0
 40
2.0
100
AcDbArc
 50
270.0
 51
0.000005
  0
ARC
  5
9F88
330
9C33
100
AcDbEntity
  8
1
  6
Continuous
100
AcDbCircle
 10
22.8337
 20
68.3811
 30
0.0
 40
2.0
100
AcDbArc
 50
90.0
 51
180.0
  0
ARC
  5
9F89
330
9C33
100
AcDbEntity
  8
1
  6
Continuous
100
AcDbCircle
 10
23.1337
 20
175.2579999999999
 30
0.0
 40
2.0
100
AcDbArc
 50
0.0
 51
90.0
  0
ARC
  5
9F8A
330
9C33
100
AcDbEntity
  8
1
  6
Continuous
100
AcDbCircle
 10
22.8337
 20
177.2579999999999
 30
0.0
 40
2.0
100
AcDbArc
 50
180.0
 51
270.0
  0
ARC
  5
9F8B
330
9C33
100
AcDbEntity
  8
1
  6
Continuous
100
AcDbCircle
 10
18.1337
 20
185.2579999999999
 30
0.0
 40
0.8
100
AcDbArc
 50
93.71059999999998
 51
266.2889999999998
  0
ARC
  5
9F8C
330
9C33
100
AcDbEntity
  8
1
  6
Continuous
100
AcDbCircle
 10
16.23369999999998
 20
187.9459999999999
 30
0.0
 40
0.5
100
AcDbArc
 50
108.189
 51
180.0
  0
ARC
  5
9F8D
330
9C33
100
AcDbEntity
  8
1
  6
Continuous
100
AcDbCircle
 10
16.23369999999998
 20
182.5699999999999
 30
0.0
 40
0.5
100
AcDbArc
 50
180.0
 51
251.811
  0
ARC
  5
9F8E
330
9C33
100
AcDbEntity
  8
1
  6
Continuous
100
AcDbCircle
 10
18.1337
 20
60.3811
 30
0.0
 40
0.8
100
AcDbArc
 50
93.63269999999998
 51
266.367
  0
ARC
  5
9F8F
330
9C33
100
AcDbEntity
  8
1
  6
Continuous
100
AcDbCircle
 10
16.23369999999998
 20
57.6931
 30
0.0
 40
0.5
100
AcDbArc
 50
180.0
 51
251.811
  0
ARC
  5
9F90
330
9C33
100
AcDbEntity
  8
1
  6
Continuous
100
AcDbCircle
 10
16.23369999999998
 20
63.0691
 30
0.0
 40
0.5
100
AcDbArc
 50
108.189
 51
180.0
  0
ARC
  5
9F91
330
9C33
100
AcDbEntity
  8
1
  6
Continuous
100
AcDbCircle
 10
278.2529999999998
 20
70.3811
 30
0.0
 40
2.0
100
AcDbArc
 50
180.0
 51
270.0
  0
ARC
  5
9F92
330
9C33
100
AcDbEntity
  8
1
  6
Continuous
100
AcDbCircle
 10
278.553
 20
68.3811
 30
0.0
 40
2.0
100
AcDbArc
 50
0.0
 51
90.0
  0
ARC
  5
9F93
330
9C33
100
AcDbEntity
  8
1
  6
Continuous
100
AcDbCircle
 10
278.2529999999998
 20
175.2579999999999
 30
0.0
 40
2.0
100
AcDbArc
 50
90.0
 51
180.0
  0
ARC
  5
9F94
330
9C33
100
AcDbEntity
  8
1
  6
Continuous
100
AcDbCircle
 10
278.553
 20
177.2579999999999
 30
0.0
 40
2.0
100
AcDbArc
 50
270.0
 51
0.0
  0
ARC
  5
9F95
330
9C33
100
AcDbEntity
  8
1
  6
Continuous
100
AcDbCircle
 10
283.2529999999998
 20
60.3811
 30
0.0
 40
0.8
100
AcDbArc
 50
273.711
 51
86.28940000000001
  0
ARC
  5
9F96
330
9C33
100
AcDbEntity
  8
1
  6
Continuous
100
AcDbCircle
 10
285.153
 20
57.6931
 30
0.0
 40
0.5
100
AcDbArc
 50
288.189
 51
0.0
  0
ARC
  5
9F97
330
9C33
100
AcDbEntity
  8
1
  6
Continuous
100
AcDbCircle
 10
285.153
 20
63.0691
 30
0.0
 40
0.5
100
AcDbArc
 50
0.0
 51
71.81100000000002
  0
ARC
  5
9F98
330
9C33
100
AcDbEntity
  8
1
  6
Continuous
100
AcDbCircle
 10
283.2529999999998
 20
185.2579999999999
 30
0.0
 40
0.8
100
AcDbArc
 50
273.6329999999999
 51
86.3673
  0
ARC
  5
9F99
330
9C33
100
AcDbEntity
  8
1
  6
Continuous
100
AcDbCircle
 10
285.153
 20
187.9459999999999
 30
0.0
 40
0.5
100
AcDbArc
 50
0.0
 51
71.81100000000002
  0
ARC
  5
9F9A
330
9C33
100
AcDbEntity
  8
1
  6
Continuous
100
AcDbCircle
 10
285.153
 20
182.5699999999999
 30
0.0
 40
0.5
100
AcDbArc
 50
288.189
 51
0.0
  0
ARC
  5
9F9B
330
9C33
100
AcDbEntity
  8
1
  6
Continuous
100
AcDbCircle
 10
425.093
 20
185.2579999999999
 30
0.0
 40
7.0
100
AcDbArc
 50
328.997
 51
211.003
  0
ARC
  5
9F9C
330
9C33
100
AcDbEntity
  8
1
  6
Continuous
100
AcDbCircle
 10
425.093
 20
60.3811
 30
0.0
 40
7.0
100
AcDbArc
 50
148.997
 51
31.00299999999999
  0
ARC
  5
9F9D
330
9C33
100
AcDbEntity
  8
1
  6
Continuous
100
AcDbCircle
 10
425.093
 20
60.3811
 30
0.0
 40
3.75
100
AcDbArc
 50
149.154
 51
210.8459999999998
  0
CIRCLE
  5
9F9E
330
9C33
100
AcDbEntity
  8
1
  6
Continuous
100
AcDbCircle
 10
425.093
 20
60.3811
 30
0.0
 40
2.549999999999998
  0
ARC
  5
9F9F
330
9C33
100
AcDbEntity
  8
1
  6
Continuous
100
AcDbCircle
 10
425.093
 20
61.1666
 30
0.0
 40
3.414519999999998
100
AcDbArc
 50
5.28509
 51
174.7149999999998
  0
ARC
  5
9FA0
330
9C33
100
AcDbEntity
  8
1
  6
Continuous
100
AcDbCircle
 10
425.093
 20
59.59559999999999
 30
0.0
 40
3.414519999999998
100
AcDbArc
 50
185.285
 51
354.7149999999998
  0
CIRCLE
  5
9FA1
330
9C33
100
AcDbEntity
  8
1
  6
Continuous
100
AcDbCircle
 10
425.093
 20
185.2579999999999
 30
0.0
 40
2.549999999999998
  0
ARC
  5
9FA2
330
9C33
100
AcDbEntity
  8
1
  6
Continuous
100
AcDbCircle
 10
425.093
 20
184.472
 30
0.0
 40
3.414519999999998
100
AcDbArc
 50
185.285
 51
354.7149999999998
  0
ARC
  5
9FA3
330
9C33
100
AcDbEntity
  8
1
  6
Continuous
100
AcDbCircle
 10
425.093
 20
186.043
 30
0.0
 40
3.414519999999998
100
AcDbArc
 50
5.28509
 51
174.7149999999998
  0
ARC
  5
9FA4
330
9C33
100
AcDbEntity
  8
1
  6
Continuous
100
AcDbCircle
 10
425.093
 20
60.3811
 30
0.0
 40
3.75
100
AcDbArc
 50
329.1539999999999
 51
30.8459
  0
ARC
  5
9FA5
330
9C33
100
AcDbEntity
  8
1
  6
Continuous
100
AcDbCircle
 10
425.093
 20
185.2579999999999
 30
0.0
 40
3.75
100
AcDbArc
 50
149.154
 51
210.8459999999998
  0
ARC
  5
9FA6
330
9C33
100
AcDbEntity
  8
1
  6
Continuous
100
AcDbCircle
 10
425.093
 20
185.2579999999999
 30
0.0
 40
3.75
100
AcDbArc
 50
329.1539999999999
 51
30.8459
  0
LINE
  5
9FA7
330
9C33
100
AcDbEntity
  8
1
  6
Continuous
100
AcDbLine
 10
477.0299999999998
 20
129.8189999999999
 30
0.0
 11
477.0299999999998
 21
167.8189999999999
 31
0.0
  0
LINE
  5
9FA8
330
9C33
100
AcDbEntity
  8
4
  6
CENTER
100
AcDbLine
 10
149.7163999999999
 20
64.66664
 30
0.0
 11
149.7163999999999
 21
73.66664
 31
0.0
  0
LINE
  5
9FA9
330
9C33
100
AcDbEntity
  8
4
  6
CENTER
100
AcDbLine
 10
145.2163999999999
 20
69.16664
 30
0.0
 11
154.2163999999999
 21
69.16664
 31
0.0
  0
CIRCLE
  5
9FAA
330
9C33
100
AcDbEntity
  8
5
  6
PHANTOM
100
AcDbCircle
 10
149.7163999999999
 20
69.16664
 30
0.0
 40
2.549999999999998
  0
LINE
  5
9FAB
330
9C33
100
AcDbEntity
  8
1
  6
Continuous
100
AcDbLine
 10
478.4299999999998
 20
115.819
 30
0.0
 11
478.4299999999998
 21
129.8189999999999
 31
0.0
  0
LINE
  5
9FAC
330
9C33
100
AcDbEntity
  8
4
  6
CENTER
100
AcDbLine
 10
15.458069
 20
262.891443
 30
0.0
 11
56.034584
 21
262.891443
 31
0.0
  0
LINE
  5
9FAD
330
9C33
100
AcDbEntity
  8
4
  6
CENTER
100
AcDbLine
 10
145.2163999999999
 20
176.47136
 30
0.0
 11
154.2163999999999
 21
176.47136
 31
0.0
  0
CIRCLE
  5
9FAE
330
9C33
100
AcDbEntity
  8
5
  6
PHANTOM
100
AcDbCircle
 10
149.7163999999999
 20
176.47136
 30
0.0
 40
2.549999999999998
  0
LINE
  5
9FAF
330
9C33
100
AcDbEntity
  8
4
  6
CENTER
100
AcDbLine
 10
149.7163999999999
 20
180.97136
 30
0.0
 11
149.7163999999999
 21
171.97136
 31
0.0
  0
CIRCLE
  5
9FB0
330
9C33
100
AcDbEntity
  8
5
  6
PHANTOM
100
AcDbCircle
 10
430.0076
 20
176.47136
 30
0.0
 40
2.549999999999998
  0
LINE
  5
9FB1
330
9C33
100
AcDbEntity
  8
4
  6
CENTER
100
AcDbLine
 10
430.0076
 20
180.97136
 30
0.0
 11
430.0076
 21
171.97136
 31
0.0
  0
LINE
  5
9FB2
330
9C33
100
AcDbEntity
  8
4
  6
CENTER
100
AcDbLine
 10
434.5076
 20
176.47136
 30
0.0
 11
425.5076
 21
176.47136
 31
0.0
  0
CIRCLE
  5
9FB3
330
9C33
100
AcDbEntity
  8
5
  6
PHANTOM
100
AcDbCircle
 10
430.0076
 20
69.16664
 30
0.0
 40
2.549999999999998
  0
LINE
  5
9FB4
330
9C33
100
AcDbEntity
  8
4
  6
CENTER
100
AcDbLine
 10
430.0076
 20
64.66664
 30
0.0
 11
430.0076
 21
73.66664
 31
0.0
  0
LINE
  5
9FB5
330
9C33
100
AcDbEntity
  8
4
  6
CENTER
100
AcDbLine
 10
434.5076
 20
69.16664
 30
0.0
 11
425.5076
 21
69.16664
 31
0.0
  0
ARC
  5
9FB6
330
9C33
100
AcDbEntity
  8
1
  6
Continuous
100
AcDbCircle
 10
21.04934599999999
 20
260.3914429999999
 30
0.0
 40
0.5
100
AcDbArc
 50
180.0
 51
270.0
  0
LINE
  5
9FB7
330
9C33
100
AcDbEntity
  8
1
  6
Continuous
100
AcDbLine
 10
22.54934599999999
 20
259.8914429999999
 30
0.0
 11
21.04934599999999
 21
259.8914429999999
 31
0.0
  0
ARC
  5
9FB8
330
9C33
100
AcDbEntity
  8
1
  6
Continuous
100
AcDbCircle
 10
22.54934599999999
 20
260.3914429999999
 30
0.0
 40
0.5
100
AcDbArc
 50
270.0
 51
0.0
  0
LINE
  5
9FB9
330
9C33
100
AcDbEntity
  8
4
  6
CENTER
100
AcDbLine
 10
109.8692459999998
 20
270.616
 30
0.0
 11
99.66237800000001
 21
270.616
 31
0.0
  0
ENDSEC
  0
SECTION
  2
OBJECTS
  0
DICTIONARY
  5
9C21
330
0
100
AcDbDictionary
281
     1
  3
ACAD_CIP_PREVIOUS_PRODUCT_INFO
350
A01F
  3
ACAD_COLOR
350
A001
  3
ACAD_DETAILVIEWSTYLE
350
A01A
  3
ACAD_GROUP
350
9C22
  3
ACAD_LAYOUT
350
9C2E
  3
ACAD_MATERIAL
350
9FCF
  3
ACAD_MLEADERSTYLE
350
A016
  3
ACAD_MLINESTYLE
350
9C2B
  3
ACAD_PLOTSETTINGS
350
9C2D
  3
ACAD_PLOTSTYLENAME
350
9FCD
  3
ACAD_SCALELIST
350
A004
  3
ACAD_SECTIONVIEWSTYLE
350
A018
  3
ACAD_TABLESTYLE
350
A002
  3
ACAD_VISUALSTYLE
350
9FE8
  3
ACDB_RECOMPOSE_DATA
350
A03D
  3
AcDbVariableDictionary
350
A030
  3
DWGPROPS
350
A03E
  0
DICTIONARY
  5
A020
330
9C25
100
AcDbDictionary
280
     1
281
     1
  3
ADSK_XREC_LAYER_RECONCILED
360
A021
  0
DICTIONARY
  5
A022
330
9C3B
100
AcDbDictionary
280
     1
281
     1
  3
ADSK_XREC_LAYER_RECONCILED
360
A023
  0
DICTIONARY
  5
A024
330
9C3C
100
AcDbDictionary
280
     1
281
     1
  3
ADSK_XREC_LAYER_RECONCILED
360
A025
  0
DICTIONARY
  5
A026
330
9C3D
100
AcDbDictionary
280
     1
281
     1
  3
ADSK_XREC_LAYER_RECONCILED
360
A027
  0
DICTIONARY
  5
A028
330
9C3E
100
AcDbDictionary
280
     1
281
     1
  3
ADSK_XREC_LAYER_RECONCILED
360
A029
  0
DICTIONARY
  5
A02A
330
9C3F
100
AcDbDictionary
280
     1
281
     1
  3
ADSK_XREC_LAYER_RECONCILED
360
A02B
  0
DICTIONARY
  5
A02C
330
9C40
100
AcDbDictionary
280
     1
281
     1
  3
ADSK_XREC_LAYER_RECONCILED
360
A02D
  0
DICTIONARY
  5
A02E
330
9C41
100
AcDbDictionary
280
     1
281
     1
  3
ADSK_XREC_LAYER_RECONCILED
360
A02F
  0
DICTIONARY
  5
9FC8
330
9C33
100
AcDbDictionary
281
     1
  3
ACAD_LAYOUTSELFREF
350
9FC9
  0
DICTIONARY
  5
9FC6
330
9C2F
100
AcDbDictionary
281
     1
  3
ACAD_LAYOUTSELFREF
350
9FC7
  0
XRECORD
  5
A01F
102
{ACAD_REACTORS
330
9C21
102
}
330
9C21
100
AcDbXrecord
280
     1
300
ACDLT
300
2014
300
ACDLT_F_S
  0
DICTIONARY
  5
A001
102
{ACAD_REACTORS
330
9C21
102
}
330
9C21
100
AcDbDictionary
281
     1
  0
DICTIONARY
  5
A01A
102
{ACAD_REACTORS
330
9C21
102
}
330
9C21
100
AcDbDictionary
281
     1
  3
Imperial24
350
A01B
  0
DICTIONARY
  5
9C22
102
{ACAD_REACTORS
330
9C21
102
}
330
9C21
100
AcDbDictionary
281
     1
  0
DICTIONARY
  5
9C2E
102
{ACAD_REACTORS
330
9C21
102
}
330
9C21
100
AcDbDictionary
281
     1
  3
Model
350
A01C
  3
レイアウト1
350
A01D
  0
DICTIONARY
  5
9FCF
102
{ACAD_REACTORS
330
9C21
102
}
330
9C21
100
AcDbDictionary
281
     1
  3
ByBlock
350
9FD8
  3
ByLayer
350
9FD0
  3
Global
350
9FE0
  0
DICTIONARY
  5
A016
102
{ACAD_REACTORS
330
9C21
102
}
330
9C21
100
AcDbDictionary
281
     1
  3
Standard
350
A017
  0
DICTIONARY
  5
9C2B
102
{ACAD_REACTORS
330
9C21
102
}
330
9C21
100
AcDbDictionary
281
     1
  3
STANDARD
350
9C2C
  0
DICTIONARY
  5
9C2D
102
{ACAD_REACTORS
330
9C21
102
}
330
9C21
100
AcDbDictionary
281
     1
  0
ACDBDICTIONARYWDFLT
  5
9FCD
102
{ACAD_REACTORS
330
9C21
102
}
330
9C21
100
AcDbDictionary
281
     1
  3
Normal
350
9FCE
100
AcDbDictionaryWithDefault
340
9FCE
  0
DICTIONARY
  5
A004
102
{ACAD_REACTORS
330
9C21
102
}
330
9C21
100
AcDbDictionary
281
     1
  3
A0
350
A005
  3
A1
350
A006
  3
A2
350
A007
  3
A3
350
A008
  3
A4
350
A009
  3
A5
350
A00A
  3
A6
350
A00B
  3
A7
350
A00C
  3
A8
350
A00D
  3
A9
350
A00E
  3
B0
350
A00F
  3
B1
350
A010
  3
B2
350
A011
  3
B3
350
A012
  3
B4
350
A013
  3
B5
350
A014
  3
B6
350
A015
  0
DICTIONARY
  5
A018
102
{ACAD_REACTORS
330
9C21
102
}
330
9C21
100
AcDbDictionary
281
     1
  3
Imperial24
350
A019
  0
DICTIONARY
  5
A002
102
{ACAD_REACTORS
330
9C21
102
}
330
9C21
100
AcDbDictionary
281
     1
  3
Standard
350
A003
  0
DICTIONARY
  5
9FE8
102
{ACAD_REACTORS
330
9C21
102
}
330
9C21
100
AcDbDictionary
281
     1
  3
2dWireframe
350
9FEE
  3
Basic
350
9FED
  3
Brighten
350
9FF4
  3
ColorChange
350
9FF8
  3
Conceptual
350
9FF1
  3
Dim
350
9FF3
  3
EdgeColorOff
350
A000
  3
Facepattern
350
9FF7
  3
Flat
350
9FE9
  3
FlatWithEdges
350
9FEA
  3
Gouraud
350
9FEB
  3
GouraudWithEdges
350
9FEC
  3
Hidden
350
9FF0
  3
JitterOff
350
9FFE
  3
Linepattern
350
9FF6
  3
OverhangOff
350
9FFF
  3
Realistic
350
9FF2
  3
Shaded
350
9FFD
  3
Shaded with edges
350
9FFC
  3
Shades of Gray
350
9FF9
  3
Sketchy
350
9FFA
  3
Thicken
350
9FF5
  3
Wireframe
350
9FEF
  3
X-Ray
350
9FFB
  0
XRECORD
  5
A03D
102
{ACAD_REACTORS
330
9C21
102
}
330
9C21
100
AcDbXrecord
280
     1
 90
        1
330
A003
  0
DICTIONARY
  5
A030
102
{ACAD_REACTORS
330
9C21
102
}
330
9C21
100
AcDbDictionary
281
     1
  3
CANNOSCALE
350
A035
  3
CMLEADERSTYLE
350
A032
  3
CTABLESTYLE
350
A031
  3
CVIEWDETAILSTYLE
350
A033
  3
CVIEWSECTIONSTYLE
350
A034
  3
DIMASSOC
350
A038
  3
INDEXCTL
350
A037
  3
SORTENTS
350
A036
  3
XCLIPFRAME
350
A039
  0
XRECORD
  5
A03E
102
{ACAD_REACTORS
330
9C21
102
}
330
9C21
100
AcDbXrecord
280
     1
  1
DWGPROPS COOKIE
  2

  3

  4

  6

  7

  8
Yoshitsune
  9

300
=
301
=
302
=
303
=
304
=
305
=
306
=
307
=
308
=
309
=
 40
0.0000161689814815
 41
2450737.666305903
 42
2457192.640208681
  1

 90
        0
  0
XRECORD
  5
A021
102
{ACAD_REACTORS
330
A020
102
}
330
A020
100
AcDbXrecord
280
     1
290
     1
  0
XRECORD
  5
A023
102
{ACAD_REACTORS
330
A022
102
}
330
A022
100
AcDbXrecord
280
     1
290
     1
  0
XRECORD
  5
A025
102
{ACAD_REACTORS
330
A024
102
}
330
A024
100
AcDbXrecord
280
     1
290
     1
  0
XRECORD
  5
A027
102
{ACAD_REACTORS
330
A026
102
}
330
A026
100
AcDbXrecord
280
     1
290
     1
  0
XRECORD
  5
A029
102
{ACAD_REACTORS
330
A028
102
}
330
A028
100
AcDbXrecord
280
     1
290
     1
  0
XRECORD
  5
A02B
102
{ACAD_REACTORS
330
A02A
102
}
330
A02A
100
AcDbXrecord
280
     1
290
     1
  0
XRECORD
  5
A02D
102
{ACAD_REACTORS
330
A02C
102
}
330
A02C
100
AcDbXrecord
280
     1
290
     1
  0
XRECORD
  5
A02F
102
{ACAD_REACTORS
330
A02E
102
}
330
A02E
100
AcDbXrecord
280
     1
290
     1
  0
XRECORD
  5
9FC9
102
{ACAD_REACTORS
330
9FC8
102
}
330
9FC8
100
AcDbXrecord
280
     1
340
9C33
  0
XRECORD
  5
9FC7
102
{ACAD_REACTORS
330
9FC6
102
}
330
9FC6
100
AcDbXrecord
280
     1
340
9C2F
  0
ACDBDETAILVIEWSTYLE
  5
A01B
102
{ACAD_XDICTIONARY
360
A076
102
}
102
{ACAD_REACTORS
330
A01A
102
}
330
A01A
100
AcDbModelDocViewStyle
 70
     0
  3
Imperial24
290
     0
100
AcDbDetailViewStyle
 70
     0
 71
     0
 90
        3
 71
     1
340
9C26
 40
0.24
340
0
 40
0.24
300

 40
0.36
280
     3
 71
     2
340
9C2A
 90
       25
 71
     3
340
9C26
 40
0.24
 90
        1
 40
0.75
 90
        1
300
%<\AcVar ViewType \f "%tc1">% %<\AcVar ViewDetailId>%\PSCALE %<\AcVar ViewScale \f "%sn">%
 71
     4
340
9C2A
 90
       25
340
9C2A
 90
       25
280
     0
  0
LAYOUT
  5
A01C
102
{ACAD_XDICTIONARY
360
A078
102
}
102
{ACAD_REACTORS
330
9C2E
102
}
330
9C2E
100
AcDbPlotSettings
  1

  2
Canon LBP9100C
  4

  6

 40
0.0
 41
0.0
 42
0.0
 43
0.0
 44
0.0
 45
0.0
 46
0.0
 47
0.0
 48
0.0
 49
0.0
140
0.0
141
0.0
142
1.0
143
1.0
 70
  1712
 72
     0
 73
     0
 74
     0
  7

 75
     0
147
1.0
148
0.0
149
0.0
100
AcDbLayout
  1
Model
 70
     1
 71
     0
 10
0.0
 20
0.0
 11
12.0
 21
9.0
 12
0.0
 22
0.0
 32
0.0
 14
0.0
 24
0.0
 34
0.0
 15
0.0
 25
0.0
 35
0.0
146
0.0
 13
0.0
 23
0.0
 33
0.0
 16
1.0
 26
0.0
 36
0.0
 17
0.0
 27
1.0
 37
0.0
 76
     0
330
9C33
331
9FC5
  0
LAYOUT
  5
A01D
102
{ACAD_XDICTIONARY
360
A07A
102
}
102
{ACAD_REACTORS
330
9C2E
102
}
330
9C2E
100
AcDbPlotSettings
  1

  2
Canon LBP9100C
  4

  6

 40
0.0
 41
0.0
 42
0.0
 43
0.0
 44
0.0
 45
0.0
 46
0.0
 47
0.0
 48
0.0
 49
0.0
140
0.0
141
0.0
142
1.0
143
1.0
 70
   688
 72
     0
 73
     0
 74
     5
  7

 75
    16
147
1.0
148
0.0
149
0.0
100
AcDbLayout
  1
レイアウト1
 70
     0
 71
     1
 10
0.0
 20
0.0
 11
420.0
 21
297.0
 12
0.0
 22
0.0
 32
0.0
 14
1.000000000000000E+20
 24
1.000000000000000E+20
 34
1.000000000000000E+20
 15
-1.000000000000000E+20
 25
-1.000000000000000E+20
 35
-1.000000000000000E+20
146
0.0
 13
0.0
 23
0.0
 33
0.0
 16
1.0
 26
0.0
 36
0.0
 17
0.0
 27
1.0
 37
0.0
 76
     0
330
9C2F
  0
MATERIAL
  5
9FD8
102
{ACAD_XDICTIONARY
360
9FD9
102
}
102
{ACAD_REACTORS
330
9FCF
102
}
330
9FCF
100
AcDbMaterial
  1
ByBlock
 72
     0
 43
0.0208333333333333
 43
0.0
 43
0.0
 43
0.0
 43
0.0
 43
0.0208333333333333
 43
0.0
 43
0.0
 43
0.0
 43
0.0
 43
1.0
 43
0.0
 43
0.0
 43
0.0
 43
0.0
 43
1.0
 77
     0
 47
0.0208333333333333
 47
0.0
 47
0.0
 47
0.0
 47
0.0
 47
0.0208333333333333
 47
0.0
 47
0.0
 47
0.0
 47
0.0
 47
1.0
 47
0.0
 47
0.0
 47
0.0
 47
0.0
 47
1.0
171
     0
 49
0.0208333333333333
 49
0.0
 49
0.0
 49
0.0
 49
0.0
 49
0.0208333333333333
 49
0.0
 49
0.0
 49
0.0
 49
0.0
 49
1.0
 49
0.0
 49
0.0
 49
0.0
 49
0.0
 49
1.0
175
     0
142
0.0208333333333333
142
0.0
142
0.0
142
0.0
142
0.0
142
0.0208333333333333
142
0.0
142
0.0
142
0.0
142
0.0
142
1.0
142
0.0
142
0.0
142
0.0
142
0.0
142
1.0
179
     0
144
0.0208333333333333
144
0.0
144
0.0
144
0.0
144
0.0
144
0.0208333333333333
144
0.0
144
0.0
144
0.0
144
0.0
144
1.0
144
0.0
144
0.0
144
0.0
144
0.0
144
1.0
147
0.0208333333333333
147
0.0
147
0.0
147
0.0
147
0.0
147
0.0208333333333333
147
0.0
147
0.0
147
0.0
147
0.0
147
1.0
147
0.0
147
0.0
147
0.0
147
0.0
147
1.0
  0
MATERIAL
  5
9FD0
102
{ACAD_XDICTIONARY
360
9FD1
102
}
102
{ACAD_REACTORS
330
9FCF
102
}
330
9FCF
100
AcDbMaterial
  1
ByLayer
 72
     0
 43
0.0208333333333333
 43
0.0
 43
0.0
 43
0.0
 43
0.0
 43
0.0208333333333333
 43
0.0
 43
0.0
 43
0.0
 43
0.0
 43
1.0
 43
0.0
 43
0.0
 43
0.0
 43
0.0
 43
1.0
 77
     0
 47
0.0208333333333333
 47
0.0
 47
0.0
 47
0.0
 47
0.0
 47
0.0208333333333333
 47
0.0
 47
0.0
 47
0.0
 47
0.0
 47
1.0
 47
0.0
 47
0.0
 47
0.0
 47
0.0
 47
1.0
171
     0
 49
0.0208333333333333
 49
0.0
 49
0.0
 49
0.0
 49
0.0
 49
0.0208333333333333
 49
0.0
 49
0.0
 49
0.0
 49
0.0
 49
1.0
 49
0.0
 49
0.0
 49
0.0
 49
0.0
 49
1.0
175
     0
142
0.0208333333333333
142
0.0
142
0.0
142
0.0
142
0.0
142
0.0208333333333333
142
0.0
142
0.0
142
0.0
142
0.0
142
1.0
142
0.0
142
0.0
142
0.0
142
0.0
142
1.0
179
     0
144
0.0208333333333333
144
0.0
144
0.0
144
0.0
144
0.0
144
0.0208333333333333
144
0.0
144
0.0
144
0.0
144
0.0
144
1.0
144
0.0
144
0.0
144
0.0
144
0.0
144
1.0
147
0.0208333333333333
147
0.0
147
0.0
147
0.0
147
0.0
147
0.0208333333333333
147
0.0
147
0.0
147
0.0
147
0.0
147
1.0
147
0.0
147
0.0
147
0.0
147
0.0
147
1.0
  0
MATERIAL
  5
9FE0
102
{ACAD_XDICTIONARY
360
9FE1
102
}
102
{ACAD_REACTORS
330
9FCF
102
}
330
9FCF
100
AcDbMaterial
  1
Global
 72
     0
 43
0.0208333333333333
 43
0.0
 43
0.0
 43
0.0
 43
0.0
 43
0.0208333333333333
 43
0.0
 43
0.0
 43
0.0
 43
0.0
 43
1.0
 43
0.0
 43
0.0
 43
0.0
 43
0.0
 43
1.0
 77
     0
 47
0.0208333333333333
 47
0.0
 47
0.0
 47
0.0
 47
0.0
 47
0.0208333333333333
 47
0.0
 47
0.0
 47
0.0
 47
0.0
 47
1.0
 47
0.0
 47
0.0
 47
0.0
 47
0.0
 47
1.0
171
     0
 49
0.0208333333333333
 49
0.0
 49
0.0
 49
0.0
 49
0.0
 49
0.0208333333333333
 49
0.0
 49
0.0
 49
0.0
 49
0.0
 49
1.0
 49
0.0
 49
0.0
 49
0.0
 49
0.0
 49
1.0
175
     0
142
0.0208333333333333
142
0.0
142
0.0
142
0.0
142
0.0
142
0.0208333333333333
142
0.0
142
0.0
142
0.0
142
0.0
142
1.0
142
0.0
142
0.0
142
0.0
142
0.0
142
1.0
179
     0
144
0.0208333333333333
144
0.0
144
0.0
144
0.0
144
0.0
144
0.0208333333333333
144
0.0
144
0.0
144
0.0
144
0.0
144
1.0
144
0.0
144
0.0
144
0.0
144
0.0
144
1.0
147
0.0208333333333333
147
0.0
147
0.0
147
0.0
147
0.0
147
0.0208333333333333
147
0.0
147
0.0
147
0.0
147
0.0
147
1.0
147
0.0
147
0.0
147
0.0
147
0.0
147
1.0
  0
MLEADERSTYLE
  5
A017
102
{ACAD_REACTORS
330
A016
102
}
330
A016
100
AcDbMLeaderStyle
170
     2
171
     1
172
     0
 90
        2
 40
0.0
 41
0.0
173
     1
 91
-1056964608
340
9C28
 92
       -2
290
     1
 42
0.09
291
     1
 43
0.36
  3
Standard
 44
0.18
300

342
9C26
174
     1
178
     6
175
     1
176
     0
 93
-1056964608
 45
0.18
292
     0
297
     0
 46
0.18
 94
-1056964608
 47
1.0
 49
1.0
140
1.0
293
     1
141
0.0
294
     1
177
     0
142
1.0
295
     0
296
     0
143
0.125
1001
ACAD_MLEADERVER
1070
     2
  0
MLINESTYLE
  5
9C2C
102
{ACAD_REACTORS
330
9C2B
102
}
330
9C2B
100
AcDbMlineStyle
  2
STANDARD
 70
     0
  3

 62
   256
 51
90.0
 52
90.0
 71
     2
 49
0.5
 62
   256
  6
BYLAYER
 49
-0.5
 62
   256
  6
BYLAYER
  0
ACDBPLACEHOLDER
  5
9FCE
102
{ACAD_REACTORS
330
9FCD
102
}
330
9FCD
  0
SCALE
  5
A005
102
{ACAD_REACTORS
330
A004
102
}
330
A004
100
AcDbScale
 70
     0
300
1:1
140
1.0
141
1.0
290
     1
  0
SCALE
  5
A006
102
{ACAD_REACTORS
330
A004
102
}
330
A004
100
AcDbScale
 70
     0
300
1/128" = 1'-0"
140
0.0078125
141
12.0
290
     0
  0
SCALE
  5
A007
102
{ACAD_REACTORS
330
A004
102
}
330
A004
100
AcDbScale
 70
     0
300
1/64" = 1'-0"
140
0.015625
141
12.0
290
     0
  0
SCALE
  5
A008
102
{ACAD_REACTORS
330
A004
102
}
330
A004
100
AcDbScale
 70
     0
300
1/32" = 1'-0"
140
0.03125
141
12.0
290
     0
  0
SCALE
  5
A009
102
{ACAD_REACTORS
330
A004
102
}
330
A004
100
AcDbScale
 70
     0
300
1/16" = 1'-0"
140
0.0625
141
12.0
290
     0
  0
SCALE
  5
A00A
102
{ACAD_REACTORS
330
A004
102
}
330
A004
100
AcDbScale
 70
     0
300
3/32" = 1'-0"
140
0.09375
141
12.0
290
     0
  0
SCALE
  5
A00B
102
{ACAD_REACTORS
330
A004
102
}
330
A004
100
AcDbScale
 70
     0
300
1/8" = 1'-0"
140
0.125
141
12.0
290
     0
  0
SCALE
  5
A00C
102
{ACAD_REACTORS
330
A004
102
}
330
A004
100
AcDbScale
 70
     0
300
3/16" = 1'-0"
140
0.1875
141
12.0
290
     0
  0
SCALE
  5
A00D
102
{ACAD_REACTORS
330
A004
102
}
330
A004
100
AcDbScale
 70
     0
300
1/4" = 1'-0"
140
0.25
141
12.0
290
     0
  0
SCALE
  5
A00E
102
{ACAD_REACTORS
330
A004
102
}
330
A004
100
AcDbScale
 70
     0
300
3/8" = 1'-0"
140
0.375
141
12.0
290
     0
  0
SCALE
  5
A00F
102
{ACAD_REACTORS
330
A004
102
}
330
A004
100
AcDbScale
 70
     0
300
1/2" = 1'-0"
140
0.5
141
12.0
290
     0
  0
SCALE
  5
A010
102
{ACAD_REACTORS
330
A004
102
}
330
A004
100
AcDbScale
 70
     0
300
3/4" = 1'-0"
140
0.75
141
12.0
290
     0
  0
SCALE
  5
A011
102
{ACAD_REACTORS
330
A004
102
}
330
A004
100
AcDbScale
 70
     0
300
1" = 1'-0"
140
1.0
141
12.0
290
     0
  0
SCALE
  5
A012
102
{ACAD_REACTORS
330
A004
102
}
330
A004
100
AcDbScale
 70
     0
300
1-1/2" = 1'-0"
140
1.5
141
12.0
290
     0
  0
SCALE
  5
A013
102
{ACAD_REACTORS
330
A004
102
}
330
A004
100
AcDbScale
 70
     0
300
3" = 1'-0"
140
3.0
141
12.0
290
     0
  0
SCALE
  5
A014
102
{ACAD_REACTORS
330
A004
102
}
330
A004
100
AcDbScale
 70
     0
300
6" = 1'-0"
140
6.0
141
12.0
290
     0
  0
SCALE
  5
A015
102
{ACAD_REACTORS
330
A004
102
}
330
A004
100
AcDbScale
 70
     0
300
1'-0" = 1'-0"
140
12.0
141
12.0
290
     0
  0
ACDBSECTIONVIEWSTYLE
  5
A019
102
{ACAD_XDICTIONARY
360
A074
102
}
102
{ACAD_REACTORS
330
A018
102
}
330
A018
100
AcDbModelDocViewStyle
 70
     0
  3
Imperial24
290
     0
100
AcDbSectionViewStyle
 70
     0
 71
     0
 90
       78
 71
     1
340
9C26
 40
0.24
340
0
340
0
 40
0.24
300
I, O, Q, S, X, Z
 40
0.48
 90
        3
 40
0.18
 90
        1
 71
     2
340
9C2A
 90
       25
340
9C2A
 90
       50
 40
0.24
 40
0.0
 40
0.24
 71
     3
340
9C26
 40
0.24
 90
        1
 40
0.75
 90
        1
300
%<\AcVar ViewType \f "%tc1">% %<\AcVar ViewSectionStartId>%-%<\AcVar ViewSectionEndId>%\PSCALE %<\AcVar ViewScale \f "%sn">%
 71
     4
300
ANSI31
 40
1.0
 90
        0
290
     0
290
     0
 90
        6
 40
0.0
 40
1.570796326794896
 40
0.2617993877991494
 40
1.308996938995747
 40
-0.2617993877991494
 40
1.832595714594046
  0
TABLESTYLE
  5
A003
102
{ACAD_XDICTIONARY
360
A03B
102
}
102
{ACAD_REACTORS
330
A002
102
}
330
A002
100
AcDbTableStyle
  3
Standard
 70
     0
 71
     0
 40
0.06
 41
0.06
280
     0
281
     0
  7
STANDARD
140
0.18
170
     2
 62
     0
 63
     7
283
     0
274
    -2
284
     1
 64
     0
275
    -2
285
     1
 65
     0
276
    -2
286
     1
 66
     0
277
    -2
287
     1
 67
     0
278
    -2
288
     1
 68
     0
279
    -2
289
     1
 69
     0
  7
STANDARD
140
0.25
170
     5
 62
     0
 63
     7
283
     0
274
    -2
284
     1
 64
     0
275
    -2
285
     1
 65
     0
276
    -2
286
     1
 66
     0
277
    -2
287
     1
 67
     0
278
    -2
288
     1
 68
     0
279
    -2
289
     1
 69
     0
  7
STANDARD
140
0.18
170
     5
 62
     0
 63
     7
283
     0
274
    -2
284
     1
 64
     0
275
    -2
285
     1
 65
     0
276
    -2
286
     1
 66
     0
277
    -2
287
     1
 67
     0
278
    -2
288
     1
 68
     0
279
    -2
289
     1
 69
     0
  0
VISUALSTYLE
  5
9FEE
102
{ACAD_XDICTIONARY
360
A04C
102
}
102
{ACAD_REACTORS
330
9FE8
102
}
330
9FE8
100
AcDbVisualStyle
  2
2dWireframe
 70
     4
 71
     0
 72
     2
 73
     0
 90
        0
 40
-0.6
 41
-30.0
 62
     5
 63
     7
 74
     1
 91
        4
 64
     7
 65
   257
 75
     1
175
     1
 42
1.0
 92
        0
 66
   257
 43
1.0
 76
     1
 77
     6
 78
     2
 67
     7
 79
     5
170
     0
171
     0
290
     0
174
     0
 93
        1
 44
0.0
173
     0
291
     0
 45
0.0
1001
ACAD
1000
AcDbSavedByObjectVersion
1070
     0
  0
VISUALSTYLE
  5
9FED
102
{ACAD_XDICTIONARY
360
A04A
102
}
102
{ACAD_REACTORS
330
9FE8
102
}
330
9FE8
100
AcDbVisualStyle
  2
Basic
 70
     7
 71
     1
 72
     0
 73
     1
 90
        0
 40
-0.6
 41
-30.0
 62
     5
 63
     7
 74
     0
 91
        4
 64
     7
 65
   257
 75
     1
175
     1
 42
1.0
 92
        8
 66
     7
 43
1.0
 76
     1
 77
     6
 78
     2
 67
     7
 79
     5
170
     0
171
     0
290
     0
174
     0
 93
        1
 44
0.0
173
     0
291
     1
 45
0.0
1001
ACAD
1000
AcDbSavedByObjectVersion
1070
     0
  0
VISUALSTYLE
  5
9FF4
102
{ACAD_XDICTIONARY
360
A058
102
}
102
{ACAD_REACTORS
330
9FE8
102
}
330
9FE8
100
AcDbVisualStyle
  2
Brighten
 70
    12
 71
     2
 72
     2
 73
     0
 90
        0
 40
-0.6
 41
-30.0
 62
     5
 63
     7
 74
     1
 91
        4
 64
     7
 65
   257
 75
     1
175
     1
 42
1.0
 92
        8
 66
     7
 43
1.0
 76
     1
 77
     6
 78
     2
 67
     7
 79
     5
170
     0
171
     0
290
     0
174
     0
 93
        1
 44
50.0
173
     0
291
     1
 45
0.0
1001
ACAD
1000
AcDbSavedByObjectVersion
1070
     0
  0
VISUALSTYLE
  5
9FF8
102
{ACAD_XDICTIONARY
360
A060
102
}
102
{ACAD_REACTORS
330
9FE8
102
}
330
9FE8
100
AcDbVisualStyle
  2
ColorChange
 70
    16
 71
     2
 72
     2
 73
     3
 90
        0
 40
-0.6
 41
-30.0
 62
     5
 63
     8
 74
     1
 91
        4
 64
     7
 65
   257
 75
     1
175
     1
 42
1.0
 92
        8
 66
     8
 43
1.0
 76
     1
 77
     6
 78
     2
 67
     7
 79
     5
170
     0
171
     0
290
     0
174
     0
 93
        1
 44
0.0
173
     0
291
     1
 45
0.0
1001
ACAD
1000
AcDbSavedByObjectVersion
1070
     0
  0
VISUALSTYLE
  5
9FF1
102
{ACAD_XDICTIONARY
360
A052
102
}
102
{ACAD_REACTORS
330
9FE8
102
}
330
9FE8
100
AcDbVisualStyle
  2
Conceptual
 70
     9
 71
     3
 72
     2
 73
     0
 90
        0
 40
-0.6
 41
-30.0
 62
     5
 63
     7
 74
     2
 91
        2
 64
     7
 65
   257
 75
     1
175
     1
 42
179.0
 92
        8
 66
     7
 43
1.0
 76
     1
 77
     6
 78
     2
 67
     7
 79
     3
170
     0
171
     0
290
     0
174
     0
 93
        1
 44
0.0
173
     0
291
     0
 45
0.0
1001
ACAD
1000
AcDbSavedByObjectVersion
1070
     0
  0
VISUALSTYLE
  5
9FF3
102
{ACAD_XDICTIONARY
360
A056
102
}
102
{ACAD_REACTORS
330
9FE8
102
}
330
9FE8
100
AcDbVisualStyle
  2
Dim
 70
    11
 71
     2
 72
     2
 73
     0
 90
        0
 40
-0.6
 41
-30.0
 62
     5
 63
     7
 74
     1
 91
        4
 64
     7
 65
   257
 75
     1
175
     1
 42
1.0
 92
        8
 66
     7
 43
1.0
 76
     1
 77
     6
 78
     2
 67
     7
 79
     5
170
     0
171
     0
290
     0
174
     0
 93
        1
 44
-50.0
173
     0
291
     1
 45
0.0
1001
ACAD
1000
AcDbSavedByObjectVersion
1070
     0
  0
VISUALSTYLE
  5
A000
102
{ACAD_XDICTIONARY
360
A070
102
}
102
{ACAD_REACTORS
330
9FE8
102
}
330
9FE8
100
AcDbVisualStyle
  2
EdgeColorOff
 70
    22
 71
     2
 72
     2
 73
     0
 90
        0
 40
-0.6
 41
-30.0
 62
     5
 63
     7
 74
     1
 91
        4
 64
     7
 65
   257
 75
     1
175
     1
 42
1.0
 92
        8
 66
     7
 43
1.0
 76
     1
 77
     6
 78
     2
 67
     7
 79
     5
170
     0
171
     0
290
     0
174
     0
 93
        1
 44
0.0
173
     0
291
     1
 45
0.0
1001
ACAD
1000
AcDbSavedByObjectVersion
1070
     0
  0
VISUALSTYLE
  5
9FF7
102
{ACAD_XDICTIONARY
360
A05E
102
}
102
{ACAD_REACTORS
330
9FE8
102
}
330
9FE8
100
AcDbVisualStyle
  2
Facepattern
 70
    15
 71
     2
 72
     2
 73
     0
 90
        0
 40
-0.6
 41
-30.0
 62
     5
 63
     7
 74
     1
 91
        4
 64
     7
 65
   257
 75
     1
175
     1
 42
1.0
 92
        8
 66
     7
 43
1.0
 76
     1
 77
     6
 78
     2
 67
     7
 79
     5
170
     0
171
     0
290
     0
174
     0
 93
        1
 44
0.0
173
     0
291
     1
 45
0.0
1001
ACAD
1000
AcDbSavedByObjectVersion
1070
     0
  0
VISUALSTYLE
  5
9FE9
102
{ACAD_XDICTIONARY
360
A042
102
}
102
{ACAD_REACTORS
330
9FE8
102
}
330
9FE8
100
AcDbVisualStyle
  2
Flat
 70
     0
 71
     2
 72
     1
 73
     1
 90
        2
 40
-0.6
 41
30.0
 62
     5
 63
     7
 74
     0
 91
        0
 64
     7
 65
   257
 75
     1
175
     1
 42
1.0
 92
        8
 66
     7
 43
1.0
 76
     1
 77
     6
 78
     2
 67
     7
 79
     5
170
     0
171
     0
290
     0
174
     0
 93
       13
 44
0.0
173
     0
291
     1
 45
0.0
1001
ACAD
1000
AcDbSavedByObjectVersion
1070
     0
  0
VISUALSTYLE
  5
9FEA
102
{ACAD_XDICTIONARY
360
A044
102
}
102
{ACAD_REACTORS
330
9FE8
102
}
330
9FE8
100
AcDbVisualStyle
  2
FlatWithEdges
 70
     1
 71
     2
 72
     1
 73
     1
 90
        2
 40
-0.6
 41
30.0
 62
     5
 63
     7
 74
     1
 91
        0
 64
     7
 65
   257
 75
     1
175
     1
 42
1.0
 92
        0
 66
   257
 43
1.0
 76
     1
 77
     6
 78
     2
 67
     7
 79
     5
170
     0
171
     0
290
     0
174
     0
 93
       13
 44
0.0
173
     0
291
     1
 45
0.0
1001
ACAD
1000
AcDbSavedByObjectVersion
1070
     0
  0
VISUALSTYLE
  5
9FEB
102
{ACAD_XDICTIONARY
360
A046
102
}
102
{ACAD_REACTORS
330
9FE8
102
}
330
9FE8
100
AcDbVisualStyle
  2
Gouraud
 70
     2
 71
     2
 72
     2
 73
     1
 90
        2
 40
-0.6
 41
30.0
 62
     5
 63
     7
 74
     0
 91
        0
 64
     7
 65
   257
 75
     1
175
     1
 42
1.0
 92
        0
 66
     7
 43
1.0
 76
     1
 77
     6
 78
     2
 67
     7
 79
     5
170
     0
171
     0
290
     0
174
     0
 93
       13
 44
0.0
173
     0
291
     1
 45
0.0
1001
ACAD
1000
AcDbSavedByObjectVersion
1070
     0
  0
VISUALSTYLE
  5
9FEC
102
{ACAD_XDICTIONARY
360
A048
102
}
102
{ACAD_REACTORS
330
9FE8
102
}
330
9FE8
100
AcDbVisualStyle
  2
GouraudWithEdges
 70
     3
 71
     2
 72
     2
 73
     1
 90
        2
 40
-0.6
 41
30.0
 62
     5
 63
     7
 74
     1
 91
        0
 64
     7
 65
   257
 75
     1
175
     1
 42
1.0
 92
        0
 66
   257
 43
1.0
 76
     1
 77
     6
 78
     2
 67
     7
 79
     5
170
     0
171
     0
290
     0
174
     0
 93
       13
 44
0.0
173
     0
291
     1
 45
0.0
1001
ACAD
1000
AcDbSavedByObjectVersion
1070
     0
  0
VISUALSTYLE
  5
9FF0
102
{ACAD_XDICTIONARY
360
A050
102
}
102
{ACAD_REACTORS
330
9FE8
102
}
330
9FE8
100
AcDbVisualStyle
  2
Hidden
 70
     6
 71
     1
 72
     2
 73
     2
 90
        0
 40
-0.6
 41
-30.0
 62
     5
 63
     7
 74
     2
 91
        2
 64
     7
 65
   257
 75
     2
175
     1
 42
40.0
 92
        0
 66
   257
 43
1.0
 76
     1
 77
     6
 78
     2
 67
     7
 79
     3
170
     0
171
     0
290
     0
174
     0
 93
        1
 44
0.0
173
     0
291
     0
 45
0.0
1001
ACAD
1000
AcDbSavedByObjectVersion
1070
     0
  0
VISUALSTYLE
  5
9FFE
102
{ACAD_XDICTIONARY
360
A06C
102
}
102
{ACAD_REACTORS
330
9FE8
102
}
330
9FE8
100
AcDbVisualStyle
  2
JitterOff
 70
    20
 71
     2
 72
     2
 73
     0
 90
        0
 40
-0.6
 41
-30.0
 62
     5
 63
     7
 74
     1
 91
        4
 64
     7
 65
   257
 75
     1
175
     1
 42
1.0
 92
       10
 66
     7
 43
1.0
 76
     1
 77
     6
 78
     2
 67
     7
 79
     5
170
     0
171
     0
290
     0
174
     0
 93
        1
 44
0.0
173
     0
291
     1
 45
0.0
1001
ACAD
1000
AcDbSavedByObjectVersion
1070
     0
  0
VISUALSTYLE
  5
9FF6
102
{ACAD_XDICTIONARY
360
A05C
102
}
102
{ACAD_REACTORS
330
9FE8
102
}
330
9FE8
100
AcDbVisualStyle
  2
Linepattern
 70
    14
 71
     2
 72
     2
 73
     0
 90
        0
 40
-0.6
 41
-30.0
 62
     5
 63
     7
 74
     1
 91
        4
 64
     7
 65
   257
 75
     7
175
     7
 42
1.0
 92
        8
 66
     7
 43
1.0
 76
     1
 77
     6
 78
     2
 67
     7
 79
     5
170
     0
171
     0
290
     0
174
     0
 93
        1
 44
0.0
173
     0
291
     1
 45
0.0
1001
ACAD
1000
AcDbSavedByObjectVersion
1070
     0
  0
VISUALSTYLE
  5
9FFF
102
{ACAD_XDICTIONARY
360
A06E
102
}
102
{ACAD_REACTORS
330
9FE8
102
}
330
9FE8
100
AcDbVisualStyle
  2
OverhangOff
 70
    21
 71
     2
 72
     2
 73
     0
 90
        0
 40
-0.6
 41
-30.0
 62
     5
 63
     7
 74
     1
 91
        4
 64
     7
 65
   257
 75
     1
175
     1
 42
1.0
 92
        9
 66
     7
 43
1.0
 76
     1
 77
     6
 78
     2
 67
     7
 79
     5
170
     0
171
     0
290
     0
174
     0
 93
        1
 44
0.0
173
     0
291
     1
 45
0.0
1001
ACAD
1000
AcDbSavedByObjectVersion
1070
     0
  0
VISUALSTYLE
  5
9FF2
102
{ACAD_XDICTIONARY
360
A054
102
}
102
{ACAD_REACTORS
330
9FE8
102
}
330
9FE8
100
AcDbVisualStyle
  2
Realistic
 70
     8
 71
     2
 72
     3
 73
     0
 90
        2
 40
-0.6
 41
30.0
 62
     5
 63
     7
 74
     0
 91
        0
 64
     7
 65
   257
 75
     1
175
     1
 42
1.0
 92
        8
 66
   257
 43
1.0
 76
     1
 77
     6
 78
     2
 67
     7
 79
     3
170
     0
171
     0
290
     0
174
     0
 93
       13
 44
0.0
173
     0
291
     0
 45
0.0
1001
ACAD
1000
AcDbSavedByObjectVersion
1070
     0
  0
VISUALSTYLE
  5
9FFD
102
{ACAD_XDICTIONARY
360
A06A
102
}
102
{ACAD_REACTORS
330
9FE8
102
}
330
9FE8
100
AcDbVisualStyle
  2
Shaded
 70
    27
 71
     2
 72
     2
 73
     1
 90
        2
 40
-0.6
 41
30.0
 62
     5
 63
     7
 74
     0
 91
        4
 64
     7
 65
   257
 75
     1
175
     1
 42
1.0
 92
        8
 66
   257
 43
1.0
 76
     1
 77
     6
 78
     2
 67
     8
 79
     3
170
     0
171
     0
290
     0
174
     0
 93
        5
 44
0.0
173
     0
291
     0
 45
0.0
1001
ACAD
1000
AcDbSavedByObjectVersion
1070
     0
  0
VISUALSTYLE
  5
9FFC
102
{ACAD_XDICTIONARY
360
A068
102
}
102
{ACAD_REACTORS
330
9FE8
102
}
330
9FE8
100
AcDbVisualStyle
  2
Shaded with edges
 70
    26
 71
     2
 72
     2
 73
     1
 90
        2
 40
-0.6
 41
30.0
 62
     5
 63
     7
 74
     1
 91
       10
 64
     7
 65
   257
 75
     2
175
     1
 42
1.0
 92
        8
 66
   257
 43
1.0
 76
     1
 77
     6
 78
     2
 67
     7
 79
     3
170
     0
171
     0
290
     0
174
     0
 93
        5
 44
0.0
173
     0
291
     0
 45
0.0
1001
ACAD
1000
AcDbSavedByObjectVersion
1070
     0
  0
VISUALSTYLE
  5
9FF9
102
{ACAD_XDICTIONARY
360
A062
102
}
102
{ACAD_REACTORS
330
9FE8
102
}
330
9FE8
100
AcDbVisualStyle
  2
Shades of Gray
 70
    23
 71
     2
 72
     2
 73
     3
 90
        0
 40
-0.6
 41
-30.0
 62
     5
 63
     7
 74
     2
 91
        2
 64
     7
 65
     7
 75
     1
175
     1
 42
40.0
 92
        8
 66
     7
 43
1.0
 76
     1
 77
     6
 78
     2
 67
     7
 79
     3
170
     0
171
     0
290
     0
174
     0
 93
        1
 44
0.0
173
     0
291
     0
 45
0.0
1001
ACAD
1000
AcDbSavedByObjectVersion
1070
     0
  0
VISUALSTYLE
  5
9FFA
102
{ACAD_XDICTIONARY
360
A064
102
}
102
{ACAD_REACTORS
330
9FE8
102
}
330
9FE8
100
AcDbVisualStyle
  2
Sketchy
 70
    24
 71
     1
 72
     2
 73
     2
 90
        0
 40
-0.6
 41
-30.0
 62
     5
 63
     7
 74
     2
 91
        2
 64
     7
 65
     7
 75
     1
175
     1
 42
40.0
 92
       11
 66
     7
 43
1.0
 76
     1
 77
     6
 78
     2
 67
     7
 79
     6
170
     0
171
     0
290
     0
174
     0
 93
        1
 44
0.0
173
     0
291
     0
 45
0.0
1001
ACAD
1000
AcDbSavedByObjectVersion
1070
     0
  0
VISUALSTYLE
  5
9FF5
102
{ACAD_XDICTIONARY
360
A05A
102
}
102
{ACAD_REACTORS
330
9FE8
102
}
330
9FE8
100
AcDbVisualStyle
  2
Thicken
 70
    13
 71
     2
 72
     2
 73
     0
 90
        0
 40
-0.6
 41
-30.0
 62
     5
 63
     7
 74
     1
 91
        4
 64
     7
 65
   257
 75
     1
175
     1
 42
1.0
 92
       12
 66
     7
 43
1.0
 76
     1
 77
     6
 78
     2
 67
     7
 79
     5
170
     0
171
     0
290
     0
174
     0
 93
        1
 44
0.0
173
     0
291
     1
 45
0.0
1001
ACAD
1000
AcDbSavedByObjectVersion
1070
     0
  0
VISUALSTYLE
  5
9FEF
102
{ACAD_XDICTIONARY
360
A04E
102
}
102
{ACAD_REACTORS
330
9FE8
102
}
330
9FE8
100
AcDbVisualStyle
  2
Wireframe
 70
     5
 71
     0
 72
     2
 73
     0
 90
        0
 40
-0.6
 41
-30.0
 62
     5
 63
     7
 74
     1
 91
        4
 64
     7
 65
   257
 75
     1
175
     1
 42
1.0
 92
        0
 66
   257
 43
1.0
 76
     1
 77
     6
 78
     2
 67
     7
 79
     3
170
     0
171
     0
290
     0
174
     0
 93
        1
 44
0.0
173
     0
291
     0
 45
0.0
1001
ACAD
1000
AcDbSavedByObjectVersion
1070
     0
  0
VISUALSTYLE
  5
9FFB
102
{ACAD_XDICTIONARY
360
A066
102
}
102
{ACAD_REACTORS
330
9FE8
102
}
330
9FE8
100
AcDbVisualStyle
  2
X-Ray
 70
    25
 71
     2
 72
     2
 73
     1
 90
        1
 40
0.5
 41
-30.0
 62
     5
 63
     7
 74
     1
 91
        0
 64
     7
 65
   257
 75
     1
175
     1
 42
1.0
 92
        8
 66
     7
 43
1.0
 76
     1
 77
     6
 78
     2
 67
     7
 79
     3
170
     0
171
     0
290
     0
174
     0
 93
       13
 44
0.0
173
     0
291
     0
 45
0.0
1001
ACAD
1000
AcDbSavedByObjectVersion
1070
     0
  0
DICTIONARYVAR
  5
A035
102
{ACAD_REACTORS
330
A030
102
}
330
A030
100
DictionaryVariables
280
     0
  1
1:1
  0
DICTIONARYVAR
  5
A032
102
{ACAD_REACTORS
330
A030
102
}
330
A030
100
DictionaryVariables
280
     0
  1
STANDARD
  0
DICTIONARYVAR
  5
A031
102
{ACAD_REACTORS
330
A030
102
}
330
A030
100
DictionaryVariables
280
     0
  1
STANDARD
  0
DICTIONARYVAR
  5
A033
102
{ACAD_REACTORS
330
A030
102
}
330
A030
100
DictionaryVariables
280
     0
  1
Imperial24
  0
DICTIONARYVAR
  5
A034
102
{ACAD_REACTORS
330
A030
102
}
330
A030
100
DictionaryVariables
280
     0
  1
Imperial24
  0
DICTIONARYVAR
  5
A038
102
{ACAD_REACTORS
330
A030
102
}
330
A030
100
DictionaryVariables
280
     0
  1
1
  0
DICTIONARYVAR
  5
A037
102
{ACAD_REACTORS
330
A030
102
}
330
A030
100
DictionaryVariables
280
     0
  1
0
  0
DICTIONARYVAR
  5
A036
102
{ACAD_REACTORS
330
A030
102
}
330
A030
100
DictionaryVariables
280
     0
  1
127
  0
DICTIONARYVAR
  5
A039
102
{ACAD_REACTORS
330
A030
102
}
330
A030
100
DictionaryVariables
280
     0
  1
2
  0
DICTIONARY
  5
A076
330
A01B
100
AcDbDictionary
280
     1
281
     1
  3
ACAD_XREC_ROUNDTRIP
360
A077
  0
DICTIONARY
  5
A078
330
A01C
100
AcDbDictionary
280
     1
281
     1
  3
ACAD_XREC_ROUNDTRIP
360
A079
  0
DICTIONARY
  5
A07A
330
A01D
100
AcDbDictionary
280
     1
281
     1
  3
ACAD_XREC_ROUNDTRIP
360
A07B
  0
DICTIONARY
  5
9FD9
330
9FD8
100
AcDbDictionary
280
     1
281
     1
  3
ACAD_XREC_ROUNDTRIP
360
A040
  3
BUMPTILE
360
9FDB
  3
DIFFUSETILE
360
9FDA
  3
OPACITYTILE
360
9FDE
  3
REFLECTIONTILE
360
9FDD
  3
REFRACTIONTILE
360
9FDF
  3
SPECULARTILE
360
9FDC
  0
DICTIONARY
  5
9FD1
330
9FD0
100
AcDbDictionary
280
     1
281
     1
  3
ACAD_XREC_ROUNDTRIP
360
A03F
  3
BUMPTILE
360
9FD3
  3
DIFFUSETILE
360
9FD2
  3
OPACITYTILE
360
9FD6
  3
REFLECTIONTILE
360
9FD5
  3
REFRACTIONTILE
360
9FD7
  3
SPECULARTILE
360
9FD4
  0
DICTIONARY
  5
9FE1
330
9FE0
100
AcDbDictionary
280
     1
281
     1
  3
ACAD_XREC_ROUNDTRIP
360
A041
  3
BUMPTILE
360
9FE3
  3
DIFFUSETILE
360
9FE2
  3
OPACITYTILE
360
9FE6
  3
REFLECTIONTILE
360
9FE5
  3
REFRACTIONTILE
360
9FE7
  3
SPECULARTILE
360
9FE4
  0
DICTIONARY
  5
A074
330
A019
100
AcDbDictionary
280
     1
281
     1
  3
ACAD_XREC_ROUNDTRIP
360
A075
  0
DICTIONARY
  5
A03B
330
A003
100
AcDbDictionary
280
     1
281
     1
  3
ACAD_ROUNDTRIP_2008_TABLESTYLE_CELLSTYLEMAP
360
A03C
  3
ACAD_XREC_ROUNDTRIP
360
A072
  0
DICTIONARY
  5
A04C
330
9FEE
100
AcDbDictionary
280
     1
281
     1
  3
ACAD_XREC_ROUNDTRIP
360
A04D
  0
DICTIONARY
  5
A04A
330
9FED
100
AcDbDictionary
280
     1
281
     1
  3
ACAD_XREC_ROUNDTRIP
360
A04B
  0
DICTIONARY
  5
A058
330
9FF4
100
AcDbDictionary
280
     1
281
     1
  3
ACAD_XREC_ROUNDTRIP
360
A059
  0
DICTIONARY
  5
A060
330
9FF8
100
AcDbDictionary
280
     1
281
     1
  3
ACAD_XREC_ROUNDTRIP
360
A061
  0
DICTIONARY
  5
A052
330
9FF1
100
AcDbDictionary
280
     1
281
     1
  3
ACAD_XREC_ROUNDTRIP
360
A053
  0
DICTIONARY
  5
A056
330
9FF3
100
AcDbDictionary
280
     1
281
     1
  3
ACAD_XREC_ROUNDTRIP
360
A057
  0
DICTIONARY
  5
A070
330
A000
100
AcDbDictionary
280
     1
281
     1
  3
ACAD_XREC_ROUNDTRIP
360
A071
  0
DICTIONARY
  5
A05E
330
9FF7
100
AcDbDictionary
280
     1
281
     1
  3
ACAD_XREC_ROUNDTRIP
360
A05F
  0
DICTIONARY
  5
A042
330
9FE9
100
AcDbDictionary
280
     1
281
     1
  3
ACAD_XREC_ROUNDTRIP
360
A043
  0
DICTIONARY
  5
A044
330
9FEA
100
AcDbDictionary
280
     1
281
     1
  3
ACAD_XREC_ROUNDTRIP
360
A045
  0
DICTIONARY
  5
A046
330
9FEB
100
AcDbDictionary
280
     1
281
     1
  3
ACAD_XREC_ROUNDTRIP
360
A047
  0
DICTIONARY
  5
A048
330
9FEC
100
AcDbDictionary
280
     1
281
     1
  3
ACAD_XREC_ROUNDTRIP
360
A049
  0
DICTIONARY
  5
A050
330
9FF0
100
AcDbDictionary
280
     1
281
     1
  3
ACAD_XREC_ROUNDTRIP
360
A051
  0
DICTIONARY
  5
A06C
330
9FFE
100
AcDbDictionary
280
     1
281
     1
  3
ACAD_XREC_ROUNDTRIP
360
A06D
  0
DICTIONARY
  5
A05C
330
9FF6
100
AcDbDictionary
280
     1
281
     1
  3
ACAD_XREC_ROUNDTRIP
360
A05D
  0
DICTIONARY
  5
A06E
330
9FFF
100
AcDbDictionary
280
     1
281
     1
  3
ACAD_XREC_ROUNDTRIP
360
A06F
  0
DICTIONARY
  5
A054
330
9FF2
100
AcDbDictionary
280
     1
281
     1
  3
ACAD_XREC_ROUNDTRIP
360
A055
  0
DICTIONARY
  5
A06A
330
9FFD
100
AcDbDictionary
280
     1
281
     1
  3
ACAD_XREC_ROUNDTRIP
360
A06B
  0
DICTIONARY
  5
A068
330
9FFC
100
AcDbDictionary
280
     1
281
     1
  3
ACAD_XREC_ROUNDTRIP
360
A069
  0
DICTIONARY
  5
A062
330
9FF9
100
AcDbDictionary
280
     1
281
     1
  3
ACAD_XREC_ROUNDTRIP
360
A063
  0
DICTIONARY
  5
A064
330
9FFA
100
AcDbDictionary
280
     1
281
     1
  3
ACAD_XREC_ROUNDTRIP
360
A065
  0
DICTIONARY
  5
A05A
330
9FF5
100
AcDbDictionary
280
     1
281
     1
  3
ACAD_XREC_ROUNDTRIP
360
A05B
  0
DICTIONARY
  5
A04E
330
9FEF
100
AcDbDictionary
280
     1
281
     1
  3
ACAD_XREC_ROUNDTRIP
360
A04F
  0
DICTIONARY
  5
A066
330
9FFB
100
AcDbDictionary
280
     1
281
     1
  3
ACAD_XREC_ROUNDTRIP
360
A067
  0
XRECORD
  5
A077
102
{ACAD_REACTORS
330
A076
102
}
330
A076
100
AcDbXrecord
280
     1
102
DISPLAYNAME
  1
Imperial24
102
FLAGS
 90
        0
  0
XRECORD
  5
A079
102
{ACAD_REACTORS
330
A078
102
}
330
A078
100
AcDbXrecord
280
     1
102
SHADEPLOT
 70
     0
102
SHADEPLOTRESLEVEL
 70
     2
102
SHADEPLOTCUSTOMDPI
 70
   300
  0
XRECORD
  5
A07B
102
{ACAD_REACTORS
330
A07A
102
}
330
A07A
100
AcDbXrecord
280
     1
102
SHADEPLOT
 70
     0
102
SHADEPLOTRESLEVEL
 70
     2
102
SHADEPLOTCUSTOMDPI
 70
   300
  0
XRECORD
  5
A040
102
{ACAD_REACTORS
330
9FD9
102
}
330
9FD9
100
AcDbXrecord
280
     1
102
MATERIAL
148
0.0
149
0.0
149
0.0
 93
        0
 94
      127
282
     0
 72
     0
 77
     0
171
     0
175
     0
179
     0
273
     0
  0
XRECORD
  5
9FDB
102
{ACAD_REACTORS
330
9FD9
102
}
330
9FD9
100
AcDbXrecord
280
     1
270
     1
271
     1
  0
XRECORD
  5
9FDA
102
{ACAD_REACTORS
330
9FD9
102
}
330
9FD9
100
AcDbXrecord
280
     1
270
     1
271
     1
  0
XRECORD
  5
9FDE
102
{ACAD_REACTORS
330
9FD9
102
}
330
9FD9
100
AcDbXrecord
280
     1
270
     1
271
     1
  0
XRECORD
  5
9FDD
102
{ACAD_REACTORS
330
9FD9
102
}
330
9FD9
100
AcDbXrecord
280
     1
270
     1
271
     1
  0
XRECORD
  5
9FDF
102
{ACAD_REACTORS
330
9FD9
102
}
330
9FD9
100
AcDbXrecord
280
     1
270
     1
271
     1
  0
XRECORD
  5
9FDC
102
{ACAD_REACTORS
330
9FD9
102
}
330
9FD9
100
AcDbXrecord
280
     1
270
     1
271
     1
  0
XRECORD
  5
A03F
102
{ACAD_REACTORS
330
9FD1
102
}
330
9FD1
100
AcDbXrecord
280
     1
102
MATERIAL
148
0.0
149
0.0
149
0.0
 93
        0
 94
      127
282
     0
 72
     0
 77
     0
171
     0
175
     0
179
     0
273
     0
  0
XRECORD
  5
9FD3
102
{ACAD_REACTORS
330
9FD1
102
}
330
9FD1
100
AcDbXrecord
280
     1
270
     1
271
     1
  0
XRECORD
  5
9FD2
102
{ACAD_REACTORS
330
9FD1
102
}
330
9FD1
100
AcDbXrecord
280
     1
270
     1
271
     1
  0
XRECORD
  5
9FD6
102
{ACAD_REACTORS
330
9FD1
102
}
330
9FD1
100
AcDbXrecord
280
     1
270
     1
271
     1
  0
XRECORD
  5
9FD5
102
{ACAD_REACTORS
330
9FD1
102
}
330
9FD1
100
AcDbXrecord
280
     1
270
     1
271
     1
  0
XRECORD
  5
9FD7
102
{ACAD_REACTORS
330
9FD1
102
}
330
9FD1
100
AcDbXrecord
280
     1
270
     1
271
     1
  0
XRECORD
  5
9FD4
102
{ACAD_REACTORS
330
9FD1
102
}
330
9FD1
100
AcDbXrecord
280
     1
270
     1
271
     1
  0
XRECORD
  5
A041
102
{ACAD_REACTORS
330
9FE1
102
}
330
9FE1
100
AcDbXrecord
280
     1
102
MATERIAL
148
0.0
149
0.0
149
0.0
 93
        0
 94
      127
282
     0
 72
     0
 77
     0
171
     0
175
     0
179
     0
273
     0
  0
XRECORD
  5
9FE3
102
{ACAD_REACTORS
330
9FE1
102
}
330
9FE1
100
AcDbXrecord
280
     1
270
     1
271
     1
  0
XRECORD
  5
9FE2
102
{ACAD_REACTORS
330
9FE1
102
}
330
9FE1
100
AcDbXrecord
280
     1
270
     1
271
     1
  0
XRECORD
  5
9FE6
102
{ACAD_REACTORS
330
9FE1
102
}
330
9FE1
100
AcDbXrecord
280
     1
270
     1
271
     1
  0
XRECORD
  5
9FE5
102
{ACAD_REACTORS
330
9FE1
102
}
330
9FE1
100
AcDbXrecord
280
     1
270
     1
271
     1
  0
XRECORD
  5
9FE7
102
{ACAD_REACTORS
330
9FE1
102
}
330
9FE1
100
AcDbXrecord
280
     1
270
     1
271
     1
  0
XRECORD
  5
9FE4
102
{ACAD_REACTORS
330
9FE1
102
}
330
9FE1
100
AcDbXrecord
280
     1
270
     1
271
     1
  0
XRECORD
  5
A075
102
{ACAD_REACTORS
330
A074
102
}
330
A074
100
AcDbXrecord
280
     1
102
DISPLAYNAME
  1
Imperial24
102
FLAGS
 90
        0
  0
CELLSTYLEMAP
  5
A03C
102
{ACAD_REACTORS
330
A03B
102
}
330
A03B
100
AcDbCellStyleMap
 90
        3
300
CELLSTYLE
  1
TABLEFORMAT_BEGIN
 90
        5
170
     1
 91
        0
 92
    32768
 62
   257
 93
        1
300
CONTENTFORMAT
  1
CONTENTFORMAT_BEGIN
 90
        0
 91
        0
 92
      512
 93
        0
300

 40
0.0
140
1.0
 94
        5
 62
     0
340
9C26
144
0.25
309
CONTENTFORMAT_END
171
     0
 94
        0
309
TABLEFORMAT_END
  1
CELLSTYLE_BEGIN
 90
        1
 91
        1
300
_TITLE
309
CELLSTYLE_END
300
CELLSTYLE
  1
TABLEFORMAT_BEGIN
 90
        5
170
     1
 91
        0
 92
        0
 62
   257
 93
        1
300
CONTENTFORMAT
  1
CONTENTFORMAT_BEGIN
 90
        0
 91
        0
 92
      512
 93
        0
300

 40
0.0
140
1.0
 94
        5
 62
     0
340
9C26
144
0.18
309
CONTENTFORMAT_END
171
     0
 94
        0
309
TABLEFORMAT_END
  1
CELLSTYLE_BEGIN
 90
        2
 91
        1
300
_HEADER
309
CELLSTYLE_END
300
CELLSTYLE
  1
TABLEFORMAT_BEGIN
 90
        5
170
     1
 91
        0
 92
        0
 62
   257
 93
        1
300
CONTENTFORMAT
  1
CONTENTFORMAT_BEGIN
 90
        0
 91
        0
 92
      512
 93
        0
300

 40
0.0
140
1.0
 94
        2
 62
     0
340
9C26
144
0.18
309
CONTENTFORMAT_END
171
     0
 94
        0
309
TABLEFORMAT_END
  1
CELLSTYLE_BEGIN
 90
        3
 91
        2
300
_DATA
309
CELLSTYLE_END
  0
XRECORD
  5
A072
102
{ACAD_REACTORS
330
A03B
102
}
330
A03B
100
AcDbXrecord
280
     1
102
ACAD_ROUNDTRIP_PRE2007_TABLESTYLE
 90
      512
 91
        0
  1

 92
      512
 93
        0
  2

 94
      512
 95
        0
  3

  0
XRECORD
  5
A04D
102
{ACAD_REACTORS
330
A04C
102
}
330
A04C
100
AcDbXrecord
280
     1
102
RTVSPost2010Prop28
280
     1
102
RTVSPost2010PropOp28
 70
     1
102
RTVSPost2010Prop29
280
     1
102
RTVSPost2010PropOp29
 70
     1
102
RTVSPost2010Prop30
280
     0
102
RTVSPost2010PropOp30
 70
     1
102
RTVSPost2010Prop31
280
     0
102
RTVSPost2010PropOp31
 70
     1
102
RTVSPost2010Prop32
280
     0
102
RTVSPost2010PropOp32
 70
     1
102
RTVSPost2010Prop33
280
     0
102
RTVSPost2010PropOp33
 70
     1
102
RTVSPost2010Prop34
280
     0
102
RTVSPost2010PropOp34
 70
     1
102
RTVSPost2010Prop35
280
     0
102
RTVSPost2010PropOp35
 70
     1
102
RTVSPost2010Prop36
280
     0
102
RTVSPost2010PropOp36
 70
     1
102
RTVSPost2010Prop37
 90
       50
102
RTVSPost2010PropOp37
 70
     1
102
RTVSPost2010Prop38
140
0.0
102
RTVSPost2010PropOp38
 70
     1
102
RTVSPost2010Prop39
140
1.0
102
RTVSPost2010PropOp39
 70
     1
102
RTVSPost2010Prop40
 90
        0
102
RTVSPost2010PropOp40
 70
     1
102
RTVSPost2010Prop41ColorIndex
 90
       18
102
RTVSPost2010Prop41ColorRGB
 90
        0
102
RTVSPost2010PropOp41
 70
     1
102
RTVSPost2010Prop42
 90
       50
102
RTVSPost2010PropOp42
 70
     1
102
RTVSPost2010Prop43
 90
        3
102
RTVSPost2010PropOp43
 70
     1
102
RTVSPost2010Prop44ColorIndex
 90
        5
102
RTVSPost2010Prop44ColorRGB
 90
      255
102
RTVSPost2010PropOp44
 70
     1
102
RTVSPost2010Prop45
280
     0
102
RTVSPost2010PropOp45
 70
     1
102
RTVSPost2010Prop46
 90
       50
102
RTVSPost2010PropOp46
 70
     1
102
RTVSPost2010Prop47
 90
       50
102
RTVSPost2010PropOp47
 70
     1
102
RTVSPost2010Prop48
 90
       50
102
RTVSPost2010PropOp48
 70
     1
102
RTVSPost2010Prop49
280
     0
102
RTVSPost2010PropOp49
 70
     1
102
RTVSPost2010Prop50
 90
       50
102
RTVSPost2010PropOp50
 70
     1
102
RTVSPost2010Prop51ColorIndex
 90
      256
102
RTVSPost2010Prop51ColorRGB
 90
-16777216
102
RTVSPost2010PropOp51
 70
     0
102
RTVSPost2010Prop52
140
1.0
102
RTVSPost2010PropOp52
 70
     0
102
RTVSPost2010Prop53
 90
        2
102
RTVSPost2010PropOp53
 70
     1
102
RTVSPost2010Prop54
  1
strokes_ogs.tif
102
RTVSPost2010PropOp54
 70
     1
102
RTVSPost2010Prop55
280
     0
102
RTVSPost2010PropOp55
 70
     1
102
RTVSPost2010Prop56
140
1.0
102
RTVSPost2010PropOp56
 70
     1
102
RTVSPost2010Prop57
140
1.0
102
RTVSPost2010PropOp57
 70
     1
102
RTVSPropertyOp0
 70
     1
102
RTVSPropertyOp1
 70
     1
102
RTVSPropertyOp2
 70
     1
102
RTVSPropertyOp3
 70
     1
102
RTVSPropertyOp4
 70
     1
102
RTVSPropertyOp5
 70
     1
102
RTVSPropertyOp6
 70
     1
102
RTVSPropertyOp7
 70
     1
102
RTVSPropertyOp8
 70
     1
102
RTVSPropertyOp9
 70
     1
102
RTVSPropertyOp10
 70
     1
102
RTVSPropertyOp11
 70
     1
102
RTVSPropertyOp12
 70
     1
102
RTVSPropertyOp13
 70
     1
102
RTVSPropertyOp14
 70
     1
102
RTVSPropertyOp15
 70
     1
102
RTVSPropertyOp16
 70
     1
102
RTVSPropertyOp17
 70
     1
102
RTVSPropertyOp18
 70
     1
102
RTVSPropertyOp19
 70
     1
102
RTVSPropertyOp20
 70
     1
102
RTVSPropertyOp21
 70
     1
102
RTVSPropertyOp22
 70
     1
102
RTVSPropertyOp23
 70
     1
102
RTVSPropertyOp24
 70
     1
102
RTVSPropertyOp25
 70
     1
102
RTVSPropertyOp26
 70
     1
102
RTVSPropertyOp27
 70
     1
102
RTVSPropertyOp28
 70
     1
102
RTVSPropertyOp29
 70
     1
102
RTVSPropertyOp30
 70
     1
102
RTVSPropertyOp31
 70
     1
102
RTVSPropertyOp32
 70
     1
102
RTVSPropertyOp33
 70
     1
102
RTVSPropertyOp34
 70
     1
102
RTVSPropertyOp35
 70
     1
102
RTVSPropertyOp36
 70
     1
102
RTVSPropertyOp37
 70
     1
102
RTVSPropertyOp38
 70
     1
102
RTVSPropertyOp39
 70
     1
102
RTVSPropertyOp40
 70
     1
102
RTVSPropertyOp41
 70
     1
102
RTVSPropertyOp42
 70
     1
102
RTVSPropertyOp43
 70
     1
102
RTVSPropertyOp44
 70
     1
102
RTVSPropertyOp45
 70
     1
102
RTVSPropertyOp46
 70
     1
102
RTVSPropertyOp47
 70
     1
102
RTVSPropertyOp48
 70
     1
102
RTVSPropertyOp49
 70
     1
102
RTVSPropertyOp50
 70
     1
102
RTVSPropertyOp51
 70
     0
102
RTVSPropertyOp52
 70
     0
102
RTVSPropertyOp53
 70
     1
102
RTVSPropertyOp54
 70
     1
102
RTVSPropertyOp55
 70
     1
102
RTVSPropertyOp56
 70
     1
102
RTVSPropertyOp57
 70
     1
102
RTVSPropertyOp58
 70
     1
102
RTVSPropertyOp59
 70
     1
102
RTVSPropertyOp60
 70
     1
102
RTVSPropertyOp61
 70
     1
102
RTVSPropertyOp62
 70
     1
  0
XRECORD
  5
A04B
102
{ACAD_REACTORS
330
A04A
102
}
330
A04A
100
AcDbXrecord
280
     1
102
RTVSPost2010Prop28
280
     0
102
RTVSPost2010PropOp28
 70
     1
102
RTVSPost2010Prop29
280
     1
102
RTVSPost2010PropOp29
 70
     1
102
RTVSPost2010Prop30
280
     1
102
RTVSPost2010PropOp30
 70
     1
102
RTVSPost2010Prop31
280
     0
102
RTVSPost2010PropOp31
 70
     1
102
RTVSPost2010Prop32
280
     0
102
RTVSPost2010PropOp32
 70
     1
102
RTVSPost2010Prop33
280
     0
102
RTVSPost2010PropOp33
 70
     1
102
RTVSPost2010Prop34
280
     0
102
RTVSPost2010PropOp34
 70
     1
102
RTVSPost2010Prop35
280
     0
102
RTVSPost2010PropOp35
 70
     1
102
RTVSPost2010Prop36
280
     0
102
RTVSPost2010PropOp36
 70
     1
102
RTVSPost2010Prop37
 90
       50
102
RTVSPost2010PropOp37
 70
     1
102
RTVSPost2010Prop38
140
0.0
102
RTVSPost2010PropOp38
 70
     1
102
RTVSPost2010Prop39
140
1.0
102
RTVSPost2010PropOp39
 70
     1
102
RTVSPost2010Prop40
 90
        0
102
RTVSPost2010PropOp40
 70
     1
102
RTVSPost2010Prop41ColorIndex
 90
       18
102
RTVSPost2010Prop41ColorRGB
 90
        0
102
RTVSPost2010PropOp41
 70
     1
102
RTVSPost2010Prop42
 90
       50
102
RTVSPost2010PropOp42
 70
     1
102
RTVSPost2010Prop43
 90
        3
102
RTVSPost2010PropOp43
 70
     1
102
RTVSPost2010Prop44ColorIndex
 90
        5
102
RTVSPost2010Prop44ColorRGB
 90
      255
102
RTVSPost2010PropOp44
 70
     1
102
RTVSPost2010Prop45
280
     0
102
RTVSPost2010PropOp45
 70
     1
102
RTVSPost2010Prop46
 90
       50
102
RTVSPost2010PropOp46
 70
     1
102
RTVSPost2010Prop47
 90
       50
102
RTVSPost2010PropOp47
 70
     1
102
RTVSPost2010Prop48
 90
       50
102
RTVSPost2010PropOp48
 70
     1
102
RTVSPost2010Prop49
280
     0
102
RTVSPost2010PropOp49
 70
     1
102
RTVSPost2010Prop50
 90
       50
102
RTVSPost2010PropOp50
 70
     1
102
RTVSPost2010Prop51ColorIndex
 90
      256
102
RTVSPost2010Prop51ColorRGB
 90
-16777216
102
RTVSPost2010PropOp51
 70
     0
102
RTVSPost2010Prop52
140
1.0
102
RTVSPost2010PropOp52
 70
     0
102
RTVSPost2010Prop53
 90
        2
102
RTVSPost2010PropOp53
 70
     1
102
RTVSPost2010Prop54
  1
strokes_ogs.tif
102
RTVSPost2010PropOp54
 70
     1
102
RTVSPost2010Prop55
280
     0
102
RTVSPost2010PropOp55
 70
     1
102
RTVSPost2010Prop56
140
1.0
102
RTVSPost2010PropOp56
 70
     1
102
RTVSPost2010Prop57
140
1.0
102
RTVSPost2010PropOp57
 70
     1
102
RTVSPropertyOp0
 70
     1
102
RTVSPropertyOp1
 70
     1
102
RTVSPropertyOp2
 70
     1
102
RTVSPropertyOp3
 70
     1
102
RTVSPropertyOp4
 70
     1
102
RTVSPropertyOp5
 70
     1
102
RTVSPropertyOp6
 70
     1
102
RTVSPropertyOp7
 70
     1
102
RTVSPropertyOp8
 70
     1
102
RTVSPropertyOp9
 70
     1
102
RTVSPropertyOp10
 70
     1
102
RTVSPropertyOp11
 70
     1
102
RTVSPropertyOp12
 70
     1
102
RTVSPropertyOp13
 70
     1
102
RTVSPropertyOp14
 70
     1
102
RTVSPropertyOp15
 70
     1
102
RTVSPropertyOp16
 70
     1
102
RTVSPropertyOp17
 70
     1
102
RTVSPropertyOp18
 70
     1
102
RTVSPropertyOp19
 70
     1
102
RTVSPropertyOp20
 70
     1
102
RTVSPropertyOp21
 70
     1
102
RTVSPropertyOp22
 70
     1
102
RTVSPropertyOp23
 70
     1
102
RTVSPropertyOp24
 70
     1
102
RTVSPropertyOp25
 70
     1
102
RTVSPropertyOp26
 70
     1
102
RTVSPropertyOp27
 70
     1
102
RTVSPropertyOp28
 70
     1
102
RTVSPropertyOp29
 70
     1
102
RTVSPropertyOp30
 70
     1
102
RTVSPropertyOp31
 70
     1
102
RTVSPropertyOp32
 70
     1
102
RTVSPropertyOp33
 70
     1
102
RTVSPropertyOp34
 70
     1
102
RTVSPropertyOp35
 70
     1
102
RTVSPropertyOp36
 70
     1
102
RTVSPropertyOp37
 70
     1
102
RTVSPropertyOp38
 70
     1
102
RTVSPropertyOp39
 70
     1
102
RTVSPropertyOp40
 70
     1
102
RTVSPropertyOp41
 70
     1
102
RTVSPropertyOp42
 70
     1
102
RTVSPropertyOp43
 70
     1
102
RTVSPropertyOp44
 70
     1
102
RTVSPropertyOp45
 70
     1
102
RTVSPropertyOp46
 70
     1
102
RTVSPropertyOp47
 70
     1
102
RTVSPropertyOp48
 70
     1
102
RTVSPropertyOp49
 70
     1
102
RTVSPropertyOp50
 70
     1
102
RTVSPropertyOp51
 70
     0
102
RTVSPropertyOp52
 70
     0
102
RTVSPropertyOp53
 70
     1
102
RTVSPropertyOp54
 70
     1
102
RTVSPropertyOp55
 70
     1
102
RTVSPropertyOp56
 70
     1
102
RTVSPropertyOp57
 70
     1
102
RTVSPropertyOp58
 70
     1
102
RTVSPropertyOp59
 70
     1
102
RTVSPropertyOp60
 70
     1
102
RTVSPropertyOp61
 70
     1
102
RTVSPropertyOp62
 70
     1
  0
XRECORD
  5
A059
102
{ACAD_REACTORS
330
A058
102
}
330
A058
100
AcDbXrecord
280
     1
102
RTVSPost2010Prop28
280
     0
102
RTVSPost2010PropOp28
 70
     1
102
RTVSPost2010Prop29
280
     1
102
RTVSPost2010PropOp29
 70
     1
102
RTVSPost2010Prop30
280
     1
102
RTVSPost2010PropOp30
 70
     1
102
RTVSPost2010Prop31
280
     0
102
RTVSPost2010PropOp31
 70
     1
102
RTVSPost2010Prop32
280
     0
102
RTVSPost2010PropOp32
 70
     1
102
RTVSPost2010Prop33
280
     0
102
RTVSPost2010PropOp33
 70
     1
102
RTVSPost2010Prop34
280
     0
102
RTVSPost2010PropOp34
 70
     1
102
RTVSPost2010Prop35
280
     0
102
RTVSPost2010PropOp35
 70
     1
102
RTVSPost2010Prop36
280
     0
102
RTVSPost2010PropOp36
 70
     1
102
RTVSPost2010Prop37
 90
       50
102
RTVSPost2010PropOp37
 70
     1
102
RTVSPost2010Prop38
140
0.0
102
RTVSPost2010PropOp38
 70
     1
102
RTVSPost2010Prop39
140
1.0
102
RTVSPost2010PropOp39
 70
     1
102
RTVSPost2010Prop40
 90
        0
102
RTVSPost2010PropOp40
 70
     1
102
RTVSPost2010Prop41ColorIndex
 90
       18
102
RTVSPost2010Prop41ColorRGB
 90
        0
102
RTVSPost2010PropOp41
 70
     1
102
RTVSPost2010Prop42
 90
       50
102
RTVSPost2010PropOp42
 70
     1
102
RTVSPost2010Prop43
 90
        3
102
RTVSPost2010PropOp43
 70
     1
102
RTVSPost2010Prop44ColorIndex
 90
        5
102
RTVSPost2010Prop44ColorRGB
 90
      255
102
RTVSPost2010PropOp44
 70
     1
102
RTVSPost2010Prop45
280
     0
102
RTVSPost2010PropOp45
 70
     1
102
RTVSPost2010Prop46
 90
       50
102
RTVSPost2010PropOp46
 70
     1
102
RTVSPost2010Prop47
 90
       50
102
RTVSPost2010PropOp47
 70
     1
102
RTVSPost2010Prop48
 90
       50
102
RTVSPost2010PropOp48
 70
     1
102
RTVSPost2010Prop49
280
     0
102
RTVSPost2010PropOp49
 70
     1
102
RTVSPost2010Prop50
 90
       50
102
RTVSPost2010PropOp50
 70
     1
102
RTVSPost2010Prop51ColorIndex
 90
      256
102
RTVSPost2010Prop51ColorRGB
 90
-16777216
102
RTVSPost2010PropOp51
 70
     0
102
RTVSPost2010Prop52
140
1.0
102
RTVSPost2010PropOp52
 70
     0
102
RTVSPost2010Prop53
 90
        2
102
RTVSPost2010PropOp53
 70
     1
102
RTVSPost2010Prop54
  1
strokes_ogs.tif
102
RTVSPost2010PropOp54
 70
     1
102
RTVSPost2010Prop55
280
     0
102
RTVSPost2010PropOp55
 70
     1
102
RTVSPost2010Prop56
140
1.0
102
RTVSPost2010PropOp56
 70
     1
102
RTVSPost2010Prop57
140
1.0
102
RTVSPost2010PropOp57
 70
     1
102
RTVSPropertyOp0
 70
     1
102
RTVSPropertyOp1
 70
     1
102
RTVSPropertyOp2
 70
     1
102
RTVSPropertyOp3
 70
     1
102
RTVSPropertyOp4
 70
     1
102
RTVSPropertyOp5
 70
     1
102
RTVSPropertyOp6
 70
     1
102
RTVSPropertyOp7
 70
     1
102
RTVSPropertyOp8
 70
     1
102
RTVSPropertyOp9
 70
     1
102
RTVSPropertyOp10
 70
     1
102
RTVSPropertyOp11
 70
     1
102
RTVSPropertyOp12
 70
     1
102
RTVSPropertyOp13
 70
     1
102
RTVSPropertyOp14
 70
     1
102
RTVSPropertyOp15
 70
     1
102
RTVSPropertyOp16
 70
     1
102
RTVSPropertyOp17
 70
     1
102
RTVSPropertyOp18
 70
     1
102
RTVSPropertyOp19
 70
     1
102
RTVSPropertyOp20
 70
     1
102
RTVSPropertyOp21
 70
     1
102
RTVSPropertyOp22
 70
     1
102
RTVSPropertyOp23
 70
     1
102
RTVSPropertyOp24
 70
     1
102
RTVSPropertyOp25
 70
     1
102
RTVSPropertyOp26
 70
     1
102
RTVSPropertyOp27
 70
     1
102
RTVSPropertyOp28
 70
     1
102
RTVSPropertyOp29
 70
     1
102
RTVSPropertyOp30
 70
     1
102
RTVSPropertyOp31
 70
     1
102
RTVSPropertyOp32
 70
     1
102
RTVSPropertyOp33
 70
     1
102
RTVSPropertyOp34
 70
     1
102
RTVSPropertyOp35
 70
     1
102
RTVSPropertyOp36
 70
     1
102
RTVSPropertyOp37
 70
     1
102
RTVSPropertyOp38
 70
     1
102
RTVSPropertyOp39
 70
     1
102
RTVSPropertyOp40
 70
     1
102
RTVSPropertyOp41
 70
     1
102
RTVSPropertyOp42
 70
     1
102
RTVSPropertyOp43
 70
     1
102
RTVSPropertyOp44
 70
     1
102
RTVSPropertyOp45
 70
     1
102
RTVSPropertyOp46
 70
     1
102
RTVSPropertyOp47
 70
     1
102
RTVSPropertyOp48
 70
     1
102
RTVSPropertyOp49
 70
     1
102
RTVSPropertyOp50
 70
     1
102
RTVSPropertyOp51
 70
     0
102
RTVSPropertyOp52
 70
     0
102
RTVSPropertyOp53
 70
     1
102
RTVSPropertyOp54
 70
     1
102
RTVSPropertyOp55
 70
     1
102
RTVSPropertyOp56
 70
     1
102
RTVSPropertyOp57
 70
     1
102
RTVSPropertyOp58
 70
     1
102
RTVSPropertyOp59
 70
     1
102
RTVSPropertyOp60
 70
     1
102
RTVSPropertyOp61
 70
     1
102
RTVSPropertyOp62
 70
     1
  0
XRECORD
  5
A061
102
{ACAD_REACTORS
330
A060
102
}
330
A060
100
AcDbXrecord
280
     1
102
RTVSPost2010Prop28
280
     0
102
RTVSPost2010PropOp28
 70
     1
102
RTVSPost2010Prop29
280
     1
102
RTVSPost2010PropOp29
 70
     1
102
RTVSPost2010Prop30
280
     1
102
RTVSPost2010PropOp30
 70
     1
102
RTVSPost2010Prop31
280
     0
102
RTVSPost2010PropOp31
 70
     1
102
RTVSPost2010Prop32
280
     0
102
RTVSPost2010PropOp32
 70
     1
102
RTVSPost2010Prop33
280
     0
102
RTVSPost2010PropOp33
 70
     1
102
RTVSPost2010Prop34
280
     0
102
RTVSPost2010PropOp34
 70
     1
102
RTVSPost2010Prop35
280
     0
102
RTVSPost2010PropOp35
 70
     1
102
RTVSPost2010Prop36
280
     0
102
RTVSPost2010PropOp36
 70
     1
102
RTVSPost2010Prop37
 90
       50
102
RTVSPost2010PropOp37
 70
     1
102
RTVSPost2010Prop38
140
0.0
102
RTVSPost2010PropOp38
 70
     1
102
RTVSPost2010Prop39
140
1.0
102
RTVSPost2010PropOp39
 70
     1
102
RTVSPost2010Prop40
 90
        0
102
RTVSPost2010PropOp40
 70
     1
102
RTVSPost2010Prop41ColorIndex
 90
       18
102
RTVSPost2010Prop41ColorRGB
 90
        0
102
RTVSPost2010PropOp41
 70
     1
102
RTVSPost2010Prop42
 90
       50
102
RTVSPost2010PropOp42
 70
     1
102
RTVSPost2010Prop43
 90
        3
102
RTVSPost2010PropOp43
 70
     1
102
RTVSPost2010Prop44ColorIndex
 90
        5
102
RTVSPost2010Prop44ColorRGB
 90
      255
102
RTVSPost2010PropOp44
 70
     1
102
RTVSPost2010Prop45
280
     0
102
RTVSPost2010PropOp45
 70
     1
102
RTVSPost2010Prop46
 90
       50
102
RTVSPost2010PropOp46
 70
     1
102
RTVSPost2010Prop47
 90
       50
102
RTVSPost2010PropOp47
 70
     1
102
RTVSPost2010Prop48
 90
       50
102
RTVSPost2010PropOp48
 70
     1
102
RTVSPost2010Prop49
280
     0
102
RTVSPost2010PropOp49
 70
     1
102
RTVSPost2010Prop50
 90
       50
102
RTVSPost2010PropOp50
 70
     1
102
RTVSPost2010Prop51ColorIndex
 90
      256
102
RTVSPost2010Prop51ColorRGB
 90
-16777216
102
RTVSPost2010PropOp51
 70
     0
102
RTVSPost2010Prop52
140
1.0
102
RTVSPost2010PropOp52
 70
     0
102
RTVSPost2010Prop53
 90
        2
102
RTVSPost2010PropOp53
 70
     1
102
RTVSPost2010Prop54
  1
strokes_ogs.tif
102
RTVSPost2010PropOp54
 70
     1
102
RTVSPost2010Prop55
280
     0
102
RTVSPost2010PropOp55
 70
     1
102
RTVSPost2010Prop56
140
1.0
102
RTVSPost2010PropOp56
 70
     1
102
RTVSPost2010Prop57
140
1.0
102
RTVSPost2010PropOp57
 70
     1
102
RTVSPropertyOp0
 70
     1
102
RTVSPropertyOp1
 70
     1
102
RTVSPropertyOp2
 70
     1
102
RTVSPropertyOp3
 70
     1
102
RTVSPropertyOp4
 70
     1
102
RTVSPropertyOp5
 70
     1
102
RTVSPropertyOp6
 70
     1
102
RTVSPropertyOp7
 70
     1
102
RTVSPropertyOp8
 70
     1
102
RTVSPropertyOp9
 70
     1
102
RTVSPropertyOp10
 70
     1
102
RTVSPropertyOp11
 70
     1
102
RTVSPropertyOp12
 70
     1
102
RTVSPropertyOp13
 70
     1
102
RTVSPropertyOp14
 70
     1
102
RTVSPropertyOp15
 70
     1
102
RTVSPropertyOp16
 70
     1
102
RTVSPropertyOp17
 70
     1
102
RTVSPropertyOp18
 70
     1
102
RTVSPropertyOp19
 70
     1
102
RTVSPropertyOp20
 70
     1
102
RTVSPropertyOp21
 70
     1
102
RTVSPropertyOp22
 70
     1
102
RTVSPropertyOp23
 70
     1
102
RTVSPropertyOp24
 70
     1
102
RTVSPropertyOp25
 70
     1
102
RTVSPropertyOp26
 70
     1
102
RTVSPropertyOp27
 70
     1
102
RTVSPropertyOp28
 70
     1
102
RTVSPropertyOp29
 70
     1
102
RTVSPropertyOp30
 70
     1
102
RTVSPropertyOp31
 70
     1
102
RTVSPropertyOp32
 70
     1
102
RTVSPropertyOp33
 70
     1
102
RTVSPropertyOp34
 70
     1
102
RTVSPropertyOp35
 70
     1
102
RTVSPropertyOp36
 70
     1
102
RTVSPropertyOp37
 70
     1
102
RTVSPropertyOp38
 70
     1
102
RTVSPropertyOp39
 70
     1
102
RTVSPropertyOp40
 70
     1
102
RTVSPropertyOp41
 70
     1
102
RTVSPropertyOp42
 70
     1
102
RTVSPropertyOp43
 70
     1
102
RTVSPropertyOp44
 70
     1
102
RTVSPropertyOp45
 70
     1
102
RTVSPropertyOp46
 70
     1
102
RTVSPropertyOp47
 70
     1
102
RTVSPropertyOp48
 70
     1
102
RTVSPropertyOp49
 70
     1
102
RTVSPropertyOp50
 70
     1
102
RTVSPropertyOp51
 70
     0
102
RTVSPropertyOp52
 70
     0
102
RTVSPropertyOp53
 70
     1
102
RTVSPropertyOp54
 70
     1
102
RTVSPropertyOp55
 70
     1
102
RTVSPropertyOp56
 70
     1
102
RTVSPropertyOp57
 70
     1
102
RTVSPropertyOp58
 70
     1
102
RTVSPropertyOp59
 70
     1
102
RTVSPropertyOp60
 70
     1
102
RTVSPropertyOp61
 70
     1
102
RTVSPropertyOp62
 70
     1
  0
XRECORD
  5
A053
102
{ACAD_REACTORS
330
A052
102
}
330
A052
100
AcDbXrecord
280
     1
102
RTVSPost2010Prop28
280
     0
102
RTVSPost2010PropOp28
 70
     1
102
RTVSPost2010Prop29
280
     1
102
RTVSPost2010PropOp29
 70
     1
102
RTVSPost2010Prop30
280
     1
102
RTVSPost2010PropOp30
 70
     1
102
RTVSPost2010Prop31
280
     0
102
RTVSPost2010PropOp31
 70
     1
102
RTVSPost2010Prop32
280
     0
102
RTVSPost2010PropOp32
 70
     1
102
RTVSPost2010Prop33
280
     0
102
RTVSPost2010PropOp33
 70
     1
102
RTVSPost2010Prop34
280
     0
102
RTVSPost2010PropOp34
 70
     1
102
RTVSPost2010Prop35
280
     0
102
RTVSPost2010PropOp35
 70
     1
102
RTVSPost2010Prop36
280
     0
102
RTVSPost2010PropOp36
 70
     1
102
RTVSPost2010Prop37
 90
       50
102
RTVSPost2010PropOp37
 70
     1
102
RTVSPost2010Prop38
140
0.0
102
RTVSPost2010PropOp38
 70
     1
102
RTVSPost2010Prop39
140
1.0
102
RTVSPost2010PropOp39
 70
     1
102
RTVSPost2010Prop40
 90
        0
102
RTVSPost2010PropOp40
 70
     1
102
RTVSPost2010Prop41ColorIndex
 90
       18
102
RTVSPost2010Prop41ColorRGB
 90
        0
102
RTVSPost2010PropOp41
 70
     1
102
RTVSPost2010Prop42
 90
       50
102
RTVSPost2010PropOp42
 70
     1
102
RTVSPost2010Prop43
 90
        3
102
RTVSPost2010PropOp43
 70
     1
102
RTVSPost2010Prop44ColorIndex
 90
        5
102
RTVSPost2010Prop44ColorRGB
 90
      255
102
RTVSPost2010PropOp44
 70
     1
102
RTVSPost2010Prop45
280
     0
102
RTVSPost2010PropOp45
 70
     1
102
RTVSPost2010Prop46
 90
       50
102
RTVSPost2010PropOp46
 70
     1
102
RTVSPost2010Prop47
 90
       50
102
RTVSPost2010PropOp47
 70
     1
102
RTVSPost2010Prop48
 90
       50
102
RTVSPost2010PropOp48
 70
     1
102
RTVSPost2010Prop49
280
     0
102
RTVSPost2010PropOp49
 70
     1
102
RTVSPost2010Prop50
 90
       50
102
RTVSPost2010PropOp50
 70
     1
102
RTVSPost2010Prop51ColorIndex
 90
      256
102
RTVSPost2010Prop51ColorRGB
 90
-16777216
102
RTVSPost2010PropOp51
 70
     0
102
RTVSPost2010Prop52
140
1.0
102
RTVSPost2010PropOp52
 70
     0
102
RTVSPost2010Prop53
 90
        2
102
RTVSPost2010PropOp53
 70
     1
102
RTVSPost2010Prop54
  1
strokes_ogs.tif
102
RTVSPost2010PropOp54
 70
     1
102
RTVSPost2010Prop55
280
     0
102
RTVSPost2010PropOp55
 70
     1
102
RTVSPost2010Prop56
140
1.0
102
RTVSPost2010PropOp56
 70
     1
102
RTVSPost2010Prop57
140
1.0
102
RTVSPost2010PropOp57
 70
     1
102
RTVSPropertyOp0
 70
     1
102
RTVSPropertyOp1
 70
     1
102
RTVSPropertyOp2
 70
     1
102
RTVSPropertyOp3
 70
     1
102
RTVSPropertyOp4
 70
     1
102
RTVSPropertyOp5
 70
     1
102
RTVSPropertyOp6
 70
     1
102
RTVSPropertyOp7
 70
     1
102
RTVSPropertyOp8
 70
     1
102
RTVSPropertyOp9
 70
     1
102
RTVSPropertyOp10
 70
     1
102
RTVSPropertyOp11
 70
     1
102
RTVSPropertyOp12
 70
     1
102
RTVSPropertyOp13
 70
     1
102
RTVSPropertyOp14
 70
     1
102
RTVSPropertyOp15
 70
     1
102
RTVSPropertyOp16
 70
     1
102
RTVSPropertyOp17
 70
     1
102
RTVSPropertyOp18
 70
     1
102
RTVSPropertyOp19
 70
     1
102
RTVSPropertyOp20
 70
     1
102
RTVSPropertyOp21
 70
     1
102
RTVSPropertyOp22
 70
     1
102
RTVSPropertyOp23
 70
     1
102
RTVSPropertyOp24
 70
     1
102
RTVSPropertyOp25
 70
     1
102
RTVSPropertyOp26
 70
     1
102
RTVSPropertyOp27
 70
     1
102
RTVSPropertyOp28
 70
     1
102
RTVSPropertyOp29
 70
     1
102
RTVSPropertyOp30
 70
     1
102
RTVSPropertyOp31
 70
     1
102
RTVSPropertyOp32
 70
     1
102
RTVSPropertyOp33
 70
     1
102
RTVSPropertyOp34
 70
     1
102
RTVSPropertyOp35
 70
     1
102
RTVSPropertyOp36
 70
     1
102
RTVSPropertyOp37
 70
     1
102
RTVSPropertyOp38
 70
     1
102
RTVSPropertyOp39
 70
     1
102
RTVSPropertyOp40
 70
     1
102
RTVSPropertyOp41
 70
     1
102
RTVSPropertyOp42
 70
     1
102
RTVSPropertyOp43
 70
     1
102
RTVSPropertyOp44
 70
     1
102
RTVSPropertyOp45
 70
     1
102
RTVSPropertyOp46
 70
     1
102
RTVSPropertyOp47
 70
     1
102
RTVSPropertyOp48
 70
     1
102
RTVSPropertyOp49
 70
     1
102
RTVSPropertyOp50
 70
     1
102
RTVSPropertyOp51
 70
     0
102
RTVSPropertyOp52
 70
     0
102
RTVSPropertyOp53
 70
     1
102
RTVSPropertyOp54
 70
     1
102
RTVSPropertyOp55
 70
     1
102
RTVSPropertyOp56
 70
     1
102
RTVSPropertyOp57
 70
     1
102
RTVSPropertyOp58
 70
     1
102
RTVSPropertyOp59
 70
     1
102
RTVSPropertyOp60
 70
     1
102
RTVSPropertyOp61
 70
     1
102
RTVSPropertyOp62
 70
     1
  0
XRECORD
  5
A057
102
{ACAD_REACTORS
330
A056
102
}
330
A056
100
AcDbXrecord
280
     1
102
RTVSPost2010Prop28
280
     0
102
RTVSPost2010PropOp28
 70
     1
102
RTVSPost2010Prop29
280
     1
102
RTVSPost2010PropOp29
 70
     1
102
RTVSPost2010Prop30
280
     1
102
RTVSPost2010PropOp30
 70
     1
102
RTVSPost2010Prop31
280
     0
102
RTVSPost2010PropOp31
 70
     1
102
RTVSPost2010Prop32
280
     0
102
RTVSPost2010PropOp32
 70
     1
102
RTVSPost2010Prop33
280
     0
102
RTVSPost2010PropOp33
 70
     1
102
RTVSPost2010Prop34
280
     0
102
RTVSPost2010PropOp34
 70
     1
102
RTVSPost2010Prop35
280
     0
102
RTVSPost2010PropOp35
 70
     1
102
RTVSPost2010Prop36
280
     0
102
RTVSPost2010PropOp36
 70
     1
102
RTVSPost2010Prop37
 90
       50
102
RTVSPost2010PropOp37
 70
     1
102
RTVSPost2010Prop38
140
0.0
102
RTVSPost2010PropOp38
 70
     1
102
RTVSPost2010Prop39
140
1.0
102
RTVSPost2010PropOp39
 70
     1
102
RTVSPost2010Prop40
 90
        0
102
RTVSPost2010PropOp40
 70
     1
102
RTVSPost2010Prop41ColorIndex
 90
       18
102
RTVSPost2010Prop41ColorRGB
 90
        0
102
RTVSPost2010PropOp41
 70
     1
102
RTVSPost2010Prop42
 90
       50
102
RTVSPost2010PropOp42
 70
     1
102
RTVSPost2010Prop43
 90
        3
102
RTVSPost2010PropOp43
 70
     1
102
RTVSPost2010Prop44ColorIndex
 90
        5
102
RTVSPost2010Prop44ColorRGB
 90
      255
102
RTVSPost2010PropOp44
 70
     1
102
RTVSPost2010Prop45
280
     0
102
RTVSPost2010PropOp45
 70
     1
102
RTVSPost2010Prop46
 90
       50
102
RTVSPost2010PropOp46
 70
     1
102
RTVSPost2010Prop47
 90
       50
102
RTVSPost2010PropOp47
 70
     1
102
RTVSPost2010Prop48
 90
       50
102
RTVSPost2010PropOp48
 70
     1
102
RTVSPost2010Prop49
280
     0
102
RTVSPost2010PropOp49
 70
     1
102
RTVSPost2010Prop50
 90
       50
102
RTVSPost2010PropOp50
 70
     1
102
RTVSPost2010Prop51ColorIndex
 90
      256
102
RTVSPost2010Prop51ColorRGB
 90
-16777216
102
RTVSPost2010PropOp51
 70
     0
102
RTVSPost2010Prop52
140
1.0
102
RTVSPost2010PropOp52
 70
     0
102
RTVSPost2010Prop53
 90
        2
102
RTVSPost2010PropOp53
 70
     1
102
RTVSPost2010Prop54
  1
strokes_ogs.tif
102
RTVSPost2010PropOp54
 70
     1
102
RTVSPost2010Prop55
280
     0
102
RTVSPost2010PropOp55
 70
     1
102
RTVSPost2010Prop56
140
1.0
102
RTVSPost2010PropOp56
 70
     1
102
RTVSPost2010Prop57
140
1.0
102
RTVSPost2010PropOp57
 70
     1
102
RTVSPropertyOp0
 70
     1
102
RTVSPropertyOp1
 70
     1
102
RTVSPropertyOp2
 70
     1
102
RTVSPropertyOp3
 70
     1
102
RTVSPropertyOp4
 70
     1
102
RTVSPropertyOp5
 70
     1
102
RTVSPropertyOp6
 70
     1
102
RTVSPropertyOp7
 70
     1
102
RTVSPropertyOp8
 70
     1
102
RTVSPropertyOp9
 70
     1
102
RTVSPropertyOp10
 70
     1
102
RTVSPropertyOp11
 70
     1
102
RTVSPropertyOp12
 70
     1
102
RTVSPropertyOp13
 70
     1
102
RTVSPropertyOp14
 70
     1
102
RTVSPropertyOp15
 70
     1
102
RTVSPropertyOp16
 70
     1
102
RTVSPropertyOp17
 70
     1
102
RTVSPropertyOp18
 70
     1
102
RTVSPropertyOp19
 70
     1
102
RTVSPropertyOp20
 70
     1
102
RTVSPropertyOp21
 70
     1
102
RTVSPropertyOp22
 70
     1
102
RTVSPropertyOp23
 70
     1
102
RTVSPropertyOp24
 70
     1
102
RTVSPropertyOp25
 70
     1
102
RTVSPropertyOp26
 70
     1
102
RTVSPropertyOp27
 70
     1
102
RTVSPropertyOp28
 70
     1
102
RTVSPropertyOp29
 70
     1
102
RTVSPropertyOp30
 70
     1
102
RTVSPropertyOp31
 70
     1
102
RTVSPropertyOp32
 70
     1
102
RTVSPropertyOp33
 70
     1
102
RTVSPropertyOp34
 70
     1
102
RTVSPropertyOp35
 70
     1
102
RTVSPropertyOp36
 70
     1
102
RTVSPropertyOp37
 70
     1
102
RTVSPropertyOp38
 70
     1
102
RTVSPropertyOp39
 70
     1
102
RTVSPropertyOp40
 70
     1
102
RTVSPropertyOp41
 70
     1
102
RTVSPropertyOp42
 70
     1
102
RTVSPropertyOp43
 70
     1
102
RTVSPropertyOp44
 70
     1
102
RTVSPropertyOp45
 70
     1
102
RTVSPropertyOp46
 70
     1
102
RTVSPropertyOp47
 70
     1
102
RTVSPropertyOp48
 70
     1
102
RTVSPropertyOp49
 70
     1
102
RTVSPropertyOp50
 70
     1
102
RTVSPropertyOp51
 70
     0
102
RTVSPropertyOp52
 70
     0
102
RTVSPropertyOp53
 70
     1
102
RTVSPropertyOp54
 70
     1
102
RTVSPropertyOp55
 70
     1
102
RTVSPropertyOp56
 70
     1
102
RTVSPropertyOp57
 70
     1
102
RTVSPropertyOp58
 70
     1
102
RTVSPropertyOp59
 70
     1
102
RTVSPropertyOp60
 70
     1
102
RTVSPropertyOp61
 70
     1
102
RTVSPropertyOp62
 70
     1
  0
XRECORD
  5
A071
102
{ACAD_REACTORS
330
A070
102
}
330
A070
100
AcDbXrecord
280
     1
102
RTVSPost2010Prop28
280
     0
102
RTVSPost2010PropOp28
 70
     1
102
RTVSPost2010Prop29
280
     1
102
RTVSPost2010PropOp29
 70
     1
102
RTVSPost2010Prop30
280
     1
102
RTVSPost2010PropOp30
 70
     1
102
RTVSPost2010Prop31
280
     0
102
RTVSPost2010PropOp31
 70
     1
102
RTVSPost2010Prop32
280
     0
102
RTVSPost2010PropOp32
 70
     1
102
RTVSPost2010Prop33
280
     0
102
RTVSPost2010PropOp33
 70
     1
102
RTVSPost2010Prop34
280
     0
102
RTVSPost2010PropOp34
 70
     1
102
RTVSPost2010Prop35
280
     0
102
RTVSPost2010PropOp35
 70
     1
102
RTVSPost2010Prop36
280
     0
102
RTVSPost2010PropOp36
 70
     1
102
RTVSPost2010Prop37
 90
       50
102
RTVSPost2010PropOp37
 70
     0
102
RTVSPost2010Prop38
140
0.0
102
RTVSPost2010PropOp38
 70
     0
102
RTVSPost2010Prop39
140
1.0
102
RTVSPost2010PropOp39
 70
     0
102
RTVSPost2010Prop40
 90
        0
102
RTVSPost2010PropOp40
 70
     0
102
RTVSPost2010Prop41ColorIndex
 90
       18
102
RTVSPost2010Prop41ColorRGB
 90
        0
102
RTVSPost2010PropOp41
 70
     0
102
RTVSPost2010Prop42
 90
       50
102
RTVSPost2010PropOp42
 70
     0
102
RTVSPost2010Prop43
 90
        3
102
RTVSPost2010PropOp43
 70
     0
102
RTVSPost2010Prop44ColorIndex
 90
        5
102
RTVSPost2010Prop44ColorRGB
 90
      255
102
RTVSPost2010PropOp44
 70
     0
102
RTVSPost2010Prop45
280
     0
102
RTVSPost2010PropOp45
 70
     1
102
RTVSPost2010Prop46
 90
       50
102
RTVSPost2010PropOp46
 70
     0
102
RTVSPost2010Prop47
 90
       50
102
RTVSPost2010PropOp47
 70
     0
102
RTVSPost2010Prop48
 90
       50
102
RTVSPost2010PropOp48
 70
     0
102
RTVSPost2010Prop49
280
     0
102
RTVSPost2010PropOp49
 70
     1
102
RTVSPost2010Prop50
 90
       50
102
RTVSPost2010PropOp50
 70
     0
102
RTVSPost2010Prop51ColorIndex
 90
      256
102
RTVSPost2010Prop51ColorRGB
 90
-16777216
102
RTVSPost2010PropOp51
 70
     0
102
RTVSPost2010Prop52
140
1.0
102
RTVSPost2010PropOp52
 70
     0
102
RTVSPost2010Prop53
 90
        2
102
RTVSPost2010PropOp53
 70
     0
102
RTVSPost2010Prop54
  1
strokes_ogs.tif
102
RTVSPost2010PropOp54
 70
     0
102
RTVSPost2010Prop55
280
     0
102
RTVSPost2010PropOp55
 70
     1
102
RTVSPost2010Prop56
140
1.0
102
RTVSPost2010PropOp56
 70
     0
102
RTVSPost2010Prop57
140
1.0
102
RTVSPost2010PropOp57
 70
     0
102
RTVSPropertyOp0
 70
     0
102
RTVSPropertyOp1
 70
     0
102
RTVSPropertyOp2
 70
     0
102
RTVSPropertyOp3
 70
     0
102
RTVSPropertyOp4
 70
     0
102
RTVSPropertyOp5
 70
     0
102
RTVSPropertyOp6
 70
     0
102
RTVSPropertyOp7
 70
     0
102
RTVSPropertyOp8
 70
     0
102
RTVSPropertyOp9
 70
     0
102
RTVSPropertyOp10
 70
     0
102
RTVSPropertyOp11
 70
     0
102
RTVSPropertyOp12
 70
     0
102
RTVSPropertyOp13
 70
     0
102
RTVSPropertyOp14
 70
     2
102
RTVSPropertyOp15
 70
     0
102
RTVSPropertyOp16
 70
     0
102
RTVSPropertyOp17
 70
     0
102
RTVSPropertyOp18
 70
     0
102
RTVSPropertyOp19
 70
     0
102
RTVSPropertyOp20
 70
     0
102
RTVSPropertyOp21
 70
     0
102
RTVSPropertyOp22
 70
     0
102
RTVSPropertyOp23
 70
     0
102
RTVSPropertyOp24
 70
     0
102
RTVSPropertyOp25
 70
     0
102
RTVSPropertyOp26
 70
     0
102
RTVSPropertyOp27
 70
     0
102
RTVSPropertyOp28
 70
     1
102
RTVSPropertyOp29
 70
     1
102
RTVSPropertyOp30
 70
     1
102
RTVSPropertyOp31
 70
     1
102
RTVSPropertyOp32
 70
     1
102
RTVSPropertyOp33
 70
     1
102
RTVSPropertyOp34
 70
     1
102
RTVSPropertyOp35
 70
     1
102
RTVSPropertyOp36
 70
     1
102
RTVSPropertyOp37
 70
     0
102
RTVSPropertyOp38
 70
     0
102
RTVSPropertyOp39
 70
     0
102
RTVSPropertyOp40
 70
     0
102
RTVSPropertyOp41
 70
     0
102
RTVSPropertyOp42
 70
     0
102
RTVSPropertyOp43
 70
     0
102
RTVSPropertyOp44
 70
     0
102
RTVSPropertyOp45
 70
     1
102
RTVSPropertyOp46
 70
     0
102
RTVSPropertyOp47
 70
     0
102
RTVSPropertyOp48
 70
     0
102
RTVSPropertyOp49
 70
     1
102
RTVSPropertyOp50
 70
     0
102
RTVSPropertyOp51
 70
     0
102
RTVSPropertyOp52
 70
     0
102
RTVSPropertyOp53
 70
     0
102
RTVSPropertyOp54
 70
     0
102
RTVSPropertyOp55
 70
     1
102
RTVSPropertyOp56
 70
     0
102
RTVSPropertyOp57
 70
     0
102
RTVSPropertyOp58
 70
     0
102
RTVSPropertyOp59
 70
     0
102
RTVSPropertyOp60
 70
     0
102
RTVSPropertyOp61
 70
     0
102
RTVSPropertyOp62
 70
     0
  0
XRECORD
  5
A05F
102
{ACAD_REACTORS
330
A05E
102
}
330
A05E
100
AcDbXrecord
280
     1
102
RTVSPost2010Prop28
280
     0
102
RTVSPost2010PropOp28
 70
     1
102
RTVSPost2010Prop29
280
     1
102
RTVSPost2010PropOp29
 70
     1
102
RTVSPost2010Prop30
280
     1
102
RTVSPost2010PropOp30
 70
     1
102
RTVSPost2010Prop31
280
     0
102
RTVSPost2010PropOp31
 70
     1
102
RTVSPost2010Prop32
280
     0
102
RTVSPost2010PropOp32
 70
     1
102
RTVSPost2010Prop33
280
     0
102
RTVSPost2010PropOp33
 70
     1
102
RTVSPost2010Prop34
280
     0
102
RTVSPost2010PropOp34
 70
     1
102
RTVSPost2010Prop35
280
     0
102
RTVSPost2010PropOp35
 70
     1
102
RTVSPost2010Prop36
280
     0
102
RTVSPost2010PropOp36
 70
     1
102
RTVSPost2010Prop37
 90
       50
102
RTVSPost2010PropOp37
 70
     1
102
RTVSPost2010Prop38
140
0.0
102
RTVSPost2010PropOp38
 70
     1
102
RTVSPost2010Prop39
140
1.0
102
RTVSPost2010PropOp39
 70
     1
102
RTVSPost2010Prop40
 90
        0
102
RTVSPost2010PropOp40
 70
     1
102
RTVSPost2010Prop41ColorIndex
 90
       18
102
RTVSPost2010Prop41ColorRGB
 90
        0
102
RTVSPost2010PropOp41
 70
     1
102
RTVSPost2010Prop42
 90
       50
102
RTVSPost2010PropOp42
 70
     1
102
RTVSPost2010Prop43
 90
        3
102
RTVSPost2010PropOp43
 70
     1
102
RTVSPost2010Prop44ColorIndex
 90
        5
102
RTVSPost2010Prop44ColorRGB
 90
      255
102
RTVSPost2010PropOp44
 70
     1
102
RTVSPost2010Prop45
280
     0
102
RTVSPost2010PropOp45
 70
     1
102
RTVSPost2010Prop46
 90
       50
102
RTVSPost2010PropOp46
 70
     1
102
RTVSPost2010Prop47
 90
       50
102
RTVSPost2010PropOp47
 70
     1
102
RTVSPost2010Prop48
 90
       50
102
RTVSPost2010PropOp48
 70
     1
102
RTVSPost2010Prop49
280
     0
102
RTVSPost2010PropOp49
 70
     1
102
RTVSPost2010Prop50
 90
       50
102
RTVSPost2010PropOp50
 70
     1
102
RTVSPost2010Prop51ColorIndex
 90
      256
102
RTVSPost2010Prop51ColorRGB
 90
-16777216
102
RTVSPost2010PropOp51
 70
     0
102
RTVSPost2010Prop52
140
1.0
102
RTVSPost2010PropOp52
 70
     0
102
RTVSPost2010Prop53
 90
        2
102
RTVSPost2010PropOp53
 70
     1
102
RTVSPost2010Prop54
  1
strokes_ogs.tif
102
RTVSPost2010PropOp54
 70
     1
102
RTVSPost2010Prop55
280
     0
102
RTVSPost2010PropOp55
 70
     1
102
RTVSPost2010Prop56
140
1.0
102
RTVSPost2010PropOp56
 70
     1
102
RTVSPost2010Prop57
140
1.0
102
RTVSPost2010PropOp57
 70
     1
102
RTVSPropertyOp0
 70
     1
102
RTVSPropertyOp1
 70
     1
102
RTVSPropertyOp2
 70
     1
102
RTVSPropertyOp3
 70
     1
102
RTVSPropertyOp4
 70
     1
102
RTVSPropertyOp5
 70
     1
102
RTVSPropertyOp6
 70
     1
102
RTVSPropertyOp7
 70
     1
102
RTVSPropertyOp8
 70
     1
102
RTVSPropertyOp9
 70
     1
102
RTVSPropertyOp10
 70
     1
102
RTVSPropertyOp11
 70
     1
102
RTVSPropertyOp12
 70
     1
102
RTVSPropertyOp13
 70
     1
102
RTVSPropertyOp14
 70
     1
102
RTVSPropertyOp15
 70
     1
102
RTVSPropertyOp16
 70
     1
102
RTVSPropertyOp17
 70
     1
102
RTVSPropertyOp18
 70
     1
102
RTVSPropertyOp19
 70
     1
102
RTVSPropertyOp20
 70
     1
102
RTVSPropertyOp21
 70
     1
102
RTVSPropertyOp22
 70
     1
102
RTVSPropertyOp23
 70
     1
102
RTVSPropertyOp24
 70
     1
102
RTVSPropertyOp25
 70
     1
102
RTVSPropertyOp26
 70
     1
102
RTVSPropertyOp27
 70
     1
102
RTVSPropertyOp28
 70
     1
102
RTVSPropertyOp29
 70
     1
102
RTVSPropertyOp30
 70
     1
102
RTVSPropertyOp31
 70
     1
102
RTVSPropertyOp32
 70
     1
102
RTVSPropertyOp33
 70
     1
102
RTVSPropertyOp34
 70
     1
102
RTVSPropertyOp35
 70
     1
102
RTVSPropertyOp36
 70
     1
102
RTVSPropertyOp37
 70
     1
102
RTVSPropertyOp38
 70
     1
102
RTVSPropertyOp39
 70
     1
102
RTVSPropertyOp40
 70
     1
102
RTVSPropertyOp41
 70
     1
102
RTVSPropertyOp42
 70
     1
102
RTVSPropertyOp43
 70
     1
102
RTVSPropertyOp44
 70
     1
102
RTVSPropertyOp45
 70
     1
102
RTVSPropertyOp46
 70
     1
102
RTVSPropertyOp47
 70
     1
102
RTVSPropertyOp48
 70
     1
102
RTVSPropertyOp49
 70
     1
102
RTVSPropertyOp50
 70
     1
102
RTVSPropertyOp51
 70
     0
102
RTVSPropertyOp52
 70
     0
102
RTVSPropertyOp53
 70
     1
102
RTVSPropertyOp54
 70
     1
102
RTVSPropertyOp55
 70
     1
102
RTVSPropertyOp56
 70
     1
102
RTVSPropertyOp57
 70
     1
102
RTVSPropertyOp58
 70
     1
102
RTVSPropertyOp59
 70
     1
102
RTVSPropertyOp60
 70
     1
102
RTVSPropertyOp61
 70
     1
102
RTVSPropertyOp62
 70
     1
  0
XRECORD
  5
A043
102
{ACAD_REACTORS
330
A042
102
}
330
A042
100
AcDbXrecord
280
     1
102
RTVSPost2010Prop28
280
     0
102
RTVSPost2010PropOp28
 70
     1
102
RTVSPost2010Prop29
280
     1
102
RTVSPost2010PropOp29
 70
     1
102
RTVSPost2010Prop30
280
     1
102
RTVSPost2010PropOp30
 70
     1
102
RTVSPost2010Prop31
280
     0
102
RTVSPost2010PropOp31
 70
     1
102
RTVSPost2010Prop32
280
     0
102
RTVSPost2010PropOp32
 70
     1
102
RTVSPost2010Prop33
280
     0
102
RTVSPost2010PropOp33
 70
     1
102
RTVSPost2010Prop34
280
     0
102
RTVSPost2010PropOp34
 70
     1
102
RTVSPost2010Prop35
280
     0
102
RTVSPost2010PropOp35
 70
     1
102
RTVSPost2010Prop36
280
     0
102
RTVSPost2010PropOp36
 70
     1
102
RTVSPost2010Prop37
 90
       50
102
RTVSPost2010PropOp37
 70
     1
102
RTVSPost2010Prop38
140
0.0
102
RTVSPost2010PropOp38
 70
     1
102
RTVSPost2010Prop39
140
1.0
102
RTVSPost2010PropOp39
 70
     1
102
RTVSPost2010Prop40
 90
        0
102
RTVSPost2010PropOp40
 70
     1
102
RTVSPost2010Prop41ColorIndex
 90
       18
102
RTVSPost2010Prop41ColorRGB
 90
        0
102
RTVSPost2010PropOp41
 70
     1
102
RTVSPost2010Prop42
 90
       50
102
RTVSPost2010PropOp42
 70
     1
102
RTVSPost2010Prop43
 90
        3
102
RTVSPost2010PropOp43
 70
     1
102
RTVSPost2010Prop44ColorIndex
 90
        5
102
RTVSPost2010Prop44ColorRGB
 90
      255
102
RTVSPost2010PropOp44
 70
     1
102
RTVSPost2010Prop45
280
     0
102
RTVSPost2010PropOp45
 70
     1
102
RTVSPost2010Prop46
 90
       50
102
RTVSPost2010PropOp46
 70
     1
102
RTVSPost2010Prop47
 90
       50
102
RTVSPost2010PropOp47
 70
     1
102
RTVSPost2010Prop48
 90
       50
102
RTVSPost2010PropOp48
 70
     1
102
RTVSPost2010Prop49
280
     0
102
RTVSPost2010PropOp49
 70
     1
102
RTVSPost2010Prop50
 90
       50
102
RTVSPost2010PropOp50
 70
     1
102
RTVSPost2010Prop51ColorIndex
 90
      256
102
RTVSPost2010Prop51ColorRGB
 90
-16777216
102
RTVSPost2010PropOp51
 70
     0
102
RTVSPost2010Prop52
140
1.0
102
RTVSPost2010PropOp52
 70
     0
102
RTVSPost2010Prop53
 90
        2
102
RTVSPost2010PropOp53
 70
     1
102
RTVSPost2010Prop54
  1
strokes_ogs.tif
102
RTVSPost2010PropOp54
 70
     1
102
RTVSPost2010Prop55
280
     0
102
RTVSPost2010PropOp55
 70
     1
102
RTVSPost2010Prop56
140
1.0
102
RTVSPost2010PropOp56
 70
     1
102
RTVSPost2010Prop57
140
1.0
102
RTVSPost2010PropOp57
 70
     1
102
RTVSPropertyOp0
 70
     1
102
RTVSPropertyOp1
 70
     1
102
RTVSPropertyOp2
 70
     1
102
RTVSPropertyOp3
 70
     1
102
RTVSPropertyOp4
 70
     1
102
RTVSPropertyOp5
 70
     1
102
RTVSPropertyOp6
 70
     1
102
RTVSPropertyOp7
 70
     1
102
RTVSPropertyOp8
 70
     1
102
RTVSPropertyOp9
 70
     1
102
RTVSPropertyOp10
 70
     1
102
RTVSPropertyOp11
 70
     1
102
RTVSPropertyOp12
 70
     1
102
RTVSPropertyOp13
 70
     1
102
RTVSPropertyOp14
 70
     1
102
RTVSPropertyOp15
 70
     1
102
RTVSPropertyOp16
 70
     1
102
RTVSPropertyOp17
 70
     1
102
RTVSPropertyOp18
 70
     1
102
RTVSPropertyOp19
 70
     1
102
RTVSPropertyOp20
 70
     1
102
RTVSPropertyOp21
 70
     1
102
RTVSPropertyOp22
 70
     1
102
RTVSPropertyOp23
 70
     1
102
RTVSPropertyOp24
 70
     1
102
RTVSPropertyOp25
 70
     1
102
RTVSPropertyOp26
 70
     1
102
RTVSPropertyOp27
 70
     1
102
RTVSPropertyOp28
 70
     1
102
RTVSPropertyOp29
 70
     1
102
RTVSPropertyOp30
 70
     1
102
RTVSPropertyOp31
 70
     1
102
RTVSPropertyOp32
 70
     1
102
RTVSPropertyOp33
 70
     1
102
RTVSPropertyOp34
 70
     1
102
RTVSPropertyOp35
 70
     1
102
RTVSPropertyOp36
 70
     1
102
RTVSPropertyOp37
 70
     1
102
RTVSPropertyOp38
 70
     1
102
RTVSPropertyOp39
 70
     1
102
RTVSPropertyOp40
 70
     1
102
RTVSPropertyOp41
 70
     1
102
RTVSPropertyOp42
 70
     1
102
RTVSPropertyOp43
 70
     1
102
RTVSPropertyOp44
 70
     1
102
RTVSPropertyOp45
 70
     1
102
RTVSPropertyOp46
 70
     1
102
RTVSPropertyOp47
 70
     1
102
RTVSPropertyOp48
 70
     1
102
RTVSPropertyOp49
 70
     1
102
RTVSPropertyOp50
 70
     1
102
RTVSPropertyOp51
 70
     0
102
RTVSPropertyOp52
 70
     0
102
RTVSPropertyOp53
 70
     1
102
RTVSPropertyOp54
 70
     1
102
RTVSPropertyOp55
 70
     1
102
RTVSPropertyOp56
 70
     1
102
RTVSPropertyOp57
 70
     1
102
RTVSPropertyOp58
 70
     1
102
RTVSPropertyOp59
 70
     1
102
RTVSPropertyOp60
 70
     1
102
RTVSPropertyOp61
 70
     1
102
RTVSPropertyOp62
 70
     1
  0
XRECORD
  5
A045
102
{ACAD_REACTORS
330
A044
102
}
330
A044
100
AcDbXrecord
280
     1
102
RTVSPost2010Prop28
280
     0
102
RTVSPost2010PropOp28
 70
     1
102
RTVSPost2010Prop29
280
     1
102
RTVSPost2010PropOp29
 70
     1
102
RTVSPost2010Prop30
280
     1
102
RTVSPost2010PropOp30
 70
     1
102
RTVSPost2010Prop31
280
     0
102
RTVSPost2010PropOp31
 70
     1
102
RTVSPost2010Prop32
280
     0
102
RTVSPost2010PropOp32
 70
     1
102
RTVSPost2010Prop33
280
     0
102
RTVSPost2010PropOp33
 70
     1
102
RTVSPost2010Prop34
280
     0
102
RTVSPost2010PropOp34
 70
     1
102
RTVSPost2010Prop35
280
     0
102
RTVSPost2010PropOp35
 70
     1
102
RTVSPost2010Prop36
280
     0
102
RTVSPost2010PropOp36
 70
     1
102
RTVSPost2010Prop37
 90
       50
102
RTVSPost2010PropOp37
 70
     1
102
RTVSPost2010Prop38
140
0.0
102
RTVSPost2010PropOp38
 70
     1
102
RTVSPost2010Prop39
140
1.0
102
RTVSPost2010PropOp39
 70
     1
102
RTVSPost2010Prop40
 90
        0
102
RTVSPost2010PropOp40
 70
     1
102
RTVSPost2010Prop41ColorIndex
 90
       18
102
RTVSPost2010Prop41ColorRGB
 90
        0
102
RTVSPost2010PropOp41
 70
     1
102
RTVSPost2010Prop42
 90
       50
102
RTVSPost2010PropOp42
 70
     1
102
RTVSPost2010Prop43
 90
        3
102
RTVSPost2010PropOp43
 70
     1
102
RTVSPost2010Prop44ColorIndex
 90
        5
102
RTVSPost2010Prop44ColorRGB
 90
      255
102
RTVSPost2010PropOp44
 70
     1
102
RTVSPost2010Prop45
280
     0
102
RTVSPost2010PropOp45
 70
     1
102
RTVSPost2010Prop46
 90
       50
102
RTVSPost2010PropOp46
 70
     1
102
RTVSPost2010Prop47
 90
       50
102
RTVSPost2010PropOp47
 70
     1
102
RTVSPost2010Prop48
 90
       50
102
RTVSPost2010PropOp48
 70
     1
102
RTVSPost2010Prop49
280
     0
102
RTVSPost2010PropOp49
 70
     1
102
RTVSPost2010Prop50
 90
       50
102
RTVSPost2010PropOp50
 70
     1
102
RTVSPost2010Prop51ColorIndex
 90
      256
102
RTVSPost2010Prop51ColorRGB
 90
-16777216
102
RTVSPost2010PropOp51
 70
     0
102
RTVSPost2010Prop52
140
1.0
102
RTVSPost2010PropOp52
 70
     0
102
RTVSPost2010Prop53
 90
        2
102
RTVSPost2010PropOp53
 70
     1
102
RTVSPost2010Prop54
  1
strokes_ogs.tif
102
RTVSPost2010PropOp54
 70
     1
102
RTVSPost2010Prop55
280
     0
102
RTVSPost2010PropOp55
 70
     1
102
RTVSPost2010Prop56
140
1.0
102
RTVSPost2010PropOp56
 70
     1
102
RTVSPost2010Prop57
140
1.0
102
RTVSPost2010PropOp57
 70
     1
102
RTVSPropertyOp0
 70
     1
102
RTVSPropertyOp1
 70
     1
102
RTVSPropertyOp2
 70
     1
102
RTVSPropertyOp3
 70
     1
102
RTVSPropertyOp4
 70
     1
102
RTVSPropertyOp5
 70
     1
102
RTVSPropertyOp6
 70
     1
102
RTVSPropertyOp7
 70
     1
102
RTVSPropertyOp8
 70
     1
102
RTVSPropertyOp9
 70
     1
102
RTVSPropertyOp10
 70
     1
102
RTVSPropertyOp11
 70
     1
102
RTVSPropertyOp12
 70
     1
102
RTVSPropertyOp13
 70
     1
102
RTVSPropertyOp14
 70
     1
102
RTVSPropertyOp15
 70
     1
102
RTVSPropertyOp16
 70
     1
102
RTVSPropertyOp17
 70
     1
102
RTVSPropertyOp18
 70
     1
102
RTVSPropertyOp19
 70
     1
102
RTVSPropertyOp20
 70
     1
102
RTVSPropertyOp21
 70
     1
102
RTVSPropertyOp22
 70
     1
102
RTVSPropertyOp23
 70
     1
102
RTVSPropertyOp24
 70
     1
102
RTVSPropertyOp25
 70
     1
102
RTVSPropertyOp26
 70
     1
102
RTVSPropertyOp27
 70
     1
102
RTVSPropertyOp28
 70
     1
102
RTVSPropertyOp29
 70
     1
102
RTVSPropertyOp30
 70
     1
102
RTVSPropertyOp31
 70
     1
102
RTVSPropertyOp32
 70
     1
102
RTVSPropertyOp33
 70
     1
102
RTVSPropertyOp34
 70
     1
102
RTVSPropertyOp35
 70
     1
102
RTVSPropertyOp36
 70
     1
102
RTVSPropertyOp37
 70
     1
102
RTVSPropertyOp38
 70
     1
102
RTVSPropertyOp39
 70
     1
102
RTVSPropertyOp40
 70
     1
102
RTVSPropertyOp41
 70
     1
102
RTVSPropertyOp42
 70
     1
102
RTVSPropertyOp43
 70
     1
102
RTVSPropertyOp44
 70
     1
102
RTVSPropertyOp45
 70
     1
102
RTVSPropertyOp46
 70
     1
102
RTVSPropertyOp47
 70
     1
102
RTVSPropertyOp48
 70
     1
102
RTVSPropertyOp49
 70
     1
102
RTVSPropertyOp50
 70
     1
102
RTVSPropertyOp51
 70
     0
102
RTVSPropertyOp52
 70
     0
102
RTVSPropertyOp53
 70
     1
102
RTVSPropertyOp54
 70
     1
102
RTVSPropertyOp55
 70
     1
102
RTVSPropertyOp56
 70
     1
102
RTVSPropertyOp57
 70
     1
102
RTVSPropertyOp58
 70
     1
102
RTVSPropertyOp59
 70
     1
102
RTVSPropertyOp60
 70
     1
102
RTVSPropertyOp61
 70
     1
102
RTVSPropertyOp62
 70
     1
  0
XRECORD
  5
A047
102
{ACAD_REACTORS
330
A046
102
}
330
A046
100
AcDbXrecord
280
     1
102
RTVSPost2010Prop28
280
     0
102
RTVSPost2010PropOp28
 70
     1
102
RTVSPost2010Prop29
280
     1
102
RTVSPost2010PropOp29
 70
     1
102
RTVSPost2010Prop30
280
     1
102
RTVSPost2010PropOp30
 70
     1
102
RTVSPost2010Prop31
280
     0
102
RTVSPost2010PropOp31
 70
     1
102
RTVSPost2010Prop32
280
     0
102
RTVSPost2010PropOp32
 70
     1
102
RTVSPost2010Prop33
280
     0
102
RTVSPost2010PropOp33
 70
     1
102
RTVSPost2010Prop34
280
     0
102
RTVSPost2010PropOp34
 70
     1
102
RTVSPost2010Prop35
280
     0
102
RTVSPost2010PropOp35
 70
     1
102
RTVSPost2010Prop36
280
     0
102
RTVSPost2010PropOp36
 70
     1
102
RTVSPost2010Prop37
 90
       50
102
RTVSPost2010PropOp37
 70
     1
102
RTVSPost2010Prop38
140
0.0
102
RTVSPost2010PropOp38
 70
     1
102
RTVSPost2010Prop39
140
1.0
102
RTVSPost2010PropOp39
 70
     1
102
RTVSPost2010Prop40
 90
        0
102
RTVSPost2010PropOp40
 70
     1
102
RTVSPost2010Prop41ColorIndex
 90
       18
102
RTVSPost2010Prop41ColorRGB
 90
        0
102
RTVSPost2010PropOp41
 70
     1
102
RTVSPost2010Prop42
 90
       50
102
RTVSPost2010PropOp42
 70
     1
102
RTVSPost2010Prop43
 90
        3
102
RTVSPost2010PropOp43
 70
     1
102
RTVSPost2010Prop44ColorIndex
 90
        5
102
RTVSPost2010Prop44ColorRGB
 90
      255
102
RTVSPost2010PropOp44
 70
     1
102
RTVSPost2010Prop45
280
     0
102
RTVSPost2010PropOp45
 70
     1
102
RTVSPost2010Prop46
 90
       50
102
RTVSPost2010PropOp46
 70
     1
102
RTVSPost2010Prop47
 90
       50
102
RTVSPost2010PropOp47
 70
     1
102
RTVSPost2010Prop48
 90
       50
102
RTVSPost2010PropOp48
 70
     1
102
RTVSPost2010Prop49
280
     0
102
RTVSPost2010PropOp49
 70
     1
102
RTVSPost2010Prop50
 90
       50
102
RTVSPost2010PropOp50
 70
     1
102
RTVSPost2010Prop51ColorIndex
 90
      256
102
RTVSPost2010Prop51ColorRGB
 90
-16777216
102
RTVSPost2010PropOp51
 70
     0
102
RTVSPost2010Prop52
140
1.0
102
RTVSPost2010PropOp52
 70
     0
102
RTVSPost2010Prop53
 90
        2
102
RTVSPost2010PropOp53
 70
     1
102
RTVSPost2010Prop54
  1
strokes_ogs.tif
102
RTVSPost2010PropOp54
 70
     1
102
RTVSPost2010Prop55
280
     0
102
RTVSPost2010PropOp55
 70
     1
102
RTVSPost2010Prop56
140
1.0
102
RTVSPost2010PropOp56
 70
     1
102
RTVSPost2010Prop57
140
1.0
102
RTVSPost2010PropOp57
 70
     1
102
RTVSPropertyOp0
 70
     1
102
RTVSPropertyOp1
 70
     1
102
RTVSPropertyOp2
 70
     1
102
RTVSPropertyOp3
 70
     1
102
RTVSPropertyOp4
 70
     1
102
RTVSPropertyOp5
 70
     1
102
RTVSPropertyOp6
 70
     1
102
RTVSPropertyOp7
 70
     1
102
RTVSPropertyOp8
 70
     1
102
RTVSPropertyOp9
 70
     1
102
RTVSPropertyOp10
 70
     1
102
RTVSPropertyOp11
 70
     1
102
RTVSPropertyOp12
 70
     1
102
RTVSPropertyOp13
 70
     1
102
RTVSPropertyOp14
 70
     1
102
RTVSPropertyOp15
 70
     1
102
RTVSPropertyOp16
 70
     1
102
RTVSPropertyOp17
 70
     1
102
RTVSPropertyOp18
 70
     1
102
RTVSPropertyOp19
 70
     1
102
RTVSPropertyOp20
 70
     1
102
RTVSPropertyOp21
 70
     1
102
RTVSPropertyOp22
 70
     1
102
RTVSPropertyOp23
 70
     1
102
RTVSPropertyOp24
 70
     1
102
RTVSPropertyOp25
 70
     1
102
RTVSPropertyOp26
 70
     1
102
RTVSPropertyOp27
 70
     1
102
RTVSPropertyOp28
 70
     1
102
RTVSPropertyOp29
 70
     1
102
RTVSPropertyOp30
 70
     1
102
RTVSPropertyOp31
 70
     1
102
RTVSPropertyOp32
 70
     1
102
RTVSPropertyOp33
 70
     1
102
RTVSPropertyOp34
 70
     1
102
RTVSPropertyOp35
 70
     1
102
RTVSPropertyOp36
 70
     1
102
RTVSPropertyOp37
 70
     1
102
RTVSPropertyOp38
 70
     1
102
RTVSPropertyOp39
 70
     1
102
RTVSPropertyOp40
 70
     1
102
RTVSPropertyOp41
 70
     1
102
RTVSPropertyOp42
 70
     1
102
RTVSPropertyOp43
 70
     1
102
RTVSPropertyOp44
 70
     1
102
RTVSPropertyOp45
 70
     1
102
RTVSPropertyOp46
 70
     1
102
RTVSPropertyOp47
 70
     1
102
RTVSPropertyOp48
 70
     1
102
RTVSPropertyOp49
 70
     1
102
RTVSPropertyOp50
 70
     1
102
RTVSPropertyOp51
 70
     0
102
RTVSPropertyOp52
 70
     0
102
RTVSPropertyOp53
 70
     1
102
RTVSPropertyOp54
 70
     1
102
RTVSPropertyOp55
 70
     1
102
RTVSPropertyOp56
 70
     1
102
RTVSPropertyOp57
 70
     1
102
RTVSPropertyOp58
 70
     1
102
RTVSPropertyOp59
 70
     1
102
RTVSPropertyOp60
 70
     1
102
RTVSPropertyOp61
 70
     1
102
RTVSPropertyOp62
 70
     1
  0
XRECORD
  5
A049
102
{ACAD_REACTORS
330
A048
102
}
330
A048
100
AcDbXrecord
280
     1
102
RTVSPost2010Prop28
280
     0
102
RTVSPost2010PropOp28
 70
     1
102
RTVSPost2010Prop29
280
     1
102
RTVSPost2010PropOp29
 70
     1
102
RTVSPost2010Prop30
280
     1
102
RTVSPost2010PropOp30
 70
     1
102
RTVSPost2010Prop31
280
     0
102
RTVSPost2010PropOp31
 70
     1
102
RTVSPost2010Prop32
280
     0
102
RTVSPost2010PropOp32
 70
     1
102
RTVSPost2010Prop33
280
     0
102
RTVSPost2010PropOp33
 70
     1
102
RTVSPost2010Prop34
280
     0
102
RTVSPost2010PropOp34
 70
     1
102
RTVSPost2010Prop35
280
     0
102
RTVSPost2010PropOp35
 70
     1
102
RTVSPost2010Prop36
280
     0
102
RTVSPost2010PropOp36
 70
     1
102
RTVSPost2010Prop37
 90
       50
102
RTVSPost2010PropOp37
 70
     1
102
RTVSPost2010Prop38
140
0.0
102
RTVSPost2010PropOp38
 70
     1
102
RTVSPost2010Prop39
140
1.0
102
RTVSPost2010PropOp39
 70
     1
102
RTVSPost2010Prop40
 90
        0
102
RTVSPost2010PropOp40
 70
     1
102
RTVSPost2010Prop41ColorIndex
 90
       18
102
RTVSPost2010Prop41ColorRGB
 90
        0
102
RTVSPost2010PropOp41
 70
     1
102
RTVSPost2010Prop42
 90
       50
102
RTVSPost2010PropOp42
 70
     1
102
RTVSPost2010Prop43
 90
        3
102
RTVSPost2010PropOp43
 70
     1
102
RTVSPost2010Prop44ColorIndex
 90
        5
102
RTVSPost2010Prop44ColorRGB
 90
      255
102
RTVSPost2010PropOp44
 70
     1
102
RTVSPost2010Prop45
280
     0
102
RTVSPost2010PropOp45
 70
     1
102
RTVSPost2010Prop46
 90
       50
102
RTVSPost2010PropOp46
 70
     1
102
RTVSPost2010Prop47
 90
       50
102
RTVSPost2010PropOp47
 70
     1
102
RTVSPost2010Prop48
 90
       50
102
RTVSPost2010PropOp48
 70
     1
102
RTVSPost2010Prop49
280
     0
102
RTVSPost2010PropOp49
 70
     1
102
RTVSPost2010Prop50
 90
       50
102
RTVSPost2010PropOp50
 70
     1
102
RTVSPost2010Prop51ColorIndex
 90
      256
102
RTVSPost2010Prop51ColorRGB
 90
-16777216
102
RTVSPost2010PropOp51
 70
     0
102
RTVSPost2010Prop52
140
1.0
102
RTVSPost2010PropOp52
 70
     0
102
RTVSPost2010Prop53
 90
        2
102
RTVSPost2010PropOp53
 70
     1
102
RTVSPost2010Prop54
  1
strokes_ogs.tif
102
RTVSPost2010PropOp54
 70
     1
102
RTVSPost2010Prop55
280
     0
102
RTVSPost2010PropOp55
 70
     1
102
RTVSPost2010Prop56
140
1.0
102
RTVSPost2010PropOp56
 70
     1
102
RTVSPost2010Prop57
140
1.0
102
RTVSPost2010PropOp57
 70
     1
102
RTVSPropertyOp0
 70
     1
102
RTVSPropertyOp1
 70
     1
102
RTVSPropertyOp2
 70
     1
102
RTVSPropertyOp3
 70
     1
102
RTVSPropertyOp4
 70
     1
102
RTVSPropertyOp5
 70
     1
102
RTVSPropertyOp6
 70
     1
102
RTVSPropertyOp7
 70
     1
102
RTVSPropertyOp8
 70
     1
102
RTVSPropertyOp9
 70
     1
102
RTVSPropertyOp10
 70
     1
102
RTVSPropertyOp11
 70
     1
102
RTVSPropertyOp12
 70
     1
102
RTVSPropertyOp13
 70
     1
102
RTVSPropertyOp14
 70
     1
102
RTVSPropertyOp15
 70
     1
102
RTVSPropertyOp16
 70
     1
102
RTVSPropertyOp17
 70
     1
102
RTVSPropertyOp18
 70
     1
102
RTVSPropertyOp19
 70
     1
102
RTVSPropertyOp20
 70
     1
102
RTVSPropertyOp21
 70
     1
102
RTVSPropertyOp22
 70
     1
102
RTVSPropertyOp23
 70
     1
102
RTVSPropertyOp24
 70
     1
102
RTVSPropertyOp25
 70
     1
102
RTVSPropertyOp26
 70
     1
102
RTVSPropertyOp27
 70
     1
102
RTVSPropertyOp28
 70
     1
102
RTVSPropertyOp29
 70
     1
102
RTVSPropertyOp30
 70
     1
102
RTVSPropertyOp31
 70
     1
102
RTVSPropertyOp32
 70
     1
102
RTVSPropertyOp33
 70
     1
102
RTVSPropertyOp34
 70
     1
102
RTVSPropertyOp35
 70
     1
102
RTVSPropertyOp36
 70
     1
102
RTVSPropertyOp37
 70
     1
102
RTVSPropertyOp38
 70
     1
102
RTVSPropertyOp39
 70
     1
102
RTVSPropertyOp40
 70
     1
102
RTVSPropertyOp41
 70
     1
102
RTVSPropertyOp42
 70
     1
102
RTVSPropertyOp43
 70
     1
102
RTVSPropertyOp44
 70
     1
102
RTVSPropertyOp45
 70
     1
102
RTVSPropertyOp46
 70
     1
102
RTVSPropertyOp47
 70
     1
102
RTVSPropertyOp48
 70
     1
102
RTVSPropertyOp49
 70
     1
102
RTVSPropertyOp50
 70
     1
102
RTVSPropertyOp51
 70
     0
102
RTVSPropertyOp52
 70
     0
102
RTVSPropertyOp53
 70
     1
102
RTVSPropertyOp54
 70
     1
102
RTVSPropertyOp55
 70
     1
102
RTVSPropertyOp56
 70
     1
102
RTVSPropertyOp57
 70
     1
102
RTVSPropertyOp58
 70
     1
102
RTVSPropertyOp59
 70
     1
102
RTVSPropertyOp60
 70
     1
102
RTVSPropertyOp61
 70
     1
102
RTVSPropertyOp62
 70
     1
  0
XRECORD
  5
A051
102
{ACAD_REACTORS
330
A050
102
}
330
A050
100
AcDbXrecord
280
     1
102
RTVSPost2010Prop28
280
     0
102
RTVSPost2010PropOp28
 70
     1
102
RTVSPost2010Prop29
280
     1
102
RTVSPost2010PropOp29
 70
     1
102
RTVSPost2010Prop30
280
     1
102
RTVSPost2010PropOp30
 70
     1
102
RTVSPost2010Prop31
280
     0
102
RTVSPost2010PropOp31
 70
     1
102
RTVSPost2010Prop32
280
     0
102
RTVSPost2010PropOp32
 70
     1
102
RTVSPost2010Prop33
280
     0
102
RTVSPost2010PropOp33
 70
     1
102
RTVSPost2010Prop34
280
     0
102
RTVSPost2010PropOp34
 70
     1
102
RTVSPost2010Prop35
280
     0
102
RTVSPost2010PropOp35
 70
     1
102
RTVSPost2010Prop36
280
     0
102
RTVSPost2010PropOp36
 70
     1
102
RTVSPost2010Prop37
 90
       50
102
RTVSPost2010PropOp37
 70
     1
102
RTVSPost2010Prop38
140
0.0
102
RTVSPost2010PropOp38
 70
     1
102
RTVSPost2010Prop39
140
1.0
102
RTVSPost2010PropOp39
 70
     1
102
RTVSPost2010Prop40
 90
        0
102
RTVSPost2010PropOp40
 70
     1
102
RTVSPost2010Prop41ColorIndex
 90
       18
102
RTVSPost2010Prop41ColorRGB
 90
        0
102
RTVSPost2010PropOp41
 70
     1
102
RTVSPost2010Prop42
 90
       50
102
RTVSPost2010PropOp42
 70
     1
102
RTVSPost2010Prop43
 90
        3
102
RTVSPost2010PropOp43
 70
     1
102
RTVSPost2010Prop44ColorIndex
 90
        5
102
RTVSPost2010Prop44ColorRGB
 90
      255
102
RTVSPost2010PropOp44
 70
     1
102
RTVSPost2010Prop45
280
     0
102
RTVSPost2010PropOp45
 70
     1
102
RTVSPost2010Prop46
 90
       50
102
RTVSPost2010PropOp46
 70
     1
102
RTVSPost2010Prop47
 90
       50
102
RTVSPost2010PropOp47
 70
     1
102
RTVSPost2010Prop48
 90
       50
102
RTVSPost2010PropOp48
 70
     1
102
RTVSPost2010Prop49
280
     0
102
RTVSPost2010PropOp49
 70
     1
102
RTVSPost2010Prop50
 90
       50
102
RTVSPost2010PropOp50
 70
     1
102
RTVSPost2010Prop51ColorIndex
 90
      256
102
RTVSPost2010Prop51ColorRGB
 90
-16777216
102
RTVSPost2010PropOp51
 70
     0
102
RTVSPost2010Prop52
140
1.0
102
RTVSPost2010PropOp52
 70
     0
102
RTVSPost2010Prop53
 90
        2
102
RTVSPost2010PropOp53
 70
     1
102
RTVSPost2010Prop54
  1
strokes_ogs.tif
102
RTVSPost2010PropOp54
 70
     1
102
RTVSPost2010Prop55
280
     0
102
RTVSPost2010PropOp55
 70
     1
102
RTVSPost2010Prop56
140
1.0
102
RTVSPost2010PropOp56
 70
     1
102
RTVSPost2010Prop57
140
1.0
102
RTVSPost2010PropOp57
 70
     1
102
RTVSPropertyOp0
 70
     1
102
RTVSPropertyOp1
 70
     1
102
RTVSPropertyOp2
 70
     1
102
RTVSPropertyOp3
 70
     1
102
RTVSPropertyOp4
 70
     1
102
RTVSPropertyOp5
 70
     1
102
RTVSPropertyOp6
 70
     1
102
RTVSPropertyOp7
 70
     1
102
RTVSPropertyOp8
 70
     1
102
RTVSPropertyOp9
 70
     1
102
RTVSPropertyOp10
 70
     1
102
RTVSPropertyOp11
 70
     1
102
RTVSPropertyOp12
 70
     1
102
RTVSPropertyOp13
 70
     1
102
RTVSPropertyOp14
 70
     1
102
RTVSPropertyOp15
 70
     1
102
RTVSPropertyOp16
 70
     1
102
RTVSPropertyOp17
 70
     1
102
RTVSPropertyOp18
 70
     1
102
RTVSPropertyOp19
 70
     1
102
RTVSPropertyOp20
 70
     1
102
RTVSPropertyOp21
 70
     1
102
RTVSPropertyOp22
 70
     1
102
RTVSPropertyOp23
 70
     1
102
RTVSPropertyOp24
 70
     1
102
RTVSPropertyOp25
 70
     1
102
RTVSPropertyOp26
 70
     1
102
RTVSPropertyOp27
 70
     1
102
RTVSPropertyOp28
 70
     1
102
RTVSPropertyOp29
 70
     1
102
RTVSPropertyOp30
 70
     1
102
RTVSPropertyOp31
 70
     1
102
RTVSPropertyOp32
 70
     1
102
RTVSPropertyOp33
 70
     1
102
RTVSPropertyOp34
 70
     1
102
RTVSPropertyOp35
 70
     1
102
RTVSPropertyOp36
 70
     1
102
RTVSPropertyOp37
 70
     1
102
RTVSPropertyOp38
 70
     1
102
RTVSPropertyOp39
 70
     1
102
RTVSPropertyOp40
 70
     1
102
RTVSPropertyOp41
 70
     1
102
RTVSPropertyOp42
 70
     1
102
RTVSPropertyOp43
 70
     1
102
RTVSPropertyOp44
 70
     1
102
RTVSPropertyOp45
 70
     1
102
RTVSPropertyOp46
 70
     1
102
RTVSPropertyOp47
 70
     1
102
RTVSPropertyOp48
 70
     1
102
RTVSPropertyOp49
 70
     1
102
RTVSPropertyOp50
 70
     1
102
RTVSPropertyOp51
 70
     0
102
RTVSPropertyOp52
 70
     0
102
RTVSPropertyOp53
 70
     1
102
RTVSPropertyOp54
 70
     1
102
RTVSPropertyOp55
 70
     1
102
RTVSPropertyOp56
 70
     1
102
RTVSPropertyOp57
 70
     1
102
RTVSPropertyOp58
 70
     1
102
RTVSPropertyOp59
 70
     1
102
RTVSPropertyOp60
 70
     1
102
RTVSPropertyOp61
 70
     1
102
RTVSPropertyOp62
 70
     1
  0
XRECORD
  5
A06D
102
{ACAD_REACTORS
330
A06C
102
}
330
A06C
100
AcDbXrecord
280
     1
102
RTVSPost2010Prop28
280
     0
102
RTVSPost2010PropOp28
 70
     1
102
RTVSPost2010Prop29
280
     1
102
RTVSPost2010PropOp29
 70
     1
102
RTVSPost2010Prop30
280
     1
102
RTVSPost2010PropOp30
 70
     1
102
RTVSPost2010Prop31
280
     0
102
RTVSPost2010PropOp31
 70
     1
102
RTVSPost2010Prop32
280
     0
102
RTVSPost2010PropOp32
 70
     1
102
RTVSPost2010Prop33
280
     0
102
RTVSPost2010PropOp33
 70
     1
102
RTVSPost2010Prop34
280
     0
102
RTVSPost2010PropOp34
 70
     1
102
RTVSPost2010Prop35
280
     0
102
RTVSPost2010PropOp35
 70
     1
102
RTVSPost2010Prop36
280
     0
102
RTVSPost2010PropOp36
 70
     1
102
RTVSPost2010Prop37
 90
       50
102
RTVSPost2010PropOp37
 70
     0
102
RTVSPost2010Prop38
140
0.0
102
RTVSPost2010PropOp38
 70
     0
102
RTVSPost2010Prop39
140
1.0
102
RTVSPost2010PropOp39
 70
     0
102
RTVSPost2010Prop40
 90
        0
102
RTVSPost2010PropOp40
 70
     0
102
RTVSPost2010Prop41ColorIndex
 90
       18
102
RTVSPost2010Prop41ColorRGB
 90
        0
102
RTVSPost2010PropOp41
 70
     0
102
RTVSPost2010Prop42
 90
       50
102
RTVSPost2010PropOp42
 70
     0
102
RTVSPost2010Prop43
 90
        3
102
RTVSPost2010PropOp43
 70
     0
102
RTVSPost2010Prop44ColorIndex
 90
        5
102
RTVSPost2010Prop44ColorRGB
 90
      255
102
RTVSPost2010PropOp44
 70
     0
102
RTVSPost2010Prop45
280
     0
102
RTVSPost2010PropOp45
 70
     1
102
RTVSPost2010Prop46
 90
       50
102
RTVSPost2010PropOp46
 70
     0
102
RTVSPost2010Prop47
 90
       50
102
RTVSPost2010PropOp47
 70
     0
102
RTVSPost2010Prop48
 90
       50
102
RTVSPost2010PropOp48
 70
     0
102
RTVSPost2010Prop49
280
     0
102
RTVSPost2010PropOp49
 70
     1
102
RTVSPost2010Prop50
 90
       50
102
RTVSPost2010PropOp50
 70
     0
102
RTVSPost2010Prop51ColorIndex
 90
      256
102
RTVSPost2010Prop51ColorRGB
 90
-16777216
102
RTVSPost2010PropOp51
 70
     0
102
RTVSPost2010Prop52
140
1.0
102
RTVSPost2010PropOp52
 70
     0
102
RTVSPost2010Prop53
 90
        2
102
RTVSPost2010PropOp53
 70
     0
102
RTVSPost2010Prop54
  1
strokes_ogs.tif
102
RTVSPost2010PropOp54
 70
     0
102
RTVSPost2010Prop55
280
     0
102
RTVSPost2010PropOp55
 70
     1
102
RTVSPost2010Prop56
140
1.0
102
RTVSPost2010PropOp56
 70
     0
102
RTVSPost2010Prop57
140
1.0
102
RTVSPost2010PropOp57
 70
     0
102
RTVSPropertyOp0
 70
     0
102
RTVSPropertyOp1
 70
     0
102
RTVSPropertyOp2
 70
     0
102
RTVSPropertyOp3
 70
     0
102
RTVSPropertyOp4
 70
     0
102
RTVSPropertyOp5
 70
     0
102
RTVSPropertyOp6
 70
     0
102
RTVSPropertyOp7
 70
     0
102
RTVSPropertyOp8
 70
     0
102
RTVSPropertyOp9
 70
     0
102
RTVSPropertyOp10
 70
     0
102
RTVSPropertyOp11
 70
     0
102
RTVSPropertyOp12
 70
     0
102
RTVSPropertyOp13
 70
     0
102
RTVSPropertyOp14
 70
     2
102
RTVSPropertyOp15
 70
     0
102
RTVSPropertyOp16
 70
     0
102
RTVSPropertyOp17
 70
     0
102
RTVSPropertyOp18
 70
     0
102
RTVSPropertyOp19
 70
     0
102
RTVSPropertyOp20
 70
     0
102
RTVSPropertyOp21
 70
     0
102
RTVSPropertyOp22
 70
     0
102
RTVSPropertyOp23
 70
     0
102
RTVSPropertyOp24
 70
     0
102
RTVSPropertyOp25
 70
     0
102
RTVSPropertyOp26
 70
     0
102
RTVSPropertyOp27
 70
     0
102
RTVSPropertyOp28
 70
     1
102
RTVSPropertyOp29
 70
     1
102
RTVSPropertyOp30
 70
     1
102
RTVSPropertyOp31
 70
     1
102
RTVSPropertyOp32
 70
     1
102
RTVSPropertyOp33
 70
     1
102
RTVSPropertyOp34
 70
     1
102
RTVSPropertyOp35
 70
     1
102
RTVSPropertyOp36
 70
     1
102
RTVSPropertyOp37
 70
     0
102
RTVSPropertyOp38
 70
     0
102
RTVSPropertyOp39
 70
     0
102
RTVSPropertyOp40
 70
     0
102
RTVSPropertyOp41
 70
     0
102
RTVSPropertyOp42
 70
     0
102
RTVSPropertyOp43
 70
     0
102
RTVSPropertyOp44
 70
     0
102
RTVSPropertyOp45
 70
     1
102
RTVSPropertyOp46
 70
     0
102
RTVSPropertyOp47
 70
     0
102
RTVSPropertyOp48
 70
     0
102
RTVSPropertyOp49
 70
     1
102
RTVSPropertyOp50
 70
     0
102
RTVSPropertyOp51
 70
     0
102
RTVSPropertyOp52
 70
     0
102
RTVSPropertyOp53
 70
     0
102
RTVSPropertyOp54
 70
     0
102
RTVSPropertyOp55
 70
     1
102
RTVSPropertyOp56
 70
     0
102
RTVSPropertyOp57
 70
     0
102
RTVSPropertyOp58
 70
     0
102
RTVSPropertyOp59
 70
     0
102
RTVSPropertyOp60
 70
     0
102
RTVSPropertyOp61
 70
     0
102
RTVSPropertyOp62
 70
     0
  0
XRECORD
  5
A05D
102
{ACAD_REACTORS
330
A05C
102
}
330
A05C
100
AcDbXrecord
280
     1
102
RTVSPost2010Prop28
280
     0
102
RTVSPost2010PropOp28
 70
     1
102
RTVSPost2010Prop29
280
     1
102
RTVSPost2010PropOp29
 70
     1
102
RTVSPost2010Prop30
280
     1
102
RTVSPost2010PropOp30
 70
     1
102
RTVSPost2010Prop31
280
     0
102
RTVSPost2010PropOp31
 70
     1
102
RTVSPost2010Prop32
280
     0
102
RTVSPost2010PropOp32
 70
     1
102
RTVSPost2010Prop33
280
     0
102
RTVSPost2010PropOp33
 70
     1
102
RTVSPost2010Prop34
280
     0
102
RTVSPost2010PropOp34
 70
     1
102
RTVSPost2010Prop35
280
     0
102
RTVSPost2010PropOp35
 70
     1
102
RTVSPost2010Prop36
280
     0
102
RTVSPost2010PropOp36
 70
     1
102
RTVSPost2010Prop37
 90
       50
102
RTVSPost2010PropOp37
 70
     1
102
RTVSPost2010Prop38
140
0.0
102
RTVSPost2010PropOp38
 70
     1
102
RTVSPost2010Prop39
140
1.0
102
RTVSPost2010PropOp39
 70
     1
102
RTVSPost2010Prop40
 90
        0
102
RTVSPost2010PropOp40
 70
     1
102
RTVSPost2010Prop41ColorIndex
 90
       18
102
RTVSPost2010Prop41ColorRGB
 90
        0
102
RTVSPost2010PropOp41
 70
     1
102
RTVSPost2010Prop42
 90
       50
102
RTVSPost2010PropOp42
 70
     1
102
RTVSPost2010Prop43
 90
        3
102
RTVSPost2010PropOp43
 70
     1
102
RTVSPost2010Prop44ColorIndex
 90
        5
102
RTVSPost2010Prop44ColorRGB
 90
      255
102
RTVSPost2010PropOp44
 70
     1
102
RTVSPost2010Prop45
280
     0
102
RTVSPost2010PropOp45
 70
     1
102
RTVSPost2010Prop46
 90
       50
102
RTVSPost2010PropOp46
 70
     1
102
RTVSPost2010Prop47
 90
       50
102
RTVSPost2010PropOp47
 70
     1
102
RTVSPost2010Prop48
 90
       50
102
RTVSPost2010PropOp48
 70
     1
102
RTVSPost2010Prop49
280
     0
102
RTVSPost2010PropOp49
 70
     1
102
RTVSPost2010Prop50
 90
       50
102
RTVSPost2010PropOp50
 70
     1
102
RTVSPost2010Prop51ColorIndex
 90
      256
102
RTVSPost2010Prop51ColorRGB
 90
-16777216
102
RTVSPost2010PropOp51
 70
     0
102
RTVSPost2010Prop52
140
1.0
102
RTVSPost2010PropOp52
 70
     0
102
RTVSPost2010Prop53
 90
        2
102
RTVSPost2010PropOp53
 70
     1
102
RTVSPost2010Prop54
  1
strokes_ogs.tif
102
RTVSPost2010PropOp54
 70
     1
102
RTVSPost2010Prop55
280
     0
102
RTVSPost2010PropOp55
 70
     1
102
RTVSPost2010Prop56
140
1.0
102
RTVSPost2010PropOp56
 70
     1
102
RTVSPost2010Prop57
140
1.0
102
RTVSPost2010PropOp57
 70
     1
102
RTVSPropertyOp0
 70
     1
102
RTVSPropertyOp1
 70
     1
102
RTVSPropertyOp2
 70
     1
102
RTVSPropertyOp3
 70
     1
102
RTVSPropertyOp4
 70
     1
102
RTVSPropertyOp5
 70
     1
102
RTVSPropertyOp6
 70
     1
102
RTVSPropertyOp7
 70
     1
102
RTVSPropertyOp8
 70
     1
102
RTVSPropertyOp9
 70
     1
102
RTVSPropertyOp10
 70
     1
102
RTVSPropertyOp11
 70
     1
102
RTVSPropertyOp12
 70
     1
102
RTVSPropertyOp13
 70
     1
102
RTVSPropertyOp14
 70
     1
102
RTVSPropertyOp15
 70
     1
102
RTVSPropertyOp16
 70
     1
102
RTVSPropertyOp17
 70
     1
102
RTVSPropertyOp18
 70
     1
102
RTVSPropertyOp19
 70
     1
102
RTVSPropertyOp20
 70
     1
102
RTVSPropertyOp21
 70
     1
102
RTVSPropertyOp22
 70
     1
102
RTVSPropertyOp23
 70
     1
102
RTVSPropertyOp24
 70
     1
102
RTVSPropertyOp25
 70
     1
102
RTVSPropertyOp26
 70
     1
102
RTVSPropertyOp27
 70
     1
102
RTVSPropertyOp28
 70
     1
102
RTVSPropertyOp29
 70
     1
102
RTVSPropertyOp30
 70
     1
102
RTVSPropertyOp31
 70
     1
102
RTVSPropertyOp32
 70
     1
102
RTVSPropertyOp33
 70
     1
102
RTVSPropertyOp34
 70
     1
102
RTVSPropertyOp35
 70
     1
102
RTVSPropertyOp36
 70
     1
102
RTVSPropertyOp37
 70
     1
102
RTVSPropertyOp38
 70
     1
102
RTVSPropertyOp39
 70
     1
102
RTVSPropertyOp40
 70
     1
102
RTVSPropertyOp41
 70
     1
102
RTVSPropertyOp42
 70
     1
102
RTVSPropertyOp43
 70
     1
102
RTVSPropertyOp44
 70
     1
102
RTVSPropertyOp45
 70
     1
102
RTVSPropertyOp46
 70
     1
102
RTVSPropertyOp47
 70
     1
102
RTVSPropertyOp48
 70
     1
102
RTVSPropertyOp49
 70
     1
102
RTVSPropertyOp50
 70
     1
102
RTVSPropertyOp51
 70
     0
102
RTVSPropertyOp52
 70
     0
102
RTVSPropertyOp53
 70
     1
102
RTVSPropertyOp54
 70
     1
102
RTVSPropertyOp55
 70
     1
102
RTVSPropertyOp56
 70
     1
102
RTVSPropertyOp57
 70
     1
102
RTVSPropertyOp58
 70
     1
102
RTVSPropertyOp59
 70
     1
102
RTVSPropertyOp60
 70
     1
102
RTVSPropertyOp61
 70
     1
102
RTVSPropertyOp62
 70
     1
  0
XRECORD
  5
A06F
102
{ACAD_REACTORS
330
A06E
102
}
330
A06E
100
AcDbXrecord
280
     1
102
RTVSPost2010Prop28
280
     0
102
RTVSPost2010PropOp28
 70
     1
102
RTVSPost2010Prop29
280
     1
102
RTVSPost2010PropOp29
 70
     1
102
RTVSPost2010Prop30
280
     1
102
RTVSPost2010PropOp30
 70
     1
102
RTVSPost2010Prop31
280
     0
102
RTVSPost2010PropOp31
 70
     1
102
RTVSPost2010Prop32
280
     0
102
RTVSPost2010PropOp32
 70
     1
102
RTVSPost2010Prop33
280
     0
102
RTVSPost2010PropOp33
 70
     1
102
RTVSPost2010Prop34
280
     0
102
RTVSPost2010PropOp34
 70
     1
102
RTVSPost2010Prop35
280
     0
102
RTVSPost2010PropOp35
 70
     1
102
RTVSPost2010Prop36
280
     0
102
RTVSPost2010PropOp36
 70
     1
102
RTVSPost2010Prop37
 90
       50
102
RTVSPost2010PropOp37
 70
     0
102
RTVSPost2010Prop38
140
0.0
102
RTVSPost2010PropOp38
 70
     0
102
RTVSPost2010Prop39
140
1.0
102
RTVSPost2010PropOp39
 70
     0
102
RTVSPost2010Prop40
 90
        0
102
RTVSPost2010PropOp40
 70
     0
102
RTVSPost2010Prop41ColorIndex
 90
       18
102
RTVSPost2010Prop41ColorRGB
 90
        0
102
RTVSPost2010PropOp41
 70
     0
102
RTVSPost2010Prop42
 90
       50
102
RTVSPost2010PropOp42
 70
     0
102
RTVSPost2010Prop43
 90
        3
102
RTVSPost2010PropOp43
 70
     0
102
RTVSPost2010Prop44ColorIndex
 90
        5
102
RTVSPost2010Prop44ColorRGB
 90
      255
102
RTVSPost2010PropOp44
 70
     0
102
RTVSPost2010Prop45
280
     0
102
RTVSPost2010PropOp45
 70
     1
102
RTVSPost2010Prop46
 90
       50
102
RTVSPost2010PropOp46
 70
     0
102
RTVSPost2010Prop47
 90
       50
102
RTVSPost2010PropOp47
 70
     0
102
RTVSPost2010Prop48
 90
       50
102
RTVSPost2010PropOp48
 70
     0
102
RTVSPost2010Prop49
280
     0
102
RTVSPost2010PropOp49
 70
     1
102
RTVSPost2010Prop50
 90
       50
102
RTVSPost2010PropOp50
 70
     0
102
RTVSPost2010Prop51ColorIndex
 90
      256
102
RTVSPost2010Prop51ColorRGB
 90
-16777216
102
RTVSPost2010PropOp51
 70
     0
102
RTVSPost2010Prop52
140
1.0
102
RTVSPost2010PropOp52
 70
     0
102
RTVSPost2010Prop53
 90
        2
102
RTVSPost2010PropOp53
 70
     0
102
RTVSPost2010Prop54
  1
strokes_ogs.tif
102
RTVSPost2010PropOp54
 70
     0
102
RTVSPost2010Prop55
280
     0
102
RTVSPost2010PropOp55
 70
     1
102
RTVSPost2010Prop56
140
1.0
102
RTVSPost2010PropOp56
 70
     0
102
RTVSPost2010Prop57
140
1.0
102
RTVSPost2010PropOp57
 70
     0
102
RTVSPropertyOp0
 70
     0
102
RTVSPropertyOp1
 70
     0
102
RTVSPropertyOp2
 70
     0
102
RTVSPropertyOp3
 70
     0
102
RTVSPropertyOp4
 70
     0
102
RTVSPropertyOp5
 70
     0
102
RTVSPropertyOp6
 70
     0
102
RTVSPropertyOp7
 70
     0
102
RTVSPropertyOp8
 70
     0
102
RTVSPropertyOp9
 70
     0
102
RTVSPropertyOp10
 70
     0
102
RTVSPropertyOp11
 70
     0
102
RTVSPropertyOp12
 70
     0
102
RTVSPropertyOp13
 70
     0
102
RTVSPropertyOp14
 70
     2
102
RTVSPropertyOp15
 70
     0
102
RTVSPropertyOp16
 70
     0
102
RTVSPropertyOp17
 70
     0
102
RTVSPropertyOp18
 70
     0
102
RTVSPropertyOp19
 70
     0
102
RTVSPropertyOp20
 70
     0
102
RTVSPropertyOp21
 70
     0
102
RTVSPropertyOp22
 70
     0
102
RTVSPropertyOp23
 70
     0
102
RTVSPropertyOp24
 70
     0
102
RTVSPropertyOp25
 70
     0
102
RTVSPropertyOp26
 70
     0
102
RTVSPropertyOp27
 70
     0
102
RTVSPropertyOp28
 70
     1
102
RTVSPropertyOp29
 70
     1
102
RTVSPropertyOp30
 70
     1
102
RTVSPropertyOp31
 70
     1
102
RTVSPropertyOp32
 70
     1
102
RTVSPropertyOp33
 70
     1
102
RTVSPropertyOp34
 70
     1
102
RTVSPropertyOp35
 70
     1
102
RTVSPropertyOp36
 70
     1
102
RTVSPropertyOp37
 70
     0
102
RTVSPropertyOp38
 70
     0
102
RTVSPropertyOp39
 70
     0
102
RTVSPropertyOp40
 70
     0
102
RTVSPropertyOp41
 70
     0
102
RTVSPropertyOp42
 70
     0
102
RTVSPropertyOp43
 70
     0
102
RTVSPropertyOp44
 70
     0
102
RTVSPropertyOp45
 70
     1
102
RTVSPropertyOp46
 70
     0
102
RTVSPropertyOp47
 70
     0
102
RTVSPropertyOp48
 70
     0
102
RTVSPropertyOp49
 70
     1
102
RTVSPropertyOp50
 70
     0
102
RTVSPropertyOp51
 70
     0
102
RTVSPropertyOp52
 70
     0
102
RTVSPropertyOp53
 70
     0
102
RTVSPropertyOp54
 70
     0
102
RTVSPropertyOp55
 70
     1
102
RTVSPropertyOp56
 70
     0
102
RTVSPropertyOp57
 70
     0
102
RTVSPropertyOp58
 70
     0
102
RTVSPropertyOp59
 70
     0
102
RTVSPropertyOp60
 70
     0
102
RTVSPropertyOp61
 70
     0
102
RTVSPropertyOp62
 70
     0
  0
XRECORD
  5
A055
102
{ACAD_REACTORS
330
A054
102
}
330
A054
100
AcDbXrecord
280
     1
102
RTVSPost2010Prop28
280
     0
102
RTVSPost2010PropOp28
 70
     1
102
RTVSPost2010Prop29
280
     1
102
RTVSPost2010PropOp29
 70
     1
102
RTVSPost2010Prop30
280
     1
102
RTVSPost2010PropOp30
 70
     1
102
RTVSPost2010Prop31
280
     0
102
RTVSPost2010PropOp31
 70
     1
102
RTVSPost2010Prop32
280
     0
102
RTVSPost2010PropOp32
 70
     1
102
RTVSPost2010Prop33
280
     0
102
RTVSPost2010PropOp33
 70
     1
102
RTVSPost2010Prop34
280
     0
102
RTVSPost2010PropOp34
 70
     1
102
RTVSPost2010Prop35
280
     0
102
RTVSPost2010PropOp35
 70
     1
102
RTVSPost2010Prop36
280
     0
102
RTVSPost2010PropOp36
 70
     1
102
RTVSPost2010Prop37
 90
       50
102
RTVSPost2010PropOp37
 70
     1
102
RTVSPost2010Prop38
140
0.0
102
RTVSPost2010PropOp38
 70
     1
102
RTVSPost2010Prop39
140
1.0
102
RTVSPost2010PropOp39
 70
     1
102
RTVSPost2010Prop40
 90
        0
102
RTVSPost2010PropOp40
 70
     1
102
RTVSPost2010Prop41ColorIndex
 90
       18
102
RTVSPost2010Prop41ColorRGB
 90
        0
102
RTVSPost2010PropOp41
 70
     1
102
RTVSPost2010Prop42
 90
       50
102
RTVSPost2010PropOp42
 70
     1
102
RTVSPost2010Prop43
 90
        3
102
RTVSPost2010PropOp43
 70
     1
102
RTVSPost2010Prop44ColorIndex
 90
        5
102
RTVSPost2010Prop44ColorRGB
 90
      255
102
RTVSPost2010PropOp44
 70
     1
102
RTVSPost2010Prop45
280
     0
102
RTVSPost2010PropOp45
 70
     1
102
RTVSPost2010Prop46
 90
       50
102
RTVSPost2010PropOp46
 70
     1
102
RTVSPost2010Prop47
 90
       50
102
RTVSPost2010PropOp47
 70
     1
102
RTVSPost2010Prop48
 90
       50
102
RTVSPost2010PropOp48
 70
     1
102
RTVSPost2010Prop49
280
     0
102
RTVSPost2010PropOp49
 70
     1
102
RTVSPost2010Prop50
 90
       50
102
RTVSPost2010PropOp50
 70
     1
102
RTVSPost2010Prop51ColorIndex
 90
      256
102
RTVSPost2010Prop51ColorRGB
 90
-16777216
102
RTVSPost2010PropOp51
 70
     0
102
RTVSPost2010Prop52
140
1.0
102
RTVSPost2010PropOp52
 70
     0
102
RTVSPost2010Prop53
 90
        2
102
RTVSPost2010PropOp53
 70
     1
102
RTVSPost2010Prop54
  1
strokes_ogs.tif
102
RTVSPost2010PropOp54
 70
     1
102
RTVSPost2010Prop55
280
     0
102
RTVSPost2010PropOp55
 70
     1
102
RTVSPost2010Prop56
140
1.0
102
RTVSPost2010PropOp56
 70
     1
102
RTVSPost2010Prop57
140
1.0
102
RTVSPost2010PropOp57
 70
     1
102
RTVSPropertyOp0
 70
     1
102
RTVSPropertyOp1
 70
     1
102
RTVSPropertyOp2
 70
     1
102
RTVSPropertyOp3
 70
     1
102
RTVSPropertyOp4
 70
     1
102
RTVSPropertyOp5
 70
     1
102
RTVSPropertyOp6
 70
     1
102
RTVSPropertyOp7
 70
     1
102
RTVSPropertyOp8
 70
     1
102
RTVSPropertyOp9
 70
     1
102
RTVSPropertyOp10
 70
     1
102
RTVSPropertyOp11
 70
     1
102
RTVSPropertyOp12
 70
     1
102
RTVSPropertyOp13
 70
     1
102
RTVSPropertyOp14
 70
     1
102
RTVSPropertyOp15
 70
     1
102
RTVSPropertyOp16
 70
     1
102
RTVSPropertyOp17
 70
     1
102
RTVSPropertyOp18
 70
     1
102
RTVSPropertyOp19
 70
     1
102
RTVSPropertyOp20
 70
     1
102
RTVSPropertyOp21
 70
     1
102
RTVSPropertyOp22
 70
     1
102
RTVSPropertyOp23
 70
     1
102
RTVSPropertyOp24
 70
     1
102
RTVSPropertyOp25
 70
     1
102
RTVSPropertyOp26
 70
     1
102
RTVSPropertyOp27
 70
     1
102
RTVSPropertyOp28
 70
     1
102
RTVSPropertyOp29
 70
     1
102
RTVSPropertyOp30
 70
     1
102
RTVSPropertyOp31
 70
     1
102
RTVSPropertyOp32
 70
     1
102
RTVSPropertyOp33
 70
     1
102
RTVSPropertyOp34
 70
     1
102
RTVSPropertyOp35
 70
     1
102
RTVSPropertyOp36
 70
     1
102
RTVSPropertyOp37
 70
     1
102
RTVSPropertyOp38
 70
     1
102
RTVSPropertyOp39
 70
     1
102
RTVSPropertyOp40
 70
     1
102
RTVSPropertyOp41
 70
     1
102
RTVSPropertyOp42
 70
     1
102
RTVSPropertyOp43
 70
     1
102
RTVSPropertyOp44
 70
     1
102
RTVSPropertyOp45
 70
     1
102
RTVSPropertyOp46
 70
     1
102
RTVSPropertyOp47
 70
     1
102
RTVSPropertyOp48
 70
     1
102
RTVSPropertyOp49
 70
     1
102
RTVSPropertyOp50
 70
     1
102
RTVSPropertyOp51
 70
     0
102
RTVSPropertyOp52
 70
     0
102
RTVSPropertyOp53
 70
     1
102
RTVSPropertyOp54
 70
     1
102
RTVSPropertyOp55
 70
     1
102
RTVSPropertyOp56
 70
     1
102
RTVSPropertyOp57
 70
     1
102
RTVSPropertyOp58
 70
     1
102
RTVSPropertyOp59
 70
     1
102
RTVSPropertyOp60
 70
     1
102
RTVSPropertyOp61
 70
     1
102
RTVSPropertyOp62
 70
     1
  0
XRECORD
  5
A06B
102
{ACAD_REACTORS
330
A06A
102
}
330
A06A
100
AcDbXrecord
280
     1
102
RTVSPost2010Prop28
280
     0
102
RTVSPost2010PropOp28
 70
     1
102
RTVSPost2010Prop29
280
     1
102
RTVSPost2010PropOp29
 70
     1
102
RTVSPost2010Prop30
280
     1
102
RTVSPost2010PropOp30
 70
     1
102
RTVSPost2010Prop31
280
     0
102
RTVSPost2010PropOp31
 70
     1
102
RTVSPost2010Prop32
280
     0
102
RTVSPost2010PropOp32
 70
     1
102
RTVSPost2010Prop33
280
     0
102
RTVSPost2010PropOp33
 70
     1
102
RTVSPost2010Prop34
280
     0
102
RTVSPost2010PropOp34
 70
     1
102
RTVSPost2010Prop35
280
     0
102
RTVSPost2010PropOp35
 70
     1
102
RTVSPost2010Prop36
280
     0
102
RTVSPost2010PropOp36
 70
     1
102
RTVSPost2010Prop37
 90
       50
102
RTVSPost2010PropOp37
 70
     1
102
RTVSPost2010Prop38
140
0.0
102
RTVSPost2010PropOp38
 70
     1
102
RTVSPost2010Prop39
140
1.0
102
RTVSPost2010PropOp39
 70
     1
102
RTVSPost2010Prop40
 90
        0
102
RTVSPost2010PropOp40
 70
     1
102
RTVSPost2010Prop41ColorIndex
 90
       18
102
RTVSPost2010Prop41ColorRGB
 90
        0
102
RTVSPost2010PropOp41
 70
     1
102
RTVSPost2010Prop42
 90
       50
102
RTVSPost2010PropOp42
 70
     1
102
RTVSPost2010Prop43
 90
        3
102
RTVSPost2010PropOp43
 70
     1
102
RTVSPost2010Prop44ColorIndex
 90
        5
102
RTVSPost2010Prop44ColorRGB
 90
      255
102
RTVSPost2010PropOp44
 70
     1
102
RTVSPost2010Prop45
280
     0
102
RTVSPost2010PropOp45
 70
     1
102
RTVSPost2010Prop46
 90
       50
102
RTVSPost2010PropOp46
 70
     1
102
RTVSPost2010Prop47
 90
       50
102
RTVSPost2010PropOp47
 70
     1
102
RTVSPost2010Prop48
 90
       50
102
RTVSPost2010PropOp48
 70
     1
102
RTVSPost2010Prop49
280
     0
102
RTVSPost2010PropOp49
 70
     1
102
RTVSPost2010Prop50
 90
       50
102
RTVSPost2010PropOp50
 70
     1
102
RTVSPost2010Prop51ColorIndex
 90
      256
102
RTVSPost2010Prop51ColorRGB
 90
-16777216
102
RTVSPost2010PropOp51
 70
     0
102
RTVSPost2010Prop52
140
1.0
102
RTVSPost2010PropOp52
 70
     0
102
RTVSPost2010Prop53
 90
        2
102
RTVSPost2010PropOp53
 70
     1
102
RTVSPost2010Prop54
  1
strokes_ogs.tif
102
RTVSPost2010PropOp54
 70
     1
102
RTVSPost2010Prop55
280
     0
102
RTVSPost2010PropOp55
 70
     1
102
RTVSPost2010Prop56
140
1.0
102
RTVSPost2010PropOp56
 70
     1
102
RTVSPost2010Prop57
140
1.0
102
RTVSPost2010PropOp57
 70
     1
102
RTVSPropertyOp0
 70
     1
102
RTVSPropertyOp1
 70
     1
102
RTVSPropertyOp2
 70
     1
102
RTVSPropertyOp3
 70
     1
102
RTVSPropertyOp4
 70
     1
102
RTVSPropertyOp5
 70
     1
102
RTVSPropertyOp6
 70
     1
102
RTVSPropertyOp7
 70
     1
102
RTVSPropertyOp8
 70
     1
102
RTVSPropertyOp9
 70
     1
102
RTVSPropertyOp10
 70
     1
102
RTVSPropertyOp11
 70
     1
102
RTVSPropertyOp12
 70
     1
102
RTVSPropertyOp13
 70
     1
102
RTVSPropertyOp14
 70
     1
102
RTVSPropertyOp15
 70
     1
102
RTVSPropertyOp16
 70
     1
102
RTVSPropertyOp17
 70
     1
102
RTVSPropertyOp18
 70
     1
102
RTVSPropertyOp19
 70
     1
102
RTVSPropertyOp20
 70
     1
102
RTVSPropertyOp21
 70
     1
102
RTVSPropertyOp22
 70
     1
102
RTVSPropertyOp23
 70
     1
102
RTVSPropertyOp24
 70
     1
102
RTVSPropertyOp25
 70
     1
102
RTVSPropertyOp26
 70
     1
102
RTVSPropertyOp27
 70
     1
102
RTVSPropertyOp28
 70
     1
102
RTVSPropertyOp29
 70
     1
102
RTVSPropertyOp30
 70
     1
102
RTVSPropertyOp31
 70
     1
102
RTVSPropertyOp32
 70
     1
102
RTVSPropertyOp33
 70
     1
102
RTVSPropertyOp34
 70
     1
102
RTVSPropertyOp35
 70
     1
102
RTVSPropertyOp36
 70
     1
102
RTVSPropertyOp37
 70
     1
102
RTVSPropertyOp38
 70
     1
102
RTVSPropertyOp39
 70
     1
102
RTVSPropertyOp40
 70
     1
102
RTVSPropertyOp41
 70
     1
102
RTVSPropertyOp42
 70
     1
102
RTVSPropertyOp43
 70
     1
102
RTVSPropertyOp44
 70
     1
102
RTVSPropertyOp45
 70
     1
102
RTVSPropertyOp46
 70
     1
102
RTVSPropertyOp47
 70
     1
102
RTVSPropertyOp48
 70
     1
102
RTVSPropertyOp49
 70
     1
102
RTVSPropertyOp50
 70
     1
102
RTVSPropertyOp51
 70
     0
102
RTVSPropertyOp52
 70
     0
102
RTVSPropertyOp53
 70
     1
102
RTVSPropertyOp54
 70
     1
102
RTVSPropertyOp55
 70
     1
102
RTVSPropertyOp56
 70
     1
102
RTVSPropertyOp57
 70
     1
102
RTVSPropertyOp58
 70
     1
102
RTVSPropertyOp59
 70
     1
102
RTVSPropertyOp60
 70
     1
102
RTVSPropertyOp61
 70
     1
102
RTVSPropertyOp62
 70
     1
  0
XRECORD
  5
A069
102
{ACAD_REACTORS
330
A068
102
}
330
A068
100
AcDbXrecord
280
     1
102
RTVSPost2010Prop28
280
     0
102
RTVSPost2010PropOp28
 70
     1
102
RTVSPost2010Prop29
280
     1
102
RTVSPost2010PropOp29
 70
     1
102
RTVSPost2010Prop30
280
     1
102
RTVSPost2010PropOp30
 70
     1
102
RTVSPost2010Prop31
280
     0
102
RTVSPost2010PropOp31
 70
     1
102
RTVSPost2010Prop32
280
     0
102
RTVSPost2010PropOp32
 70
     1
102
RTVSPost2010Prop33
280
     0
102
RTVSPost2010PropOp33
 70
     1
102
RTVSPost2010Prop34
280
     0
102
RTVSPost2010PropOp34
 70
     1
102
RTVSPost2010Prop35
280
     0
102
RTVSPost2010PropOp35
 70
     1
102
RTVSPost2010Prop36
280
     0
102
RTVSPost2010PropOp36
 70
     1
102
RTVSPost2010Prop37
 90
       50
102
RTVSPost2010PropOp37
 70
     1
102
RTVSPost2010Prop38
140
0.0
102
RTVSPost2010PropOp38
 70
     1
102
RTVSPost2010Prop39
140
1.0
102
RTVSPost2010PropOp39
 70
     1
102
RTVSPost2010Prop40
 90
        0
102
RTVSPost2010PropOp40
 70
     1
102
RTVSPost2010Prop41ColorIndex
 90
       18
102
RTVSPost2010Prop41ColorRGB
 90
        0
102
RTVSPost2010PropOp41
 70
     1
102
RTVSPost2010Prop42
 90
       50
102
RTVSPost2010PropOp42
 70
     1
102
RTVSPost2010Prop43
 90
        3
102
RTVSPost2010PropOp43
 70
     1
102
RTVSPost2010Prop44ColorIndex
 90
        5
102
RTVSPost2010Prop44ColorRGB
 90
      255
102
RTVSPost2010PropOp44
 70
     1
102
RTVSPost2010Prop45
280
     0
102
RTVSPost2010PropOp45
 70
     1
102
RTVSPost2010Prop46
 90
       50
102
RTVSPost2010PropOp46
 70
     1
102
RTVSPost2010Prop47
 90
       50
102
RTVSPost2010PropOp47
 70
     1
102
RTVSPost2010Prop48
 90
       50
102
RTVSPost2010PropOp48
 70
     1
102
RTVSPost2010Prop49
280
     0
102
RTVSPost2010PropOp49
 70
     1
102
RTVSPost2010Prop50
 90
       50
102
RTVSPost2010PropOp50
 70
     1
102
RTVSPost2010Prop51ColorIndex
 90
      256
102
RTVSPost2010Prop51ColorRGB
 90
-16777216
102
RTVSPost2010PropOp51
 70
     0
102
RTVSPost2010Prop52
140
1.0
102
RTVSPost2010PropOp52
 70
     0
102
RTVSPost2010Prop53
 90
        2
102
RTVSPost2010PropOp53
 70
     1
102
RTVSPost2010Prop54
  1
strokes_ogs.tif
102
RTVSPost2010PropOp54
 70
     1
102
RTVSPost2010Prop55
280
     0
102
RTVSPost2010PropOp55
 70
     1
102
RTVSPost2010Prop56
140
1.0
102
RTVSPost2010PropOp56
 70
     1
102
RTVSPost2010Prop57
140
1.0
102
RTVSPost2010PropOp57
 70
     1
102
RTVSPropertyOp0
 70
     1
102
RTVSPropertyOp1
 70
     1
102
RTVSPropertyOp2
 70
     1
102
RTVSPropertyOp3
 70
     1
102
RTVSPropertyOp4
 70
     1
102
RTVSPropertyOp5
 70
     1
102
RTVSPropertyOp6
 70
     1
102
RTVSPropertyOp7
 70
     1
102
RTVSPropertyOp8
 70
     1
102
RTVSPropertyOp9
 70
     1
102
RTVSPropertyOp10
 70
     1
102
RTVSPropertyOp11
 70
     1
102
RTVSPropertyOp12
 70
     1
102
RTVSPropertyOp13
 70
     1
102
RTVSPropertyOp14
 70
     1
102
RTVSPropertyOp15
 70
     1
102
RTVSPropertyOp16
 70
     1
102
RTVSPropertyOp17
 70
     1
102
RTVSPropertyOp18
 70
     1
102
RTVSPropertyOp19
 70
     1
102
RTVSPropertyOp20
 70
     1
102
RTVSPropertyOp21
 70
     1
102
RTVSPropertyOp22
 70
     1
102
RTVSPropertyOp23
 70
     1
102
RTVSPropertyOp24
 70
     1
102
RTVSPropertyOp25
 70
     1
102
RTVSPropertyOp26
 70
     1
102
RTVSPropertyOp27
 70
     1
102
RTVSPropertyOp28
 70
     1
102
RTVSPropertyOp29
 70
     1
102
RTVSPropertyOp30
 70
     1
102
RTVSPropertyOp31
 70
     1
102
RTVSPropertyOp32
 70
     1
102
RTVSPropertyOp33
 70
     1
102
RTVSPropertyOp34
 70
     1
102
RTVSPropertyOp35
 70
     1
102
RTVSPropertyOp36
 70
     1
102
RTVSPropertyOp37
 70
     1
102
RTVSPropertyOp38
 70
     1
102
RTVSPropertyOp39
 70
     1
102
RTVSPropertyOp40
 70
     1
102
RTVSPropertyOp41
 70
     1
102
RTVSPropertyOp42
 70
     1
102
RTVSPropertyOp43
 70
     1
102
RTVSPropertyOp44
 70
     1
102
RTVSPropertyOp45
 70
     1
102
RTVSPropertyOp46
 70
     1
102
RTVSPropertyOp47
 70
     1
102
RTVSPropertyOp48
 70
     1
102
RTVSPropertyOp49
 70
     1
102
RTVSPropertyOp50
 70
     1
102
RTVSPropertyOp51
 70
     0
102
RTVSPropertyOp52
 70
     0
102
RTVSPropertyOp53
 70
     1
102
RTVSPropertyOp54
 70
     1
102
RTVSPropertyOp55
 70
     1
102
RTVSPropertyOp56
 70
     1
102
RTVSPropertyOp57
 70
     1
102
RTVSPropertyOp58
 70
     1
102
RTVSPropertyOp59
 70
     1
102
RTVSPropertyOp60
 70
     1
102
RTVSPropertyOp61
 70
     1
102
RTVSPropertyOp62
 70
     1
  0
XRECORD
  5
A063
102
{ACAD_REACTORS
330
A062
102
}
330
A062
100
AcDbXrecord
280
     1
102
RTVSPost2010Prop28
280
     0
102
RTVSPost2010PropOp28
 70
     1
102
RTVSPost2010Prop29
280
     1
102
RTVSPost2010PropOp29
 70
     1
102
RTVSPost2010Prop30
280
     1
102
RTVSPost2010PropOp30
 70
     1
102
RTVSPost2010Prop31
280
     0
102
RTVSPost2010PropOp31
 70
     1
102
RTVSPost2010Prop32
280
     0
102
RTVSPost2010PropOp32
 70
     1
102
RTVSPost2010Prop33
280
     0
102
RTVSPost2010PropOp33
 70
     1
102
RTVSPost2010Prop34
280
     0
102
RTVSPost2010PropOp34
 70
     1
102
RTVSPost2010Prop35
280
     0
102
RTVSPost2010PropOp35
 70
     1
102
RTVSPost2010Prop36
280
     0
102
RTVSPost2010PropOp36
 70
     1
102
RTVSPost2010Prop37
 90
       50
102
RTVSPost2010PropOp37
 70
     1
102
RTVSPost2010Prop38
140
0.0
102
RTVSPost2010PropOp38
 70
     1
102
RTVSPost2010Prop39
140
1.0
102
RTVSPost2010PropOp39
 70
     1
102
RTVSPost2010Prop40
 90
        0
102
RTVSPost2010PropOp40
 70
     1
102
RTVSPost2010Prop41ColorIndex
 90
       18
102
RTVSPost2010Prop41ColorRGB
 90
        0
102
RTVSPost2010PropOp41
 70
     1
102
RTVSPost2010Prop42
 90
       50
102
RTVSPost2010PropOp42
 70
     1
102
RTVSPost2010Prop43
 90
        3
102
RTVSPost2010PropOp43
 70
     1
102
RTVSPost2010Prop44ColorIndex
 90
        5
102
RTVSPost2010Prop44ColorRGB
 90
      255
102
RTVSPost2010PropOp44
 70
     1
102
RTVSPost2010Prop45
280
     0
102
RTVSPost2010PropOp45
 70
     1
102
RTVSPost2010Prop46
 90
       50
102
RTVSPost2010PropOp46
 70
     1
102
RTVSPost2010Prop47
 90
       50
102
RTVSPost2010PropOp47
 70
     1
102
RTVSPost2010Prop48
 90
       50
102
RTVSPost2010PropOp48
 70
     1
102
RTVSPost2010Prop49
280
     0
102
RTVSPost2010PropOp49
 70
     1
102
RTVSPost2010Prop50
 90
       50
102
RTVSPost2010PropOp50
 70
     1
102
RTVSPost2010Prop51ColorIndex
 90
      256
102
RTVSPost2010Prop51ColorRGB
 90
-16777216
102
RTVSPost2010PropOp51
 70
     0
102
RTVSPost2010Prop52
140
1.0
102
RTVSPost2010PropOp52
 70
     0
102
RTVSPost2010Prop53
 90
        2
102
RTVSPost2010PropOp53
 70
     1
102
RTVSPost2010Prop54
  1
strokes_ogs.tif
102
RTVSPost2010PropOp54
 70
     1
102
RTVSPost2010Prop55
280
     0
102
RTVSPost2010PropOp55
 70
     1
102
RTVSPost2010Prop56
140
1.0
102
RTVSPost2010PropOp56
 70
     1
102
RTVSPost2010Prop57
140
1.0
102
RTVSPost2010PropOp57
 70
     1
102
RTVSPropertyOp0
 70
     1
102
RTVSPropertyOp1
 70
     1
102
RTVSPropertyOp2
 70
     1
102
RTVSPropertyOp3
 70
     1
102
RTVSPropertyOp4
 70
     1
102
RTVSPropertyOp5
 70
     1
102
RTVSPropertyOp6
 70
     1
102
RTVSPropertyOp7
 70
     1
102
RTVSPropertyOp8
 70
     1
102
RTVSPropertyOp9
 70
     1
102
RTVSPropertyOp10
 70
     1
102
RTVSPropertyOp11
 70
     1
102
RTVSPropertyOp12
 70
     1
102
RTVSPropertyOp13
 70
     1
102
RTVSPropertyOp14
 70
     1
102
RTVSPropertyOp15
 70
     1
102
RTVSPropertyOp16
 70
     1
102
RTVSPropertyOp17
 70
     1
102
RTVSPropertyOp18
 70
     1
102
RTVSPropertyOp19
 70
     1
102
RTVSPropertyOp20
 70
     1
102
RTVSPropertyOp21
 70
     1
102
RTVSPropertyOp22
 70
     1
102
RTVSPropertyOp23
 70
     1
102
RTVSPropertyOp24
 70
     1
102
RTVSPropertyOp25
 70
     1
102
RTVSPropertyOp26
 70
     1
102
RTVSPropertyOp27
 70
     1
102
RTVSPropertyOp28
 70
     1
102
RTVSPropertyOp29
 70
     1
102
RTVSPropertyOp30
 70
     1
102
RTVSPropertyOp31
 70
     1
102
RTVSPropertyOp32
 70
     1
102
RTVSPropertyOp33
 70
     1
102
RTVSPropertyOp34
 70
     1
102
RTVSPropertyOp35
 70
     1
102
RTVSPropertyOp36
 70
     1
102
RTVSPropertyOp37
 70
     1
102
RTVSPropertyOp38
 70
     1
102
RTVSPropertyOp39
 70
     1
102
RTVSPropertyOp40
 70
     1
102
RTVSPropertyOp41
 70
     1
102
RTVSPropertyOp42
 70
     1
102
RTVSPropertyOp43
 70
     1
102
RTVSPropertyOp44
 70
     1
102
RTVSPropertyOp45
 70
     1
102
RTVSPropertyOp46
 70
     1
102
RTVSPropertyOp47
 70
     1
102
RTVSPropertyOp48
 70
     1
102
RTVSPropertyOp49
 70
     1
102
RTVSPropertyOp50
 70
     1
102
RTVSPropertyOp51
 70
     0
102
RTVSPropertyOp52
 70
     0
102
RTVSPropertyOp53
 70
     1
102
RTVSPropertyOp54
 70
     1
102
RTVSPropertyOp55
 70
     1
102
RTVSPropertyOp56
 70
     1
102
RTVSPropertyOp57
 70
     1
102
RTVSPropertyOp58
 70
     1
102
RTVSPropertyOp59
 70
     1
102
RTVSPropertyOp60
 70
     1
102
RTVSPropertyOp61
 70
     1
102
RTVSPropertyOp62
 70
     1
  0
XRECORD
  5
A065
102
{ACAD_REACTORS
330
A064
102
}
330
A064
100
AcDbXrecord
280
     1
102
RTVSPost2010Prop28
280
     0
102
RTVSPost2010PropOp28
 70
     1
102
RTVSPost2010Prop29
280
     1
102
RTVSPost2010PropOp29
 70
     1
102
RTVSPost2010Prop30
280
     1
102
RTVSPost2010PropOp30
 70
     1
102
RTVSPost2010Prop31
280
     0
102
RTVSPost2010PropOp31
 70
     1
102
RTVSPost2010Prop32
280
     0
102
RTVSPost2010PropOp32
 70
     1
102
RTVSPost2010Prop33
280
     0
102
RTVSPost2010PropOp33
 70
     1
102
RTVSPost2010Prop34
280
     0
102
RTVSPost2010PropOp34
 70
     1
102
RTVSPost2010Prop35
280
     0
102
RTVSPost2010PropOp35
 70
     1
102
RTVSPost2010Prop36
280
     0
102
RTVSPost2010PropOp36
 70
     1
102
RTVSPost2010Prop37
 90
       50
102
RTVSPost2010PropOp37
 70
     1
102
RTVSPost2010Prop38
140
0.0
102
RTVSPost2010PropOp38
 70
     1
102
RTVSPost2010Prop39
140
1.0
102
RTVSPost2010PropOp39
 70
     1
102
RTVSPost2010Prop40
 90
        0
102
RTVSPost2010PropOp40
 70
     1
102
RTVSPost2010Prop41ColorIndex
 90
       18
102
RTVSPost2010Prop41ColorRGB
 90
        0
102
RTVSPost2010PropOp41
 70
     1
102
RTVSPost2010Prop42
 90
       50
102
RTVSPost2010PropOp42
 70
     1
102
RTVSPost2010Prop43
 90
        3
102
RTVSPost2010PropOp43
 70
     1
102
RTVSPost2010Prop44ColorIndex
 90
        5
102
RTVSPost2010Prop44ColorRGB
 90
      255
102
RTVSPost2010PropOp44
 70
     1
102
RTVSPost2010Prop45
280
     0
102
RTVSPost2010PropOp45
 70
     1
102
RTVSPost2010Prop46
 90
       50
102
RTVSPost2010PropOp46
 70
     1
102
RTVSPost2010Prop47
 90
       50
102
RTVSPost2010PropOp47
 70
     1
102
RTVSPost2010Prop48
 90
       50
102
RTVSPost2010PropOp48
 70
     1
102
RTVSPost2010Prop49
280
     0
102
RTVSPost2010PropOp49
 70
     1
102
RTVSPost2010Prop50
 90
       50
102
RTVSPost2010PropOp50
 70
     1
102
RTVSPost2010Prop51ColorIndex
 90
      256
102
RTVSPost2010Prop51ColorRGB
 90
-16777216
102
RTVSPost2010PropOp51
 70
     0
102
RTVSPost2010Prop52
140
1.0
102
RTVSPost2010PropOp52
 70
     0
102
RTVSPost2010Prop53
 90
        2
102
RTVSPost2010PropOp53
 70
     1
102
RTVSPost2010Prop54
  1
strokes_ogs.tif
102
RTVSPost2010PropOp54
 70
     1
102
RTVSPost2010Prop55
280
     0
102
RTVSPost2010PropOp55
 70
     1
102
RTVSPost2010Prop56
140
1.0
102
RTVSPost2010PropOp56
 70
     1
102
RTVSPost2010Prop57
140
1.0
102
RTVSPost2010PropOp57
 70
     1
102
RTVSPropertyOp0
 70
     1
102
RTVSPropertyOp1
 70
     1
102
RTVSPropertyOp2
 70
     1
102
RTVSPropertyOp3
 70
     1
102
RTVSPropertyOp4
 70
     1
102
RTVSPropertyOp5
 70
     1
102
RTVSPropertyOp6
 70
     1
102
RTVSPropertyOp7
 70
     1
102
RTVSPropertyOp8
 70
     1
102
RTVSPropertyOp9
 70
     1
102
RTVSPropertyOp10
 70
     1
102
RTVSPropertyOp11
 70
     1
102
RTVSPropertyOp12
 70
     1
102
RTVSPropertyOp13
 70
     1
102
RTVSPropertyOp14
 70
     1
102
RTVSPropertyOp15
 70
     1
102
RTVSPropertyOp16
 70
     1
102
RTVSPropertyOp17
 70
     1
102
RTVSPropertyOp18
 70
     1
102
RTVSPropertyOp19
 70
     1
102
RTVSPropertyOp20
 70
     1
102
RTVSPropertyOp21
 70
     1
102
RTVSPropertyOp22
 70
     1
102
RTVSPropertyOp23
 70
     1
102
RTVSPropertyOp24
 70
     1
102
RTVSPropertyOp25
 70
     1
102
RTVSPropertyOp26
 70
     1
102
RTVSPropertyOp27
 70
     1
102
RTVSPropertyOp28
 70
     1
102
RTVSPropertyOp29
 70
     1
102
RTVSPropertyOp30
 70
     1
102
RTVSPropertyOp31
 70
     1
102
RTVSPropertyOp32
 70
     1
102
RTVSPropertyOp33
 70
     1
102
RTVSPropertyOp34
 70
     1
102
RTVSPropertyOp35
 70
     1
102
RTVSPropertyOp36
 70
     1
102
RTVSPropertyOp37
 70
     1
102
RTVSPropertyOp38
 70
     1
102
RTVSPropertyOp39
 70
     1
102
RTVSPropertyOp40
 70
     1
102
RTVSPropertyOp41
 70
     1
102
RTVSPropertyOp42
 70
     1
102
RTVSPropertyOp43
 70
     1
102
RTVSPropertyOp44
 70
     1
102
RTVSPropertyOp45
 70
     1
102
RTVSPropertyOp46
 70
     1
102
RTVSPropertyOp47
 70
     1
102
RTVSPropertyOp48
 70
     1
102
RTVSPropertyOp49
 70
     1
102
RTVSPropertyOp50
 70
     1
102
RTVSPropertyOp51
 70
     0
102
RTVSPropertyOp52
 70
     0
102
RTVSPropertyOp53
 70
     1
102
RTVSPropertyOp54
 70
     1
102
RTVSPropertyOp55
 70
     1
102
RTVSPropertyOp56
 70
     1
102
RTVSPropertyOp57
 70
     1
102
RTVSPropertyOp58
 70
     1
102
RTVSPropertyOp59
 70
     1
102
RTVSPropertyOp60
 70
     1
102
RTVSPropertyOp61
 70
     1
102
RTVSPropertyOp62
 70
     1
  0
XRECORD
  5
A05B
102
{ACAD_REACTORS
330
A05A
102
}
330
A05A
100
AcDbXrecord
280
     1
102
RTVSPost2010Prop28
280
     0
102
RTVSPost2010PropOp28
 70
     1
102
RTVSPost2010Prop29
280
     1
102
RTVSPost2010PropOp29
 70
     1
102
RTVSPost2010Prop30
280
     1
102
RTVSPost2010PropOp30
 70
     1
102
RTVSPost2010Prop31
280
     0
102
RTVSPost2010PropOp31
 70
     1
102
RTVSPost2010Prop32
280
     0
102
RTVSPost2010PropOp32
 70
     1
102
RTVSPost2010Prop33
280
     0
102
RTVSPost2010PropOp33
 70
     1
102
RTVSPost2010Prop34
280
     0
102
RTVSPost2010PropOp34
 70
     1
102
RTVSPost2010Prop35
280
     0
102
RTVSPost2010PropOp35
 70
     1
102
RTVSPost2010Prop36
280
     0
102
RTVSPost2010PropOp36
 70
     1
102
RTVSPost2010Prop37
 90
       50
102
RTVSPost2010PropOp37
 70
     1
102
RTVSPost2010Prop38
140
0.0
102
RTVSPost2010PropOp38
 70
     1
102
RTVSPost2010Prop39
140
1.0
102
RTVSPost2010PropOp39
 70
     1
102
RTVSPost2010Prop40
 90
        0
102
RTVSPost2010PropOp40
 70
     1
102
RTVSPost2010Prop41ColorIndex
 90
       18
102
RTVSPost2010Prop41ColorRGB
 90
        0
102
RTVSPost2010PropOp41
 70
     1
102
RTVSPost2010Prop42
 90
       50
102
RTVSPost2010PropOp42
 70
     1
102
RTVSPost2010Prop43
 90
        3
102
RTVSPost2010PropOp43
 70
     1
102
RTVSPost2010Prop44ColorIndex
 90
        5
102
RTVSPost2010Prop44ColorRGB
 90
      255
102
RTVSPost2010PropOp44
 70
     1
102
RTVSPost2010Prop45
280
     0
102
RTVSPost2010PropOp45
 70
     1
102
RTVSPost2010Prop46
 90
       50
102
RTVSPost2010PropOp46
 70
     1
102
RTVSPost2010Prop47
 90
       50
102
RTVSPost2010PropOp47
 70
     1
102
RTVSPost2010Prop48
 90
       50
102
RTVSPost2010PropOp48
 70
     1
102
RTVSPost2010Prop49
280
     0
102
RTVSPost2010PropOp49
 70
     1
102
RTVSPost2010Prop50
 90
       50
102
RTVSPost2010PropOp50
 70
     1
102
RTVSPost2010Prop51ColorIndex
 90
      256
102
RTVSPost2010Prop51ColorRGB
 90
-16777216
102
RTVSPost2010PropOp51
 70
     0
102
RTVSPost2010Prop52
140
1.0
102
RTVSPost2010PropOp52
 70
     0
102
RTVSPost2010Prop53
 90
        2
102
RTVSPost2010PropOp53
 70
     1
102
RTVSPost2010Prop54
  1
strokes_ogs.tif
102
RTVSPost2010PropOp54
 70
     1
102
RTVSPost2010Prop55
280
     0
102
RTVSPost2010PropOp55
 70
     1
102
RTVSPost2010Prop56
140
1.0
102
RTVSPost2010PropOp56
 70
     1
102
RTVSPost2010Prop57
140
1.0
102
RTVSPost2010PropOp57
 70
     1
102
RTVSPropertyOp0
 70
     1
102
RTVSPropertyOp1
 70
     1
102
RTVSPropertyOp2
 70
     1
102
RTVSPropertyOp3
 70
     1
102
RTVSPropertyOp4
 70
     1
102
RTVSPropertyOp5
 70
     1
102
RTVSPropertyOp6
 70
     1
102
RTVSPropertyOp7
 70
     1
102
RTVSPropertyOp8
 70
     1
102
RTVSPropertyOp9
 70
     1
102
RTVSPropertyOp10
 70
     1
102
RTVSPropertyOp11
 70
     1
102
RTVSPropertyOp12
 70
     1
102
RTVSPropertyOp13
 70
     1
102
RTVSPropertyOp14
 70
     1
102
RTVSPropertyOp15
 70
     1
102
RTVSPropertyOp16
 70
     1
102
RTVSPropertyOp17
 70
     1
102
RTVSPropertyOp18
 70
     1
102
RTVSPropertyOp19
 70
     1
102
RTVSPropertyOp20
 70
     1
102
RTVSPropertyOp21
 70
     1
102
RTVSPropertyOp22
 70
     1
102
RTVSPropertyOp23
 70
     1
102
RTVSPropertyOp24
 70
     1
102
RTVSPropertyOp25
 70
     1
102
RTVSPropertyOp26
 70
     1
102
RTVSPropertyOp27
 70
     1
102
RTVSPropertyOp28
 70
     1
102
RTVSPropertyOp29
 70
     1
102
RTVSPropertyOp30
 70
     1
102
RTVSPropertyOp31
 70
     1
102
RTVSPropertyOp32
 70
     1
102
RTVSPropertyOp33
 70
     1
102
RTVSPropertyOp34
 70
     1
102
RTVSPropertyOp35
 70
     1
102
RTVSPropertyOp36
 70
     1
102
RTVSPropertyOp37
 70
     1
102
RTVSPropertyOp38
 70
     1
102
RTVSPropertyOp39
 70
     1
102
RTVSPropertyOp40
 70
     1
102
RTVSPropertyOp41
 70
     1
102
RTVSPropertyOp42
 70
     1
102
RTVSPropertyOp43
 70
     1
102
RTVSPropertyOp44
 70
     1
102
RTVSPropertyOp45
 70
     1
102
RTVSPropertyOp46
 70
     1
102
RTVSPropertyOp47
 70
     1
102
RTVSPropertyOp48
 70
     1
102
RTVSPropertyOp49
 70
     1
102
RTVSPropertyOp50
 70
     1
102
RTVSPropertyOp51
 70
     0
102
RTVSPropertyOp52
 70
     0
102
RTVSPropertyOp53
 70
     1
102
RTVSPropertyOp54
 70
     1
102
RTVSPropertyOp55
 70
     1
102
RTVSPropertyOp56
 70
     1
102
RTVSPropertyOp57
 70
     1
102
RTVSPropertyOp58
 70
     1
102
RTVSPropertyOp59
 70
     1
102
RTVSPropertyOp60
 70
     1
102
RTVSPropertyOp61
 70
     1
102
RTVSPropertyOp62
 70
     1
  0
XRECORD
  5
A04F
102
{ACAD_REACTORS
330
A04E
102
}
330
A04E
100
AcDbXrecord
280
     1
102
RTVSPost2010Prop28
280
     0
102
RTVSPost2010PropOp28
 70
     1
102
RTVSPost2010Prop29
280
     1
102
RTVSPost2010PropOp29
 70
     1
102
RTVSPost2010Prop30
280
     1
102
RTVSPost2010PropOp30
 70
     1
102
RTVSPost2010Prop31
280
     0
102
RTVSPost2010PropOp31
 70
     1
102
RTVSPost2010Prop32
280
     0
102
RTVSPost2010PropOp32
 70
     1
102
RTVSPost2010Prop33
280
     0
102
RTVSPost2010PropOp33
 70
     1
102
RTVSPost2010Prop34
280
     0
102
RTVSPost2010PropOp34
 70
     1
102
RTVSPost2010Prop35
280
     0
102
RTVSPost2010PropOp35
 70
     1
102
RTVSPost2010Prop36
280
     0
102
RTVSPost2010PropOp36
 70
     1
102
RTVSPost2010Prop37
 90
       50
102
RTVSPost2010PropOp37
 70
     1
102
RTVSPost2010Prop38
140
0.0
102
RTVSPost2010PropOp38
 70
     1
102
RTVSPost2010Prop39
140
1.0
102
RTVSPost2010PropOp39
 70
     1
102
RTVSPost2010Prop40
 90
        0
102
RTVSPost2010PropOp40
 70
     1
102
RTVSPost2010Prop41ColorIndex
 90
       18
102
RTVSPost2010Prop41ColorRGB
 90
        0
102
RTVSPost2010PropOp41
 70
     1
102
RTVSPost2010Prop42
 90
       50
102
RTVSPost2010PropOp42
 70
     1
102
RTVSPost2010Prop43
 90
        3
102
RTVSPost2010PropOp43
 70
     1
102
RTVSPost2010Prop44ColorIndex
 90
        5
102
RTVSPost2010Prop44ColorRGB
 90
      255
102
RTVSPost2010PropOp44
 70
     1
102
RTVSPost2010Prop45
280
     0
102
RTVSPost2010PropOp45
 70
     1
102
RTVSPost2010Prop46
 90
       50
102
RTVSPost2010PropOp46
 70
     1
102
RTVSPost2010Prop47
 90
       50
102
RTVSPost2010PropOp47
 70
     1
102
RTVSPost2010Prop48
 90
       50
102
RTVSPost2010PropOp48
 70
     1
102
RTVSPost2010Prop49
280
     0
102
RTVSPost2010PropOp49
 70
     1
102
RTVSPost2010Prop50
 90
       50
102
RTVSPost2010PropOp50
 70
     1
102
RTVSPost2010Prop51ColorIndex
 90
      256
102
RTVSPost2010Prop51ColorRGB
 90
-16777216
102
RTVSPost2010PropOp51
 70
     0
102
RTVSPost2010Prop52
140
1.0
102
RTVSPost2010PropOp52
 70
     0
102
RTVSPost2010Prop53
 90
        2
102
RTVSPost2010PropOp53
 70
     1
102
RTVSPost2010Prop54
  1
strokes_ogs.tif
102
RTVSPost2010PropOp54
 70
     1
102
RTVSPost2010Prop55
280
     0
102
RTVSPost2010PropOp55
 70
     1
102
RTVSPost2010Prop56
140
1.0
102
RTVSPost2010PropOp56
 70
     1
102
RTVSPost2010Prop57
140
1.0
102
RTVSPost2010PropOp57
 70
     1
102
RTVSPropertyOp0
 70
     1
102
RTVSPropertyOp1
 70
     1
102
RTVSPropertyOp2
 70
     1
102
RTVSPropertyOp3
 70
     1
102
RTVSPropertyOp4
 70
     1
102
RTVSPropertyOp5
 70
     1
102
RTVSPropertyOp6
 70
     1
102
RTVSPropertyOp7
 70
     1
102
RTVSPropertyOp8
 70
     1
102
RTVSPropertyOp9
 70
     1
102
RTVSPropertyOp10
 70
     1
102
RTVSPropertyOp11
 70
     1
102
RTVSPropertyOp12
 70
     1
102
RTVSPropertyOp13
 70
     1
102
RTVSPropertyOp14
 70
     1
102
RTVSPropertyOp15
 70
     1
102
RTVSPropertyOp16
 70
     1
102
RTVSPropertyOp17
 70
     1
102
RTVSPropertyOp18
 70
     1
102
RTVSPropertyOp19
 70
     1
102
RTVSPropertyOp20
 70
     1
102
RTVSPropertyOp21
 70
     1
102
RTVSPropertyOp22
 70
     1
102
RTVSPropertyOp23
 70
     1
102
RTVSPropertyOp24
 70
     1
102
RTVSPropertyOp25
 70
     1
102
RTVSPropertyOp26
 70
     1
102
RTVSPropertyOp27
 70
     1
102
RTVSPropertyOp28
 70
     1
102
RTVSPropertyOp29
 70
     1
102
RTVSPropertyOp30
 70
     1
102
RTVSPropertyOp31
 70
     1
102
RTVSPropertyOp32
 70
     1
102
RTVSPropertyOp33
 70
     1
102
RTVSPropertyOp34
 70
     1
102
RTVSPropertyOp35
 70
     1
102
RTVSPropertyOp36
 70
     1
102
RTVSPropertyOp37
 70
     1
102
RTVSPropertyOp38
 70
     1
102
RTVSPropertyOp39
 70
     1
102
RTVSPropertyOp40
 70
     1
102
RTVSPropertyOp41
 70
     1
102
RTVSPropertyOp42
 70
     1
102
RTVSPropertyOp43
 70
     1
102
RTVSPropertyOp44
 70
     1
102
RTVSPropertyOp45
 70
     1
102
RTVSPropertyOp46
 70
     1
102
RTVSPropertyOp47
 70
     1
102
RTVSPropertyOp48
 70
     1
102
RTVSPropertyOp49
 70
     1
102
RTVSPropertyOp50
 70
     1
102
RTVSPropertyOp51
 70
     0
102
RTVSPropertyOp52
 70
     0
102
RTVSPropertyOp53
 70
     1
102
RTVSPropertyOp54
 70
     1
102
RTVSPropertyOp55
 70
     1
102
RTVSPropertyOp56
 70
     1
102
RTVSPropertyOp57
 70
     1
102
RTVSPropertyOp58
 70
     1
102
RTVSPropertyOp59
 70
     1
102
RTVSPropertyOp60
 70
     1
102
RTVSPropertyOp61
 70
     1
102
RTVSPropertyOp62
 70
     1
  0
XRECORD
  5
A067
102
{ACAD_REACTORS
330
A066
102
}
330
A066
100
AcDbXrecord
280
     1
102
RTVSPost2010Prop28
280
     0
102
RTVSPost2010PropOp28
 70
     1
102
RTVSPost2010Prop29
280
     1
102
RTVSPost2010PropOp29
 70
     1
102
RTVSPost2010Prop30
280
     1
102
RTVSPost2010PropOp30
 70
     1
102
RTVSPost2010Prop31
280
     0
102
RTVSPost2010PropOp31
 70
     1
102
RTVSPost2010Prop32
280
     0
102
RTVSPost2010PropOp32
 70
     1
102
RTVSPost2010Prop33
280
     0
102
RTVSPost2010PropOp33
 70
     1
102
RTVSPost2010Prop34
280
     0
102
RTVSPost2010PropOp34
 70
     1
102
RTVSPost2010Prop35
280
     0
102
RTVSPost2010PropOp35
 70
     1
102
RTVSPost2010Prop36
280
     0
102
RTVSPost2010PropOp36
 70
     1
102
RTVSPost2010Prop37
 90
       50
102
RTVSPost2010PropOp37
 70
     1
102
RTVSPost2010Prop38
140
0.0
102
RTVSPost2010PropOp38
 70
     1
102
RTVSPost2010Prop39
140
1.0
102
RTVSPost2010PropOp39
 70
     1
102
RTVSPost2010Prop40
 90
        0
102
RTVSPost2010PropOp40
 70
     1
102
RTVSPost2010Prop41ColorIndex
 90
       18
102
RTVSPost2010Prop41ColorRGB
 90
        0
102
RTVSPost2010PropOp41
 70
     1
102
RTVSPost2010Prop42
 90
       50
102
RTVSPost2010PropOp42
 70
     1
102
RTVSPost2010Prop43
 90
        3
102
RTVSPost2010PropOp43
 70
     1
102
RTVSPost2010Prop44ColorIndex
 90
        5
102
RTVSPost2010Prop44ColorRGB
 90
      255
102
RTVSPost2010PropOp44
 70
     1
102
RTVSPost2010Prop45
280
     0
102
RTVSPost2010PropOp45
 70
     1
102
RTVSPost2010Prop46
 90
       50
102
RTVSPost2010PropOp46
 70
     1
102
RTVSPost2010Prop47
 90
       50
102
RTVSPost2010PropOp47
 70
     1
102
RTVSPost2010Prop48
 90
       50
102
RTVSPost2010PropOp48
 70
     1
102
RTVSPost2010Prop49
280
     0
102
RTVSPost2010PropOp49
 70
     1
102
RTVSPost2010Prop50
 90
       50
102
RTVSPost2010PropOp50
 70
     1
102
RTVSPost2010Prop51ColorIndex
 90
      256
102
RTVSPost2010Prop51ColorRGB
 90
-16777216
102
RTVSPost2010PropOp51
 70
     0
102
RTVSPost2010Prop52
140
1.0
102
RTVSPost2010PropOp52
 70
     0
102
RTVSPost2010Prop53
 90
        2
102
RTVSPost2010PropOp53
 70
     1
102
RTVSPost2010Prop54
  1
strokes_ogs.tif
102
RTVSPost2010PropOp54
 70
     1
102
RTVSPost2010Prop55
280
     0
102
RTVSPost2010PropOp55
 70
     1
102
RTVSPost2010Prop56
140
1.0
102
RTVSPost2010PropOp56
 70
     1
102
RTVSPost2010Prop57
140
1.0
102
RTVSPost2010PropOp57
 70
     1
102
RTVSPropertyOp0
 70
     1
102
RTVSPropertyOp1
 70
     1
102
RTVSPropertyOp2
 70
     1
102
RTVSPropertyOp3
 70
     1
102
RTVSPropertyOp4
 70
     1
102
RTVSPropertyOp5
 70
     1
102
RTVSPropertyOp6
 70
     1
102
RTVSPropertyOp7
 70
     1
102
RTVSPropertyOp8
 70
     1
102
RTVSPropertyOp9
 70
     1
102
RTVSPropertyOp10
 70
     1
102
RTVSPropertyOp11
 70
     1
102
RTVSPropertyOp12
 70
     1
102
RTVSPropertyOp13
 70
     1
102
RTVSPropertyOp14
 70
     1
102
RTVSPropertyOp15
 70
     1
102
RTVSPropertyOp16
 70
     1
102
RTVSPropertyOp17
 70
     1
102
RTVSPropertyOp18
 70
     1
102
RTVSPropertyOp19
 70
     1
102
RTVSPropertyOp20
 70
     1
102
RTVSPropertyOp21
 70
     1
102
RTVSPropertyOp22
 70
     1
102
RTVSPropertyOp23
 70
     1
102
RTVSPropertyOp24
 70
     1
102
RTVSPropertyOp25
 70
     1
102
RTVSPropertyOp26
 70
     1
102
RTVSPropertyOp27
 70
     1
102
RTVSPropertyOp28
 70
     1
102
RTVSPropertyOp29
 70
     1
102
RTVSPropertyOp30
 70
     1
102
RTVSPropertyOp31
 70
     1
102
RTVSPropertyOp32
 70
     1
102
RTVSPropertyOp33
 70
     1
102
RTVSPropertyOp34
 70
     1
102
RTVSPropertyOp35
 70
     1
102
RTVSPropertyOp36
 70
     1
102
RTVSPropertyOp37
 70
     1
102
RTVSPropertyOp38
 70
     1
102
RTVSPropertyOp39
 70
     1
102
RTVSPropertyOp40
 70
     1
102
RTVSPropertyOp41
 70
     1
102
RTVSPropertyOp42
 70
     1
102
RTVSPropertyOp43
 70
     1
102
RTVSPropertyOp44
 70
     1
102
RTVSPropertyOp45
 70
     1
102
RTVSPropertyOp46
 70
     1
102
RTVSPropertyOp47
 70
     1
102
RTVSPropertyOp48
 70
     1
102
RTVSPropertyOp49
 70
     1
102
RTVSPropertyOp50
 70
     1
102
RTVSPropertyOp51
 70
     0
102
RTVSPropertyOp52
 70
     0
102
RTVSPropertyOp53
 70
     1
102
RTVSPropertyOp54
 70
     1
102
RTVSPropertyOp55
 70
     1
102
RTVSPropertyOp56
 70
     1
102
RTVSPropertyOp57
 70
     1
102
RTVSPropertyOp58
 70
     1
102
RTVSPropertyOp59
 70
     1
102
RTVSPropertyOp60
 70
     1
102
RTVSPropertyOp61
 70
     1
102
RTVSPropertyOp62
 70
     1
  0
ENDSEC
  0
EOF
