  0
SECTION
  2
HEADER
  9
$ACADVER
  1
AC1015
  9
$ACADMAINTVER
 70
    20
  9
$DWGCODEPAGE
  3
ANSI_932
  9
$INSBASE
 10
0.0
 20
0.0
 30
0.0
  9
$EXTMIN
 10
10.0
 20
9.999999999999998
 30
0.0
  9
$EXTMAX
 10
421.8358979999998
 20
376.1961449999998
 30
0.0
  9
$LIMMIN
 10
0.0
 20
0.0
  9
$LIMMAX
 10
565.7000000000001
 20
389.990152
  9
$ORTHOMODE
 70
     1
  9
$REGENMODE
 70
     1
  9
$FILLMODE
 70
     1
  9
$QTEXTMODE
 70
     0
  9
$MIRRTEXT
 70
     1
  9
$LTSCALE
 40
20.0
  9
$ATTMODE
 70
     1
  9
$TEXTSIZE
 40
5.0
  9
$TRACEWID
 40
1.0
  9
$TEXTSTYLE
  7
STANDARD
  9
$CLAYER
  8
0
  9
$CELTYPE
  6
BYLAYER
  9
$CECOLOR
 62
   256
  9
$CELTSCALE
 40
1.0
  9
$DISPSILH
 70
     0
  9
$DIMSCALE
 40
1.0
  9
$DIMASZ
 40
3.0
  9
$DIMEXO
 40
1.0
  9
$DIMDLI
 40
10.0
  9
$DIMRND
 40
0.0
  9
$DIMDLE
 40
0.0
  9
$DIMEXE
 40
1.0
  9
$DIMTP
 40
0.0
  9
$DIMTM
 40
0.0
  9
$DIMTXT
 40
3.2
  9
$DIMCEN
 40
0.0
  9
$DIMTSZ
 40
0.0
  9
$DIMTOL
 70
     0
  9
$DIMLIM
 70
     0
  9
$DIMTIH
 70
     0
  9
$DIMTOH
 70
     0
  9
$DIMSE1
 70
     0
  9
$DIMSE2
 70
     0
  9
$DIMTAD
 70
     3
  9
$DIMZIN
 70
     8
  9
$DIMBLK
  1

  9
$DIMASO
 70
     1
  9
$DIMSHO
 70
     1
  9
$DIMPOST
  1

  9
$DIMAPOST
  1

  9
$DIMALT
 70
     0
  9
$DIMALTD
 70
     2
  9
$DIMALTF
 40
25.4
  9
$DIMLFAC
 40
1.0
  9
$DIMTOFL
 70
     1
  9
$DIMTVP
 40
0.0
  9
$DIMTIX
 70
     0
  9
$DIMSOXD
 70
     0
  9
$DIMSAH
 70
     1
  9
$DIMBLK1
  1

  9
$DIMBLK2
  1

  9
$DIMSTYLE
  2
STANDARD
  9
$DIMCLRD
 70
     0
  9
$DIMCLRE
 70
     0
  9
$DIMCLRT
 70
     0
  9
$DIMTFAC
 40
1.0
  9
$DIMGAP
 40
1.0
  9
$DIMJUST
 70
     0
  9
$DIMSD1
 70
     0
  9
$DIMSD2
 70
     0
  9
$DIMTOLJ
 70
     1
  9
$DIMTZIN
 70
     0
  9
$DIMALTZ
 70
     0
  9
$DIMALTTZ
 70
     0
  9
$DIMUPT
 70
     0
  9
$DIMDEC
 70
     4
  9
$DIMTDEC
 70
     4
  9
$DIMALTU
 70
     2
  9
$DIMALTTD
 70
     2
  9
$DIMTXSTY
  7
STANDARD
  9
$DIMAUNIT
 70
     0
  9
$DIMADEC
 70
     0
  9
$DIMALTRND
 40
0.0
  9
$DIMAZIN
 70
     0
  9
$DIMDSEP
 70
    46
  9
$DIMATFIT
 70
     3
  9
$DIMFRAC
 70
     0
  9
$DIMLDRBLK
  1

  9
$DIMLUNIT
 70
     2
  9
$DIMLWD
 70
    -2
  9
$DIMLWE
 70
    -2
  9
$DIMTMOVE
 70
     0
  9
$LUNITS
 70
     2
  9
$LUPREC
 70
     4
  9
$SKETCHINC
 40
1.0
  9
$FILLETRAD
 40
2.5
  9
$AUNITS
 70
     0
  9
$AUPREC
 70
     2
  9
$MENU
  1
.
  9
$ELEVATION
 40
0.0
  9
$PELEVATION
 40
0.0
  9
$THICKNESS
 40
0.0
  9
$LIMCHECK
 70
     0
  9
$CHAMFERA
 40
10.0
  9
$CHAMFERB
 40
10.0
  9
$CHAMFERC
 40
0.0
  9
$CHAMFERD
 40
0.0
  9
$SKPOLY
 70
     0
  9
$TDCREATE
 40
2450737.699826389
  9
$TDUCREATE
 40
2450737.324826389
  9
$TDUPDATE
 40
2457192.640304270
  9
$TDUUPDATE
 40
2457192.265304271
  9
$TDINDWG
 40
0.0000163194
  9
$TDUSRTIMER
 40
0.0000158102
  9
$USRTIMER
 70
     1
  9
$ANGBASE
 50
0.0
  9
$ANGDIR
 70
     0
  9
$PDMODE
 70
     0
  9
$PDSIZE
 40
0.0
  9
$PLINEWID
 40
0.0
  9
$SPLFRAME
 70
     0
  9
$SPLINETYPE
 70
     6
  9
$SPLINESEGS
 70
     8
  9
$HANDSEED
  5
9A00
  9
$SURFTAB1
 70
     6
  9
$SURFTAB2
 70
     6
  9
$SURFTYPE
 70
     6
  9
$SURFU
 70
     6
  9
$SURFV
 70
     6
  9
$UCSBASE
  2

  9
$UCSNAME
  2

  9
$UCSORG
 10
0.0
 20
0.0
 30
0.0
  9
$UCSXDIR
 10
1.0
 20
0.0
 30
0.0
  9
$UCSYDIR
 10
0.0
 20
1.0
 30
0.0
  9
$UCSORTHOREF
  2

  9
$UCSORTHOVIEW
 70
     0
  9
$UCSORGTOP
 10
0.0
 20
0.0
 30
0.0
  9
$UCSORGBOTTOM
 10
0.0
 20
0.0
 30
0.0
  9
$UCSORGLEFT
 10
0.0
 20
0.0
 30
0.0
  9
$UCSORGRIGHT
 10
0.0
 20
0.0
 30
0.0
  9
$UCSORGFRONT
 10
0.0
 20
0.0
 30
0.0
  9
$UCSORGBACK
 10
0.0
 20
0.0
 30
0.0
  9
$PUCSBASE
  2

  9
$PUCSNAME
  2

  9
$PUCSORG
 10
0.0
 20
0.0
 30
0.0
  9
$PUCSXDIR
 10
1.0
 20
0.0
 30
0.0
  9
$PUCSYDIR
 10
0.0
 20
1.0
 30
0.0
  9
$PUCSORTHOREF
  2

  9
$PUCSORTHOVIEW
 70
     0
  9
$PUCSORGTOP
 10
0.0
 20
0.0
 30
0.0
  9
$PUCSORGBOTTOM
 10
0.0
 20
0.0
 30
0.0
  9
$PUCSORGLEFT
 10
0.0
 20
0.0
 30
0.0
  9
$PUCSORGRIGHT
 10
0.0
 20
0.0
 30
0.0
  9
$PUCSORGFRONT
 10
0.0
 20
0.0
 30
0.0
  9
$PUCSORGBACK
 10
0.0
 20
0.0
 30
0.0
  9
$USERI1
 70
     0
  9
$USERI2
 70
     0
  9
$USERI3
 70
     0
  9
$USERI4
 70
     0
  9
$USERI5
 70
     0
  9
$USERR1
 40
0.0
  9
$USERR2
 40
0.0
  9
$USERR3
 40
0.0
  9
$USERR4
 40
0.0
  9
$USERR5
 40
0.0
  9
$WORLDVIEW
 70
     1
  9
$SHADEDGE
 70
     3
  9
$SHADEDIF
 70
    70
  9
$TILEMODE
 70
     1
  9
$MAXACTVP
 70
    16
  9
$PINSBASE
 10
0.0
 20
0.0
 30
0.0
  9
$PLIMCHECK
 70
     0
  9
$PEXTMIN
 10
1.000000000000000E+20
 20
1.000000000000000E+20
 30
1.000000000000000E+20
  9
$PEXTMAX
 10
-1.000000000000000E+20
 20
-1.000000000000000E+20
 30
-1.000000000000000E+20
  9
$PLIMMIN
 10
0.0
 20
0.0
  9
$PLIMMAX
 10
420.0
 20
297.0
  9
$UNITMODE
 70
     0
  9
$VISRETAIN
 70
     0
  9
$PLINEGEN
 70
     0
  9
$PSLTSCALE
 70
     0
  9
$TREEDEPTH
 70
  3020
  9
$CMLSTYLE
  2
STANDARD
  9
$CMLJUST
 70
     0
  9
$CMLSCALE
 40
1.0
  9
$PROXYGRAPHICS
 70
     1
  9
$MEASUREMENT
 70
     0
  9
$CELWEIGHT
370
    -1
  9
$ENDCAPS
280
     0
  9
$JOINSTYLE
280
     0
  9
$LWDISPLAY
290
     0
  9
$INSUNITS
 70
     0
  9
$HYPERLINKBASE
  1

  9
$STYLESHEET
  1

  9
$XEDIT
290
     1
  9
$CEPSNTYPE
380
     0
  9
$PSTYLEMODE
290
     1
  9
$FINGERPRINTGUID
  2
{9866DDE9-1C2E-4D83-B859-A249E4AB4C39}
  9
$VERSIONGUID
  2
{1E3F9966-BEA8-4CB0-823F-8F8C43D785A6}
  9
$EXTNAMES
290
     1
  9
$PSVPSCALE
 40
0.0
  9
$OLESTARTUP
290
     0
  0
ENDSEC
  0
SECTION
  2
CLASSES
  0
CLASS
  1
ACDBDICTIONARYWDFLT
  2
AcDbDictionaryWithDefault
  3
ObjectDBX Classes
 90
        0
280
     0
281
     0
  0
CLASS
  1
ACDBPLACEHOLDER
  2
AcDbPlaceHolder
  3
ObjectDBX Classes
 90
        0
280
     0
281
     0
  0
CLASS
  1
LAYOUT
  2
AcDbLayout
  3
ObjectDBX Classes
 90
        0
280
     0
281
     0
  0
CLASS
  1
DICTIONARYVAR
  2
AcDbDictionaryVar
  3
ObjectDBX Classes
 90
        0
280
     0
281
     0
  0
CLASS
  1
MATERIAL
  2
AcDbMaterial
  3
ObjectDBX Classes
 90
     1153
280
     0
281
     0
  0
CLASS
  1
VISUALSTYLE
  2
AcDbVisualStyle
  3
ObjectDBX Classes
 90
     4095
280
     0
281
     0
  0
CLASS
  1
TABLESTYLE
  2
AcDbTableStyle
  3
ObjectDBX Classes
 90
     4095
280
     0
281
     0
  0
CLASS
  1
SCALE
  2
AcDbScale
  3
ObjectDBX Classes
 90
     1153
280
     0
281
     0
  0
CLASS
  1
MLEADERSTYLE
  2
AcDbMLeaderStyle
  3
ACDB_MLEADERSTYLE_CLASS
 90
     4095
280
     0
281
     0
  0
CLASS
  1
ACDBSECTIONVIEWSTYLE
  2
AcDbSectionViewStyle
  3
ObjectDBX Classes
 90
     1025
280
     0
281
     0
  0
CLASS
  1
ACDBDETAILVIEWSTYLE
  2
AcDbDetailViewStyle
  3
ObjectDBX Classes
 90
     1025
280
     0
281
     0
  0
CLASS
  1
CELLSTYLEMAP
  2
AcDbCellStyleMap
  3
ObjectDBX Classes
 90
     1152
280
     0
281
     0
  0
ENDSEC
  0
SECTION
  2
TABLES
  0
TABLE
  2
VPORT
  5
95BF
330
0
100
AcDbSymbolTable
 70
     1
  0
VPORT
  5
9949
330
95BF
100
AcDbSymbolTableRecord
100
AcDbViewportTableRecord
  2
*ACTIVE
 70
     0
 10
0.0
 20
0.0
 11
1.0
 21
1.0
 12
326.8408650766279
 22
193.0759511730554
 13
0.0
 23
0.0
 14
10.0
 24
10.0
 15
10.0
 25
10.0
 16
0.0
 26
0.0
 36
1.0
 17
0.0
 27
0.0
 37
0.0
 40
370.2766136038624
 41
1.899603698811096
 42
50.0
 43
0.0
 44
0.0
 50
0.0
 51
0.0
 71
     0
 72
   100
 73
     1
 74
     0
 75
     0
 76
     0
 77
     0
 78
     0
281
     0
 65
     1
110
0.0
120
0.0
130
0.0
111
1.0
121
0.0
131
0.0
112
0.0
122
1.0
132
0.0
 79
     0
146
0.0
1001
ACAD_NAV_VCDISPLAY
1070
     3
  0
ENDTAB
  0
TABLE
  2
LTYPE
  5
95BC
330
0
100
AcDbSymbolTable
 70
     4
  0
LTYPE
  5
95CA
330
95BC
100
AcDbSymbolTableRecord
100
AcDbLinetypeTableRecord
  2
BYBLOCK
 70
     0
  3

 72
    65
 73
     0
 40
0.0
  0
LTYPE
  5
95CB
330
95BC
100
AcDbSymbolTableRecord
100
AcDbLinetypeTableRecord
  2
BYLAYER
 70
     0
  3

 72
    65
 73
     0
 40
0.0
  0
LTYPE
  5
95CC
330
95BC
100
AcDbSymbolTableRecord
100
AcDbLinetypeTableRecord
  2
CONTINUOUS
 70
     0
  3
Solid line
 72
    65
 73
     0
 40
0.0
  0
LTYPE
  5
95DA
330
95BC
100
AcDbSymbolTableRecord
100
AcDbLinetypeTableRecord
  2
DASHED
 70
     0
  3
__ __ __ __ __ __ __ __ __ __ __ __ __ __ __ __
 72
    65
 73
     2
 40
0.75
 49
0.5
 74
     0
 49
-0.25
 74
     0
  0
LTYPE
  5
95DB
330
95BC
100
AcDbSymbolTableRecord
100
AcDbLinetypeTableRecord
  2
CENTER
 70
     0
  3
____ _ ____ _ ____ _ ____ _ ____ _ ____ _ ____ 
 72
    65
 73
     4
 40
2.0
 49
1.25
 74
     0
 49
-0.25
 74
     0
 49
0.25
 74
     0
 49
-0.25
 74
     0
  0
LTYPE
  5
95DC
330
95BC
100
AcDbSymbolTableRecord
100
AcDbLinetypeTableRecord
  2
PHANTOM
 70
     0
  3
______  __  __  ______  __  __  ______  __  __ 
 72
    65
 73
     6
 40
2.5
 49
1.25
 74
     0
 49
-0.25
 74
     0
 49
0.25
 74
     0
 49
-0.25
 74
     0
 49
0.25
 74
     0
 49
-0.25
 74
     0
  0
ENDTAB
  0
TABLE
  2
LAYER
  5
95B9
330
0
100
AcDbSymbolTable
 70
     8
  0
LAYER
  5
95C7
102
{ACAD_XDICTIONARY
360
99A4
102
}
330
95B9
100
AcDbSymbolTableRecord
100
AcDbLayerTableRecord
  2
0
 70
     0
 62
     7
  6
CONTINUOUS
370
    -3
390
9952
  0
LAYER
  5
95DD
102
{ACAD_XDICTIONARY
360
99A6
102
}
330
95B9
100
AcDbSymbolTableRecord
100
AcDbLayerTableRecord
  2
4
 70
     0
 62
     1
  6
CENTER
370
    -3
390
9952
  0
LAYER
  5
95DE
102
{ACAD_XDICTIONARY
360
99A8
102
}
330
95B9
100
AcDbSymbolTableRecord
100
AcDbLayerTableRecord
  2
5
 70
     0
 62
     6
  6
PHANTOM
370
    -3
390
9952
  0
LAYER
  5
95DF
102
{ACAD_XDICTIONARY
360
99AA
102
}
330
95B9
100
AcDbSymbolTableRecord
100
AcDbLayerTableRecord
  2
1
 70
     0
 62
     7
  6
CONTINUOUS
370
    -3
390
9952
  0
LAYER
  5
95E0
102
{ACAD_XDICTIONARY
360
99AC
102
}
330
95B9
100
AcDbSymbolTableRecord
100
AcDbLayerTableRecord
  2
2
 70
     0
 62
     4
  6
CONTINUOUS
370
    -3
390
9952
  0
LAYER
  5
95E1
102
{ACAD_XDICTIONARY
360
99AE
102
}
330
95B9
100
AcDbSymbolTableRecord
100
AcDbLayerTableRecord
  2
3
 70
     0
 62
     2
  6
DASHED
370
    -3
390
9952
  0
LAYER
  5
95E2
102
{ACAD_XDICTIONARY
360
99B0
102
}
330
95B9
100
AcDbSymbolTableRecord
100
AcDbLayerTableRecord
  2
6
 70
     0
 62
     5
  6
CONTINUOUS
370
    -3
390
9952
  0
LAYER
  5
95E3
102
{ACAD_XDICTIONARY
360
99B2
102
}
330
95B9
100
AcDbSymbolTableRecord
100
AcDbLayerTableRecord
  2
7
 70
     0
 62
     3
  6
CONTINUOUS
370
    -3
390
9952
  0
ENDTAB
  0
TABLE
  2
STYLE
  5
95BA
330
0
100
AcDbSymbolTable
 70
     1
  0
STYLE
  5
95C8
330
95BA
100
AcDbSymbolTableRecord
100
AcDbTextStyleTableRecord
  2
STANDARD
 70
     0
 40
0.0
 41
1.0
 50
0.0
 71
     0
 42
5.0
  3
txt
  4

  0
ENDTAB
  0
TABLE
  2
VIEW
  5
95BD
330
0
100
AcDbSymbolTable
 70
     0
  0
ENDTAB
  0
TABLE
  2
UCS
  5
95BE
330
0
100
AcDbSymbolTable
 70
     0
  0
ENDTAB
  0
TABLE
  2
APPID
  5
95C0
330
0
100
AcDbSymbolTable
 70
     3
  0
APPID
  5
95C9
330
95C0
100
AcDbSymbolTableRecord
100
AcDbRegAppTableRecord
  2
ACAD
 70
     0
  0
APPID
  5
99BE
330
95C0
100
AcDbSymbolTableRecord
100
AcDbRegAppTableRecord
  2
ACAD_NAV_VCDISPLAY
 70
     0
  0
APPID
  5
99F7
330
95C0
100
AcDbSymbolTableRecord
100
AcDbRegAppTableRecord
  2
ACAD_MLEADERVER
 70
     0
  0
ENDTAB
  0
TABLE
  2
DIMSTYLE
  5
95C1
330
0
100
AcDbSymbolTable
 70
     1
100
AcDbDimStyleTable
 71
     0
  0
DIMSTYLE
105
95E5
330
95C1
100
AcDbSymbolTableRecord
100
AcDbDimStyleTableRecord
  2
STANDARD
 70
     0
 41
3.0
 42
1.0
 43
10.0
 44
1.0
 73
     0
 74
     0
 77
     3
 78
     8
140
3.2
141
0.0
147
1.0
172
     1
173
     1
284
     8
285
     8
286
     8
340
95C8
  0
ENDTAB
  0
TABLE
  2
BLOCK_RECORD
  5
95B8
330
0
100
AcDbSymbolTable
 70
     0
  0
BLOCK_RECORD
  5
95D5
102
{ACAD_XDICTIONARY
360
994C
102
}
330
95B8
100
AcDbSymbolTableRecord
100
AcDbBlockTableRecord
  2
*MODEL_SPACE
340
99A0
  0
BLOCK_RECORD
  5
95D1
102
{ACAD_XDICTIONARY
360
994A
102
}
330
95B8
100
AcDbSymbolTableRecord
100
AcDbBlockTableRecord
  2
*PAPER_SPACE
340
99A1
  0
ENDTAB
  0
ENDSEC
  0
SECTION
  2
BLOCKS
  0
BLOCK
  5
95D6
330
95D5
100
AcDbEntity
  8
0
100
AcDbBlockBegin
  2
*MODEL_SPACE
 70
     0
 10
0.0
 20
0.0
 30
0.0
  3
*MODEL_SPACE
  1

  0
ENDBLK
  5
95D7
330
95D5
100
AcDbEntity
  8
0
100
AcDbBlockEnd
  0
BLOCK
  5
95D2
330
95D1
100
AcDbEntity
 67
     1
  8
0
100
AcDbBlockBegin
  2
*PAPER_SPACE
 70
     0
 10
0.0
 20
0.0
 30
0.0
  3
*PAPER_SPACE
  1

  0
ENDBLK
  5
95D3
330
95D1
100
AcDbEntity
 67
     1
  8
0
100
AcDbBlockEnd
  0
ENDSEC
  0
SECTION
  2
ENTITIES
  0
TEXT
  5
95ED
330
95D5
100
AcDbEntity
  8
7
  6
Continuous
100
AcDbText
 10
10.0
 20
18.0
 30
0.0
 40
3.0
  1
TYPE No.THA-294-1R
100
AcDbText
  0
TEXT
  5
95EE
330
95D5
100
AcDbEntity
  8
7
  6
Continuous
100
AcDbText
 10
10.0
 20
26.0
 30
0.0
 40
3.0
  1
CODE No.3258
100
AcDbText
  0
TEXT
  5
95EF
330
95D5
100
AcDbEntity
  8
1
  6
Continuous
100
AcDbText
 10
10.0
 20
10.0
 30
0.0
 40
1.399999999999999
  1
LAYER
100
AcDbText
  0
TEXT
  5
95F0
330
95D5
100
AcDbEntity
  8
1
  6
Continuous
100
AcDbText
 10
17.97951099999998
 20
10.04873699999998
 30
0.0
 40
1.399999999999999
  1
1
100
AcDbText
  0
TEXT
  5
95F1
330
95D5
100
AcDbEntity
  8
7
  6
Continuous
100
AcDbText
 10
29.97951099999999
 20
10.04873699999998
 30
0.0
 40
1.399999999999999
  1
7
100
AcDbText
  0
TEXT
  5
95F2
330
95D5
100
AcDbEntity
  8
4
  6
CENTER
100
AcDbText
 10
23.97951099999999
 20
10.04873699999998
 30
0.0
 40
1.399999999999999
  1
4
100
AcDbText
  0
TEXT
  5
95F3
330
95D5
100
AcDbEntity
  8
3
  6
DASHED
100
AcDbText
 10
21.979511
 20
10.04873699999998
 30
0.0
 40
1.399999999999999
  1
3
100
AcDbText
  0
TEXT
  5
95F4
330
95D5
100
AcDbEntity
  8
2
  6
Continuous
100
AcDbText
 10
19.97951099999999
 20
10.04873699999998
 30
0.0
 40
1.399999999999999
  1
2
100
AcDbText
  0
TEXT
  5
95F5
330
95D5
100
AcDbEntity
  8
6
  6
Continuous
100
AcDbText
 10
27.979511
 20
10.04873699999998
 30
0.0
 40
1.399999999999999
  1
6
100
AcDbText
  0
TEXT
  5
95F6
330
95D5
100
AcDbEntity
  8
5
  6
PHANTOM
100
AcDbText
 10
25.97951099999999
 20
10.04873699999998
 30
0.0
 40
1.399999999999999
  1
5
100
AcDbText
  0
LINE
  5
95F7
330
95D5
100
AcDbEntity
  8
4
  6
CENTER
100
AcDbLine
 10
271.651898
 20
203.231055
 30
0.0
 11
227.8343979999999
 21
203.231055
 31
0.0
  0
LINE
  5
95F8
330
95D5
100
AcDbEntity
  8
4
  6
CENTER
100
AcDbLine
 10
145.860878
 20
366.3751449999999
 30
0.0
 11
145.860878
 21
330.950145
 31
0.0
  0
LINE
  5
95F9
330
95D5
100
AcDbEntity
  8
1
  6
Continuous
100
AcDbLine
 10
168.122398
 20
278.731045
 30
0.0
 11
123.5993979999998
 21
278.731045
 31
0.0
  0
LINE
  5
95FA
330
95D5
100
AcDbEntity
  8
1
  6
Continuous
100
AcDbLine
 10
168.122398
 20
277.2310449999998
 30
0.0
 11
123.5993979999998
 21
277.2310449999998
 31
0.0
  0
LINE
  5
95FB
330
95D5
100
AcDbEntity
  8
1
  6
Continuous
100
AcDbLine
 10
168.122398
 20
277.7310449999998
 30
0.0
 11
123.5993979999998
 21
277.7310449999998
 31
0.0
  0
LINE
  5
95FC
330
95D5
100
AcDbEntity
  8
1
  6
Continuous
100
AcDbLine
 10
168.122398
 20
127.7310449999999
 30
0.0
 11
123.5993979999998
 21
127.7310449999999
 31
0.0
  0
LINE
  5
95FD
330
95D5
100
AcDbEntity
  8
1
  6
Continuous
100
AcDbLine
 10
168.122398
 20
129.2310449999999
 30
0.0
 11
123.5993979999998
 21
129.2310449999999
 31
0.0
  0
LINE
  5
95FE
330
95D5
100
AcDbEntity
  8
1
  6
Continuous
100
AcDbLine
 10
168.122398
 20
128.7310449999999
 30
0.0
 11
123.5993979999998
 21
128.7310449999999
 31
0.0
  0
LINE
  5
95FF
330
95D5
100
AcDbEntity
  8
1
  6
Continuous
100
AcDbLine
 10
173.8608979999999
 20
263.940445
 30
0.0
 11
173.8608979999999
 21
146.0024449999998
 31
0.0
  0
LINE
  5
9600
330
95D5
100
AcDbEntity
  8
1
  6
Continuous
100
AcDbLine
 10
117.8608979999999
 20
263.396945
 30
0.0
 11
117.8608979999999
 21
144.9154449999998
 31
0.0
  0
LINE
  5
9601
330
95D5
100
AcDbEntity
  8
1
  6
Continuous
100
AcDbLine
 10
164.335798
 20
272.731045
 30
0.0
 11
126.019498
 21
272.731045
 31
0.0
  0
LINE
  5
9602
330
95D5
100
AcDbEntity
  8
1
  6
Continuous
100
AcDbLine
 10
163.520598
 20
133.7310449999999
 30
0.0
 11
128.4652979999999
 21
133.7310449999999
 31
0.0
  0
LINE
  5
9603
330
95D5
100
AcDbEntity
  8
1
  6
Continuous
100
AcDbLine
 10
171.8608979999999
 20
268.231045
 30
0.0
 11
171.8608979999999
 21
138.231045
 31
0.0
  0
LINE
  5
9604
330
95D5
100
AcDbEntity
  8
1
  6
Continuous
100
AcDbLine
 10
119.8608979999999
 20
268.231045
 30
0.0
 11
119.8608979999999
 21
138.231045
 31
0.0
  0
LINE
  5
9605
330
95D5
100
AcDbEntity
  8
1
  6
Continuous
100
AcDbLine
 10
169.360898
 20
270.731045
 30
0.0
 11
122.3608979999999
 21
270.731045
 31
0.0
  0
LINE
  5
9606
330
95D5
100
AcDbEntity
  8
1
  6
Continuous
100
AcDbLine
 10
169.360898
 20
135.7310449999999
 30
0.0
 11
122.3608979999999
 21
135.7310449999999
 31
0.0
  0
LINE
  5
9607
330
95D5
100
AcDbEntity
  8
1
  6
Continuous
100
AcDbLine
 10
180.3608979999999
 20
342.475145
 30
0.0
 11
111.3608979999999
 21
342.475145
 31
0.0
  0
LINE
  5
9608
330
95D5
100
AcDbEntity
  8
1
  6
Continuous
100
AcDbLine
 10
178.860898
 20
339.475145
 30
0.0
 11
178.860898
 21
338.6751449999999
 31
0.0
  0
LINE
  5
9609
330
95D5
100
AcDbEntity
  8
1
  6
Continuous
100
AcDbLine
 10
140.4678419999999
 20
358.975145
 30
0.0
 11
145.411128
 21
358.975145
 31
0.0
  0
LINE
  5
960A
330
95D5
100
AcDbEntity
  8
1
  6
Continuous
100
AcDbLine
 10
170.324998
 20
342.475145
 30
0.0
 11
158.967098
 21
354.157145
 31
0.0
  0
LINE
  5
960B
330
95D5
100
AcDbEntity
  8
1
  6
Continuous
100
AcDbLine
 10
125.250798
 20
352.672145
 30
0.0
 11
120.4354979999999
 21
342.475145
 31
0.0
  0
LINE
  5
960C
330
95D5
100
AcDbEntity
  8
1
  6
Continuous
100
AcDbLine
 10
124.047898
 20
361.9751449999998
 30
0.0
 11
127.236498
 21
361.9751449999998
 31
0.0
  0
LINE
  5
960D
330
95D5
100
AcDbEntity
  8
1
  6
Continuous
100
AcDbLine
 10
120.892898
 20
351.703145
 30
0.0
 11
113.385098
 21
349.9131450000001
 31
0.0
  0
LINE
  5
960E
330
95D5
100
AcDbEntity
  8
1
  6
Continuous
100
AcDbLine
 10
123.2112979999999
 20
351.975145
 30
0.0
 11
124.9216979999999
 21
351.975145
 31
0.0
  0
LINE
  5
960F
330
95D5
100
AcDbEntity
  8
4
  6
CENTER
100
AcDbLine
 10
134.364078
 20
344.305145
 30
0.0
 11
135.9829879999997
 21
355.138145
 31
0.0
  0
LINE
  5
9610
330
95D5
100
AcDbEntity
  8
1
  6
Continuous
100
AcDbLine
 10
157.8059979999999
 20
358.236145
 30
0.0
 11
147.9158079999999
 21
359.7141449999999
 31
0.0
  0
LINE
  5
9611
330
95D5
100
AcDbEntity
  8
1
  6
Continuous
100
AcDbLine
 10
156.6385979999998
 20
345.652145
 30
0.0
 11
157.8059979999999
 21
358.236145
 31
0.0
  0
LINE
  5
9612
330
95D5
100
AcDbEntity
  8
1
  6
Continuous
100
AcDbLine
 10
145.504277
 20
348.069096
 30
0.0
 11
147.9157979999999
 21
359.7141449999999
 31
0.0
  0
LINE
  5
9613
330
95D5
100
AcDbEntity
  8
1
  6
Continuous
100
AcDbLine
 10
139.632349
 20
342.9748259999998
 30
0.0
 11
140.3059589999998
 21
350.236145
 31
0.0
  0
LINE
  5
9614
330
95D5
100
AcDbEntity
  8
1
  6
Continuous
100
AcDbLine
 10
140.305962
 20
350.236145
 30
0.0
 11
130.415808
 21
351.714145
 31
0.0
  0
LINE
  5
9615
330
95D5
100
AcDbEntity
  8
1
  6
Continuous
100
AcDbLine
 10
128.606042
 20
342.9751449999999
 30
0.0
 11
130.415798
 21
351.714145
 31
0.0
  0
LINE
  5
9616
330
95D5
100
AcDbEntity
  8
4
  6
CENTER
100
AcDbLine
 10
151.4746979999999
 20
349.700145
 30
0.0
 11
153.661598
 21
364.332145
 31
0.0
  0
LINE
  5
9617
330
95D5
100
AcDbEntity
  8
1
  6
Continuous
100
AcDbLine
 10
143.3204579999998
 20
347.3621449999998
 30
0.0
 11
142.360942
 21
342.9751449999999
 31
0.0
  0
LINE
  5
9618
330
95D5
100
AcDbEntity
  8
1
  6
Continuous
100
AcDbLine
 10
244.2508979999999
 20
278.731045
 30
0.0
 11
244.2508979999999
 21
127.7310449999999
 31
0.0
  0
LINE
  5
9619
330
95D5
100
AcDbEntity
  8
1
  6
Continuous
100
AcDbLine
 10
238.176698
 20
273.025345
 30
0.0
 11
238.176698
 21
133.436745
 31
0.0
  0
LINE
  5
961A
330
95D5
100
AcDbEntity
  8
1
  6
Continuous
100
AcDbLine
 10
241.250898
 20
277.739545
 30
0.0
 11
241.250898
 21
128.722545
 31
0.0
  0
LINE
  5
961B
330
95D5
100
AcDbEntity
  8
1
  6
Continuous
100
AcDbLine
 10
260.7508979999999
 20
271.2310449999999
 30
0.0
 11
260.7508979999999
 21
261.2310449999998
 31
0.0
  0
LINE
  5
961C
330
95D5
100
AcDbEntity
  8
4
  6
CENTER
100
AcDbLine
 10
266.428898
 20
266.231045
 30
0.0
 11
252.861898
 21
266.231045
 31
0.0
  0
LINE
  5
961D
330
95D5
100
AcDbEntity
  8
1
  6
Continuous
100
AcDbLine
 10
260.7508979999999
 20
271.2310449999999
 30
0.0
 11
244.2508979999999
 21
272.095745
 31
0.0
  0
LINE
  5
961E
330
95D5
100
AcDbEntity
  8
1
  6
Continuous
100
AcDbLine
 10
260.7508979999999
 20
261.2310449999998
 30
0.0
 11
256.087898
 21
260.9867449999999
 31
0.0
  0
LINE
  5
961F
330
95D5
100
AcDbEntity
  8
1
  6
Continuous
100
AcDbLine
 10
260.7508979999999
 20
245.5691449999999
 30
0.0
 11
260.7508979999999
 21
160.8929449999999
 31
0.0
  0
LINE
  5
9620
330
95D5
100
AcDbEntity
  8
1
  6
Continuous
100
AcDbLine
 10
257.750898
 20
256.8411449999999
 30
0.0
 11
257.750898
 21
253.6159449999999
 31
0.0
  0
LINE
  5
9621
330
95D5
100
AcDbEntity
  8
1
  6
Continuous
100
AcDbLine
 10
259.8958979999998
 20
248.6561449999999
 30
0.0
 11
258.462898
 21
251.0434449999999
 31
0.0
  0
LINE
  5
9622
330
95D5
100
AcDbEntity
  8
1
  6
Continuous
100
AcDbLine
 10
111.582098
 20
238.3310449999999
 30
0.0
 11
103.860898
 21
238.3310449999999
 31
0.0
  0
LINE
  5
9623
330
95D5
100
AcDbEntity
  8
1
  6
Continuous
100
AcDbLine
 10
111.6353979999999
 20
242.3310449999999
 30
0.0
 11
103.860898
 21
242.3310449999999
 31
0.0
  0
LINE
  5
9624
330
95D5
100
AcDbEntity
  8
1
  6
Continuous
100
AcDbLine
 10
103.860898
 20
242.3310449999999
 30
0.0
 11
103.860898
 21
238.3310449999999
 31
0.0
  0
LINE
  5
9625
330
95D5
100
AcDbEntity
  8
1
  6
Continuous
100
AcDbLine
 10
111.6353979999999
 20
164.1310449999998
 30
0.0
 11
103.860898
 21
164.1310449999998
 31
0.0
  0
LINE
  5
9626
330
95D5
100
AcDbEntity
  8
1
  6
Continuous
100
AcDbLine
 10
103.860898
 20
164.1310449999998
 30
0.0
 11
103.860898
 21
168.1310449999998
 31
0.0
  0
LINE
  5
9627
330
95D5
100
AcDbEntity
  8
1
  6
Continuous
100
AcDbLine
 10
259.8958979999998
 20
157.805945
 30
0.0
 11
258.462898
 21
155.4186449999999
 31
0.0
  0
LINE
  5
9628
330
95D5
100
AcDbEntity
  8
1
  6
Continuous
100
AcDbLine
 10
241.250898
 20
129.2310449999999
 30
0.0
 11
240.450898
 21
129.2310449999999
 31
0.0
  0
LINE
  5
9629
330
95D5
100
AcDbEntity
  8
1
  6
Continuous
100
AcDbLine
 10
260.7508979999999
 20
135.231045
 30
0.0
 11
260.7508979999999
 21
145.2310449999998
 31
0.0
  0
LINE
  5
962A
330
95D5
100
AcDbEntity
  8
4
  6
CENTER
100
AcDbLine
 10
264.526898
 20
140.2310449999999
 30
0.0
 11
252.3358979999999
 21
140.2310449999999
 31
0.0
  0
LINE
  5
962B
330
95D5
100
AcDbEntity
  8
1
  6
Continuous
100
AcDbLine
 10
260.7508979999999
 20
135.231045
 30
0.0
 11
244.2508979999999
 21
134.3663449999999
 31
0.0
  0
LINE
  5
962C
330
95D5
100
AcDbEntity
  8
1
  6
Continuous
100
AcDbLine
 10
260.7508979999999
 20
145.2310449999998
 30
0.0
 11
256.087898
 21
145.475445
 31
0.0
  0
LINE
  5
962D
330
95D5
100
AcDbEntity
  8
1
  6
Continuous
100
AcDbLine
 10
111.582098
 20
168.1310449999998
 30
0.0
 11
103.860898
 21
168.1310449999998
 31
0.0
  0
LINE
  5
962E
330
95D5
100
AcDbEntity
  8
1
  6
Continuous
100
AcDbLine
 10
47.47099799999999
 20
278.731045
 30
0.0
 11
47.47099799999999
 21
127.7310449999999
 31
0.0
  0
LINE
  5
962F
330
95D5
100
AcDbEntity
  8
1
  6
Continuous
100
AcDbLine
 10
53.54509799999998
 20
273.025345
 30
0.0
 11
53.54509799999998
 21
133.436745
 31
0.0
  0
LINE
  5
9630
330
95D5
100
AcDbEntity
  8
1
  6
Continuous
100
AcDbLine
 10
50.470998
 20
277.739545
 30
0.0
 11
50.470998
 21
128.722545
 31
0.0
  0
LINE
  5
9631
330
95D5
100
AcDbEntity
  8
1
  6
Continuous
100
AcDbLine
 10
38.97089799999999
 20
271.2310449999999
 30
0.0
 11
38.97089799999999
 21
261.2310449999998
 31
0.0
  0
LINE
  5
9632
330
95D5
100
AcDbEntity
  8
4
  6
CENTER
100
AcDbLine
 10
22.54389799999999
 20
266.231045
 30
0.0
 11
45.64209799999999
 21
266.231045
 31
0.0
  0
LINE
  5
9633
330
95D5
100
AcDbEntity
  8
1
  6
Continuous
100
AcDbLine
 10
38.97089799999999
 20
271.2310449999999
 30
0.0
 11
47.47099799999999
 21
271.676545
 31
0.0
  0
LINE
  5
9634
330
95D5
100
AcDbEntity
  8
1
  6
Continuous
100
AcDbLine
 10
38.97089799999999
 20
261.2310449999998
 30
0.0
 11
46.970998
 21
260.8117449999999
 31
0.0
  0
LINE
  5
9635
330
95D5
100
AcDbEntity
  8
1
  6
Continuous
100
AcDbLine
 10
30.970898
 20
238.3310449999999
 30
0.0
 11
30.970898
 21
168.1310449999998
 31
0.0
  0
LINE
  5
9636
330
95D5
100
AcDbEntity
  8
1
  6
Continuous
100
AcDbLine
 10
50.470998
 20
129.2310449999999
 30
0.0
 11
51.27099799999999
 21
129.2310449999999
 31
0.0
  0
LINE
  5
9637
330
95D5
100
AcDbEntity
  8
1
  6
Continuous
100
AcDbLine
 10
30.970898
 20
135.231045
 30
0.0
 11
30.970898
 21
145.2310449999998
 31
0.0
  0
LINE
  5
9638
330
95D5
100
AcDbEntity
  8
4
  6
CENTER
100
AcDbLine
 10
26.147898
 20
140.2310449999999
 30
0.0
 11
49.200298
 21
140.2310449999999
 31
0.0
  0
LINE
  5
9639
330
95D5
100
AcDbEntity
  8
1
  6
Continuous
100
AcDbLine
 10
30.970898
 20
135.231045
 30
0.0
 11
47.47099799999999
 21
134.3663449999999
 31
0.0
  0
LINE
  5
963A
330
95D5
100
AcDbEntity
  8
1
  6
Continuous
100
AcDbLine
 10
30.970898
 20
145.2310449999998
 30
0.0
 11
35.63289799999999
 21
145.475445
 31
0.0
  0
LINE
  5
963B
330
95D5
100
AcDbEntity
  8
4
  6
CENTER
100
AcDbLine
 10
366.080898
 20
287.310945
 30
0.0
 11
366.080898
 21
119.6210449999999
 31
0.0
  0
LINE
  5
963C
330
95D5
100
AcDbEntity
  8
1
  6
Continuous
100
AcDbLine
 10
343.819898
 20
278.731045
 30
0.0
 11
388.342898
 21
278.731045
 31
0.0
  0
LINE
  5
963D
330
95D5
100
AcDbEntity
  8
1
  6
Continuous
100
AcDbLine
 10
373.9398979999998
 20
238.3310449999999
 30
0.0
 11
387.331898
 21
238.3310449999999
 31
0.0
  0
LINE
  5
963E
330
95D5
100
AcDbEntity
  8
1
  6
Continuous
100
AcDbLine
 10
373.9398979999998
 20
242.3310449999999
 30
0.0
 11
387.331898
 21
242.3310449999999
 31
0.0
  0
LINE
  5
963F
330
95D5
100
AcDbEntity
  8
1
  6
Continuous
100
AcDbLine
 10
408.0808979999998
 20
242.3310449999999
 30
0.0
 11
408.0808979999998
 21
238.3310449999999
 31
0.0
  0
LINE
  5
9640
330
95D5
100
AcDbEntity
  8
1
  6
Continuous
100
AcDbLine
 10
373.9398979999998
 20
242.3310449999999
 30
0.0
 11
373.9398979999998
 21
238.3310449999999
 31
0.0
  0
LINE
  5
9641
330
95D5
100
AcDbEntity
  8
1
  6
Continuous
100
AcDbLine
 10
383.080898
 20
246.2787449999999
 30
0.0
 11
383.080898
 21
242.3310449999999
 31
0.0
  0
LINE
  5
9642
330
95D5
100
AcDbEntity
  8
1
  6
Continuous
100
AcDbLine
 10
387.0808979999998
 20
259.731045
 30
0.0
 11
371.0808979999998
 21
259.731045
 31
0.0
  0
LINE
  5
9643
330
95D5
100
AcDbEntity
  8
1
  6
Continuous
100
AcDbLine
 10
386.5208979999999
 20
252.7310449999999
 30
0.0
 11
371.0808979999998
 21
252.7310449999999
 31
0.0
  0
LINE
  5
9644
330
95D5
100
AcDbEntity
  8
1
  6
Continuous
100
AcDbLine
 10
371.0808979999998
 20
259.731045
 30
0.0
 11
371.0808979999998
 21
252.7310449999999
 31
0.0
  0
LINE
  5
9645
330
95D5
100
AcDbEntity
  8
1
  6
Continuous
100
AcDbLine
 10
27.970898
 20
242.3310449999999
 30
0.0
 11
27.970898
 21
237.3310449999999
 31
0.0
  0
LINE
  5
9646
330
95D5
100
AcDbEntity
  8
1
  6
Continuous
100
AcDbLine
 10
40.970998
 20
242.3310449999999
 30
0.0
 11
27.970898
 21
242.3310449999999
 31
0.0
  0
LINE
  5
9647
330
95D5
100
AcDbEntity
  8
1
  6
Continuous
100
AcDbLine
 10
40.970998
 20
238.3310449999999
 30
0.0
 11
27.970898
 21
238.3310449999999
 31
0.0
  0
LINE
  5
9648
330
95D5
100
AcDbEntity
  8
1
  6
Continuous
100
AcDbLine
 10
40.970998
 20
242.3310449999999
 30
0.0
 11
40.970998
 21
238.3310449999999
 31
0.0
  0
LINE
  5
9649
330
95D5
100
AcDbEntity
  8
1
  6
Continuous
100
AcDbLine
 10
369.5808979999998
 20
266.297945
 30
0.0
 11
369.5808979999998
 21
251.9662449999999
 31
0.0
  0
LINE
  5
964A
330
95D5
100
AcDbEntity
  8
1
  6
Continuous
100
AcDbLine
 10
46.970998
 20
269.297945
 30
0.0
 11
46.970998
 21
250.9662449999999
 31
0.0
  0
LINE
  5
964B
330
95D5
100
AcDbEntity
  8
1
  6
Continuous
100
AcDbLine
 10
36.68489799999999
 20
271.530545
 30
0.0
 11
47.47099799999999
 21
272.095745
 31
0.0
  0
LINE
  5
964C
330
95D5
100
AcDbEntity
  8
1
  6
Continuous
100
AcDbLine
 10
364.469898
 20
252.2310449999999
 30
0.0
 11
357.457898
 21
252.2310449999999
 31
0.0
  0
LINE
  5
964D
330
95D5
100
AcDbEntity
  8
1
  6
Continuous
100
AcDbLine
 10
369.264898
 20
250.183145
 30
0.0
 11
367.159898
 21
246.909745
 31
0.0
  0
LINE
  5
964E
330
95D5
100
AcDbEntity
  8
1
  6
Continuous
100
AcDbLine
 10
366.255898
 20
259.932545
 30
0.0
 11
367.778898
 21
267.265645
 31
0.0
  0
LINE
  5
964F
330
95D5
100
AcDbEntity
  8
1
  6
Continuous
100
AcDbLine
 10
366.080898
 20
247.4987449999999
 30
0.0
 11
366.080898
 21
257.418445
 31
0.0
  0
LINE
  5
9650
330
95D5
100
AcDbEntity
  8
1
  6
Continuous
100
AcDbLine
 10
354.7418979999998
 20
258.1842449999999
 30
0.0
 11
354.7418979999998
 21
253.598245
 31
0.0
  0
LINE
  5
9651
330
95D5
100
AcDbEntity
  8
1
  6
Continuous
100
AcDbLine
 10
359.0808979999998
 20
242.816345
 30
0.0
 11
359.0808979999998
 21
164.254045
 31
0.0
  0
LINE
  5
9652
330
95D5
100
AcDbEntity
  8
1
  6
Continuous
100
AcDbLine
 10
383.080898
 20
238.3310449999999
 30
0.0
 11
383.080898
 21
168.1310449999998
 31
0.0
  0
LINE
  5
9653
330
95D5
100
AcDbEntity
  8
4
  6
CENTER
100
AcDbLine
 10
403.0808979999997
 20
264.1762449999998
 30
0.0
 11
403.0808979999997
 21
233.462445
 31
0.0
  0
LINE
  5
9654
330
95D5
100
AcDbEntity
  8
4
  6
CENTER
100
AcDbLine
 10
376.580898
 20
273.7310449999998
 30
0.0
 11
376.580898
 21
258.7310449999999
 31
0.0
  0
LINE
  5
9655
330
95D5
100
AcDbEntity
  8
4
  6
CENTER
100
AcDbLine
 10
384.0808979999998
 20
266.231045
 30
0.0
 11
369.0808979999998
 21
266.231045
 31
0.0
  0
LINE
  5
9656
330
95D5
100
AcDbEntity
  8
4
  6
CENTER
100
AcDbLine
 10
356.5808979999998
 20
273.7310449999998
 30
0.0
 11
356.5808979999998
 21
258.7310449999999
 31
0.0
  0
LINE
  5
9657
330
95D5
100
AcDbEntity
  8
4
  6
CENTER
100
AcDbLine
 10
364.080898
 20
266.231045
 30
0.0
 11
349.080898
 21
266.231045
 31
0.0
  0
LINE
  5
9658
330
95D5
100
AcDbEntity
  8
4
  6
CENTER
100
AcDbLine
 10
108.8608979999999
 20
359.8241449999999
 30
0.0
 11
108.8608979999999
 21
346.475145
 31
0.0
  0
LINE
  5
9659
330
95D5
100
AcDbEntity
  8
4
  6
CENTER
100
AcDbLine
 10
116.360898
 20
353.975145
 30
0.0
 11
101.3608979999999
 21
353.975145
 31
0.0
  0
LINE
  5
965A
330
95D5
100
AcDbEntity
  8
1
  6
Continuous
100
AcDbLine
 10
179.369398
 20
339.475145
 30
0.0
 11
112.3523979999998
 21
339.475145
 31
0.0
  0
LINE
  5
965B
330
95D5
100
AcDbEntity
  8
1
  6
Continuous
100
AcDbLine
 10
116.974898
 20
336.6581449999998
 30
0.0
 11
174.7467979999999
 21
336.6581449999998
 31
0.0
  0
LINE
  5
965C
330
95D5
100
AcDbEntity
  8
1
  6
Continuous
100
AcDbLine
 10
402.8528979999999
 20
254.5810449999999
 30
0.0
 11
396.932898
 21
254.5810449999999
 31
0.0
  0
LINE
  5
965D
330
95D5
100
AcDbEntity
  8
1
  6
Continuous
100
AcDbLine
 10
402.8528979999999
 20
258.581045
 30
0.0
 11
376.080898
 21
258.581045
 31
0.0
  0
LINE
  5
965E
330
95D5
100
AcDbEntity
  8
1
  6
Continuous
100
AcDbLine
 10
376.080898
 20
258.581045
 30
0.0
 11
376.080898
 21
254.5810449999999
 31
0.0
  0
LINE
  5
965F
330
95D5
100
AcDbEntity
  8
1
  6
Continuous
100
AcDbLine
 10
143.860878
 20
267.7310449999998
 30
0.0
 11
143.860878
 21
138.7310449999999
 31
0.0
  0
LINE
  5
9660
330
95D5
100
AcDbEntity
  8
1
  6
Continuous
100
AcDbLine
 10
120.4608979999999
 20
267.7310449999998
 30
0.0
 11
120.4608979999999
 21
138.7310449999999
 31
0.0
  0
LINE
  5
9661
330
95D5
100
AcDbEntity
  8
1
  6
Continuous
100
AcDbLine
 10
141.360881
 20
136.231045
 30
0.0
 11
122.960898
 21
136.231045
 31
0.0
  0
LINE
  5
9662
330
95D5
100
AcDbEntity
  8
1
  6
Continuous
100
AcDbLine
 10
141.360881
 20
270.231045
 30
0.0
 11
122.960898
 21
270.231045
 31
0.0
  0
LINE
  5
9663
330
95D5
100
AcDbEntity
  8
1
  6
Continuous
100
AcDbLine
 10
141.360881
 20
264.231045
 30
0.0
 11
126.4608979999999
 21
264.231045
 31
0.0
  0
LINE
  5
9664
330
95D5
100
AcDbEntity
  8
1
  6
Continuous
100
AcDbLine
 10
126.4608979999999
 20
264.231045
 30
0.0
 11
126.4608979999999
 21
142.2310449999999
 31
0.0
  0
LINE
  5
9665
330
95D5
100
AcDbEntity
  8
1
  6
Continuous
100
AcDbLine
 10
126.4608979999999
 20
264.231045
 30
0.0
 11
122.219998
 21
268.471945
 31
0.0
  0
LINE
  5
9666
330
95D5
100
AcDbEntity
  8
1
  6
Continuous
100
AcDbLine
 10
141.360881
 20
142.2310449999999
 30
0.0
 11
126.4608979999999
 21
142.2310449999999
 31
0.0
  0
LINE
  5
9667
330
95D5
100
AcDbEntity
  8
1
  6
Continuous
100
AcDbLine
 10
111.6353979999999
 20
254.5810449999999
 30
0.0
 11
98.36419800000001
 21
254.5810449999999
 31
0.0
  0
LINE
  5
9668
330
95D5
100
AcDbEntity
  8
1
  6
Continuous
100
AcDbLine
 10
111.9109979999999
 20
258.581045
 30
0.0
 11
103.860898
 21
258.581045
 31
0.0
  0
LINE
  5
9669
330
95D5
100
AcDbEntity
  8
1
  6
Continuous
100
AcDbLine
 10
103.860898
 20
259.781045
 30
0.0
 11
103.860898
 21
254.5810449999999
 31
0.0
  0
LINE
  5
966A
330
95D5
100
AcDbEntity
  8
1
  6
Continuous
100
AcDbLine
 10
412.6488979999998
 20
251.981045
 30
0.0
 11
387.520898
 21
251.981045
 31
0.0
  0
LINE
  5
966B
330
95D5
100
AcDbEntity
  8
1
  6
Continuous
100
AcDbLine
 10
421.8358979999998
 20
275.581045
 30
0.0
 11
421.8358979999998
 21
272.9810449999998
 31
0.0
  0
LINE
  5
966C
330
95D5
100
AcDbEntity
  8
1
  6
Continuous
100
AcDbLine
 10
421.8358979999998
 20
275.581045
 30
0.0
 11
405.4528979999998
 21
275.581045
 31
0.0
  0
LINE
  5
966D
330
95D5
100
AcDbEntity
  8
1
  6
Continuous
100
AcDbLine
 10
421.8358979999998
 20
272.9810449999998
 30
0.0
 11
404.5238979999998
 21
272.9810449999998
 31
0.0
  0
LINE
  5
966E
330
95D5
100
AcDbEntity
  8
1
  6
Continuous
100
AcDbLine
 10
415.248898
 20
272.9810449999998
 30
0.0
 11
415.248898
 21
254.5810449999999
 31
0.0
  0
LINE
  5
966F
330
95D5
100
AcDbEntity
  8
1
  6
Continuous
100
AcDbLine
 10
402.8528979999999
 20
272.9810449999998
 30
0.0
 11
402.8528979999999
 21
254.5810449999999
 31
0.0
  0
LINE
  5
9670
330
95D5
100
AcDbEntity
  8
1
  6
Continuous
100
AcDbLine
 10
396.932898
 20
258.581045
 30
0.0
 11
396.932898
 21
252.9810449999999
 31
0.0
  0
LINE
  5
9671
330
95D5
100
AcDbEntity
  8
1
  6
Continuous
100
AcDbLine
 10
391.5188979999999
 20
258.581045
 30
0.0
 11
391.5188979999999
 21
252.9810449999999
 31
0.0
  0
LINE
  5
9672
330
95D5
100
AcDbEntity
  8
1
  6
Continuous
100
AcDbLine
 10
390.397898
 20
258.581045
 30
0.0
 11
390.397898
 21
254.5810449999999
 31
0.0
  0
LINE
  5
9673
330
95D5
100
AcDbEntity
  8
1
  6
Continuous
100
AcDbLine
 10
390.397898
 20
254.5810449999999
 30
0.0
 11
376.080898
 21
254.5810449999999
 31
0.0
  0
LINE
  5
9674
330
95D5
100
AcDbEntity
  8
1
  6
Continuous
100
AcDbLine
 10
386.5208979999999
 20
254.5810449999999
 30
0.0
 11
386.5208979999999
 21
252.9810449999999
 31
0.0
  0
LINE
  5
9675
330
95D5
100
AcDbEntity
  8
1
  6
Continuous
100
AcDbLine
 10
404.5238979999998
 20
272.9810449999998
 30
0.0
 11
404.5238979999998
 21
254.5810449999999
 31
0.0
  0
LINE
  5
9676
330
95D5
100
AcDbEntity
  8
1
  6
Continuous
100
AcDbLine
 10
407.937898
 20
242.607445
 30
0.0
 11
398.137898
 21
243.257445
 31
0.0
  0
LINE
  5
9677
330
95D5
100
AcDbEntity
  8
1
  6
Continuous
100
AcDbLine
 10
408.0238979999998
 20
247.8046449999999
 30
0.0
 11
398.223898
 21
248.454645
 31
0.0
  0
LINE
  5
9678
330
95D5
100
AcDbEntity
  8
1
  6
Continuous
100
AcDbLine
 10
408.0238979999998
 20
249.104645
 30
0.0
 11
398.223898
 21
249.754645
 31
0.0
  0
LINE
  5
9679
330
95D5
100
AcDbEntity
  8
1
  6
Continuous
100
AcDbLine
 10
407.937898
 20
246.5074449999999
 30
0.0
 11
398.137898
 21
247.157445
 31
0.0
  0
LINE
  5
967A
330
95D5
100
AcDbEntity
  8
1
  6
Continuous
100
AcDbLine
 10
407.937898
 20
245.207445
 30
0.0
 11
398.137898
 21
245.8574449999999
 31
0.0
  0
LINE
  5
967B
330
95D5
100
AcDbEntity
  8
1
  6
Continuous
100
AcDbLine
 10
407.937898
 20
243.907445
 30
0.0
 11
398.137898
 21
244.557445
 31
0.0
  0
LINE
  5
967C
330
95D5
100
AcDbEntity
  8
5
  6
PHANTOM
100
AcDbLine
 10
126.543698
 20
320.804145
 30
0.0
 11
113.676398
 21
329.265145
 31
0.0
  0
LINE
  5
967D
330
95D5
100
AcDbEntity
  8
5
  6
PHANTOM
100
AcDbLine
 10
125.8836979999999
 20
325.260145
 30
0.0
 11
127.8085979999999
 21
328.188145
 31
0.0
  0
LINE
  5
967E
330
95D5
100
AcDbEntity
  8
5
  6
PHANTOM
100
AcDbLine
 10
116.6043979999999
 20
331.170145
 30
0.0
 11
118.6424979999999
 21
334.2691449999999
 31
0.0
  0
LINE
  5
967F
330
95D5
100
AcDbEntity
  8
1
  6
Continuous
100
AcDbLine
 10
127.9461979999999
 20
370.4751449999998
 30
0.0
 11
122.358798
 21
370.4751449999998
 31
0.0
  0
LINE
  5
9680
330
95D5
100
AcDbEntity
  8
1
  6
Continuous
100
AcDbLine
 10
130.1999979999999
 20
359.3271449999999
 30
0.0
 11
125.3761979999999
 21
356.846145
 31
0.0
  0
LINE
  5
9681
330
95D5
100
AcDbEntity
  8
1
  6
Continuous
100
AcDbLine
 10
124.918898
 20
357.735145
 30
0.0
 11
124.1593979999999
 21
357.345145
 31
0.0
  0
LINE
  5
9682
330
95D5
100
AcDbEntity
  8
1
  6
Continuous
100
AcDbLine
 10
122.358798
 20
370.4751449999998
 30
0.0
 11
115.6448979999999
 21
367.022145
 31
0.0
  0
LINE
  5
9683
330
95D5
100
AcDbEntity
  8
1
  6
Continuous
100
AcDbLine
 10
120.218398
 20
358.129145
 30
0.0
 11
118.160298
 21
362.131145
 31
0.0
  0
LINE
  5
9684
330
95D5
100
AcDbEntity
  8
1
  6
Continuous
100
AcDbLine
 10
127.3326979999998
 20
361.788145
 30
0.0
 11
125.274598
 21
365.790145
 31
0.0
  0
LINE
  5
9685
330
95D5
100
AcDbEntity
  8
1
  6
Continuous
100
AcDbLine
 10
115.6448979999999
 20
367.022145
 30
0.0
 11
105.473298
 21
357.653145
 31
0.0
  0
LINE
  5
9686
330
95D5
100
AcDbEntity
  8
1
  6
Continuous
100
AcDbLine
 10
125.3761979999999
 20
356.846145
 30
0.0
 11
124.918898
 21
357.735145
 31
0.0
  0
LINE
  5
9687
330
95D5
100
AcDbEntity
  8
1
  6
Continuous
100
AcDbLine
 10
117.804598
 20
354.0771449999998
 30
0.0
 11
111.702898
 21
349.861145
 31
0.0
  0
LINE
  5
9688
330
95D5
100
AcDbEntity
  8
1
  6
Continuous
100
AcDbLine
 10
127.3326979999998
 20
361.788145
 30
0.0
 11
122.6775979999999
 21
359.3941449999999
 31
0.0
  0
LINE
  5
9689
330
95D5
100
AcDbEntity
  8
1
  6
Continuous
100
AcDbLine
 10
125.274598
 20
365.790145
 30
0.0
 11
118.160298
 21
362.131145
 31
0.0
  0
LINE
  5
968A
330
95D5
100
AcDbEntity
  8
5
  6
PHANTOM
100
AcDbLine
 10
109.875998
 20
333.9661449999999
 30
0.0
 11
112.0924979999999
 21
334.137145
 31
0.0
  0
LINE
  5
968B
330
95D5
100
AcDbEntity
  8
5
  6
PHANTOM
100
AcDbLine
 10
125.211698
 20
325.510145
 30
0.0
 11
128.337998
 21
324.350145
 31
0.0
  0
LINE
  5
968C
330
95D5
100
AcDbEntity
  8
1
  6
Continuous
100
AcDbLine
 10
123.856798
 20
355.870145
 30
0.0
 11
121.9016979999999
 21
356.184145
 31
0.0
  0
LINE
  5
968D
330
95D5
100
AcDbEntity
  8
1
  6
Continuous
100
AcDbLine
 10
124.4865979999999
 20
356.892145
 30
0.0
 11
122.347898
 21
359.850145
 31
0.0
  0
LINE
  5
968E
330
95D5
100
AcDbEntity
  8
1
  6
Continuous
100
AcDbLine
 10
122.347898
 20
359.850145
 30
0.0
 11
121.294498
 21
359.0881449999998
 31
0.0
  0
LINE
  5
968F
330
95D5
100
AcDbEntity
  8
1
  6
Continuous
100
AcDbLine
 10
122.989998
 20
356.743145
 30
0.0
 11
117.804598
 21
354.0771449999998
 31
0.0
  0
LINE
  5
9690
330
95D5
100
AcDbEntity
  8
1
  6
Continuous
100
AcDbLine
 10
121.5081979999998
 20
358.7931449999999
 30
0.0
 11
120.218398
 21
358.129145
 31
0.0
  0
LINE
  5
9691
330
95D5
100
AcDbEntity
  8
1
  6
Continuous
100
AcDbLine
 10
123.433198
 20
356.1301450000001
 30
0.0
 11
121.294498
 21
359.0881449999998
 31
0.0
  0
LINE
  5
9692
330
95D5
100
AcDbEntity
  8
1
  6
Continuous
100
AcDbLine
 10
387.331898
 20
258.690845
 30
0.0
 11
387.331898
 21
258.581045
 31
0.0
  0
LINE
  5
9693
330
95D5
100
AcDbEntity
  8
1
  6
Continuous
100
AcDbLine
 10
388.631898
 20
258.690845
 30
0.0
 11
388.631898
 21
258.581045
 31
0.0
  0
LINE
  5
9694
330
95D5
100
AcDbEntity
  8
1
  6
Continuous
100
AcDbLine
 10
390.647898
 20
259.990845
 30
0.0
 11
388.631898
 21
259.990845
 31
0.0
  0
LINE
  5
9695
330
95D5
100
AcDbEntity
  8
1
  6
Continuous
100
AcDbLine
 10
390.647898
 20
258.690845
 30
0.0
 11
388.631898
 21
258.690845
 31
0.0
  0
LINE
  5
9696
330
95D5
100
AcDbEntity
  8
1
  6
Continuous
100
AcDbLine
 10
387.331898
 20
242.5241450000001
 30
0.0
 11
387.331898
 21
237.524145
 31
0.0
  0
LINE
  5
9697
330
95D5
100
AcDbEntity
  8
1
  6
Continuous
100
AcDbLine
 10
388.631898
 20
237.524145
 30
0.0
 11
388.631898
 21
242.5241450000001
 31
0.0
  0
LINE
  5
9698
330
95D5
100
AcDbEntity
  8
1
  6
Continuous
100
AcDbLine
 10
407.980898
 20
251.7060449999999
 30
0.0
 11
401.200898
 21
251.981045
 31
0.0
  0
LINE
  5
9699
330
95D5
100
AcDbEntity
  8
1
  6
Continuous
100
AcDbLine
 10
407.9278979999998
 20
250.407145
 30
0.0
 11
388.578898
 21
251.191945
 31
0.0
  0
LINE
  5
969A
330
95D5
100
AcDbEntity
  8
1
  6
Continuous
100
AcDbLine
 10
388.631898
 20
236.2241449999999
 30
0.0
 11
390.647898
 21
236.2241449999999
 31
0.0
  0
LINE
  5
969B
330
95D5
100
AcDbEntity
  8
1
  6
Continuous
100
AcDbLine
 10
388.631898
 20
242.5241450000001
 30
0.0
 11
400.080898
 21
242.5726449999999
 31
0.0
  0
LINE
  5
969C
330
95D5
100
AcDbEntity
  8
1
  6
Continuous
100
AcDbLine
 10
388.626898
 20
243.824145
 30
0.0
 11
397.532898
 21
243.8618449999999
 31
0.0
  0
LINE
  5
969D
330
95D5
100
AcDbEntity
  8
1
  6
Continuous
100
AcDbLine
 10
388.631898
 20
242.3310449999999
 30
0.0
 11
408.0808979999998
 21
242.3310449999999
 31
0.0
  0
LINE
  5
969E
330
95D5
100
AcDbEntity
  8
1
  6
Continuous
100
AcDbLine
 10
388.631898
 20
238.3310449999999
 30
0.0
 11
408.0808979999998
 21
238.3310449999999
 31
0.0
  0
LINE
  5
969F
330
95D5
100
AcDbEntity
  8
1
  6
Continuous
100
AcDbLine
 10
389.960898
 20
247.9662449999999
 30
0.0
 11
389.960898
 21
243.829745
 31
0.0
  0
LINE
  5
96A0
330
95D5
100
AcDbEntity
  8
1
  6
Continuous
100
AcDbLine
 10
359.0808979999998
 20
271.2310449999999
 30
0.0
 11
356.5808979999998
 21
271.2310449999999
 31
0.0
  0
LINE
  5
96A1
330
95D5
100
AcDbEntity
  8
1
  6
Continuous
100
AcDbLine
 10
359.0808979999998
 20
261.2310449999998
 30
0.0
 11
356.5808979999998
 21
261.2310449999998
 31
0.0
  0
LINE
  5
96A2
330
95D5
100
AcDbEntity
  8
1
  6
Continuous
100
AcDbLine
 10
343.819898
 20
127.7310449999999
 30
0.0
 11
388.342898
 21
127.7310449999999
 31
0.0
  0
LINE
  5
96A3
330
95D5
100
AcDbEntity
  8
1
  6
Continuous
100
AcDbLine
 10
373.9398979999998
 20
168.1310449999998
 30
0.0
 11
387.331898
 21
168.1310449999998
 31
0.0
  0
LINE
  5
96A4
330
95D5
100
AcDbEntity
  8
1
  6
Continuous
100
AcDbLine
 10
373.9398979999998
 20
164.1310449999998
 30
0.0
 11
387.331898
 21
164.1310449999998
 31
0.0
  0
LINE
  5
96A5
330
95D5
100
AcDbEntity
  8
1
  6
Continuous
100
AcDbLine
 10
408.0808979999998
 20
164.1310449999998
 30
0.0
 11
408.0808979999998
 21
168.1310449999998
 31
0.0
  0
LINE
  5
96A6
330
95D5
100
AcDbEntity
  8
1
  6
Continuous
100
AcDbLine
 10
373.9398979999998
 20
164.1310449999998
 30
0.0
 11
373.9398979999998
 21
168.1310449999998
 31
0.0
  0
LINE
  5
96A7
330
95D5
100
AcDbEntity
  8
1
  6
Continuous
100
AcDbLine
 10
383.080898
 20
161.231045
 30
0.0
 11
383.080898
 21
164.1310449999998
 31
0.0
  0
LINE
  5
96A8
330
95D5
100
AcDbEntity
  8
1
  6
Continuous
100
AcDbLine
 10
387.0808979999998
 20
146.731045
 30
0.0
 11
371.0808979999998
 21
146.731045
 31
0.0
  0
LINE
  5
96A9
330
95D5
100
AcDbEntity
  8
1
  6
Continuous
100
AcDbLine
 10
387.0808979999998
 20
153.7310449999999
 30
0.0
 11
371.0808979999998
 21
153.7310449999999
 31
0.0
  0
LINE
  5
96AA
330
95D5
100
AcDbEntity
  8
1
  6
Continuous
100
AcDbLine
 10
371.0808979999998
 20
146.731045
 30
0.0
 11
371.0808979999998
 21
153.7310449999999
 31
0.0
  0
LINE
  5
96AB
330
95D5
100
AcDbEntity
  8
1
  6
Continuous
100
AcDbLine
 10
364.469898
 20
154.2310449999999
 30
0.0
 11
357.457898
 21
154.2310449999999
 31
0.0
  0
LINE
  5
96AC
330
95D5
100
AcDbEntity
  8
1
  6
Continuous
100
AcDbLine
 10
366.080898
 20
158.963345
 30
0.0
 11
366.080898
 21
149.0436449999999
 31
0.0
  0
LINE
  5
96AD
330
95D5
100
AcDbEntity
  8
4
  6
CENTER
100
AcDbLine
 10
403.0808979999997
 20
142.998545
 30
0.0
 11
403.0808979999997
 21
173.579945
 31
0.0
  0
LINE
  5
96AE
330
95D5
100
AcDbEntity
  8
4
  6
CENTER
100
AcDbLine
 10
376.580898
 20
132.7310449999999
 30
0.0
 11
376.580898
 21
147.731045
 31
0.0
  0
LINE
  5
96AF
330
95D5
100
AcDbEntity
  8
4
  6
CENTER
100
AcDbLine
 10
384.0808979999998
 20
140.2310449999999
 30
0.0
 11
369.0808979999998
 21
140.2310449999999
 31
0.0
  0
LINE
  5
96B0
330
95D5
100
AcDbEntity
  8
4
  6
CENTER
100
AcDbLine
 10
356.5808979999998
 20
132.7310449999999
 30
0.0
 11
356.5808979999998
 21
147.731045
 31
0.0
  0
LINE
  5
96B1
330
95D5
100
AcDbEntity
  8
4
  6
CENTER
100
AcDbLine
 10
364.080898
 20
140.2310449999999
 30
0.0
 11
349.080898
 21
140.2310449999999
 31
0.0
  0
LINE
  5
96B2
330
95D5
100
AcDbEntity
  8
1
  6
Continuous
100
AcDbLine
 10
408.0808979999998
 20
147.881045
 30
0.0
 11
376.080898
 21
147.881045
 31
0.0
  0
LINE
  5
96B3
330
95D5
100
AcDbEntity
  8
1
  6
Continuous
100
AcDbLine
 10
408.0808979999998
 20
146.6810449999998
 30
0.0
 11
408.0808979999998
 21
151.881045
 31
0.0
  0
LINE
  5
96B4
330
95D5
100
AcDbEntity
  8
1
  6
Continuous
100
AcDbLine
 10
376.080898
 20
147.881045
 30
0.0
 11
376.080898
 21
151.881045
 31
0.0
  0
LINE
  5
96B5
330
95D5
100
AcDbEntity
  8
1
  6
Continuous
100
AcDbLine
 10
408.0808979999998
 20
151.881045
 30
0.0
 11
376.080898
 21
151.881045
 31
0.0
  0
LINE
  5
96B6
330
95D5
100
AcDbEntity
  8
1
  6
Continuous
100
AcDbLine
 10
407.937898
 20
162.654645
 30
0.0
 11
398.137898
 21
162.0046449999998
 31
0.0
  0
LINE
  5
96B7
330
95D5
100
AcDbEntity
  8
1
  6
Continuous
100
AcDbLine
 10
408.0238979999998
 20
157.457445
 30
0.0
 11
398.223898
 21
156.807445
 31
0.0
  0
LINE
  5
96B8
330
95D5
100
AcDbEntity
  8
1
  6
Continuous
100
AcDbLine
 10
408.0238979999998
 20
156.1574449999999
 30
0.0
 11
398.223898
 21
155.507445
 31
0.0
  0
LINE
  5
96B9
330
95D5
100
AcDbEntity
  8
1
  6
Continuous
100
AcDbLine
 10
407.937898
 20
158.7546449999998
 30
0.0
 11
398.137898
 21
158.104645
 31
0.0
  0
LINE
  5
96BA
330
95D5
100
AcDbEntity
  8
1
  6
Continuous
100
AcDbLine
 10
407.937898
 20
160.0546449999999
 30
0.0
 11
398.137898
 21
159.404645
 31
0.0
  0
LINE
  5
96BB
330
95D5
100
AcDbEntity
  8
1
  6
Continuous
100
AcDbLine
 10
407.937898
 20
161.354645
 30
0.0
 11
398.137898
 21
160.704645
 31
0.0
  0
LINE
  5
96BC
330
95D5
100
AcDbEntity
  8
1
  6
Continuous
100
AcDbLine
 10
388.631898
 20
147.771245
 30
0.0
 11
388.631898
 21
147.881045
 31
0.0
  0
LINE
  5
96BD
330
95D5
100
AcDbEntity
  8
1
  6
Continuous
100
AcDbLine
 10
390.647898
 20
145.2712449999999
 30
0.0
 11
390.647898
 21
146.571245
 31
0.0
  0
LINE
  5
96BE
330
95D5
100
AcDbEntity
  8
1
  6
Continuous
100
AcDbLine
 10
390.647898
 20
145.2712449999999
 30
0.0
 11
388.631898
 21
145.2712449999999
 31
0.0
  0
LINE
  5
96BF
330
95D5
100
AcDbEntity
  8
1
  6
Continuous
100
AcDbLine
 10
390.647898
 20
146.571245
 30
0.0
 11
388.631898
 21
146.571245
 31
0.0
  0
LINE
  5
96C0
330
95D5
100
AcDbEntity
  8
1
  6
Continuous
100
AcDbLine
 10
387.331898
 20
163.9379449999998
 30
0.0
 11
387.331898
 21
168.9379449999998
 31
0.0
  0
LINE
  5
96C1
330
95D5
100
AcDbEntity
  8
1
  6
Continuous
100
AcDbLine
 10
388.631898
 20
168.9379449999998
 30
0.0
 11
388.631898
 21
163.9379449999998
 31
0.0
  0
LINE
  5
96C2
330
95D5
100
AcDbEntity
  8
1
  6
Continuous
100
AcDbLine
 10
407.980898
 20
153.556045
 30
0.0
 11
388.631898
 21
152.7712449999999
 31
0.0
  0
LINE
  5
96C3
330
95D5
100
AcDbEntity
  8
1
  6
Continuous
100
AcDbLine
 10
407.9278979999998
 20
154.8549449999998
 30
0.0
 11
388.578898
 21
154.0702449999998
 31
0.0
  0
LINE
  5
96C4
330
95D5
100
AcDbEntity
  8
1
  6
Continuous
100
AcDbLine
 10
388.631898
 20
168.837945
 30
0.0
 11
390.647898
 21
168.837945
 31
0.0
  0
LINE
  5
96C5
330
95D5
100
AcDbEntity
  8
1
  6
Continuous
100
AcDbLine
 10
388.631898
 20
170.237945
 30
0.0
 11
390.647898
 21
170.237945
 31
0.0
  0
LINE
  5
96C6
330
95D5
100
AcDbEntity
  8
1
  6
Continuous
100
AcDbLine
 10
388.631898
 20
164.1310449999998
 30
0.0
 11
408.0808979999998
 21
164.1310449999998
 31
0.0
  0
LINE
  5
96C7
330
95D5
100
AcDbEntity
  8
1
  6
Continuous
100
AcDbLine
 10
388.631898
 20
168.1310449999998
 30
0.0
 11
408.0808979999998
 21
168.1310449999998
 31
0.0
  0
LINE
  5
96C8
330
95D5
100
AcDbEntity
  8
1
  6
Continuous
100
AcDbLine
 10
390.647898
 20
168.837945
 30
0.0
 11
390.647898
 21
170.237945
 31
0.0
  0
LINE
  5
96C9
330
95D5
100
AcDbEntity
  8
1
  6
Continuous
100
AcDbLine
 10
359.0808979999998
 20
135.231045
 30
0.0
 11
356.5808979999998
 21
135.231045
 31
0.0
  0
LINE
  5
96CA
330
95D5
100
AcDbEntity
  8
1
  6
Continuous
100
AcDbLine
 10
359.0808979999998
 20
145.2310449999998
 30
0.0
 11
356.5808979999998
 21
145.2310449999998
 31
0.0
  0
LINE
  5
96CB
330
95D5
100
AcDbEntity
  8
1
  6
Continuous
100
AcDbLine
 10
387.331898
 20
151.881045
 30
0.0
 11
387.331898
 21
152.7684449999999
 31
0.0
  0
LINE
  5
96CC
330
95D5
100
AcDbEntity
  8
1
  6
Continuous
100
AcDbLine
 10
407.937898
 20
162.6574449999999
 30
0.0
 11
406.080898
 21
162.780645
 31
0.0
  0
LINE
  5
96CD
330
95D5
100
AcDbEntity
  8
1
  6
Continuous
100
AcDbLine
 10
388.631898
 20
151.881045
 30
0.0
 11
388.631898
 21
152.7684449999999
 31
0.0
  0
LINE
  5
96CE
330
95D5
100
AcDbEntity
  8
1
  6
Continuous
100
AcDbLine
 10
387.331898
 20
146.571245
 30
0.0
 11
387.331898
 21
147.881045
 31
0.0
  0
LINE
  5
96CF
330
95D5
100
AcDbEntity
  8
1
  6
Continuous
100
AcDbLine
 10
388.631898
 20
146.571245
 30
0.0
 11
388.631898
 21
147.771245
 31
0.0
  0
LINE
  5
96D0
330
95D5
100
AcDbEntity
  8
1
  6
Continuous
100
AcDbLine
 10
398.137898
 20
162.0046449999998
 30
0.0
 11
388.545898
 21
162.6408449999999
 31
0.0
  0
LINE
  5
96D1
330
95D5
100
AcDbEntity
  8
1
  6
Continuous
100
AcDbLine
 10
387.0808979999998
 20
146.731045
 30
0.0
 11
387.0808979999998
 21
147.881045
 31
0.0
  0
LINE
  5
96D2
330
95D5
100
AcDbEntity
  8
1
  6
Continuous
100
AcDbLine
 10
387.0808979999998
 20
151.881045
 30
0.0
 11
387.0808979999998
 21
153.7310449999999
 31
0.0
  0
LINE
  5
96D3
330
95D5
100
AcDbEntity
  8
1
  6
Continuous
100
AcDbLine
 10
398.0808979999998
 20
146.6810449999998
 30
0.0
 11
398.0808979999998
 21
147.881045
 31
0.0
  0
LINE
  5
96D4
330
95D5
100
AcDbEntity
  8
1
  6
Continuous
100
AcDbLine
 10
408.0808979999998
 20
146.6810449999998
 30
0.0
 11
398.0808979999998
 21
146.6810449999998
 31
0.0
  0
LINE
  5
96D5
330
95D5
100
AcDbEntity
  8
1
  6
Continuous
100
AcDbLine
 10
400.080898
 20
151.881045
 30
0.0
 11
400.080898
 21
153.2356449999998
 31
0.0
  0
LINE
  5
96D6
330
95D5
100
AcDbEntity
  8
1
  6
Continuous
100
AcDbLine
 10
406.080898
 20
151.881045
 30
0.0
 11
406.080898
 21
153.4789449999999
 31
0.0
  0
LINE
  5
96D7
330
95D5
100
AcDbEntity
  8
1
  6
Continuous
100
AcDbLine
 10
400.080898
 20
169.131045
 30
0.0
 11
406.080898
 21
169.131045
 31
0.0
  0
LINE
  5
96D8
330
95D5
100
AcDbEntity
  8
1
  6
Continuous
100
AcDbLine
 10
406.080898
 20
168.1310449999998
 30
0.0
 11
406.080898
 21
169.131045
 31
0.0
  0
LINE
  5
96D9
330
95D5
100
AcDbEntity
  8
1
  6
Continuous
100
AcDbLine
 10
400.080898
 20
168.1310449999998
 30
0.0
 11
400.080898
 21
169.131045
 31
0.0
  0
LINE
  5
96DA
330
95D5
100
AcDbEntity
  8
1
  6
Continuous
100
AcDbLine
 10
400.080898
 20
162.133545
 30
0.0
 11
400.080898
 21
164.1310449999998
 31
0.0
  0
LINE
  5
96DB
330
95D5
100
AcDbEntity
  8
1
  6
Continuous
100
AcDbLine
 10
406.080898
 20
162.5314449999999
 30
0.0
 11
406.080898
 21
164.1310449999998
 31
0.0
  0
LINE
  5
96DC
330
95D5
100
AcDbEntity
  8
1
  6
Continuous
100
AcDbLine
 10
400.080898
 20
163.1786449999999
 30
0.0
 11
388.631898
 21
163.9379449999998
 31
0.0
  0
LINE
  5
96DD
330
95D5
100
AcDbEntity
  8
1
  6
Continuous
100
AcDbLine
 10
398.0808979999998
 20
259.781045
 30
0.0
 11
398.0808979999998
 21
258.581045
 31
0.0
  0
LINE
  5
96DE
330
95D5
100
AcDbEntity
  8
1
  6
Continuous
100
AcDbLine
 10
402.8528979999999
 20
259.781045
 30
0.0
 11
398.0808979999998
 21
259.781045
 31
0.0
  0
LINE
  5
96DF
330
95D5
100
AcDbEntity
  8
1
  6
Continuous
100
AcDbLine
 10
406.080898
 20
238.3310449999999
 30
0.0
 11
406.080898
 21
237.3310449999999
 31
0.0
  0
LINE
  5
96E0
330
95D5
100
AcDbEntity
  8
1
  6
Continuous
100
AcDbLine
 10
400.080898
 20
237.3310449999999
 30
0.0
 11
406.080898
 21
237.3310449999999
 31
0.0
  0
LINE
  5
96E1
330
95D5
100
AcDbEntity
  8
1
  6
Continuous
100
AcDbLine
 10
400.080898
 20
243.1286449999999
 30
0.0
 11
400.080898
 21
242.3310449999999
 31
0.0
  0
LINE
  5
96E2
330
95D5
100
AcDbEntity
  8
1
  6
Continuous
100
AcDbLine
 10
400.080898
 20
237.3310449999999
 30
0.0
 11
400.080898
 21
238.3310449999999
 31
0.0
  0
LINE
  5
96E3
330
95D5
100
AcDbEntity
  8
1
  6
Continuous
100
AcDbLine
 10
116.129198
 20
368.167145
 30
0.0
 11
98.36419800000001
 21
353.261145
 31
0.0
  0
LINE
  5
96E4
330
95D5
100
AcDbEntity
  8
5
  6
PHANTOM
100
AcDbLine
 10
98.61769800000001
 20
368.383145
 30
0.0
 11
99.698098
 21
359.1461450000001
 31
0.0
  0
LINE
  5
96E5
330
95D5
100
AcDbEntity
  8
5
  6
PHANTOM
100
AcDbLine
 10
112.5228979999999
 20
370.0091449999998
 30
0.0
 11
113.6032979999999
 21
360.772145
 31
0.0
  0
LINE
  5
96E6
330
95D5
100
AcDbEntity
  8
1
  6
Continuous
100
AcDbLine
 10
121.543698
 20
370.753145
 30
0.0
 11
116.129198
 21
368.167145
 31
0.0
  0
LINE
  5
96E7
330
95D5
100
AcDbEntity
  8
1
  6
Continuous
100
AcDbLine
 10
120.4233979999999
 20
373.099145
 30
0.0
 11
115.008898
 21
370.5141449999999
 31
0.0
  0
LINE
  5
96E8
330
95D5
100
AcDbEntity
  8
1
  6
Continuous
100
AcDbLine
 10
120.4233979999999
 20
373.099145
 30
0.0
 11
121.8107979999999
 21
370.193145
 31
0.0
  0
LINE
  5
96E9
330
95D5
100
AcDbEntity
  8
1
  6
Continuous
100
AcDbLine
 10
115.008898
 20
370.5141449999999
 30
0.0
 11
116.4726979999998
 21
367.448145
 31
0.0
  0
LINE
  5
96EA
330
95D5
100
AcDbEntity
  8
1
  6
Continuous
100
AcDbLine
 10
124.301198
 20
364.977145
 30
0.0
 11
118.886698
 21
362.392145
 31
0.0
  0
LINE
  5
96EB
330
95D5
100
AcDbEntity
  8
1
  6
Continuous
100
AcDbLine
 10
125.4214979999999
 20
362.631145
 30
0.0
 11
120.006998
 21
360.046145
 31
0.0
  0
LINE
  5
96EC
330
95D5
100
AcDbEntity
  8
1
  6
Continuous
100
AcDbLine
 10
118.886698
 20
362.392145
 30
0.0
 11
118.453498
 21
361.561145
 31
0.0
  0
LINE
  5
96ED
330
95D5
100
AcDbEntity
  8
1
  6
Continuous
100
AcDbLine
 10
124.301198
 20
364.977145
 30
0.0
 11
125.4214979999999
 21
362.631145
 31
0.0
  0
LINE
  5
96EE
330
95D5
100
AcDbEntity
  8
1
  6
Continuous
100
AcDbLine
 10
118.886698
 20
362.392145
 30
0.0
 11
120.006998
 21
360.046145
 31
0.0
  0
LINE
  5
96EF
330
95D5
100
AcDbEntity
  8
1
  6
Continuous
100
AcDbLine
 10
155.7384979999999
 20
252.2310449999999
 30
0.0
 11
143.860878
 21
252.2310449999999
 31
0.0
  0
LINE
  5
96F0
330
95D5
100
AcDbEntity
  8
4
  6
CENTER
100
AcDbLine
 10
414.835898
 20
280.817245
 30
0.0
 11
414.835898
 21
266.6839449999999
 31
0.0
  0
LINE
  5
96F1
330
95D5
100
AcDbEntity
  8
1
  6
Continuous
100
AcDbLine
 10
392.091898
 20
266.9081449999998
 30
0.0
 11
392.091898
 21
258.581045
 31
0.0
  0
LINE
  5
96F2
330
95D5
100
AcDbEntity
  8
1
  6
Continuous
100
AcDbLine
 10
374.424898
 20
270.7423449999998
 30
0.0
 11
361.2368979999998
 21
270.7423449999998
 31
0.0
  0
LINE
  5
96F3
330
95D5
100
AcDbEntity
  8
1
  6
Continuous
100
AcDbLine
 10
354.4248979999999
 20
270.7423449999998
 30
0.0
 11
343.903898
 21
270.7423449999998
 31
0.0
  0
LINE
  5
96F4
330
95D5
100
AcDbEntity
  8
1
  6
Continuous
100
AcDbLine
 10
387.0588979999998
 20
269.297945
 30
0.0
 11
381.799898
 21
269.297945
 31
0.0
  0
LINE
  5
96F5
330
95D5
100
AcDbEntity
  8
1
  6
Continuous
100
AcDbLine
 10
390.058898
 20
266.297945
 30
0.0
 11
390.058898
 21
259.990845
 31
0.0
  0
LINE
  5
96F6
330
95D5
100
AcDbEntity
  8
1
  6
Continuous
100
AcDbLine
 10
388.631898
 20
237.524145
 30
0.0
 11
390.647898
 21
237.524145
 31
0.0
  0
LINE
  5
96F7
330
95D5
100
AcDbEntity
  8
1
  6
Continuous
100
AcDbLine
 10
372.6318979999998
 20
269.297945
 30
0.0
 11
366.5808979999998
 21
269.297945
 31
0.0
  0
LINE
  5
96F8
330
95D5
100
AcDbEntity
  8
1
  6
Continuous
100
AcDbLine
 10
392.091898
 20
139.554045
 30
0.0
 11
392.091898
 21
147.881045
 31
0.0
  0
LINE
  5
96F9
330
95D5
100
AcDbEntity
  8
1
  6
Continuous
100
AcDbLine
 10
390.058898
 20
140.1641449999999
 30
0.0
 11
390.058898
 21
145.2712449999999
 31
0.0
  0
LINE
  5
96FA
330
95D5
100
AcDbEntity
  8
1
  6
Continuous
100
AcDbLine
 10
387.0588979999998
 20
137.164145
 30
0.0
 11
381.799898
 21
137.164145
 31
0.0
  0
LINE
  5
96FB
330
95D5
100
AcDbEntity
  8
1
  6
Continuous
100
AcDbLine
 10
388.257898
 20
135.7197449999999
 30
0.0
 11
380.0068979999999
 21
135.7197449999999
 31
0.0
  0
LINE
  5
96FC
330
95D5
100
AcDbEntity
  8
1
  6
Continuous
100
AcDbLine
 10
374.424898
 20
135.7197449999999
 30
0.0
 11
361.2368979999998
 21
135.7197449999999
 31
0.0
  0
LINE
  5
96FD
330
95D5
100
AcDbEntity
  8
1
  6
Continuous
100
AcDbLine
 10
372.6318979999998
 20
137.164145
 30
0.0
 11
366.5808979999998
 21
137.164145
 31
0.0
  0
LINE
  5
96FE
330
95D5
100
AcDbEntity
  8
1
  6
Continuous
100
AcDbLine
 10
354.4248979999999
 20
135.7197449999999
 30
0.0
 11
343.903898
 21
135.7197449999999
 31
0.0
  0
LINE
  5
96FF
330
95D5
100
AcDbEntity
  8
1
  6
Continuous
100
AcDbLine
 10
388.257898
 20
270.7423449999998
 30
0.0
 11
380.0068979999999
 21
270.7423449999998
 31
0.0
  0
LINE
  5
9700
330
95D5
100
AcDbEntity
  8
1
  6
Continuous
100
AcDbLine
 10
388.816898
 20
272.550745
 30
0.0
 11
345.919898
 21
272.550745
 31
0.0
  0
LINE
  5
9701
330
95D5
100
AcDbEntity
  8
1
  6
Continuous
100
AcDbLine
 10
393.816898
 20
267.550745
 30
0.0
 11
393.816898
 21
258.581045
 31
0.0
  0
LINE
  5
9702
330
95D5
100
AcDbEntity
  8
1
  6
Continuous
100
AcDbLine
 10
393.816898
 20
250.979445
 30
0.0
 11
393.816898
 21
243.846045
 31
0.0
  0
LINE
  5
9703
330
95D5
100
AcDbEntity
  8
1
  6
Continuous
100
AcDbLine
 10
340.9198979999998
 20
267.550745
 30
0.0
 11
340.9198979999998
 21
138.9113449999999
 31
0.0
  0
LINE
  5
9704
330
95D5
100
AcDbEntity
  8
1
  6
Continuous
100
AcDbLine
 10
153.860898
 20
245.7925449999999
 30
0.0
 11
153.860898
 21
160.8890449999998
 31
0.0
  0
LINE
  5
9705
330
95D5
100
AcDbEntity
  8
1
  6
Continuous
100
AcDbLine
 10
51.27099799999999
 20
277.2310449999998
 30
0.0
 11
50.470998
 21
277.2310449999998
 31
0.0
  0
LINE
  5
9706
330
95D5
100
AcDbEntity
  8
1
  6
Continuous
100
AcDbLine
 10
47.47099799999999
 20
269.6590449999998
 30
0.0
 11
46.970998
 21
269.297945
 31
0.0
  0
LINE
  5
9707
330
95D5
100
AcDbEntity
  8
1
  6
Continuous
100
AcDbLine
 10
47.47099799999999
 20
136.803045
 30
0.0
 11
46.970998
 21
137.164145
 31
0.0
  0
LINE
  5
9708
330
95D5
100
AcDbEntity
  8
1
  6
Continuous
100
AcDbLine
 10
38.97089799999999
 20
135.231045
 30
0.0
 11
47.47099799999999
 21
134.7855449999999
 31
0.0
  0
LINE
  5
9709
330
95D5
100
AcDbEntity
  8
1
  6
Continuous
100
AcDbLine
 10
38.97089799999999
 20
135.231045
 30
0.0
 11
38.97089799999999
 21
143.9712449999998
 31
0.0
  0
LINE
  5
970A
330
95D5
100
AcDbEntity
  8
1
  6
Continuous
100
AcDbLine
 10
46.970998
 20
137.164145
 30
0.0
 11
46.970998
 21
155.4958449999998
 31
0.0
  0
LINE
  5
970B
330
95D5
100
AcDbEntity
  8
1
  6
Continuous
100
AcDbLine
 10
42.270998
 20
145.4040449999999
 30
0.0
 11
46.970998
 21
145.6503449999999
 31
0.0
  0
LINE
  5
970C
330
95D5
100
AcDbEntity
  8
1
  6
Continuous
100
AcDbLine
 10
38.97089799999999
 20
263.520145
 30
0.0
 11
36.68489799999999
 21
261.869345
 31
0.0
  0
LINE
  5
970D
330
95D5
100
AcDbEntity
  8
1
  6
Continuous
100
AcDbLine
 10
38.97089799999999
 20
142.941945
 30
0.0
 11
36.457898
 21
144.756845
 31
0.0
  0
LINE
  5
970E
330
95D5
100
AcDbEntity
  8
1
  6
Continuous
100
AcDbLine
 10
46.970998
 20
250.9662449999999
 30
0.0
 11
41.503098
 21
249.2575449999999
 31
0.0
  0
LINE
  5
970F
330
95D5
100
AcDbEntity
  8
1
  6
Continuous
100
AcDbLine
 10
383.080898
 20
246.2787449999999
 30
0.0
 11
359.0808979999998
 21
246.2787449999999
 31
0.0
  0
LINE
  5
9710
330
95D5
100
AcDbEntity
  8
1
  6
Continuous
100
AcDbLine
 10
386.9608979999999
 20
250.9662449999999
 30
0.0
 11
370.580898
 21
250.9662449999999
 31
0.0
  0
LINE
  5
9711
330
95D5
100
AcDbEntity
  8
1
  6
Continuous
100
AcDbLine
 10
364.6148979999999
 20
259.9090449999998
 30
0.0
 11
356.4458979999998
 21
259.9090449999998
 31
0.0
  0
LINE
  5
9712
330
95D5
100
AcDbEntity
  8
1
  6
Continuous
100
AcDbLine
 10
353.416898
 20
261.120945
 30
0.0
 11
344.519898
 21
269.257545
 31
0.0
  0
LINE
  5
9713
330
95D5
100
AcDbEntity
  8
1
  6
Continuous
100
AcDbLine
 10
387.2948979999999
 20
249.150145
 30
0.0
 11
384.7258979999999
 21
247.399245
 31
0.0
  0
LINE
  5
9714
330
95D5
100
AcDbEntity
  8
1
  6
Continuous
100
AcDbLine
 10
358.077898
 20
247.655145
 30
0.0
 11
355.639898
 21
250.998745
 31
0.0
  0
LINE
  5
9715
330
95D5
100
AcDbEntity
  8
1
  6
Continuous
100
AcDbLine
 10
353.416898
 20
145.3411449999999
 30
0.0
 11
344.519898
 21
137.2045449999999
 31
0.0
  0
LINE
  5
9716
330
95D5
100
AcDbEntity
  8
1
  6
Continuous
100
AcDbLine
 10
364.6148979999999
 20
146.5530449999999
 30
0.0
 11
356.4458979999998
 21
146.5530449999999
 31
0.0
  0
LINE
  5
9717
330
95D5
100
AcDbEntity
  8
1
  6
Continuous
100
AcDbLine
 10
354.7418979999998
 20
148.2778449999998
 30
0.0
 11
354.7418979999998
 21
152.863845
 31
0.0
  0
LINE
  5
9718
330
95D5
100
AcDbEntity
  8
1
  6
Continuous
100
AcDbLine
 10
358.077898
 20
158.807045
 30
0.0
 11
355.639898
 21
155.463345
 31
0.0
  0
LINE
  5
9719
330
95D5
100
AcDbEntity
  8
1
  6
Continuous
100
AcDbLine
 10
383.080898
 20
160.1833449999998
 30
0.0
 11
359.0808979999998
 21
160.1833449999998
 31
0.0
  0
LINE
  5
971A
330
95D5
100
AcDbEntity
  8
1
  6
Continuous
100
AcDbLine
 10
387.2948979999999
 20
157.311945
 30
0.0
 11
384.7258979999999
 21
159.0628449999998
 31
0.0
  0
LINE
  5
971B
330
95D5
100
AcDbEntity
  8
1
  6
Continuous
100
AcDbLine
 10
386.9608979999999
 20
155.4958449999998
 30
0.0
 11
370.580898
 21
155.4958449999998
 31
0.0
  0
LINE
  5
971C
330
95D5
100
AcDbEntity
  8
1
  6
Continuous
100
AcDbLine
 10
388.816898
 20
133.9113449999999
 30
0.0
 11
345.919898
 21
133.9113449999999
 31
0.0
  0
LINE
  5
971D
330
95D5
100
AcDbEntity
  8
1
  6
Continuous
100
AcDbLine
 10
369.5808979999998
 20
140.1641449999999
 30
0.0
 11
369.5808979999998
 21
154.495845
 31
0.0
  0
LINE
  5
971E
330
95D5
100
AcDbEntity
  8
1
  6
Continuous
100
AcDbLine
 10
368.616898
 20
139.7504449999999
 30
0.0
 11
366.478898
 21
145.486845
 31
0.0
  0
LINE
  5
971F
330
95D5
100
AcDbEntity
  8
1
  6
Continuous
100
AcDbLine
 10
366.664898
 20
159.411445
 30
0.0
 11
369.4518979999998
 21
155.7240449999999
 31
0.0
  0
LINE
  5
9720
330
95D5
100
AcDbEntity
  8
1
  6
Continuous
100
AcDbLine
 10
393.816898
 20
164.1310449999998
 30
0.0
 11
393.816898
 21
163.5940449999999
 31
0.0
  0
LINE
  5
9721
330
95D5
100
AcDbEntity
  8
1
  6
Continuous
100
AcDbLine
 10
389.960898
 20
154.1262449999998
 30
0.0
 11
389.960898
 21
158.495845
 31
0.0
  0
LINE
  5
9722
330
95D5
100
AcDbEntity
  8
1
  6
Continuous
100
AcDbLine
 10
152.386698
 20
247.231045
 30
0.0
 11
143.860878
 21
247.231045
 31
0.0
  0
LINE
  5
9723
330
95D5
100
AcDbEntity
  8
1
  6
Continuous
100
AcDbLine
 10
155.799498
 20
259.9090449999998
 30
0.0
 11
143.860878
 21
259.9090449999998
 31
0.0
  0
LINE
  5
9724
330
95D5
100
AcDbEntity
  8
1
  6
Continuous
100
AcDbLine
 10
156.777498
 20
258.2833449999998
 30
0.0
 11
156.777498
 21
253.7102449999999
 31
0.0
  0
LINE
  5
9725
330
95D5
100
AcDbEntity
  8
1
  6
Continuous
100
AcDbLine
 10
156.3486979999999
 20
251.495845
 30
0.0
 11
154.548898
 21
248.410545
 31
0.0
  0
LINE
  5
9726
330
95D5
100
AcDbEntity
  8
1
  6
Continuous
100
AcDbLine
 10
158.482998
 20
261.132645
 30
0.0
 11
170.178498
 21
269.523945
 31
0.0
  0
LINE
  5
9727
330
95D5
100
AcDbEntity
  8
1
  6
Continuous
100
AcDbLine
 10
158.482998
 20
145.329445
 30
0.0
 11
170.178498
 21
136.9381449999999
 31
0.0
  0
LINE
  5
9728
330
95D5
100
AcDbEntity
  8
1
  6
Continuous
100
AcDbLine
 10
155.799498
 20
146.5530449999999
 30
0.0
 11
143.860878
 21
146.5530449999999
 31
0.0
  0
LINE
  5
9729
330
95D5
100
AcDbEntity
  8
1
  6
Continuous
100
AcDbLine
 10
156.777498
 20
148.1787449999998
 30
0.0
 11
156.777498
 21
152.751845
 31
0.0
  0
LINE
  5
972A
330
95D5
100
AcDbEntity
  8
1
  6
Continuous
100
AcDbLine
 10
155.321698
 20
154.2310449999999
 30
0.0
 11
143.860878
 21
154.2310449999999
 31
0.0
  0
LINE
  5
972B
330
95D5
100
AcDbEntity
  8
1
  6
Continuous
100
AcDbLine
 10
152.386698
 20
159.231045
 30
0.0
 11
143.860878
 21
159.231045
 31
0.0
  0
LINE
  5
972C
330
95D5
100
AcDbEntity
  8
1
  6
Continuous
100
AcDbLine
 10
156.3486979999999
 20
154.9663449999999
 30
0.0
 11
154.548898
 21
158.051645
 31
0.0
  0
LINE
  5
972D
330
95D5
100
AcDbEntity
  8
1
  6
Continuous
100
AcDbLine
 10
46.970998
 20
155.4958449999998
 30
0.0
 11
41.474098
 21
157.2136449999999
 31
0.0
  0
LINE
  5
972E
330
95D5
100
AcDbEntity
  8
4
  6
CENTER
100
AcDbLine
 10
35.970898
 20
264.1762449999998
 30
0.0
 11
35.970898
 21
233.462445
 31
0.0
  0
LINE
  5
972F
330
95D5
100
AcDbEntity
  8
1
  6
Continuous
100
AcDbLine
 10
22.49789799999999
 20
254.5810449999999
 30
0.0
 11
25.69489799999999
 21
254.5810449999999
 31
0.0
  0
LINE
  5
9730
330
95D5
100
AcDbEntity
  8
1
  6
Continuous
100
AcDbLine
 10
16.846898
 20
258.581045
 30
0.0
 11
25.69489799999999
 21
258.581045
 31
0.0
  0
LINE
  5
9731
330
95D5
100
AcDbEntity
  8
1
  6
Continuous
100
AcDbLine
 10
19.446898
 20
251.981045
 30
0.0
 11
40.970998
 21
251.981045
 31
0.0
  0
LINE
  5
9732
330
95D5
100
AcDbEntity
  8
1
  6
Continuous
100
AcDbLine
 10
40.82789799999999
 20
242.207445
 30
0.0
 11
31.027898
 21
242.857445
 31
0.0
  0
LINE
  5
9733
330
95D5
100
AcDbEntity
  8
1
  6
Continuous
100
AcDbLine
 10
40.913998
 20
247.4046449999999
 30
0.0
 11
31.11389799999999
 21
248.0546449999999
 31
0.0
  0
LINE
  5
9734
330
95D5
100
AcDbEntity
  8
1
  6
Continuous
100
AcDbLine
 10
40.913998
 20
248.704645
 30
0.0
 11
31.11389799999999
 21
249.354645
 31
0.0
  0
LINE
  5
9735
330
95D5
100
AcDbEntity
  8
1
  6
Continuous
100
AcDbLine
 10
40.82789799999999
 20
246.107445
 30
0.0
 11
31.027898
 21
246.7574449999999
 31
0.0
  0
LINE
  5
9736
330
95D5
100
AcDbEntity
  8
1
  6
Continuous
100
AcDbLine
 10
40.82789799999999
 20
244.807445
 30
0.0
 11
31.027898
 21
245.4574449999999
 31
0.0
  0
LINE
  5
9737
330
95D5
100
AcDbEntity
  8
1
  6
Continuous
100
AcDbLine
 10
40.82789799999999
 20
243.507445
 30
0.0
 11
31.027898
 21
244.157445
 31
0.0
  0
LINE
  5
9738
330
95D5
100
AcDbEntity
  8
4
  6
CENTER
100
AcDbLine
 10
35.970898
 20
142.2858449999999
 30
0.0
 11
35.970898
 21
173.0034449999999
 31
0.0
  0
LINE
  5
9739
330
95D5
100
AcDbEntity
  8
1
  6
Continuous
100
AcDbLine
 10
19.47089799999998
 20
147.881045
 30
0.0
 11
40.970998
 21
147.881045
 31
0.0
  0
LINE
  5
973A
330
95D5
100
AcDbEntity
  8
1
  6
Continuous
100
AcDbLine
 10
30.970898
 20
146.6810449999998
 30
0.0
 11
30.970898
 21
147.881045
 31
0.0
  0
LINE
  5
973B
330
95D5
100
AcDbEntity
  8
1
  6
Continuous
100
AcDbLine
 10
19.47089799999998
 20
151.881045
 30
0.0
 11
40.970998
 21
151.881045
 31
0.0
  0
LINE
  5
973C
330
95D5
100
AcDbEntity
  8
1
  6
Continuous
100
AcDbLine
 10
40.82789799999999
 20
162.654645
 30
0.0
 11
31.027898
 21
162.0046449999998
 31
0.0
  0
LINE
  5
973D
330
95D5
100
AcDbEntity
  8
1
  6
Continuous
100
AcDbLine
 10
40.99999799999999
 20
154.8603449999999
 30
0.0
 11
31.19989799999999
 21
154.2103449999999
 31
0.0
  0
LINE
  5
973E
330
95D5
100
AcDbEntity
  8
1
  6
Continuous
100
AcDbLine
 10
40.99999799999999
 20
153.5603449999999
 30
0.0
 11
31.19989799999999
 21
152.910345
 31
0.0
  0
LINE
  5
973F
330
95D5
100
AcDbEntity
  8
1
  6
Continuous
100
AcDbLine
 10
40.82789799999999
 20
158.7546449999998
 30
0.0
 11
31.027898
 21
158.104645
 31
0.0
  0
LINE
  5
9740
330
95D5
100
AcDbEntity
  8
1
  6
Continuous
100
AcDbLine
 10
40.82789799999999
 20
160.0546449999999
 30
0.0
 11
31.027898
 21
159.404645
 31
0.0
  0
LINE
  5
9741
330
95D5
100
AcDbEntity
  8
1
  6
Continuous
100
AcDbLine
 10
40.82789799999999
 20
161.354645
 30
0.0
 11
31.027898
 21
160.704645
 31
0.0
  0
LINE
  5
9742
330
95D5
100
AcDbEntity
  8
1
  6
Continuous
100
AcDbLine
 10
40.970998
 20
164.1310449999998
 30
0.0
 11
27.970898
 21
164.1310449999998
 31
0.0
  0
LINE
  5
9743
330
95D5
100
AcDbEntity
  8
1
  6
Continuous
100
AcDbLine
 10
40.970998
 20
168.1310449999998
 30
0.0
 11
27.970898
 21
168.1310449999998
 31
0.0
  0
LINE
  5
9744
330
95D5
100
AcDbEntity
  8
1
  6
Continuous
100
AcDbLine
 10
40.82789799999999
 20
162.6574449999999
 30
0.0
 11
38.97089799999999
 21
162.780645
 31
0.0
  0
LINE
  5
9745
330
95D5
100
AcDbEntity
  8
1
  6
Continuous
100
AcDbLine
 10
31.027898
 20
162.0046449999998
 30
0.0
 11
27.884898
 21
162.213045
 31
0.0
  0
LINE
  5
9746
330
95D5
100
AcDbEntity
  8
1
  6
Continuous
100
AcDbLine
 10
30.970898
 20
146.6810449999998
 30
0.0
 11
40.970998
 21
146.6810449999998
 31
0.0
  0
LINE
  5
9747
330
95D5
100
AcDbEntity
  8
1
  6
Continuous
100
AcDbLine
 10
38.97089799999999
 20
151.881045
 30
0.0
 11
38.97089799999999
 21
153.425745
 31
0.0
  0
LINE
  5
9748
330
95D5
100
AcDbEntity
  8
1
  6
Continuous
100
AcDbLine
 10
32.970898
 20
151.881045
 30
0.0
 11
32.970898
 21
153.0277449999998
 31
0.0
  0
LINE
  5
9749
330
95D5
100
AcDbEntity
  8
1
  6
Continuous
100
AcDbLine
 10
38.97089799999999
 20
169.131045
 30
0.0
 11
32.970898
 21
169.131045
 31
0.0
  0
LINE
  5
974A
330
95D5
100
AcDbEntity
  8
1
  6
Continuous
100
AcDbLine
 10
32.970898
 20
168.1310449999998
 30
0.0
 11
32.970898
 21
169.131045
 31
0.0
  0
LINE
  5
974B
330
95D5
100
AcDbEntity
  8
1
  6
Continuous
100
AcDbLine
 10
38.97089799999999
 20
168.1310449999998
 30
0.0
 11
38.97089799999999
 21
169.131045
 31
0.0
  0
LINE
  5
974C
330
95D5
100
AcDbEntity
  8
1
  6
Continuous
100
AcDbLine
 10
38.97089799999999
 20
162.5314449999999
 30
0.0
 11
38.97089799999999
 21
164.1310449999998
 31
0.0
  0
LINE
  5
974D
330
95D5
100
AcDbEntity
  8
1
  6
Continuous
100
AcDbLine
 10
32.970898
 20
162.133545
 30
0.0
 11
32.970898
 21
164.1310449999998
 31
0.0
  0
LINE
  5
974E
330
95D5
100
AcDbEntity
  8
1
  6
Continuous
100
AcDbLine
 10
32.970898
 20
163.1786449999999
 30
0.0
 11
27.970898
 21
163.5102449999999
 31
0.0
  0
LINE
  5
974F
330
95D5
100
AcDbEntity
  8
1
  6
Continuous
100
AcDbLine
 10
40.970998
 20
259.781045
 30
0.0
 11
40.970998
 21
258.581045
 31
0.0
  0
LINE
  5
9750
330
95D5
100
AcDbEntity
  8
1
  6
Continuous
100
AcDbLine
 10
36.812898
 20
259.781045
 30
0.0
 11
40.970998
 21
259.781045
 31
0.0
  0
LINE
  5
9751
330
95D5
100
AcDbEntity
  8
1
  6
Continuous
100
AcDbLine
 10
32.970898
 20
238.3310449999999
 30
0.0
 11
32.970898
 21
237.3310449999999
 31
0.0
  0
LINE
  5
9752
330
95D5
100
AcDbEntity
  8
1
  6
Continuous
100
AcDbLine
 10
38.97089799999999
 20
237.3310449999999
 30
0.0
 11
32.970898
 21
237.3310449999999
 31
0.0
  0
LINE
  5
9753
330
95D5
100
AcDbEntity
  8
1
  6
Continuous
100
AcDbLine
 10
38.97089799999999
 20
237.3310449999999
 30
0.0
 11
38.97089799999999
 21
238.3310449999999
 31
0.0
  0
LINE
  5
9754
330
95D5
100
AcDbEntity
  8
1
  6
Continuous
100
AcDbLine
 10
17.295898
 20
275.581045
 30
0.0
 11
34.08489799999999
 21
275.581045
 31
0.0
  0
LINE
  5
9755
330
95D5
100
AcDbEntity
  8
1
  6
Continuous
100
AcDbLine
 10
17.295898
 20
272.9810449999998
 30
0.0
 11
34.693898
 21
272.9810449999998
 31
0.0
  0
LINE
  5
9756
330
95D5
100
AcDbEntity
  8
1
  6
Continuous
100
AcDbLine
 10
17.295898
 20
275.581045
 30
0.0
 11
17.295898
 21
272.9810449999998
 31
0.0
  0
LINE
  5
9757
330
95D5
100
AcDbEntity
  8
1
  6
Continuous
100
AcDbLine
 10
40.970998
 20
254.5810449999999
 30
0.0
 11
40.970998
 21
251.981045
 31
0.0
  0
LINE
  5
9758
330
95D5
100
AcDbEntity
  8
1
  6
Continuous
100
AcDbLine
 10
36.68489799999999
 20
272.9810449999998
 30
0.0
 11
36.68489799999999
 21
254.5810449999999
 31
0.0
  0
LINE
  5
9759
330
95D5
100
AcDbEntity
  8
1
  6
Continuous
100
AcDbLine
 10
34.693898
 20
272.9810449999998
 30
0.0
 11
34.693898
 21
254.5810449999999
 31
0.0
  0
LINE
  5
975A
330
95D5
100
AcDbEntity
  8
1
  6
Continuous
100
AcDbLine
 10
25.69489799999999
 20
272.9810449999998
 30
0.0
 11
25.69489799999999
 21
254.5810449999999
 31
0.0
  0
LINE
  5
975B
330
95D5
100
AcDbEntity
  8
1
  6
Continuous
100
AcDbLine
 10
19.47089799999998
 20
258.581045
 30
0.0
 11
19.47089799999998
 21
254.5810449999999
 31
0.0
  0
LINE
  5
975C
330
95D5
100
AcDbEntity
  8
1
  6
Continuous
100
AcDbLine
 10
16.846898
 20
258.581045
 30
0.0
 11
16.846898
 21
254.5810449999999
 31
0.0
  0
LINE
  5
975D
330
95D5
100
AcDbEntity
  8
1
  6
Continuous
100
AcDbLine
 10
19.431898
 20
258.581045
 30
0.0
 11
19.431898
 21
254.5810449999999
 31
0.0
  0
LINE
  5
975E
330
95D5
100
AcDbEntity
  8
1
  6
Continuous
100
AcDbLine
 10
22.49789799999999
 20
258.581045
 30
0.0
 11
22.49789799999999
 21
251.981045
 31
0.0
  0
LINE
  5
975F
330
95D5
100
AcDbEntity
  8
1
  6
Continuous
100
AcDbLine
 10
36.68489799999999
 20
258.581045
 30
0.0
 11
46.970998
 21
258.581045
 31
0.0
  0
LINE
  5
9760
330
95D5
100
AcDbEntity
  8
1
  6
Continuous
100
AcDbLine
 10
36.68489799999999
 20
254.5810449999999
 30
0.0
 11
46.970998
 21
254.5810449999999
 31
0.0
  0
LINE
  5
9761
330
95D5
100
AcDbEntity
  8
1
  6
Continuous
100
AcDbLine
 10
42.270998
 20
254.5810449999999
 30
0.0
 11
42.270998
 21
252.107545
 31
0.0
  0
LINE
  5
9762
330
95D5
100
AcDbEntity
  8
1
  6
Continuous
100
AcDbLine
 10
40.913998
 20
250.004645
 30
0.0
 11
31.026898
 21
250.660445
 31
0.0
  0
LINE
  5
9763
330
95D5
100
AcDbEntity
  8
1
  6
Continuous
100
AcDbLine
 10
40.99979799999998
 20
251.298945
 30
0.0
 11
31.11289799999999
 21
251.9547450000001
 31
0.0
  0
LINE
  5
9764
330
95D5
100
AcDbEntity
  8
1
  6
Continuous
100
AcDbLine
 10
26.67089799999999
 20
242.3310449999999
 30
0.0
 11
26.67089799999999
 21
237.3310449999999
 31
0.0
  0
LINE
  5
9765
330
95D5
100
AcDbEntity
  8
1
  6
Continuous
100
AcDbLine
 10
30.432898
 20
243.631045
 30
0.0
 11
27.970898
 21
243.631045
 31
0.0
  0
LINE
  5
9766
330
95D5
100
AcDbEntity
  8
1
  6
Continuous
100
AcDbLine
 10
30.970898
 20
237.3310449999999
 30
0.0
 11
27.970898
 21
237.3310449999999
 31
0.0
  0
LINE
  5
9767
330
95D5
100
AcDbEntity
  8
1
  6
Continuous
100
AcDbLine
 10
30.970898
 20
236.031045
 30
0.0
 11
27.970898
 21
236.031045
 31
0.0
  0
LINE
  5
9768
330
95D5
100
AcDbEntity
  8
1
  6
Continuous
100
AcDbLine
 10
244.2508979999999
 20
136.803045
 30
0.0
 11
255.263898
 21
144.756845
 31
0.0
  0
LINE
  5
9769
330
95D5
100
AcDbEntity
  8
1
  6
Continuous
100
AcDbLine
 10
27.970898
 20
168.510245
 30
0.0
 11
27.970898
 21
163.5102449999999
 31
0.0
  0
LINE
  5
976A
330
95D5
100
AcDbEntity
  8
1
  6
Continuous
100
AcDbLine
 10
40.970998
 20
168.1310449999998
 30
0.0
 11
40.970998
 21
164.1310449999998
 31
0.0
  0
LINE
  5
976B
330
95D5
100
AcDbEntity
  8
1
  6
Continuous
100
AcDbLine
 10
30.970898
 20
164.1310449999998
 30
0.0
 11
30.970898
 21
163.3112449999998
 31
0.0
  0
LINE
  5
976C
330
95D5
100
AcDbEntity
  8
1
  6
Continuous
100
AcDbLine
 10
19.47089799999998
 20
151.881045
 30
0.0
 11
19.47089799999998
 21
147.881045
 31
0.0
  0
LINE
  5
976D
330
95D5
100
AcDbEntity
  8
1
  6
Continuous
100
AcDbLine
 10
40.970998
 20
152.7712449999999
 30
0.0
 11
40.970998
 21
145.2712449999999
 31
0.0
  0
LINE
  5
976E
330
95D5
100
AcDbEntity
  8
1
  6
Continuous
100
AcDbLine
 10
40.970998
 20
258.581045
 30
0.0
 11
40.970998
 21
254.5810449999999
 31
0.0
  0
LINE
  5
976F
330
95D5
100
AcDbEntity
  8
1
  6
Continuous
100
AcDbLine
 10
40.970998
 20
152.7712449999999
 30
0.0
 11
38.97089799999999
 21
152.7712449999999
 31
0.0
  0
LINE
  5
9770
330
95D5
100
AcDbEntity
  8
1
  6
Continuous
100
AcDbLine
 10
40.913998
 20
157.457445
 30
0.0
 11
31.11389799999999
 21
156.807445
 31
0.0
  0
LINE
  5
9771
330
95D5
100
AcDbEntity
  8
1
  6
Continuous
100
AcDbLine
 10
40.913998
 20
156.1574449999999
 30
0.0
 11
31.11389799999999
 21
155.507445
 31
0.0
  0
LINE
  5
9772
330
95D5
100
AcDbEntity
  8
1
  6
Continuous
100
AcDbLine
 10
42.270998
 20
152.7712449999999
 30
0.0
 11
42.270998
 21
145.2712449999999
 31
0.0
  0
LINE
  5
9773
330
95D5
100
AcDbEntity
  8
1
  6
Continuous
100
AcDbLine
 10
32.970898
 20
152.910345
 30
0.0
 11
31.19989799999999
 21
152.910345
 31
0.0
  0
LINE
  5
9774
330
95D5
100
AcDbEntity
  8
1
  6
Continuous
100
AcDbLine
 10
40.970998
 20
145.2712449999999
 30
0.0
 11
37.970898
 21
145.2712449999999
 31
0.0
  0
LINE
  5
9775
330
95D5
100
AcDbEntity
  8
1
  6
Continuous
100
AcDbLine
 10
40.970998
 20
143.9712449999998
 30
0.0
 11
37.970898
 21
143.9712449999998
 31
0.0
  0
LINE
  5
9776
330
95D5
100
AcDbEntity
  8
1
  6
Continuous
100
AcDbLine
 10
37.970898
 20
145.2712449999999
 30
0.0
 11
37.970898
 21
143.9712449999998
 31
0.0
  0
LINE
  5
9777
330
95D5
100
AcDbEntity
  8
1
  6
Continuous
100
AcDbLine
 10
42.270998
 20
147.881045
 30
0.0
 11
46.970998
 21
147.881045
 31
0.0
  0
LINE
  5
9778
330
95D5
100
AcDbEntity
  8
1
  6
Continuous
100
AcDbLine
 10
42.270998
 20
151.881045
 30
0.0
 11
46.970998
 21
151.881045
 31
0.0
  0
LINE
  5
9779
330
95D5
100
AcDbEntity
  8
1
  6
Continuous
100
AcDbLine
 10
26.67089799999999
 20
168.510245
 30
0.0
 11
26.67089799999999
 21
163.5102449999999
 31
0.0
  0
LINE
  5
977A
330
95D5
100
AcDbEntity
  8
1
  6
Continuous
100
AcDbLine
 10
30.970898
 20
168.510245
 30
0.0
 11
27.970898
 21
168.510245
 31
0.0
  0
LINE
  5
977B
330
95D5
100
AcDbEntity
  8
1
  6
Continuous
100
AcDbLine
 10
30.970898
 20
169.810245
 30
0.0
 11
27.970898
 21
169.810245
 31
0.0
  0
LINE
  5
977C
330
95D5
100
AcDbEntity
  8
4
  6
CENTER
100
AcDbLine
 10
409.873898
 20
203.231055
 30
0.0
 11
322.0188979999999
 21
203.231055
 31
0.0
  0
LINE
  5
977D
330
95D5
100
AcDbEntity
  8
4
  6
CENTER
100
AcDbLine
 10
59.95349799999999
 20
203.231055
 30
0.0
 11
20.609898
 21
203.231055
 31
0.0
  0
LINE
  5
977E
330
95D5
100
AcDbEntity
  8
4
  6
CENTER
100
AcDbLine
 10
190.0182979999999
 20
203.231055
 30
0.0
 11
101.207598
 21
203.231055
 31
0.0
  0
LINE
  5
977F
330
95D5
100
AcDbEntity
  8
1
  6
Continuous
100
AcDbLine
 10
244.2508979999999
 20
269.6590449999998
 30
0.0
 11
255.263898
 21
261.705245
 31
0.0
  0
LINE
  5
9780
330
95D5
100
AcDbEntity
  8
4
  6
CENTER
100
AcDbLine
 10
145.860878
 20
286.2401449999999
 30
0.0
 11
145.860878
 21
118.5068449999999
 31
0.0
  0
LINE
  5
9781
330
95D5
100
AcDbEntity
  8
1
  6
Continuous
100
AcDbLine
 10
241.250898
 20
277.739545
 30
0.0
 11
244.2508979999999
 21
278.731045
 31
0.0
  0
LINE
  5
9782
330
95D5
100
AcDbEntity
  8
1
  6
Continuous
100
AcDbLine
 10
240.450898
 20
277.2310449999998
 30
0.0
 11
241.250898
 21
277.2310449999998
 31
0.0
  0
LINE
  5
9783
330
95D5
100
AcDbEntity
  8
1
  6
Continuous
100
AcDbLine
 10
240.450898
 20
277.2310449999998
 30
0.0
 11
238.3903979999999
 21
273.797045
 31
0.0
  0
LINE
  5
9784
330
95D5
100
AcDbEntity
  8
1
  6
Continuous
100
AcDbLine
 10
241.250898
 20
128.722545
 30
0.0
 11
244.2508979999999
 21
127.7310449999999
 31
0.0
  0
LINE
  5
9785
330
95D5
100
AcDbEntity
  8
1
  6
Continuous
100
AcDbLine
 10
240.450898
 20
129.2310449999999
 30
0.0
 11
238.3903979999999
 21
132.665045
 31
0.0
  0
LINE
  5
9786
330
95D5
100
AcDbEntity
  8
1
  6
Continuous
100
AcDbLine
 10
50.470998
 20
277.739545
 30
0.0
 11
47.47099799999999
 21
278.731045
 31
0.0
  0
LINE
  5
9787
330
95D5
100
AcDbEntity
  8
1
  6
Continuous
100
AcDbLine
 10
51.27099799999999
 20
277.2310449999998
 30
0.0
 11
53.331298
 21
273.7971449999998
 31
0.0
  0
LINE
  5
9788
330
95D5
100
AcDbEntity
  8
1
  6
Continuous
100
AcDbLine
 10
51.270898
 20
129.2310449999999
 30
0.0
 11
53.331298
 21
132.665045
 31
0.0
  0
LINE
  5
9789
330
95D5
100
AcDbEntity
  8
1
  6
Continuous
100
AcDbLine
 10
50.470998
 20
128.722545
 30
0.0
 11
47.470898
 21
127.7310449999999
 31
0.0
  0
LINE
  5
978A
330
95D5
100
AcDbEntity
  8
1
  6
Continuous
100
AcDbLine
 10
178.860898
 20
338.6751449999999
 30
0.0
 11
175.4595979999998
 21
336.838145
 31
0.0
  0
LINE
  5
978B
330
95D5
100
AcDbEntity
  8
1
  6
Continuous
100
AcDbLine
 10
179.369398
 20
339.475145
 30
0.0
 11
180.3608979999999
 21
342.475145
 31
0.0
  0
LINE
  5
978C
330
95D5
100
AcDbEntity
  8
1
  6
Continuous
100
AcDbLine
 10
112.3523979999998
 20
339.475145
 30
0.0
 11
111.3608979999999
 21
342.475145
 31
0.0
  0
LINE
  5
978D
330
95D5
100
AcDbEntity
  8
1
  6
Continuous
100
AcDbLine
 10
112.8608979999999
 20
338.6751449999999
 30
0.0
 11
116.2621979999999
 21
336.838145
 31
0.0
  0
LINE
  5
978E
330
95D5
100
AcDbEntity
  8
1
  6
Continuous
100
AcDbLine
 10
112.8608979999999
 20
339.475145
 30
0.0
 11
112.8608979999999
 21
338.6751449999999
 31
0.0
  0
LINE
  5
978F
330
95D5
100
AcDbEntity
  8
4
  6
CENTER
100
AcDbLine
 10
108.8608979999999
 20
262.363645
 30
0.0
 11
108.8608979999999
 21
234.1195449999999
 31
0.0
  0
LINE
  5
9790
330
95D5
100
AcDbEntity
  8
1
  6
Continuous
100
AcDbLine
 10
90.105798
 20
275.581045
 30
0.0
 11
90.105798
 21
272.9810449999998
 31
0.0
  0
LINE
  5
9791
330
95D5
100
AcDbEntity
  8
1
  6
Continuous
100
AcDbLine
 10
90.105798
 20
275.581045
 30
0.0
 11
106.4887979999999
 21
275.581045
 31
0.0
  0
LINE
  5
9792
330
95D5
100
AcDbEntity
  8
1
  6
Continuous
100
AcDbLine
 10
90.105798
 20
272.9810449999998
 30
0.0
 11
96.692998
 21
272.9810449999998
 31
0.0
  0
LINE
  5
9793
330
95D5
100
AcDbEntity
  8
1
  6
Continuous
100
AcDbLine
 10
96.692998
 20
272.9810449999998
 30
0.0
 11
96.692998
 21
254.5810449999999
 31
0.0
  0
LINE
  5
9794
330
95D5
100
AcDbEntity
  8
1
  6
Continuous
100
AcDbLine
 10
109.0887979999999
 20
272.9810449999998
 30
0.0
 11
109.0887979999999
 21
259.781045
 31
0.0
  0
LINE
  5
9795
330
95D5
100
AcDbEntity
  8
1
  6
Continuous
100
AcDbLine
 10
111.635598
 20
242.345545
 30
0.0
 11
103.9178979999998
 21
242.857445
 31
0.0
  0
LINE
  5
9796
330
95D5
100
AcDbEntity
  8
1
  6
Continuous
100
AcDbLine
 10
111.7133979999999
 20
247.543245
 30
0.0
 11
104.0038979999998
 21
248.0546449999999
 31
0.0
  0
LINE
  5
9797
330
95D5
100
AcDbEntity
  8
1
  6
Continuous
100
AcDbLine
 10
111.734398
 20
248.841845
 30
0.0
 11
104.0038979999998
 21
249.354645
 31
0.0
  0
LINE
  5
9798
330
95D5
100
AcDbEntity
  8
1
  6
Continuous
100
AcDbLine
 10
111.692998
 20
246.241745
 30
0.0
 11
103.9178979999998
 21
246.7574449999999
 31
0.0
  0
LINE
  5
9799
330
95D5
100
AcDbEntity
  8
1
  6
Continuous
100
AcDbLine
 10
111.673298
 20
244.943045
 30
0.0
 11
103.9178979999998
 21
245.4574449999999
 31
0.0
  0
LINE
  5
979A
330
95D5
100
AcDbEntity
  8
1
  6
Continuous
100
AcDbLine
 10
111.654098
 20
243.644345
 30
0.0
 11
103.9178979999998
 21
244.157445
 31
0.0
  0
LINE
  5
979B
330
95D5
100
AcDbEntity
  8
1
  6
Continuous
100
AcDbLine
 10
103.860898
 20
259.781045
 30
0.0
 11
111.9350979999999
 21
259.781045
 31
0.0
  0
LINE
  5
979C
330
95D5
100
AcDbEntity
  8
1
  6
Continuous
100
AcDbLine
 10
105.860898
 20
238.3310449999999
 30
0.0
 11
105.860898
 21
237.3310449999999
 31
0.0
  0
LINE
  5
979D
330
95D5
100
AcDbEntity
  8
1
  6
Continuous
100
AcDbLine
 10
111.569698
 20
237.3310449999999
 30
0.0
 11
105.860898
 21
237.3310449999999
 31
0.0
  0
LINE
  5
979E
330
95D5
100
AcDbEntity
  8
4
  6
CENTER
100
AcDbLine
 10
97.10579799999999
 20
280.817245
 30
0.0
 11
97.10579799999999
 21
266.6839449999999
 31
0.0
  0
LINE
  5
979F
330
95D5
100
AcDbEntity
  8
1
  6
Continuous
100
AcDbLine
 10
111.7875979999999
 20
251.981045
 30
0.0
 11
99.292998
 21
251.981045
 31
0.0
  0
LINE
  5
97A0
330
95D5
100
AcDbEntity
  8
1
  6
Continuous
100
AcDbLine
 10
98.36419800000001
 20
272.9810449999998
 30
0.0
 11
98.36419800000001
 21
254.5810449999999
 31
0.0
  0
LINE
  5
97A1
330
95D5
100
AcDbEntity
  8
1
  6
Continuous
100
AcDbLine
 10
111.778098
 20
251.4389449999999
 30
0.0
 11
104.089698
 21
251.948945
 31
0.0
  0
LINE
  5
97A2
330
95D5
100
AcDbEntity
  8
1
  6
Continuous
100
AcDbLine
 10
111.755998
 20
250.140445
 30
0.0
 11
104.089698
 21
250.648945
 31
0.0
  0
LINE
  5
97A3
330
95D5
100
AcDbEntity
  8
1
  6
Continuous
100
AcDbLine
 10
111.7781979999999
 20
154.423145
 30
0.0
 11
104.089698
 21
153.913145
 31
0.0
  0
LINE
  5
97A4
330
95D5
100
AcDbEntity
  8
1
  6
Continuous
100
AcDbLine
 10
111.755998
 20
155.721645
 30
0.0
 11
104.089698
 21
155.213145
 31
0.0
  0
LINE
  5
97A5
330
95D5
100
AcDbEntity
  8
1
  6
Continuous
100
AcDbLine
 10
111.734398
 20
157.020245
 30
0.0
 11
104.0038979999998
 21
156.507445
 31
0.0
  0
LINE
  5
97A6
330
95D5
100
AcDbEntity
  8
1
  6
Continuous
100
AcDbLine
 10
111.7133979999999
 20
158.3188449999999
 30
0.0
 11
104.0038979999998
 21
157.807445
 31
0.0
  0
LINE
  5
97A7
330
95D5
100
AcDbEntity
  8
1
  6
Continuous
100
AcDbLine
 10
111.692998
 20
159.6203449999999
 30
0.0
 11
103.9178979999998
 21
159.104645
 31
0.0
  0
LINE
  5
97A8
330
95D5
100
AcDbEntity
  8
1
  6
Continuous
100
AcDbLine
 10
111.673298
 20
160.9190449999998
 30
0.0
 11
103.9178979999998
 21
160.404645
 31
0.0
  0
LINE
  5
97A9
330
95D5
100
AcDbEntity
  8
1
  6
Continuous
100
AcDbLine
 10
111.654098
 20
162.217745
 30
0.0
 11
103.9178979999998
 21
161.704645
 31
0.0
  0
LINE
  5
97AA
330
95D5
100
AcDbEntity
  8
1
  6
Continuous
100
AcDbLine
 10
111.635598
 20
163.516545
 30
0.0
 11
103.9178979999998
 21
163.0046449999998
 31
0.0
  0
LINE
  5
97AB
330
95D5
100
AcDbEntity
  8
1
  6
Continuous
100
AcDbLine
 10
103.860898
 20
146.6810449999998
 30
0.0
 11
111.9350979999999
 21
146.6810449999998
 31
0.0
  0
LINE
  5
97AC
330
95D5
100
AcDbEntity
  8
1
  6
Continuous
100
AcDbLine
 10
111.9109979999999
 20
147.881045
 30
0.0
 11
103.860898
 21
147.881045
 31
0.0
  0
LINE
  5
97AD
330
95D5
100
AcDbEntity
  8
1
  6
Continuous
100
AcDbLine
 10
103.860898
 20
146.6810449999998
 30
0.0
 11
103.860898
 21
151.881045
 31
0.0
  0
LINE
  5
97AE
330
95D5
100
AcDbEntity
  8
1
  6
Continuous
100
AcDbLine
 10
111.569698
 20
169.131045
 30
0.0
 11
105.860898
 21
169.131045
 31
0.0
  0
LINE
  5
97AF
330
95D5
100
AcDbEntity
  8
1
  6
Continuous
100
AcDbLine
 10
105.860898
 20
168.1310449999998
 30
0.0
 11
105.860898
 21
169.131045
 31
0.0
  0
LINE
  5
97B0
330
95D5
100
AcDbEntity
  8
4
  6
CENTER
100
AcDbLine
 10
108.8608979999999
 20
142.2858449999999
 30
0.0
 11
108.8608979999999
 21
172.9997449999999
 31
0.0
  0
LINE
  5
97B1
330
95D5
100
AcDbEntity
  8
1
  6
Continuous
100
AcDbLine
 10
111.8342979999999
 20
151.881045
 30
0.0
 11
103.860898
 21
151.881045
 31
0.0
  0
LINE
  5
97B2
330
95D5
100
AcDbEntity
  8
1
  6
Continuous
100
AcDbLine
 10
105.860898
 20
151.881045
 30
0.0
 11
105.860898
 21
154.0306449999999
 31
0.0
  0
LINE
  5
97B3
330
95D5
100
AcDbEntity
  8
1
  6
Continuous
100
AcDbLine
 10
105.860898
 20
163.1335449999999
 30
0.0
 11
105.860898
 21
164.1310449999998
 31
0.0
  0
LINE
  5
97B4
330
95D5
100
AcDbEntity
  8
4
  6
CENTER
100
AcDbLine
 10
24.215898
 20
280.817245
 30
0.0
 11
24.215898
 21
266.6839449999999
 31
0.0
  0
LINE
  5
97B5
330
95D5
100
AcDbEntity
  8
1
  6
Continuous
100
AcDbLine
 10
263.750898
 20
242.3310449999999
 30
0.0
 11
263.750898
 21
237.3310449999999
 31
0.0
  0
LINE
  5
97B6
330
95D5
100
AcDbEntity
  8
1
  6
Continuous
100
AcDbLine
 10
260.7508979999999
 20
242.3310449999999
 30
0.0
 11
263.750898
 21
242.3310449999999
 31
0.0
  0
LINE
  5
97B7
330
95D5
100
AcDbEntity
  8
1
  6
Continuous
100
AcDbLine
 10
260.7508979999999
 20
238.3310449999999
 30
0.0
 11
263.750898
 21
238.3310449999999
 31
0.0
  0
LINE
  5
97B8
330
95D5
100
AcDbEntity
  8
1
  6
Continuous
100
AcDbLine
 10
272.250898
 20
254.5810449999999
 30
0.0
 11
257.750898
 21
254.5810449999999
 31
0.0
  0
LINE
  5
97B9
330
95D5
100
AcDbEntity
  8
1
  6
Continuous
100
AcDbLine
 10
274.8748979999999
 20
258.581045
 30
0.0
 11
257.492898
 21
258.581045
 31
0.0
  0
LINE
  5
97BA
330
95D5
100
AcDbEntity
  8
1
  6
Continuous
100
AcDbLine
 10
272.2748979999999
 20
251.981045
 30
0.0
 11
258.0258979999999
 21
251.981045
 31
0.0
  0
LINE
  5
97BB
330
95D5
100
AcDbEntity
  8
1
  6
Continuous
100
AcDbLine
 10
274.425898
 20
275.581045
 30
0.0
 11
257.6368979999999
 21
275.581045
 31
0.0
  0
LINE
  5
97BC
330
95D5
100
AcDbEntity
  8
1
  6
Continuous
100
AcDbLine
 10
274.425898
 20
272.9810449999998
 30
0.0
 11
266.026898
 21
272.9810449999998
 31
0.0
  0
LINE
  5
97BD
330
95D5
100
AcDbEntity
  8
1
  6
Continuous
100
AcDbLine
 10
274.425898
 20
275.581045
 30
0.0
 11
274.425898
 21
272.9810449999998
 31
0.0
  0
LINE
  5
97BE
330
95D5
100
AcDbEntity
  8
1
  6
Continuous
100
AcDbLine
 10
266.026898
 20
272.9810449999998
 30
0.0
 11
266.026898
 21
258.581045
 31
0.0
  0
LINE
  5
97BF
330
95D5
100
AcDbEntity
  8
1
  6
Continuous
100
AcDbLine
 10
272.250898
 20
258.581045
 30
0.0
 11
272.250898
 21
254.5810449999999
 31
0.0
  0
LINE
  5
97C0
330
95D5
100
AcDbEntity
  8
1
  6
Continuous
100
AcDbLine
 10
274.8748979999999
 20
258.581045
 30
0.0
 11
274.8748979999999
 21
254.5810449999999
 31
0.0
  0
LINE
  5
97C1
330
95D5
100
AcDbEntity
  8
1
  6
Continuous
100
AcDbLine
 10
265.050898
 20
242.3310449999999
 30
0.0
 11
265.050898
 21
237.3310449999999
 31
0.0
  0
LINE
  5
97C2
330
95D5
100
AcDbEntity
  8
1
  6
Continuous
100
AcDbLine
 10
260.7508979999999
 20
243.631045
 30
0.0
 11
263.750898
 21
243.631045
 31
0.0
  0
LINE
  5
97C3
330
95D5
100
AcDbEntity
  8
1
  6
Continuous
100
AcDbLine
 10
260.7508979999999
 20
237.3310449999999
 30
0.0
 11
263.750898
 21
237.3310449999999
 31
0.0
  0
LINE
  5
97C4
330
95D5
100
AcDbEntity
  8
1
  6
Continuous
100
AcDbLine
 10
260.7508979999999
 20
236.031045
 30
0.0
 11
263.750898
 21
236.031045
 31
0.0
  0
LINE
  5
97C5
330
95D5
100
AcDbEntity
  8
4
  6
CENTER
100
AcDbLine
 10
267.505898
 20
280.817245
 30
0.0
 11
267.505898
 21
266.6839449999999
 31
0.0
  0
LINE
  5
97C6
330
95D5
100
AcDbEntity
  8
1
  6
Continuous
100
AcDbLine
 10
255.036898
 20
272.9810449999998
 30
0.0
 11
255.036898
 21
271.530545
 31
0.0
  0
LINE
  5
97C7
330
95D5
100
AcDbEntity
  8
1
  6
Continuous
100
AcDbLine
 10
264.355898
 20
272.9810449999998
 30
0.0
 11
264.355898
 21
258.581045
 31
0.0
  0
LINE
  5
97C8
330
95D5
100
AcDbEntity
  8
1
  6
Continuous
100
AcDbLine
 10
260.779898
 20
251.298945
 30
0.0
 11
258.235898
 21
251.467645
 31
0.0
  0
LINE
  5
97C9
330
95D5
100
AcDbEntity
  8
1
  6
Continuous
100
AcDbLine
 10
260.6938979999998
 20
250.004645
 30
0.0
 11
259.019898
 21
250.115645
 31
0.0
  0
LINE
  5
97CA
330
95D5
100
AcDbEntity
  8
1
  6
Continuous
100
AcDbLine
 10
260.6938979999998
 20
248.704645
 30
0.0
 11
259.831898
 21
248.761745
 31
0.0
  0
LINE
  5
97CB
330
95D5
100
AcDbEntity
  8
1
  6
Continuous
100
AcDbLine
 10
260.6938979999998
 20
156.3574449999999
 30
0.0
 11
258.957898
 21
156.242345
 31
0.0
  0
LINE
  5
97CC
330
95D5
100
AcDbEntity
  8
1
  6
Continuous
100
AcDbLine
 10
263.750898
 20
164.1310449999998
 30
0.0
 11
263.750898
 21
169.131045
 31
0.0
  0
LINE
  5
97CD
330
95D5
100
AcDbEntity
  8
1
  6
Continuous
100
AcDbLine
 10
260.7508979999999
 20
164.1310449999998
 30
0.0
 11
263.750898
 21
164.1310449999998
 31
0.0
  0
LINE
  5
97CE
330
95D5
100
AcDbEntity
  8
1
  6
Continuous
100
AcDbLine
 10
260.7508979999999
 20
168.1310449999998
 30
0.0
 11
263.750898
 21
168.1310449999998
 31
0.0
  0
LINE
  5
97CF
330
95D5
100
AcDbEntity
  8
1
  6
Continuous
100
AcDbLine
 10
272.250898
 20
151.881045
 30
0.0
 11
257.750898
 21
151.881045
 31
0.0
  0
LINE
  5
97D0
330
95D5
100
AcDbEntity
  8
1
  6
Continuous
100
AcDbLine
 10
272.250898
 20
147.881045
 30
0.0
 11
257.492898
 21
147.881045
 31
0.0
  0
LINE
  5
97D1
330
95D5
100
AcDbEntity
  8
1
  6
Continuous
100
AcDbLine
 10
272.250898
 20
147.881045
 30
0.0
 11
272.250898
 21
151.881045
 31
0.0
  0
LINE
  5
97D2
330
95D5
100
AcDbEntity
  8
1
  6
Continuous
100
AcDbLine
 10
265.050898
 20
164.1310449999998
 30
0.0
 11
265.050898
 21
169.131045
 31
0.0
  0
LINE
  5
97D3
330
95D5
100
AcDbEntity
  8
1
  6
Continuous
100
AcDbLine
 10
260.7508979999999
 20
162.8310449999998
 30
0.0
 11
263.750898
 21
162.8310449999998
 31
0.0
  0
LINE
  5
97D4
330
95D5
100
AcDbEntity
  8
1
  6
Continuous
100
AcDbLine
 10
260.7508979999999
 20
169.131045
 30
0.0
 11
263.750898
 21
169.131045
 31
0.0
  0
LINE
  5
97D5
330
95D5
100
AcDbEntity
  8
1
  6
Continuous
100
AcDbLine
 10
260.7508979999999
 20
170.4310449999999
 30
0.0
 11
263.750898
 21
170.4310449999999
 31
0.0
  0
LINE
  5
97D6
330
95D5
100
AcDbEntity
  8
1
  6
Continuous
100
AcDbLine
 10
260.779898
 20
153.763145
 30
0.0
 11
257.8028979999999
 21
153.5657449999999
 31
0.0
  0
LINE
  5
97D7
330
95D5
100
AcDbEntity
  8
1
  6
Continuous
100
AcDbLine
 10
260.6938979999998
 20
155.057445
 30
0.0
 11
258.187898
 21
154.8912449999999
 31
0.0
  0
LINE
  5
97D8
330
95D5
100
AcDbEntity
  8
1
  6
Continuous
100
AcDbLine
 10
257.750898
 20
152.8461449999998
 30
0.0
 11
257.750898
 21
149.620945
 31
0.0
  0
LINE
  5
97D9
330
95D5
100
AcDbEntity
  8
1
  6
Continuous
100
AcDbLine
 10
260.6078979999999
 20
157.6546449999999
 30
0.0
 11
259.771898
 21
157.599145
 31
0.0
  0
LINE
  5
97DA
330
95D5
100
AcDbEntity
  8
1
  6
Continuous
100
AcDbLine
 10
260.668898
 20
158.955845
 30
0.0
 11
260.423898
 21
158.9395449999998
 31
0.0
  0
LINE
  5
97DB
330
95D5
100
AcDbEntity
  8
4
  6
CENTER
100
AcDbLine
 10
145.860878
 20
40.086145
 30
0.0
 11
145.860878
 21
75.51214499999997
 31
0.0
  0
LINE
  5
97DC
330
95D5
100
AcDbEntity
  8
1
  6
Continuous
100
AcDbLine
 10
180.3608979999999
 20
63.987145
 30
0.0
 11
111.3608979999999
 21
63.987145
 31
0.0
  0
LINE
  5
97DD
330
95D5
100
AcDbEntity
  8
1
  6
Continuous
100
AcDbLine
 10
178.860898
 20
66.987145
 30
0.0
 11
178.860898
 21
67.78714499999999
 31
0.0
  0
LINE
  5
97DE
330
95D5
100
AcDbEntity
  8
1
  6
Continuous
100
AcDbLine
 10
140.4678419999999
 20
47.487145
 30
0.0
 11
145.411128
 21
47.487145
 31
0.0
  0
LINE
  5
97DF
330
95D5
100
AcDbEntity
  8
1
  6
Continuous
100
AcDbLine
 10
170.324998
 20
63.987145
 30
0.0
 11
158.967098
 21
52.304145
 31
0.0
  0
LINE
  5
97E0
330
95D5
100
AcDbEntity
  8
1
  6
Continuous
100
AcDbLine
 10
125.250798
 20
53.790145
 30
0.0
 11
120.435598
 21
63.987145
 31
0.0
  0
LINE
  5
97E1
330
95D5
100
AcDbEntity
  8
1
  6
Continuous
100
AcDbLine
 10
120.892898
 20
54.759145
 30
0.0
 11
110.020098
 21
57.35114499999999
 31
0.0
  0
LINE
  5
97E2
330
95D5
100
AcDbEntity
  8
1
  6
Continuous
100
AcDbLine
 10
123.2112979999999
 20
54.487145
 30
0.0
 11
124.9216979999999
 21
54.487145
 31
0.0
  0
LINE
  5
97E3
330
95D5
100
AcDbEntity
  8
4
  6
CENTER
100
AcDbLine
 10
134.090586
 20
63.987145
 30
0.0
 11
135.9829879999997
 21
51.324145
 31
0.0
  0
LINE
  5
97E4
330
95D5
100
AcDbEntity
  8
1
  6
Continuous
100
AcDbLine
 10
157.8059979999999
 20
48.226145
 30
0.0
 11
147.9157979999999
 21
46.748145
 31
0.0
  0
LINE
  5
97E5
330
95D5
100
AcDbEntity
  8
1
  6
Continuous
100
AcDbLine
 10
156.6385979999998
 20
60.810145
 30
0.0
 11
157.8059979999999
 21
48.226145
 31
0.0
  0
LINE
  5
97E6
330
95D5
100
AcDbEntity
  8
1
  6
Continuous
100
AcDbLine
 10
145.352908
 20
59.12314499999999
 30
0.0
 11
145.3531139999998
 21
59.122148
 31
0.0
  0
LINE
  5
97E7
330
95D5
100
AcDbEntity
  8
1
  6
Continuous
100
AcDbLine
 10
139.632349
 20
63.487464
 30
0.0
 11
140.305958
 21
56.226145
 31
0.0
  0
LINE
  5
97E8
330
95D5
100
AcDbEntity
  8
1
  6
Continuous
100
AcDbLine
 10
140.3059589999998
 20
56.226145
 30
0.0
 11
130.415798
 21
54.74814499999999
 31
0.0
  0
LINE
  5
97E9
330
95D5
100
AcDbEntity
  8
1
  6
Continuous
100
AcDbLine
 10
128.606042
 20
63.48714499999999
 30
0.0
 11
130.415798
 21
54.74814499999999
 31
0.0
  0
LINE
  5
97EA
330
95D5
100
AcDbEntity
  8
4
  6
CENTER
100
AcDbLine
 10
151.4746979999999
 20
56.762145
 30
0.0
 11
153.661598
 21
42.129145
 31
0.0
  0
LINE
  5
97EB
330
95D5
100
AcDbEntity
  8
1
  6
Continuous
100
AcDbLine
 10
143.3204579999998
 20
59.10014499999999
 30
0.0
 11
142.360942
 21
63.48714499999999
 31
0.0
  0
LINE
  5
97EC
330
95D5
100
AcDbEntity
  8
4
  6
CENTER
100
AcDbLine
 10
108.8608979999999
 20
44.987145
 30
0.0
 11
108.8608979999999
 21
59.987145
 31
0.0
  0
LINE
  5
97ED
330
95D5
100
AcDbEntity
  8
4
  6
CENTER
100
AcDbLine
 10
116.360898
 20
52.487145
 30
0.0
 11
101.3608979999999
 21
52.487145
 31
0.0
  0
LINE
  5
97EE
330
95D5
100
AcDbEntity
  8
1
  6
Continuous
100
AcDbLine
 10
179.369398
 20
66.987145
 30
0.0
 11
112.3523979999998
 21
66.987145
 31
0.0
  0
LINE
  5
97EF
330
95D5
100
AcDbEntity
  8
1
  6
Continuous
100
AcDbLine
 10
116.974898
 20
69.80414499999999
 30
0.0
 11
174.7467979999999
 21
69.80414499999999
 31
0.0
  0
LINE
  5
97F0
330
95D5
100
AcDbEntity
  8
1
  6
Continuous
100
AcDbLine
 10
141.860878
 20
70.48714499999999
 30
0.0
 11
126.4608979999999
 21
70.48714499999999
 31
0.0
  0
LINE
  5
97F1
330
95D5
100
AcDbEntity
  8
1
  6
Continuous
100
AcDbLine
 10
127.9461979999999
 20
35.98714499999999
 30
0.0
 11
122.358798
 21
35.98714499999999
 31
0.0
  0
LINE
  5
97F2
330
95D5
100
AcDbEntity
  8
1
  6
Continuous
100
AcDbLine
 10
130.1999979999999
 20
47.135145
 30
0.0
 11
125.3761979999999
 21
49.616145
 31
0.0
  0
LINE
  5
97F3
330
95D5
100
AcDbEntity
  8
1
  6
Continuous
100
AcDbLine
 10
124.918898
 20
48.726145
 30
0.0
 11
124.1593979999999
 21
49.117145
 31
0.0
  0
LINE
  5
97F4
330
95D5
100
AcDbEntity
  8
1
  6
Continuous
100
AcDbLine
 10
122.358798
 20
35.98714499999999
 30
0.0
 11
115.6448979999999
 21
39.440145
 31
0.0
  0
LINE
  5
97F5
330
95D5
100
AcDbEntity
  8
1
  6
Continuous
100
AcDbLine
 10
115.6448979999999
 20
39.440145
 30
0.0
 11
105.473298
 21
48.809145
 31
0.0
  0
LINE
  5
97F6
330
95D5
100
AcDbEntity
  8
1
  6
Continuous
100
AcDbLine
 10
125.3761979999999
 20
49.616145
 30
0.0
 11
124.918898
 21
48.726145
 31
0.0
  0
LINE
  5
97F7
330
95D5
100
AcDbEntity
  8
1
  6
Continuous
100
AcDbLine
 10
117.804598
 20
52.385145
 30
0.0
 11
111.702898
 21
56.60114499999998
 31
0.0
  0
LINE
  5
97F8
330
95D5
100
AcDbEntity
  8
1
  6
Continuous
100
AcDbLine
 10
123.856798
 20
50.592145
 30
0.0
 11
121.9016979999999
 21
50.278145
 31
0.0
  0
LINE
  5
97F9
330
95D5
100
AcDbEntity
  8
1
  6
Continuous
100
AcDbLine
 10
124.4865979999999
 20
49.57014499999999
 30
0.0
 11
122.347898
 21
46.61214499999998
 31
0.0
  0
LINE
  5
97FA
330
95D5
100
AcDbEntity
  8
1
  6
Continuous
100
AcDbLine
 10
122.347898
 20
46.61214499999998
 30
0.0
 11
121.294498
 21
47.37414499999998
 31
0.0
  0
LINE
  5
97FB
330
95D5
100
AcDbEntity
  8
1
  6
Continuous
100
AcDbLine
 10
122.989998
 20
49.718145
 30
0.0
 11
117.804598
 21
52.385145
 31
0.0
  0
LINE
  5
97FC
330
95D5
100
AcDbEntity
  8
1
  6
Continuous
100
AcDbLine
 10
123.433198
 20
50.33114499999999
 30
0.0
 11
121.294498
 21
47.37414499999998
 31
0.0
  0
LINE
  5
97FD
330
95D5
100
AcDbEntity
  8
1
  6
Continuous
100
AcDbLine
 10
116.129198
 20
38.294145
 30
0.0
 11
109.0887979999999
 21
44.202145
 31
0.0
  0
LINE
  5
97FE
330
95D5
100
AcDbEntity
  8
1
  6
Continuous
100
AcDbLine
 10
92.386298
 20
46.077145
 30
0.0
 11
98.36419800000001
 21
53.20114499999998
 31
0.0
  0
LINE
  5
97FF
330
95D5
100
AcDbEntity
  8
1
  6
Continuous
100
AcDbLine
 10
103.1108979999999
 20
37.078145
 30
0.0
 11
109.0887979999999
 21
44.202145
 31
0.0
  0
LINE
  5
9800
330
95D5
100
AcDbEntity
  8
1
  6
Continuous
100
AcDbLine
 10
120.4233979999999
 20
33.363145
 30
0.0
 11
115.008898
 21
35.948145
 31
0.0
  0
LINE
  5
9801
330
95D5
100
AcDbEntity
  8
1
  6
Continuous
100
AcDbLine
 10
120.4233979999999
 20
33.363145
 30
0.0
 11
121.8107979999999
 21
36.269145
 31
0.0
  0
LINE
  5
9802
330
95D5
100
AcDbEntity
  8
1
  6
Continuous
100
AcDbLine
 10
115.008898
 20
35.948145
 30
0.0
 11
116.4726979999998
 21
39.01414499999999
 31
0.0
  0
LINE
  5
9803
330
95D5
100
AcDbEntity
  8
1
  6
Continuous
100
AcDbLine
 10
107.4175979999999
 20
42.21014499999999
 30
0.0
 11
96.692998
 21
51.209145
 31
0.0
  0
LINE
  5
9804
330
95D5
100
AcDbEntity
  8
1
  6
Continuous
100
AcDbLine
 10
178.860898
 20
67.78714499999999
 30
0.0
 11
175.4595979999998
 21
69.624145
 31
0.0
  0
LINE
  5
9805
330
95D5
100
AcDbEntity
  8
1
  6
Continuous
100
AcDbLine
 10
179.369398
 20
66.987145
 30
0.0
 11
180.3608979999999
 21
63.987145
 31
0.0
  0
LINE
  5
9806
330
95D5
100
AcDbEntity
  8
1
  6
Continuous
100
AcDbLine
 10
112.3523979999998
 20
66.987145
 30
0.0
 11
111.3608979999999
 21
63.987145
 31
0.0
  0
LINE
  5
9807
330
95D5
100
AcDbEntity
  8
1
  6
Continuous
100
AcDbLine
 10
112.8608979999999
 20
67.78714499999999
 30
0.0
 11
116.2621979999999
 21
69.624145
 31
0.0
  0
LINE
  5
9808
330
95D5
100
AcDbEntity
  8
1
  6
Continuous
100
AcDbLine
 10
112.8608979999999
 20
66.987145
 30
0.0
 11
112.8608979999999
 21
67.78714499999999
 31
0.0
  0
LINE
  5
9809
330
95D5
100
AcDbEntity
  8
1
  6
Continuous
100
AcDbLine
 10
141.860878
 20
335.975145
 30
0.0
 11
126.4608979999999
 21
335.975145
 31
0.0
  0
LINE
  5
980A
330
95D5
100
AcDbEntity
  8
5
  6
PHANTOM
100
AcDbLine
 10
125.211698
 20
325.510145
 30
0.0
 11
112.0924979999999
 21
334.137145
 31
0.0
  0
LINE
  5
980B
330
95D5
100
AcDbEntity
  8
5
  6
PHANTOM
100
AcDbLine
 10
127.109898
 20
321.628145
 30
0.0
 11
110.8858979999999
 21
332.297145
 31
0.0
  0
LINE
  5
980C
330
95D5
100
AcDbEntity
  8
5
  6
PHANTOM
100
AcDbLine
 10
126.543598
 20
85.658145
 30
0.0
 11
113.676398
 21
77.19714499999998
 31
0.0
  0
LINE
  5
980D
330
95D5
100
AcDbEntity
  8
5
  6
PHANTOM
100
AcDbLine
 10
125.8836979999999
 20
81.20114499999997
 30
0.0
 11
127.8085979999999
 21
78.27414499999997
 31
0.0
  0
LINE
  5
980E
330
95D5
100
AcDbEntity
  8
5
  6
PHANTOM
100
AcDbLine
 10
116.6043979999999
 20
75.29214499999998
 30
0.0
 11
118.6424979999999
 21
72.193145
 31
0.0
  0
LINE
  5
980F
330
95D5
100
AcDbEntity
  8
5
  6
PHANTOM
100
AcDbLine
 10
109.875998
 20
72.49614499999998
 30
0.0
 11
112.0924979999999
 21
72.32514499999997
 31
0.0
  0
LINE
  5
9810
330
95D5
100
AcDbEntity
  8
5
  6
PHANTOM
100
AcDbLine
 10
125.211698
 20
80.952145
 30
0.0
 11
128.337998
 21
82.112145
 31
0.0
  0
LINE
  5
9811
330
95D5
100
AcDbEntity
  8
5
  6
PHANTOM
100
AcDbLine
 10
98.61769800000001
 20
38.07914499999999
 30
0.0
 11
99.698098
 21
47.316145
 31
0.0
  0
LINE
  5
9812
330
95D5
100
AcDbEntity
  8
5
  6
PHANTOM
100
AcDbLine
 10
112.5228979999999
 20
36.453145
 30
0.0
 11
113.6032979999999
 21
45.690145
 31
0.0
  0
LINE
  5
9813
330
95D5
100
AcDbEntity
  8
5
  6
PHANTOM
100
AcDbLine
 10
125.211698
 20
80.952145
 30
0.0
 11
112.0924979999999
 21
72.32514499999997
 31
0.0
  0
LINE
  5
9814
330
95D5
100
AcDbEntity
  8
5
  6
PHANTOM
100
AcDbLine
 10
127.109898
 20
84.833145
 30
0.0
 11
110.8858979999999
 21
74.16514499999998
 31
0.0
  0
LINE
  5
9815
330
95D5
100
AcDbEntity
  8
1
  6
Continuous
100
AcDbLine
 10
387.0808979999998
 20
259.731045
 30
0.0
 11
387.0808979999998
 21
258.581045
 31
0.0
  0
LINE
  5
9816
330
95D5
100
AcDbEntity
  8
1
  6
Continuous
100
AcDbLine
 10
393.816898
 20
147.881045
 30
0.0
 11
393.816898
 21
138.9113449999999
 31
0.0
  0
LINE
  5
9817
330
95D5
100
AcDbEntity
  8
1
  6
Continuous
100
AcDbLine
 10
393.816898
 20
152.9815449999999
 30
0.0
 11
393.816898
 21
151.881045
 31
0.0
  0
LINE
  5
9818
330
95D5
100
AcDbEntity
  8
1
  6
Continuous
100
AcDbLine
 10
393.816898
 20
162.291245
 30
0.0
 11
393.816898
 21
154.2826449999998
 31
0.0
  0
LINE
  5
9819
330
95D5
100
AcDbEntity
  8
1
  6
Continuous
100
AcDbLine
 10
393.816898
 20
238.3310449999999
 30
0.0
 11
393.816898
 21
168.1310449999998
 31
0.0
  0
LINE
  5
981A
330
95D5
100
AcDbEntity
  8
1
  6
Continuous
100
AcDbLine
 10
258.7508979999999
 20
151.881045
 30
0.0
 11
258.7508979999999
 21
153.628645
 31
0.0
  0
LINE
  5
981B
330
95D5
100
AcDbEntity
  8
1
  6
Continuous
100
AcDbLine
 10
258.7508979999999
 20
251.981045
 30
0.0
 11
258.7508979999999
 21
251.433545
 31
0.0
  0
LINE
  5
981C
330
95D5
100
AcDbEntity
  8
1
  6
Continuous
100
AcDbLine
 10
237.750798
 20
265.2310449999998
 30
0.0
 11
237.750798
 21
141.2310449999999
 31
0.0
  0
LINE
  5
981D
330
95D5
100
AcDbEntity
  8
1
  6
Continuous
100
AcDbLine
 10
98.36419800000001
 20
353.261145
 30
0.0
 11
107.2922979999999
 21
348.693145
 31
0.0
  0
LINE
  5
981E
330
95D5
100
AcDbEntity
  8
1
  6
Continuous
100
AcDbLine
 10
114.1778979999999
 20
351.205145
 30
0.0
 11
114.395398
 21
351.721145
 31
0.0
  0
LINE
  5
981F
330
95D5
100
AcDbEntity
  8
4
  6
CENTER
100
AcDbLine
 10
93.90069799999999
 20
369.470145
 30
0.0
 11
100.4727979999999
 21
361.6381449999999
 31
0.0
  0
LINE
  5
9820
330
95D5
100
AcDbEntity
  8
4
  6
CENTER
100
AcDbLine
 10
100.9453979999999
 20
368.872145
 30
0.0
 11
92.662998
 21
361.923145
 31
0.0
  0
LINE
  5
9821
330
95D5
100
AcDbEntity
  8
4
  6
CENTER
100
AcDbLine
 10
104.8578979999999
 20
375.2861449999999
 30
0.0
 11
106.0909979999999
 21
364.744145
 31
0.0
  0
LINE
  5
9822
330
95D5
100
AcDbEntity
  8
4
  6
CENTER
100
AcDbLine
 10
99.94499799999999
 20
369.545145
 30
0.0
 11
111.059598
 21
370.845145
 31
0.0
  0
LINE
  5
9823
330
95D5
100
AcDbEntity
  8
4
  6
CENTER
100
AcDbLine
 10
104.781198
 20
30.520145
 30
0.0
 11
106.100798
 21
41.802145
 31
0.0
  0
LINE
  5
9824
330
95D5
100
AcDbEntity
  8
4
  6
CENTER
100
AcDbLine
 10
99.90429800000001
 20
36.922145
 30
0.0
 11
111.245698
 21
35.59514500000001
 31
0.0
  0
LINE
  5
9825
330
95D5
100
AcDbEntity
  8
4
  6
CENTER
100
AcDbLine
 10
93.69629800000002
 20
36.748145
 30
0.0
 11
100.5141979999998
 21
44.873145
 31
0.0
  0
LINE
  5
9826
330
95D5
100
AcDbEntity
  8
4
  6
CENTER
100
AcDbLine
 10
101.311798
 20
37.28214499999999
 30
0.0
 11
92.91839799999999
 21
44.32514499999999
 31
0.0
  0
LINE
  5
9827
330
95D5
100
AcDbEntity
  8
1
  6
Continuous
100
AcDbLine
 10
98.36419800000001
 20
53.20114499999998
 30
0.0
 11
107.2922979999999
 21
57.769145
 31
0.0
  0
LINE
  5
9828
330
95D5
100
AcDbEntity
  8
1
  6
Continuous
100
AcDbLine
 10
237.750798
 20
141.2310449999999
 30
0.0
 11
238.176698
 21
139.1017449999999
 31
0.0
  0
LINE
  5
9829
330
95D5
100
AcDbEntity
  8
1
  6
Continuous
100
AcDbLine
 10
237.750798
 20
265.2310449999998
 30
0.0
 11
238.176698
 21
267.3603449999998
 31
0.0
  0
LINE
  5
982A
330
95D5
100
AcDbEntity
  8
1
  6
Continuous
100
AcDbLine
 10
53.970998
 20
265.2310449999998
 30
0.0
 11
53.970998
 21
141.2310449999999
 31
0.0
  0
LINE
  5
982B
330
95D5
100
AcDbEntity
  8
1
  6
Continuous
100
AcDbLine
 10
53.970998
 20
265.2310449999998
 30
0.0
 11
53.54509799999998
 21
267.3603449999998
 31
0.0
  0
LINE
  5
982C
330
95D5
100
AcDbEntity
  8
1
  6
Continuous
100
AcDbLine
 10
53.970998
 20
141.2310449999999
 30
0.0
 11
53.54509799999998
 21
139.1017449999999
 31
0.0
  0
LINE
  5
982D
330
95D5
100
AcDbEntity
  8
1
  6
Continuous
100
AcDbLine
 10
103.1108979999999
 20
369.3841449999998
 30
0.0
 11
109.0887979999999
 21
362.260145
 31
0.0
  0
LINE
  5
982E
330
95D5
100
AcDbEntity
  8
1
  6
Continuous
100
AcDbLine
 10
92.386298
 20
360.385145
 30
0.0
 11
98.36419800000001
 21
353.261145
 31
0.0
  0
ARC
  5
982F
330
95D5
100
AcDbEntity
  8
1
  6
Continuous
100
AcDbCircle
 10
-2604.641102
 20
203.231055
 30
0.0
 40
2783.5
100
AcDbArc
 50
358.678
 51
1.322249999999999
  0
ARC
  5
9830
330
95D5
100
AcDbEntity
  8
1
  6
Continuous
100
AcDbCircle
 10
-2604.641102
 20
203.231055
 30
0.0
 40
2784.0
100
AcDbArc
 50
358.678
 51
1.322249999999999
  0
ARC
  5
9831
330
95D5
100
AcDbEntity
  8
1
  6
Continuous
100
AcDbCircle
 10
-2604.641102
 20
203.231055
 30
0.0
 40
2785.0
100
AcDbArc
 50
358.678
 51
1.322249999999999
  0
ARC
  5
9832
330
95D5
100
AcDbEntity
  8
1
  6
Continuous
100
AcDbCircle
 10
168.122398
 20
267.2310449999999
 30
0.0
 40
10.0
100
AcDbArc
 50
1.322249999999999
 51
90.0
  0
ARC
  5
9833
330
95D5
100
AcDbEntity
  8
1
  6
Continuous
100
AcDbCircle
 10
168.122398
 20
267.2310449999999
 30
0.0
 40
10.5
100
AcDbArc
 50
1.322249999999999
 51
90.0
  0
ARC
  5
9834
330
95D5
100
AcDbEntity
  8
1
  6
Continuous
100
AcDbCircle
 10
168.122398
 20
267.2310449999999
 30
0.0
 40
11.5
100
AcDbArc
 50
1.322249999999999
 51
90.0
  0
ARC
  5
9835
330
95D5
100
AcDbEntity
  8
1
  6
Continuous
100
AcDbCircle
 10
123.5993979999998
 20
267.2310449999999
 30
0.0
 40
11.5
100
AcDbArc
 50
90.0
 51
178.678
  0
ARC
  5
9836
330
95D5
100
AcDbEntity
  8
1
  6
Continuous
100
AcDbCircle
 10
123.5993979999998
 20
267.2310449999999
 30
0.0
 40
10.0
100
AcDbArc
 50
90.0
 51
178.678
  0
ARC
  5
9837
330
95D5
100
AcDbEntity
  8
1
  6
Continuous
100
AcDbCircle
 10
123.5993979999998
 20
267.2310449999999
 30
0.0
 40
10.5
100
AcDbArc
 50
90.0
 51
178.678
  0
ARC
  5
9838
330
95D5
100
AcDbEntity
  8
1
  6
Continuous
100
AcDbCircle
 10
168.122398
 20
139.2310449999999
 30
0.0
 40
11.5
100
AcDbArc
 50
270.0
 51
358.678
  0
ARC
  5
9839
330
95D5
100
AcDbEntity
  8
1
  6
Continuous
100
AcDbCircle
 10
168.122398
 20
139.2310449999999
 30
0.0
 40
10.0
100
AcDbArc
 50
270.0
 51
358.678
  0
ARC
  5
983A
330
95D5
100
AcDbEntity
  8
1
  6
Continuous
100
AcDbCircle
 10
168.122398
 20
139.2310449999999
 30
0.0
 40
10.5
100
AcDbArc
 50
270.0
 51
358.678
  0
ARC
  5
983B
330
95D5
100
AcDbEntity
  8
1
  6
Continuous
100
AcDbCircle
 10
123.5993979999998
 20
139.2310449999999
 30
0.0
 40
11.5
100
AcDbArc
 50
181.322
 51
270.0
  0
ARC
  5
983C
330
95D5
100
AcDbEntity
  8
1
  6
Continuous
100
AcDbCircle
 10
123.5993979999998
 20
139.2310449999999
 30
0.0
 40
10.0
100
AcDbArc
 50
181.322
 51
270.0
  0
ARC
  5
983D
330
95D5
100
AcDbEntity
  8
1
  6
Continuous
100
AcDbCircle
 10
123.5993979999998
 20
139.2310449999999
 30
0.0
 40
10.5
100
AcDbArc
 50
181.322
 51
270.0
  0
ARC
  5
983E
330
95D5
100
AcDbEntity
  8
1
  6
Continuous
100
AcDbCircle
 10
2896.358898
 20
203.231055
 30
0.0
 40
2785.0
100
AcDbArc
 50
178.678
 51
181.322
  0
ARC
  5
983F
330
95D5
100
AcDbEntity
  8
1
  6
Continuous
100
AcDbCircle
 10
2896.358898
 20
203.231055
 30
0.0
 40
2784.0
100
AcDbArc
 50
178.678
 51
181.322
  0
ARC
  5
9840
330
95D5
100
AcDbEntity
  8
1
  6
Continuous
100
AcDbCircle
 10
2896.358898
 20
203.231055
 30
0.0
 40
2783.5
100
AcDbArc
 50
178.678
 51
181.322
  0
ARC
  5
9841
330
95D5
100
AcDbEntity
  8
1
  6
Continuous
100
AcDbCircle
 10
169.360898
 20
268.231045
 30
0.0
 40
2.5
100
AcDbArc
 50
0.0
 51
90.0
  0
ARC
  5
9842
330
95D5
100
AcDbEntity
  8
1
  6
Continuous
100
AcDbCircle
 10
169.360898
 20
268.231045
 30
0.0
 40
4.5
100
AcDbArc
 50
0.0
 51
90.0
  0
ARC
  5
9843
330
95D5
100
AcDbEntity
  8
1
  6
Continuous
100
AcDbCircle
 10
169.360898
 20
138.231045
 30
0.0
 40
4.5
100
AcDbArc
 50
270.0
 51
0.000005
  0
ARC
  5
9844
330
95D5
100
AcDbEntity
  8
1
  6
Continuous
100
AcDbCircle
 10
169.360898
 20
138.231045
 30
0.0
 40
2.5
100
AcDbArc
 50
270.0
 51
0.000005
  0
ARC
  5
9845
330
95D5
100
AcDbEntity
  8
1
  6
Continuous
100
AcDbCircle
 10
122.3608979999999
 20
268.231045
 30
0.0
 40
4.5
100
AcDbArc
 50
90.0
 51
180.0
  0
ARC
  5
9846
330
95D5
100
AcDbEntity
  8
1
  6
Continuous
100
AcDbCircle
 10
122.3608979999999
 20
268.231045
 30
0.0
 40
2.5
100
AcDbArc
 50
90.0
 51
180.0
  0
ARC
  5
9847
330
95D5
100
AcDbEntity
  8
1
  6
Continuous
100
AcDbCircle
 10
122.3608979999999
 20
138.231045
 30
0.0
 40
4.5
100
AcDbArc
 50
180.0
 51
270.0
  0
ARC
  5
9848
330
95D5
100
AcDbEntity
  8
1
  6
Continuous
100
AcDbCircle
 10
122.3608979999999
 20
138.231045
 30
0.0
 40
2.5
100
AcDbArc
 50
180.0
 51
270.0
  0
ARC
  5
9849
330
95D5
100
AcDbEntity
  8
1
  6
Continuous
100
AcDbCircle
 10
145.411128
 20
337.975145
 30
0.0
 40
21.0
100
AcDbArc
 50
83.6438
 51
90.0
  0
ARC
  5
984A
330
95D5
100
AcDbEntity
  8
1
  6
Continuous
100
AcDbCircle
 10
135.197568
 20
347.975145
 30
0.0
 40
11.0
100
AcDbArc
 50
115.259
 51
154.722
  0
ARC
  5
984B
330
95D5
100
AcDbEntity
  8
1
  6
Continuous
100
AcDbCircle
 10
108.8608979999999
 20
353.975145
 30
0.0
 40
5.0
100
AcDbArc
 50
132.65
 51
304.639
  0
ARC
  5
984C
330
95D5
100
AcDbEntity
  8
1
  6
Continuous
100
AcDbCircle
 10
123.2112979999999
 20
341.975145
 30
0.0
 40
10.0
100
AcDbArc
 50
90.0
 51
103.405
  0
ARC
  5
984D
330
95D5
100
AcDbEntity
  8
1
  6
Continuous
100
AcDbCircle
 10
154.665098
 20
349.975145
 30
0.0
 40
6.0
100
AcDbArc
 50
44.1931
 51
61.49270000000001
  0
ARC
  5
984E
330
95D5
100
AcDbEntity
  8
1
  6
Continuous
100
AcDbCircle
 10
154.0663979999999
 20
345.011145
 30
0.0
 40
11.0
100
AcDbArc
 50
133.243
 51
167.6609999999999
  0
ARC
  5
984F
330
95D5
100
AcDbEntity
  8
1
  6
Continuous
100
AcDbCircle
 10
262.7508979999999
 20
253.6159449999999
 30
0.0
 40
5.0
100
AcDbArc
 50
180.0
 51
210.964
  0
ARC
  5
9850
330
95D5
100
AcDbEntity
  8
1
  6
Continuous
100
AcDbCircle
 10
254.7508979999999
 20
245.5691449999999
 30
0.0
 40
6.0
100
AcDbArc
 50
0.0
 51
30.9638
  0
ARC
  5
9851
330
95D5
100
AcDbEntity
  8
1
  6
Continuous
100
AcDbCircle
 10
150.050368
 20
346.6361449999998
 30
0.0
 40
6.66136
100
AcDbArc
 50
321.34
 51
351.5
  0
ARC
  5
9852
330
95D5
100
AcDbEntity
  8
1
  6
Continuous
100
AcDbCircle
 10
151.941098
 20
346.354145
 30
0.0
 40
6.66136
100
AcDbArc
 50
165.0813359999999
 51
215.61
  0
ARC
  5
9853
330
95D5
100
AcDbEntity
  8
1
  6
Continuous
100
AcDbCircle
 10
254.7508979999999
 20
160.8929449999999
 30
0.0
 40
6.0
100
AcDbArc
 50
329.036
 51
0.000005
  0
ARC
  5
9854
330
95D5
100
AcDbEntity
  8
1
  6
Continuous
100
AcDbCircle
 10
262.7508979999999
 20
152.8461449999998
 30
0.0
 40
5.0
100
AcDbArc
 50
149.036
 51
180.0
  0
ARC
  5
9855
330
95D5
100
AcDbEntity
  8
1
  6
Continuous
100
AcDbCircle
 10
3116.578898
 20
203.231055
 30
0.0
 40
2785.0
100
AcDbArc
 50
178.678
 51
181.322
  0
ARC
  5
9856
330
95D5
100
AcDbEntity
  8
1
  6
Continuous
100
AcDbCircle
 10
343.819898
 20
267.2310449999999
 30
0.0
 40
11.5
100
AcDbArc
 50
90.0
 51
178.678
  0
ARC
  5
9857
330
95D5
100
AcDbEntity
  8
1
  6
Continuous
100
AcDbCircle
 10
388.342898
 20
267.2310449999999
 30
0.0
 40
11.5
100
AcDbArc
 50
1.322249999999999
 51
90.0
  0
ARC
  5
9858
330
95D5
100
AcDbEntity
  8
1
  6
Continuous
100
AcDbCircle
 10
-2384.421102
 20
203.231055
 30
0.0
 40
2785.0
100
AcDbArc
 50
1.163479999999998
 51
1.322249999999999
  0
CIRCLE
  5
9859
330
95D5
100
AcDbEntity
  8
1
  6
Continuous
100
AcDbCircle
 10
376.580898
 20
266.231045
 30
0.0
 40
5.0
  0
CIRCLE
  5
985A
330
95D5
100
AcDbEntity
  8
1
  6
Continuous
100
AcDbCircle
 10
356.5808979999998
 20
266.231045
 30
0.0
 40
5.0
  0
CIRCLE
  5
985B
330
95D5
100
AcDbEntity
  8
2
  6
Continuous
100
AcDbCircle
 10
356.5808979999998
 20
266.231045
 30
0.0
 40
3.0
  0
CIRCLE
  5
985C
330
95D5
100
AcDbEntity
  8
2
  6
Continuous
100
AcDbCircle
 10
376.580898
 20
266.231045
 30
0.0
 40
3.0
  0
CIRCLE
  5
985D
330
95D5
100
AcDbEntity
  8
1
  6
Continuous
100
AcDbCircle
 10
356.5808979999998
 20
266.231045
 30
0.0
 40
2.458499999999999
  0
CIRCLE
  5
985E
330
95D5
100
AcDbEntity
  8
1
  6
Continuous
100
AcDbCircle
 10
376.580898
 20
266.231045
 30
0.0
 40
2.458499999999999
  0
ARC
  5
985F
330
95D5
100
AcDbEntity
  8
1
  6
Continuous
100
AcDbCircle
 10
-2384.421102
 20
203.231055
 30
0.0
 40
2785.0
100
AcDbArc
 50
359.298
 51
0.7015510000000002
  0
ARC
  5
9860
330
95D5
100
AcDbEntity
  8
1
  6
Continuous
100
AcDbCircle
 10
122.960898
 20
267.7310449999998
 30
0.0
 40
2.5
100
AcDbArc
 50
90.0
 51
180.0
  0
ARC
  5
9861
330
95D5
100
AcDbEntity
  8
1
  6
Continuous
100
AcDbCircle
 10
141.360881
 20
267.7310449999998
 30
0.0
 40
2.5
100
AcDbArc
 50
0.0
 51
90.0
  0
ARC
  5
9862
330
95D5
100
AcDbEntity
  8
1
  6
Continuous
100
AcDbCircle
 10
122.960898
 20
138.7310449999999
 30
0.0
 40
2.5
100
AcDbArc
 50
180.0
 51
270.0
  0
ARC
  5
9863
330
95D5
100
AcDbEntity
  8
1
  6
Continuous
100
AcDbCircle
 10
141.360881
 20
138.7310449999999
 30
0.0
 40
2.5
100
AcDbArc
 50
270.0
 51
0.000005
  0
ARC
  5
9864
330
95D5
100
AcDbEntity
  8
1
  6
Continuous
100
AcDbCircle
 10
412.6488979999998
 20
254.5810449999999
 30
0.0
 40
2.6
100
AcDbArc
 50
270.0
 51
0.000005
  0
ARC
  5
9865
330
95D5
100
AcDbEntity
  8
1
  6
Continuous
100
AcDbCircle
 10
405.4528979999998
 20
272.9810449999998
 30
0.0
 40
2.6
100
AcDbArc
 50
90.0
 51
180.0
  0
ARC
  5
9866
330
95D5
100
AcDbEntity
  8
1
  6
Continuous
100
AcDbCircle
 10
-2384.421102
 20
203.231055
 30
0.0
 40
2782.0
100
AcDbArc
 50
0.8368020000000001
 51
0.980633
  0
ARC
  5
9867
330
95D5
100
AcDbEntity
  8
1
  6
Continuous
100
AcDbCircle
 10
390.5188979999999
 20
252.9810449999999
 30
0.0
 40
1.0
100
AcDbArc
 50
270.0
 51
0.000005
  0
ARC
  5
9868
330
95D5
100
AcDbEntity
  8
1
  6
Continuous
100
AcDbCircle
 10
395.932898
 20
252.9810449999999
 30
0.0
 40
1.0
100
AcDbArc
 50
270.0
 51
0.000005
  0
ARC
  5
9869
330
95D5
100
AcDbEntity
  8
1
  6
Continuous
100
AcDbCircle
 10
387.520898
 20
252.9810449999999
 30
0.0
 40
1.0
100
AcDbArc
 50
180.0
 51
270.0
  0
ARC
  5
986A
330
95D5
100
AcDbEntity
  8
1
  6
Continuous
100
AcDbCircle
 10
407.980898
 20
243.256045
 30
0.0
 40
0.65
100
AcDbArc
 50
270.0
 51
90.0
  0
ARC
  5
986B
330
95D5
100
AcDbEntity
  8
1
  6
Continuous
100
AcDbCircle
 10
407.980898
 20
247.156045
 30
0.0
 40
0.65
100
AcDbArc
 50
270.0
 51
90.0
  0
ARC
  5
986C
330
95D5
100
AcDbEntity
  8
1
  6
Continuous
100
AcDbCircle
 10
407.980898
 20
245.8560449999999
 30
0.0
 40
0.65
100
AcDbArc
 50
270.0
 51
90.0
  0
ARC
  5
986D
330
95D5
100
AcDbEntity
  8
1
  6
Continuous
100
AcDbCircle
 10
407.980898
 20
244.556045
 30
0.0
 40
0.65
100
AcDbArc
 50
270.0
 51
90.0
  0
ARC
  5
986E
330
95D5
100
AcDbEntity
  8
1
  6
Continuous
100
AcDbCircle
 10
407.980898
 20
251.056045
 30
0.0
 40
0.65
100
AcDbArc
 50
270.0
 51
90.0
  0
ARC
  5
986F
330
95D5
100
AcDbEntity
  8
1
  6
Continuous
100
AcDbCircle
 10
407.980898
 20
249.756045
 30
0.0
 40
0.65
100
AcDbArc
 50
270.0
 51
90.0
  0
ARC
  5
9870
330
95D5
100
AcDbEntity
  8
1
  6
Continuous
100
AcDbCircle
 10
407.980898
 20
248.456045
 30
0.0
 40
0.65
100
AcDbArc
 50
270.0
 51
90.0
  0
ARC
  5
9871
330
95D5
100
AcDbEntity
  8
1
  6
Continuous
100
AcDbCircle
 10
398.180898
 20
243.9060449999999
 30
0.0
 40
0.65
100
AcDbArc
 50
90.0
 51
270.0
  0
ARC
  5
9872
330
95D5
100
AcDbEntity
  8
1
  6
Continuous
100
AcDbCircle
 10
398.180898
 20
249.1060449999999
 30
0.0
 40
0.65
100
AcDbArc
 50
90.0
 51
270.0
  0
ARC
  5
9873
330
95D5
100
AcDbEntity
  8
1
  6
Continuous
100
AcDbCircle
 10
398.180898
 20
250.406045
 30
0.0
 40
0.65
100
AcDbArc
 50
140.134
 51
270.0
  0
ARC
  5
9874
330
95D5
100
AcDbEntity
  8
1
  6
Continuous
100
AcDbCircle
 10
398.180898
 20
247.806045
 30
0.0
 40
0.65
100
AcDbArc
 50
90.0
 51
270.0
  0
ARC
  5
9875
330
95D5
100
AcDbEntity
  8
1
  6
Continuous
100
AcDbCircle
 10
398.180898
 20
246.506045
 30
0.0
 40
0.65
100
AcDbArc
 50
90.0
 51
270.0
  0
ARC
  5
9876
330
95D5
100
AcDbEntity
  8
1
  6
Continuous
100
AcDbCircle
 10
398.180898
 20
245.2060449999999
 30
0.0
 40
0.65
100
AcDbArc
 50
90.0
 51
270.0
  0
ARC
  5
9877
330
95D5
100
AcDbEntity
  8
5
  6
PHANTOM
100
AcDbCircle
 10
109.856498
 20
333.467145
 30
0.0
 40
0.5
100
AcDbArc
 50
87.76399999999998
 51
225.7029999999998
  0
ARC
  5
9878
330
95D5
100
AcDbEntity
  8
5
  6
PHANTOM
100
AcDbCircle
 10
127.642498
 20
322.4751449999998
 30
0.0
 40
2.0
100
AcDbArc
 50
236.6719999999999
 51
69.6508
  0
ARC
  5
9879
330
95D5
100
AcDbEntity
  8
5
  6
PHANTOM
100
AcDbCircle
 10
108.8608979999999
 20
353.975145
 30
0.0
 40
22.0
100
AcDbArc
 50
296.3989999999999
 51
307.8999999999999
  0
ARC
  5
987A
330
95D5
100
AcDbEntity
  8
5
  6
PHANTOM
100
AcDbCircle
 10
108.8608979999999
 20
353.975145
 30
0.0
 40
32.0
100
AcDbArc
 50
306.307
 51
325.7709999999998
  0
ARC
  5
987B
330
95D5
100
AcDbEntity
  8
1
  6
Continuous
100
AcDbCircle
 10
127.9461979999999
 20
357.9751449999998
 30
0.0
 40
12.5
100
AcDbArc
 50
11.83699999999999
 51
90.0
  0
ARC
  5
987C
330
95D5
100
AcDbEntity
  8
5
  6
PHANTOM
100
AcDbCircle
 10
179.3453979999999
 20
404.6811449999998
 30
0.0
 40
100.0
100
AcDbArc
 50
225.7029999999998
 51
228.9519999999999
  0
ARC
  5
987D
330
95D5
100
AcDbEntity
  8
1
  6
Continuous
100
AcDbCircle
 10
123.959898
 20
356.5111449999998
 30
0.0
 40
0.65
100
AcDbArc
 50
215.87
 51
35.8701
  0
ARC
  5
987E
330
95D5
100
AcDbEntity
  8
1
  6
Continuous
100
AcDbCircle
 10
388.631898
 20
242.5241450000001
 30
0.0
 40
1.3
100
AcDbArc
 50
93.79470000000001
 51
180.0
  0
ARC
  5
987F
330
95D5
100
AcDbEntity
  8
1
  6
Continuous
100
AcDbCircle
 10
388.631898
 20
237.524145
 30
0.0
 40
1.3
100
AcDbArc
 50
180.0
 51
270.0
  0
ARC
  5
9880
330
95D5
100
AcDbEntity
  8
1
  6
Continuous
100
AcDbCircle
 10
388.631898
 20
252.4936449999999
 30
0.0
 40
1.3
100
AcDbArc
 50
203.2249999999999
 51
266.2049999999999
  0
ARC
  5
9881
330
95D5
100
AcDbEntity
  8
1
  6
Continuous
100
AcDbCircle
 10
388.631898
 20
258.690845
 30
0.0
 40
1.3
100
AcDbArc
 50
90.0
 51
180.0
  0
ARC
  5
9882
330
95D5
100
AcDbEntity
  8
1
  6
Continuous
100
AcDbCircle
 10
377.8508979999998
 20
266.231045
 30
0.0
 40
5.0
100
AcDbArc
 50
270.0
 51
90.0
  0
ARC
  5
9883
330
95D5
100
AcDbEntity
  8
1
  6
Continuous
100
AcDbCircle
 10
359.0808979999998
 20
266.231045
 30
0.0
 40
5.0
100
AcDbArc
 50
269.61
 51
90.39030000000003
  0
ARC
  5
9884
330
95D5
100
AcDbEntity
  8
1
  6
Continuous
100
AcDbCircle
 10
398.137898
 20
154.854645
 30
0.0
 40
0.65
100
AcDbArc
 50
90.0
 51
219.8659999999999
  0
ARC
  5
9885
330
95D5
100
AcDbEntity
  8
1
  6
Continuous
100
AcDbCircle
 10
388.631898
 20
168.9379449999998
 30
0.0
 40
1.3
100
AcDbArc
 50
90.0
 51
180.0
  0
ARC
  5
9886
330
95D5
100
AcDbEntity
  8
1
  6
Continuous
100
AcDbCircle
 10
388.631898
 20
152.7684449999999
 30
0.0
 40
1.3
100
AcDbArc
 50
93.79470000000001
 51
180.0
  0
ARC
  5
9887
330
95D5
100
AcDbEntity
  8
1
  6
Continuous
100
AcDbCircle
 10
398.180898
 20
157.4560449999999
 30
0.0
 40
0.65
100
AcDbArc
 50
90.0
 51
270.0
  0
ARC
  5
9888
330
95D5
100
AcDbEntity
  8
1
  6
Continuous
100
AcDbCircle
 10
343.819898
 20
139.2310449999999
 30
0.0
 40
11.5
100
AcDbArc
 50
181.322
 51
270.0
  0
ARC
  5
9889
330
95D5
100
AcDbEntity
  8
1
  6
Continuous
100
AcDbCircle
 10
388.342898
 20
139.2310449999999
 30
0.0
 40
11.5
100
AcDbArc
 50
270.0
 51
358.678
  0
ARC
  5
988A
330
95D5
100
AcDbEntity
  8
1
  6
Continuous
100
AcDbCircle
 10
-2384.421102
 20
203.231055
 30
0.0
 40
2785.0
100
AcDbArc
 50
358.678
 51
358.8369999999999
  0
CIRCLE
  5
988B
330
95D5
100
AcDbEntity
  8
1
  6
Continuous
100
AcDbCircle
 10
376.580898
 20
140.2310449999999
 30
0.0
 40
5.0
  0
CIRCLE
  5
988C
330
95D5
100
AcDbEntity
  8
1
  6
Continuous
100
AcDbCircle
 10
356.5808979999998
 20
140.2310449999999
 30
0.0
 40
5.0
  0
ARC
  5
988D
330
95D5
100
AcDbEntity
  8
1
  6
Continuous
100
AcDbCircle
 10
398.180898
 20
158.7560449999998
 30
0.0
 40
0.65
100
AcDbArc
 50
90.0
 51
270.0
  0
ARC
  5
988E
330
95D5
100
AcDbEntity
  8
1
  6
Continuous
100
AcDbCircle
 10
398.180898
 20
160.0560449999998
 30
0.0
 40
0.65
100
AcDbArc
 50
90.0
 51
270.0
  0
ARC
  5
988F
330
95D5
100
AcDbEntity
  8
1
  6
Continuous
100
AcDbCircle
 10
388.631898
 20
163.9379449999998
 30
0.0
 40
1.3
100
AcDbArc
 50
180.0
 51
266.2049999999999
  0
CIRCLE
  5
9890
330
95D5
100
AcDbEntity
  8
2
  6
Continuous
100
AcDbCircle
 10
356.5808979999998
 20
140.2310449999999
 30
0.0
 40
3.0
  0
CIRCLE
  5
9891
330
95D5
100
AcDbEntity
  8
2
  6
Continuous
100
AcDbCircle
 10
376.580898
 20
140.2310449999999
 30
0.0
 40
3.0
  0
CIRCLE
  5
9892
330
95D5
100
AcDbEntity
  8
1
  6
Continuous
100
AcDbCircle
 10
356.5808979999998
 20
140.2310449999999
 30
0.0
 40
2.458499999999999
  0
CIRCLE
  5
9893
330
95D5
100
AcDbEntity
  8
1
  6
Continuous
100
AcDbCircle
 10
376.580898
 20
140.2310449999999
 30
0.0
 40
2.458499999999999
  0
ARC
  5
9894
330
95D5
100
AcDbEntity
  8
1
  6
Continuous
100
AcDbCircle
 10
388.631898
 20
146.571245
 30
0.0
 40
1.3
100
AcDbArc
 50
180.0
 51
270.0
  0
ARC
  5
9895
330
95D5
100
AcDbEntity
  8
1
  6
Continuous
100
AcDbCircle
 10
377.8508979999998
 20
140.2310449999999
 30
0.0
 40
5.0
100
AcDbArc
 50
270.0
 51
90.0
  0
ARC
  5
9896
330
95D5
100
AcDbEntity
  8
1
  6
Continuous
100
AcDbCircle
 10
359.0808979999998
 20
140.2310449999999
 30
0.0
 40
5.0
100
AcDbArc
 50
269.61
 51
90.39030000000003
  0
ARC
  5
9897
330
95D5
100
AcDbEntity
  8
1
  6
Continuous
100
AcDbCircle
 10
407.980898
 20
162.0060449999998
 30
0.0
 40
0.65
100
AcDbArc
 50
270.0
 51
90.0
  0
ARC
  5
9898
330
95D5
100
AcDbEntity
  8
1
  6
Continuous
100
AcDbCircle
 10
407.980898
 20
158.106045
 30
0.0
 40
0.65
100
AcDbArc
 50
270.0
 51
90.0
  0
ARC
  5
9899
330
95D5
100
AcDbEntity
  8
1
  6
Continuous
100
AcDbCircle
 10
407.937898
 20
159.404645
 30
0.0
 40
0.65
100
AcDbArc
 50
270.0
 51
90.0
  0
ARC
  5
989A
330
95D5
100
AcDbEntity
  8
1
  6
Continuous
100
AcDbCircle
 10
407.980898
 20
160.7060449999998
 30
0.0
 40
0.65
100
AcDbArc
 50
270.0
 51
90.0
  0
ARC
  5
989B
330
95D5
100
AcDbEntity
  8
1
  6
Continuous
100
AcDbCircle
 10
407.980898
 20
154.2060449999999
 30
0.0
 40
0.65
100
AcDbArc
 50
270.0
 51
90.0
  0
ARC
  5
989C
330
95D5
100
AcDbEntity
  8
1
  6
Continuous
100
AcDbCircle
 10
407.980898
 20
155.506045
 30
0.0
 40
0.65
100
AcDbArc
 50
270.0
 51
90.0
  0
ARC
  5
989D
330
95D5
100
AcDbEntity
  8
1
  6
Continuous
100
AcDbCircle
 10
407.980898
 20
156.8060449999999
 30
0.0
 40
0.65
100
AcDbArc
 50
270.0
 51
90.0
  0
ARC
  5
989E
330
95D5
100
AcDbEntity
  8
1
  6
Continuous
100
AcDbCircle
 10
398.180898
 20
161.356045
 30
0.0
 40
0.65
100
AcDbArc
 50
90.0
 51
270.0
  0
ARC
  5
989F
330
95D5
100
AcDbEntity
  8
1
  6
Continuous
100
AcDbCircle
 10
398.137898
 20
156.1546449999999
 30
0.0
 40
0.65
100
AcDbArc
 50
90.0
 51
270.0
  0
ARC
  5
98A0
330
95D5
100
AcDbEntity
  8
1
  6
Continuous
100
AcDbCircle
 10
-2384.421102
 20
203.231055
 30
0.0
 40
2785.0
100
AcDbArc
 50
358.678
 51
358.8369999999999
  0
ARC
  5
98A1
330
95D5
100
AcDbEntity
  8
5
  6
PHANTOM
100
AcDbCircle
 10
105.5702979999998
 20
369.1961449999998
 30
0.0
 40
7.0
100
AcDbArc
 50
6.671549999999999
 51
186.672
  0
CIRCLE
  5
98A2
330
95D5
100
AcDbEntity
  8
5
  6
PHANTOM
100
AcDbCircle
 10
105.454098
 20
370.189145
 30
0.0
 40
4.0
  0
ARC
  5
98A3
330
95D5
100
AcDbEntity
  8
1
  6
Continuous
100
AcDbCircle
 10
401.9238979999998
 20
254.5810449999999
 30
0.0
 40
2.6
100
AcDbArc
 50
270.0
 51
0.000005
  0
ARC
  5
98A4
330
95D5
100
AcDbEntity
  8
1
  6
Continuous
100
AcDbCircle
 10
388.257898
 20
266.9081449999998
 30
0.0
 40
3.83426
100
AcDbArc
 50
0.0
 51
90.0
  0
ARC
  5
98A5
330
95D5
100
AcDbEntity
  8
1
  6
Continuous
100
AcDbCircle
 10
387.0588979999998
 20
266.297945
 30
0.0
 40
3.0
100
AcDbArc
 50
0.0
 51
90.0
  0
ARC
  5
98A6
330
95D5
100
AcDbEntity
  8
1
  6
Continuous
100
AcDbCircle
 10
366.5808979999998
 20
266.297945
 30
0.0
 40
3.0
100
AcDbArc
 50
0.0
 51
90.0
  0
ARC
  5
98A7
330
95D5
100
AcDbEntity
  8
1
  6
Continuous
100
AcDbCircle
 10
343.903898
 20
266.9081449999998
 30
0.0
 40
3.83426
100
AcDbArc
 50
90.0
 51
128.717
  0
CIRCLE
  5
98A8
330
95D5
100
AcDbEntity
  8
1
  6
Continuous
100
AcDbCircle
 10
390.647898
 20
259.340845
 30
0.0
 40
0.65
  0
ARC
  5
98A9
330
95D5
100
AcDbEntity
  8
1
  6
Continuous
100
AcDbCircle
 10
390.647898
 20
236.874145
 30
0.0
 40
0.6500020000000001
100
AcDbArc
 50
270.0
 51
90.0
  0
ARC
  5
98AA
330
95D5
100
AcDbEntity
  8
1
  6
Continuous
100
AcDbCircle
 10
387.0588979999998
 20
140.1641449999999
 30
0.0
 40
3.0
100
AcDbArc
 50
270.0
 51
0.000005
  0
ARC
  5
98AB
330
95D5
100
AcDbEntity
  8
1
  6
Continuous
100
AcDbCircle
 10
388.257898
 20
139.554045
 30
0.0
 40
3.83426
100
AcDbArc
 50
270.0
 51
0.000005
  0
ARC
  5
98AC
330
95D5
100
AcDbEntity
  8
1
  6
Continuous
100
AcDbCircle
 10
388.816898
 20
267.550745
 30
0.0
 40
5.0
100
AcDbArc
 50
0.0
 51
90.0
  0
ARC
  5
98AD
330
95D5
100
AcDbEntity
  8
1
  6
Continuous
100
AcDbCircle
 10
345.919898
 20
267.550745
 30
0.0
 40
5.0
100
AcDbArc
 50
90.0
 51
180.0
  0
ARC
  5
98AE
330
95D5
100
AcDbEntity
  8
1
  6
Continuous
100
AcDbCircle
 10
39.97089799999999
 20
149.620945
 30
0.0
 40
6.0
100
AcDbArc
 50
209.339
 51
234.162
  0
ARC
  5
98AF
330
95D5
100
AcDbEntity
  8
1
  6
Continuous
100
AcDbCircle
 10
386.9608979999999
 20
247.9662449999999
 30
0.0
 40
3.0
100
AcDbArc
 50
21.25509999999999
 51
71.7726
  0
ARC
  5
98B0
330
95D5
100
AcDbEntity
  8
1
  6
Continuous
100
AcDbCircle
 10
370.580898
 20
251.9662449999999
 30
0.0
 40
1.0
100
AcDbArc
 50
180.0
 51
270.0
  0
ARC
  5
98B1
330
95D5
100
AcDbEntity
  8
1
  6
Continuous
100
AcDbCircle
 10
345.919898
 20
138.9113449999999
 30
0.0
 40
5.0
100
AcDbArc
 50
180.0
 51
270.0
  0
ARC
  5
98B2
330
95D5
100
AcDbEntity
  8
1
  6
Continuous
100
AcDbCircle
 10
345.919898
 20
138.9113449999999
 30
0.0
 40
5.0
100
AcDbArc
 50
180.0
 51
270.0
  0
ARC
  5
98B3
330
95D5
100
AcDbEntity
  8
1
  6
Continuous
100
AcDbCircle
 10
388.816898
 20
138.9113449999999
 30
0.0
 40
5.0
100
AcDbArc
 50
270.0
 51
0.000005
  0
ARC
  5
98B4
330
95D5
100
AcDbEntity
  8
1
  6
Continuous
100
AcDbCircle
 10
343.903898
 20
139.554045
 30
0.0
 40
3.83426
100
AcDbArc
 50
231.2829999999999
 51
270.0
  0
ARC
  5
98B5
330
95D5
100
AcDbEntity
  8
1
  6
Continuous
100
AcDbCircle
 10
366.5808979999998
 20
140.1641449999999
 30
0.0
 40
3.0
100
AcDbArc
 50
270.0
 51
0.000005
  0
ARC
  5
98B6
330
95D5
100
AcDbEntity
  8
1
  6
Continuous
100
AcDbCircle
 10
370.580898
 20
154.495845
 30
0.0
 40
1.0
100
AcDbArc
 50
90.0
 51
180.0
  0
ARC
  5
98B7
330
95D5
100
AcDbEntity
  8
1
  6
Continuous
100
AcDbCircle
 10
386.9608979999999
 20
158.495845
 30
0.0
 40
3.0
100
AcDbArc
 50
288.2269999999999
 51
338.745
  0
ARC
  5
98B8
330
95D5
100
AcDbEntity
  8
1
  6
Continuous
100
AcDbCircle
 10
31.070898
 20
161.356045
 30
0.0
 40
0.65
100
AcDbArc
 50
90.0
 51
270.0
  0
ARC
  5
98B9
330
95D5
100
AcDbEntity
  8
1
  6
Continuous
100
AcDbCircle
 10
31.19989799999999
 20
153.5603449999999
 30
0.0
 40
0.65
100
AcDbArc
 50
90.0
 51
270.0
  0
ARC
  5
98BA
330
95D5
100
AcDbEntity
  8
1
  6
Continuous
100
AcDbCircle
 10
40.870898
 20
160.7060449999998
 30
0.0
 40
0.65
100
AcDbArc
 50
270.0
 51
90.0
  0
ARC
  5
98BB
330
95D5
100
AcDbEntity
  8
1
  6
Continuous
100
AcDbCircle
 10
40.870898
 20
156.8060449999999
 30
0.0
 40
0.65
100
AcDbArc
 50
270.0
 51
90.0
  0
ARC
  5
98BC
330
95D5
100
AcDbEntity
  8
1
  6
Continuous
100
AcDbCircle
 10
40.870898
 20
155.506045
 30
0.0
 40
0.65
100
AcDbArc
 50
270.0
 51
90.0
  0
ARC
  5
98BD
330
95D5
100
AcDbEntity
  8
1
  6
Continuous
100
AcDbCircle
 10
40.870898
 20
154.2060449999999
 30
0.0
 40
0.65
100
AcDbArc
 50
270.0
 51
90.0
  0
ARC
  5
98BE
330
95D5
100
AcDbEntity
  8
1
  6
Continuous
100
AcDbCircle
 10
40.870898
 20
242.8560449999999
 30
0.0
 40
0.65
100
AcDbArc
 50
270.0
 51
90.0
  0
ARC
  5
98BF
330
95D5
100
AcDbEntity
  8
1
  6
Continuous
100
AcDbCircle
 10
40.870898
 20
246.756045
 30
0.0
 40
0.65
100
AcDbArc
 50
270.0
 51
90.0
  0
ARC
  5
98C0
330
95D5
100
AcDbEntity
  8
1
  6
Continuous
100
AcDbCircle
 10
40.870898
 20
245.4560449999999
 30
0.0
 40
0.65
100
AcDbArc
 50
270.0
 51
90.0
  0
ARC
  5
98C1
330
95D5
100
AcDbEntity
  8
1
  6
Continuous
100
AcDbCircle
 10
40.870898
 20
244.156045
 30
0.0
 40
0.65
100
AcDbArc
 50
270.0
 51
90.0
  0
ARC
  5
98C2
330
95D5
100
AcDbEntity
  8
1
  6
Continuous
100
AcDbCircle
 10
40.870898
 20
250.656045
 30
0.0
 40
0.65
100
AcDbArc
 50
270.0
 51
90.0
  0
ARC
  5
98C3
330
95D5
100
AcDbEntity
  8
1
  6
Continuous
100
AcDbCircle
 10
40.870898
 20
249.3560449999999
 30
0.0
 40
0.65
100
AcDbArc
 50
270.0
 51
90.0
  0
ARC
  5
98C4
330
95D5
100
AcDbEntity
  8
1
  6
Continuous
100
AcDbCircle
 10
40.870898
 20
248.056045
 30
0.0
 40
0.65
100
AcDbArc
 50
270.0
 51
90.0
  0
ARC
  5
98C5
330
95D5
100
AcDbEntity
  8
1
  6
Continuous
100
AcDbCircle
 10
31.070898
 20
243.506045
 30
0.0
 40
0.65
100
AcDbArc
 50
90.0
 51
270.0
  0
ARC
  5
98C6
330
95D5
100
AcDbEntity
  8
1
  6
Continuous
100
AcDbCircle
 10
31.070898
 20
248.7060449999999
 30
0.0
 40
0.65
100
AcDbArc
 50
90.0
 51
270.0
  0
ARC
  5
98C7
330
95D5
100
AcDbEntity
  8
1
  6
Continuous
100
AcDbCircle
 10
31.070898
 20
250.006045
 30
0.0
 40
0.65
100
AcDbArc
 50
86.20529999999998
 51
271.573
  0
ARC
  5
98C8
330
95D5
100
AcDbEntity
  8
1
  6
Continuous
100
AcDbCircle
 10
31.070898
 20
247.406045
 30
0.0
 40
0.65
100
AcDbArc
 50
90.0
 51
270.0
  0
ARC
  5
98C9
330
95D5
100
AcDbEntity
  8
1
  6
Continuous
100
AcDbCircle
 10
31.070898
 20
246.106045
 30
0.0
 40
0.65
100
AcDbArc
 50
90.0
 51
270.0
  0
ARC
  5
98CA
330
95D5
100
AcDbEntity
  8
1
  6
Continuous
100
AcDbCircle
 10
31.070898
 20
244.806045
 30
0.0
 40
0.65
100
AcDbArc
 50
90.0
 51
270.0
  0
ARC
  5
98CB
330
95D5
100
AcDbEntity
  8
1
  6
Continuous
100
AcDbCircle
 10
31.156898
 20
154.858945
 30
0.0
 40
0.65
100
AcDbArc
 50
90.0
 51
270.0
  0
ARC
  5
98CC
330
95D5
100
AcDbEntity
  8
1
  6
Continuous
100
AcDbCircle
 10
40.913998
 20
159.4074449999999
 30
0.0
 40
0.65
100
AcDbArc
 50
270.0
 51
90.0
  0
ARC
  5
98CD
330
95D5
100
AcDbEntity
  8
1
  6
Continuous
100
AcDbCircle
 10
31.070898
 20
158.7560449999998
 30
0.0
 40
0.65
100
AcDbArc
 50
90.0
 51
270.0
  0
ARC
  5
98CE
330
95D5
100
AcDbEntity
  8
1
  6
Continuous
100
AcDbCircle
 10
31.070898
 20
160.0560449999998
 30
0.0
 40
0.65
100
AcDbArc
 50
90.0
 51
270.0
  0
ARC
  5
98CF
330
95D5
100
AcDbEntity
  8
1
  6
Continuous
100
AcDbCircle
 10
40.870898
 20
162.0060449999998
 30
0.0
 40
0.65
100
AcDbArc
 50
270.0
 51
90.0
  0
ARC
  5
98D0
330
95D5
100
AcDbEntity
  8
1
  6
Continuous
100
AcDbCircle
 10
40.870898
 20
158.106045
 30
0.0
 40
0.65
100
AcDbArc
 50
270.0
 51
90.0
  0
ARC
  5
98D1
330
95D5
100
AcDbEntity
  8
1
  6
Continuous
100
AcDbCircle
 10
34.08489799999999
 20
272.9810449999998
 30
0.0
 40
2.6
100
AcDbArc
 50
0.0
 51
90.0
  0
ARC
  5
98D2
330
95D5
100
AcDbEntity
  8
1
  6
Continuous
100
AcDbCircle
 10
28.294898
 20
254.5810449999999
 30
0.0
 40
2.6
100
AcDbArc
 50
180.0
 51
270.0
  0
ARC
  5
98D3
330
95D5
100
AcDbEntity
  8
1
  6
Continuous
100
AcDbCircle
 10
22.031898
 20
254.5810449999999
 30
0.0
 40
2.6
100
AcDbArc
 50
180.0
 51
270.0
  0
ARC
  5
98D4
330
95D5
100
AcDbEntity
  8
1
  6
Continuous
100
AcDbCircle
 10
19.446898
 20
254.5810449999999
 30
0.0
 40
2.6
100
AcDbArc
 50
180.0
 51
270.0
  0
ARC
  5
98D5
330
95D5
100
AcDbEntity
  8
1
  6
Continuous
100
AcDbCircle
 10
37.29389799999999
 20
254.5810449999999
 30
0.0
 40
2.6
100
AcDbArc
 50
180.0
 51
270.0
  0
ARC
  5
98D6
330
95D5
100
AcDbEntity
  8
1
  6
Continuous
100
AcDbCircle
 10
40.970998
 20
252.107545
 30
0.0
 40
1.3
100
AcDbArc
 50
294.365
 51
0.000005
  0
ARC
  5
98D7
330
95D5
100
AcDbEntity
  8
1
  6
Continuous
100
AcDbCircle
 10
31.069898
 20
251.307545
 30
0.0
 40
0.6485750000000003
100
AcDbArc
 50
86.20529999999998
 51
266.2049999999999
  0
ARC
  5
98D8
330
95D5
100
AcDbEntity
  8
1
  6
Continuous
100
AcDbCircle
 10
27.970898
 20
242.3310449999999
 30
0.0
 40
1.3
100
AcDbArc
 50
90.0
 51
180.0
  0
ARC
  5
98D9
330
95D5
100
AcDbEntity
  8
1
  6
Continuous
100
AcDbCircle
 10
27.970898
 20
237.3310449999999
 30
0.0
 40
1.3
100
AcDbArc
 50
180.0
 51
270.0
  0
ARC
  5
98DA
330
95D5
100
AcDbEntity
  8
1
  6
Continuous
100
AcDbCircle
 10
251.750898
 20
149.620945
 30
0.0
 40
6.0
100
AcDbArc
 50
305.8379999999999
 51
0.0
  0
ARC
  5
98DB
330
95D5
100
AcDbEntity
  8
1
  6
Continuous
100
AcDbCircle
 10
31.11389799999999
 20
156.1574449999999
 30
0.0
 40
0.65
100
AcDbArc
 50
90.0
 51
270.0
  0
ARC
  5
98DC
330
95D5
100
AcDbEntity
  8
1
  6
Continuous
100
AcDbCircle
 10
31.070898
 20
157.4560449999999
 30
0.0
 40
0.65
100
AcDbArc
 50
90.0
 51
270.0
  0
ARC
  5
98DD
330
95D5
100
AcDbEntity
  8
1
  6
Continuous
100
AcDbCircle
 10
40.970998
 20
152.7712449999999
 30
0.0
 40
1.3
100
AcDbArc
 50
0.0
 51
67.12909999999999
  0
ARC
  5
98DE
330
95D5
100
AcDbEntity
  8
1
  6
Continuous
100
AcDbCircle
 10
40.970998
 20
145.2712449999999
 30
0.0
 40
1.3
100
AcDbArc
 50
270.0
 51
0.000005
  0
ARC
  5
98DF
330
95D5
100
AcDbEntity
  8
1
  6
Continuous
100
AcDbCircle
 10
27.970898
 20
163.5102449999999
 30
0.0
 40
1.3
100
AcDbArc
 50
180.0
 51
266.2049999999999
  0
ARC
  5
98E0
330
95D5
100
AcDbEntity
  8
1
  6
Continuous
100
AcDbCircle
 10
27.970898
 20
168.510245
 30
0.0
 40
1.3
100
AcDbArc
 50
90.0
 51
180.0
  0
ARC
  5
98E1
330
95D5
100
AcDbEntity
  8
1
  6
Continuous
100
AcDbCircle
 10
251.750898
 20
256.8411449999999
 30
0.0
 40
6.0
100
AcDbArc
 50
0.0
 51
54.1623
  0
ARC
  5
98E2
330
95D5
100
AcDbEntity
  8
1
  6
Continuous
100
AcDbCircle
 10
239.6766979999999
 20
273.025345
 30
0.0
 40
1.5
100
AcDbArc
 50
149.036
 51
180.0
  0
ARC
  5
98E3
330
95D5
100
AcDbEntity
  8
1
  6
Continuous
100
AcDbCircle
 10
239.6766979999999
 20
133.436745
 30
0.0
 40
1.5
100
AcDbArc
 50
180.0
 51
210.964
  0
ARC
  5
98E4
330
95D5
100
AcDbEntity
  8
1
  6
Continuous
100
AcDbCircle
 10
52.045098
 20
273.025345
 30
0.0
 40
1.5
100
AcDbArc
 50
0.0
 51
30.9638
  0
ARC
  5
98E5
330
95D5
100
AcDbEntity
  8
1
  6
Continuous
100
AcDbCircle
 10
52.045098
 20
133.436745
 30
0.0
 40
1.5
100
AcDbArc
 50
329.036
 51
0.000005
  0
ARC
  5
98E6
330
95D5
100
AcDbEntity
  8
1
  6
Continuous
100
AcDbCircle
 10
174.7467979999999
 20
338.158145
 30
0.0
 40
1.5
100
AcDbArc
 50
270.0
 51
298.3690000000001
  0
ARC
  5
98E7
330
95D5
100
AcDbEntity
  8
1
  6
Continuous
100
AcDbCircle
 10
116.974898
 20
338.158145
 30
0.0
 40
1.5
100
AcDbArc
 50
241.6309999999999
 51
270.0
  0
ARC
  5
98E8
330
95D5
100
AcDbEntity
  8
1
  6
Continuous
100
AcDbCircle
 10
103.960898
 20
246.106045
 30
0.0
 40
0.65
100
AcDbArc
 50
90.0
 51
270.0
  0
ARC
  5
98E9
330
95D5
100
AcDbEntity
  8
1
  6
Continuous
100
AcDbCircle
 10
103.960898
 20
247.406045
 30
0.0
 40
0.65
100
AcDbArc
 50
90.0
 51
270.0
  0
ARC
  5
98EA
330
95D5
100
AcDbEntity
  8
1
  6
Continuous
100
AcDbCircle
 10
103.960898
 20
251.306045
 30
0.0
 40
0.65
100
AcDbArc
 50
86.20529999999998
 51
270.0
  0
ARC
  5
98EB
330
95D5
100
AcDbEntity
  8
1
  6
Continuous
100
AcDbCircle
 10
103.960898
 20
248.7060449999999
 30
0.0
 40
0.65
100
AcDbArc
 50
90.0
 51
270.0
  0
ARC
  5
98EC
330
95D5
100
AcDbEntity
  8
1
  6
Continuous
100
AcDbCircle
 10
103.960898
 20
243.506045
 30
0.0
 40
0.65
100
AcDbArc
 50
90.0
 51
270.0
  0
ARC
  5
98ED
330
95D5
100
AcDbEntity
  8
1
  6
Continuous
100
AcDbCircle
 10
103.960898
 20
244.806045
 30
0.0
 40
0.65
100
AcDbArc
 50
90.0
 51
270.0
  0
ARC
  5
98EE
330
95D5
100
AcDbEntity
  8
1
  6
Continuous
100
AcDbCircle
 10
99.292998
 20
254.5810449999999
 30
0.0
 40
2.6
100
AcDbArc
 50
180.0
 51
270.0
  0
ARC
  5
98EF
330
95D5
100
AcDbEntity
  8
1
  6
Continuous
100
AcDbCircle
 10
106.4887979999999
 20
272.9810449999998
 30
0.0
 40
2.6
100
AcDbArc
 50
0.0
 51
90.0
  0
ARC
  5
98F0
330
95D5
100
AcDbEntity
  8
1
  6
Continuous
100
AcDbCircle
 10
95.764198
 20
272.9810449999998
 30
0.0
 40
2.6
100
AcDbArc
 50
0.0
 51
90.0
  0
ARC
  5
98F1
330
95D5
100
AcDbEntity
  8
1
  6
Continuous
100
AcDbCircle
 10
103.960898
 20
250.006045
 30
0.0
 40
0.65
100
AcDbArc
 50
86.20529999999998
 51
270.0
  0
ARC
  5
98F2
330
95D5
100
AcDbEntity
  8
1
  6
Continuous
100
AcDbCircle
 10
103.960898
 20
154.5560449999999
 30
0.0
 40
0.65
100
AcDbArc
 50
90.0
 51
273.795
  0
ARC
  5
98F3
330
95D5
100
AcDbEntity
  8
1
  6
Continuous
100
AcDbCircle
 10
103.960898
 20
155.8560449999999
 30
0.0
 40
0.65
100
AcDbArc
 50
90.0
 51
273.795
  0
ARC
  5
98F4
330
95D5
100
AcDbEntity
  8
1
  6
Continuous
100
AcDbCircle
 10
103.960898
 20
157.1560449999998
 30
0.0
 40
0.65
100
AcDbArc
 50
90.0
 51
270.0
  0
ARC
  5
98F5
330
95D5
100
AcDbEntity
  8
1
  6
Continuous
100
AcDbCircle
 10
103.960898
 20
158.4560449999998
 30
0.0
 40
0.65
100
AcDbArc
 50
90.0
 51
270.0
  0
ARC
  5
98F6
330
95D5
100
AcDbEntity
  8
1
  6
Continuous
100
AcDbCircle
 10
103.960898
 20
159.756045
 30
0.0
 40
0.65
100
AcDbArc
 50
90.0
 51
270.0
  0
ARC
  5
98F7
330
95D5
100
AcDbEntity
  8
1
  6
Continuous
100
AcDbCircle
 10
103.960898
 20
161.0560449999999
 30
0.0
 40
0.65
100
AcDbArc
 50
90.0
 51
270.0
  0
ARC
  5
98F8
330
95D5
100
AcDbEntity
  8
1
  6
Continuous
100
AcDbCircle
 10
103.960898
 20
162.356045
 30
0.0
 40
0.65
100
AcDbArc
 50
90.0
 51
270.0
  0
ARC
  5
98F9
330
95D5
100
AcDbEntity
  8
1
  6
Continuous
100
AcDbCircle
 10
263.750898
 20
237.3310449999999
 30
0.0
 40
1.3
100
AcDbArc
 50
270.0
 51
0.0
  0
ARC
  5
98FA
330
95D5
100
AcDbEntity
  8
1
  6
Continuous
100
AcDbCircle
 10
272.2748979999999
 20
254.5810449999999
 30
0.0
 40
2.6
100
AcDbArc
 50
270.0
 51
0.0
  0
ARC
  5
98FB
330
95D5
100
AcDbEntity
  8
1
  6
Continuous
100
AcDbCircle
 10
263.750898
 20
242.3310449999999
 30
0.0
 40
1.3
100
AcDbArc
 50
0.0
 51
90.0
  0
ARC
  5
98FC
330
95D5
100
AcDbEntity
  8
1
  6
Continuous
100
AcDbCircle
 10
257.6368979999999
 20
272.9810449999998
 30
0.0
 40
2.6
100
AcDbArc
 50
90.0
 51
180.0
  0
ARC
  5
98FD
330
95D5
100
AcDbEntity
  8
1
  6
Continuous
100
AcDbCircle
 10
266.955898
 20
272.9810449999998
 30
0.0
 40
2.6
100
AcDbArc
 50
90.0
 51
180.0
  0
ARC
  5
98FE
330
95D5
100
AcDbEntity
  8
1
  6
Continuous
100
AcDbCircle
 10
264.421898
 20
254.5810449999999
 30
0.0
 40
2.6
100
AcDbArc
 50
180.0
 51
270.0
  0
ARC
  5
98FF
330
95D5
100
AcDbEntity
  8
1
  6
Continuous
100
AcDbCircle
 10
267.0068979999999
 20
254.5810449999999
 30
0.0
 40
2.6
100
AcDbArc
 50
180.0
 51
270.0
  0
ARC
  5
9900
330
95D5
100
AcDbEntity
  8
1
  6
Continuous
100
AcDbCircle
 10
260.650898
 20
250.656045
 30
0.0
 40
0.65
100
AcDbArc
 50
270.0
 51
90.0
  0
ARC
  5
9901
330
95D5
100
AcDbEntity
  8
1
  6
Continuous
100
AcDbCircle
 10
260.650898
 20
249.3560449999999
 30
0.0
 40
0.65
100
AcDbArc
 50
270.0
 51
90.0
  0
ARC
  5
9902
330
95D5
100
AcDbEntity
  8
1
  6
Continuous
100
AcDbCircle
 10
260.650898
 20
248.056045
 30
0.0
 40
0.65
100
AcDbArc
 50
270.0
 51
90.0
  0
ARC
  5
9903
330
95D5
100
AcDbEntity
  8
1
  6
Continuous
100
AcDbCircle
 10
260.650898
 20
246.756045
 30
0.0
 40
0.65
100
AcDbArc
 50
270.0
 51
106.075
  0
ARC
  5
9904
330
95D5
100
AcDbEntity
  8
1
  6
Continuous
100
AcDbCircle
 10
260.650898
 20
245.4560449999999
 30
0.0
 40
0.65
100
AcDbArc
 50
278.85
 51
90.0
  0
ARC
  5
9905
330
95D5
100
AcDbEntity
  8
1
  6
Continuous
100
AcDbCircle
 10
260.650898
 20
244.156045
 30
0.0
 40
0.65
100
AcDbArc
 50
306.129
 51
81.14960000000001
  0
ARC
  5
9906
330
95D5
100
AcDbEntity
  8
1
  6
Continuous
100
AcDbCircle
 10
260.650898
 20
154.406045
 30
0.0
 40
0.65
100
AcDbArc
 50
270.0
 51
90.0
  0
ARC
  5
9907
330
95D5
100
AcDbEntity
  8
1
  6
Continuous
100
AcDbCircle
 10
260.650898
 20
157.0060449999998
 30
0.0
 40
0.65
100
AcDbArc
 50
270.0
 51
90.0
  0
ARC
  5
9908
330
95D5
100
AcDbEntity
  8
1
  6
Continuous
100
AcDbCircle
 10
260.650898
 20
158.3060449999998
 30
0.0
 40
0.65
100
AcDbArc
 50
270.0
 51
90.0
  0
ARC
  5
9909
330
95D5
100
AcDbEntity
  8
1
  6
Continuous
100
AcDbCircle
 10
260.650898
 20
155.7060449999999
 30
0.0
 40
0.65
100
AcDbArc
 50
270.0
 51
90.0
  0
ARC
  5
990A
330
95D5
100
AcDbEntity
  8
1
  6
Continuous
100
AcDbCircle
 10
260.650898
 20
159.6060449999999
 30
0.0
 40
0.65
100
AcDbArc
 50
270.0
 51
84.19439999999999
  0
ARC
  5
990B
330
95D5
100
AcDbEntity
  8
1
  6
Continuous
100
AcDbCircle
 10
260.650898
 20
160.906045
 30
0.0
 40
0.65
100
AcDbArc
 50
275.869
 51
81.14960000000001
  0
ARC
  5
990C
330
95D5
100
AcDbEntity
  8
1
  6
Continuous
100
AcDbCircle
 10
263.750898
 20
164.1310449999998
 30
0.0
 40
1.3
100
AcDbArc
 50
270.0
 51
0.000005
  0
ARC
  5
990D
330
95D5
100
AcDbEntity
  8
1
  6
Continuous
100
AcDbCircle
 10
263.750898
 20
169.131045
 30
0.0
 40
1.3
100
AcDbArc
 50
0.0
 51
90.0
  0
ARC
  5
990E
330
95D5
100
AcDbEntity
  8
1
  6
Continuous
100
AcDbCircle
 10
145.411128
 20
68.48714499999998
 30
0.0
 40
21.0
100
AcDbArc
 50
270.0
 51
276.356
  0
ARC
  5
990F
330
95D5
100
AcDbEntity
  8
1
  6
Continuous
100
AcDbCircle
 10
135.197568
 20
58.48714499999999
 30
0.0
 40
11.0
100
AcDbArc
 50
205.2779999999999
 51
244.741
  0
CIRCLE
  5
9910
330
95D5
100
AcDbEntity
  8
1
  6
Continuous
100
AcDbCircle
 10
108.8608979999999
 20
52.487145
 30
0.0
 40
3.1
  0
ARC
  5
9911
330
95D5
100
AcDbEntity
  8
1
  6
Continuous
100
AcDbCircle
 10
108.8608979999999
 20
52.487145
 30
0.0
 40
5.0
100
AcDbArc
 50
55.3611
 51
227.3499999999999
  0
ARC
  5
9912
330
95D5
100
AcDbEntity
  8
1
  6
Continuous
100
AcDbCircle
 10
123.2112979999999
 20
64.487145
 30
0.0
 40
10.0
100
AcDbArc
 50
256.595
 51
270.0
  0
ARC
  5
9913
330
95D5
100
AcDbEntity
  8
1
  6
Continuous
100
AcDbCircle
 10
154.665098
 20
56.487145
 30
0.0
 40
6.0
100
AcDbArc
 50
298.5069999999998
 51
315.807
  0
ARC
  5
9914
330
95D5
100
AcDbEntity
  8
1
  6
Continuous
100
AcDbCircle
 10
154.0663979999999
 20
61.451145
 30
0.0
 40
11.0
100
AcDbArc
 50
192.3389999999999
 51
226.7569999999998
  0
ARC
  5
9915
330
95D5
100
AcDbEntity
  8
1
  6
Continuous
100
AcDbCircle
 10
150.050368
 20
59.826145
 30
0.0
 40
6.66136
100
AcDbArc
 50
8.5
 51
38.65959999999999
  0
ARC
  5
9916
330
95D5
100
AcDbEntity
  8
1
  6
Continuous
100
AcDbCircle
 10
151.941098
 20
60.10814499999999
 30
0.0
 40
6.66136
100
AcDbArc
 50
144.39
 51
194.8892919999998
  0
ARC
  5
9917
330
95D5
100
AcDbEntity
  8
1
  6
Continuous
100
AcDbCircle
 10
141.860878
 20
68.48714499999998
 30
0.0
 40
2.0
100
AcDbArc
 50
41.1798
 51
90.0
  0
ARC
  5
9918
330
95D5
100
AcDbEntity
  8
1
  6
Continuous
100
AcDbCircle
 10
108.8608979999999
 20
52.487145
 30
0.0
 40
22.0
100
AcDbArc
 50
345.92
 51
6.025339999999999
  0
ARC
  5
9919
330
95D5
100
AcDbEntity
  8
1
  6
Continuous
100
AcDbCircle
 10
108.8608979999999
 20
52.487145
 30
0.0
 40
32.0
100
AcDbArc
 50
348.163
 51
13.7085
  0
ARC
  5
991A
330
95D5
100
AcDbEntity
  8
1
  6
Continuous
100
AcDbCircle
 10
127.9461979999999
 20
48.48714499999999
 30
0.0
 40
12.5
100
AcDbArc
 50
270.0
 51
348.163
  0
ARC
  5
991B
330
95D5
100
AcDbEntity
  8
1
  6
Continuous
100
AcDbCircle
 10
139.8931739999998
 20
-28.606855
 30
0.0
 40
100.0
100
AcDbArc
 50
97.7195
 51
100.2289999999999
  0
ARC
  5
991C
330
95D5
100
AcDbEntity
  8
1
  6
Continuous
100
AcDbCircle
 10
123.959898
 20
49.95014499999999
 30
0.0
 40
0.65
100
AcDbArc
 50
324.1299999999998
 51
144.13
  0
ARC
  5
991D
330
95D5
100
AcDbEntity
  8
1
  6
Continuous
100
AcDbCircle
 10
97.74859800000001
 20
41.57714499999999
 30
0.0
 40
7.0
100
AcDbArc
 50
140.0
 51
320.0
  0
CIRCLE
  5
991E
330
95D5
100
AcDbEntity
  8
1
  6
Continuous
100
AcDbCircle
 10
97.10579799999999
 20
40.811145
 30
0.0
 40
4.0
  0
ARC
  5
991F
330
95D5
100
AcDbEntity
  8
1
  6
Continuous
100
AcDbCircle
 10
174.7467979999999
 20
68.30414499999999
 30
0.0
 40
1.5
100
AcDbArc
 50
61.63089999999999
 51
90.0
  0
ARC
  5
9920
330
95D5
100
AcDbEntity
  8
1
  6
Continuous
100
AcDbCircle
 10
116.974898
 20
68.30414499999999
 30
0.0
 40
1.5
100
AcDbArc
 50
90.0
 51
118.369
  0
ARC
  5
9921
330
95D5
100
AcDbEntity
  8
1
  6
Continuous
100
AcDbCircle
 10
108.8608979999999
 20
353.975145
 30
0.0
 40
32.0
100
AcDbArc
 50
346.2909999999998
 51
11.83699999999999
  0
ARC
  5
9922
330
95D5
100
AcDbEntity
  8
1
  6
Continuous
100
AcDbCircle
 10
141.860878
 20
337.975145
 30
0.0
 40
2.0
100
AcDbArc
 50
270.0
 51
318.82
  0
ARC
  5
9923
330
95D5
100
AcDbEntity
  8
1
  6
Continuous
100
AcDbCircle
 10
139.8931739999998
 20
435.069145
 30
0.0
 40
100.0
100
AcDbArc
 50
259.7709999999998
 51
262.2799999999999
  0
ARC
  5
9924
330
95D5
100
AcDbEntity
  8
1
  6
Continuous
100
AcDbCircle
 10
108.8608979999999
 20
353.975145
 30
0.0
 40
22.0
100
AcDbArc
 50
353.975
 51
14.0796
  0
CIRCLE
  5
9925
330
95D5
100
AcDbEntity
  8
1
  6
Continuous
100
AcDbCircle
 10
97.10579799999999
 20
365.6511449999999
 30
0.0
 40
4.0
  0
ARC
  5
9926
330
95D5
100
AcDbEntity
  8
5
  6
PHANTOM
100
AcDbCircle
 10
110.784498
 20
353.946145
 30
0.0
 40
20.0
100
AcDbArc
 50
274.335
 51
300.189
  0
ARC
  5
9927
330
95D5
100
AcDbEntity
  8
5
  6
PHANTOM
100
AcDbCircle
 10
110.784498
 20
353.946145
 30
0.0
 40
21.2
100
AcDbArc
 50
278.357
 51
291.721
  0
ARC
  5
9928
330
95D5
100
AcDbEntity
  8
5
  6
PHANTOM
100
AcDbCircle
 10
109.856498
 20
72.99514499999998
 30
0.0
 40
0.5
100
AcDbArc
 50
134.2969999999999
 51
272.236
  0
ARC
  5
9929
330
95D5
100
AcDbEntity
  8
5
  6
PHANTOM
100
AcDbCircle
 10
127.642498
 20
83.987145
 30
0.0
 40
2.0
100
AcDbArc
 50
290.349
 51
123.3279999999999
  0
ARC
  5
992A
330
95D5
100
AcDbEntity
  8
5
  6
PHANTOM
100
AcDbCircle
 10
108.8608979999999
 20
52.487145
 30
0.0
 40
22.0
100
AcDbArc
 50
52.1001
 51
63.6011
  0
ARC
  5
992B
330
95D5
100
AcDbEntity
  8
5
  6
PHANTOM
100
AcDbCircle
 10
108.8608979999999
 20
52.487145
 30
0.0
 40
32.0
100
AcDbArc
 50
34.22890000000001
 51
53.6926
  0
ARC
  5
992C
330
95D5
100
AcDbEntity
  8
5
  6
PHANTOM
100
AcDbCircle
 10
179.3453979999999
 20
1.780145
 30
0.0
 40
100.0
100
AcDbArc
 50
131.048
 51
134.2969999999999
  0
ARC
  5
992D
330
95D5
100
AcDbEntity
  8
5
  6
PHANTOM
100
AcDbCircle
 10
105.5702979999998
 20
37.266145
 30
0.0
 40
7.0
100
AcDbArc
 50
173.328
 51
353.3279999999999
  0
CIRCLE
  5
992E
330
95D5
100
AcDbEntity
  8
5
  6
PHANTOM
100
AcDbCircle
 10
105.454098
 20
36.273145
 30
0.0
 40
4.0
  0
ARC
  5
992F
330
95D5
100
AcDbEntity
  8
5
  6
PHANTOM
100
AcDbCircle
 10
110.784498
 20
52.51614499999998
 30
0.0
 40
20.0
100
AcDbArc
 50
59.8108
 51
85.66509999999999
  0
ARC
  5
9930
330
95D5
100
AcDbEntity
  8
5
  6
PHANTOM
100
AcDbCircle
 10
110.784498
 20
52.51614499999998
 30
0.0
 40
21.2
100
AcDbArc
 50
68.2787
 51
81.64289999999999
  0
ARC
  5
9931
330
95D5
100
AcDbEntity
  8
1
  6
Continuous
100
AcDbCircle
 10
109.5694979999999
 20
353.145145
 30
0.0
 40
5.0
100
AcDbArc
 50
242.9059999999999
 51
337.1729999999999
  0
CIRCLE
  5
9932
330
95D5
100
AcDbEntity
  8
1
  6
Continuous
100
AcDbCircle
 10
108.8608979999999
 20
353.975145
 30
0.0
 40
3.0
  0
ARC
  5
9933
330
95D5
100
AcDbEntity
  8
1
  6
Continuous
100
AcDbCircle
 10
109.5694979999999
 20
53.317145
 30
0.0
 40
5.0
100
AcDbArc
 50
40.2597
 51
117.0939999999998
  0
ARC
  5
9934
330
95D5
100
AcDbEntity
  8
1
  6
Continuous
100
AcDbCircle
 10
97.74859800000001
 20
364.885145
 30
0.0
 40
7.0
100
AcDbArc
 50
40.0
 51
220.0
  0
LINE
  5
9935
330
95D5
100
AcDbEntity
  8
1
  6
Continuous
100
AcDbLine
 10
120.671706
 20
63.48714499999999
 30
0.0
 11
128.747485
 21
63.48714499999999
 31
0.0
  0
ARC
  5
9936
330
95D5
100
AcDbEntity
  8
1
  6
Continuous
100
AcDbCircle
 10
128.747485
 20
68.243425
 30
0.0
 40
4.75628
100
AcDbArc
 50
270.0
 51
296.507515
  0
ARC
  5
9937
330
95D5
100
AcDbEntity
  8
1
  6
Continuous
100
AcDbCircle
 10
139.695739
 20
69.78702
 30
0.0
 40
6.299875
100
AcDbArc
 50
247.0188499999999
 51
270.0
  0
LINE
  5
9938
330
95D5
100
AcDbEntity
  8
1
  6
Continuous
100
AcDbLine
 10
139.695739
 20
63.48714499999999
 30
0.0
 11
142.360942
 21
63.48714499999999
 31
0.0
  0
ARC
  5
9939
330
95D5
100
AcDbEntity
  8
1
  6
Continuous
100
AcDbCircle
 10
139.695739
 20
336.67527
 30
0.0
 40
6.299875
100
AcDbArc
 50
90.0
 51
112.9811499999999
  0
ARC
  5
993A
330
95D5
100
AcDbEntity
  8
1
  6
Continuous
100
AcDbCircle
 10
128.747485
 20
338.2188649999998
 30
0.0
 40
4.75628
100
AcDbArc
 50
63.492485
 51
90.0
  0
LINE
  5
993B
330
95D5
100
AcDbEntity
  8
1
  6
Continuous
100
AcDbLine
 10
139.695739
 20
342.9751449999999
 30
0.0
 11
142.360942
 21
342.9751449999999
 31
0.0
  0
LINE
  5
993C
330
95D5
100
AcDbEntity
  8
1
  6
Continuous
100
AcDbLine
 10
120.671611
 20
342.9751449999999
 30
0.0
 11
128.747447
 21
342.9751449999999
 31
0.0
  0
LINE
  5
993D
330
95D5
100
AcDbEntity
  8
1
  6
Continuous
100
AcDbLine
 10
145.5033989999998
 20
58.39649399999998
 30
0.0
 11
147.9157979999999
 21
46.748145
 31
0.0
  0
ENDSEC
  0
SECTION
  2
OBJECTS
  0
DICTIONARY
  5
95C3
330
0
100
AcDbDictionary
281
     1
  3
ACAD_CIP_PREVIOUS_PRODUCT_INFO
350
99A3
  3
ACAD_COLOR
350
9985
  3
ACAD_DETAILVIEWSTYLE
350
999E
  3
ACAD_GROUP
350
95C4
  3
ACAD_LAYOUT
350
95D0
  3
ACAD_MATERIAL
350
9953
  3
ACAD_MLEADERSTYLE
350
999A
  3
ACAD_MLINESTYLE
350
95CD
  3
ACAD_PLOTSETTINGS
350
95CF
  3
ACAD_PLOTSTYLENAME
350
9951
  3
ACAD_SCALELIST
350
9988
  3
ACAD_SECTIONVIEWSTYLE
350
999C
  3
ACAD_TABLESTYLE
350
9986
  3
ACAD_VISUALSTYLE
350
996C
  3
ACDB_RECOMPOSE_DATA
350
99C1
  3
AcDbVariableDictionary
350
99B4
  3
DWGPROPS
350
99C2
  0
DICTIONARY
  5
99A4
330
95C7
100
AcDbDictionary
280
     1
281
     1
  3
ADSK_XREC_LAYER_RECONCILED
360
99A5
  0
DICTIONARY
  5
99A6
330
95DD
100
AcDbDictionary
280
     1
281
     1
  3
ADSK_XREC_LAYER_RECONCILED
360
99A7
  0
DICTIONARY
  5
99A8
330
95DE
100
AcDbDictionary
280
     1
281
     1
  3
ADSK_XREC_LAYER_RECONCILED
360
99A9
  0
DICTIONARY
  5
99AA
330
95DF
100
AcDbDictionary
280
     1
281
     1
  3
ADSK_XREC_LAYER_RECONCILED
360
99AB
  0
DICTIONARY
  5
99AC
330
95E0
100
AcDbDictionary
280
     1
281
     1
  3
ADSK_XREC_LAYER_RECONCILED
360
99AD
  0
DICTIONARY
  5
99AE
330
95E1
100
AcDbDictionary
280
     1
281
     1
  3
ADSK_XREC_LAYER_RECONCILED
360
99AF
  0
DICTIONARY
  5
99B0
330
95E2
100
AcDbDictionary
280
     1
281
     1
  3
ADSK_XREC_LAYER_RECONCILED
360
99B1
  0
DICTIONARY
  5
99B2
330
95E3
100
AcDbDictionary
280
     1
281
     1
  3
ADSK_XREC_LAYER_RECONCILED
360
99B3
  0
DICTIONARY
  5
994C
330
95D5
100
AcDbDictionary
281
     1
  3
ACAD_LAYOUTSELFREF
350
994D
  0
DICTIONARY
  5
994A
330
95D1
100
AcDbDictionary
281
     1
  3
ACAD_LAYOUTSELFREF
350
994B
  0
XRECORD
  5
99A3
102
{ACAD_REACTORS
330
95C3
102
}
330
95C3
100
AcDbXrecord
280
     1
300
ACDLT
300
2014
300
ACDLT_F_S
  0
DICTIONARY
  5
9985
102
{ACAD_REACTORS
330
95C3
102
}
330
95C3
100
AcDbDictionary
281
     1
  0
DICTIONARY
  5
999E
102
{ACAD_REACTORS
330
95C3
102
}
330
95C3
100
AcDbDictionary
281
     1
  3
Imperial24
350
999F
  0
DICTIONARY
  5
95C4
102
{ACAD_REACTORS
330
95C3
102
}
330
95C3
100
AcDbDictionary
281
     1
  0
DICTIONARY
  5
95D0
102
{ACAD_REACTORS
330
95C3
102
}
330
95C3
100
AcDbDictionary
281
     1
  3
Model
350
99A0
  3
レイアウト1
350
99A1
  0
DICTIONARY
  5
9953
102
{ACAD_REACTORS
330
95C3
102
}
330
95C3
100
AcDbDictionary
281
     1
  3
ByBlock
350
995C
  3
ByLayer
350
9954
  3
Global
350
9964
  0
DICTIONARY
  5
999A
102
{ACAD_REACTORS
330
95C3
102
}
330
95C3
100
AcDbDictionary
281
     1
  3
Standard
350
999B
  0
DICTIONARY
  5
95CD
102
{ACAD_REACTORS
330
95C3
102
}
330
95C3
100
AcDbDictionary
281
     1
  3
STANDARD
350
95CE
  0
DICTIONARY
  5
95CF
102
{ACAD_REACTORS
330
95C3
102
}
330
95C3
100
AcDbDictionary
281
     1
  0
ACDBDICTIONARYWDFLT
  5
9951
102
{ACAD_REACTORS
330
95C3
102
}
330
95C3
100
AcDbDictionary
281
     1
  3
Normal
350
9952
100
AcDbDictionaryWithDefault
340
9952
  0
DICTIONARY
  5
9988
102
{ACAD_REACTORS
330
95C3
102
}
330
95C3
100
AcDbDictionary
281
     1
  3
A0
350
9989
  3
A1
350
998A
  3
A2
350
998B
  3
A3
350
998C
  3
A4
350
998D
  3
A5
350
998E
  3
A6
350
998F
  3
A7
350
9990
  3
A8
350
9991
  3
A9
350
9992
  3
B0
350
9993
  3
B1
350
9994
  3
B2
350
9995
  3
B3
350
9996
  3
B4
350
9997
  3
B5
350
9998
  3
B6
350
9999
  0
DICTIONARY
  5
999C
102
{ACAD_REACTORS
330
95C3
102
}
330
95C3
100
AcDbDictionary
281
     1
  3
Imperial24
350
999D
  0
DICTIONARY
  5
9986
102
{ACAD_REACTORS
330
95C3
102
}
330
95C3
100
AcDbDictionary
281
     1
  3
Standard
350
9987
  0
DICTIONARY
  5
996C
102
{ACAD_REACTORS
330
95C3
102
}
330
95C3
100
AcDbDictionary
281
     1
  3
2dWireframe
350
9972
  3
Basic
350
9971
  3
Brighten
350
9978
  3
ColorChange
350
997C
  3
Conceptual
350
9975
  3
Dim
350
9977
  3
EdgeColorOff
350
9984
  3
Facepattern
350
997B
  3
Flat
350
996D
  3
FlatWithEdges
350
996E
  3
Gouraud
350
996F
  3
GouraudWithEdges
350
9970
  3
Hidden
350
9974
  3
JitterOff
350
9982
  3
Linepattern
350
997A
  3
OverhangOff
350
9983
  3
Realistic
350
9976
  3
Shaded
350
9981
  3
Shaded with edges
350
9980
  3
Shades of Gray
350
997D
  3
Sketchy
350
997E
  3
Thicken
350
9979
  3
Wireframe
350
9973
  3
X-Ray
350
997F
  0
XRECORD
  5
99C1
102
{ACAD_REACTORS
330
95C3
102
}
330
95C3
100
AcDbXrecord
280
     1
 90
        1
330
9987
  0
DICTIONARY
  5
99B4
102
{ACAD_REACTORS
330
95C3
102
}
330
95C3
100
AcDbDictionary
281
     1
  3
CANNOSCALE
350
99B9
  3
CMLEADERSTYLE
350
99B6
  3
CTABLESTYLE
350
99B5
  3
CVIEWDETAILSTYLE
350
99B7
  3
CVIEWSECTIONSTYLE
350
99B8
  3
DIMASSOC
350
99BC
  3
INDEXCTL
350
99BB
  3
SORTENTS
350
99BA
  3
XCLIPFRAME
350
99BD
  0
XRECORD
  5
99C2
102
{ACAD_REACTORS
330
95C3
102
}
330
95C3
100
AcDbXrecord
280
     1
  1
DWGPROPS COOKIE
  2

  3

  4

  6

  7

  8
Yoshitsune
  9

300
=
301
=
302
=
303
=
304
=
305
=
306
=
307
=
308
=
309
=
 40
0.0000156597222222
 41
2450737.699826389
 42
2457192.64030427
  1

 90
        0
  0
XRECORD
  5
99A5
102
{ACAD_REACTORS
330
99A4
102
}
330
99A4
100
AcDbXrecord
280
     1
290
     1
  0
XRECORD
  5
99A7
102
{ACAD_REACTORS
330
99A6
102
}
330
99A6
100
AcDbXrecord
280
     1
290
     1
  0
XRECORD
  5
99A9
102
{ACAD_REACTORS
330
99A8
102
}
330
99A8
100
AcDbXrecord
280
     1
290
     1
  0
XRECORD
  5
99AB
102
{ACAD_REACTORS
330
99AA
102
}
330
99AA
100
AcDbXrecord
280
     1
290
     1
  0
XRECORD
  5
99AD
102
{ACAD_REACTORS
330
99AC
102
}
330
99AC
100
AcDbXrecord
280
     1
290
     1
  0
XRECORD
  5
99AF
102
{ACAD_REACTORS
330
99AE
102
}
330
99AE
100
AcDbXrecord
280
     1
290
     1
  0
XRECORD
  5
99B1
102
{ACAD_REACTORS
330
99B0
102
}
330
99B0
100
AcDbXrecord
280
     1
290
     1
  0
XRECORD
  5
99B3
102
{ACAD_REACTORS
330
99B2
102
}
330
99B2
100
AcDbXrecord
280
     1
290
     1
  0
XRECORD
  5
994D
102
{ACAD_REACTORS
330
994C
102
}
330
994C
100
AcDbXrecord
280
     1
340
95D5
  0
XRECORD
  5
994B
102
{ACAD_REACTORS
330
994A
102
}
330
994A
100
AcDbXrecord
280
     1
340
95D1
  0
ACDBDETAILVIEWSTYLE
  5
999F
102
{ACAD_XDICTIONARY
360
99FA
102
}
102
{ACAD_REACTORS
330
999E
102
}
330
999E
100
AcDbModelDocViewStyle
 70
     0
  3
Imperial24
290
     0
100
AcDbDetailViewStyle
 70
     0
 71
     0
 90
        3
 71
     1
340
95C8
 40
0.24
340
0
 40
0.24
300

 40
0.36
280
     3
 71
     2
340
95CC
 90
       25
 71
     3
340
95C8
 40
0.24
 90
        1
 40
0.75
 90
        1
300
%<\AcVar ViewType \f "%tc1">% %<\AcVar ViewDetailId>%\PSCALE %<\AcVar ViewScale \f "%sn">%
 71
     4
340
95CC
 90
       25
340
95CC
 90
       25
280
     0
  0
LAYOUT
  5
99A0
102
{ACAD_XDICTIONARY
360
99FC
102
}
102
{ACAD_REACTORS
330
95D0
102
}
330
95D0
100
AcDbPlotSettings
  1

  2
Canon LBP9100C
  4

  6

 40
0.0
 41
0.0
 42
0.0
 43
0.0
 44
0.0
 45
0.0
 46
0.0
 47
0.0
 48
0.0
 49
0.0
140
0.0
141
0.0
142
1.0
143
1.0
 70
  1712
 72
     0
 73
     0
 74
     0
  7

 75
     0
147
1.0
148
0.0
149
0.0
100
AcDbLayout
  1
Model
 70
     1
 71
     0
 10
0.0
 20
0.0
 11
12.0
 21
9.0
 12
0.0
 22
0.0
 32
0.0
 14
0.0
 24
0.0
 34
0.0
 15
0.0
 25
0.0
 35
0.0
146
0.0
 13
0.0
 23
0.0
 33
0.0
 16
1.0
 26
0.0
 36
0.0
 17
0.0
 27
1.0
 37
0.0
 76
     0
330
95D5
331
9949
  0
LAYOUT
  5
99A1
102
{ACAD_XDICTIONARY
360
99FE
102
}
102
{ACAD_REACTORS
330
95D0
102
}
330
95D0
100
AcDbPlotSettings
  1

  2
Canon LBP9100C
  4

  6

 40
0.0
 41
0.0
 42
0.0
 43
0.0
 44
0.0
 45
0.0
 46
0.0
 47
0.0
 48
0.0
 49
0.0
140
0.0
141
0.0
142
1.0
143
1.0
 70
   688
 72
     0
 73
     0
 74
     5
  7

 75
    16
147
1.0
148
0.0
149
0.0
100
AcDbLayout
  1
レイアウト1
 70
     0
 71
     1
 10
0.0
 20
0.0
 11
420.0
 21
297.0
 12
0.0
 22
0.0
 32
0.0
 14
1.000000000000000E+20
 24
1.000000000000000E+20
 34
1.000000000000000E+20
 15
-1.000000000000000E+20
 25
-1.000000000000000E+20
 35
-1.000000000000000E+20
146
0.0
 13
0.0
 23
0.0
 33
0.0
 16
1.0
 26
0.0
 36
0.0
 17
0.0
 27
1.0
 37
0.0
 76
     0
330
95D1
  0
MATERIAL
  5
995C
102
{ACAD_XDICTIONARY
360
995D
102
}
102
{ACAD_REACTORS
330
9953
102
}
330
9953
100
AcDbMaterial
  1
ByBlock
 72
     0
 43
0.0208333333333333
 43
0.0
 43
0.0
 43
0.0
 43
0.0
 43
0.0208333333333333
 43
0.0
 43
0.0
 43
0.0
 43
0.0
 43
1.0
 43
0.0
 43
0.0
 43
0.0
 43
0.0
 43
1.0
 77
     0
 47
0.0208333333333333
 47
0.0
 47
0.0
 47
0.0
 47
0.0
 47
0.0208333333333333
 47
0.0
 47
0.0
 47
0.0
 47
0.0
 47
1.0
 47
0.0
 47
0.0
 47
0.0
 47
0.0
 47
1.0
171
     0
 49
0.0208333333333333
 49
0.0
 49
0.0
 49
0.0
 49
0.0
 49
0.0208333333333333
 49
0.0
 49
0.0
 49
0.0
 49
0.0
 49
1.0
 49
0.0
 49
0.0
 49
0.0
 49
0.0
 49
1.0
175
     0
142
0.0208333333333333
142
0.0
142
0.0
142
0.0
142
0.0
142
0.0208333333333333
142
0.0
142
0.0
142
0.0
142
0.0
142
1.0
142
0.0
142
0.0
142
0.0
142
0.0
142
1.0
179
     0
144
0.0208333333333333
144
0.0
144
0.0
144
0.0
144
0.0
144
0.0208333333333333
144
0.0
144
0.0
144
0.0
144
0.0
144
1.0
144
0.0
144
0.0
144
0.0
144
0.0
144
1.0
147
0.0208333333333333
147
0.0
147
0.0
147
0.0
147
0.0
147
0.0208333333333333
147
0.0
147
0.0
147
0.0
147
0.0
147
1.0
147
0.0
147
0.0
147
0.0
147
0.0
147
1.0
  0
MATERIAL
  5
9954
102
{ACAD_XDICTIONARY
360
9955
102
}
102
{ACAD_REACTORS
330
9953
102
}
330
9953
100
AcDbMaterial
  1
ByLayer
 72
     0
 43
0.0208333333333333
 43
0.0
 43
0.0
 43
0.0
 43
0.0
 43
0.0208333333333333
 43
0.0
 43
0.0
 43
0.0
 43
0.0
 43
1.0
 43
0.0
 43
0.0
 43
0.0
 43
0.0
 43
1.0
 77
     0
 47
0.0208333333333333
 47
0.0
 47
0.0
 47
0.0
 47
0.0
 47
0.0208333333333333
 47
0.0
 47
0.0
 47
0.0
 47
0.0
 47
1.0
 47
0.0
 47
0.0
 47
0.0
 47
0.0
 47
1.0
171
     0
 49
0.0208333333333333
 49
0.0
 49
0.0
 49
0.0
 49
0.0
 49
0.0208333333333333
 49
0.0
 49
0.0
 49
0.0
 49
0.0
 49
1.0
 49
0.0
 49
0.0
 49
0.0
 49
0.0
 49
1.0
175
     0
142
0.0208333333333333
142
0.0
142
0.0
142
0.0
142
0.0
142
0.0208333333333333
142
0.0
142
0.0
142
0.0
142
0.0
142
1.0
142
0.0
142
0.0
142
0.0
142
0.0
142
1.0
179
     0
144
0.0208333333333333
144
0.0
144
0.0
144
0.0
144
0.0
144
0.0208333333333333
144
0.0
144
0.0
144
0.0
144
0.0
144
1.0
144
0.0
144
0.0
144
0.0
144
0.0
144
1.0
147
0.0208333333333333
147
0.0
147
0.0
147
0.0
147
0.0
147
0.0208333333333333
147
0.0
147
0.0
147
0.0
147
0.0
147
1.0
147
0.0
147
0.0
147
0.0
147
0.0
147
1.0
  0
MATERIAL
  5
9964
102
{ACAD_XDICTIONARY
360
9965
102
}
102
{ACAD_REACTORS
330
9953
102
}
330
9953
100
AcDbMaterial
  1
Global
 72
     0
 43
0.0208333333333333
 43
0.0
 43
0.0
 43
0.0
 43
0.0
 43
0.0208333333333333
 43
0.0
 43
0.0
 43
0.0
 43
0.0
 43
1.0
 43
0.0
 43
0.0
 43
0.0
 43
0.0
 43
1.0
 77
     0
 47
0.0208333333333333
 47
0.0
 47
0.0
 47
0.0
 47
0.0
 47
0.0208333333333333
 47
0.0
 47
0.0
 47
0.0
 47
0.0
 47
1.0
 47
0.0
 47
0.0
 47
0.0
 47
0.0
 47
1.0
171
     0
 49
0.0208333333333333
 49
0.0
 49
0.0
 49
0.0
 49
0.0
 49
0.0208333333333333
 49
0.0
 49
0.0
 49
0.0
 49
0.0
 49
1.0
 49
0.0
 49
0.0
 49
0.0
 49
0.0
 49
1.0
175
     0
142
0.0208333333333333
142
0.0
142
0.0
142
0.0
142
0.0
142
0.0208333333333333
142
0.0
142
0.0
142
0.0
142
0.0
142
1.0
142
0.0
142
0.0
142
0.0
142
0.0
142
1.0
179
     0
144
0.0208333333333333
144
0.0
144
0.0
144
0.0
144
0.0
144
0.0208333333333333
144
0.0
144
0.0
144
0.0
144
0.0
144
1.0
144
0.0
144
0.0
144
0.0
144
0.0
144
1.0
147
0.0208333333333333
147
0.0
147
0.0
147
0.0
147
0.0
147
0.0208333333333333
147
0.0
147
0.0
147
0.0
147
0.0
147
1.0
147
0.0
147
0.0
147
0.0
147
0.0
147
1.0
  0
MLEADERSTYLE
  5
999B
102
{ACAD_REACTORS
330
999A
102
}
330
999A
100
AcDbMLeaderStyle
170
     2
171
     1
172
     0
 90
        2
 40
0.0
 41
0.0
173
     1
 91
-1056964608
340
95CA
 92
       -2
290
     1
 42
0.09
291
     1
 43
0.36
  3
Standard
 44
0.18
300

342
95C8
174
     1
178
     6
175
     1
176
     0
 93
-1056964608
 45
0.18
292
     0
297
     0
 46
0.18
 94
-1056964608
 47
1.0
 49
1.0
140
1.0
293
     1
141
0.0
294
     1
177
     0
142
1.0
295
     0
296
     0
143
0.125
1001
ACAD_MLEADERVER
1070
     2
  0
MLINESTYLE
  5
95CE
102
{ACAD_REACTORS
330
95CD
102
}
330
95CD
100
AcDbMlineStyle
  2
STANDARD
 70
     0
  3

 62
   256
 51
90.0
 52
90.0
 71
     2
 49
0.5
 62
   256
  6
BYLAYER
 49
-0.5
 62
   256
  6
BYLAYER
  0
ACDBPLACEHOLDER
  5
9952
102
{ACAD_REACTORS
330
9951
102
}
330
9951
  0
SCALE
  5
9989
102
{ACAD_REACTORS
330
9988
102
}
330
9988
100
AcDbScale
 70
     0
300
1:1
140
1.0
141
1.0
290
     1
  0
SCALE
  5
998A
102
{ACAD_REACTORS
330
9988
102
}
330
9988
100
AcDbScale
 70
     0
300
1/128" = 1'-0"
140
0.0078125
141
12.0
290
     0
  0
SCALE
  5
998B
102
{ACAD_REACTORS
330
9988
102
}
330
9988
100
AcDbScale
 70
     0
300
1/64" = 1'-0"
140
0.015625
141
12.0
290
     0
  0
SCALE
  5
998C
102
{ACAD_REACTORS
330
9988
102
}
330
9988
100
AcDbScale
 70
     0
300
1/32" = 1'-0"
140
0.03125
141
12.0
290
     0
  0
SCALE
  5
998D
102
{ACAD_REACTORS
330
9988
102
}
330
9988
100
AcDbScale
 70
     0
300
1/16" = 1'-0"
140
0.0625
141
12.0
290
     0
  0
SCALE
  5
998E
102
{ACAD_REACTORS
330
9988
102
}
330
9988
100
AcDbScale
 70
     0
300
3/32" = 1'-0"
140
0.09375
141
12.0
290
     0
  0
SCALE
  5
998F
102
{ACAD_REACTORS
330
9988
102
}
330
9988
100
AcDbScale
 70
     0
300
1/8" = 1'-0"
140
0.125
141
12.0
290
     0
  0
SCALE
  5
9990
102
{ACAD_REACTORS
330
9988
102
}
330
9988
100
AcDbScale
 70
     0
300
3/16" = 1'-0"
140
0.1875
141
12.0
290
     0
  0
SCALE
  5
9991
102
{ACAD_REACTORS
330
9988
102
}
330
9988
100
AcDbScale
 70
     0
300
1/4" = 1'-0"
140
0.25
141
12.0
290
     0
  0
SCALE
  5
9992
102
{ACAD_REACTORS
330
9988
102
}
330
9988
100
AcDbScale
 70
     0
300
3/8" = 1'-0"
140
0.375
141
12.0
290
     0
  0
SCALE
  5
9993
102
{ACAD_REACTORS
330
9988
102
}
330
9988
100
AcDbScale
 70
     0
300
1/2" = 1'-0"
140
0.5
141
12.0
290
     0
  0
SCALE
  5
9994
102
{ACAD_REACTORS
330
9988
102
}
330
9988
100
AcDbScale
 70
     0
300
3/4" = 1'-0"
140
0.75
141
12.0
290
     0
  0
SCALE
  5
9995
102
{ACAD_REACTORS
330
9988
102
}
330
9988
100
AcDbScale
 70
     0
300
1" = 1'-0"
140
1.0
141
12.0
290
     0
  0
SCALE
  5
9996
102
{ACAD_REACTORS
330
9988
102
}
330
9988
100
AcDbScale
 70
     0
300
1-1/2" = 1'-0"
140
1.5
141
12.0
290
     0
  0
SCALE
  5
9997
102
{ACAD_REACTORS
330
9988
102
}
330
9988
100
AcDbScale
 70
     0
300
3" = 1'-0"
140
3.0
141
12.0
290
     0
  0
SCALE
  5
9998
102
{ACAD_REACTORS
330
9988
102
}
330
9988
100
AcDbScale
 70
     0
300
6" = 1'-0"
140
6.0
141
12.0
290
     0
  0
SCALE
  5
9999
102
{ACAD_REACTORS
330
9988
102
}
330
9988
100
AcDbScale
 70
     0
300
1'-0" = 1'-0"
140
12.0
141
12.0
290
     0
  0
ACDBSECTIONVIEWSTYLE
  5
999D
102
{ACAD_XDICTIONARY
360
99F8
102
}
102
{ACAD_REACTORS
330
999C
102
}
330
999C
100
AcDbModelDocViewStyle
 70
     0
  3
Imperial24
290
     0
100
AcDbSectionViewStyle
 70
     0
 71
     0
 90
       78
 71
     1
340
95C8
 40
0.24
340
0
340
0
 40
0.24
300
I, O, Q, S, X, Z
 40
0.48
 90
        3
 40
0.18
 90
        1
 71
     2
340
95CC
 90
       25
340
95CC
 90
       50
 40
0.24
 40
0.0
 40
0.24
 71
     3
340
95C8
 40
0.24
 90
        1
 40
0.75
 90
        1
300
%<\AcVar ViewType \f "%tc1">% %<\AcVar ViewSectionStartId>%-%<\AcVar ViewSectionEndId>%\PSCALE %<\AcVar ViewScale \f "%sn">%
 71
     4
300
ANSI31
 40
1.0
 90
        0
290
     0
290
     0
 90
        6
 40
0.0
 40
1.570796326794896
 40
0.2617993877991494
 40
1.308996938995747
 40
-0.2617993877991494
 40
1.832595714594046
  0
TABLESTYLE
  5
9987
102
{ACAD_XDICTIONARY
360
99BF
102
}
102
{ACAD_REACTORS
330
9986
102
}
330
9986
100
AcDbTableStyle
  3
Standard
 70
     0
 71
     0
 40
0.06
 41
0.06
280
     0
281
     0
  7
STANDARD
140
0.18
170
     2
 62
     0
 63
     7
283
     0
274
    -2
284
     1
 64
     0
275
    -2
285
     1
 65
     0
276
    -2
286
     1
 66
     0
277
    -2
287
     1
 67
     0
278
    -2
288
     1
 68
     0
279
    -2
289
     1
 69
     0
  7
STANDARD
140
0.25
170
     5
 62
     0
 63
     7
283
     0
274
    -2
284
     1
 64
     0
275
    -2
285
     1
 65
     0
276
    -2
286
     1
 66
     0
277
    -2
287
     1
 67
     0
278
    -2
288
     1
 68
     0
279
    -2
289
     1
 69
     0
  7
STANDARD
140
0.18
170
     5
 62
     0
 63
     7
283
     0
274
    -2
284
     1
 64
     0
275
    -2
285
     1
 65
     0
276
    -2
286
     1
 66
     0
277
    -2
287
     1
 67
     0
278
    -2
288
     1
 68
     0
279
    -2
289
     1
 69
     0
  0
VISUALSTYLE
  5
9972
102
{ACAD_XDICTIONARY
360
99D0
102
}
102
{ACAD_REACTORS
330
996C
102
}
330
996C
100
AcDbVisualStyle
  2
2dWireframe
 70
     4
 71
     0
 72
     2
 73
     0
 90
        0
 40
-0.6
 41
-30.0
 62
     5
 63
     7
 74
     1
 91
        4
 64
     7
 65
   257
 75
     1
175
     1
 42
1.0
 92
        0
 66
   257
 43
1.0
 76
     1
 77
     6
 78
     2
 67
     7
 79
     5
170
     0
171
     0
290
     0
174
     0
 93
        1
 44
0.0
173
     0
291
     0
 45
0.0
1001
ACAD
1000
AcDbSavedByObjectVersion
1070
     0
  0
VISUALSTYLE
  5
9971
102
{ACAD_XDICTIONARY
360
99CE
102
}
102
{ACAD_REACTORS
330
996C
102
}
330
996C
100
AcDbVisualStyle
  2
Basic
 70
     7
 71
     1
 72
     0
 73
     1
 90
        0
 40
-0.6
 41
-30.0
 62
     5
 63
     7
 74
     0
 91
        4
 64
     7
 65
   257
 75
     1
175
     1
 42
1.0
 92
        8
 66
     7
 43
1.0
 76
     1
 77
     6
 78
     2
 67
     7
 79
     5
170
     0
171
     0
290
     0
174
     0
 93
        1
 44
0.0
173
     0
291
     1
 45
0.0
1001
ACAD
1000
AcDbSavedByObjectVersion
1070
     0
  0
VISUALSTYLE
  5
9978
102
{ACAD_XDICTIONARY
360
99DC
102
}
102
{ACAD_REACTORS
330
996C
102
}
330
996C
100
AcDbVisualStyle
  2
Brighten
 70
    12
 71
     2
 72
     2
 73
     0
 90
        0
 40
-0.6
 41
-30.0
 62
     5
 63
     7
 74
     1
 91
        4
 64
     7
 65
   257
 75
     1
175
     1
 42
1.0
 92
        8
 66
     7
 43
1.0
 76
     1
 77
     6
 78
     2
 67
     7
 79
     5
170
     0
171
     0
290
     0
174
     0
 93
        1
 44
50.0
173
     0
291
     1
 45
0.0
1001
ACAD
1000
AcDbSavedByObjectVersion
1070
     0
  0
VISUALSTYLE
  5
997C
102
{ACAD_XDICTIONARY
360
99E4
102
}
102
{ACAD_REACTORS
330
996C
102
}
330
996C
100
AcDbVisualStyle
  2
ColorChange
 70
    16
 71
     2
 72
     2
 73
     3
 90
        0
 40
-0.6
 41
-30.0
 62
     5
 63
     8
 74
     1
 91
        4
 64
     7
 65
   257
 75
     1
175
     1
 42
1.0
 92
        8
 66
     8
 43
1.0
 76
     1
 77
     6
 78
     2
 67
     7
 79
     5
170
     0
171
     0
290
     0
174
     0
 93
        1
 44
0.0
173
     0
291
     1
 45
0.0
1001
ACAD
1000
AcDbSavedByObjectVersion
1070
     0
  0
VISUALSTYLE
  5
9975
102
{ACAD_XDICTIONARY
360
99D6
102
}
102
{ACAD_REACTORS
330
996C
102
}
330
996C
100
AcDbVisualStyle
  2
Conceptual
 70
     9
 71
     3
 72
     2
 73
     0
 90
        0
 40
-0.6
 41
-30.0
 62
     5
 63
     7
 74
     2
 91
        2
 64
     7
 65
   257
 75
     1
175
     1
 42
179.0
 92
        8
 66
     7
 43
1.0
 76
     1
 77
     6
 78
     2
 67
     7
 79
     3
170
     0
171
     0
290
     0
174
     0
 93
        1
 44
0.0
173
     0
291
     0
 45
0.0
1001
ACAD
1000
AcDbSavedByObjectVersion
1070
     0
  0
VISUALSTYLE
  5
9977
102
{ACAD_XDICTIONARY
360
99DA
102
}
102
{ACAD_REACTORS
330
996C
102
}
330
996C
100
AcDbVisualStyle
  2
Dim
 70
    11
 71
     2
 72
     2
 73
     0
 90
        0
 40
-0.6
 41
-30.0
 62
     5
 63
     7
 74
     1
 91
        4
 64
     7
 65
   257
 75
     1
175
     1
 42
1.0
 92
        8
 66
     7
 43
1.0
 76
     1
 77
     6
 78
     2
 67
     7
 79
     5
170
     0
171
     0
290
     0
174
     0
 93
        1
 44
-50.0
173
     0
291
     1
 45
0.0
1001
ACAD
1000
AcDbSavedByObjectVersion
1070
     0
  0
VISUALSTYLE
  5
9984
102
{ACAD_XDICTIONARY
360
99F4
102
}
102
{ACAD_REACTORS
330
996C
102
}
330
996C
100
AcDbVisualStyle
  2
EdgeColorOff
 70
    22
 71
     2
 72
     2
 73
     0
 90
        0
 40
-0.6
 41
-30.0
 62
     5
 63
     7
 74
     1
 91
        4
 64
     7
 65
   257
 75
     1
175
     1
 42
1.0
 92
        8
 66
     7
 43
1.0
 76
     1
 77
     6
 78
     2
 67
     7
 79
     5
170
     0
171
     0
290
     0
174
     0
 93
        1
 44
0.0
173
     0
291
     1
 45
0.0
1001
ACAD
1000
AcDbSavedByObjectVersion
1070
     0
  0
VISUALSTYLE
  5
997B
102
{ACAD_XDICTIONARY
360
99E2
102
}
102
{ACAD_REACTORS
330
996C
102
}
330
996C
100
AcDbVisualStyle
  2
Facepattern
 70
    15
 71
     2
 72
     2
 73
     0
 90
        0
 40
-0.6
 41
-30.0
 62
     5
 63
     7
 74
     1
 91
        4
 64
     7
 65
   257
 75
     1
175
     1
 42
1.0
 92
        8
 66
     7
 43
1.0
 76
     1
 77
     6
 78
     2
 67
     7
 79
     5
170
     0
171
     0
290
     0
174
     0
 93
        1
 44
0.0
173
     0
291
     1
 45
0.0
1001
ACAD
1000
AcDbSavedByObjectVersion
1070
     0
  0
VISUALSTYLE
  5
996D
102
{ACAD_XDICTIONARY
360
99C6
102
}
102
{ACAD_REACTORS
330
996C
102
}
330
996C
100
AcDbVisualStyle
  2
Flat
 70
     0
 71
     2
 72
     1
 73
     1
 90
        2
 40
-0.6
 41
30.0
 62
     5
 63
     7
 74
     0
 91
        0
 64
     7
 65
   257
 75
     1
175
     1
 42
1.0
 92
        8
 66
     7
 43
1.0
 76
     1
 77
     6
 78
     2
 67
     7
 79
     5
170
     0
171
     0
290
     0
174
     0
 93
       13
 44
0.0
173
     0
291
     1
 45
0.0
1001
ACAD
1000
AcDbSavedByObjectVersion
1070
     0
  0
VISUALSTYLE
  5
996E
102
{ACAD_XDICTIONARY
360
99C8
102
}
102
{ACAD_REACTORS
330
996C
102
}
330
996C
100
AcDbVisualStyle
  2
FlatWithEdges
 70
     1
 71
     2
 72
     1
 73
     1
 90
        2
 40
-0.6
 41
30.0
 62
     5
 63
     7
 74
     1
 91
        0
 64
     7
 65
   257
 75
     1
175
     1
 42
1.0
 92
        0
 66
   257
 43
1.0
 76
     1
 77
     6
 78
     2
 67
     7
 79
     5
170
     0
171
     0
290
     0
174
     0
 93
       13
 44
0.0
173
     0
291
     1
 45
0.0
1001
ACAD
1000
AcDbSavedByObjectVersion
1070
     0
  0
VISUALSTYLE
  5
996F
102
{ACAD_XDICTIONARY
360
99CA
102
}
102
{ACAD_REACTORS
330
996C
102
}
330
996C
100
AcDbVisualStyle
  2
Gouraud
 70
     2
 71
     2
 72
     2
 73
     1
 90
        2
 40
-0.6
 41
30.0
 62
     5
 63
     7
 74
     0
 91
        0
 64
     7
 65
   257
 75
     1
175
     1
 42
1.0
 92
        0
 66
     7
 43
1.0
 76
     1
 77
     6
 78
     2
 67
     7
 79
     5
170
     0
171
     0
290
     0
174
     0
 93
       13
 44
0.0
173
     0
291
     1
 45
0.0
1001
ACAD
1000
AcDbSavedByObjectVersion
1070
     0
  0
VISUALSTYLE
  5
9970
102
{ACAD_XDICTIONARY
360
99CC
102
}
102
{ACAD_REACTORS
330
996C
102
}
330
996C
100
AcDbVisualStyle
  2
GouraudWithEdges
 70
     3
 71
     2
 72
     2
 73
     1
 90
        2
 40
-0.6
 41
30.0
 62
     5
 63
     7
 74
     1
 91
        0
 64
     7
 65
   257
 75
     1
175
     1
 42
1.0
 92
        0
 66
   257
 43
1.0
 76
     1
 77
     6
 78
     2
 67
     7
 79
     5
170
     0
171
     0
290
     0
174
     0
 93
       13
 44
0.0
173
     0
291
     1
 45
0.0
1001
ACAD
1000
AcDbSavedByObjectVersion
1070
     0
  0
VISUALSTYLE
  5
9974
102
{ACAD_XDICTIONARY
360
99D4
102
}
102
{ACAD_REACTORS
330
996C
102
}
330
996C
100
AcDbVisualStyle
  2
Hidden
 70
     6
 71
     1
 72
     2
 73
     2
 90
        0
 40
-0.6
 41
-30.0
 62
     5
 63
     7
 74
     2
 91
        2
 64
     7
 65
   257
 75
     2
175
     1
 42
40.0
 92
        0
 66
   257
 43
1.0
 76
     1
 77
     6
 78
     2
 67
     7
 79
     3
170
     0
171
     0
290
     0
174
     0
 93
        1
 44
0.0
173
     0
291
     0
 45
0.0
1001
ACAD
1000
AcDbSavedByObjectVersion
1070
     0
  0
VISUALSTYLE
  5
9982
102
{ACAD_XDICTIONARY
360
99F0
102
}
102
{ACAD_REACTORS
330
996C
102
}
330
996C
100
AcDbVisualStyle
  2
JitterOff
 70
    20
 71
     2
 72
     2
 73
     0
 90
        0
 40
-0.6
 41
-30.0
 62
     5
 63
     7
 74
     1
 91
        4
 64
     7
 65
   257
 75
     1
175
     1
 42
1.0
 92
       10
 66
     7
 43
1.0
 76
     1
 77
     6
 78
     2
 67
     7
 79
     5
170
     0
171
     0
290
     0
174
     0
 93
        1
 44
0.0
173
     0
291
     1
 45
0.0
1001
ACAD
1000
AcDbSavedByObjectVersion
1070
     0
  0
VISUALSTYLE
  5
997A
102
{ACAD_XDICTIONARY
360
99E0
102
}
102
{ACAD_REACTORS
330
996C
102
}
330
996C
100
AcDbVisualStyle
  2
Linepattern
 70
    14
 71
     2
 72
     2
 73
     0
 90
        0
 40
-0.6
 41
-30.0
 62
     5
 63
     7
 74
     1
 91
        4
 64
     7
 65
   257
 75
     7
175
     7
 42
1.0
 92
        8
 66
     7
 43
1.0
 76
     1
 77
     6
 78
     2
 67
     7
 79
     5
170
     0
171
     0
290
     0
174
     0
 93
        1
 44
0.0
173
     0
291
     1
 45
0.0
1001
ACAD
1000
AcDbSavedByObjectVersion
1070
     0
  0
VISUALSTYLE
  5
9983
102
{ACAD_XDICTIONARY
360
99F2
102
}
102
{ACAD_REACTORS
330
996C
102
}
330
996C
100
AcDbVisualStyle
  2
OverhangOff
 70
    21
 71
     2
 72
     2
 73
     0
 90
        0
 40
-0.6
 41
-30.0
 62
     5
 63
     7
 74
     1
 91
        4
 64
     7
 65
   257
 75
     1
175
     1
 42
1.0
 92
        9
 66
     7
 43
1.0
 76
     1
 77
     6
 78
     2
 67
     7
 79
     5
170
     0
171
     0
290
     0
174
     0
 93
        1
 44
0.0
173
     0
291
     1
 45
0.0
1001
ACAD
1000
AcDbSavedByObjectVersion
1070
     0
  0
VISUALSTYLE
  5
9976
102
{ACAD_XDICTIONARY
360
99D8
102
}
102
{ACAD_REACTORS
330
996C
102
}
330
996C
100
AcDbVisualStyle
  2
Realistic
 70
     8
 71
     2
 72
     3
 73
     0
 90
        2
 40
-0.6
 41
30.0
 62
     5
 63
     7
 74
     0
 91
        0
 64
     7
 65
   257
 75
     1
175
     1
 42
1.0
 92
        8
 66
   257
 43
1.0
 76
     1
 77
     6
 78
     2
 67
     7
 79
     3
170
     0
171
     0
290
     0
174
     0
 93
       13
 44
0.0
173
     0
291
     0
 45
0.0
1001
ACAD
1000
AcDbSavedByObjectVersion
1070
     0
  0
VISUALSTYLE
  5
9981
102
{ACAD_XDICTIONARY
360
99EE
102
}
102
{ACAD_REACTORS
330
996C
102
}
330
996C
100
AcDbVisualStyle
  2
Shaded
 70
    27
 71
     2
 72
     2
 73
     1
 90
        2
 40
-0.6
 41
30.0
 62
     5
 63
     7
 74
     0
 91
        4
 64
     7
 65
   257
 75
     1
175
     1
 42
1.0
 92
        8
 66
   257
 43
1.0
 76
     1
 77
     6
 78
     2
 67
     8
 79
     3
170
     0
171
     0
290
     0
174
     0
 93
        5
 44
0.0
173
     0
291
     0
 45
0.0
1001
ACAD
1000
AcDbSavedByObjectVersion
1070
     0
  0
VISUALSTYLE
  5
9980
102
{ACAD_XDICTIONARY
360
99EC
102
}
102
{ACAD_REACTORS
330
996C
102
}
330
996C
100
AcDbVisualStyle
  2
Shaded with edges
 70
    26
 71
     2
 72
     2
 73
     1
 90
        2
 40
-0.6
 41
30.0
 62
     5
 63
     7
 74
     1
 91
       10
 64
     7
 65
   257
 75
     2
175
     1
 42
1.0
 92
        8
 66
   257
 43
1.0
 76
     1
 77
     6
 78
     2
 67
     7
 79
     3
170
     0
171
     0
290
     0
174
     0
 93
        5
 44
0.0
173
     0
291
     0
 45
0.0
1001
ACAD
1000
AcDbSavedByObjectVersion
1070
     0
  0
VISUALSTYLE
  5
997D
102
{ACAD_XDICTIONARY
360
99E6
102
}
102
{ACAD_REACTORS
330
996C
102
}
330
996C
100
AcDbVisualStyle
  2
Shades of Gray
 70
    23
 71
     2
 72
     2
 73
     3
 90
        0
 40
-0.6
 41
-30.0
 62
     5
 63
     7
 74
     2
 91
        2
 64
     7
 65
     7
 75
     1
175
     1
 42
40.0
 92
        8
 66
     7
 43
1.0
 76
     1
 77
     6
 78
     2
 67
     7
 79
     3
170
     0
171
     0
290
     0
174
     0
 93
        1
 44
0.0
173
     0
291
     0
 45
0.0
1001
ACAD
1000
AcDbSavedByObjectVersion
1070
     0
  0
VISUALSTYLE
  5
997E
102
{ACAD_XDICTIONARY
360
99E8
102
}
102
{ACAD_REACTORS
330
996C
102
}
330
996C
100
AcDbVisualStyle
  2
Sketchy
 70
    24
 71
     1
 72
     2
 73
     2
 90
        0
 40
-0.6
 41
-30.0
 62
     5
 63
     7
 74
     2
 91
        2
 64
     7
 65
     7
 75
     1
175
     1
 42
40.0
 92
       11
 66
     7
 43
1.0
 76
     1
 77
     6
 78
     2
 67
     7
 79
     6
170
     0
171
     0
290
     0
174
     0
 93
        1
 44
0.0
173
     0
291
     0
 45
0.0
1001
ACAD
1000
AcDbSavedByObjectVersion
1070
     0
  0
VISUALSTYLE
  5
9979
102
{ACAD_XDICTIONARY
360
99DE
102
}
102
{ACAD_REACTORS
330
996C
102
}
330
996C
100
AcDbVisualStyle
  2
Thicken
 70
    13
 71
     2
 72
     2
 73
     0
 90
        0
 40
-0.6
 41
-30.0
 62
     5
 63
     7
 74
     1
 91
        4
 64
     7
 65
   257
 75
     1
175
     1
 42
1.0
 92
       12
 66
     7
 43
1.0
 76
     1
 77
     6
 78
     2
 67
     7
 79
     5
170
     0
171
     0
290
     0
174
     0
 93
        1
 44
0.0
173
     0
291
     1
 45
0.0
1001
ACAD
1000
AcDbSavedByObjectVersion
1070
     0
  0
VISUALSTYLE
  5
9973
102
{ACAD_XDICTIONARY
360
99D2
102
}
102
{ACAD_REACTORS
330
996C
102
}
330
996C
100
AcDbVisualStyle
  2
Wireframe
 70
     5
 71
     0
 72
     2
 73
     0
 90
        0
 40
-0.6
 41
-30.0
 62
     5
 63
     7
 74
     1
 91
        4
 64
     7
 65
   257
 75
     1
175
     1
 42
1.0
 92
        0
 66
   257
 43
1.0
 76
     1
 77
     6
 78
     2
 67
     7
 79
     3
170
     0
171
     0
290
     0
174
     0
 93
        1
 44
0.0
173
     0
291
     0
 45
0.0
1001
ACAD
1000
AcDbSavedByObjectVersion
1070
     0
  0
VISUALSTYLE
  5
997F
102
{ACAD_XDICTIONARY
360
99EA
102
}
102
{ACAD_REACTORS
330
996C
102
}
330
996C
100
AcDbVisualStyle
  2
X-Ray
 70
    25
 71
     2
 72
     2
 73
     1
 90
        1
 40
0.5
 41
-30.0
 62
     5
 63
     7
 74
     1
 91
        0
 64
     7
 65
   257
 75
     1
175
     1
 42
1.0
 92
        8
 66
     7
 43
1.0
 76
     1
 77
     6
 78
     2
 67
     7
 79
     3
170
     0
171
     0
290
     0
174
     0
 93
       13
 44
0.0
173
     0
291
     0
 45
0.0
1001
ACAD
1000
AcDbSavedByObjectVersion
1070
     0
  0
DICTIONARYVAR
  5
99B9
102
{ACAD_REACTORS
330
99B4
102
}
330
99B4
100
DictionaryVariables
280
     0
  1
1:1
  0
DICTIONARYVAR
  5
99B6
102
{ACAD_REACTORS
330
99B4
102
}
330
99B4
100
DictionaryVariables
280
     0
  1
STANDARD
  0
DICTIONARYVAR
  5
99B5
102
{ACAD_REACTORS
330
99B4
102
}
330
99B4
100
DictionaryVariables
280
     0
  1
STANDARD
  0
DICTIONARYVAR
  5
99B7
102
{ACAD_REACTORS
330
99B4
102
}
330
99B4
100
DictionaryVariables
280
     0
  1
Imperial24
  0
DICTIONARYVAR
  5
99B8
102
{ACAD_REACTORS
330
99B4
102
}
330
99B4
100
DictionaryVariables
280
     0
  1
Imperial24
  0
DICTIONARYVAR
  5
99BC
102
{ACAD_REACTORS
330
99B4
102
}
330
99B4
100
DictionaryVariables
280
     0
  1
1
  0
DICTIONARYVAR
  5
99BB
102
{ACAD_REACTORS
330
99B4
102
}
330
99B4
100
DictionaryVariables
280
     0
  1
0
  0
DICTIONARYVAR
  5
99BA
102
{ACAD_REACTORS
330
99B4
102
}
330
99B4
100
DictionaryVariables
280
     0
  1
127
  0
DICTIONARYVAR
  5
99BD
102
{ACAD_REACTORS
330
99B4
102
}
330
99B4
100
DictionaryVariables
280
     0
  1
2
  0
DICTIONARY
  5
99FA
330
999F
100
AcDbDictionary
280
     1
281
     1
  3
ACAD_XREC_ROUNDTRIP
360
99FB
  0
DICTIONARY
  5
99FC
330
99A0
100
AcDbDictionary
280
     1
281
     1
  3
ACAD_XREC_ROUNDTRIP
360
99FD
  0
DICTIONARY
  5
99FE
330
99A1
100
AcDbDictionary
280
     1
281
     1
  3
ACAD_XREC_ROUNDTRIP
360
99FF
  0
DICTIONARY
  5
995D
330
995C
100
AcDbDictionary
280
     1
281
     1
  3
ACAD_XREC_ROUNDTRIP
360
99C4
  3
BUMPTILE
360
995F
  3
DIFFUSETILE
360
995E
  3
OPACITYTILE
360
9962
  3
REFLECTIONTILE
360
9961
  3
REFRACTIONTILE
360
9963
  3
SPECULARTILE
360
9960
  0
DICTIONARY
  5
9955
330
9954
100
AcDbDictionary
280
     1
281
     1
  3
ACAD_XREC_ROUNDTRIP
360
99C3
  3
BUMPTILE
360
9957
  3
DIFFUSETILE
360
9956
  3
OPACITYTILE
360
995A
  3
REFLECTIONTILE
360
9959
  3
REFRACTIONTILE
360
995B
  3
SPECULARTILE
360
9958
  0
DICTIONARY
  5
9965
330
9964
100
AcDbDictionary
280
     1
281
     1
  3
ACAD_XREC_ROUNDTRIP
360
99C5
  3
BUMPTILE
360
9967
  3
DIFFUSETILE
360
9966
  3
OPACITYTILE
360
996A
  3
REFLECTIONTILE
360
9969
  3
REFRACTIONTILE
360
996B
  3
SPECULARTILE
360
9968
  0
DICTIONARY
  5
99F8
330
999D
100
AcDbDictionary
280
     1
281
     1
  3
ACAD_XREC_ROUNDTRIP
360
99F9
  0
DICTIONARY
  5
99BF
330
9987
100
AcDbDictionary
280
     1
281
     1
  3
ACAD_ROUNDTRIP_2008_TABLESTYLE_CELLSTYLEMAP
360
99C0
  3
ACAD_XREC_ROUNDTRIP
360
99F6
  0
DICTIONARY
  5
99D0
330
9972
100
AcDbDictionary
280
     1
281
     1
  3
ACAD_XREC_ROUNDTRIP
360
99D1
  0
DICTIONARY
  5
99CE
330
9971
100
AcDbDictionary
280
     1
281
     1
  3
ACAD_XREC_ROUNDTRIP
360
99CF
  0
DICTIONARY
  5
99DC
330
9978
100
AcDbDictionary
280
     1
281
     1
  3
ACAD_XREC_ROUNDTRIP
360
99DD
  0
DICTIONARY
  5
99E4
330
997C
100
AcDbDictionary
280
     1
281
     1
  3
ACAD_XREC_ROUNDTRIP
360
99E5
  0
DICTIONARY
  5
99D6
330
9975
100
AcDbDictionary
280
     1
281
     1
  3
ACAD_XREC_ROUNDTRIP
360
99D7
  0
DICTIONARY
  5
99DA
330
9977
100
AcDbDictionary
280
     1
281
     1
  3
ACAD_XREC_ROUNDTRIP
360
99DB
  0
DICTIONARY
  5
99F4
330
9984
100
AcDbDictionary
280
     1
281
     1
  3
ACAD_XREC_ROUNDTRIP
360
99F5
  0
DICTIONARY
  5
99E2
330
997B
100
AcDbDictionary
280
     1
281
     1
  3
ACAD_XREC_ROUNDTRIP
360
99E3
  0
DICTIONARY
  5
99C6
330
996D
100
AcDbDictionary
280
     1
281
     1
  3
ACAD_XREC_ROUNDTRIP
360
99C7
  0
DICTIONARY
  5
99C8
330
996E
100
AcDbDictionary
280
     1
281
     1
  3
ACAD_XREC_ROUNDTRIP
360
99C9
  0
DICTIONARY
  5
99CA
330
996F
100
AcDbDictionary
280
     1
281
     1
  3
ACAD_XREC_ROUNDTRIP
360
99CB
  0
DICTIONARY
  5
99CC
330
9970
100
AcDbDictionary
280
     1
281
     1
  3
ACAD_XREC_ROUNDTRIP
360
99CD
  0
DICTIONARY
  5
99D4
330
9974
100
AcDbDictionary
280
     1
281
     1
  3
ACAD_XREC_ROUNDTRIP
360
99D5
  0
DICTIONARY
  5
99F0
330
9982
100
AcDbDictionary
280
     1
281
     1
  3
ACAD_XREC_ROUNDTRIP
360
99F1
  0
DICTIONARY
  5
99E0
330
997A
100
AcDbDictionary
280
     1
281
     1
  3
ACAD_XREC_ROUNDTRIP
360
99E1
  0
DICTIONARY
  5
99F2
330
9983
100
AcDbDictionary
280
     1
281
     1
  3
ACAD_XREC_ROUNDTRIP
360
99F3
  0
DICTIONARY
  5
99D8
330
9976
100
AcDbDictionary
280
     1
281
     1
  3
ACAD_XREC_ROUNDTRIP
360
99D9
  0
DICTIONARY
  5
99EE
330
9981
100
AcDbDictionary
280
     1
281
     1
  3
ACAD_XREC_ROUNDTRIP
360
99EF
  0
DICTIONARY
  5
99EC
330
9980
100
AcDbDictionary
280
     1
281
     1
  3
ACAD_XREC_ROUNDTRIP
360
99ED
  0
DICTIONARY
  5
99E6
330
997D
100
AcDbDictionary
280
     1
281
     1
  3
ACAD_XREC_ROUNDTRIP
360
99E7
  0
DICTIONARY
  5
99E8
330
997E
100
AcDbDictionary
280
     1
281
     1
  3
ACAD_XREC_ROUNDTRIP
360
99E9
  0
DICTIONARY
  5
99DE
330
9979
100
AcDbDictionary
280
     1
281
     1
  3
ACAD_XREC_ROUNDTRIP
360
99DF
  0
DICTIONARY
  5
99D2
330
9973
100
AcDbDictionary
280
     1
281
     1
  3
ACAD_XREC_ROUNDTRIP
360
99D3
  0
DICTIONARY
  5
99EA
330
997F
100
AcDbDictionary
280
     1
281
     1
  3
ACAD_XREC_ROUNDTRIP
360
99EB
  0
XRECORD
  5
99FB
102
{ACAD_REACTORS
330
99FA
102
}
330
99FA
100
AcDbXrecord
280
     1
102
DISPLAYNAME
  1
Imperial24
102
FLAGS
 90
        0
  0
XRECORD
  5
99FD
102
{ACAD_REACTORS
330
99FC
102
}
330
99FC
100
AcDbXrecord
280
     1
102
SHADEPLOT
 70
     0
102
SHADEPLOTRESLEVEL
 70
     2
102
SHADEPLOTCUSTOMDPI
 70
   300
  0
XRECORD
  5
99FF
102
{ACAD_REACTORS
330
99FE
102
}
330
99FE
100
AcDbXrecord
280
     1
102
SHADEPLOT
 70
     0
102
SHADEPLOTRESLEVEL
 70
     2
102
SHADEPLOTCUSTOMDPI
 70
   300
  0
XRECORD
  5
99C4
102
{ACAD_REACTORS
330
995D
102
}
330
995D
100
AcDbXrecord
280
     1
102
MATERIAL
148
0.0
149
0.0
149
0.0
 93
        0
 94
      127
282
     0
 72
     0
 77
     0
171
     0
175
     0
179
     0
273
     0
  0
XRECORD
  5
995F
102
{ACAD_REACTORS
330
995D
102
}
330
995D
100
AcDbXrecord
280
     1
270
     1
271
     1
  0
XRECORD
  5
995E
102
{ACAD_REACTORS
330
995D
102
}
330
995D
100
AcDbXrecord
280
     1
270
     1
271
     1
  0
XRECORD
  5
9962
102
{ACAD_REACTORS
330
995D
102
}
330
995D
100
AcDbXrecord
280
     1
270
     1
271
     1
  0
XRECORD
  5
9961
102
{ACAD_REACTORS
330
995D
102
}
330
995D
100
AcDbXrecord
280
     1
270
     1
271
     1
  0
XRECORD
  5
9963
102
{ACAD_REACTORS
330
995D
102
}
330
995D
100
AcDbXrecord
280
     1
270
     1
271
     1
  0
XRECORD
  5
9960
102
{ACAD_REACTORS
330
995D
102
}
330
995D
100
AcDbXrecord
280
     1
270
     1
271
     1
  0
XRECORD
  5
99C3
102
{ACAD_REACTORS
330
9955
102
}
330
9955
100
AcDbXrecord
280
     1
102
MATERIAL
148
0.0
149
0.0
149
0.0
 93
        0
 94
      127
282
     0
 72
     0
 77
     0
171
     0
175
     0
179
     0
273
     0
  0
XRECORD
  5
9957
102
{ACAD_REACTORS
330
9955
102
}
330
9955
100
AcDbXrecord
280
     1
270
     1
271
     1
  0
XRECORD
  5
9956
102
{ACAD_REACTORS
330
9955
102
}
330
9955
100
AcDbXrecord
280
     1
270
     1
271
     1
  0
XRECORD
  5
995A
102
{ACAD_REACTORS
330
9955
102
}
330
9955
100
AcDbXrecord
280
     1
270
     1
271
     1
  0
XRECORD
  5
9959
102
{ACAD_REACTORS
330
9955
102
}
330
9955
100
AcDbXrecord
280
     1
270
     1
271
     1
  0
XRECORD
  5
995B
102
{ACAD_REACTORS
330
9955
102
}
330
9955
100
AcDbXrecord
280
     1
270
     1
271
     1
  0
XRECORD
  5
9958
102
{ACAD_REACTORS
330
9955
102
}
330
9955
100
AcDbXrecord
280
     1
270
     1
271
     1
  0
XRECORD
  5
99C5
102
{ACAD_REACTORS
330
9965
102
}
330
9965
100
AcDbXrecord
280
     1
102
MATERIAL
148
0.0
149
0.0
149
0.0
 93
        0
 94
      127
282
     0
 72
     0
 77
     0
171
     0
175
     0
179
     0
273
     0
  0
XRECORD
  5
9967
102
{ACAD_REACTORS
330
9965
102
}
330
9965
100
AcDbXrecord
280
     1
270
     1
271
     1
  0
XRECORD
  5
9966
102
{ACAD_REACTORS
330
9965
102
}
330
9965
100
AcDbXrecord
280
     1
270
     1
271
     1
  0
XRECORD
  5
996A
102
{ACAD_REACTORS
330
9965
102
}
330
9965
100
AcDbXrecord
280
     1
270
     1
271
     1
  0
XRECORD
  5
9969
102
{ACAD_REACTORS
330
9965
102
}
330
9965
100
AcDbXrecord
280
     1
270
     1
271
     1
  0
XRECORD
  5
996B
102
{ACAD_REACTORS
330
9965
102
}
330
9965
100
AcDbXrecord
280
     1
270
     1
271
     1
  0
XRECORD
  5
9968
102
{ACAD_REACTORS
330
9965
102
}
330
9965
100
AcDbXrecord
280
     1
270
     1
271
     1
  0
XRECORD
  5
99F9
102
{ACAD_REACTORS
330
99F8
102
}
330
99F8
100
AcDbXrecord
280
     1
102
DISPLAYNAME
  1
Imperial24
102
FLAGS
 90
        0
  0
CELLSTYLEMAP
  5
99C0
102
{ACAD_REACTORS
330
99BF
102
}
330
99BF
100
AcDbCellStyleMap
 90
        3
300
CELLSTYLE
  1
TABLEFORMAT_BEGIN
 90
        5
170
     1
 91
        0
 92
    32768
 62
   257
 93
        1
300
CONTENTFORMAT
  1
CONTENTFORMAT_BEGIN
 90
        0
 91
        0
 92
      512
 93
        0
300

 40
0.0
140
1.0
 94
        5
 62
     0
340
95C8
144
0.25
309
CONTENTFORMAT_END
171
     0
 94
        0
309
TABLEFORMAT_END
  1
CELLSTYLE_BEGIN
 90
        1
 91
        1
300
_TITLE
309
CELLSTYLE_END
300
CELLSTYLE
  1
TABLEFORMAT_BEGIN
 90
        5
170
     1
 91
        0
 92
        0
 62
   257
 93
        1
300
CONTENTFORMAT
  1
CONTENTFORMAT_BEGIN
 90
        0
 91
        0
 92
      512
 93
        0
300

 40
0.0
140
1.0
 94
        5
 62
     0
340
95C8
144
0.18
309
CONTENTFORMAT_END
171
     0
 94
        0
309
TABLEFORMAT_END
  1
CELLSTYLE_BEGIN
 90
        2
 91
        1
300
_HEADER
309
CELLSTYLE_END
300
CELLSTYLE
  1
TABLEFORMAT_BEGIN
 90
        5
170
     1
 91
        0
 92
        0
 62
   257
 93
        1
300
CONTENTFORMAT
  1
CONTENTFORMAT_BEGIN
 90
        0
 91
        0
 92
      512
 93
        0
300

 40
0.0
140
1.0
 94
        2
 62
     0
340
95C8
144
0.18
309
CONTENTFORMAT_END
171
     0
 94
        0
309
TABLEFORMAT_END
  1
CELLSTYLE_BEGIN
 90
        3
 91
        2
300
_DATA
309
CELLSTYLE_END
  0
XRECORD
  5
99F6
102
{ACAD_REACTORS
330
99BF
102
}
330
99BF
100
AcDbXrecord
280
     1
102
ACAD_ROUNDTRIP_PRE2007_TABLESTYLE
 90
      512
 91
        0
  1

 92
      512
 93
        0
  2

 94
      512
 95
        0
  3

  0
XRECORD
  5
99D1
102
{ACAD_REACTORS
330
99D0
102
}
330
99D0
100
AcDbXrecord
280
     1
102
RTVSPost2010Prop28
280
     1
102
RTVSPost2010PropOp28
 70
     1
102
RTVSPost2010Prop29
280
     1
102
RTVSPost2010PropOp29
 70
     1
102
RTVSPost2010Prop30
280
     0
102
RTVSPost2010PropOp30
 70
     1
102
RTVSPost2010Prop31
280
     0
102
RTVSPost2010PropOp31
 70
     1
102
RTVSPost2010Prop32
280
     0
102
RTVSPost2010PropOp32
 70
     1
102
RTVSPost2010Prop33
280
     0
102
RTVSPost2010PropOp33
 70
     1
102
RTVSPost2010Prop34
280
     0
102
RTVSPost2010PropOp34
 70
     1
102
RTVSPost2010Prop35
280
     0
102
RTVSPost2010PropOp35
 70
     1
102
RTVSPost2010Prop36
280
     0
102
RTVSPost2010PropOp36
 70
     1
102
RTVSPost2010Prop37
 90
       50
102
RTVSPost2010PropOp37
 70
     1
102
RTVSPost2010Prop38
140
0.0
102
RTVSPost2010PropOp38
 70
     1
102
RTVSPost2010Prop39
140
1.0
102
RTVSPost2010PropOp39
 70
     1
102
RTVSPost2010Prop40
 90
        0
102
RTVSPost2010PropOp40
 70
     1
102
RTVSPost2010Prop41ColorIndex
 90
       18
102
RTVSPost2010Prop41ColorRGB
 90
        0
102
RTVSPost2010PropOp41
 70
     1
102
RTVSPost2010Prop42
 90
       50
102
RTVSPost2010PropOp42
 70
     1
102
RTVSPost2010Prop43
 90
        3
102
RTVSPost2010PropOp43
 70
     1
102
RTVSPost2010Prop44ColorIndex
 90
        5
102
RTVSPost2010Prop44ColorRGB
 90
      255
102
RTVSPost2010PropOp44
 70
     1
102
RTVSPost2010Prop45
280
     0
102
RTVSPost2010PropOp45
 70
     1
102
RTVSPost2010Prop46
 90
       50
102
RTVSPost2010PropOp46
 70
     1
102
RTVSPost2010Prop47
 90
       50
102
RTVSPost2010PropOp47
 70
     1
102
RTVSPost2010Prop48
 90
       50
102
RTVSPost2010PropOp48
 70
     1
102
RTVSPost2010Prop49
280
     0
102
RTVSPost2010PropOp49
 70
     1
102
RTVSPost2010Prop50
 90
       50
102
RTVSPost2010PropOp50
 70
     1
102
RTVSPost2010Prop51ColorIndex
 90
      256
102
RTVSPost2010Prop51ColorRGB
 90
-16777216
102
RTVSPost2010PropOp51
 70
     0
102
RTVSPost2010Prop52
140
1.0
102
RTVSPost2010PropOp52
 70
     0
102
RTVSPost2010Prop53
 90
        2
102
RTVSPost2010PropOp53
 70
     1
102
RTVSPost2010Prop54
  1
strokes_ogs.tif
102
RTVSPost2010PropOp54
 70
     1
102
RTVSPost2010Prop55
280
     0
102
RTVSPost2010PropOp55
 70
     1
102
RTVSPost2010Prop56
140
1.0
102
RTVSPost2010PropOp56
 70
     1
102
RTVSPost2010Prop57
140
1.0
102
RTVSPost2010PropOp57
 70
     1
102
RTVSPropertyOp0
 70
     1
102
RTVSPropertyOp1
 70
     1
102
RTVSPropertyOp2
 70
     1
102
RTVSPropertyOp3
 70
     1
102
RTVSPropertyOp4
 70
     1
102
RTVSPropertyOp5
 70
     1
102
RTVSPropertyOp6
 70
     1
102
RTVSPropertyOp7
 70
     1
102
RTVSPropertyOp8
 70
     1
102
RTVSPropertyOp9
 70
     1
102
RTVSPropertyOp10
 70
     1
102
RTVSPropertyOp11
 70
     1
102
RTVSPropertyOp12
 70
     1
102
RTVSPropertyOp13
 70
     1
102
RTVSPropertyOp14
 70
     1
102
RTVSPropertyOp15
 70
     1
102
RTVSPropertyOp16
 70
     1
102
RTVSPropertyOp17
 70
     1
102
RTVSPropertyOp18
 70
     1
102
RTVSPropertyOp19
 70
     1
102
RTVSPropertyOp20
 70
     1
102
RTVSPropertyOp21
 70
     1
102
RTVSPropertyOp22
 70
     1
102
RTVSPropertyOp23
 70
     1
102
RTVSPropertyOp24
 70
     1
102
RTVSPropertyOp25
 70
     1
102
RTVSPropertyOp26
 70
     1
102
RTVSPropertyOp27
 70
     1
102
RTVSPropertyOp28
 70
     1
102
RTVSPropertyOp29
 70
     1
102
RTVSPropertyOp30
 70
     1
102
RTVSPropertyOp31
 70
     1
102
RTVSPropertyOp32
 70
     1
102
RTVSPropertyOp33
 70
     1
102
RTVSPropertyOp34
 70
     1
102
RTVSPropertyOp35
 70
     1
102
RTVSPropertyOp36
 70
     1
102
RTVSPropertyOp37
 70
     1
102
RTVSPropertyOp38
 70
     1
102
RTVSPropertyOp39
 70
     1
102
RTVSPropertyOp40
 70
     1
102
RTVSPropertyOp41
 70
     1
102
RTVSPropertyOp42
 70
     1
102
RTVSPropertyOp43
 70
     1
102
RTVSPropertyOp44
 70
     1
102
RTVSPropertyOp45
 70
     1
102
RTVSPropertyOp46
 70
     1
102
RTVSPropertyOp47
 70
     1
102
RTVSPropertyOp48
 70
     1
102
RTVSPropertyOp49
 70
     1
102
RTVSPropertyOp50
 70
     1
102
RTVSPropertyOp51
 70
     0
102
RTVSPropertyOp52
 70
     0
102
RTVSPropertyOp53
 70
     1
102
RTVSPropertyOp54
 70
     1
102
RTVSPropertyOp55
 70
     1
102
RTVSPropertyOp56
 70
     1
102
RTVSPropertyOp57
 70
     1
102
RTVSPropertyOp58
 70
     1
102
RTVSPropertyOp59
 70
     1
102
RTVSPropertyOp60
 70
     1
102
RTVSPropertyOp61
 70
     1
102
RTVSPropertyOp62
 70
     1
  0
XRECORD
  5
99CF
102
{ACAD_REACTORS
330
99CE
102
}
330
99CE
100
AcDbXrecord
280
     1
102
RTVSPost2010Prop28
280
     0
102
RTVSPost2010PropOp28
 70
     1
102
RTVSPost2010Prop29
280
     1
102
RTVSPost2010PropOp29
 70
     1
102
RTVSPost2010Prop30
280
     1
102
RTVSPost2010PropOp30
 70
     1
102
RTVSPost2010Prop31
280
     0
102
RTVSPost2010PropOp31
 70
     1
102
RTVSPost2010Prop32
280
     0
102
RTVSPost2010PropOp32
 70
     1
102
RTVSPost2010Prop33
280
     0
102
RTVSPost2010PropOp33
 70
     1
102
RTVSPost2010Prop34
280
     0
102
RTVSPost2010PropOp34
 70
     1
102
RTVSPost2010Prop35
280
     0
102
RTVSPost2010PropOp35
 70
     1
102
RTVSPost2010Prop36
280
     0
102
RTVSPost2010PropOp36
 70
     1
102
RTVSPost2010Prop37
 90
       50
102
RTVSPost2010PropOp37
 70
     1
102
RTVSPost2010Prop38
140
0.0
102
RTVSPost2010PropOp38
 70
     1
102
RTVSPost2010Prop39
140
1.0
102
RTVSPost2010PropOp39
 70
     1
102
RTVSPost2010Prop40
 90
        0
102
RTVSPost2010PropOp40
 70
     1
102
RTVSPost2010Prop41ColorIndex
 90
       18
102
RTVSPost2010Prop41ColorRGB
 90
        0
102
RTVSPost2010PropOp41
 70
     1
102
RTVSPost2010Prop42
 90
       50
102
RTVSPost2010PropOp42
 70
     1
102
RTVSPost2010Prop43
 90
        3
102
RTVSPost2010PropOp43
 70
     1
102
RTVSPost2010Prop44ColorIndex
 90
        5
102
RTVSPost2010Prop44ColorRGB
 90
      255
102
RTVSPost2010PropOp44
 70
     1
102
RTVSPost2010Prop45
280
     0
102
RTVSPost2010PropOp45
 70
     1
102
RTVSPost2010Prop46
 90
       50
102
RTVSPost2010PropOp46
 70
     1
102
RTVSPost2010Prop47
 90
       50
102
RTVSPost2010PropOp47
 70
     1
102
RTVSPost2010Prop48
 90
       50
102
RTVSPost2010PropOp48
 70
     1
102
RTVSPost2010Prop49
280
     0
102
RTVSPost2010PropOp49
 70
     1
102
RTVSPost2010Prop50
 90
       50
102
RTVSPost2010PropOp50
 70
     1
102
RTVSPost2010Prop51ColorIndex
 90
      256
102
RTVSPost2010Prop51ColorRGB
 90
-16777216
102
RTVSPost2010PropOp51
 70
     0
102
RTVSPost2010Prop52
140
1.0
102
RTVSPost2010PropOp52
 70
     0
102
RTVSPost2010Prop53
 90
        2
102
RTVSPost2010PropOp53
 70
     1
102
RTVSPost2010Prop54
  1
strokes_ogs.tif
102
RTVSPost2010PropOp54
 70
     1
102
RTVSPost2010Prop55
280
     0
102
RTVSPost2010PropOp55
 70
     1
102
RTVSPost2010Prop56
140
1.0
102
RTVSPost2010PropOp56
 70
     1
102
RTVSPost2010Prop57
140
1.0
102
RTVSPost2010PropOp57
 70
     1
102
RTVSPropertyOp0
 70
     1
102
RTVSPropertyOp1
 70
     1
102
RTVSPropertyOp2
 70
     1
102
RTVSPropertyOp3
 70
     1
102
RTVSPropertyOp4
 70
     1
102
RTVSPropertyOp5
 70
     1
102
RTVSPropertyOp6
 70
     1
102
RTVSPropertyOp7
 70
     1
102
RTVSPropertyOp8
 70
     1
102
RTVSPropertyOp9
 70
     1
102
RTVSPropertyOp10
 70
     1
102
RTVSPropertyOp11
 70
     1
102
RTVSPropertyOp12
 70
     1
102
RTVSPropertyOp13
 70
     1
102
RTVSPropertyOp14
 70
     1
102
RTVSPropertyOp15
 70
     1
102
RTVSPropertyOp16
 70
     1
102
RTVSPropertyOp17
 70
     1
102
RTVSPropertyOp18
 70
     1
102
RTVSPropertyOp19
 70
     1
102
RTVSPropertyOp20
 70
     1
102
RTVSPropertyOp21
 70
     1
102
RTVSPropertyOp22
 70
     1
102
RTVSPropertyOp23
 70
     1
102
RTVSPropertyOp24
 70
     1
102
RTVSPropertyOp25
 70
     1
102
RTVSPropertyOp26
 70
     1
102
RTVSPropertyOp27
 70
     1
102
RTVSPropertyOp28
 70
     1
102
RTVSPropertyOp29
 70
     1
102
RTVSPropertyOp30
 70
     1
102
RTVSPropertyOp31
 70
     1
102
RTVSPropertyOp32
 70
     1
102
RTVSPropertyOp33
 70
     1
102
RTVSPropertyOp34
 70
     1
102
RTVSPropertyOp35
 70
     1
102
RTVSPropertyOp36
 70
     1
102
RTVSPropertyOp37
 70
     1
102
RTVSPropertyOp38
 70
     1
102
RTVSPropertyOp39
 70
     1
102
RTVSPropertyOp40
 70
     1
102
RTVSPropertyOp41
 70
     1
102
RTVSPropertyOp42
 70
     1
102
RTVSPropertyOp43
 70
     1
102
RTVSPropertyOp44
 70
     1
102
RTVSPropertyOp45
 70
     1
102
RTVSPropertyOp46
 70
     1
102
RTVSPropertyOp47
 70
     1
102
RTVSPropertyOp48
 70
     1
102
RTVSPropertyOp49
 70
     1
102
RTVSPropertyOp50
 70
     1
102
RTVSPropertyOp51
 70
     0
102
RTVSPropertyOp52
 70
     0
102
RTVSPropertyOp53
 70
     1
102
RTVSPropertyOp54
 70
     1
102
RTVSPropertyOp55
 70
     1
102
RTVSPropertyOp56
 70
     1
102
RTVSPropertyOp57
 70
     1
102
RTVSPropertyOp58
 70
     1
102
RTVSPropertyOp59
 70
     1
102
RTVSPropertyOp60
 70
     1
102
RTVSPropertyOp61
 70
     1
102
RTVSPropertyOp62
 70
     1
  0
XRECORD
  5
99DD
102
{ACAD_REACTORS
330
99DC
102
}
330
99DC
100
AcDbXrecord
280
     1
102
RTVSPost2010Prop28
280
     0
102
RTVSPost2010PropOp28
 70
     1
102
RTVSPost2010Prop29
280
     1
102
RTVSPost2010PropOp29
 70
     1
102
RTVSPost2010Prop30
280
     1
102
RTVSPost2010PropOp30
 70
     1
102
RTVSPost2010Prop31
280
     0
102
RTVSPost2010PropOp31
 70
     1
102
RTVSPost2010Prop32
280
     0
102
RTVSPost2010PropOp32
 70
     1
102
RTVSPost2010Prop33
280
     0
102
RTVSPost2010PropOp33
 70
     1
102
RTVSPost2010Prop34
280
     0
102
RTVSPost2010PropOp34
 70
     1
102
RTVSPost2010Prop35
280
     0
102
RTVSPost2010PropOp35
 70
     1
102
RTVSPost2010Prop36
280
     0
102
RTVSPost2010PropOp36
 70
     1
102
RTVSPost2010Prop37
 90
       50
102
RTVSPost2010PropOp37
 70
     1
102
RTVSPost2010Prop38
140
0.0
102
RTVSPost2010PropOp38
 70
     1
102
RTVSPost2010Prop39
140
1.0
102
RTVSPost2010PropOp39
 70
     1
102
RTVSPost2010Prop40
 90
        0
102
RTVSPost2010PropOp40
 70
     1
102
RTVSPost2010Prop41ColorIndex
 90
       18
102
RTVSPost2010Prop41ColorRGB
 90
        0
102
RTVSPost2010PropOp41
 70
     1
102
RTVSPost2010Prop42
 90
       50
102
RTVSPost2010PropOp42
 70
     1
102
RTVSPost2010Prop43
 90
        3
102
RTVSPost2010PropOp43
 70
     1
102
RTVSPost2010Prop44ColorIndex
 90
        5
102
RTVSPost2010Prop44ColorRGB
 90
      255
102
RTVSPost2010PropOp44
 70
     1
102
RTVSPost2010Prop45
280
     0
102
RTVSPost2010PropOp45
 70
     1
102
RTVSPost2010Prop46
 90
       50
102
RTVSPost2010PropOp46
 70
     1
102
RTVSPost2010Prop47
 90
       50
102
RTVSPost2010PropOp47
 70
     1
102
RTVSPost2010Prop48
 90
       50
102
RTVSPost2010PropOp48
 70
     1
102
RTVSPost2010Prop49
280
     0
102
RTVSPost2010PropOp49
 70
     1
102
RTVSPost2010Prop50
 90
       50
102
RTVSPost2010PropOp50
 70
     1
102
RTVSPost2010Prop51ColorIndex
 90
      256
102
RTVSPost2010Prop51ColorRGB
 90
-16777216
102
RTVSPost2010PropOp51
 70
     0
102
RTVSPost2010Prop52
140
1.0
102
RTVSPost2010PropOp52
 70
     0
102
RTVSPost2010Prop53
 90
        2
102
RTVSPost2010PropOp53
 70
     1
102
RTVSPost2010Prop54
  1
strokes_ogs.tif
102
RTVSPost2010PropOp54
 70
     1
102
RTVSPost2010Prop55
280
     0
102
RTVSPost2010PropOp55
 70
     1
102
RTVSPost2010Prop56
140
1.0
102
RTVSPost2010PropOp56
 70
     1
102
RTVSPost2010Prop57
140
1.0
102
RTVSPost2010PropOp57
 70
     1
102
RTVSPropertyOp0
 70
     1
102
RTVSPropertyOp1
 70
     1
102
RTVSPropertyOp2
 70
     1
102
RTVSPropertyOp3
 70
     1
102
RTVSPropertyOp4
 70
     1
102
RTVSPropertyOp5
 70
     1
102
RTVSPropertyOp6
 70
     1
102
RTVSPropertyOp7
 70
     1
102
RTVSPropertyOp8
 70
     1
102
RTVSPropertyOp9
 70
     1
102
RTVSPropertyOp10
 70
     1
102
RTVSPropertyOp11
 70
     1
102
RTVSPropertyOp12
 70
     1
102
RTVSPropertyOp13
 70
     1
102
RTVSPropertyOp14
 70
     1
102
RTVSPropertyOp15
 70
     1
102
RTVSPropertyOp16
 70
     1
102
RTVSPropertyOp17
 70
     1
102
RTVSPropertyOp18
 70
     1
102
RTVSPropertyOp19
 70
     1
102
RTVSPropertyOp20
 70
     1
102
RTVSPropertyOp21
 70
     1
102
RTVSPropertyOp22
 70
     1
102
RTVSPropertyOp23
 70
     1
102
RTVSPropertyOp24
 70
     1
102
RTVSPropertyOp25
 70
     1
102
RTVSPropertyOp26
 70
     1
102
RTVSPropertyOp27
 70
     1
102
RTVSPropertyOp28
 70
     1
102
RTVSPropertyOp29
 70
     1
102
RTVSPropertyOp30
 70
     1
102
RTVSPropertyOp31
 70
     1
102
RTVSPropertyOp32
 70
     1
102
RTVSPropertyOp33
 70
     1
102
RTVSPropertyOp34
 70
     1
102
RTVSPropertyOp35
 70
     1
102
RTVSPropertyOp36
 70
     1
102
RTVSPropertyOp37
 70
     1
102
RTVSPropertyOp38
 70
     1
102
RTVSPropertyOp39
 70
     1
102
RTVSPropertyOp40
 70
     1
102
RTVSPropertyOp41
 70
     1
102
RTVSPropertyOp42
 70
     1
102
RTVSPropertyOp43
 70
     1
102
RTVSPropertyOp44
 70
     1
102
RTVSPropertyOp45
 70
     1
102
RTVSPropertyOp46
 70
     1
102
RTVSPropertyOp47
 70
     1
102
RTVSPropertyOp48
 70
     1
102
RTVSPropertyOp49
 70
     1
102
RTVSPropertyOp50
 70
     1
102
RTVSPropertyOp51
 70
     0
102
RTVSPropertyOp52
 70
     0
102
RTVSPropertyOp53
 70
     1
102
RTVSPropertyOp54
 70
     1
102
RTVSPropertyOp55
 70
     1
102
RTVSPropertyOp56
 70
     1
102
RTVSPropertyOp57
 70
     1
102
RTVSPropertyOp58
 70
     1
102
RTVSPropertyOp59
 70
     1
102
RTVSPropertyOp60
 70
     1
102
RTVSPropertyOp61
 70
     1
102
RTVSPropertyOp62
 70
     1
  0
XRECORD
  5
99E5
102
{ACAD_REACTORS
330
99E4
102
}
330
99E4
100
AcDbXrecord
280
     1
102
RTVSPost2010Prop28
280
     0
102
RTVSPost2010PropOp28
 70
     1
102
RTVSPost2010Prop29
280
     1
102
RTVSPost2010PropOp29
 70
     1
102
RTVSPost2010Prop30
280
     1
102
RTVSPost2010PropOp30
 70
     1
102
RTVSPost2010Prop31
280
     0
102
RTVSPost2010PropOp31
 70
     1
102
RTVSPost2010Prop32
280
     0
102
RTVSPost2010PropOp32
 70
     1
102
RTVSPost2010Prop33
280
     0
102
RTVSPost2010PropOp33
 70
     1
102
RTVSPost2010Prop34
280
     0
102
RTVSPost2010PropOp34
 70
     1
102
RTVSPost2010Prop35
280
     0
102
RTVSPost2010PropOp35
 70
     1
102
RTVSPost2010Prop36
280
     0
102
RTVSPost2010PropOp36
 70
     1
102
RTVSPost2010Prop37
 90
       50
102
RTVSPost2010PropOp37
 70
     1
102
RTVSPost2010Prop38
140
0.0
102
RTVSPost2010PropOp38
 70
     1
102
RTVSPost2010Prop39
140
1.0
102
RTVSPost2010PropOp39
 70
     1
102
RTVSPost2010Prop40
 90
        0
102
RTVSPost2010PropOp40
 70
     1
102
RTVSPost2010Prop41ColorIndex
 90
       18
102
RTVSPost2010Prop41ColorRGB
 90
        0
102
RTVSPost2010PropOp41
 70
     1
102
RTVSPost2010Prop42
 90
       50
102
RTVSPost2010PropOp42
 70
     1
102
RTVSPost2010Prop43
 90
        3
102
RTVSPost2010PropOp43
 70
     1
102
RTVSPost2010Prop44ColorIndex
 90
        5
102
RTVSPost2010Prop44ColorRGB
 90
      255
102
RTVSPost2010PropOp44
 70
     1
102
RTVSPost2010Prop45
280
     0
102
RTVSPost2010PropOp45
 70
     1
102
RTVSPost2010Prop46
 90
       50
102
RTVSPost2010PropOp46
 70
     1
102
RTVSPost2010Prop47
 90
       50
102
RTVSPost2010PropOp47
 70
     1
102
RTVSPost2010Prop48
 90
       50
102
RTVSPost2010PropOp48
 70
     1
102
RTVSPost2010Prop49
280
     0
102
RTVSPost2010PropOp49
 70
     1
102
RTVSPost2010Prop50
 90
       50
102
RTVSPost2010PropOp50
 70
     1
102
RTVSPost2010Prop51ColorIndex
 90
      256
102
RTVSPost2010Prop51ColorRGB
 90
-16777216
102
RTVSPost2010PropOp51
 70
     0
102
RTVSPost2010Prop52
140
1.0
102
RTVSPost2010PropOp52
 70
     0
102
RTVSPost2010Prop53
 90
        2
102
RTVSPost2010PropOp53
 70
     1
102
RTVSPost2010Prop54
  1
strokes_ogs.tif
102
RTVSPost2010PropOp54
 70
     1
102
RTVSPost2010Prop55
280
     0
102
RTVSPost2010PropOp55
 70
     1
102
RTVSPost2010Prop56
140
1.0
102
RTVSPost2010PropOp56
 70
     1
102
RTVSPost2010Prop57
140
1.0
102
RTVSPost2010PropOp57
 70
     1
102
RTVSPropertyOp0
 70
     1
102
RTVSPropertyOp1
 70
     1
102
RTVSPropertyOp2
 70
     1
102
RTVSPropertyOp3
 70
     1
102
RTVSPropertyOp4
 70
     1
102
RTVSPropertyOp5
 70
     1
102
RTVSPropertyOp6
 70
     1
102
RTVSPropertyOp7
 70
     1
102
RTVSPropertyOp8
 70
     1
102
RTVSPropertyOp9
 70
     1
102
RTVSPropertyOp10
 70
     1
102
RTVSPropertyOp11
 70
     1
102
RTVSPropertyOp12
 70
     1
102
RTVSPropertyOp13
 70
     1
102
RTVSPropertyOp14
 70
     1
102
RTVSPropertyOp15
 70
     1
102
RTVSPropertyOp16
 70
     1
102
RTVSPropertyOp17
 70
     1
102
RTVSPropertyOp18
 70
     1
102
RTVSPropertyOp19
 70
     1
102
RTVSPropertyOp20
 70
     1
102
RTVSPropertyOp21
 70
     1
102
RTVSPropertyOp22
 70
     1
102
RTVSPropertyOp23
 70
     1
102
RTVSPropertyOp24
 70
     1
102
RTVSPropertyOp25
 70
     1
102
RTVSPropertyOp26
 70
     1
102
RTVSPropertyOp27
 70
     1
102
RTVSPropertyOp28
 70
     1
102
RTVSPropertyOp29
 70
     1
102
RTVSPropertyOp30
 70
     1
102
RTVSPropertyOp31
 70
     1
102
RTVSPropertyOp32
 70
     1
102
RTVSPropertyOp33
 70
     1
102
RTVSPropertyOp34
 70
     1
102
RTVSPropertyOp35
 70
     1
102
RTVSPropertyOp36
 70
     1
102
RTVSPropertyOp37
 70
     1
102
RTVSPropertyOp38
 70
     1
102
RTVSPropertyOp39
 70
     1
102
RTVSPropertyOp40
 70
     1
102
RTVSPropertyOp41
 70
     1
102
RTVSPropertyOp42
 70
     1
102
RTVSPropertyOp43
 70
     1
102
RTVSPropertyOp44
 70
     1
102
RTVSPropertyOp45
 70
     1
102
RTVSPropertyOp46
 70
     1
102
RTVSPropertyOp47
 70
     1
102
RTVSPropertyOp48
 70
     1
102
RTVSPropertyOp49
 70
     1
102
RTVSPropertyOp50
 70
     1
102
RTVSPropertyOp51
 70
     0
102
RTVSPropertyOp52
 70
     0
102
RTVSPropertyOp53
 70
     1
102
RTVSPropertyOp54
 70
     1
102
RTVSPropertyOp55
 70
     1
102
RTVSPropertyOp56
 70
     1
102
RTVSPropertyOp57
 70
     1
102
RTVSPropertyOp58
 70
     1
102
RTVSPropertyOp59
 70
     1
102
RTVSPropertyOp60
 70
     1
102
RTVSPropertyOp61
 70
     1
102
RTVSPropertyOp62
 70
     1
  0
XRECORD
  5
99D7
102
{ACAD_REACTORS
330
99D6
102
}
330
99D6
100
AcDbXrecord
280
     1
102
RTVSPost2010Prop28
280
     0
102
RTVSPost2010PropOp28
 70
     1
102
RTVSPost2010Prop29
280
     1
102
RTVSPost2010PropOp29
 70
     1
102
RTVSPost2010Prop30
280
     1
102
RTVSPost2010PropOp30
 70
     1
102
RTVSPost2010Prop31
280
     0
102
RTVSPost2010PropOp31
 70
     1
102
RTVSPost2010Prop32
280
     0
102
RTVSPost2010PropOp32
 70
     1
102
RTVSPost2010Prop33
280
     0
102
RTVSPost2010PropOp33
 70
     1
102
RTVSPost2010Prop34
280
     0
102
RTVSPost2010PropOp34
 70
     1
102
RTVSPost2010Prop35
280
     0
102
RTVSPost2010PropOp35
 70
     1
102
RTVSPost2010Prop36
280
     0
102
RTVSPost2010PropOp36
 70
     1
102
RTVSPost2010Prop37
 90
       50
102
RTVSPost2010PropOp37
 70
     1
102
RTVSPost2010Prop38
140
0.0
102
RTVSPost2010PropOp38
 70
     1
102
RTVSPost2010Prop39
140
1.0
102
RTVSPost2010PropOp39
 70
     1
102
RTVSPost2010Prop40
 90
        0
102
RTVSPost2010PropOp40
 70
     1
102
RTVSPost2010Prop41ColorIndex
 90
       18
102
RTVSPost2010Prop41ColorRGB
 90
        0
102
RTVSPost2010PropOp41
 70
     1
102
RTVSPost2010Prop42
 90
       50
102
RTVSPost2010PropOp42
 70
     1
102
RTVSPost2010Prop43
 90
        3
102
RTVSPost2010PropOp43
 70
     1
102
RTVSPost2010Prop44ColorIndex
 90
        5
102
RTVSPost2010Prop44ColorRGB
 90
      255
102
RTVSPost2010PropOp44
 70
     1
102
RTVSPost2010Prop45
280
     0
102
RTVSPost2010PropOp45
 70
     1
102
RTVSPost2010Prop46
 90
       50
102
RTVSPost2010PropOp46
 70
     1
102
RTVSPost2010Prop47
 90
       50
102
RTVSPost2010PropOp47
 70
     1
102
RTVSPost2010Prop48
 90
       50
102
RTVSPost2010PropOp48
 70
     1
102
RTVSPost2010Prop49
280
     0
102
RTVSPost2010PropOp49
 70
     1
102
RTVSPost2010Prop50
 90
       50
102
RTVSPost2010PropOp50
 70
     1
102
RTVSPost2010Prop51ColorIndex
 90
      256
102
RTVSPost2010Prop51ColorRGB
 90
-16777216
102
RTVSPost2010PropOp51
 70
     0
102
RTVSPost2010Prop52
140
1.0
102
RTVSPost2010PropOp52
 70
     0
102
RTVSPost2010Prop53
 90
        2
102
RTVSPost2010PropOp53
 70
     1
102
RTVSPost2010Prop54
  1
strokes_ogs.tif
102
RTVSPost2010PropOp54
 70
     1
102
RTVSPost2010Prop55
280
     0
102
RTVSPost2010PropOp55
 70
     1
102
RTVSPost2010Prop56
140
1.0
102
RTVSPost2010PropOp56
 70
     1
102
RTVSPost2010Prop57
140
1.0
102
RTVSPost2010PropOp57
 70
     1
102
RTVSPropertyOp0
 70
     1
102
RTVSPropertyOp1
 70
     1
102
RTVSPropertyOp2
 70
     1
102
RTVSPropertyOp3
 70
     1
102
RTVSPropertyOp4
 70
     1
102
RTVSPropertyOp5
 70
     1
102
RTVSPropertyOp6
 70
     1
102
RTVSPropertyOp7
 70
     1
102
RTVSPropertyOp8
 70
     1
102
RTVSPropertyOp9
 70
     1
102
RTVSPropertyOp10
 70
     1
102
RTVSPropertyOp11
 70
     1
102
RTVSPropertyOp12
 70
     1
102
RTVSPropertyOp13
 70
     1
102
RTVSPropertyOp14
 70
     1
102
RTVSPropertyOp15
 70
     1
102
RTVSPropertyOp16
 70
     1
102
RTVSPropertyOp17
 70
     1
102
RTVSPropertyOp18
 70
     1
102
RTVSPropertyOp19
 70
     1
102
RTVSPropertyOp20
 70
     1
102
RTVSPropertyOp21
 70
     1
102
RTVSPropertyOp22
 70
     1
102
RTVSPropertyOp23
 70
     1
102
RTVSPropertyOp24
 70
     1
102
RTVSPropertyOp25
 70
     1
102
RTVSPropertyOp26
 70
     1
102
RTVSPropertyOp27
 70
     1
102
RTVSPropertyOp28
 70
     1
102
RTVSPropertyOp29
 70
     1
102
RTVSPropertyOp30
 70
     1
102
RTVSPropertyOp31
 70
     1
102
RTVSPropertyOp32
 70
     1
102
RTVSPropertyOp33
 70
     1
102
RTVSPropertyOp34
 70
     1
102
RTVSPropertyOp35
 70
     1
102
RTVSPropertyOp36
 70
     1
102
RTVSPropertyOp37
 70
     1
102
RTVSPropertyOp38
 70
     1
102
RTVSPropertyOp39
 70
     1
102
RTVSPropertyOp40
 70
     1
102
RTVSPropertyOp41
 70
     1
102
RTVSPropertyOp42
 70
     1
102
RTVSPropertyOp43
 70
     1
102
RTVSPropertyOp44
 70
     1
102
RTVSPropertyOp45
 70
     1
102
RTVSPropertyOp46
 70
     1
102
RTVSPropertyOp47
 70
     1
102
RTVSPropertyOp48
 70
     1
102
RTVSPropertyOp49
 70
     1
102
RTVSPropertyOp50
 70
     1
102
RTVSPropertyOp51
 70
     0
102
RTVSPropertyOp52
 70
     0
102
RTVSPropertyOp53
 70
     1
102
RTVSPropertyOp54
 70
     1
102
RTVSPropertyOp55
 70
     1
102
RTVSPropertyOp56
 70
     1
102
RTVSPropertyOp57
 70
     1
102
RTVSPropertyOp58
 70
     1
102
RTVSPropertyOp59
 70
     1
102
RTVSPropertyOp60
 70
     1
102
RTVSPropertyOp61
 70
     1
102
RTVSPropertyOp62
 70
     1
  0
XRECORD
  5
99DB
102
{ACAD_REACTORS
330
99DA
102
}
330
99DA
100
AcDbXrecord
280
     1
102
RTVSPost2010Prop28
280
     0
102
RTVSPost2010PropOp28
 70
     1
102
RTVSPost2010Prop29
280
     1
102
RTVSPost2010PropOp29
 70
     1
102
RTVSPost2010Prop30
280
     1
102
RTVSPost2010PropOp30
 70
     1
102
RTVSPost2010Prop31
280
     0
102
RTVSPost2010PropOp31
 70
     1
102
RTVSPost2010Prop32
280
     0
102
RTVSPost2010PropOp32
 70
     1
102
RTVSPost2010Prop33
280
     0
102
RTVSPost2010PropOp33
 70
     1
102
RTVSPost2010Prop34
280
     0
102
RTVSPost2010PropOp34
 70
     1
102
RTVSPost2010Prop35
280
     0
102
RTVSPost2010PropOp35
 70
     1
102
RTVSPost2010Prop36
280
     0
102
RTVSPost2010PropOp36
 70
     1
102
RTVSPost2010Prop37
 90
       50
102
RTVSPost2010PropOp37
 70
     1
102
RTVSPost2010Prop38
140
0.0
102
RTVSPost2010PropOp38
 70
     1
102
RTVSPost2010Prop39
140
1.0
102
RTVSPost2010PropOp39
 70
     1
102
RTVSPost2010Prop40
 90
        0
102
RTVSPost2010PropOp40
 70
     1
102
RTVSPost2010Prop41ColorIndex
 90
       18
102
RTVSPost2010Prop41ColorRGB
 90
        0
102
RTVSPost2010PropOp41
 70
     1
102
RTVSPost2010Prop42
 90
       50
102
RTVSPost2010PropOp42
 70
     1
102
RTVSPost2010Prop43
 90
        3
102
RTVSPost2010PropOp43
 70
     1
102
RTVSPost2010Prop44ColorIndex
 90
        5
102
RTVSPost2010Prop44ColorRGB
 90
      255
102
RTVSPost2010PropOp44
 70
     1
102
RTVSPost2010Prop45
280
     0
102
RTVSPost2010PropOp45
 70
     1
102
RTVSPost2010Prop46
 90
       50
102
RTVSPost2010PropOp46
 70
     1
102
RTVSPost2010Prop47
 90
       50
102
RTVSPost2010PropOp47
 70
     1
102
RTVSPost2010Prop48
 90
       50
102
RTVSPost2010PropOp48
 70
     1
102
RTVSPost2010Prop49
280
     0
102
RTVSPost2010PropOp49
 70
     1
102
RTVSPost2010Prop50
 90
       50
102
RTVSPost2010PropOp50
 70
     1
102
RTVSPost2010Prop51ColorIndex
 90
      256
102
RTVSPost2010Prop51ColorRGB
 90
-16777216
102
RTVSPost2010PropOp51
 70
     0
102
RTVSPost2010Prop52
140
1.0
102
RTVSPost2010PropOp52
 70
     0
102
RTVSPost2010Prop53
 90
        2
102
RTVSPost2010PropOp53
 70
     1
102
RTVSPost2010Prop54
  1
strokes_ogs.tif
102
RTVSPost2010PropOp54
 70
     1
102
RTVSPost2010Prop55
280
     0
102
RTVSPost2010PropOp55
 70
     1
102
RTVSPost2010Prop56
140
1.0
102
RTVSPost2010PropOp56
 70
     1
102
RTVSPost2010Prop57
140
1.0
102
RTVSPost2010PropOp57
 70
     1
102
RTVSPropertyOp0
 70
     1
102
RTVSPropertyOp1
 70
     1
102
RTVSPropertyOp2
 70
     1
102
RTVSPropertyOp3
 70
     1
102
RTVSPropertyOp4
 70
     1
102
RTVSPropertyOp5
 70
     1
102
RTVSPropertyOp6
 70
     1
102
RTVSPropertyOp7
 70
     1
102
RTVSPropertyOp8
 70
     1
102
RTVSPropertyOp9
 70
     1
102
RTVSPropertyOp10
 70
     1
102
RTVSPropertyOp11
 70
     1
102
RTVSPropertyOp12
 70
     1
102
RTVSPropertyOp13
 70
     1
102
RTVSPropertyOp14
 70
     1
102
RTVSPropertyOp15
 70
     1
102
RTVSPropertyOp16
 70
     1
102
RTVSPropertyOp17
 70
     1
102
RTVSPropertyOp18
 70
     1
102
RTVSPropertyOp19
 70
     1
102
RTVSPropertyOp20
 70
     1
102
RTVSPropertyOp21
 70
     1
102
RTVSPropertyOp22
 70
     1
102
RTVSPropertyOp23
 70
     1
102
RTVSPropertyOp24
 70
     1
102
RTVSPropertyOp25
 70
     1
102
RTVSPropertyOp26
 70
     1
102
RTVSPropertyOp27
 70
     1
102
RTVSPropertyOp28
 70
     1
102
RTVSPropertyOp29
 70
     1
102
RTVSPropertyOp30
 70
     1
102
RTVSPropertyOp31
 70
     1
102
RTVSPropertyOp32
 70
     1
102
RTVSPropertyOp33
 70
     1
102
RTVSPropertyOp34
 70
     1
102
RTVSPropertyOp35
 70
     1
102
RTVSPropertyOp36
 70
     1
102
RTVSPropertyOp37
 70
     1
102
RTVSPropertyOp38
 70
     1
102
RTVSPropertyOp39
 70
     1
102
RTVSPropertyOp40
 70
     1
102
RTVSPropertyOp41
 70
     1
102
RTVSPropertyOp42
 70
     1
102
RTVSPropertyOp43
 70
     1
102
RTVSPropertyOp44
 70
     1
102
RTVSPropertyOp45
 70
     1
102
RTVSPropertyOp46
 70
     1
102
RTVSPropertyOp47
 70
     1
102
RTVSPropertyOp48
 70
     1
102
RTVSPropertyOp49
 70
     1
102
RTVSPropertyOp50
 70
     1
102
RTVSPropertyOp51
 70
     0
102
RTVSPropertyOp52
 70
     0
102
RTVSPropertyOp53
 70
     1
102
RTVSPropertyOp54
 70
     1
102
RTVSPropertyOp55
 70
     1
102
RTVSPropertyOp56
 70
     1
102
RTVSPropertyOp57
 70
     1
102
RTVSPropertyOp58
 70
     1
102
RTVSPropertyOp59
 70
     1
102
RTVSPropertyOp60
 70
     1
102
RTVSPropertyOp61
 70
     1
102
RTVSPropertyOp62
 70
     1
  0
XRECORD
  5
99F5
102
{ACAD_REACTORS
330
99F4
102
}
330
99F4
100
AcDbXrecord
280
     1
102
RTVSPost2010Prop28
280
     0
102
RTVSPost2010PropOp28
 70
     1
102
RTVSPost2010Prop29
280
     1
102
RTVSPost2010PropOp29
 70
     1
102
RTVSPost2010Prop30
280
     1
102
RTVSPost2010PropOp30
 70
     1
102
RTVSPost2010Prop31
280
     0
102
RTVSPost2010PropOp31
 70
     1
102
RTVSPost2010Prop32
280
     0
102
RTVSPost2010PropOp32
 70
     1
102
RTVSPost2010Prop33
280
     0
102
RTVSPost2010PropOp33
 70
     1
102
RTVSPost2010Prop34
280
     0
102
RTVSPost2010PropOp34
 70
     1
102
RTVSPost2010Prop35
280
     0
102
RTVSPost2010PropOp35
 70
     1
102
RTVSPost2010Prop36
280
     0
102
RTVSPost2010PropOp36
 70
     1
102
RTVSPost2010Prop37
 90
       50
102
RTVSPost2010PropOp37
 70
     0
102
RTVSPost2010Prop38
140
0.0
102
RTVSPost2010PropOp38
 70
     0
102
RTVSPost2010Prop39
140
1.0
102
RTVSPost2010PropOp39
 70
     0
102
RTVSPost2010Prop40
 90
        0
102
RTVSPost2010PropOp40
 70
     0
102
RTVSPost2010Prop41ColorIndex
 90
       18
102
RTVSPost2010Prop41ColorRGB
 90
        0
102
RTVSPost2010PropOp41
 70
     0
102
RTVSPost2010Prop42
 90
       50
102
RTVSPost2010PropOp42
 70
     0
102
RTVSPost2010Prop43
 90
        3
102
RTVSPost2010PropOp43
 70
     0
102
RTVSPost2010Prop44ColorIndex
 90
        5
102
RTVSPost2010Prop44ColorRGB
 90
      255
102
RTVSPost2010PropOp44
 70
     0
102
RTVSPost2010Prop45
280
     0
102
RTVSPost2010PropOp45
 70
     1
102
RTVSPost2010Prop46
 90
       50
102
RTVSPost2010PropOp46
 70
     0
102
RTVSPost2010Prop47
 90
       50
102
RTVSPost2010PropOp47
 70
     0
102
RTVSPost2010Prop48
 90
       50
102
RTVSPost2010PropOp48
 70
     0
102
RTVSPost2010Prop49
280
     0
102
RTVSPost2010PropOp49
 70
     1
102
RTVSPost2010Prop50
 90
       50
102
RTVSPost2010PropOp50
 70
     0
102
RTVSPost2010Prop51ColorIndex
 90
      256
102
RTVSPost2010Prop51ColorRGB
 90
-16777216
102
RTVSPost2010PropOp51
 70
     0
102
RTVSPost2010Prop52
140
1.0
102
RTVSPost2010PropOp52
 70
     0
102
RTVSPost2010Prop53
 90
        2
102
RTVSPost2010PropOp53
 70
     0
102
RTVSPost2010Prop54
  1
strokes_ogs.tif
102
RTVSPost2010PropOp54
 70
     0
102
RTVSPost2010Prop55
280
     0
102
RTVSPost2010PropOp55
 70
     1
102
RTVSPost2010Prop56
140
1.0
102
RTVSPost2010PropOp56
 70
     0
102
RTVSPost2010Prop57
140
1.0
102
RTVSPost2010PropOp57
 70
     0
102
RTVSPropertyOp0
 70
     0
102
RTVSPropertyOp1
 70
     0
102
RTVSPropertyOp2
 70
     0
102
RTVSPropertyOp3
 70
     0
102
RTVSPropertyOp4
 70
     0
102
RTVSPropertyOp5
 70
     0
102
RTVSPropertyOp6
 70
     0
102
RTVSPropertyOp7
 70
     0
102
RTVSPropertyOp8
 70
     0
102
RTVSPropertyOp9
 70
     0
102
RTVSPropertyOp10
 70
     0
102
RTVSPropertyOp11
 70
     0
102
RTVSPropertyOp12
 70
     0
102
RTVSPropertyOp13
 70
     0
102
RTVSPropertyOp14
 70
     2
102
RTVSPropertyOp15
 70
     0
102
RTVSPropertyOp16
 70
     0
102
RTVSPropertyOp17
 70
     0
102
RTVSPropertyOp18
 70
     0
102
RTVSPropertyOp19
 70
     0
102
RTVSPropertyOp20
 70
     0
102
RTVSPropertyOp21
 70
     0
102
RTVSPropertyOp22
 70
     0
102
RTVSPropertyOp23
 70
     0
102
RTVSPropertyOp24
 70
     0
102
RTVSPropertyOp25
 70
     0
102
RTVSPropertyOp26
 70
     0
102
RTVSPropertyOp27
 70
     0
102
RTVSPropertyOp28
 70
     1
102
RTVSPropertyOp29
 70
     1
102
RTVSPropertyOp30
 70
     1
102
RTVSPropertyOp31
 70
     1
102
RTVSPropertyOp32
 70
     1
102
RTVSPropertyOp33
 70
     1
102
RTVSPropertyOp34
 70
     1
102
RTVSPropertyOp35
 70
     1
102
RTVSPropertyOp36
 70
     1
102
RTVSPropertyOp37
 70
     0
102
RTVSPropertyOp38
 70
     0
102
RTVSPropertyOp39
 70
     0
102
RTVSPropertyOp40
 70
     0
102
RTVSPropertyOp41
 70
     0
102
RTVSPropertyOp42
 70
     0
102
RTVSPropertyOp43
 70
     0
102
RTVSPropertyOp44
 70
     0
102
RTVSPropertyOp45
 70
     1
102
RTVSPropertyOp46
 70
     0
102
RTVSPropertyOp47
 70
     0
102
RTVSPropertyOp48
 70
     0
102
RTVSPropertyOp49
 70
     1
102
RTVSPropertyOp50
 70
     0
102
RTVSPropertyOp51
 70
     0
102
RTVSPropertyOp52
 70
     0
102
RTVSPropertyOp53
 70
     0
102
RTVSPropertyOp54
 70
     0
102
RTVSPropertyOp55
 70
     1
102
RTVSPropertyOp56
 70
     0
102
RTVSPropertyOp57
 70
     0
102
RTVSPropertyOp58
 70
     0
102
RTVSPropertyOp59
 70
     0
102
RTVSPropertyOp60
 70
     0
102
RTVSPropertyOp61
 70
     0
102
RTVSPropertyOp62
 70
     0
  0
XRECORD
  5
99E3
102
{ACAD_REACTORS
330
99E2
102
}
330
99E2
100
AcDbXrecord
280
     1
102
RTVSPost2010Prop28
280
     0
102
RTVSPost2010PropOp28
 70
     1
102
RTVSPost2010Prop29
280
     1
102
RTVSPost2010PropOp29
 70
     1
102
RTVSPost2010Prop30
280
     1
102
RTVSPost2010PropOp30
 70
     1
102
RTVSPost2010Prop31
280
     0
102
RTVSPost2010PropOp31
 70
     1
102
RTVSPost2010Prop32
280
     0
102
RTVSPost2010PropOp32
 70
     1
102
RTVSPost2010Prop33
280
     0
102
RTVSPost2010PropOp33
 70
     1
102
RTVSPost2010Prop34
280
     0
102
RTVSPost2010PropOp34
 70
     1
102
RTVSPost2010Prop35
280
     0
102
RTVSPost2010PropOp35
 70
     1
102
RTVSPost2010Prop36
280
     0
102
RTVSPost2010PropOp36
 70
     1
102
RTVSPost2010Prop37
 90
       50
102
RTVSPost2010PropOp37
 70
     1
102
RTVSPost2010Prop38
140
0.0
102
RTVSPost2010PropOp38
 70
     1
102
RTVSPost2010Prop39
140
1.0
102
RTVSPost2010PropOp39
 70
     1
102
RTVSPost2010Prop40
 90
        0
102
RTVSPost2010PropOp40
 70
     1
102
RTVSPost2010Prop41ColorIndex
 90
       18
102
RTVSPost2010Prop41ColorRGB
 90
        0
102
RTVSPost2010PropOp41
 70
     1
102
RTVSPost2010Prop42
 90
       50
102
RTVSPost2010PropOp42
 70
     1
102
RTVSPost2010Prop43
 90
        3
102
RTVSPost2010PropOp43
 70
     1
102
RTVSPost2010Prop44ColorIndex
 90
        5
102
RTVSPost2010Prop44ColorRGB
 90
      255
102
RTVSPost2010PropOp44
 70
     1
102
RTVSPost2010Prop45
280
     0
102
RTVSPost2010PropOp45
 70
     1
102
RTVSPost2010Prop46
 90
       50
102
RTVSPost2010PropOp46
 70
     1
102
RTVSPost2010Prop47
 90
       50
102
RTVSPost2010PropOp47
 70
     1
102
RTVSPost2010Prop48
 90
       50
102
RTVSPost2010PropOp48
 70
     1
102
RTVSPost2010Prop49
280
     0
102
RTVSPost2010PropOp49
 70
     1
102
RTVSPost2010Prop50
 90
       50
102
RTVSPost2010PropOp50
 70
     1
102
RTVSPost2010Prop51ColorIndex
 90
      256
102
RTVSPost2010Prop51ColorRGB
 90
-16777216
102
RTVSPost2010PropOp51
 70
     0
102
RTVSPost2010Prop52
140
1.0
102
RTVSPost2010PropOp52
 70
     0
102
RTVSPost2010Prop53
 90
        2
102
RTVSPost2010PropOp53
 70
     1
102
RTVSPost2010Prop54
  1
strokes_ogs.tif
102
RTVSPost2010PropOp54
 70
     1
102
RTVSPost2010Prop55
280
     0
102
RTVSPost2010PropOp55
 70
     1
102
RTVSPost2010Prop56
140
1.0
102
RTVSPost2010PropOp56
 70
     1
102
RTVSPost2010Prop57
140
1.0
102
RTVSPost2010PropOp57
 70
     1
102
RTVSPropertyOp0
 70
     1
102
RTVSPropertyOp1
 70
     1
102
RTVSPropertyOp2
 70
     1
102
RTVSPropertyOp3
 70
     1
102
RTVSPropertyOp4
 70
     1
102
RTVSPropertyOp5
 70
     1
102
RTVSPropertyOp6
 70
     1
102
RTVSPropertyOp7
 70
     1
102
RTVSPropertyOp8
 70
     1
102
RTVSPropertyOp9
 70
     1
102
RTVSPropertyOp10
 70
     1
102
RTVSPropertyOp11
 70
     1
102
RTVSPropertyOp12
 70
     1
102
RTVSPropertyOp13
 70
     1
102
RTVSPropertyOp14
 70
     1
102
RTVSPropertyOp15
 70
     1
102
RTVSPropertyOp16
 70
     1
102
RTVSPropertyOp17
 70
     1
102
RTVSPropertyOp18
 70
     1
102
RTVSPropertyOp19
 70
     1
102
RTVSPropertyOp20
 70
     1
102
RTVSPropertyOp21
 70
     1
102
RTVSPropertyOp22
 70
     1
102
RTVSPropertyOp23
 70
     1
102
RTVSPropertyOp24
 70
     1
102
RTVSPropertyOp25
 70
     1
102
RTVSPropertyOp26
 70
     1
102
RTVSPropertyOp27
 70
     1
102
RTVSPropertyOp28
 70
     1
102
RTVSPropertyOp29
 70
     1
102
RTVSPropertyOp30
 70
     1
102
RTVSPropertyOp31
 70
     1
102
RTVSPropertyOp32
 70
     1
102
RTVSPropertyOp33
 70
     1
102
RTVSPropertyOp34
 70
     1
102
RTVSPropertyOp35
 70
     1
102
RTVSPropertyOp36
 70
     1
102
RTVSPropertyOp37
 70
     1
102
RTVSPropertyOp38
 70
     1
102
RTVSPropertyOp39
 70
     1
102
RTVSPropertyOp40
 70
     1
102
RTVSPropertyOp41
 70
     1
102
RTVSPropertyOp42
 70
     1
102
RTVSPropertyOp43
 70
     1
102
RTVSPropertyOp44
 70
     1
102
RTVSPropertyOp45
 70
     1
102
RTVSPropertyOp46
 70
     1
102
RTVSPropertyOp47
 70
     1
102
RTVSPropertyOp48
 70
     1
102
RTVSPropertyOp49
 70
     1
102
RTVSPropertyOp50
 70
     1
102
RTVSPropertyOp51
 70
     0
102
RTVSPropertyOp52
 70
     0
102
RTVSPropertyOp53
 70
     1
102
RTVSPropertyOp54
 70
     1
102
RTVSPropertyOp55
 70
     1
102
RTVSPropertyOp56
 70
     1
102
RTVSPropertyOp57
 70
     1
102
RTVSPropertyOp58
 70
     1
102
RTVSPropertyOp59
 70
     1
102
RTVSPropertyOp60
 70
     1
102
RTVSPropertyOp61
 70
     1
102
RTVSPropertyOp62
 70
     1
  0
XRECORD
  5
99C7
102
{ACAD_REACTORS
330
99C6
102
}
330
99C6
100
AcDbXrecord
280
     1
102
RTVSPost2010Prop28
280
     0
102
RTVSPost2010PropOp28
 70
     1
102
RTVSPost2010Prop29
280
     1
102
RTVSPost2010PropOp29
 70
     1
102
RTVSPost2010Prop30
280
     1
102
RTVSPost2010PropOp30
 70
     1
102
RTVSPost2010Prop31
280
     0
102
RTVSPost2010PropOp31
 70
     1
102
RTVSPost2010Prop32
280
     0
102
RTVSPost2010PropOp32
 70
     1
102
RTVSPost2010Prop33
280
     0
102
RTVSPost2010PropOp33
 70
     1
102
RTVSPost2010Prop34
280
     0
102
RTVSPost2010PropOp34
 70
     1
102
RTVSPost2010Prop35
280
     0
102
RTVSPost2010PropOp35
 70
     1
102
RTVSPost2010Prop36
280
     0
102
RTVSPost2010PropOp36
 70
     1
102
RTVSPost2010Prop37
 90
       50
102
RTVSPost2010PropOp37
 70
     1
102
RTVSPost2010Prop38
140
0.0
102
RTVSPost2010PropOp38
 70
     1
102
RTVSPost2010Prop39
140
1.0
102
RTVSPost2010PropOp39
 70
     1
102
RTVSPost2010Prop40
 90
        0
102
RTVSPost2010PropOp40
 70
     1
102
RTVSPost2010Prop41ColorIndex
 90
       18
102
RTVSPost2010Prop41ColorRGB
 90
        0
102
RTVSPost2010PropOp41
 70
     1
102
RTVSPost2010Prop42
 90
       50
102
RTVSPost2010PropOp42
 70
     1
102
RTVSPost2010Prop43
 90
        3
102
RTVSPost2010PropOp43
 70
     1
102
RTVSPost2010Prop44ColorIndex
 90
        5
102
RTVSPost2010Prop44ColorRGB
 90
      255
102
RTVSPost2010PropOp44
 70
     1
102
RTVSPost2010Prop45
280
     0
102
RTVSPost2010PropOp45
 70
     1
102
RTVSPost2010Prop46
 90
       50
102
RTVSPost2010PropOp46
 70
     1
102
RTVSPost2010Prop47
 90
       50
102
RTVSPost2010PropOp47
 70
     1
102
RTVSPost2010Prop48
 90
       50
102
RTVSPost2010PropOp48
 70
     1
102
RTVSPost2010Prop49
280
     0
102
RTVSPost2010PropOp49
 70
     1
102
RTVSPost2010Prop50
 90
       50
102
RTVSPost2010PropOp50
 70
     1
102
RTVSPost2010Prop51ColorIndex
 90
      256
102
RTVSPost2010Prop51ColorRGB
 90
-16777216
102
RTVSPost2010PropOp51
 70
     0
102
RTVSPost2010Prop52
140
1.0
102
RTVSPost2010PropOp52
 70
     0
102
RTVSPost2010Prop53
 90
        2
102
RTVSPost2010PropOp53
 70
     1
102
RTVSPost2010Prop54
  1
strokes_ogs.tif
102
RTVSPost2010PropOp54
 70
     1
102
RTVSPost2010Prop55
280
     0
102
RTVSPost2010PropOp55
 70
     1
102
RTVSPost2010Prop56
140
1.0
102
RTVSPost2010PropOp56
 70
     1
102
RTVSPost2010Prop57
140
1.0
102
RTVSPost2010PropOp57
 70
     1
102
RTVSPropertyOp0
 70
     1
102
RTVSPropertyOp1
 70
     1
102
RTVSPropertyOp2
 70
     1
102
RTVSPropertyOp3
 70
     1
102
RTVSPropertyOp4
 70
     1
102
RTVSPropertyOp5
 70
     1
102
RTVSPropertyOp6
 70
     1
102
RTVSPropertyOp7
 70
     1
102
RTVSPropertyOp8
 70
     1
102
RTVSPropertyOp9
 70
     1
102
RTVSPropertyOp10
 70
     1
102
RTVSPropertyOp11
 70
     1
102
RTVSPropertyOp12
 70
     1
102
RTVSPropertyOp13
 70
     1
102
RTVSPropertyOp14
 70
     1
102
RTVSPropertyOp15
 70
     1
102
RTVSPropertyOp16
 70
     1
102
RTVSPropertyOp17
 70
     1
102
RTVSPropertyOp18
 70
     1
102
RTVSPropertyOp19
 70
     1
102
RTVSPropertyOp20
 70
     1
102
RTVSPropertyOp21
 70
     1
102
RTVSPropertyOp22
 70
     1
102
RTVSPropertyOp23
 70
     1
102
RTVSPropertyOp24
 70
     1
102
RTVSPropertyOp25
 70
     1
102
RTVSPropertyOp26
 70
     1
102
RTVSPropertyOp27
 70
     1
102
RTVSPropertyOp28
 70
     1
102
RTVSPropertyOp29
 70
     1
102
RTVSPropertyOp30
 70
     1
102
RTVSPropertyOp31
 70
     1
102
RTVSPropertyOp32
 70
     1
102
RTVSPropertyOp33
 70
     1
102
RTVSPropertyOp34
 70
     1
102
RTVSPropertyOp35
 70
     1
102
RTVSPropertyOp36
 70
     1
102
RTVSPropertyOp37
 70
     1
102
RTVSPropertyOp38
 70
     1
102
RTVSPropertyOp39
 70
     1
102
RTVSPropertyOp40
 70
     1
102
RTVSPropertyOp41
 70
     1
102
RTVSPropertyOp42
 70
     1
102
RTVSPropertyOp43
 70
     1
102
RTVSPropertyOp44
 70
     1
102
RTVSPropertyOp45
 70
     1
102
RTVSPropertyOp46
 70
     1
102
RTVSPropertyOp47
 70
     1
102
RTVSPropertyOp48
 70
     1
102
RTVSPropertyOp49
 70
     1
102
RTVSPropertyOp50
 70
     1
102
RTVSPropertyOp51
 70
     0
102
RTVSPropertyOp52
 70
     0
102
RTVSPropertyOp53
 70
     1
102
RTVSPropertyOp54
 70
     1
102
RTVSPropertyOp55
 70
     1
102
RTVSPropertyOp56
 70
     1
102
RTVSPropertyOp57
 70
     1
102
RTVSPropertyOp58
 70
     1
102
RTVSPropertyOp59
 70
     1
102
RTVSPropertyOp60
 70
     1
102
RTVSPropertyOp61
 70
     1
102
RTVSPropertyOp62
 70
     1
  0
XRECORD
  5
99C9
102
{ACAD_REACTORS
330
99C8
102
}
330
99C8
100
AcDbXrecord
280
     1
102
RTVSPost2010Prop28
280
     0
102
RTVSPost2010PropOp28
 70
     1
102
RTVSPost2010Prop29
280
     1
102
RTVSPost2010PropOp29
 70
     1
102
RTVSPost2010Prop30
280
     1
102
RTVSPost2010PropOp30
 70
     1
102
RTVSPost2010Prop31
280
     0
102
RTVSPost2010PropOp31
 70
     1
102
RTVSPost2010Prop32
280
     0
102
RTVSPost2010PropOp32
 70
     1
102
RTVSPost2010Prop33
280
     0
102
RTVSPost2010PropOp33
 70
     1
102
RTVSPost2010Prop34
280
     0
102
RTVSPost2010PropOp34
 70
     1
102
RTVSPost2010Prop35
280
     0
102
RTVSPost2010PropOp35
 70
     1
102
RTVSPost2010Prop36
280
     0
102
RTVSPost2010PropOp36
 70
     1
102
RTVSPost2010Prop37
 90
       50
102
RTVSPost2010PropOp37
 70
     1
102
RTVSPost2010Prop38
140
0.0
102
RTVSPost2010PropOp38
 70
     1
102
RTVSPost2010Prop39
140
1.0
102
RTVSPost2010PropOp39
 70
     1
102
RTVSPost2010Prop40
 90
        0
102
RTVSPost2010PropOp40
 70
     1
102
RTVSPost2010Prop41ColorIndex
 90
       18
102
RTVSPost2010Prop41ColorRGB
 90
        0
102
RTVSPost2010PropOp41
 70
     1
102
RTVSPost2010Prop42
 90
       50
102
RTVSPost2010PropOp42
 70
     1
102
RTVSPost2010Prop43
 90
        3
102
RTVSPost2010PropOp43
 70
     1
102
RTVSPost2010Prop44ColorIndex
 90
        5
102
RTVSPost2010Prop44ColorRGB
 90
      255
102
RTVSPost2010PropOp44
 70
     1
102
RTVSPost2010Prop45
280
     0
102
RTVSPost2010PropOp45
 70
     1
102
RTVSPost2010Prop46
 90
       50
102
RTVSPost2010PropOp46
 70
     1
102
RTVSPost2010Prop47
 90
       50
102
RTVSPost2010PropOp47
 70
     1
102
RTVSPost2010Prop48
 90
       50
102
RTVSPost2010PropOp48
 70
     1
102
RTVSPost2010Prop49
280
     0
102
RTVSPost2010PropOp49
 70
     1
102
RTVSPost2010Prop50
 90
       50
102
RTVSPost2010PropOp50
 70
     1
102
RTVSPost2010Prop51ColorIndex
 90
      256
102
RTVSPost2010Prop51ColorRGB
 90
-16777216
102
RTVSPost2010PropOp51
 70
     0
102
RTVSPost2010Prop52
140
1.0
102
RTVSPost2010PropOp52
 70
     0
102
RTVSPost2010Prop53
 90
        2
102
RTVSPost2010PropOp53
 70
     1
102
RTVSPost2010Prop54
  1
strokes_ogs.tif
102
RTVSPost2010PropOp54
 70
     1
102
RTVSPost2010Prop55
280
     0
102
RTVSPost2010PropOp55
 70
     1
102
RTVSPost2010Prop56
140
1.0
102
RTVSPost2010PropOp56
 70
     1
102
RTVSPost2010Prop57
140
1.0
102
RTVSPost2010PropOp57
 70
     1
102
RTVSPropertyOp0
 70
     1
102
RTVSPropertyOp1
 70
     1
102
RTVSPropertyOp2
 70
     1
102
RTVSPropertyOp3
 70
     1
102
RTVSPropertyOp4
 70
     1
102
RTVSPropertyOp5
 70
     1
102
RTVSPropertyOp6
 70
     1
102
RTVSPropertyOp7
 70
     1
102
RTVSPropertyOp8
 70
     1
102
RTVSPropertyOp9
 70
     1
102
RTVSPropertyOp10
 70
     1
102
RTVSPropertyOp11
 70
     1
102
RTVSPropertyOp12
 70
     1
102
RTVSPropertyOp13
 70
     1
102
RTVSPropertyOp14
 70
     1
102
RTVSPropertyOp15
 70
     1
102
RTVSPropertyOp16
 70
     1
102
RTVSPropertyOp17
 70
     1
102
RTVSPropertyOp18
 70
     1
102
RTVSPropertyOp19
 70
     1
102
RTVSPropertyOp20
 70
     1
102
RTVSPropertyOp21
 70
     1
102
RTVSPropertyOp22
 70
     1
102
RTVSPropertyOp23
 70
     1
102
RTVSPropertyOp24
 70
     1
102
RTVSPropertyOp25
 70
     1
102
RTVSPropertyOp26
 70
     1
102
RTVSPropertyOp27
 70
     1
102
RTVSPropertyOp28
 70
     1
102
RTVSPropertyOp29
 70
     1
102
RTVSPropertyOp30
 70
     1
102
RTVSPropertyOp31
 70
     1
102
RTVSPropertyOp32
 70
     1
102
RTVSPropertyOp33
 70
     1
102
RTVSPropertyOp34
 70
     1
102
RTVSPropertyOp35
 70
     1
102
RTVSPropertyOp36
 70
     1
102
RTVSPropertyOp37
 70
     1
102
RTVSPropertyOp38
 70
     1
102
RTVSPropertyOp39
 70
     1
102
RTVSPropertyOp40
 70
     1
102
RTVSPropertyOp41
 70
     1
102
RTVSPropertyOp42
 70
     1
102
RTVSPropertyOp43
 70
     1
102
RTVSPropertyOp44
 70
     1
102
RTVSPropertyOp45
 70
     1
102
RTVSPropertyOp46
 70
     1
102
RTVSPropertyOp47
 70
     1
102
RTVSPropertyOp48
 70
     1
102
RTVSPropertyOp49
 70
     1
102
RTVSPropertyOp50
 70
     1
102
RTVSPropertyOp51
 70
     0
102
RTVSPropertyOp52
 70
     0
102
RTVSPropertyOp53
 70
     1
102
RTVSPropertyOp54
 70
     1
102
RTVSPropertyOp55
 70
     1
102
RTVSPropertyOp56
 70
     1
102
RTVSPropertyOp57
 70
     1
102
RTVSPropertyOp58
 70
     1
102
RTVSPropertyOp59
 70
     1
102
RTVSPropertyOp60
 70
     1
102
RTVSPropertyOp61
 70
     1
102
RTVSPropertyOp62
 70
     1
  0
XRECORD
  5
99CB
102
{ACAD_REACTORS
330
99CA
102
}
330
99CA
100
AcDbXrecord
280
     1
102
RTVSPost2010Prop28
280
     0
102
RTVSPost2010PropOp28
 70
     1
102
RTVSPost2010Prop29
280
     1
102
RTVSPost2010PropOp29
 70
     1
102
RTVSPost2010Prop30
280
     1
102
RTVSPost2010PropOp30
 70
     1
102
RTVSPost2010Prop31
280
     0
102
RTVSPost2010PropOp31
 70
     1
102
RTVSPost2010Prop32
280
     0
102
RTVSPost2010PropOp32
 70
     1
102
RTVSPost2010Prop33
280
     0
102
RTVSPost2010PropOp33
 70
     1
102
RTVSPost2010Prop34
280
     0
102
RTVSPost2010PropOp34
 70
     1
102
RTVSPost2010Prop35
280
     0
102
RTVSPost2010PropOp35
 70
     1
102
RTVSPost2010Prop36
280
     0
102
RTVSPost2010PropOp36
 70
     1
102
RTVSPost2010Prop37
 90
       50
102
RTVSPost2010PropOp37
 70
     1
102
RTVSPost2010Prop38
140
0.0
102
RTVSPost2010PropOp38
 70
     1
102
RTVSPost2010Prop39
140
1.0
102
RTVSPost2010PropOp39
 70
     1
102
RTVSPost2010Prop40
 90
        0
102
RTVSPost2010PropOp40
 70
     1
102
RTVSPost2010Prop41ColorIndex
 90
       18
102
RTVSPost2010Prop41ColorRGB
 90
        0
102
RTVSPost2010PropOp41
 70
     1
102
RTVSPost2010Prop42
 90
       50
102
RTVSPost2010PropOp42
 70
     1
102
RTVSPost2010Prop43
 90
        3
102
RTVSPost2010PropOp43
 70
     1
102
RTVSPost2010Prop44ColorIndex
 90
        5
102
RTVSPost2010Prop44ColorRGB
 90
      255
102
RTVSPost2010PropOp44
 70
     1
102
RTVSPost2010Prop45
280
     0
102
RTVSPost2010PropOp45
 70
     1
102
RTVSPost2010Prop46
 90
       50
102
RTVSPost2010PropOp46
 70
     1
102
RTVSPost2010Prop47
 90
       50
102
RTVSPost2010PropOp47
 70
     1
102
RTVSPost2010Prop48
 90
       50
102
RTVSPost2010PropOp48
 70
     1
102
RTVSPost2010Prop49
280
     0
102
RTVSPost2010PropOp49
 70
     1
102
RTVSPost2010Prop50
 90
       50
102
RTVSPost2010PropOp50
 70
     1
102
RTVSPost2010Prop51ColorIndex
 90
      256
102
RTVSPost2010Prop51ColorRGB
 90
-16777216
102
RTVSPost2010PropOp51
 70
     0
102
RTVSPost2010Prop52
140
1.0
102
RTVSPost2010PropOp52
 70
     0
102
RTVSPost2010Prop53
 90
        2
102
RTVSPost2010PropOp53
 70
     1
102
RTVSPost2010Prop54
  1
strokes_ogs.tif
102
RTVSPost2010PropOp54
 70
     1
102
RTVSPost2010Prop55
280
     0
102
RTVSPost2010PropOp55
 70
     1
102
RTVSPost2010Prop56
140
1.0
102
RTVSPost2010PropOp56
 70
     1
102
RTVSPost2010Prop57
140
1.0
102
RTVSPost2010PropOp57
 70
     1
102
RTVSPropertyOp0
 70
     1
102
RTVSPropertyOp1
 70
     1
102
RTVSPropertyOp2
 70
     1
102
RTVSPropertyOp3
 70
     1
102
RTVSPropertyOp4
 70
     1
102
RTVSPropertyOp5
 70
     1
102
RTVSPropertyOp6
 70
     1
102
RTVSPropertyOp7
 70
     1
102
RTVSPropertyOp8
 70
     1
102
RTVSPropertyOp9
 70
     1
102
RTVSPropertyOp10
 70
     1
102
RTVSPropertyOp11
 70
     1
102
RTVSPropertyOp12
 70
     1
102
RTVSPropertyOp13
 70
     1
102
RTVSPropertyOp14
 70
     1
102
RTVSPropertyOp15
 70
     1
102
RTVSPropertyOp16
 70
     1
102
RTVSPropertyOp17
 70
     1
102
RTVSPropertyOp18
 70
     1
102
RTVSPropertyOp19
 70
     1
102
RTVSPropertyOp20
 70
     1
102
RTVSPropertyOp21
 70
     1
102
RTVSPropertyOp22
 70
     1
102
RTVSPropertyOp23
 70
     1
102
RTVSPropertyOp24
 70
     1
102
RTVSPropertyOp25
 70
     1
102
RTVSPropertyOp26
 70
     1
102
RTVSPropertyOp27
 70
     1
102
RTVSPropertyOp28
 70
     1
102
RTVSPropertyOp29
 70
     1
102
RTVSPropertyOp30
 70
     1
102
RTVSPropertyOp31
 70
     1
102
RTVSPropertyOp32
 70
     1
102
RTVSPropertyOp33
 70
     1
102
RTVSPropertyOp34
 70
     1
102
RTVSPropertyOp35
 70
     1
102
RTVSPropertyOp36
 70
     1
102
RTVSPropertyOp37
 70
     1
102
RTVSPropertyOp38
 70
     1
102
RTVSPropertyOp39
 70
     1
102
RTVSPropertyOp40
 70
     1
102
RTVSPropertyOp41
 70
     1
102
RTVSPropertyOp42
 70
     1
102
RTVSPropertyOp43
 70
     1
102
RTVSPropertyOp44
 70
     1
102
RTVSPropertyOp45
 70
     1
102
RTVSPropertyOp46
 70
     1
102
RTVSPropertyOp47
 70
     1
102
RTVSPropertyOp48
 70
     1
102
RTVSPropertyOp49
 70
     1
102
RTVSPropertyOp50
 70
     1
102
RTVSPropertyOp51
 70
     0
102
RTVSPropertyOp52
 70
     0
102
RTVSPropertyOp53
 70
     1
102
RTVSPropertyOp54
 70
     1
102
RTVSPropertyOp55
 70
     1
102
RTVSPropertyOp56
 70
     1
102
RTVSPropertyOp57
 70
     1
102
RTVSPropertyOp58
 70
     1
102
RTVSPropertyOp59
 70
     1
102
RTVSPropertyOp60
 70
     1
102
RTVSPropertyOp61
 70
     1
102
RTVSPropertyOp62
 70
     1
  0
XRECORD
  5
99CD
102
{ACAD_REACTORS
330
99CC
102
}
330
99CC
100
AcDbXrecord
280
     1
102
RTVSPost2010Prop28
280
     0
102
RTVSPost2010PropOp28
 70
     1
102
RTVSPost2010Prop29
280
     1
102
RTVSPost2010PropOp29
 70
     1
102
RTVSPost2010Prop30
280
     1
102
RTVSPost2010PropOp30
 70
     1
102
RTVSPost2010Prop31
280
     0
102
RTVSPost2010PropOp31
 70
     1
102
RTVSPost2010Prop32
280
     0
102
RTVSPost2010PropOp32
 70
     1
102
RTVSPost2010Prop33
280
     0
102
RTVSPost2010PropOp33
 70
     1
102
RTVSPost2010Prop34
280
     0
102
RTVSPost2010PropOp34
 70
     1
102
RTVSPost2010Prop35
280
     0
102
RTVSPost2010PropOp35
 70
     1
102
RTVSPost2010Prop36
280
     0
102
RTVSPost2010PropOp36
 70
     1
102
RTVSPost2010Prop37
 90
       50
102
RTVSPost2010PropOp37
 70
     1
102
RTVSPost2010Prop38
140
0.0
102
RTVSPost2010PropOp38
 70
     1
102
RTVSPost2010Prop39
140
1.0
102
RTVSPost2010PropOp39
 70
     1
102
RTVSPost2010Prop40
 90
        0
102
RTVSPost2010PropOp40
 70
     1
102
RTVSPost2010Prop41ColorIndex
 90
       18
102
RTVSPost2010Prop41ColorRGB
 90
        0
102
RTVSPost2010PropOp41
 70
     1
102
RTVSPost2010Prop42
 90
       50
102
RTVSPost2010PropOp42
 70
     1
102
RTVSPost2010Prop43
 90
        3
102
RTVSPost2010PropOp43
 70
     1
102
RTVSPost2010Prop44ColorIndex
 90
        5
102
RTVSPost2010Prop44ColorRGB
 90
      255
102
RTVSPost2010PropOp44
 70
     1
102
RTVSPost2010Prop45
280
     0
102
RTVSPost2010PropOp45
 70
     1
102
RTVSPost2010Prop46
 90
       50
102
RTVSPost2010PropOp46
 70
     1
102
RTVSPost2010Prop47
 90
       50
102
RTVSPost2010PropOp47
 70
     1
102
RTVSPost2010Prop48
 90
       50
102
RTVSPost2010PropOp48
 70
     1
102
RTVSPost2010Prop49
280
     0
102
RTVSPost2010PropOp49
 70
     1
102
RTVSPost2010Prop50
 90
       50
102
RTVSPost2010PropOp50
 70
     1
102
RTVSPost2010Prop51ColorIndex
 90
      256
102
RTVSPost2010Prop51ColorRGB
 90
-16777216
102
RTVSPost2010PropOp51
 70
     0
102
RTVSPost2010Prop52
140
1.0
102
RTVSPost2010PropOp52
 70
     0
102
RTVSPost2010Prop53
 90
        2
102
RTVSPost2010PropOp53
 70
     1
102
RTVSPost2010Prop54
  1
strokes_ogs.tif
102
RTVSPost2010PropOp54
 70
     1
102
RTVSPost2010Prop55
280
     0
102
RTVSPost2010PropOp55
 70
     1
102
RTVSPost2010Prop56
140
1.0
102
RTVSPost2010PropOp56
 70
     1
102
RTVSPost2010Prop57
140
1.0
102
RTVSPost2010PropOp57
 70
     1
102
RTVSPropertyOp0
 70
     1
102
RTVSPropertyOp1
 70
     1
102
RTVSPropertyOp2
 70
     1
102
RTVSPropertyOp3
 70
     1
102
RTVSPropertyOp4
 70
     1
102
RTVSPropertyOp5
 70
     1
102
RTVSPropertyOp6
 70
     1
102
RTVSPropertyOp7
 70
     1
102
RTVSPropertyOp8
 70
     1
102
RTVSPropertyOp9
 70
     1
102
RTVSPropertyOp10
 70
     1
102
RTVSPropertyOp11
 70
     1
102
RTVSPropertyOp12
 70
     1
102
RTVSPropertyOp13
 70
     1
102
RTVSPropertyOp14
 70
     1
102
RTVSPropertyOp15
 70
     1
102
RTVSPropertyOp16
 70
     1
102
RTVSPropertyOp17
 70
     1
102
RTVSPropertyOp18
 70
     1
102
RTVSPropertyOp19
 70
     1
102
RTVSPropertyOp20
 70
     1
102
RTVSPropertyOp21
 70
     1
102
RTVSPropertyOp22
 70
     1
102
RTVSPropertyOp23
 70
     1
102
RTVSPropertyOp24
 70
     1
102
RTVSPropertyOp25
 70
     1
102
RTVSPropertyOp26
 70
     1
102
RTVSPropertyOp27
 70
     1
102
RTVSPropertyOp28
 70
     1
102
RTVSPropertyOp29
 70
     1
102
RTVSPropertyOp30
 70
     1
102
RTVSPropertyOp31
 70
     1
102
RTVSPropertyOp32
 70
     1
102
RTVSPropertyOp33
 70
     1
102
RTVSPropertyOp34
 70
     1
102
RTVSPropertyOp35
 70
     1
102
RTVSPropertyOp36
 70
     1
102
RTVSPropertyOp37
 70
     1
102
RTVSPropertyOp38
 70
     1
102
RTVSPropertyOp39
 70
     1
102
RTVSPropertyOp40
 70
     1
102
RTVSPropertyOp41
 70
     1
102
RTVSPropertyOp42
 70
     1
102
RTVSPropertyOp43
 70
     1
102
RTVSPropertyOp44
 70
     1
102
RTVSPropertyOp45
 70
     1
102
RTVSPropertyOp46
 70
     1
102
RTVSPropertyOp47
 70
     1
102
RTVSPropertyOp48
 70
     1
102
RTVSPropertyOp49
 70
     1
102
RTVSPropertyOp50
 70
     1
102
RTVSPropertyOp51
 70
     0
102
RTVSPropertyOp52
 70
     0
102
RTVSPropertyOp53
 70
     1
102
RTVSPropertyOp54
 70
     1
102
RTVSPropertyOp55
 70
     1
102
RTVSPropertyOp56
 70
     1
102
RTVSPropertyOp57
 70
     1
102
RTVSPropertyOp58
 70
     1
102
RTVSPropertyOp59
 70
     1
102
RTVSPropertyOp60
 70
     1
102
RTVSPropertyOp61
 70
     1
102
RTVSPropertyOp62
 70
     1
  0
XRECORD
  5
99D5
102
{ACAD_REACTORS
330
99D4
102
}
330
99D4
100
AcDbXrecord
280
     1
102
RTVSPost2010Prop28
280
     0
102
RTVSPost2010PropOp28
 70
     1
102
RTVSPost2010Prop29
280
     1
102
RTVSPost2010PropOp29
 70
     1
102
RTVSPost2010Prop30
280
     1
102
RTVSPost2010PropOp30
 70
     1
102
RTVSPost2010Prop31
280
     0
102
RTVSPost2010PropOp31
 70
     1
102
RTVSPost2010Prop32
280
     0
102
RTVSPost2010PropOp32
 70
     1
102
RTVSPost2010Prop33
280
     0
102
RTVSPost2010PropOp33
 70
     1
102
RTVSPost2010Prop34
280
     0
102
RTVSPost2010PropOp34
 70
     1
102
RTVSPost2010Prop35
280
     0
102
RTVSPost2010PropOp35
 70
     1
102
RTVSPost2010Prop36
280
     0
102
RTVSPost2010PropOp36
 70
     1
102
RTVSPost2010Prop37
 90
       50
102
RTVSPost2010PropOp37
 70
     1
102
RTVSPost2010Prop38
140
0.0
102
RTVSPost2010PropOp38
 70
     1
102
RTVSPost2010Prop39
140
1.0
102
RTVSPost2010PropOp39
 70
     1
102
RTVSPost2010Prop40
 90
        0
102
RTVSPost2010PropOp40
 70
     1
102
RTVSPost2010Prop41ColorIndex
 90
       18
102
RTVSPost2010Prop41ColorRGB
 90
        0
102
RTVSPost2010PropOp41
 70
     1
102
RTVSPost2010Prop42
 90
       50
102
RTVSPost2010PropOp42
 70
     1
102
RTVSPost2010Prop43
 90
        3
102
RTVSPost2010PropOp43
 70
     1
102
RTVSPost2010Prop44ColorIndex
 90
        5
102
RTVSPost2010Prop44ColorRGB
 90
      255
102
RTVSPost2010PropOp44
 70
     1
102
RTVSPost2010Prop45
280
     0
102
RTVSPost2010PropOp45
 70
     1
102
RTVSPost2010Prop46
 90
       50
102
RTVSPost2010PropOp46
 70
     1
102
RTVSPost2010Prop47
 90
       50
102
RTVSPost2010PropOp47
 70
     1
102
RTVSPost2010Prop48
 90
       50
102
RTVSPost2010PropOp48
 70
     1
102
RTVSPost2010Prop49
280
     0
102
RTVSPost2010PropOp49
 70
     1
102
RTVSPost2010Prop50
 90
       50
102
RTVSPost2010PropOp50
 70
     1
102
RTVSPost2010Prop51ColorIndex
 90
      256
102
RTVSPost2010Prop51ColorRGB
 90
-16777216
102
RTVSPost2010PropOp51
 70
     0
102
RTVSPost2010Prop52
140
1.0
102
RTVSPost2010PropOp52
 70
     0
102
RTVSPost2010Prop53
 90
        2
102
RTVSPost2010PropOp53
 70
     1
102
RTVSPost2010Prop54
  1
strokes_ogs.tif
102
RTVSPost2010PropOp54
 70
     1
102
RTVSPost2010Prop55
280
     0
102
RTVSPost2010PropOp55
 70
     1
102
RTVSPost2010Prop56
140
1.0
102
RTVSPost2010PropOp56
 70
     1
102
RTVSPost2010Prop57
140
1.0
102
RTVSPost2010PropOp57
 70
     1
102
RTVSPropertyOp0
 70
     1
102
RTVSPropertyOp1
 70
     1
102
RTVSPropertyOp2
 70
     1
102
RTVSPropertyOp3
 70
     1
102
RTVSPropertyOp4
 70
     1
102
RTVSPropertyOp5
 70
     1
102
RTVSPropertyOp6
 70
     1
102
RTVSPropertyOp7
 70
     1
102
RTVSPropertyOp8
 70
     1
102
RTVSPropertyOp9
 70
     1
102
RTVSPropertyOp10
 70
     1
102
RTVSPropertyOp11
 70
     1
102
RTVSPropertyOp12
 70
     1
102
RTVSPropertyOp13
 70
     1
102
RTVSPropertyOp14
 70
     1
102
RTVSPropertyOp15
 70
     1
102
RTVSPropertyOp16
 70
     1
102
RTVSPropertyOp17
 70
     1
102
RTVSPropertyOp18
 70
     1
102
RTVSPropertyOp19
 70
     1
102
RTVSPropertyOp20
 70
     1
102
RTVSPropertyOp21
 70
     1
102
RTVSPropertyOp22
 70
     1
102
RTVSPropertyOp23
 70
     1
102
RTVSPropertyOp24
 70
     1
102
RTVSPropertyOp25
 70
     1
102
RTVSPropertyOp26
 70
     1
102
RTVSPropertyOp27
 70
     1
102
RTVSPropertyOp28
 70
     1
102
RTVSPropertyOp29
 70
     1
102
RTVSPropertyOp30
 70
     1
102
RTVSPropertyOp31
 70
     1
102
RTVSPropertyOp32
 70
     1
102
RTVSPropertyOp33
 70
     1
102
RTVSPropertyOp34
 70
     1
102
RTVSPropertyOp35
 70
     1
102
RTVSPropertyOp36
 70
     1
102
RTVSPropertyOp37
 70
     1
102
RTVSPropertyOp38
 70
     1
102
RTVSPropertyOp39
 70
     1
102
RTVSPropertyOp40
 70
     1
102
RTVSPropertyOp41
 70
     1
102
RTVSPropertyOp42
 70
     1
102
RTVSPropertyOp43
 70
     1
102
RTVSPropertyOp44
 70
     1
102
RTVSPropertyOp45
 70
     1
102
RTVSPropertyOp46
 70
     1
102
RTVSPropertyOp47
 70
     1
102
RTVSPropertyOp48
 70
     1
102
RTVSPropertyOp49
 70
     1
102
RTVSPropertyOp50
 70
     1
102
RTVSPropertyOp51
 70
     0
102
RTVSPropertyOp52
 70
     0
102
RTVSPropertyOp53
 70
     1
102
RTVSPropertyOp54
 70
     1
102
RTVSPropertyOp55
 70
     1
102
RTVSPropertyOp56
 70
     1
102
RTVSPropertyOp57
 70
     1
102
RTVSPropertyOp58
 70
     1
102
RTVSPropertyOp59
 70
     1
102
RTVSPropertyOp60
 70
     1
102
RTVSPropertyOp61
 70
     1
102
RTVSPropertyOp62
 70
     1
  0
XRECORD
  5
99F1
102
{ACAD_REACTORS
330
99F0
102
}
330
99F0
100
AcDbXrecord
280
     1
102
RTVSPost2010Prop28
280
     0
102
RTVSPost2010PropOp28
 70
     1
102
RTVSPost2010Prop29
280
     1
102
RTVSPost2010PropOp29
 70
     1
102
RTVSPost2010Prop30
280
     1
102
RTVSPost2010PropOp30
 70
     1
102
RTVSPost2010Prop31
280
     0
102
RTVSPost2010PropOp31
 70
     1
102
RTVSPost2010Prop32
280
     0
102
RTVSPost2010PropOp32
 70
     1
102
RTVSPost2010Prop33
280
     0
102
RTVSPost2010PropOp33
 70
     1
102
RTVSPost2010Prop34
280
     0
102
RTVSPost2010PropOp34
 70
     1
102
RTVSPost2010Prop35
280
     0
102
RTVSPost2010PropOp35
 70
     1
102
RTVSPost2010Prop36
280
     0
102
RTVSPost2010PropOp36
 70
     1
102
RTVSPost2010Prop37
 90
       50
102
RTVSPost2010PropOp37
 70
     0
102
RTVSPost2010Prop38
140
0.0
102
RTVSPost2010PropOp38
 70
     0
102
RTVSPost2010Prop39
140
1.0
102
RTVSPost2010PropOp39
 70
     0
102
RTVSPost2010Prop40
 90
        0
102
RTVSPost2010PropOp40
 70
     0
102
RTVSPost2010Prop41ColorIndex
 90
       18
102
RTVSPost2010Prop41ColorRGB
 90
        0
102
RTVSPost2010PropOp41
 70
     0
102
RTVSPost2010Prop42
 90
       50
102
RTVSPost2010PropOp42
 70
     0
102
RTVSPost2010Prop43
 90
        3
102
RTVSPost2010PropOp43
 70
     0
102
RTVSPost2010Prop44ColorIndex
 90
        5
102
RTVSPost2010Prop44ColorRGB
 90
      255
102
RTVSPost2010PropOp44
 70
     0
102
RTVSPost2010Prop45
280
     0
102
RTVSPost2010PropOp45
 70
     1
102
RTVSPost2010Prop46
 90
       50
102
RTVSPost2010PropOp46
 70
     0
102
RTVSPost2010Prop47
 90
       50
102
RTVSPost2010PropOp47
 70
     0
102
RTVSPost2010Prop48
 90
       50
102
RTVSPost2010PropOp48
 70
     0
102
RTVSPost2010Prop49
280
     0
102
RTVSPost2010PropOp49
 70
     1
102
RTVSPost2010Prop50
 90
       50
102
RTVSPost2010PropOp50
 70
     0
102
RTVSPost2010Prop51ColorIndex
 90
      256
102
RTVSPost2010Prop51ColorRGB
 90
-16777216
102
RTVSPost2010PropOp51
 70
     0
102
RTVSPost2010Prop52
140
1.0
102
RTVSPost2010PropOp52
 70
     0
102
RTVSPost2010Prop53
 90
        2
102
RTVSPost2010PropOp53
 70
     0
102
RTVSPost2010Prop54
  1
strokes_ogs.tif
102
RTVSPost2010PropOp54
 70
     0
102
RTVSPost2010Prop55
280
     0
102
RTVSPost2010PropOp55
 70
     1
102
RTVSPost2010Prop56
140
1.0
102
RTVSPost2010PropOp56
 70
     0
102
RTVSPost2010Prop57
140
1.0
102
RTVSPost2010PropOp57
 70
     0
102
RTVSPropertyOp0
 70
     0
102
RTVSPropertyOp1
 70
     0
102
RTVSPropertyOp2
 70
     0
102
RTVSPropertyOp3
 70
     0
102
RTVSPropertyOp4
 70
     0
102
RTVSPropertyOp5
 70
     0
102
RTVSPropertyOp6
 70
     0
102
RTVSPropertyOp7
 70
     0
102
RTVSPropertyOp8
 70
     0
102
RTVSPropertyOp9
 70
     0
102
RTVSPropertyOp10
 70
     0
102
RTVSPropertyOp11
 70
     0
102
RTVSPropertyOp12
 70
     0
102
RTVSPropertyOp13
 70
     0
102
RTVSPropertyOp14
 70
     2
102
RTVSPropertyOp15
 70
     0
102
RTVSPropertyOp16
 70
     0
102
RTVSPropertyOp17
 70
     0
102
RTVSPropertyOp18
 70
     0
102
RTVSPropertyOp19
 70
     0
102
RTVSPropertyOp20
 70
     0
102
RTVSPropertyOp21
 70
     0
102
RTVSPropertyOp22
 70
     0
102
RTVSPropertyOp23
 70
     0
102
RTVSPropertyOp24
 70
     0
102
RTVSPropertyOp25
 70
     0
102
RTVSPropertyOp26
 70
     0
102
RTVSPropertyOp27
 70
     0
102
RTVSPropertyOp28
 70
     1
102
RTVSPropertyOp29
 70
     1
102
RTVSPropertyOp30
 70
     1
102
RTVSPropertyOp31
 70
     1
102
RTVSPropertyOp32
 70
     1
102
RTVSPropertyOp33
 70
     1
102
RTVSPropertyOp34
 70
     1
102
RTVSPropertyOp35
 70
     1
102
RTVSPropertyOp36
 70
     1
102
RTVSPropertyOp37
 70
     0
102
RTVSPropertyOp38
 70
     0
102
RTVSPropertyOp39
 70
     0
102
RTVSPropertyOp40
 70
     0
102
RTVSPropertyOp41
 70
     0
102
RTVSPropertyOp42
 70
     0
102
RTVSPropertyOp43
 70
     0
102
RTVSPropertyOp44
 70
     0
102
RTVSPropertyOp45
 70
     1
102
RTVSPropertyOp46
 70
     0
102
RTVSPropertyOp47
 70
     0
102
RTVSPropertyOp48
 70
     0
102
RTVSPropertyOp49
 70
     1
102
RTVSPropertyOp50
 70
     0
102
RTVSPropertyOp51
 70
     0
102
RTVSPropertyOp52
 70
     0
102
RTVSPropertyOp53
 70
     0
102
RTVSPropertyOp54
 70
     0
102
RTVSPropertyOp55
 70
     1
102
RTVSPropertyOp56
 70
     0
102
RTVSPropertyOp57
 70
     0
102
RTVSPropertyOp58
 70
     0
102
RTVSPropertyOp59
 70
     0
102
RTVSPropertyOp60
 70
     0
102
RTVSPropertyOp61
 70
     0
102
RTVSPropertyOp62
 70
     0
  0
XRECORD
  5
99E1
102
{ACAD_REACTORS
330
99E0
102
}
330
99E0
100
AcDbXrecord
280
     1
102
RTVSPost2010Prop28
280
     0
102
RTVSPost2010PropOp28
 70
     1
102
RTVSPost2010Prop29
280
     1
102
RTVSPost2010PropOp29
 70
     1
102
RTVSPost2010Prop30
280
     1
102
RTVSPost2010PropOp30
 70
     1
102
RTVSPost2010Prop31
280
     0
102
RTVSPost2010PropOp31
 70
     1
102
RTVSPost2010Prop32
280
     0
102
RTVSPost2010PropOp32
 70
     1
102
RTVSPost2010Prop33
280
     0
102
RTVSPost2010PropOp33
 70
     1
102
RTVSPost2010Prop34
280
     0
102
RTVSPost2010PropOp34
 70
     1
102
RTVSPost2010Prop35
280
     0
102
RTVSPost2010PropOp35
 70
     1
102
RTVSPost2010Prop36
280
     0
102
RTVSPost2010PropOp36
 70
     1
102
RTVSPost2010Prop37
 90
       50
102
RTVSPost2010PropOp37
 70
     1
102
RTVSPost2010Prop38
140
0.0
102
RTVSPost2010PropOp38
 70
     1
102
RTVSPost2010Prop39
140
1.0
102
RTVSPost2010PropOp39
 70
     1
102
RTVSPost2010Prop40
 90
        0
102
RTVSPost2010PropOp40
 70
     1
102
RTVSPost2010Prop41ColorIndex
 90
       18
102
RTVSPost2010Prop41ColorRGB
 90
        0
102
RTVSPost2010PropOp41
 70
     1
102
RTVSPost2010Prop42
 90
       50
102
RTVSPost2010PropOp42
 70
     1
102
RTVSPost2010Prop43
 90
        3
102
RTVSPost2010PropOp43
 70
     1
102
RTVSPost2010Prop44ColorIndex
 90
        5
102
RTVSPost2010Prop44ColorRGB
 90
      255
102
RTVSPost2010PropOp44
 70
     1
102
RTVSPost2010Prop45
280
     0
102
RTVSPost2010PropOp45
 70
     1
102
RTVSPost2010Prop46
 90
       50
102
RTVSPost2010PropOp46
 70
     1
102
RTVSPost2010Prop47
 90
       50
102
RTVSPost2010PropOp47
 70
     1
102
RTVSPost2010Prop48
 90
       50
102
RTVSPost2010PropOp48
 70
     1
102
RTVSPost2010Prop49
280
     0
102
RTVSPost2010PropOp49
 70
     1
102
RTVSPost2010Prop50
 90
       50
102
RTVSPost2010PropOp50
 70
     1
102
RTVSPost2010Prop51ColorIndex
 90
      256
102
RTVSPost2010Prop51ColorRGB
 90
-16777216
102
RTVSPost2010PropOp51
 70
     0
102
RTVSPost2010Prop52
140
1.0
102
RTVSPost2010PropOp52
 70
     0
102
RTVSPost2010Prop53
 90
        2
102
RTVSPost2010PropOp53
 70
     1
102
RTVSPost2010Prop54
  1
strokes_ogs.tif
102
RTVSPost2010PropOp54
 70
     1
102
RTVSPost2010Prop55
280
     0
102
RTVSPost2010PropOp55
 70
     1
102
RTVSPost2010Prop56
140
1.0
102
RTVSPost2010PropOp56
 70
     1
102
RTVSPost2010Prop57
140
1.0
102
RTVSPost2010PropOp57
 70
     1
102
RTVSPropertyOp0
 70
     1
102
RTVSPropertyOp1
 70
     1
102
RTVSPropertyOp2
 70
     1
102
RTVSPropertyOp3
 70
     1
102
RTVSPropertyOp4
 70
     1
102
RTVSPropertyOp5
 70
     1
102
RTVSPropertyOp6
 70
     1
102
RTVSPropertyOp7
 70
     1
102
RTVSPropertyOp8
 70
     1
102
RTVSPropertyOp9
 70
     1
102
RTVSPropertyOp10
 70
     1
102
RTVSPropertyOp11
 70
     1
102
RTVSPropertyOp12
 70
     1
102
RTVSPropertyOp13
 70
     1
102
RTVSPropertyOp14
 70
     1
102
RTVSPropertyOp15
 70
     1
102
RTVSPropertyOp16
 70
     1
102
RTVSPropertyOp17
 70
     1
102
RTVSPropertyOp18
 70
     1
102
RTVSPropertyOp19
 70
     1
102
RTVSPropertyOp20
 70
     1
102
RTVSPropertyOp21
 70
     1
102
RTVSPropertyOp22
 70
     1
102
RTVSPropertyOp23
 70
     1
102
RTVSPropertyOp24
 70
     1
102
RTVSPropertyOp25
 70
     1
102
RTVSPropertyOp26
 70
     1
102
RTVSPropertyOp27
 70
     1
102
RTVSPropertyOp28
 70
     1
102
RTVSPropertyOp29
 70
     1
102
RTVSPropertyOp30
 70
     1
102
RTVSPropertyOp31
 70
     1
102
RTVSPropertyOp32
 70
     1
102
RTVSPropertyOp33
 70
     1
102
RTVSPropertyOp34
 70
     1
102
RTVSPropertyOp35
 70
     1
102
RTVSPropertyOp36
 70
     1
102
RTVSPropertyOp37
 70
     1
102
RTVSPropertyOp38
 70
     1
102
RTVSPropertyOp39
 70
     1
102
RTVSPropertyOp40
 70
     1
102
RTVSPropertyOp41
 70
     1
102
RTVSPropertyOp42
 70
     1
102
RTVSPropertyOp43
 70
     1
102
RTVSPropertyOp44
 70
     1
102
RTVSPropertyOp45
 70
     1
102
RTVSPropertyOp46
 70
     1
102
RTVSPropertyOp47
 70
     1
102
RTVSPropertyOp48
 70
     1
102
RTVSPropertyOp49
 70
     1
102
RTVSPropertyOp50
 70
     1
102
RTVSPropertyOp51
 70
     0
102
RTVSPropertyOp52
 70
     0
102
RTVSPropertyOp53
 70
     1
102
RTVSPropertyOp54
 70
     1
102
RTVSPropertyOp55
 70
     1
102
RTVSPropertyOp56
 70
     1
102
RTVSPropertyOp57
 70
     1
102
RTVSPropertyOp58
 70
     1
102
RTVSPropertyOp59
 70
     1
102
RTVSPropertyOp60
 70
     1
102
RTVSPropertyOp61
 70
     1
102
RTVSPropertyOp62
 70
     1
  0
XRECORD
  5
99F3
102
{ACAD_REACTORS
330
99F2
102
}
330
99F2
100
AcDbXrecord
280
     1
102
RTVSPost2010Prop28
280
     0
102
RTVSPost2010PropOp28
 70
     1
102
RTVSPost2010Prop29
280
     1
102
RTVSPost2010PropOp29
 70
     1
102
RTVSPost2010Prop30
280
     1
102
RTVSPost2010PropOp30
 70
     1
102
RTVSPost2010Prop31
280
     0
102
RTVSPost2010PropOp31
 70
     1
102
RTVSPost2010Prop32
280
     0
102
RTVSPost2010PropOp32
 70
     1
102
RTVSPost2010Prop33
280
     0
102
RTVSPost2010PropOp33
 70
     1
102
RTVSPost2010Prop34
280
     0
102
RTVSPost2010PropOp34
 70
     1
102
RTVSPost2010Prop35
280
     0
102
RTVSPost2010PropOp35
 70
     1
102
RTVSPost2010Prop36
280
     0
102
RTVSPost2010PropOp36
 70
     1
102
RTVSPost2010Prop37
 90
       50
102
RTVSPost2010PropOp37
 70
     0
102
RTVSPost2010Prop38
140
0.0
102
RTVSPost2010PropOp38
 70
     0
102
RTVSPost2010Prop39
140
1.0
102
RTVSPost2010PropOp39
 70
     0
102
RTVSPost2010Prop40
 90
        0
102
RTVSPost2010PropOp40
 70
     0
102
RTVSPost2010Prop41ColorIndex
 90
       18
102
RTVSPost2010Prop41ColorRGB
 90
        0
102
RTVSPost2010PropOp41
 70
     0
102
RTVSPost2010Prop42
 90
       50
102
RTVSPost2010PropOp42
 70
     0
102
RTVSPost2010Prop43
 90
        3
102
RTVSPost2010PropOp43
 70
     0
102
RTVSPost2010Prop44ColorIndex
 90
        5
102
RTVSPost2010Prop44ColorRGB
 90
      255
102
RTVSPost2010PropOp44
 70
     0
102
RTVSPost2010Prop45
280
     0
102
RTVSPost2010PropOp45
 70
     1
102
RTVSPost2010Prop46
 90
       50
102
RTVSPost2010PropOp46
 70
     0
102
RTVSPost2010Prop47
 90
       50
102
RTVSPost2010PropOp47
 70
     0
102
RTVSPost2010Prop48
 90
       50
102
RTVSPost2010PropOp48
 70
     0
102
RTVSPost2010Prop49
280
     0
102
RTVSPost2010PropOp49
 70
     1
102
RTVSPost2010Prop50
 90
       50
102
RTVSPost2010PropOp50
 70
     0
102
RTVSPost2010Prop51ColorIndex
 90
      256
102
RTVSPost2010Prop51ColorRGB
 90
-16777216
102
RTVSPost2010PropOp51
 70
     0
102
RTVSPost2010Prop52
140
1.0
102
RTVSPost2010PropOp52
 70
     0
102
RTVSPost2010Prop53
 90
        2
102
RTVSPost2010PropOp53
 70
     0
102
RTVSPost2010Prop54
  1
strokes_ogs.tif
102
RTVSPost2010PropOp54
 70
     0
102
RTVSPost2010Prop55
280
     0
102
RTVSPost2010PropOp55
 70
     1
102
RTVSPost2010Prop56
140
1.0
102
RTVSPost2010PropOp56
 70
     0
102
RTVSPost2010Prop57
140
1.0
102
RTVSPost2010PropOp57
 70
     0
102
RTVSPropertyOp0
 70
     0
102
RTVSPropertyOp1
 70
     0
102
RTVSPropertyOp2
 70
     0
102
RTVSPropertyOp3
 70
     0
102
RTVSPropertyOp4
 70
     0
102
RTVSPropertyOp5
 70
     0
102
RTVSPropertyOp6
 70
     0
102
RTVSPropertyOp7
 70
     0
102
RTVSPropertyOp8
 70
     0
102
RTVSPropertyOp9
 70
     0
102
RTVSPropertyOp10
 70
     0
102
RTVSPropertyOp11
 70
     0
102
RTVSPropertyOp12
 70
     0
102
RTVSPropertyOp13
 70
     0
102
RTVSPropertyOp14
 70
     2
102
RTVSPropertyOp15
 70
     0
102
RTVSPropertyOp16
 70
     0
102
RTVSPropertyOp17
 70
     0
102
RTVSPropertyOp18
 70
     0
102
RTVSPropertyOp19
 70
     0
102
RTVSPropertyOp20
 70
     0
102
RTVSPropertyOp21
 70
     0
102
RTVSPropertyOp22
 70
     0
102
RTVSPropertyOp23
 70
     0
102
RTVSPropertyOp24
 70
     0
102
RTVSPropertyOp25
 70
     0
102
RTVSPropertyOp26
 70
     0
102
RTVSPropertyOp27
 70
     0
102
RTVSPropertyOp28
 70
     1
102
RTVSPropertyOp29
 70
     1
102
RTVSPropertyOp30
 70
     1
102
RTVSPropertyOp31
 70
     1
102
RTVSPropertyOp32
 70
     1
102
RTVSPropertyOp33
 70
     1
102
RTVSPropertyOp34
 70
     1
102
RTVSPropertyOp35
 70
     1
102
RTVSPropertyOp36
 70
     1
102
RTVSPropertyOp37
 70
     0
102
RTVSPropertyOp38
 70
     0
102
RTVSPropertyOp39
 70
     0
102
RTVSPropertyOp40
 70
     0
102
RTVSPropertyOp41
 70
     0
102
RTVSPropertyOp42
 70
     0
102
RTVSPropertyOp43
 70
     0
102
RTVSPropertyOp44
 70
     0
102
RTVSPropertyOp45
 70
     1
102
RTVSPropertyOp46
 70
     0
102
RTVSPropertyOp47
 70
     0
102
RTVSPropertyOp48
 70
     0
102
RTVSPropertyOp49
 70
     1
102
RTVSPropertyOp50
 70
     0
102
RTVSPropertyOp51
 70
     0
102
RTVSPropertyOp52
 70
     0
102
RTVSPropertyOp53
 70
     0
102
RTVSPropertyOp54
 70
     0
102
RTVSPropertyOp55
 70
     1
102
RTVSPropertyOp56
 70
     0
102
RTVSPropertyOp57
 70
     0
102
RTVSPropertyOp58
 70
     0
102
RTVSPropertyOp59
 70
     0
102
RTVSPropertyOp60
 70
     0
102
RTVSPropertyOp61
 70
     0
102
RTVSPropertyOp62
 70
     0
  0
XRECORD
  5
99D9
102
{ACAD_REACTORS
330
99D8
102
}
330
99D8
100
AcDbXrecord
280
     1
102
RTVSPost2010Prop28
280
     0
102
RTVSPost2010PropOp28
 70
     1
102
RTVSPost2010Prop29
280
     1
102
RTVSPost2010PropOp29
 70
     1
102
RTVSPost2010Prop30
280
     1
102
RTVSPost2010PropOp30
 70
     1
102
RTVSPost2010Prop31
280
     0
102
RTVSPost2010PropOp31
 70
     1
102
RTVSPost2010Prop32
280
     0
102
RTVSPost2010PropOp32
 70
     1
102
RTVSPost2010Prop33
280
     0
102
RTVSPost2010PropOp33
 70
     1
102
RTVSPost2010Prop34
280
     0
102
RTVSPost2010PropOp34
 70
     1
102
RTVSPost2010Prop35
280
     0
102
RTVSPost2010PropOp35
 70
     1
102
RTVSPost2010Prop36
280
     0
102
RTVSPost2010PropOp36
 70
     1
102
RTVSPost2010Prop37
 90
       50
102
RTVSPost2010PropOp37
 70
     1
102
RTVSPost2010Prop38
140
0.0
102
RTVSPost2010PropOp38
 70
     1
102
RTVSPost2010Prop39
140
1.0
102
RTVSPost2010PropOp39
 70
     1
102
RTVSPost2010Prop40
 90
        0
102
RTVSPost2010PropOp40
 70
     1
102
RTVSPost2010Prop41ColorIndex
 90
       18
102
RTVSPost2010Prop41ColorRGB
 90
        0
102
RTVSPost2010PropOp41
 70
     1
102
RTVSPost2010Prop42
 90
       50
102
RTVSPost2010PropOp42
 70
     1
102
RTVSPost2010Prop43
 90
        3
102
RTVSPost2010PropOp43
 70
     1
102
RTVSPost2010Prop44ColorIndex
 90
        5
102
RTVSPost2010Prop44ColorRGB
 90
      255
102
RTVSPost2010PropOp44
 70
     1
102
RTVSPost2010Prop45
280
     0
102
RTVSPost2010PropOp45
 70
     1
102
RTVSPost2010Prop46
 90
       50
102
RTVSPost2010PropOp46
 70
     1
102
RTVSPost2010Prop47
 90
       50
102
RTVSPost2010PropOp47
 70
     1
102
RTVSPost2010Prop48
 90
       50
102
RTVSPost2010PropOp48
 70
     1
102
RTVSPost2010Prop49
280
     0
102
RTVSPost2010PropOp49
 70
     1
102
RTVSPost2010Prop50
 90
       50
102
RTVSPost2010PropOp50
 70
     1
102
RTVSPost2010Prop51ColorIndex
 90
      256
102
RTVSPost2010Prop51ColorRGB
 90
-16777216
102
RTVSPost2010PropOp51
 70
     0
102
RTVSPost2010Prop52
140
1.0
102
RTVSPost2010PropOp52
 70
     0
102
RTVSPost2010Prop53
 90
        2
102
RTVSPost2010PropOp53
 70
     1
102
RTVSPost2010Prop54
  1
strokes_ogs.tif
102
RTVSPost2010PropOp54
 70
     1
102
RTVSPost2010Prop55
280
     0
102
RTVSPost2010PropOp55
 70
     1
102
RTVSPost2010Prop56
140
1.0
102
RTVSPost2010PropOp56
 70
     1
102
RTVSPost2010Prop57
140
1.0
102
RTVSPost2010PropOp57
 70
     1
102
RTVSPropertyOp0
 70
     1
102
RTVSPropertyOp1
 70
     1
102
RTVSPropertyOp2
 70
     1
102
RTVSPropertyOp3
 70
     1
102
RTVSPropertyOp4
 70
     1
102
RTVSPropertyOp5
 70
     1
102
RTVSPropertyOp6
 70
     1
102
RTVSPropertyOp7
 70
     1
102
RTVSPropertyOp8
 70
     1
102
RTVSPropertyOp9
 70
     1
102
RTVSPropertyOp10
 70
     1
102
RTVSPropertyOp11
 70
     1
102
RTVSPropertyOp12
 70
     1
102
RTVSPropertyOp13
 70
     1
102
RTVSPropertyOp14
 70
     1
102
RTVSPropertyOp15
 70
     1
102
RTVSPropertyOp16
 70
     1
102
RTVSPropertyOp17
 70
     1
102
RTVSPropertyOp18
 70
     1
102
RTVSPropertyOp19
 70
     1
102
RTVSPropertyOp20
 70
     1
102
RTVSPropertyOp21
 70
     1
102
RTVSPropertyOp22
 70
     1
102
RTVSPropertyOp23
 70
     1
102
RTVSPropertyOp24
 70
     1
102
RTVSPropertyOp25
 70
     1
102
RTVSPropertyOp26
 70
     1
102
RTVSPropertyOp27
 70
     1
102
RTVSPropertyOp28
 70
     1
102
RTVSPropertyOp29
 70
     1
102
RTVSPropertyOp30
 70
     1
102
RTVSPropertyOp31
 70
     1
102
RTVSPropertyOp32
 70
     1
102
RTVSPropertyOp33
 70
     1
102
RTVSPropertyOp34
 70
     1
102
RTVSPropertyOp35
 70
     1
102
RTVSPropertyOp36
 70
     1
102
RTVSPropertyOp37
 70
     1
102
RTVSPropertyOp38
 70
     1
102
RTVSPropertyOp39
 70
     1
102
RTVSPropertyOp40
 70
     1
102
RTVSPropertyOp41
 70
     1
102
RTVSPropertyOp42
 70
     1
102
RTVSPropertyOp43
 70
     1
102
RTVSPropertyOp44
 70
     1
102
RTVSPropertyOp45
 70
     1
102
RTVSPropertyOp46
 70
     1
102
RTVSPropertyOp47
 70
     1
102
RTVSPropertyOp48
 70
     1
102
RTVSPropertyOp49
 70
     1
102
RTVSPropertyOp50
 70
     1
102
RTVSPropertyOp51
 70
     0
102
RTVSPropertyOp52
 70
     0
102
RTVSPropertyOp53
 70
     1
102
RTVSPropertyOp54
 70
     1
102
RTVSPropertyOp55
 70
     1
102
RTVSPropertyOp56
 70
     1
102
RTVSPropertyOp57
 70
     1
102
RTVSPropertyOp58
 70
     1
102
RTVSPropertyOp59
 70
     1
102
RTVSPropertyOp60
 70
     1
102
RTVSPropertyOp61
 70
     1
102
RTVSPropertyOp62
 70
     1
  0
XRECORD
  5
99EF
102
{ACAD_REACTORS
330
99EE
102
}
330
99EE
100
AcDbXrecord
280
     1
102
RTVSPost2010Prop28
280
     0
102
RTVSPost2010PropOp28
 70
     1
102
RTVSPost2010Prop29
280
     1
102
RTVSPost2010PropOp29
 70
     1
102
RTVSPost2010Prop30
280
     1
102
RTVSPost2010PropOp30
 70
     1
102
RTVSPost2010Prop31
280
     0
102
RTVSPost2010PropOp31
 70
     1
102
RTVSPost2010Prop32
280
     0
102
RTVSPost2010PropOp32
 70
     1
102
RTVSPost2010Prop33
280
     0
102
RTVSPost2010PropOp33
 70
     1
102
RTVSPost2010Prop34
280
     0
102
RTVSPost2010PropOp34
 70
     1
102
RTVSPost2010Prop35
280
     0
102
RTVSPost2010PropOp35
 70
     1
102
RTVSPost2010Prop36
280
     0
102
RTVSPost2010PropOp36
 70
     1
102
RTVSPost2010Prop37
 90
       50
102
RTVSPost2010PropOp37
 70
     1
102
RTVSPost2010Prop38
140
0.0
102
RTVSPost2010PropOp38
 70
     1
102
RTVSPost2010Prop39
140
1.0
102
RTVSPost2010PropOp39
 70
     1
102
RTVSPost2010Prop40
 90
        0
102
RTVSPost2010PropOp40
 70
     1
102
RTVSPost2010Prop41ColorIndex
 90
       18
102
RTVSPost2010Prop41ColorRGB
 90
        0
102
RTVSPost2010PropOp41
 70
     1
102
RTVSPost2010Prop42
 90
       50
102
RTVSPost2010PropOp42
 70
     1
102
RTVSPost2010Prop43
 90
        3
102
RTVSPost2010PropOp43
 70
     1
102
RTVSPost2010Prop44ColorIndex
 90
        5
102
RTVSPost2010Prop44ColorRGB
 90
      255
102
RTVSPost2010PropOp44
 70
     1
102
RTVSPost2010Prop45
280
     0
102
RTVSPost2010PropOp45
 70
     1
102
RTVSPost2010Prop46
 90
       50
102
RTVSPost2010PropOp46
 70
     1
102
RTVSPost2010Prop47
 90
       50
102
RTVSPost2010PropOp47
 70
     1
102
RTVSPost2010Prop48
 90
       50
102
RTVSPost2010PropOp48
 70
     1
102
RTVSPost2010Prop49
280
     0
102
RTVSPost2010PropOp49
 70
     1
102
RTVSPost2010Prop50
 90
       50
102
RTVSPost2010PropOp50
 70
     1
102
RTVSPost2010Prop51ColorIndex
 90
      256
102
RTVSPost2010Prop51ColorRGB
 90
-16777216
102
RTVSPost2010PropOp51
 70
     0
102
RTVSPost2010Prop52
140
1.0
102
RTVSPost2010PropOp52
 70
     0
102
RTVSPost2010Prop53
 90
        2
102
RTVSPost2010PropOp53
 70
     1
102
RTVSPost2010Prop54
  1
strokes_ogs.tif
102
RTVSPost2010PropOp54
 70
     1
102
RTVSPost2010Prop55
280
     0
102
RTVSPost2010PropOp55
 70
     1
102
RTVSPost2010Prop56
140
1.0
102
RTVSPost2010PropOp56
 70
     1
102
RTVSPost2010Prop57
140
1.0
102
RTVSPost2010PropOp57
 70
     1
102
RTVSPropertyOp0
 70
     1
102
RTVSPropertyOp1
 70
     1
102
RTVSPropertyOp2
 70
     1
102
RTVSPropertyOp3
 70
     1
102
RTVSPropertyOp4
 70
     1
102
RTVSPropertyOp5
 70
     1
102
RTVSPropertyOp6
 70
     1
102
RTVSPropertyOp7
 70
     1
102
RTVSPropertyOp8
 70
     1
102
RTVSPropertyOp9
 70
     1
102
RTVSPropertyOp10
 70
     1
102
RTVSPropertyOp11
 70
     1
102
RTVSPropertyOp12
 70
     1
102
RTVSPropertyOp13
 70
     1
102
RTVSPropertyOp14
 70
     1
102
RTVSPropertyOp15
 70
     1
102
RTVSPropertyOp16
 70
     1
102
RTVSPropertyOp17
 70
     1
102
RTVSPropertyOp18
 70
     1
102
RTVSPropertyOp19
 70
     1
102
RTVSPropertyOp20
 70
     1
102
RTVSPropertyOp21
 70
     1
102
RTVSPropertyOp22
 70
     1
102
RTVSPropertyOp23
 70
     1
102
RTVSPropertyOp24
 70
     1
102
RTVSPropertyOp25
 70
     1
102
RTVSPropertyOp26
 70
     1
102
RTVSPropertyOp27
 70
     1
102
RTVSPropertyOp28
 70
     1
102
RTVSPropertyOp29
 70
     1
102
RTVSPropertyOp30
 70
     1
102
RTVSPropertyOp31
 70
     1
102
RTVSPropertyOp32
 70
     1
102
RTVSPropertyOp33
 70
     1
102
RTVSPropertyOp34
 70
     1
102
RTVSPropertyOp35
 70
     1
102
RTVSPropertyOp36
 70
     1
102
RTVSPropertyOp37
 70
     1
102
RTVSPropertyOp38
 70
     1
102
RTVSPropertyOp39
 70
     1
102
RTVSPropertyOp40
 70
     1
102
RTVSPropertyOp41
 70
     1
102
RTVSPropertyOp42
 70
     1
102
RTVSPropertyOp43
 70
     1
102
RTVSPropertyOp44
 70
     1
102
RTVSPropertyOp45
 70
     1
102
RTVSPropertyOp46
 70
     1
102
RTVSPropertyOp47
 70
     1
102
RTVSPropertyOp48
 70
     1
102
RTVSPropertyOp49
 70
     1
102
RTVSPropertyOp50
 70
     1
102
RTVSPropertyOp51
 70
     0
102
RTVSPropertyOp52
 70
     0
102
RTVSPropertyOp53
 70
     1
102
RTVSPropertyOp54
 70
     1
102
RTVSPropertyOp55
 70
     1
102
RTVSPropertyOp56
 70
     1
102
RTVSPropertyOp57
 70
     1
102
RTVSPropertyOp58
 70
     1
102
RTVSPropertyOp59
 70
     1
102
RTVSPropertyOp60
 70
     1
102
RTVSPropertyOp61
 70
     1
102
RTVSPropertyOp62
 70
     1
  0
XRECORD
  5
99ED
102
{ACAD_REACTORS
330
99EC
102
}
330
99EC
100
AcDbXrecord
280
     1
102
RTVSPost2010Prop28
280
     0
102
RTVSPost2010PropOp28
 70
     1
102
RTVSPost2010Prop29
280
     1
102
RTVSPost2010PropOp29
 70
     1
102
RTVSPost2010Prop30
280
     1
102
RTVSPost2010PropOp30
 70
     1
102
RTVSPost2010Prop31
280
     0
102
RTVSPost2010PropOp31
 70
     1
102
RTVSPost2010Prop32
280
     0
102
RTVSPost2010PropOp32
 70
     1
102
RTVSPost2010Prop33
280
     0
102
RTVSPost2010PropOp33
 70
     1
102
RTVSPost2010Prop34
280
     0
102
RTVSPost2010PropOp34
 70
     1
102
RTVSPost2010Prop35
280
     0
102
RTVSPost2010PropOp35
 70
     1
102
RTVSPost2010Prop36
280
     0
102
RTVSPost2010PropOp36
 70
     1
102
RTVSPost2010Prop37
 90
       50
102
RTVSPost2010PropOp37
 70
     1
102
RTVSPost2010Prop38
140
0.0
102
RTVSPost2010PropOp38
 70
     1
102
RTVSPost2010Prop39
140
1.0
102
RTVSPost2010PropOp39
 70
     1
102
RTVSPost2010Prop40
 90
        0
102
RTVSPost2010PropOp40
 70
     1
102
RTVSPost2010Prop41ColorIndex
 90
       18
102
RTVSPost2010Prop41ColorRGB
 90
        0
102
RTVSPost2010PropOp41
 70
     1
102
RTVSPost2010Prop42
 90
       50
102
RTVSPost2010PropOp42
 70
     1
102
RTVSPost2010Prop43
 90
        3
102
RTVSPost2010PropOp43
 70
     1
102
RTVSPost2010Prop44ColorIndex
 90
        5
102
RTVSPost2010Prop44ColorRGB
 90
      255
102
RTVSPost2010PropOp44
 70
     1
102
RTVSPost2010Prop45
280
     0
102
RTVSPost2010PropOp45
 70
     1
102
RTVSPost2010Prop46
 90
       50
102
RTVSPost2010PropOp46
 70
     1
102
RTVSPost2010Prop47
 90
       50
102
RTVSPost2010PropOp47
 70
     1
102
RTVSPost2010Prop48
 90
       50
102
RTVSPost2010PropOp48
 70
     1
102
RTVSPost2010Prop49
280
     0
102
RTVSPost2010PropOp49
 70
     1
102
RTVSPost2010Prop50
 90
       50
102
RTVSPost2010PropOp50
 70
     1
102
RTVSPost2010Prop51ColorIndex
 90
      256
102
RTVSPost2010Prop51ColorRGB
 90
-16777216
102
RTVSPost2010PropOp51
 70
     0
102
RTVSPost2010Prop52
140
1.0
102
RTVSPost2010PropOp52
 70
     0
102
RTVSPost2010Prop53
 90
        2
102
RTVSPost2010PropOp53
 70
     1
102
RTVSPost2010Prop54
  1
strokes_ogs.tif
102
RTVSPost2010PropOp54
 70
     1
102
RTVSPost2010Prop55
280
     0
102
RTVSPost2010PropOp55
 70
     1
102
RTVSPost2010Prop56
140
1.0
102
RTVSPost2010PropOp56
 70
     1
102
RTVSPost2010Prop57
140
1.0
102
RTVSPost2010PropOp57
 70
     1
102
RTVSPropertyOp0
 70
     1
102
RTVSPropertyOp1
 70
     1
102
RTVSPropertyOp2
 70
     1
102
RTVSPropertyOp3
 70
     1
102
RTVSPropertyOp4
 70
     1
102
RTVSPropertyOp5
 70
     1
102
RTVSPropertyOp6
 70
     1
102
RTVSPropertyOp7
 70
     1
102
RTVSPropertyOp8
 70
     1
102
RTVSPropertyOp9
 70
     1
102
RTVSPropertyOp10
 70
     1
102
RTVSPropertyOp11
 70
     1
102
RTVSPropertyOp12
 70
     1
102
RTVSPropertyOp13
 70
     1
102
RTVSPropertyOp14
 70
     1
102
RTVSPropertyOp15
 70
     1
102
RTVSPropertyOp16
 70
     1
102
RTVSPropertyOp17
 70
     1
102
RTVSPropertyOp18
 70
     1
102
RTVSPropertyOp19
 70
     1
102
RTVSPropertyOp20
 70
     1
102
RTVSPropertyOp21
 70
     1
102
RTVSPropertyOp22
 70
     1
102
RTVSPropertyOp23
 70
     1
102
RTVSPropertyOp24
 70
     1
102
RTVSPropertyOp25
 70
     1
102
RTVSPropertyOp26
 70
     1
102
RTVSPropertyOp27
 70
     1
102
RTVSPropertyOp28
 70
     1
102
RTVSPropertyOp29
 70
     1
102
RTVSPropertyOp30
 70
     1
102
RTVSPropertyOp31
 70
     1
102
RTVSPropertyOp32
 70
     1
102
RTVSPropertyOp33
 70
     1
102
RTVSPropertyOp34
 70
     1
102
RTVSPropertyOp35
 70
     1
102
RTVSPropertyOp36
 70
     1
102
RTVSPropertyOp37
 70
     1
102
RTVSPropertyOp38
 70
     1
102
RTVSPropertyOp39
 70
     1
102
RTVSPropertyOp40
 70
     1
102
RTVSPropertyOp41
 70
     1
102
RTVSPropertyOp42
 70
     1
102
RTVSPropertyOp43
 70
     1
102
RTVSPropertyOp44
 70
     1
102
RTVSPropertyOp45
 70
     1
102
RTVSPropertyOp46
 70
     1
102
RTVSPropertyOp47
 70
     1
102
RTVSPropertyOp48
 70
     1
102
RTVSPropertyOp49
 70
     1
102
RTVSPropertyOp50
 70
     1
102
RTVSPropertyOp51
 70
     0
102
RTVSPropertyOp52
 70
     0
102
RTVSPropertyOp53
 70
     1
102
RTVSPropertyOp54
 70
     1
102
RTVSPropertyOp55
 70
     1
102
RTVSPropertyOp56
 70
     1
102
RTVSPropertyOp57
 70
     1
102
RTVSPropertyOp58
 70
     1
102
RTVSPropertyOp59
 70
     1
102
RTVSPropertyOp60
 70
     1
102
RTVSPropertyOp61
 70
     1
102
RTVSPropertyOp62
 70
     1
  0
XRECORD
  5
99E7
102
{ACAD_REACTORS
330
99E6
102
}
330
99E6
100
AcDbXrecord
280
     1
102
RTVSPost2010Prop28
280
     0
102
RTVSPost2010PropOp28
 70
     1
102
RTVSPost2010Prop29
280
     1
102
RTVSPost2010PropOp29
 70
     1
102
RTVSPost2010Prop30
280
     1
102
RTVSPost2010PropOp30
 70
     1
102
RTVSPost2010Prop31
280
     0
102
RTVSPost2010PropOp31
 70
     1
102
RTVSPost2010Prop32
280
     0
102
RTVSPost2010PropOp32
 70
     1
102
RTVSPost2010Prop33
280
     0
102
RTVSPost2010PropOp33
 70
     1
102
RTVSPost2010Prop34
280
     0
102
RTVSPost2010PropOp34
 70
     1
102
RTVSPost2010Prop35
280
     0
102
RTVSPost2010PropOp35
 70
     1
102
RTVSPost2010Prop36
280
     0
102
RTVSPost2010PropOp36
 70
     1
102
RTVSPost2010Prop37
 90
       50
102
RTVSPost2010PropOp37
 70
     1
102
RTVSPost2010Prop38
140
0.0
102
RTVSPost2010PropOp38
 70
     1
102
RTVSPost2010Prop39
140
1.0
102
RTVSPost2010PropOp39
 70
     1
102
RTVSPost2010Prop40
 90
        0
102
RTVSPost2010PropOp40
 70
     1
102
RTVSPost2010Prop41ColorIndex
 90
       18
102
RTVSPost2010Prop41ColorRGB
 90
        0
102
RTVSPost2010PropOp41
 70
     1
102
RTVSPost2010Prop42
 90
       50
102
RTVSPost2010PropOp42
 70
     1
102
RTVSPost2010Prop43
 90
        3
102
RTVSPost2010PropOp43
 70
     1
102
RTVSPost2010Prop44ColorIndex
 90
        5
102
RTVSPost2010Prop44ColorRGB
 90
      255
102
RTVSPost2010PropOp44
 70
     1
102
RTVSPost2010Prop45
280
     0
102
RTVSPost2010PropOp45
 70
     1
102
RTVSPost2010Prop46
 90
       50
102
RTVSPost2010PropOp46
 70
     1
102
RTVSPost2010Prop47
 90
       50
102
RTVSPost2010PropOp47
 70
     1
102
RTVSPost2010Prop48
 90
       50
102
RTVSPost2010PropOp48
 70
     1
102
RTVSPost2010Prop49
280
     0
102
RTVSPost2010PropOp49
 70
     1
102
RTVSPost2010Prop50
 90
       50
102
RTVSPost2010PropOp50
 70
     1
102
RTVSPost2010Prop51ColorIndex
 90
      256
102
RTVSPost2010Prop51ColorRGB
 90
-16777216
102
RTVSPost2010PropOp51
 70
     0
102
RTVSPost2010Prop52
140
1.0
102
RTVSPost2010PropOp52
 70
     0
102
RTVSPost2010Prop53
 90
        2
102
RTVSPost2010PropOp53
 70
     1
102
RTVSPost2010Prop54
  1
strokes_ogs.tif
102
RTVSPost2010PropOp54
 70
     1
102
RTVSPost2010Prop55
280
     0
102
RTVSPost2010PropOp55
 70
     1
102
RTVSPost2010Prop56
140
1.0
102
RTVSPost2010PropOp56
 70
     1
102
RTVSPost2010Prop57
140
1.0
102
RTVSPost2010PropOp57
 70
     1
102
RTVSPropertyOp0
 70
     1
102
RTVSPropertyOp1
 70
     1
102
RTVSPropertyOp2
 70
     1
102
RTVSPropertyOp3
 70
     1
102
RTVSPropertyOp4
 70
     1
102
RTVSPropertyOp5
 70
     1
102
RTVSPropertyOp6
 70
     1
102
RTVSPropertyOp7
 70
     1
102
RTVSPropertyOp8
 70
     1
102
RTVSPropertyOp9
 70
     1
102
RTVSPropertyOp10
 70
     1
102
RTVSPropertyOp11
 70
     1
102
RTVSPropertyOp12
 70
     1
102
RTVSPropertyOp13
 70
     1
102
RTVSPropertyOp14
 70
     1
102
RTVSPropertyOp15
 70
     1
102
RTVSPropertyOp16
 70
     1
102
RTVSPropertyOp17
 70
     1
102
RTVSPropertyOp18
 70
     1
102
RTVSPropertyOp19
 70
     1
102
RTVSPropertyOp20
 70
     1
102
RTVSPropertyOp21
 70
     1
102
RTVSPropertyOp22
 70
     1
102
RTVSPropertyOp23
 70
     1
102
RTVSPropertyOp24
 70
     1
102
RTVSPropertyOp25
 70
     1
102
RTVSPropertyOp26
 70
     1
102
RTVSPropertyOp27
 70
     1
102
RTVSPropertyOp28
 70
     1
102
RTVSPropertyOp29
 70
     1
102
RTVSPropertyOp30
 70
     1
102
RTVSPropertyOp31
 70
     1
102
RTVSPropertyOp32
 70
     1
102
RTVSPropertyOp33
 70
     1
102
RTVSPropertyOp34
 70
     1
102
RTVSPropertyOp35
 70
     1
102
RTVSPropertyOp36
 70
     1
102
RTVSPropertyOp37
 70
     1
102
RTVSPropertyOp38
 70
     1
102
RTVSPropertyOp39
 70
     1
102
RTVSPropertyOp40
 70
     1
102
RTVSPropertyOp41
 70
     1
102
RTVSPropertyOp42
 70
     1
102
RTVSPropertyOp43
 70
     1
102
RTVSPropertyOp44
 70
     1
102
RTVSPropertyOp45
 70
     1
102
RTVSPropertyOp46
 70
     1
102
RTVSPropertyOp47
 70
     1
102
RTVSPropertyOp48
 70
     1
102
RTVSPropertyOp49
 70
     1
102
RTVSPropertyOp50
 70
     1
102
RTVSPropertyOp51
 70
     0
102
RTVSPropertyOp52
 70
     0
102
RTVSPropertyOp53
 70
     1
102
RTVSPropertyOp54
 70
     1
102
RTVSPropertyOp55
 70
     1
102
RTVSPropertyOp56
 70
     1
102
RTVSPropertyOp57
 70
     1
102
RTVSPropertyOp58
 70
     1
102
RTVSPropertyOp59
 70
     1
102
RTVSPropertyOp60
 70
     1
102
RTVSPropertyOp61
 70
     1
102
RTVSPropertyOp62
 70
     1
  0
XRECORD
  5
99E9
102
{ACAD_REACTORS
330
99E8
102
}
330
99E8
100
AcDbXrecord
280
     1
102
RTVSPost2010Prop28
280
     0
102
RTVSPost2010PropOp28
 70
     1
102
RTVSPost2010Prop29
280
     1
102
RTVSPost2010PropOp29
 70
     1
102
RTVSPost2010Prop30
280
     1
102
RTVSPost2010PropOp30
 70
     1
102
RTVSPost2010Prop31
280
     0
102
RTVSPost2010PropOp31
 70
     1
102
RTVSPost2010Prop32
280
     0
102
RTVSPost2010PropOp32
 70
     1
102
RTVSPost2010Prop33
280
     0
102
RTVSPost2010PropOp33
 70
     1
102
RTVSPost2010Prop34
280
     0
102
RTVSPost2010PropOp34
 70
     1
102
RTVSPost2010Prop35
280
     0
102
RTVSPost2010PropOp35
 70
     1
102
RTVSPost2010Prop36
280
     0
102
RTVSPost2010PropOp36
 70
     1
102
RTVSPost2010Prop37
 90
       50
102
RTVSPost2010PropOp37
 70
     1
102
RTVSPost2010Prop38
140
0.0
102
RTVSPost2010PropOp38
 70
     1
102
RTVSPost2010Prop39
140
1.0
102
RTVSPost2010PropOp39
 70
     1
102
RTVSPost2010Prop40
 90
        0
102
RTVSPost2010PropOp40
 70
     1
102
RTVSPost2010Prop41ColorIndex
 90
       18
102
RTVSPost2010Prop41ColorRGB
 90
        0
102
RTVSPost2010PropOp41
 70
     1
102
RTVSPost2010Prop42
 90
       50
102
RTVSPost2010PropOp42
 70
     1
102
RTVSPost2010Prop43
 90
        3
102
RTVSPost2010PropOp43
 70
     1
102
RTVSPost2010Prop44ColorIndex
 90
        5
102
RTVSPost2010Prop44ColorRGB
 90
      255
102
RTVSPost2010PropOp44
 70
     1
102
RTVSPost2010Prop45
280
     0
102
RTVSPost2010PropOp45
 70
     1
102
RTVSPost2010Prop46
 90
       50
102
RTVSPost2010PropOp46
 70
     1
102
RTVSPost2010Prop47
 90
       50
102
RTVSPost2010PropOp47
 70
     1
102
RTVSPost2010Prop48
 90
       50
102
RTVSPost2010PropOp48
 70
     1
102
RTVSPost2010Prop49
280
     0
102
RTVSPost2010PropOp49
 70
     1
102
RTVSPost2010Prop50
 90
       50
102
RTVSPost2010PropOp50
 70
     1
102
RTVSPost2010Prop51ColorIndex
 90
      256
102
RTVSPost2010Prop51ColorRGB
 90
-16777216
102
RTVSPost2010PropOp51
 70
     0
102
RTVSPost2010Prop52
140
1.0
102
RTVSPost2010PropOp52
 70
     0
102
RTVSPost2010Prop53
 90
        2
102
RTVSPost2010PropOp53
 70
     1
102
RTVSPost2010Prop54
  1
strokes_ogs.tif
102
RTVSPost2010PropOp54
 70
     1
102
RTVSPost2010Prop55
280
     0
102
RTVSPost2010PropOp55
 70
     1
102
RTVSPost2010Prop56
140
1.0
102
RTVSPost2010PropOp56
 70
     1
102
RTVSPost2010Prop57
140
1.0
102
RTVSPost2010PropOp57
 70
     1
102
RTVSPropertyOp0
 70
     1
102
RTVSPropertyOp1
 70
     1
102
RTVSPropertyOp2
 70
     1
102
RTVSPropertyOp3
 70
     1
102
RTVSPropertyOp4
 70
     1
102
RTVSPropertyOp5
 70
     1
102
RTVSPropertyOp6
 70
     1
102
RTVSPropertyOp7
 70
     1
102
RTVSPropertyOp8
 70
     1
102
RTVSPropertyOp9
 70
     1
102
RTVSPropertyOp10
 70
     1
102
RTVSPropertyOp11
 70
     1
102
RTVSPropertyOp12
 70
     1
102
RTVSPropertyOp13
 70
     1
102
RTVSPropertyOp14
 70
     1
102
RTVSPropertyOp15
 70
     1
102
RTVSPropertyOp16
 70
     1
102
RTVSPropertyOp17
 70
     1
102
RTVSPropertyOp18
 70
     1
102
RTVSPropertyOp19
 70
     1
102
RTVSPropertyOp20
 70
     1
102
RTVSPropertyOp21
 70
     1
102
RTVSPropertyOp22
 70
     1
102
RTVSPropertyOp23
 70
     1
102
RTVSPropertyOp24
 70
     1
102
RTVSPropertyOp25
 70
     1
102
RTVSPropertyOp26
 70
     1
102
RTVSPropertyOp27
 70
     1
102
RTVSPropertyOp28
 70
     1
102
RTVSPropertyOp29
 70
     1
102
RTVSPropertyOp30
 70
     1
102
RTVSPropertyOp31
 70
     1
102
RTVSPropertyOp32
 70
     1
102
RTVSPropertyOp33
 70
     1
102
RTVSPropertyOp34
 70
     1
102
RTVSPropertyOp35
 70
     1
102
RTVSPropertyOp36
 70
     1
102
RTVSPropertyOp37
 70
     1
102
RTVSPropertyOp38
 70
     1
102
RTVSPropertyOp39
 70
     1
102
RTVSPropertyOp40
 70
     1
102
RTVSPropertyOp41
 70
     1
102
RTVSPropertyOp42
 70
     1
102
RTVSPropertyOp43
 70
     1
102
RTVSPropertyOp44
 70
     1
102
RTVSPropertyOp45
 70
     1
102
RTVSPropertyOp46
 70
     1
102
RTVSPropertyOp47
 70
     1
102
RTVSPropertyOp48
 70
     1
102
RTVSPropertyOp49
 70
     1
102
RTVSPropertyOp50
 70
     1
102
RTVSPropertyOp51
 70
     0
102
RTVSPropertyOp52
 70
     0
102
RTVSPropertyOp53
 70
     1
102
RTVSPropertyOp54
 70
     1
102
RTVSPropertyOp55
 70
     1
102
RTVSPropertyOp56
 70
     1
102
RTVSPropertyOp57
 70
     1
102
RTVSPropertyOp58
 70
     1
102
RTVSPropertyOp59
 70
     1
102
RTVSPropertyOp60
 70
     1
102
RTVSPropertyOp61
 70
     1
102
RTVSPropertyOp62
 70
     1
  0
XRECORD
  5
99DF
102
{ACAD_REACTORS
330
99DE
102
}
330
99DE
100
AcDbXrecord
280
     1
102
RTVSPost2010Prop28
280
     0
102
RTVSPost2010PropOp28
 70
     1
102
RTVSPost2010Prop29
280
     1
102
RTVSPost2010PropOp29
 70
     1
102
RTVSPost2010Prop30
280
     1
102
RTVSPost2010PropOp30
 70
     1
102
RTVSPost2010Prop31
280
     0
102
RTVSPost2010PropOp31
 70
     1
102
RTVSPost2010Prop32
280
     0
102
RTVSPost2010PropOp32
 70
     1
102
RTVSPost2010Prop33
280
     0
102
RTVSPost2010PropOp33
 70
     1
102
RTVSPost2010Prop34
280
     0
102
RTVSPost2010PropOp34
 70
     1
102
RTVSPost2010Prop35
280
     0
102
RTVSPost2010PropOp35
 70
     1
102
RTVSPost2010Prop36
280
     0
102
RTVSPost2010PropOp36
 70
     1
102
RTVSPost2010Prop37
 90
       50
102
RTVSPost2010PropOp37
 70
     1
102
RTVSPost2010Prop38
140
0.0
102
RTVSPost2010PropOp38
 70
     1
102
RTVSPost2010Prop39
140
1.0
102
RTVSPost2010PropOp39
 70
     1
102
RTVSPost2010Prop40
 90
        0
102
RTVSPost2010PropOp40
 70
     1
102
RTVSPost2010Prop41ColorIndex
 90
       18
102
RTVSPost2010Prop41ColorRGB
 90
        0
102
RTVSPost2010PropOp41
 70
     1
102
RTVSPost2010Prop42
 90
       50
102
RTVSPost2010PropOp42
 70
     1
102
RTVSPost2010Prop43
 90
        3
102
RTVSPost2010PropOp43
 70
     1
102
RTVSPost2010Prop44ColorIndex
 90
        5
102
RTVSPost2010Prop44ColorRGB
 90
      255
102
RTVSPost2010PropOp44
 70
     1
102
RTVSPost2010Prop45
280
     0
102
RTVSPost2010PropOp45
 70
     1
102
RTVSPost2010Prop46
 90
       50
102
RTVSPost2010PropOp46
 70
     1
102
RTVSPost2010Prop47
 90
       50
102
RTVSPost2010PropOp47
 70
     1
102
RTVSPost2010Prop48
 90
       50
102
RTVSPost2010PropOp48
 70
     1
102
RTVSPost2010Prop49
280
     0
102
RTVSPost2010PropOp49
 70
     1
102
RTVSPost2010Prop50
 90
       50
102
RTVSPost2010PropOp50
 70
     1
102
RTVSPost2010Prop51ColorIndex
 90
      256
102
RTVSPost2010Prop51ColorRGB
 90
-16777216
102
RTVSPost2010PropOp51
 70
     0
102
RTVSPost2010Prop52
140
1.0
102
RTVSPost2010PropOp52
 70
     0
102
RTVSPost2010Prop53
 90
        2
102
RTVSPost2010PropOp53
 70
     1
102
RTVSPost2010Prop54
  1
strokes_ogs.tif
102
RTVSPost2010PropOp54
 70
     1
102
RTVSPost2010Prop55
280
     0
102
RTVSPost2010PropOp55
 70
     1
102
RTVSPost2010Prop56
140
1.0
102
RTVSPost2010PropOp56
 70
     1
102
RTVSPost2010Prop57
140
1.0
102
RTVSPost2010PropOp57
 70
     1
102
RTVSPropertyOp0
 70
     1
102
RTVSPropertyOp1
 70
     1
102
RTVSPropertyOp2
 70
     1
102
RTVSPropertyOp3
 70
     1
102
RTVSPropertyOp4
 70
     1
102
RTVSPropertyOp5
 70
     1
102
RTVSPropertyOp6
 70
     1
102
RTVSPropertyOp7
 70
     1
102
RTVSPropertyOp8
 70
     1
102
RTVSPropertyOp9
 70
     1
102
RTVSPropertyOp10
 70
     1
102
RTVSPropertyOp11
 70
     1
102
RTVSPropertyOp12
 70
     1
102
RTVSPropertyOp13
 70
     1
102
RTVSPropertyOp14
 70
     1
102
RTVSPropertyOp15
 70
     1
102
RTVSPropertyOp16
 70
     1
102
RTVSPropertyOp17
 70
     1
102
RTVSPropertyOp18
 70
     1
102
RTVSPropertyOp19
 70
     1
102
RTVSPropertyOp20
 70
     1
102
RTVSPropertyOp21
 70
     1
102
RTVSPropertyOp22
 70
     1
102
RTVSPropertyOp23
 70
     1
102
RTVSPropertyOp24
 70
     1
102
RTVSPropertyOp25
 70
     1
102
RTVSPropertyOp26
 70
     1
102
RTVSPropertyOp27
 70
     1
102
RTVSPropertyOp28
 70
     1
102
RTVSPropertyOp29
 70
     1
102
RTVSPropertyOp30
 70
     1
102
RTVSPropertyOp31
 70
     1
102
RTVSPropertyOp32
 70
     1
102
RTVSPropertyOp33
 70
     1
102
RTVSPropertyOp34
 70
     1
102
RTVSPropertyOp35
 70
     1
102
RTVSPropertyOp36
 70
     1
102
RTVSPropertyOp37
 70
     1
102
RTVSPropertyOp38
 70
     1
102
RTVSPropertyOp39
 70
     1
102
RTVSPropertyOp40
 70
     1
102
RTVSPropertyOp41
 70
     1
102
RTVSPropertyOp42
 70
     1
102
RTVSPropertyOp43
 70
     1
102
RTVSPropertyOp44
 70
     1
102
RTVSPropertyOp45
 70
     1
102
RTVSPropertyOp46
 70
     1
102
RTVSPropertyOp47
 70
     1
102
RTVSPropertyOp48
 70
     1
102
RTVSPropertyOp49
 70
     1
102
RTVSPropertyOp50
 70
     1
102
RTVSPropertyOp51
 70
     0
102
RTVSPropertyOp52
 70
     0
102
RTVSPropertyOp53
 70
     1
102
RTVSPropertyOp54
 70
     1
102
RTVSPropertyOp55
 70
     1
102
RTVSPropertyOp56
 70
     1
102
RTVSPropertyOp57
 70
     1
102
RTVSPropertyOp58
 70
     1
102
RTVSPropertyOp59
 70
     1
102
RTVSPropertyOp60
 70
     1
102
RTVSPropertyOp61
 70
     1
102
RTVSPropertyOp62
 70
     1
  0
XRECORD
  5
99D3
102
{ACAD_REACTORS
330
99D2
102
}
330
99D2
100
AcDbXrecord
280
     1
102
RTVSPost2010Prop28
280
     0
102
RTVSPost2010PropOp28
 70
     1
102
RTVSPost2010Prop29
280
     1
102
RTVSPost2010PropOp29
 70
     1
102
RTVSPost2010Prop30
280
     1
102
RTVSPost2010PropOp30
 70
     1
102
RTVSPost2010Prop31
280
     0
102
RTVSPost2010PropOp31
 70
     1
102
RTVSPost2010Prop32
280
     0
102
RTVSPost2010PropOp32
 70
     1
102
RTVSPost2010Prop33
280
     0
102
RTVSPost2010PropOp33
 70
     1
102
RTVSPost2010Prop34
280
     0
102
RTVSPost2010PropOp34
 70
     1
102
RTVSPost2010Prop35
280
     0
102
RTVSPost2010PropOp35
 70
     1
102
RTVSPost2010Prop36
280
     0
102
RTVSPost2010PropOp36
 70
     1
102
RTVSPost2010Prop37
 90
       50
102
RTVSPost2010PropOp37
 70
     1
102
RTVSPost2010Prop38
140
0.0
102
RTVSPost2010PropOp38
 70
     1
102
RTVSPost2010Prop39
140
1.0
102
RTVSPost2010PropOp39
 70
     1
102
RTVSPost2010Prop40
 90
        0
102
RTVSPost2010PropOp40
 70
     1
102
RTVSPost2010Prop41ColorIndex
 90
       18
102
RTVSPost2010Prop41ColorRGB
 90
        0
102
RTVSPost2010PropOp41
 70
     1
102
RTVSPost2010Prop42
 90
       50
102
RTVSPost2010PropOp42
 70
     1
102
RTVSPost2010Prop43
 90
        3
102
RTVSPost2010PropOp43
 70
     1
102
RTVSPost2010Prop44ColorIndex
 90
        5
102
RTVSPost2010Prop44ColorRGB
 90
      255
102
RTVSPost2010PropOp44
 70
     1
102
RTVSPost2010Prop45
280
     0
102
RTVSPost2010PropOp45
 70
     1
102
RTVSPost2010Prop46
 90
       50
102
RTVSPost2010PropOp46
 70
     1
102
RTVSPost2010Prop47
 90
       50
102
RTVSPost2010PropOp47
 70
     1
102
RTVSPost2010Prop48
 90
       50
102
RTVSPost2010PropOp48
 70
     1
102
RTVSPost2010Prop49
280
     0
102
RTVSPost2010PropOp49
 70
     1
102
RTVSPost2010Prop50
 90
       50
102
RTVSPost2010PropOp50
 70
     1
102
RTVSPost2010Prop51ColorIndex
 90
      256
102
RTVSPost2010Prop51ColorRGB
 90
-16777216
102
RTVSPost2010PropOp51
 70
     0
102
RTVSPost2010Prop52
140
1.0
102
RTVSPost2010PropOp52
 70
     0
102
RTVSPost2010Prop53
 90
        2
102
RTVSPost2010PropOp53
 70
     1
102
RTVSPost2010Prop54
  1
strokes_ogs.tif
102
RTVSPost2010PropOp54
 70
     1
102
RTVSPost2010Prop55
280
     0
102
RTVSPost2010PropOp55
 70
     1
102
RTVSPost2010Prop56
140
1.0
102
RTVSPost2010PropOp56
 70
     1
102
RTVSPost2010Prop57
140
1.0
102
RTVSPost2010PropOp57
 70
     1
102
RTVSPropertyOp0
 70
     1
102
RTVSPropertyOp1
 70
     1
102
RTVSPropertyOp2
 70
     1
102
RTVSPropertyOp3
 70
     1
102
RTVSPropertyOp4
 70
     1
102
RTVSPropertyOp5
 70
     1
102
RTVSPropertyOp6
 70
     1
102
RTVSPropertyOp7
 70
     1
102
RTVSPropertyOp8
 70
     1
102
RTVSPropertyOp9
 70
     1
102
RTVSPropertyOp10
 70
     1
102
RTVSPropertyOp11
 70
     1
102
RTVSPropertyOp12
 70
     1
102
RTVSPropertyOp13
 70
     1
102
RTVSPropertyOp14
 70
     1
102
RTVSPropertyOp15
 70
     1
102
RTVSPropertyOp16
 70
     1
102
RTVSPropertyOp17
 70
     1
102
RTVSPropertyOp18
 70
     1
102
RTVSPropertyOp19
 70
     1
102
RTVSPropertyOp20
 70
     1
102
RTVSPropertyOp21
 70
     1
102
RTVSPropertyOp22
 70
     1
102
RTVSPropertyOp23
 70
     1
102
RTVSPropertyOp24
 70
     1
102
RTVSPropertyOp25
 70
     1
102
RTVSPropertyOp26
 70
     1
102
RTVSPropertyOp27
 70
     1
102
RTVSPropertyOp28
 70
     1
102
RTVSPropertyOp29
 70
     1
102
RTVSPropertyOp30
 70
     1
102
RTVSPropertyOp31
 70
     1
102
RTVSPropertyOp32
 70
     1
102
RTVSPropertyOp33
 70
     1
102
RTVSPropertyOp34
 70
     1
102
RTVSPropertyOp35
 70
     1
102
RTVSPropertyOp36
 70
     1
102
RTVSPropertyOp37
 70
     1
102
RTVSPropertyOp38
 70
     1
102
RTVSPropertyOp39
 70
     1
102
RTVSPropertyOp40
 70
     1
102
RTVSPropertyOp41
 70
     1
102
RTVSPropertyOp42
 70
     1
102
RTVSPropertyOp43
 70
     1
102
RTVSPropertyOp44
 70
     1
102
RTVSPropertyOp45
 70
     1
102
RTVSPropertyOp46
 70
     1
102
RTVSPropertyOp47
 70
     1
102
RTVSPropertyOp48
 70
     1
102
RTVSPropertyOp49
 70
     1
102
RTVSPropertyOp50
 70
     1
102
RTVSPropertyOp51
 70
     0
102
RTVSPropertyOp52
 70
     0
102
RTVSPropertyOp53
 70
     1
102
RTVSPropertyOp54
 70
     1
102
RTVSPropertyOp55
 70
     1
102
RTVSPropertyOp56
 70
     1
102
RTVSPropertyOp57
 70
     1
102
RTVSPropertyOp58
 70
     1
102
RTVSPropertyOp59
 70
     1
102
RTVSPropertyOp60
 70
     1
102
RTVSPropertyOp61
 70
     1
102
RTVSPropertyOp62
 70
     1
  0
XRECORD
  5
99EB
102
{ACAD_REACTORS
330
99EA
102
}
330
99EA
100
AcDbXrecord
280
     1
102
RTVSPost2010Prop28
280
     0
102
RTVSPost2010PropOp28
 70
     1
102
RTVSPost2010Prop29
280
     1
102
RTVSPost2010PropOp29
 70
     1
102
RTVSPost2010Prop30
280
     1
102
RTVSPost2010PropOp30
 70
     1
102
RTVSPost2010Prop31
280
     0
102
RTVSPost2010PropOp31
 70
     1
102
RTVSPost2010Prop32
280
     0
102
RTVSPost2010PropOp32
 70
     1
102
RTVSPost2010Prop33
280
     0
102
RTVSPost2010PropOp33
 70
     1
102
RTVSPost2010Prop34
280
     0
102
RTVSPost2010PropOp34
 70
     1
102
RTVSPost2010Prop35
280
     0
102
RTVSPost2010PropOp35
 70
     1
102
RTVSPost2010Prop36
280
     0
102
RTVSPost2010PropOp36
 70
     1
102
RTVSPost2010Prop37
 90
       50
102
RTVSPost2010PropOp37
 70
     1
102
RTVSPost2010Prop38
140
0.0
102
RTVSPost2010PropOp38
 70
     1
102
RTVSPost2010Prop39
140
1.0
102
RTVSPost2010PropOp39
 70
     1
102
RTVSPost2010Prop40
 90
        0
102
RTVSPost2010PropOp40
 70
     1
102
RTVSPost2010Prop41ColorIndex
 90
       18
102
RTVSPost2010Prop41ColorRGB
 90
        0
102
RTVSPost2010PropOp41
 70
     1
102
RTVSPost2010Prop42
 90
       50
102
RTVSPost2010PropOp42
 70
     1
102
RTVSPost2010Prop43
 90
        3
102
RTVSPost2010PropOp43
 70
     1
102
RTVSPost2010Prop44ColorIndex
 90
        5
102
RTVSPost2010Prop44ColorRGB
 90
      255
102
RTVSPost2010PropOp44
 70
     1
102
RTVSPost2010Prop45
280
     0
102
RTVSPost2010PropOp45
 70
     1
102
RTVSPost2010Prop46
 90
       50
102
RTVSPost2010PropOp46
 70
     1
102
RTVSPost2010Prop47
 90
       50
102
RTVSPost2010PropOp47
 70
     1
102
RTVSPost2010Prop48
 90
       50
102
RTVSPost2010PropOp48
 70
     1
102
RTVSPost2010Prop49
280
     0
102
RTVSPost2010PropOp49
 70
     1
102
RTVSPost2010Prop50
 90
       50
102
RTVSPost2010PropOp50
 70
     1
102
RTVSPost2010Prop51ColorIndex
 90
      256
102
RTVSPost2010Prop51ColorRGB
 90
-16777216
102
RTVSPost2010PropOp51
 70
     0
102
RTVSPost2010Prop52
140
1.0
102
RTVSPost2010PropOp52
 70
     0
102
RTVSPost2010Prop53
 90
        2
102
RTVSPost2010PropOp53
 70
     1
102
RTVSPost2010Prop54
  1
strokes_ogs.tif
102
RTVSPost2010PropOp54
 70
     1
102
RTVSPost2010Prop55
280
     0
102
RTVSPost2010PropOp55
 70
     1
102
RTVSPost2010Prop56
140
1.0
102
RTVSPost2010PropOp56
 70
     1
102
RTVSPost2010Prop57
140
1.0
102
RTVSPost2010PropOp57
 70
     1
102
RTVSPropertyOp0
 70
     1
102
RTVSPropertyOp1
 70
     1
102
RTVSPropertyOp2
 70
     1
102
RTVSPropertyOp3
 70
     1
102
RTVSPropertyOp4
 70
     1
102
RTVSPropertyOp5
 70
     1
102
RTVSPropertyOp6
 70
     1
102
RTVSPropertyOp7
 70
     1
102
RTVSPropertyOp8
 70
     1
102
RTVSPropertyOp9
 70
     1
102
RTVSPropertyOp10
 70
     1
102
RTVSPropertyOp11
 70
     1
102
RTVSPropertyOp12
 70
     1
102
RTVSPropertyOp13
 70
     1
102
RTVSPropertyOp14
 70
     1
102
RTVSPropertyOp15
 70
     1
102
RTVSPropertyOp16
 70
     1
102
RTVSPropertyOp17
 70
     1
102
RTVSPropertyOp18
 70
     1
102
RTVSPropertyOp19
 70
     1
102
RTVSPropertyOp20
 70
     1
102
RTVSPropertyOp21
 70
     1
102
RTVSPropertyOp22
 70
     1
102
RTVSPropertyOp23
 70
     1
102
RTVSPropertyOp24
 70
     1
102
RTVSPropertyOp25
 70
     1
102
RTVSPropertyOp26
 70
     1
102
RTVSPropertyOp27
 70
     1
102
RTVSPropertyOp28
 70
     1
102
RTVSPropertyOp29
 70
     1
102
RTVSPropertyOp30
 70
     1
102
RTVSPropertyOp31
 70
     1
102
RTVSPropertyOp32
 70
     1
102
RTVSPropertyOp33
 70
     1
102
RTVSPropertyOp34
 70
     1
102
RTVSPropertyOp35
 70
     1
102
RTVSPropertyOp36
 70
     1
102
RTVSPropertyOp37
 70
     1
102
RTVSPropertyOp38
 70
     1
102
RTVSPropertyOp39
 70
     1
102
RTVSPropertyOp40
 70
     1
102
RTVSPropertyOp41
 70
     1
102
RTVSPropertyOp42
 70
     1
102
RTVSPropertyOp43
 70
     1
102
RTVSPropertyOp44
 70
     1
102
RTVSPropertyOp45
 70
     1
102
RTVSPropertyOp46
 70
     1
102
RTVSPropertyOp47
 70
     1
102
RTVSPropertyOp48
 70
     1
102
RTVSPropertyOp49
 70
     1
102
RTVSPropertyOp50
 70
     1
102
RTVSPropertyOp51
 70
     0
102
RTVSPropertyOp52
 70
     0
102
RTVSPropertyOp53
 70
     1
102
RTVSPropertyOp54
 70
     1
102
RTVSPropertyOp55
 70
     1
102
RTVSPropertyOp56
 70
     1
102
RTVSPropertyOp57
 70
     1
102
RTVSPropertyOp58
 70
     1
102
RTVSPropertyOp59
 70
     1
102
RTVSPropertyOp60
 70
     1
102
RTVSPropertyOp61
 70
     1
102
RTVSPropertyOp62
 70
     1
  0
ENDSEC
  0
EOF
