  0
SECTION
  2
HEADER
  9
$ACADVER
  1
AC1015
  9
$ACADMAINTVER
 70
    20
  9
$DWGCODEPAGE
  3
ANSI_932
  9
$INSBASE
 10
0.0
 20
0.0
 30
0.0
  9
$EXTMIN
 10
10.0
 20
9.999999999999998
 30
0.0
  9
$EXTMAX
 10
390.29825
 20
339.8014929999998
 30
0.0
  9
$LIMMIN
 10
0.0
 20
0.0
  9
$LIMMAX
 10
495.0
 20
341.25
  9
$ORTHOMODE
 70
     1
  9
$REGENMODE
 70
     1
  9
$FILLMODE
 70
     1
  9
$QTEXTMODE
 70
     0
  9
$MIRRTEXT
 70
     1
  9
$LTSCALE
 40
20.0
  9
$ATTMODE
 70
     1
  9
$TEXTSIZE
 40
5.0
  9
$TRACEWID
 40
1.0
  9
$TEXTSTYLE
  7
STANDARD
  9
$CLAYER
  8
0
  9
$CELTYPE
  6
BYLAYER
  9
$CECOLOR
 62
   256
  9
$CELTSCALE
 40
1.0
  9
$DISPSILH
 70
     0
  9
$DIMSCALE
 40
1.0
  9
$DIMASZ
 40
2.5
  9
$DIMEXO
 40
1.0
  9
$DIMDLI
 40
10.0
  9
$DIMRND
 40
0.0
  9
$DIMDLE
 40
0.0
  9
$DIMEXE
 40
1.0
  9
$DIMTP
 40
0.0
  9
$DIMTM
 40
0.0
  9
$DIMTXT
 40
2.5
  9
$DIMCEN
 40
0.0
  9
$DIMTSZ
 40
0.0
  9
$DIMTOL
 70
     0
  9
$DIMLIM
 70
     0
  9
$DIMTIH
 70
     0
  9
$DIMTOH
 70
     0
  9
$DIMSE1
 70
     0
  9
$DIMSE2
 70
     0
  9
$DIMTAD
 70
     3
  9
$DIMZIN
 70
     8
  9
$DIMBLK
  1

  9
$DIMASO
 70
     1
  9
$DIMSHO
 70
     1
  9
$DIMPOST
  1

  9
$DIMAPOST
  1

  9
$DIMALT
 70
     0
  9
$DIMALTD
 70
     2
  9
$DIMALTF
 40
0.0394
  9
$DIMLFAC
 40
1.0
  9
$DIMTOFL
 70
     1
  9
$DIMTVP
 40
0.0
  9
$DIMTIX
 70
     1
  9
$DIMSOXD
 70
     1
  9
$DIMSAH
 70
     1
  9
$DIMBLK1
  1
OPEN
  9
$DIMBLK2
  1
OPEN
  9
$DIMSTYLE
  2
STANDARD
  9
$DIMCLRD
 70
     0
  9
$DIMCLRE
 70
     0
  9
$DIMCLRT
 70
     0
  9
$DIMTFAC
 40
1.0
  9
$DIMGAP
 40
1.0
  9
$DIMJUST
 70
     0
  9
$DIMSD1
 70
     0
  9
$DIMSD2
 70
     0
  9
$DIMTOLJ
 70
     1
  9
$DIMTZIN
 70
     0
  9
$DIMALTZ
 70
     0
  9
$DIMALTTZ
 70
     0
  9
$DIMUPT
 70
     0
  9
$DIMDEC
 70
     4
  9
$DIMTDEC
 70
     4
  9
$DIMALTU
 70
     2
  9
$DIMALTTD
 70
     2
  9
$DIMTXSTY
  7
STANDARD
  9
$DIMAUNIT
 70
     0
  9
$DIMADEC
 70
     0
  9
$DIMALTRND
 40
0.0
  9
$DIMAZIN
 70
     0
  9
$DIMDSEP
 70
    46
  9
$DIMATFIT
 70
     3
  9
$DIMFRAC
 70
     0
  9
$DIMLDRBLK
  1
OPEN
  9
$DIMLUNIT
 70
     2
  9
$DIMLWD
 70
    -2
  9
$DIMLWE
 70
    -2
  9
$DIMTMOVE
 70
     0
  9
$LUNITS
 70
     2
  9
$LUPREC
 70
     4
  9
$SKETCHINC
 40
1.0
  9
$FILLETRAD
 40
0.0
  9
$AUNITS
 70
     0
  9
$AUPREC
 70
     2
  9
$MENU
  1
.
  9
$ELEVATION
 40
0.0
  9
$PELEVATION
 40
0.0
  9
$THICKNESS
 40
0.0
  9
$LIMCHECK
 70
     0
  9
$CHAMFERA
 40
10.0
  9
$CHAMFERB
 40
10.0
  9
$CHAMFERC
 40
0.0
  9
$CHAMFERD
 40
0.0
  9
$SKPOLY
 70
     0
  9
$TDCREATE
 40
2450737.700380671
  9
$TDUCREATE
 40
2450737.325380671
  9
$TDUPDATE
 40
2457192.640314028
  9
$TDUUPDATE
 40
2457192.265314028
  9
$TDINDWG
 40
0.0172637963
  9
$TDUSRTIMER
 40
0.0172634954
  9
$USRTIMER
 70
     1
  9
$ANGBASE
 50
0.0
  9
$ANGDIR
 70
     0
  9
$PDMODE
 70
     0
  9
$PDSIZE
 40
0.0
  9
$PLINEWID
 40
0.0
  9
$SPLFRAME
 70
     0
  9
$SPLINETYPE
 70
     6
  9
$SPLINESEGS
 70
     8
  9
$HANDSEED
  5
9AF6
  9
$SURFTAB1
 70
     6
  9
$SURFTAB2
 70
     6
  9
$SURFTYPE
 70
     6
  9
$SURFU
 70
     6
  9
$SURFV
 70
     6
  9
$UCSBASE
  2

  9
$UCSNAME
  2

  9
$UCSORG
 10
0.0
 20
0.0
 30
0.0
  9
$UCSXDIR
 10
1.0
 20
0.0
 30
0.0
  9
$UCSYDIR
 10
0.0
 20
1.0
 30
0.0
  9
$UCSORTHOREF
  2

  9
$UCSORTHOVIEW
 70
     0
  9
$UCSORGTOP
 10
0.0
 20
0.0
 30
0.0
  9
$UCSORGBOTTOM
 10
0.0
 20
0.0
 30
0.0
  9
$UCSORGLEFT
 10
0.0
 20
0.0
 30
0.0
  9
$UCSORGRIGHT
 10
0.0
 20
0.0
 30
0.0
  9
$UCSORGFRONT
 10
0.0
 20
0.0
 30
0.0
  9
$UCSORGBACK
 10
0.0
 20
0.0
 30
0.0
  9
$PUCSBASE
  2

  9
$PUCSNAME
  2

  9
$PUCSORG
 10
0.0
 20
0.0
 30
0.0
  9
$PUCSXDIR
 10
1.0
 20
0.0
 30
0.0
  9
$PUCSYDIR
 10
0.0
 20
1.0
 30
0.0
  9
$PUCSORTHOREF
  2

  9
$PUCSORTHOVIEW
 70
     0
  9
$PUCSORGTOP
 10
0.0
 20
0.0
 30
0.0
  9
$PUCSORGBOTTOM
 10
0.0
 20
0.0
 30
0.0
  9
$PUCSORGLEFT
 10
0.0
 20
0.0
 30
0.0
  9
$PUCSORGRIGHT
 10
0.0
 20
0.0
 30
0.0
  9
$PUCSORGFRONT
 10
0.0
 20
0.0
 30
0.0
  9
$PUCSORGBACK
 10
0.0
 20
0.0
 30
0.0
  9
$USERI1
 70
     0
  9
$USERI2
 70
     0
  9
$USERI3
 70
     0
  9
$USERI4
 70
     0
  9
$USERI5
 70
     0
  9
$USERR1
 40
0.0
  9
$USERR2
 40
0.0
  9
$USERR3
 40
0.0
  9
$USERR4
 40
0.0
  9
$USERR5
 40
0.0
  9
$WORLDVIEW
 70
     1
  9
$SHADEDGE
 70
     3
  9
$SHADEDIF
 70
    70
  9
$TILEMODE
 70
     1
  9
$MAXACTVP
 70
    16
  9
$PINSBASE
 10
0.0
 20
0.0
 30
0.0
  9
$PLIMCHECK
 70
     0
  9
$PEXTMIN
 10
1.000000000000000E+20
 20
1.000000000000000E+20
 30
1.000000000000000E+20
  9
$PEXTMAX
 10
-1.000000000000000E+20
 20
-1.000000000000000E+20
 30
-1.000000000000000E+20
  9
$PLIMMIN
 10
0.0
 20
0.0
  9
$PLIMMAX
 10
420.0
 20
297.0
  9
$UNITMODE
 70
     0
  9
$VISRETAIN
 70
     0
  9
$PLINEGEN
 70
     0
  9
$PSLTSCALE
 70
     0
  9
$TREEDEPTH
 70
  3020
  9
$CMLSTYLE
  2
STANDARD
  9
$CMLJUST
 70
     0
  9
$CMLSCALE
 40
1.0
  9
$PROXYGRAPHICS
 70
     1
  9
$MEASUREMENT
 70
     0
  9
$CELWEIGHT
370
    -1
  9
$ENDCAPS
280
     0
  9
$JOINSTYLE
280
     0
  9
$LWDISPLAY
290
     0
  9
$INSUNITS
 70
     0
  9
$HYPERLINKBASE
  1

  9
$STYLESHEET
  1

  9
$XEDIT
290
     1
  9
$CEPSNTYPE
380
     0
  9
$PSTYLEMODE
290
     1
  9
$FINGERPRINTGUID
  2
{FE792994-418A-4DE4-BBB7-EF2148B6FCE1}
  9
$VERSIONGUID
  2
{BEFF2ACC-99C5-44DC-9BF0-0742BFF6EFBD}
  9
$EXTNAMES
290
     1
  9
$PSVPSCALE
 40
0.0
  9
$OLESTARTUP
290
     0
  0
ENDSEC
  0
SECTION
  2
CLASSES
  0
CLASS
  1
ACDBDICTIONARYWDFLT
  2
AcDbDictionaryWithDefault
  3
ObjectDBX Classes
 90
        0
280
     0
281
     0
  0
CLASS
  1
ACDBPLACEHOLDER
  2
AcDbPlaceHolder
  3
ObjectDBX Classes
 90
        0
280
     0
281
     0
  0
CLASS
  1
LAYOUT
  2
AcDbLayout
  3
ObjectDBX Classes
 90
        0
280
     0
281
     0
  0
CLASS
  1
DICTIONARYVAR
  2
AcDbDictionaryVar
  3
ObjectDBX Classes
 90
        0
280
     0
281
     0
  0
CLASS
  1
MATERIAL
  2
AcDbMaterial
  3
ObjectDBX Classes
 90
     1153
280
     0
281
     0
  0
CLASS
  1
VISUALSTYLE
  2
AcDbVisualStyle
  3
ObjectDBX Classes
 90
     4095
280
     0
281
     0
  0
CLASS
  1
TABLESTYLE
  2
AcDbTableStyle
  3
ObjectDBX Classes
 90
     4095
280
     0
281
     0
  0
CLASS
  1
SCALE
  2
AcDbScale
  3
ObjectDBX Classes
 90
     1153
280
     0
281
     0
  0
CLASS
  1
MLEADERSTYLE
  2
AcDbMLeaderStyle
  3
ACDB_MLEADERSTYLE_CLASS
 90
     4095
280
     0
281
     0
  0
CLASS
  1
ACDBSECTIONVIEWSTYLE
  2
AcDbSectionViewStyle
  3
ObjectDBX Classes
 90
     1025
280
     0
281
     0
  0
CLASS
  1
ACDBDETAILVIEWSTYLE
  2
AcDbDetailViewStyle
  3
ObjectDBX Classes
 90
     1025
280
     0
281
     0
  0
CLASS
  1
CELLSTYLEMAP
  2
AcDbCellStyleMap
  3
ObjectDBX Classes
 90
     1152
280
     0
281
     0
  0
ENDSEC
  0
SECTION
  2
TABLES
  0
TABLE
  2
VPORT
  5
9699
330
0
100
AcDbSymbolTable
 70
     1
  0
VPORT
  5
9A3F
330
9699
100
AcDbSymbolTableRecord
100
AcDbViewportTableRecord
  2
*ACTIVE
 70
     0
 10
0.0
 20
0.0
 11
1.0
 21
1.0
 12
300.0560439718728
 22
174.8947914489192
 13
0.0
 23
0.0
 14
10.0
 24
10.0
 15
10.0
 25
10.0
 16
0.0
 26
0.0
 36
1.0
 17
0.0
 27
0.0
 37
0.0
 40
333.5040843322466
 41
1.899603698811096
 42
50.0
 43
0.0
 44
0.0
 50
0.0
 51
0.0
 71
     0
 72
   100
 73
     1
 74
     0
 75
     0
 76
     0
 77
     0
 78
     0
281
     0
 65
     1
110
0.0
120
0.0
130
0.0
111
1.0
121
0.0
131
0.0
112
0.0
122
1.0
132
0.0
 79
     0
146
0.0
1001
ACAD_NAV_VCDISPLAY
1070
     3
  0
ENDTAB
  0
TABLE
  2
LTYPE
  5
9696
330
0
100
AcDbSymbolTable
 70
     4
  0
LTYPE
  5
96A4
330
9696
100
AcDbSymbolTableRecord
100
AcDbLinetypeTableRecord
  2
BYBLOCK
 70
     0
  3

 72
    65
 73
     0
 40
0.0
  0
LTYPE
  5
96A5
330
9696
100
AcDbSymbolTableRecord
100
AcDbLinetypeTableRecord
  2
BYLAYER
 70
     0
  3

 72
    65
 73
     0
 40
0.0
  0
LTYPE
  5
96A6
330
9696
100
AcDbSymbolTableRecord
100
AcDbLinetypeTableRecord
  2
CONTINUOUS
 70
     0
  3
Solid line
 72
    65
 73
     0
 40
0.0
  0
LTYPE
  5
96B4
330
9696
100
AcDbSymbolTableRecord
100
AcDbLinetypeTableRecord
  2
DASHED
 70
     0
  3
__ __ __ __ __ __ __ __ __ __ __ __ __ __ __ __
 72
    65
 73
     2
 40
0.75
 49
0.5
 74
     0
 49
-0.25
 74
     0
  0
LTYPE
  5
96B5
330
9696
100
AcDbSymbolTableRecord
100
AcDbLinetypeTableRecord
  2
CENTER
 70
     0
  3
____ _ ____ _ ____ _ ____ _ ____ _ ____ _ ____ 
 72
    65
 73
     4
 40
2.0
 49
1.25
 74
     0
 49
-0.25
 74
     0
 49
0.25
 74
     0
 49
-0.25
 74
     0
  0
LTYPE
  5
96B6
330
9696
100
AcDbSymbolTableRecord
100
AcDbLinetypeTableRecord
  2
PHANTOM
 70
     0
  3
______  __  __  ______  __  __  ______  __  __ 
 72
    65
 73
     6
 40
2.5
 49
1.25
 74
     0
 49
-0.25
 74
     0
 49
0.25
 74
     0
 49
-0.25
 74
     0
 49
0.25
 74
     0
 49
-0.25
 74
     0
  0
ENDTAB
  0
TABLE
  2
LAYER
  5
9693
330
0
100
AcDbSymbolTable
 70
     8
  0
LAYER
  5
96A1
102
{ACAD_XDICTIONARY
360
9A9A
102
}
330
9693
100
AcDbSymbolTableRecord
100
AcDbLayerTableRecord
  2
0
 70
     0
 62
     7
  6
CONTINUOUS
370
    -3
390
9A48
  0
LAYER
  5
96B7
102
{ACAD_XDICTIONARY
360
9A9C
102
}
330
9693
100
AcDbSymbolTableRecord
100
AcDbLayerTableRecord
  2
4
 70
     0
 62
     1
  6
CENTER
370
    -3
390
9A48
  0
LAYER
  5
96B8
102
{ACAD_XDICTIONARY
360
9A9E
102
}
330
9693
100
AcDbSymbolTableRecord
100
AcDbLayerTableRecord
  2
5
 70
     0
 62
     6
  6
PHANTOM
370
    -3
390
9A48
  0
LAYER
  5
96B9
102
{ACAD_XDICTIONARY
360
9AA0
102
}
330
9693
100
AcDbSymbolTableRecord
100
AcDbLayerTableRecord
  2
1
 70
     0
 62
     7
  6
CONTINUOUS
370
    -3
390
9A48
  0
LAYER
  5
96BA
102
{ACAD_XDICTIONARY
360
9AA2
102
}
330
9693
100
AcDbSymbolTableRecord
100
AcDbLayerTableRecord
  2
2
 70
     0
 62
     4
  6
CONTINUOUS
370
    -3
390
9A48
  0
LAYER
  5
96BB
102
{ACAD_XDICTIONARY
360
9AA4
102
}
330
9693
100
AcDbSymbolTableRecord
100
AcDbLayerTableRecord
  2
3
 70
     0
 62
     2
  6
DASHED
370
    -3
390
9A48
  0
LAYER
  5
96BC
102
{ACAD_XDICTIONARY
360
9AA6
102
}
330
9693
100
AcDbSymbolTableRecord
100
AcDbLayerTableRecord
  2
6
 70
     0
 62
     5
  6
CONTINUOUS
370
    -3
390
9A48
  0
LAYER
  5
96BD
102
{ACAD_XDICTIONARY
360
9AA8
102
}
330
9693
100
AcDbSymbolTableRecord
100
AcDbLayerTableRecord
  2
7
 70
     0
 62
     3
  6
CONTINUOUS
370
    -3
390
9A48
  0
ENDTAB
  0
TABLE
  2
STYLE
  5
9694
330
0
100
AcDbSymbolTable
 70
     1
  0
STYLE
  5
96A2
330
9694
100
AcDbSymbolTableRecord
100
AcDbTextStyleTableRecord
  2
STANDARD
 70
     0
 40
0.0
 41
1.0
 50
0.0
 71
     0
 42
5.0
  3
txt
  4

  0
ENDTAB
  0
TABLE
  2
VIEW
  5
9697
330
0
100
AcDbSymbolTable
 70
     0
  0
ENDTAB
  0
TABLE
  2
UCS
  5
9698
330
0
100
AcDbSymbolTable
 70
     0
  0
ENDTAB
  0
TABLE
  2
APPID
  5
969A
330
0
100
AcDbSymbolTable
 70
     3
  0
APPID
  5
96A3
330
969A
100
AcDbSymbolTableRecord
100
AcDbRegAppTableRecord
  2
ACAD
 70
     0
  0
APPID
  5
9AB4
330
969A
100
AcDbSymbolTableRecord
100
AcDbRegAppTableRecord
  2
ACAD_NAV_VCDISPLAY
 70
     0
  0
APPID
  5
9AED
330
969A
100
AcDbSymbolTableRecord
100
AcDbRegAppTableRecord
  2
ACAD_MLEADERVER
 70
     0
  0
ENDTAB
  0
TABLE
  2
DIMSTYLE
  5
969B
330
0
100
AcDbSymbolTable
 70
     1
100
AcDbDimStyleTable
 71
     0
  0
DIMSTYLE
105
96BE
330
969B
100
AcDbSymbolTableRecord
100
AcDbDimStyleTableRecord
  2
STANDARD
 70
     0
 41
2.5
 42
1.0
 43
10.0
 44
1.0
 73
     0
 74
     0
 77
     3
 78
     8
140
2.5
141
0.0
143
0.0394
147
1.0
172
     1
173
     1
174
     1
175
     1
284
     8
285
     8
286
     8
340
96A2
  0
ENDTAB
  0
TABLE
  2
BLOCK_RECORD
  5
9692
330
0
100
AcDbSymbolTable
 70
     1
  0
BLOCK_RECORD
  5
96AF
102
{ACAD_XDICTIONARY
360
9A42
102
}
330
9692
100
AcDbSymbolTableRecord
100
AcDbBlockTableRecord
  2
*MODEL_SPACE
340
9A96
  0
BLOCK_RECORD
  5
96AB
102
{ACAD_XDICTIONARY
360
9A40
102
}
330
9692
100
AcDbSymbolTableRecord
100
AcDbBlockTableRecord
  2
*PAPER_SPACE
340
9A97
  0
BLOCK_RECORD
  5
96C6
330
9692
100
AcDbSymbolTableRecord
100
AcDbBlockTableRecord
  2
_OPEN
340
0
  0
ENDTAB
  0
ENDSEC
  0
SECTION
  2
BLOCKS
  0
BLOCK
  5
96B0
330
96AF
100
AcDbEntity
  8
0
100
AcDbBlockBegin
  2
*MODEL_SPACE
 70
     0
 10
0.0
 20
0.0
 30
0.0
  3
*MODEL_SPACE
  1

  0
ENDBLK
  5
96B1
330
96AF
100
AcDbEntity
  8
0
100
AcDbBlockEnd
  0
BLOCK
  5
96AC
330
96AB
100
AcDbEntity
 67
     1
  8
0
100
AcDbBlockBegin
  2
*PAPER_SPACE
 70
     0
 10
0.0
 20
0.0
 30
0.0
  3
*PAPER_SPACE
  1

  0
ENDBLK
  5
96AD
330
96AB
100
AcDbEntity
 67
     1
  8
0
100
AcDbBlockEnd
  0
BLOCK
  5
96C7
330
96C6
100
AcDbEntity
  8
0
100
AcDbBlockBegin
  2
_OPEN
 70
     0
 10
0.0
 20
0.0
 30
0.0
  3
_OPEN
  1

  0
LINE
  5
96C8
330
96C6
100
AcDbEntity
  8
0
  6
ByBlock
 62
     0
100
AcDbLine
 10
-1.0
 20
0.1666666666666666
 30
0.0
 11
0.0
 21
0.0
 31
0.0
  0
LINE
  5
96C9
330
96C6
100
AcDbEntity
  8
0
  6
ByBlock
 62
     0
100
AcDbLine
 10
0.0
 20
0.0
 30
0.0
 11
-1.0
 21
-0.1666666666666666
 31
0.0
  0
LINE
  5
96CA
330
96C6
100
AcDbEntity
  8
0
  6
ByBlock
 62
     0
100
AcDbLine
 10
0.0
 20
0.0
 30
0.0
 11
-1.0
 21
0.0
 31
0.0
  0
ENDBLK
  5
96CB
330
96C6
100
AcDbEntity
  8
0
100
AcDbBlockEnd
  0
ENDSEC
  0
SECTION
  2
ENTITIES
  0
TEXT
  5
96CC
330
96AF
100
AcDbEntity
  8
7
  6
Continuous
100
AcDbText
 10
10.0
 20
18.0
 30
0.0
 40
3.0
  1
TYPE No.THA-295-1L
100
AcDbText
  0
TEXT
  5
96CD
330
96AF
100
AcDbEntity
  8
7
  6
Continuous
100
AcDbText
 10
10.0
 20
26.0
 30
0.0
 40
3.0
  1
CODE No.3260
100
AcDbText
  0
TEXT
  5
96CE
330
96AF
100
AcDbEntity
  8
1
  6
Continuous
100
AcDbText
 10
10.0
 20
10.0
 30
0.0
 40
1.399999999999999
  1
LAYER
100
AcDbText
  0
TEXT
  5
96CF
330
96AF
100
AcDbEntity
  8
1
  6
Continuous
100
AcDbText
 10
17.97951099999998
 20
10.04873699999998
 30
0.0
 40
1.399999999999999
  1
1
100
AcDbText
  0
TEXT
  5
96D0
330
96AF
100
AcDbEntity
  8
7
  6
Continuous
100
AcDbText
 10
29.97951099999999
 20
10.04873699999998
 30
0.0
 40
1.399999999999999
  1
7
100
AcDbText
  0
TEXT
  5
96D1
330
96AF
100
AcDbEntity
  8
4
  6
CENTER
100
AcDbText
 10
23.97951099999999
 20
10.04873699999998
 30
0.0
 40
1.399999999999999
  1
4
100
AcDbText
  0
TEXT
  5
96D2
330
96AF
100
AcDbEntity
  8
3
  6
DASHED
100
AcDbText
 10
21.979511
 20
10.04873699999998
 30
0.0
 40
1.399999999999999
  1
3
100
AcDbText
  0
TEXT
  5
96D3
330
96AF
100
AcDbEntity
  8
2
  6
Continuous
100
AcDbText
 10
19.97951099999999
 20
10.04873699999998
 30
0.0
 40
1.399999999999999
  1
2
100
AcDbText
  0
TEXT
  5
96D4
330
96AF
100
AcDbEntity
  8
6
  6
Continuous
100
AcDbText
 10
27.979511
 20
10.04873699999998
 30
0.0
 40
1.399999999999999
  1
6
100
AcDbText
  0
TEXT
  5
96D5
330
96AF
100
AcDbEntity
  8
5
  6
PHANTOM
100
AcDbText
 10
25.97951099999999
 20
10.04873699999998
 30
0.0
 40
1.399999999999999
  1
5
100
AcDbText
  0
LINE
  5
96D6
330
96AF
100
AcDbEntity
  8
1
  6
Continuous
100
AcDbLine
 10
127.6112499999999
 20
238.5864929999999
 30
0.0
 11
127.6112499999999
 21
133.5864929999999
 31
0.0
  0
LINE
  5
96D7
330
96AF
100
AcDbEntity
  8
1
  6
Continuous
100
AcDbLine
 10
130.6142499999999
 20
133.5864929999999
 30
0.0
 11
127.6112499999999
 21
133.5864929999999
 31
0.0
  0
LINE
  5
96D8
330
96AF
100
AcDbEntity
  8
1
  6
Continuous
100
AcDbLine
 10
130.38425
 20
238.5864929999999
 30
0.0
 11
127.6112499999999
 21
238.5864929999999
 31
0.0
  0
LINE
  5
96D9
330
96AF
100
AcDbEntity
  8
1
  6
Continuous
100
AcDbLine
 10
134.1012499999999
 20
236.930493
 30
0.0
 11
166.82525
 21
200.5704929999999
 31
0.0
  0
LINE
  5
96DA
330
96AF
100
AcDbEntity
  8
1
  6
Continuous
100
AcDbLine
 10
168.84725
 20
195.9264929999999
 30
0.0
 11
172.03325
 21
160.0824929999998
 31
0.0
  0
LINE
  5
96DB
330
96AF
100
AcDbEntity
  8
1
  6
Continuous
100
AcDbLine
 10
166.3642499999999
 20
151.7114929999999
 30
0.0
 11
146.86425
 21
145.862493
 31
0.0
  0
LINE
  5
96DC
330
96AF
100
AcDbEntity
  8
1
  6
Continuous
100
AcDbLine
 10
171.81125
 20
162.5864929999998
 30
0.0
 11
157.11125
 21
162.5864929999998
 31
0.0
  0
LINE
  5
96DD
330
96AF
100
AcDbEntity
  8
1
  6
Continuous
100
AcDbLine
 10
169.8382499999999
 20
160.5864929999999
 30
0.0
 11
158.57925
 21
160.5864929999999
 31
0.0
  0
LINE
  5
96DE
330
96AF
100
AcDbEntity
  8
1
  6
Continuous
100
AcDbLine
 10
151.11125
 20
203.5864929999999
 30
0.0
 11
151.11125
 21
168.5864929999999
 31
0.0
  0
LINE
  5
96DF
330
96AF
100
AcDbEntity
  8
1
  6
Continuous
100
AcDbLine
 10
149.11125
 20
201.915493
 30
0.0
 11
149.11125
 21
188.157493
 31
0.0
  0
LINE
  5
96E0
330
96AF
100
AcDbEntity
  8
1
  6
Continuous
100
AcDbLine
 10
161.41125
 20
206.586493
 30
0.0
 11
154.11125
 21
206.586493
 31
0.0
  0
LINE
  5
96E1
330
96AF
100
AcDbEntity
  8
1
  6
Continuous
100
AcDbLine
 10
158.71725
 20
208.586493
 30
0.0
 11
155.9662499999998
 21
208.586493
 31
0.0
  0
LINE
  5
96E2
330
96AF
100
AcDbEntity
  8
1
  6
Continuous
100
AcDbLine
 10
143.61125
 20
173.5864929999999
 30
0.0
 11
143.61125
 21
156.586493
 31
0.0
  0
LINE
  5
96E3
330
96AF
100
AcDbEntity
  8
1
  6
Continuous
100
AcDbLine
 10
145.61125
 20
170.9614929999998
 30
0.0
 11
145.61125
 21
158.4654929999999
 31
0.0
  0
LINE
  5
96E4
330
96AF
100
AcDbEntity
  8
1
  6
Continuous
100
AcDbLine
 10
138.88425
 20
151.586493
 30
0.0
 11
131.54725
 21
151.586493
 31
0.0
  0
LINE
  5
96E5
330
96AF
100
AcDbEntity
  8
1
  6
Continuous
100
AcDbLine
 10
140.61125
 20
153.5864929999999
 30
0.0
 11
127.6112499999999
 21
153.5864929999999
 31
0.0
  0
LINE
  5
96E6
330
96AF
100
AcDbEntity
  8
1
  6
Continuous
100
AcDbLine
 10
140.61125
 20
176.586493
 30
0.0
 11
127.6112499999999
 21
176.586493
 31
0.0
  0
LINE
  5
96E7
330
96AF
100
AcDbEntity
  8
1
  6
Continuous
100
AcDbLine
 10
139.1132499999999
 20
178.5864929999999
 30
0.0
 11
131.77625
 21
178.5864929999999
 31
0.0
  0
LINE
  5
96E8
330
96AF
100
AcDbEntity
  8
4
  6
CENTER
100
AcDbLine
 10
167.61125
 20
168.5864929999999
 30
0.0
 11
157.61125
 21
168.5864929999999
 31
0.0
  0
LINE
  5
96E9
330
96AF
100
AcDbEntity
  8
1
  6
Continuous
100
AcDbLine
 10
155.61125
 20
184.5864929999999
 30
0.0
 11
152.61125
 21
184.5864929999999
 31
0.0
  0
LINE
  5
96EA
330
96AF
100
AcDbEntity
  8
1
  6
Continuous
100
AcDbLine
 10
155.61125
 20
204.586493
 30
0.0
 11
152.61125
 21
204.586493
 31
0.0
  0
LINE
  5
96EB
330
96AF
100
AcDbEntity
  8
1
  6
Continuous
100
AcDbLine
 10
155.61125
 20
204.586493
 30
0.0
 11
155.61125
 21
184.5864929999999
 31
0.0
  0
LINE
  5
96EC
330
96AF
100
AcDbEntity
  8
1
  6
Continuous
100
AcDbLine
 10
152.61125
 20
204.586493
 30
0.0
 11
152.61125
 21
184.5864929999999
 31
0.0
  0
LINE
  5
96ED
330
96AF
100
AcDbEntity
  8
1
  6
Continuous
100
AcDbLine
 10
141.61125
 20
155.586493
 30
0.0
 11
132.61125
 21
155.586493
 31
0.0
  0
LINE
  5
96EE
330
96AF
100
AcDbEntity
  8
1
  6
Continuous
100
AcDbLine
 10
141.61125
 20
174.5864929999999
 30
0.0
 11
132.61125
 21
174.5864929999999
 31
0.0
  0
LINE
  5
96EF
330
96AF
100
AcDbEntity
  8
1
  6
Continuous
100
AcDbLine
 10
132.61125
 20
174.5864929999999
 30
0.0
 11
132.61125
 21
155.586493
 31
0.0
  0
LINE
  5
96F0
330
96AF
100
AcDbEntity
  8
1
  6
Continuous
100
AcDbLine
 10
141.61125
 20
174.5864929999999
 30
0.0
 11
141.61125
 21
155.586493
 31
0.0
  0
LINE
  5
96F1
330
96AF
100
AcDbEntity
  8
1
  6
Continuous
100
AcDbLine
 10
129.9112499999999
 20
178.5864929999999
 30
0.0
 11
127.6112499999999
 21
176.586493
 31
0.0
  0
LINE
  5
96F2
330
96AF
100
AcDbEntity
  8
1
  6
Continuous
100
AcDbLine
 10
127.6112499999999
 20
153.5864929999999
 30
0.0
 11
129.9112499999999
 21
151.586493
 31
0.0
  0
LINE
  5
96F3
330
96AF
100
AcDbEntity
  8
1
  6
Continuous
100
AcDbLine
 10
67.61124999999998
 20
238.5864929999999
 30
0.0
 11
67.61124999999998
 21
133.5864929999999
 31
0.0
  0
LINE
  5
96F4
330
96AF
100
AcDbEntity
  8
1
  6
Continuous
100
AcDbLine
 10
16.11120999999997
 20
207.5864929999999
 30
0.0
 11
16.11120999999997
 21
143.086493
 31
0.0
  0
LINE
  5
96F5
330
96AF
100
AcDbEntity
  8
1
  6
Continuous
100
AcDbLine
 10
67.61124999999998
 20
133.5864929999999
 30
0.0
 11
25.61125
 21
133.5864929999999
 31
0.0
  0
LINE
  5
96F6
330
96AF
100
AcDbEntity
  8
1
  6
Continuous
100
AcDbLine
 10
67.61124999999998
 20
238.5864929999999
 30
0.0
 11
56.49925
 21
238.5864929999999
 31
0.0
  0
LINE
  5
96F7
330
96AF
100
AcDbEntity
  8
1
  6
Continuous
100
AcDbLine
 10
49.74434999999999
 20
235.959493
 30
0.0
 11
32.00504999999999
 21
219.709493
 31
0.0
  0
LINE
  5
96F8
330
96AF
100
AcDbEntity
  8
4
  6
CENTER
100
AcDbLine
 10
25.61125
 20
212.586493
 30
0.0
 11
25.61125
 21
202.586493
 31
0.0
  0
LINE
  5
96F9
330
96AF
100
AcDbEntity
  8
4
  6
CENTER
100
AcDbLine
 10
30.61125
 20
207.5864929999999
 30
0.0
 11
20.61120999999999
 21
207.5864929999999
 31
0.0
  0
LINE
  5
96FA
330
96AF
100
AcDbEntity
  8
4
  6
CENTER
100
AcDbLine
 10
25.61125
 20
147.586493
 30
0.0
 11
25.61125
 21
137.5864929999997
 31
0.0
  0
LINE
  5
96FB
330
96AF
100
AcDbEntity
  8
4
  6
CENTER
100
AcDbLine
 10
30.61125
 20
142.5864929999999
 30
0.0
 11
20.61120999999999
 21
142.5864929999999
 31
0.0
  0
LINE
  5
96FC
330
96AF
100
AcDbEntity
  8
4
  6
CENTER
100
AcDbLine
 10
55.61125
 20
147.586493
 30
0.0
 11
55.61125
 21
137.5864929999997
 31
0.0
  0
LINE
  5
96FD
330
96AF
100
AcDbEntity
  8
4
  6
CENTER
100
AcDbLine
 10
60.61125
 20
142.5864929999999
 30
0.0
 11
50.61125
 21
142.5864929999999
 31
0.0
  0
LINE
  5
96FE
330
96AF
100
AcDbEntity
  8
1
  6
Continuous
100
AcDbLine
 10
65.61125
 20
176.586493
 30
0.0
 11
65.61125
 21
153.5864929999999
 31
0.0
  0
LINE
  5
96FF
330
96AF
100
AcDbEntity
  8
1
  6
Continuous
100
AcDbLine
 10
67.61115
 20
178.5864929999999
 30
0.0
 11
65.61115
 21
176.586493
 31
0.0
  0
LINE
  5
9700
330
96AF
100
AcDbEntity
  8
1
  6
Continuous
100
AcDbLine
 10
65.61115
 20
153.5864929999999
 30
0.0
 11
67.61115
 21
151.586493
 31
0.0
  0
LINE
  5
9701
330
96AF
100
AcDbEntity
  8
4
  6
CENTER
100
AcDbLine
 10
55.61125
 20
234.5864929999999
 30
0.0
 11
55.61125
 21
224.5864929999999
 31
0.0
  0
LINE
  5
9702
330
96AF
100
AcDbEntity
  8
4
  6
CENTER
100
AcDbLine
 10
60.61125
 20
229.586493
 30
0.0
 11
50.61125
 21
229.586493
 31
0.0
  0
LINE
  5
9703
330
96AF
100
AcDbEntity
  8
1
  6
Continuous
100
AcDbLine
 10
34.91115
 20
152.586493
 30
0.0
 11
34.91115
 21
152.386493
 31
0.0
  0
LINE
  5
9704
330
96AF
100
AcDbEntity
  8
1
  6
Continuous
100
AcDbLine
 10
149.11125
 20
181.9674929999999
 30
0.0
 11
149.11125
 21
170.0574929999999
 31
0.0
  0
LINE
  5
9705
330
96AF
100
AcDbEntity
  8
4
  6
CENTER
100
AcDbLine
 10
132.61125
 20
142.5864929999999
 30
0.0
 11
122.6112499999999
 21
142.5864929999999
 31
0.0
  0
LINE
  5
9706
330
96AF
100
AcDbEntity
  8
4
  6
CENTER
100
AcDbLine
 10
161.48025
 20
192.5864929999999
 30
0.0
 11
100.91475
 21
192.5864929999999
 31
0.0
  0
LINE
  5
9707
330
96AF
100
AcDbEntity
  8
4
  6
CENTER
100
AcDbLine
 10
72.61124999999998
 20
168.5864929999999
 30
0.0
 11
62.61124999999999
 21
168.5864929999999
 31
0.0
  0
LINE
  5
9708
330
96AF
100
AcDbEntity
  8
1
  6
Continuous
100
AcDbLine
 10
134.58525
 20
208.660493
 30
0.0
 11
135.21525
 21
208.660493
 31
0.0
  0
LINE
  5
9709
330
96AF
100
AcDbEntity
  8
1
  6
Continuous
100
AcDbLine
 10
135.00225
 20
209.650493
 30
0.0
 11
136.2192499999999
 21
209.650493
 31
0.0
  0
LINE
  5
970A
330
96AF
100
AcDbEntity
  8
1
  6
Continuous
100
AcDbLine
 10
136.42525
 20
209.320493
 30
0.0
 11
134.79725
 21
209.320493
 31
0.0
  0
LINE
  5
970B
330
96AF
100
AcDbEntity
  8
1
  6
Continuous
100
AcDbLine
 10
136.46725
 20
208.9904929999999
 30
0.0
 11
134.75425
 21
208.9904929999999
 31
0.0
  0
LINE
  5
970C
330
96AF
100
AcDbEntity
  8
1
  6
Continuous
100
AcDbLine
 10
136.51625
 20
209.980493
 30
0.0
 11
135.09325
 21
209.980493
 31
0.0
  0
LINE
  5
970D
330
96AF
100
AcDbEntity
  8
1
  6
Continuous
100
AcDbLine
 10
136.00725
 20
208.660493
 30
0.0
 11
136.6362499999999
 21
208.660493
 31
0.0
  0
LINE
  5
970E
330
96AF
100
AcDbEntity
  8
1
  6
Continuous
100
AcDbLine
 10
134.67925
 20
207.0114929999999
 30
0.0
 11
135.61125
 21
207.0114929999999
 31
0.0
  0
LINE
  5
970F
330
96AF
100
AcDbEntity
  8
1
  6
Continuous
100
AcDbLine
 10
135.61125
 20
206.187493
 30
0.0
 11
134.81925
 21
206.187493
 31
0.0
  0
LINE
  5
9710
330
96AF
100
AcDbEntity
  8
1
  6
Continuous
100
AcDbLine
 10
135.61125
 20
208.0014929999999
 30
0.0
 11
135.61125
 21
208.3314929999999
 31
0.0
  0
LINE
  5
9711
330
96AF
100
AcDbEntity
  8
1
  6
Continuous
100
AcDbLine
 10
135.61125
 20
207.0114929999999
 30
0.0
 11
135.61125
 21
207.176493
 31
0.0
  0
LINE
  5
9712
330
96AF
100
AcDbEntity
  8
1
  6
Continuous
100
AcDbLine
 10
135.61125
 20
205.007493
 30
0.0
 11
135.61125
 21
205.6884929999999
 31
0.0
  0
LINE
  5
9713
330
96AF
100
AcDbEntity
  8
1
  6
Continuous
100
AcDbLine
 10
134.99425
 20
205.854493
 30
0.0
 11
136.38425
 21
205.481493
 31
0.0
  0
LINE
  5
9714
330
96AF
100
AcDbEntity
  8
1
  6
Continuous
100
AcDbLine
 10
136.73425
 20
208.3314929999999
 30
0.0
 11
134.4872499999999
 21
208.3314929999999
 31
0.0
  0
LINE
  5
9715
330
96AF
100
AcDbEntity
  8
1
  6
Continuous
100
AcDbLine
 10
136.7612499999999
 20
208.0014929999999
 30
0.0
 11
134.46025
 21
208.0014929999999
 31
0.0
  0
LINE
  5
9716
330
96AF
100
AcDbEntity
  8
1
  6
Continuous
100
AcDbLine
 10
136.7612499999999
 20
207.671493
 30
0.0
 11
134.46025
 21
207.671493
 31
0.0
  0
LINE
  5
9717
330
96AF
100
AcDbEntity
  8
1
  6
Continuous
100
AcDbLine
 10
136.6962499999999
 20
207.3414929999999
 30
0.0
 11
134.5252499999997
 21
207.3414929999999
 31
0.0
  0
LINE
  5
9718
330
96AF
100
AcDbEntity
  8
1
  6
Continuous
100
AcDbLine
 10
136.6952499999999
 20
206.681493
 30
0.0
 11
134.6302499999999
 21
206.681493
 31
0.0
  0
LINE
  5
9719
330
96AF
100
AcDbEntity
  8
1
  6
Continuous
100
AcDbLine
 10
136.00725
 20
207.0114929999999
 30
0.0
 11
136.5422499999999
 21
207.0114929999999
 31
0.0
  0
LINE
  5
971A
330
96AF
100
AcDbEntity
  8
1
  6
Continuous
100
AcDbLine
 10
136.5402499999997
 20
206.351493
 30
0.0
 11
135.7762499999997
 21
206.351493
 31
0.0
  0
LINE
  5
971B
330
96AF
100
AcDbEntity
  8
1
  6
Continuous
100
AcDbLine
 10
135.7762499999997
 20
206.0224929999999
 30
0.0
 11
136.48025
 21
206.0224929999999
 31
0.0
  0
LINE
  5
971C
330
96AF
100
AcDbEntity
  8
1
  6
Continuous
100
AcDbLine
 10
223.61125
 20
133.5864929999999
 30
0.0
 11
223.61125
 21
238.5864929999999
 31
0.0
  0
LINE
  5
971D
330
96AF
100
AcDbEntity
  8
1
  6
Continuous
100
AcDbLine
 10
275.11125
 20
207.5864929999999
 30
0.0
 11
275.11125
 21
143.086493
 31
0.0
  0
LINE
  5
971E
330
96AF
100
AcDbEntity
  8
1
  6
Continuous
100
AcDbLine
 10
223.61125
 20
133.5864929999999
 30
0.0
 11
227.91125
 21
133.5864929999999
 31
0.0
  0
LINE
  5
971F
330
96AF
100
AcDbEntity
  8
1
  6
Continuous
100
AcDbLine
 10
223.61125
 20
238.5864929999999
 30
0.0
 11
234.72325
 21
238.5864929999999
 31
0.0
  0
LINE
  5
9720
330
96AF
100
AcDbEntity
  8
1
  6
Continuous
100
AcDbLine
 10
241.47825
 20
235.959493
 30
0.0
 11
255.09625
 21
223.4844929999999
 31
0.0
  0
LINE
  5
9721
330
96AF
100
AcDbEntity
  8
4
  6
CENTER
100
AcDbLine
 10
251.11125
 20
212.586493
 30
0.0
 11
251.11125
 21
172.586493
 31
0.0
  0
LINE
  5
9722
330
96AF
100
AcDbEntity
  8
4
  6
CENTER
100
AcDbLine
 10
231.11125
 20
192.5864929999999
 30
0.0
 11
271.11125
 21
192.5864929999999
 31
0.0
  0
LINE
  5
9723
330
96AF
100
AcDbEntity
  8
4
  6
CENTER
100
AcDbLine
 10
265.6112499999999
 20
147.586493
 30
0.0
 11
265.6112499999999
 21
137.5864929999997
 31
0.0
  0
LINE
  5
9724
330
96AF
100
AcDbEntity
  8
4
  6
CENTER
100
AcDbLine
 10
260.61125
 20
142.5864929999999
 30
0.0
 11
270.6112499999999
 21
142.5864929999999
 31
0.0
  0
LINE
  5
9725
330
96AF
100
AcDbEntity
  8
4
  6
CENTER
100
AcDbLine
 10
235.61125
 20
147.586493
 30
0.0
 11
235.61125
 21
137.5864929999997
 31
0.0
  0
LINE
  5
9726
330
96AF
100
AcDbEntity
  8
4
  6
CENTER
100
AcDbLine
 10
230.61125
 20
142.5864929999999
 30
0.0
 11
240.61125
 21
142.5864929999999
 31
0.0
  0
LINE
  5
9727
330
96AF
100
AcDbEntity
  8
4
  6
CENTER
100
AcDbLine
 10
235.61125
 20
234.5864929999999
 30
0.0
 11
235.61125
 21
224.5864929999999
 31
0.0
  0
LINE
  5
9728
330
96AF
100
AcDbEntity
  8
4
  6
CENTER
100
AcDbLine
 10
230.61125
 20
229.586493
 30
0.0
 11
240.61125
 21
229.586493
 31
0.0
  0
LINE
  5
9729
330
96AF
100
AcDbEntity
  8
1
  6
Continuous
100
AcDbLine
 10
271.3112499999999
 20
159.386493
 30
0.0
 11
271.3112499999999
 21
152.386493
 31
0.0
  0
LINE
  5
972A
330
96AF
100
AcDbEntity
  8
1
  6
Continuous
100
AcDbLine
 10
256.3112499999999
 20
155.386493
 30
0.0
 11
256.3112499999999
 21
152.386493
 31
0.0
  0
LINE
  5
972B
330
96AF
100
AcDbEntity
  8
1
  6
Continuous
100
AcDbLine
 10
256.3112499999999
 20
152.386493
 30
0.0
 11
271.3112499999999
 21
152.386493
 31
0.0
  0
LINE
  5
972C
330
96AF
100
AcDbEntity
  8
1
  6
Continuous
100
AcDbLine
 10
256.3112499999999
 20
155.386493
 30
0.0
 11
268.3112499999999
 21
155.386493
 31
0.0
  0
LINE
  5
972D
330
96AF
100
AcDbEntity
  8
1
  6
Continuous
100
AcDbLine
 10
268.3112499999999
 20
159.386493
 30
0.0
 11
268.3112499999999
 21
155.386493
 31
0.0
  0
LINE
  5
972E
330
96AF
100
AcDbEntity
  8
1
  6
Continuous
100
AcDbLine
 10
268.3112499999999
 20
159.386493
 30
0.0
 11
271.3112499999999
 21
159.386493
 31
0.0
  0
LINE
  5
972F
330
96AF
100
AcDbEntity
  8
1
  6
Continuous
100
AcDbLine
 10
232.9112499999999
 20
159.386493
 30
0.0
 11
232.9112499999999
 21
152.386493
 31
0.0
  0
LINE
  5
9730
330
96AF
100
AcDbEntity
  8
1
  6
Continuous
100
AcDbLine
 10
235.91125
 20
159.386493
 30
0.0
 11
235.91125
 21
152.386493
 31
0.0
  0
LINE
  5
9731
330
96AF
100
AcDbEntity
  8
1
  6
Continuous
100
AcDbLine
 10
232.9112499999999
 20
159.386493
 30
0.0
 11
235.91125
 21
159.386493
 31
0.0
  0
LINE
  5
9732
330
96AF
100
AcDbEntity
  8
1
  6
Continuous
100
AcDbLine
 10
232.9112499999999
 20
152.386493
 30
0.0
 11
235.91125
 21
152.386493
 31
0.0
  0
LINE
  5
9733
330
96AF
100
AcDbEntity
  8
1
  6
Continuous
100
AcDbLine
 10
268.3112499999999
 20
180.3864929999997
 30
0.0
 11
271.3112499999999
 21
180.3864929999997
 31
0.0
  0
LINE
  5
9734
330
96AF
100
AcDbEntity
  8
1
  6
Continuous
100
AcDbLine
 10
268.3112499999999
 20
191.386493
 30
0.0
 11
271.3112499999999
 21
191.386493
 31
0.0
  0
LINE
  5
9735
330
96AF
100
AcDbEntity
  8
1
  6
Continuous
100
AcDbLine
 10
271.3112499999999
 20
191.386493
 30
0.0
 11
271.3112499999999
 21
180.3864929999997
 31
0.0
  0
LINE
  5
9736
330
96AF
100
AcDbEntity
  8
1
  6
Continuous
100
AcDbLine
 10
268.3112499999999
 20
180.3864929999997
 30
0.0
 11
268.3112499999999
 21
191.386493
 31
0.0
  0
LINE
  5
9737
330
96AF
100
AcDbEntity
  8
1
  6
Continuous
100
AcDbLine
 10
244.37225
 20
206.086493
 30
0.0
 11
251.36525
 21
209.582493
 31
0.0
  0
LINE
  5
9738
330
96AF
100
AcDbEntity
  8
1
  6
Continuous
100
AcDbLine
 10
242.8682499999999
 20
208.688493
 30
0.0
 11
250.02325
 21
212.2654929999999
 31
0.0
  0
LINE
  5
9739
330
96AF
100
AcDbEntity
  8
1
  6
Continuous
100
AcDbLine
 10
242.8682499999999
 20
208.688493
 30
0.0
 11
244.16825
 21
206.086493
 31
0.0
  0
LINE
  5
973A
330
96AF
100
AcDbEntity
  8
1
  6
Continuous
100
AcDbLine
 10
250.02325
 20
212.2654929999999
 30
0.0
 11
251.36525
 21
209.582493
 31
0.0
  0
LINE
  5
973B
330
96AF
100
AcDbEntity
  8
4
  6
CENTER
100
AcDbLine
 10
218.61125
 20
168.5864929999999
 30
0.0
 11
235.92925
 21
168.5864929999999
 31
0.0
  0
LINE
  5
973C
330
96AF
100
AcDbEntity
  8
1
  6
Continuous
100
AcDbLine
 10
364.61125
 20
238.5864929999999
 30
0.0
 11
364.61125
 21
133.5864929999999
 31
0.0
  0
LINE
  5
973D
330
96AF
100
AcDbEntity
  8
1
  6
Continuous
100
AcDbLine
 10
361.60825
 20
133.5864929999999
 30
0.0
 11
364.61125
 21
133.5864929999999
 31
0.0
  0
LINE
  5
973E
330
96AF
100
AcDbEntity
  8
1
  6
Continuous
100
AcDbLine
 10
361.83825
 20
238.5864929999999
 30
0.0
 11
364.61125
 21
238.5864929999999
 31
0.0
  0
LINE
  5
973F
330
96AF
100
AcDbEntity
  8
1
  6
Continuous
100
AcDbLine
 10
358.1212499999999
 20
236.930493
 30
0.0
 11
349.94225
 21
227.843493
 31
0.0
  0
LINE
  5
9740
330
96AF
100
AcDbEntity
  8
1
  6
Continuous
100
AcDbLine
 10
323.37525
 20
195.9264929999999
 30
0.0
 11
320.1882499999999
 21
160.0824929999998
 31
0.0
  0
LINE
  5
9741
330
96AF
100
AcDbEntity
  8
1
  6
Continuous
100
AcDbLine
 10
325.85825
 20
151.7114929999999
 30
0.0
 11
328.7532499999999
 21
150.8434929999999
 31
0.0
  0
LINE
  5
9742
330
96AF
100
AcDbEntity
  8
1
  6
Continuous
100
AcDbLine
 10
341.1112499999999
 20
181.427493
 30
0.0
 11
341.1112499999999
 21
180.1284929999999
 31
0.0
  0
LINE
  5
9743
330
96AF
100
AcDbEntity
  8
1
  6
Continuous
100
AcDbLine
 10
336.6112499999999
 20
184.5864929999999
 30
0.0
 11
339.61125
 21
184.5864929999999
 31
0.0
  0
LINE
  5
9744
330
96AF
100
AcDbEntity
  8
1
  6
Continuous
100
AcDbLine
 10
336.6112499999999
 20
187.2944929999999
 30
0.0
 11
336.6112499999999
 21
184.5864929999999
 31
0.0
  0
LINE
  5
9745
330
96AF
100
AcDbEntity
  8
1
  6
Continuous
100
AcDbLine
 10
339.61125
 20
187.284493
 30
0.0
 11
339.61125
 21
184.5864929999999
 31
0.0
  0
LINE
  5
9746
330
96AF
100
AcDbEntity
  8
1
  6
Continuous
100
AcDbLine
 10
362.3112499999999
 20
238.5864929999999
 30
0.0
 11
362.3112499999999
 21
133.5864929999999
 31
0.0
  0
LINE
  5
9747
330
96AF
100
AcDbEntity
  8
4
  6
CENTER
100
AcDbLine
 10
357.99725
 20
142.5864929999999
 30
0.0
 11
369.6112499999999
 21
142.5864929999999
 31
0.0
  0
LINE
  5
9748
330
96AF
100
AcDbEntity
  8
4
  6
CENTER
100
AcDbLine
 10
336.41025
 20
169.086493
 30
0.0
 11
369.6112499999999
 21
169.086493
 31
0.0
  0
LINE
  5
9749
330
96AF
100
AcDbEntity
  8
4
  6
CENTER
100
AcDbLine
 10
340.37425
 20
192.5864929999999
 30
0.0
 11
390.29825
 21
192.5864929999999
 31
0.0
  0
LINE
  5
974A
330
96AF
100
AcDbEntity
  8
4
  6
CENTER
100
AcDbLine
 10
348.61325
 20
207.5864929999999
 30
0.0
 11
369.6112499999999
 21
207.5864929999999
 31
0.0
  0
LINE
  5
974B
330
96AF
100
AcDbEntity
  8
4
  6
CENTER
100
AcDbLine
 10
358.40325
 20
229.586493
 30
0.0
 11
369.6112499999999
 21
229.586493
 31
0.0
  0
LINE
  5
974C
330
96AF
100
AcDbEntity
  8
1
  6
Continuous
100
AcDbLine
 10
264.7112499999999
 20
174.004493
 30
0.0
 11
264.7112499999999
 21
164.167493
 31
0.0
  0
LINE
  5
974D
330
96AF
100
AcDbEntity
  8
1
  6
Continuous
100
AcDbLine
 10
266.51125
 20
174.004493
 30
0.0
 11
266.51125
 21
164.167493
 31
0.0
  0
LINE
  5
974E
330
96AF
100
AcDbEntity
  8
1
  6
Continuous
100
AcDbLine
 10
225.6112499999999
 20
206.586493
 30
0.0
 11
225.6112499999999
 21
162.5864929999998
 31
0.0
  0
LINE
  5
974F
330
96AF
100
AcDbEntity
  8
1
  6
Continuous
100
AcDbLine
 10
227.91125
 20
206.5858018065418
 30
0.0
 11
227.91125
 21
127.9714929999999
 31
0.0
  0
LINE
  5
9750
330
96AF
100
AcDbEntity
  8
1
  6
Continuous
100
AcDbLine
 10
225.6112499999999
 20
206.586493
 30
0.0
 11
224.2849044032709
 21
207.9128385967289
 31
0.0
  0
LINE
  5
9751
330
96AF
100
AcDbEntity
  8
1
  6
Continuous
100
AcDbLine
 10
227.2375955967288
 20
208.2121474032708
 30
0.0
 11
225.91125
 21
209.5384929999999
 31
0.0
  0
LINE
  5
9752
330
96AF
100
AcDbEntity
  8
1
  6
Continuous
100
AcDbLine
 10
225.91125
 20
238.5864929999999
 30
0.0
 11
225.91125
 21
209.5384929999999
 31
0.0
  0
LINE
  5
9753
330
96AF
100
AcDbEntity
  8
1
  6
Continuous
100
AcDbLine
 10
225.6112499999999
 20
162.5864929999998
 30
0.0
 11
224.2849044032709
 21
161.2601474032708
 31
0.0
  0
LINE
  5
9754
330
96AF
100
AcDbEntity
  8
1
  6
Continuous
100
AcDbLine
 10
227.2375955967288
 20
160.959838596729
 30
0.0
 11
225.91125
 21
159.6334929999999
 31
0.0
  0
LINE
  5
9755
330
96AF
100
AcDbEntity
  8
1
  6
Continuous
100
AcDbLine
 10
359.6112499999999
 20
203.0864929999999
 30
0.0
 11
359.6112499999999
 21
163.7684929999998
 31
0.0
  0
LINE
  5
9756
330
96AF
100
AcDbEntity
  8
1
  6
Continuous
100
AcDbLine
 10
340.41125
 20
174.0864929999999
 30
0.0
 11
340.41125
 21
164.086493
 31
0.0
  0
LINE
  5
9757
330
96AF
100
AcDbEntity
  8
1
  6
Continuous
100
AcDbLine
 10
340.41125
 20
174.0864929999999
 30
0.0
 11
341.91125
 21
174.0864929999999
 31
0.0
  0
LINE
  5
9758
330
96AF
100
AcDbEntity
  8
1
  6
Continuous
100
AcDbLine
 10
340.41125
 20
164.086493
 30
0.0
 11
341.91125
 21
164.086493
 31
0.0
  0
LINE
  5
9759
330
96AF
100
AcDbEntity
  8
1
  6
Continuous
100
AcDbLine
 10
358.3112499999999
 20
173.0864929999999
 30
0.0
 11
359.6112499999999
 21
173.0864929999999
 31
0.0
  0
LINE
  5
975A
330
96AF
100
AcDbEntity
  8
1
  6
Continuous
100
AcDbLine
 10
358.3112499999999
 20
165.086493
 30
0.0
 11
359.6112499999999
 21
165.086493
 31
0.0
  0
LINE
  5
975B
330
96AF
100
AcDbEntity
  8
1
  6
Continuous
100
AcDbLine
 10
256.0392499999999
 20
155.0144929999999
 30
0.0
 11
258.89625
 21
166.2234929999999
 31
0.0
  0
LINE
  5
975C
330
96AF
100
AcDbEntity
  8
1
  6
Continuous
100
AcDbLine
 10
254.58625
 20
155.3844929999999
 30
0.0
 11
258.5372499999999
 21
170.8894929999999
 31
0.0
  0
LINE
  5
975D
330
96AF
100
AcDbEntity
  8
1
  6
Continuous
100
AcDbLine
 10
266.3612499999999
 20
174.0864929999999
 30
0.0
 11
266.3612499999999
 21
164.6164929999999
 31
0.0
  0
LINE
  5
975E
330
96AF
100
AcDbEntity
  8
1
  6
Continuous
100
AcDbLine
 10
264.86125
 20
174.0864929999999
 30
0.0
 11
264.86125
 21
164.167493
 31
0.0
  0
LINE
  5
975F
330
96AF
100
AcDbEntity
  8
1
  6
Continuous
100
AcDbLine
 10
266.3612499999999
 20
174.0864929999999
 30
0.0
 11
264.86125
 21
174.0864929999999
 31
0.0
  0
LINE
  5
9760
330
96AF
100
AcDbEntity
  8
1
  6
Continuous
100
AcDbLine
 10
341.91125
 20
175.636493
 30
0.0
 11
341.91125
 21
162.536493
 31
0.0
  0
LINE
  5
9761
330
96AF
100
AcDbEntity
  8
1
  6
Continuous
100
AcDbLine
 10
343.4112499999999
 20
175.636493
 30
0.0
 11
343.4112499999999
 21
162.536493
 31
0.0
  0
LINE
  5
9762
330
96AF
100
AcDbEntity
  8
1
  6
Continuous
100
AcDbLine
 10
344.89425
 20
175.636493
 30
0.0
 11
344.89425
 21
162.536493
 31
0.0
  0
LINE
  5
9763
330
96AF
100
AcDbEntity
  8
1
  6
Continuous
100
AcDbLine
 10
346.3782499999999
 20
175.636493
 30
0.0
 11
346.3782499999999
 21
162.536493
 31
0.0
  0
LINE
  5
9764
330
96AF
100
AcDbEntity
  8
1
  6
Continuous
100
AcDbLine
 10
347.86125
 20
175.636493
 30
0.0
 11
347.86125
 21
162.536493
 31
0.0
  0
LINE
  5
9765
330
96AF
100
AcDbEntity
  8
1
  6
Continuous
100
AcDbLine
 10
349.34425
 20
175.636493
 30
0.0
 11
349.34425
 21
162.536493
 31
0.0
  0
LINE
  5
9766
330
96AF
100
AcDbEntity
  8
1
  6
Continuous
100
AcDbLine
 10
350.82825
 20
174.0864929999999
 30
0.0
 11
351.6112499999999
 21
174.0864929999999
 31
0.0
  0
LINE
  5
9767
330
96AF
100
AcDbEntity
  8
1
  6
Continuous
100
AcDbLine
 10
350.82825
 20
164.086493
 30
0.0
 11
351.6112499999999
 21
164.086493
 31
0.0
  0
LINE
  5
9768
330
96AF
100
AcDbEntity
  8
1
  6
Continuous
100
AcDbLine
 10
337.35225
 20
131.5314929999999
 30
0.0
 11
322.3032499999998
 21
165.332493
 31
0.0
  0
LINE
  5
9769
330
96AF
100
AcDbEntity
  8
1
  6
Continuous
100
AcDbLine
 10
351.89825
 20
183.160493
 30
0.0
 11
348.0752499999999
 21
182.0864929999999
 31
0.0
  0
LINE
  5
976A
330
96AF
100
AcDbEntity
  8
1
  6
Continuous
100
AcDbLine
 10
341.7002499999999
 20
158.4294929999998
 30
0.0
 11
348.57625
 21
135.7094929999999
 31
0.0
  0
LINE
  5
976B
330
96AF
100
AcDbEntity
  8
1
  6
Continuous
100
AcDbLine
 10
342.57225
 20
161.7914929999997
 30
0.0
 11
341.7572499999999
 21
159.7514929999999
 31
0.0
  0
LINE
  5
976C
330
96AF
100
AcDbEntity
  8
1
  6
Continuous
100
AcDbLine
 10
229.91125
 20
183.2354929999999
 30
0.0
 11
229.91125
 21
127.9714929999999
 31
0.0
  0
LINE
  5
976D
330
96AF
100
AcDbEntity
  8
1
  6
Continuous
100
AcDbLine
 10
227.91125
 20
127.9714929999999
 30
0.0
 11
229.91125
 21
127.9714929999999
 31
0.0
  0
LINE
  5
976E
330
96AF
100
AcDbEntity
  8
1
  6
Continuous
100
AcDbLine
 10
229.91125
 20
133.5864929999999
 30
0.0
 11
265.6112499999999
 21
133.5864929999999
 31
0.0
  0
LINE
  5
976F
330
96AF
100
AcDbEntity
  8
1
  6
Continuous
100
AcDbLine
 10
231.91125
 20
175.5864929999999
 30
0.0
 11
231.91125
 21
161.5864929999998
 31
0.0
  0
LINE
  5
9770
330
96AF
100
AcDbEntity
  8
1
  6
Continuous
100
AcDbLine
 10
229.91125
 20
161.0864929999999
 30
0.0
 11
231.4112499999999
 21
161.0864929999999
 31
0.0
  0
LINE
  5
9771
330
96AF
100
AcDbEntity
  8
1
  6
Continuous
100
AcDbLine
 10
229.91125
 20
176.0864929999999
 30
0.0
 11
231.4112499999999
 21
176.0864929999999
 31
0.0
  0
LINE
  5
9772
330
96AF
100
AcDbEntity
  8
1
  6
Continuous
100
AcDbLine
 10
231.4112499999999
 20
161.0864929999999
 30
0.0
 11
231.91125
 21
161.5864929999998
 31
0.0
  0
LINE
  5
9773
330
96AF
100
AcDbEntity
  8
1
  6
Continuous
100
AcDbLine
 10
231.4112499999999
 20
176.0864929999999
 30
0.0
 11
231.91125
 21
175.5864929999999
 31
0.0
  0
LINE
  5
9774
330
96AF
100
AcDbEntity
  8
1
  6
Continuous
100
AcDbLine
 10
231.4112499999999
 20
176.0864929999999
 30
0.0
 11
231.4112499999999
 21
161.0864929999999
 31
0.0
  0
LINE
  5
9775
330
96AF
100
AcDbEntity
  8
1
  6
Continuous
100
AcDbLine
 10
227.91125
 20
183.2354929999999
 30
0.0
 11
229.91125
 21
183.2354929999999
 31
0.0
  0
LINE
  5
9776
330
96AF
100
AcDbEntity
  8
1
  6
Continuous
100
AcDbLine
 10
243.37525
 20
179.3614929999999
 30
0.0
 11
235.6892499999999
 21
178.7774929999999
 31
0.0
  0
LINE
  5
9777
330
96AF
100
AcDbEntity
  8
1
  6
Continuous
100
AcDbLine
 10
254.7122499999999
 20
155.881493
 30
0.0
 11
246.77825
 21
154.857493
 31
0.0
  0
LINE
  5
9778
330
96AF
100
AcDbEntity
  8
1
  6
Continuous
100
AcDbLine
 10
266.6352499999999
 20
161.151493
 30
0.0
 11
257.29625
 21
159.946493
 31
0.0
  0
LINE
  5
9779
330
96AF
100
AcDbEntity
  8
1
  6
Continuous
100
AcDbLine
 10
254.1362499999999
 20
160.344493
 30
0.0
 11
254.7122499999999
 21
155.881493
 31
0.0
  0
LINE
  5
977A
330
96AF
100
AcDbEntity
  8
1
  6
Continuous
100
AcDbLine
 10
246.2022499999999
 20
159.3204929999999
 30
0.0
 11
246.77825
 21
154.857493
 31
0.0
  0
LINE
  5
977B
330
96AF
100
AcDbEntity
  8
1
  6
Continuous
100
AcDbLine
 10
254.1362499999999
 20
160.344493
 30
0.0
 11
246.2022499999999
 21
159.3204929999999
 31
0.0
  0
LINE
  5
977C
330
96AF
100
AcDbEntity
  8
1
  6
Continuous
100
AcDbLine
 10
231.91125
 20
166.110493
 30
0.0
 11
237.41525
 21
161.006493
 31
0.0
  0
LINE
  5
977D
330
96AF
100
AcDbEntity
  8
1
  6
Continuous
100
AcDbLine
 10
234.10025
 20
177.768493
 30
0.0
 11
232.7612499999999
 21
175.4034929999999
 31
0.0
  0
LINE
  5
977E
330
96AF
100
AcDbEntity
  8
1
  6
Continuous
100
AcDbLine
 10
246.3042499999999
 20
158.5264929999999
 30
0.0
 11
245.49525
 21
158.4224929999997
 31
0.0
  0
LINE
  5
977F
330
96AF
100
AcDbEntity
  8
1
  6
Continuous
100
AcDbLine
 10
360.1112499999999
 20
212.650493
 30
0.0
 11
360.1112499999999
 21
175.7594929999999
 31
0.0
  0
LINE
  5
9780
330
96AF
100
AcDbEntity
  8
4
  6
CENTER
100
AcDbLine
 10
359.6112499999999
 20
177.586493
 30
0.0
 11
369.6112499999999
 21
177.586493
 31
0.0
  0
LINE
  5
9781
330
96AF
100
AcDbEntity
  8
1
  6
Continuous
100
AcDbLine
 10
383.31125
 20
212.586493
 30
0.0
 11
364.61125
 21
212.586493
 31
0.0
  0
LINE
  5
9782
330
96AF
100
AcDbEntity
  8
1
  6
Continuous
100
AcDbLine
 10
385.61125
 20
210.2864929999999
 30
0.0
 11
385.61125
 21
154.886493
 31
0.0
  0
LINE
  5
9783
330
96AF
100
AcDbEntity
  8
1
  6
Continuous
100
AcDbLine
 10
383.31125
 20
152.586493
 30
0.0
 11
364.61125
 21
152.586493
 31
0.0
  0
LINE
  5
9784
330
96AF
100
AcDbEntity
  8
1
  6
Continuous
100
AcDbLine
 10
359.6112499999999
 20
214.629493
 30
0.0
 11
359.6112499999999
 21
212.0864929999999
 31
0.0
  0
LINE
  5
9785
330
96AF
100
AcDbEntity
  8
1
  6
Continuous
100
AcDbLine
 10
359.6112499999999
 20
198.8364929999999
 30
0.0
 11
360.1112499999999
 21
198.8364929999999
 31
0.0
  0
LINE
  5
9786
330
96AF
100
AcDbEntity
  8
1
  6
Continuous
100
AcDbLine
 10
359.6112499999999
 20
186.3364929999999
 30
0.0
 11
360.1112499999999
 21
186.3364929999999
 31
0.0
  0
LINE
  5
9787
330
96AF
100
AcDbEntity
  8
1
  6
Continuous
100
AcDbLine
 10
355.1112499999999
 20
214.629493
 30
0.0
 11
355.1112499999999
 21
212.5434929999999
 31
0.0
  0
LINE
  5
9788
330
96AF
100
AcDbEntity
  8
1
  6
Continuous
100
AcDbLine
 10
240.8632499999999
 20
213.809493
 30
0.0
 11
242.17025
 21
206.628493
 31
0.0
  0
LINE
  5
9789
330
96AF
100
AcDbEntity
  8
1
  6
Continuous
100
AcDbLine
 10
239.63425
 20
214.599493
 30
0.0
 11
235.17725
 21
213.471493
 31
0.0
  0
LINE
  5
978A
330
96AF
100
AcDbEntity
  8
1
  6
Continuous
100
AcDbLine
 10
359.6112499999999
 20
214.629493
 30
0.0
 11
355.1112499999999
 21
214.629493
 31
0.0
  0
LINE
  5
978B
330
96AF
100
AcDbEntity
  8
1
  6
Continuous
100
AcDbLine
 10
359.6112499999999
 20
180.9794929999999
 30
0.0
 11
355.1112499999999
 21
180.9794929999999
 31
0.0
  0
LINE
  5
978C
330
96AF
100
AcDbEntity
  8
1
  6
Continuous
100
AcDbLine
 10
353.8112499999999
 20
155.881493
 30
0.0
 11
351.5942499999999
 21
155.881493
 31
0.0
  0
LINE
  5
978D
330
96AF
100
AcDbEntity
  8
1
  6
Continuous
100
AcDbLine
 10
353.8112499999999
 20
155.113493
 30
0.0
 11
351.5942499999999
 21
155.113493
 31
0.0
  0
LINE
  5
978E
330
96AF
100
AcDbEntity
  8
1
  6
Continuous
100
AcDbLine
 10
358.3112499999999
 20
177.0864929999999
 30
0.0
 11
353.6112499999999
 21
177.0864929999999
 31
0.0
  0
LINE
  5
978F
330
96AF
100
AcDbEntity
  8
1
  6
Continuous
100
AcDbLine
 10
345.3112499999999
 20
160.344493
 30
0.0
 11
345.3112499999999
 21
154.857493
 31
0.0
  0
LINE
  5
9790
330
96AF
100
AcDbEntity
  8
1
  6
Continuous
100
AcDbLine
 10
358.3112499999999
 20
177.0864929999999
 30
0.0
 11
358.3112499999999
 21
159.551493
 31
0.0
  0
LINE
  5
9791
330
96AF
100
AcDbEntity
  8
1
  6
Continuous
100
AcDbLine
 10
353.8112499999999
 20
177.0864929999999
 30
0.0
 11
353.8112499999999
 21
159.551493
 31
0.0
  0
LINE
  5
9792
330
96AF
100
AcDbEntity
  8
1
  6
Continuous
100
AcDbLine
 10
348.8112499999999
 20
155.113493
 30
0.0
 11
345.3112499999999
 21
154.857493
 31
0.0
  0
LINE
  5
9793
330
96AF
100
AcDbEntity
  8
4
  6
CENTER
100
AcDbLine
 10
342.83325
 20
138.9714929999997
 30
0.0
 11
342.83325
 21
128.9714929999999
 31
0.0
  0
LINE
  5
9794
330
96AF
100
AcDbEntity
  8
4
  6
CENTER
100
AcDbLine
 10
347.83325
 20
133.9714929999999
 30
0.0
 11
337.83325
 21
133.9714929999999
 31
0.0
  0
LINE
  5
9795
330
96AF
100
AcDbEntity
  8
1
  6
Continuous
100
AcDbLine
 10
353.8112499999999
 20
160.344493
 30
0.0
 11
351.5942499999999
 21
160.344493
 31
0.0
  0
LINE
  5
9796
330
96AF
100
AcDbEntity
  8
1
  6
Continuous
100
AcDbLine
 10
350.0942499999999
 20
155.881493
 30
0.0
 11
345.3112499999999
 21
155.881493
 31
0.0
  0
LINE
  5
9797
330
96AF
100
AcDbEntity
  8
1
  6
Continuous
100
AcDbLine
 10
353.6112499999999
 20
179.0864929999999
 30
0.0
 11
353.6112499999999
 21
160.344493
 31
0.0
  0
LINE
  5
9798
330
96AF
100
AcDbEntity
  8
1
  6
Continuous
100
AcDbLine
 10
351.6112499999999
 20
179.0864929999999
 30
0.0
 11
351.6112499999999
 21
160.344493
 31
0.0
  0
LINE
  5
9799
330
96AF
100
AcDbEntity
  8
1
  6
Continuous
100
AcDbLine
 10
351.6112499999999
 20
175.0864929999999
 30
0.0
 11
353.6112499999999
 21
175.0864929999999
 31
0.0
  0
LINE
  5
979A
330
96AF
100
AcDbEntity
  8
1
  6
Continuous
100
AcDbLine
 10
343.61125
 20
182.0864929999999
 30
0.0
 11
350.6112499999999
 21
182.0864929999999
 31
0.0
  0
LINE
  5
979B
330
96AF
100
AcDbEntity
  8
1
  6
Continuous
100
AcDbLine
 10
343.61125
 20
180.0864929999999
 30
0.0
 11
350.6112499999999
 21
180.0864929999999
 31
0.0
  0
LINE
  5
979C
330
96AF
100
AcDbEntity
  8
1
  6
Continuous
100
AcDbLine
 10
342.6112499999999
 20
206.0094929999999
 30
0.0
 11
342.6112499999999
 21
183.0864929999999
 31
0.0
  0
LINE
  5
979D
330
96AF
100
AcDbEntity
  8
1
  6
Continuous
100
AcDbLine
 10
340.6112499999999
 20
187.284493
 30
0.0
 11
340.6112499999999
 21
183.0864929999999
 31
0.0
  0
LINE
  5
979E
330
96AF
100
AcDbEntity
  8
1
  6
Continuous
100
AcDbLine
 10
350.11125
 20
234.0864929999999
 30
0.0
 11
340.2792499999998
 21
232.951493
 31
0.0
  0
LINE
  5
979F
330
96AF
100
AcDbEntity
  8
1
  6
Continuous
100
AcDbLine
 10
335.4602499999999
 20
187.284493
 30
0.0
 11
340.6112499999999
 21
187.284493
 31
0.0
  0
LINE
  5
97A0
330
96AF
100
AcDbEntity
  8
1
  6
Continuous
100
AcDbLine
 10
336.76125
 20
229.4164929999999
 30
0.0
 11
332.4782499999999
 21
190.613493
 31
0.0
  0
LINE
  5
97A1
330
96AF
100
AcDbEntity
  8
1
  6
Continuous
100
AcDbLine
 10
349.6572499999999
 20
217.303493
 30
0.0
 11
350.11125
 21
234.0864929999999
 31
0.0
  0
LINE
  5
97A2
330
96AF
100
AcDbEntity
  8
1
  6
Continuous
100
AcDbLine
 10
348.51925
 20
214.259493
 30
0.0
 11
343.29525
 21
207.916493
 31
0.0
  0
LINE
  5
97A3
330
96AF
100
AcDbEntity
  8
1
  6
Continuous
100
AcDbLine
 10
334.7212499999999
 20
210.9304929999999
 30
0.0
 11
325.3972499999998
 21
200.5704929999999
 31
0.0
  0
LINE
  5
97A4
330
96AF
100
AcDbEntity
  8
1
  6
Continuous
100
AcDbLine
 10
342.2052499999999
 20
180.436493
 30
0.0
 11
327.44625
 21
176.2874929999999
 31
0.0
  0
LINE
  5
97A5
330
96AF
100
AcDbEntity
  8
4
  6
CENTER
100
AcDbLine
 10
329.61125
 20
178.5864929999999
 30
0.0
 11
329.61125
 21
158.5864929999999
 31
0.0
  0
LINE
  5
97A6
330
96AF
100
AcDbEntity
  8
4
  6
CENTER
100
AcDbLine
 10
339.61125
 20
168.5864929999999
 30
0.0
 11
319.6112499999999
 21
168.5864929999999
 31
0.0
  0
LINE
  5
97A7
330
96AF
100
AcDbEntity
  8
1
  6
Continuous
100
AcDbLine
 10
362.3112499999999
 20
215.886493
 30
0.0
 11
360.84325
 21
214.418493
 31
0.0
  0
LINE
  5
97A8
330
96AF
100
AcDbEntity
  8
1
  6
Continuous
100
AcDbLine
 10
355.6112499999999
 20
212.0864929999999
 30
0.0
 11
360.1112499999999
 21
212.0864929999999
 31
0.0
  0
LINE
  5
97A9
330
96AF
100
AcDbEntity
  8
1
  6
Continuous
100
AcDbLine
 10
355.6112499999999
 20
203.0864929999999
 30
0.0
 11
360.1112499999999
 21
203.0864929999999
 31
0.0
  0
LINE
  5
97AA
330
96AF
100
AcDbEntity
  8
1
  6
Continuous
100
AcDbLine
 10
355.6112499999999
 20
212.0864929999999
 30
0.0
 11
355.6112499999999
 21
203.0864929999999
 31
0.0
  0
LINE
  5
97AB
330
96AF
100
AcDbEntity
  8
1
  6
Continuous
100
AcDbLine
 10
353.3112499999999
 20
211.470493
 30
0.0
 11
353.3112499999999
 21
203.701493
 31
0.0
  0
LINE
  5
97AC
330
96AF
100
AcDbEntity
  8
1
  6
Continuous
100
AcDbLine
 10
351.8112499999999
 20
211.470493
 30
0.0
 11
351.8112499999999
 21
203.701493
 31
0.0
  0
LINE
  5
97AD
330
96AF
100
AcDbEntity
  8
1
  6
Continuous
100
AcDbLine
 10
353.3112499999999
 20
210.586493
 30
0.0
 11
354.0992499999999
 21
210.586493
 31
0.0
  0
LINE
  5
97AE
330
96AF
100
AcDbEntity
  8
1
  6
Continuous
100
AcDbLine
 10
353.3112499999999
 20
204.586493
 30
0.0
 11
353.76825
 21
204.586493
 31
0.0
  0
LINE
  5
97AF
330
96AF
100
AcDbEntity
  8
1
  6
Continuous
100
AcDbLine
 10
355.1112499999999
 20
203.0864929999999
 30
0.0
 11
355.1112499999999
 21
177.0864929999999
 31
0.0
  0
LINE
  5
97B0
330
96AF
100
AcDbEntity
  8
1
  6
Continuous
100
AcDbLine
 10
264.84525
 20
203.660493
 30
0.0
 11
258.1542499999998
 21
201.8934929999999
 31
0.0
  0
LINE
  5
97B1
330
96AF
100
AcDbEntity
  8
1
  6
Continuous
100
AcDbLine
 10
266.88825
 20
202.7514929999999
 30
0.0
 11
258.29225
 21
200.481493
 31
0.0
  0
LINE
  5
97B2
330
96AF
100
AcDbEntity
  8
1
  6
Continuous
100
AcDbLine
 10
264.33425
 20
212.4204929999999
 30
0.0
 11
264.59025
 21
211.453493
 31
0.0
  0
LINE
  5
97B3
330
96AF
100
AcDbEntity
  8
4
  6
CENTER
100
AcDbLine
 10
259.1112499999999
 20
207.5864929999999
 30
0.0
 11
272.1112499999999
 21
207.5864929999999
 31
0.0
  0
LINE
  5
97B4
330
96AF
100
AcDbEntity
  8
4
  6
CENTER
100
AcDbLine
 10
265.6112499999999
 20
214.0864929999999
 30
0.0
 11
265.6112499999999
 21
201.0864929999999
 31
0.0
  0
LINE
  5
97B5
330
96AF
100
AcDbEntity
  8
1
  6
Continuous
100
AcDbLine
 10
258.61125
 20
234.0864929999999
 30
0.0
 11
262.61125
 21
234.0864929999999
 31
0.0
  0
LINE
  5
97B6
330
96AF
100
AcDbEntity
  8
1
  6
Continuous
100
AcDbLine
 10
243.61125
 20
189.9434929999999
 30
0.0
 11
243.61125
 21
179.713493
 31
0.0
  0
LINE
  5
97B7
330
96AF
100
AcDbEntity
  8
1
  6
Continuous
100
AcDbLine
 10
268.1112499999999
 20
183.762493
 30
0.0
 11
268.1112499999999
 21
179.798493
 31
0.0
  0
LINE
  5
97B8
330
96AF
100
AcDbEntity
  8
1
  6
Continuous
100
AcDbLine
 10
262.61125
 20
234.0864929999999
 30
0.0
 11
258.25125
 21
203.569493
 31
0.0
  0
LINE
  5
97B9
330
96AF
100
AcDbEntity
  8
1
  6
Continuous
100
AcDbLine
 10
260.55825
 20
195.6474929999999
 30
0.0
 11
266.61125
 21
188.5864929999999
 31
0.0
  0
LINE
  5
97BA
330
96AF
100
AcDbEntity
  8
1
  6
Continuous
100
AcDbLine
 10
266.61125
 20
188.5864929999999
 30
0.0
 11
265.0922499999999
 21
187.284493
 31
0.0
  0
LINE
  5
97BB
330
96AF
100
AcDbEntity
  8
1
  6
Continuous
100
AcDbLine
 10
255.04625
 20
223.134493
 30
0.0
 11
253.59225
 21
212.954493
 31
0.0
  0
LINE
  5
97BC
330
96AF
100
AcDbEntity
  8
1
  6
Continuous
100
AcDbLine
 10
244.4282499999999
 20
159.3764929999998
 30
0.0
 11
255.9722499999999
 21
160.8234929999998
 31
0.0
  0
LINE
  5
97BD
330
96AF
100
AcDbEntity
  8
5
  6
PHANTOM
100
AcDbLine
 10
219.9692499999999
 20
182.772493
 30
0.0
 11
233.66525
 21
187.1754929999999
 31
0.0
  0
LINE
  5
97BE
330
96AF
100
AcDbEntity
  8
5
  6
PHANTOM
100
AcDbLine
 10
223.23625
 20
194.3264929999999
 30
0.0
 11
235.3042499999999
 21
198.2064929999999
 31
0.0
  0
LINE
  5
97BF
330
96AF
100
AcDbEntity
  8
5
  6
PHANTOM
100
AcDbLine
 10
219.77825
 20
189.9134929999999
 30
0.0
 11
219.31825
 21
183.2824929999999
 31
0.0
  0
LINE
  5
97C0
330
96AF
100
AcDbEntity
  8
1
  6
Continuous
100
AcDbLine
 10
260.59125
 20
234.0864929999999
 30
0.0
 11
256.27225
 21
203.8524929999999
 31
0.0
  0
LINE
  5
97C1
330
96AF
100
AcDbEntity
  8
1
  6
Continuous
100
AcDbLine
 10
259.04025
 20
194.345493
 30
0.0
 11
265.0922499999999
 21
187.284493
 31
0.0
  0
LINE
  5
97C2
330
96AF
100
AcDbEntity
  8
1
  6
Continuous
100
AcDbLine
 10
265.0922499999999
 20
187.284493
 30
0.0
 11
268.1112499999999
 21
183.762493
 31
0.0
  0
LINE
  5
97C3
330
96AF
100
AcDbEntity
  8
1
  6
Continuous
100
AcDbLine
 10
243.61125
 20
180.0864929999999
 30
0.0
 11
268.1112499999999
 21
180.0864929999999
 31
0.0
  0
LINE
  5
97C4
330
96AF
100
AcDbEntity
  8
1
  6
Continuous
100
AcDbLine
 10
257.57125
 20
161.023493
 30
0.0
 11
264.4262499999999
 21
161.8824929999999
 31
0.0
  0
LINE
  5
97C5
330
96AF
100
AcDbEntity
  8
1
  6
Continuous
100
AcDbLine
 10
225.91125
 20
159.6334929999999
 30
0.0
 11
225.91125
 21
133.5864929999999
 31
0.0
  0
LINE
  5
97C6
330
96AF
100
AcDbEntity
  8
1
  6
Continuous
100
AcDbLine
 10
228.35425
 20
202.9434929999999
 30
0.0
 11
227.91125
 21
201.8364929999999
 31
0.0
  0
LINE
  5
97C7
330
96AF
100
AcDbEntity
  8
3
  6
DASHED
100
AcDbLine
 10
226.34925
 20
196.0864929999999
 30
0.0
 11
227.91125
 21
196.0864929999999
 31
0.0
  0
LINE
  5
97C8
330
96AF
100
AcDbEntity
  8
1
  6
Continuous
100
AcDbLine
 10
255.6952499999999
 20
159.7394929999999
 30
0.0
 11
254.2382499999999
 21
159.551493
 31
0.0
  0
LINE
  5
97C9
330
96AF
100
AcDbEntity
  8
1
  6
Continuous
100
AcDbLine
 10
344.11125
 20
196.0864929999999
 30
0.0
 11
344.11125
 21
189.086493
 31
0.0
  0
LINE
  5
97CA
330
96AF
100
AcDbEntity
  8
1
  6
Continuous
100
AcDbLine
 10
344.11125
 20
196.0864929999999
 30
0.0
 11
346.28825
 21
196.0864929999999
 31
0.0
  0
LINE
  5
97CB
330
96AF
100
AcDbEntity
  8
1
  6
Continuous
100
AcDbLine
 10
344.11125
 20
189.086493
 30
0.0
 11
345.9022499999999
 21
189.086493
 31
0.0
  0
LINE
  5
97CC
330
96AF
100
AcDbEntity
  8
1
  6
Continuous
100
AcDbLine
 10
354.7842499999999
 20
197.586493
 30
0.0
 11
355.1112499999999
 21
197.586493
 31
0.0
  0
LINE
  5
97CD
330
96AF
100
AcDbEntity
  8
1
  6
Continuous
100
AcDbLine
 10
354.23225
 20
187.5864929999999
 30
0.0
 11
355.1112499999999
 21
187.5864929999999
 31
0.0
  0
LINE
  5
97CE
330
96AF
100
AcDbEntity
  8
1
  6
Continuous
100
AcDbLine
 10
231.91125
 20
174.8814929999998
 30
0.0
 11
238.48525
 21
174.7154929999999
 31
0.0
  0
LINE
  5
97CF
330
96AF
100
AcDbEntity
  8
1
  6
Continuous
100
AcDbLine
 10
355.5702499999999
 20
211.847493
 30
0.0
 11
354.1472499999999
 21
186.047493
 31
0.0
  0
LINE
  5
97D0
330
96AF
100
AcDbEntity
  8
1
  6
Continuous
100
AcDbLine
 10
354.17225
 20
211.924493
 30
0.0
 11
352.75025
 21
186.1244929999998
 31
0.0
  0
LINE
  5
97D1
330
96AF
100
AcDbEntity
  8
1
  6
Continuous
100
AcDbLine
 10
346.4562499999997
 20
199.124493
 30
0.0
 11
345.7432499999999
 21
186.2014929999999
 31
0.0
  0
LINE
  5
97D2
330
96AF
100
AcDbEntity
  8
1
  6
Continuous
100
AcDbLine
 10
352.06425
 20
199.124493
 30
0.0
 11
351.35225
 21
186.2014929999999
 31
0.0
  0
LINE
  5
97D3
330
96AF
100
AcDbEntity
  8
1
  6
Continuous
100
AcDbLine
 10
350.6622499999999
 20
199.124493
 30
0.0
 11
349.9502499999999
 21
186.2014929999999
 31
0.0
  0
LINE
  5
97D4
330
96AF
100
AcDbEntity
  8
1
  6
Continuous
100
AcDbLine
 10
349.2602499999999
 20
199.124493
 30
0.0
 11
348.54725
 21
186.2014929999999
 31
0.0
  0
LINE
  5
97D5
330
96AF
100
AcDbEntity
  8
1
  6
Continuous
100
AcDbLine
 10
347.8582499999998
 20
199.124493
 30
0.0
 11
347.1452499999998
 21
186.2014929999999
 31
0.0
  0
LINE
  5
97D6
330
96AF
100
AcDbEntity
  8
1
  6
Continuous
100
AcDbLine
 10
355.17025
 20
204.586493
 30
0.0
 11
355.6112499999999
 21
204.586493
 31
0.0
  0
LINE
  5
97D7
330
96AF
100
AcDbEntity
  8
1
  6
Continuous
100
AcDbLine
 10
355.5012500000001
 20
210.586493
 30
0.0
 11
355.6112499999999
 21
210.586493
 31
0.0
  0
LINE
  5
97D8
330
96AF
100
AcDbEntity
  8
1
  6
Continuous
100
AcDbLine
 10
108.9112499999999
 20
212.586493
 30
0.0
 11
127.6112499999999
 21
212.586493
 31
0.0
  0
LINE
  5
97D9
330
96AF
100
AcDbEntity
  8
1
  6
Continuous
100
AcDbLine
 10
106.61125
 20
210.2864929999999
 30
0.0
 11
106.61125
 21
154.886493
 31
0.0
  0
LINE
  5
97DA
330
96AF
100
AcDbEntity
  8
1
  6
Continuous
100
AcDbLine
 10
108.9112499999999
 20
152.586493
 30
0.0
 11
127.6112499999999
 21
152.586493
 31
0.0
  0
LINE
  5
97DB
330
96AF
100
AcDbEntity
  8
1
  6
Continuous
100
AcDbLine
 10
106.61125
 20
159.5864929999999
 30
0.0
 11
127.6112499999999
 21
159.5864929999999
 31
0.0
  0
LINE
  5
97DC
330
96AF
100
AcDbEntity
  8
1
  6
Continuous
100
AcDbLine
 10
106.61125
 20
164.5864929999999
 30
0.0
 11
108.9112499999999
 21
164.5864929999999
 31
0.0
  0
LINE
  5
97DD
330
96AF
100
AcDbEntity
  8
1
  6
Continuous
100
AcDbLine
 10
108.9112499999999
 20
204.613493
 30
0.0
 11
108.9112499999999
 21
159.5864929999999
 31
0.0
  0
LINE
  5
97DE
330
96AF
100
AcDbEntity
  8
1
  6
Continuous
100
AcDbLine
 10
127.6112499999999
 20
206.586493
 30
0.0
 11
108.9112499999999
 21
206.586493
 31
0.0
  0
LINE
  5
97DF
330
96AF
100
AcDbEntity
  8
1
  6
Continuous
100
AcDbLine
 10
127.6112499999999
 20
204.613493
 30
0.0
 11
108.9112499999999
 21
204.613493
 31
0.0
  0
LINE
  5
97E0
330
96AF
100
AcDbEntity
  8
1
  6
Continuous
100
AcDbLine
 10
108.9112499999999
 20
202.113493
 30
0.0
 11
106.61125
 21
202.113493
 31
0.0
  0
LINE
  5
97E1
330
96AF
100
AcDbEntity
  8
1
  6
Continuous
100
AcDbLine
 10
138.41125
 20
168.666493
 30
0.0
 11
133.9112499999999
 21
168.666493
 31
0.0
  0
LINE
  5
97E2
330
96AF
100
AcDbEntity
  8
1
  6
Continuous
100
AcDbLine
 10
138.41125
 20
174.5864929999999
 30
0.0
 11
138.41125
 21
158.339493
 31
0.0
  0
LINE
  5
97E3
330
96AF
100
AcDbEntity
  8
1
  6
Continuous
100
AcDbLine
 10
140.61125
 20
159.0864929999999
 30
0.0
 11
138.61125
 21
159.0864929999999
 31
0.0
  0
LINE
  5
97E4
330
96AF
100
AcDbEntity
  8
1
  6
Continuous
100
AcDbLine
 10
140.61125
 20
169.086493
 30
0.0
 11
138.61125
 21
169.086493
 31
0.0
  0
LINE
  5
97E5
330
96AF
100
AcDbEntity
  8
1
  6
Continuous
100
AcDbLine
 10
155.11125
 20
196.0864929999999
 30
0.0
 11
153.11125
 21
196.0864929999999
 31
0.0
  0
LINE
  5
97E6
330
96AF
100
AcDbEntity
  8
1
  6
Continuous
100
AcDbLine
 10
138.41125
 20
158.339493
 30
0.0
 11
133.9112499999999
 21
158.339493
 31
0.0
  0
LINE
  5
97E7
330
96AF
100
AcDbEntity
  8
1
  6
Continuous
100
AcDbLine
 10
58.11125
 20
152.586493
 30
0.0
 11
20.11121
 21
152.586493
 31
0.0
  0
LINE
  5
97E8
330
96AF
100
AcDbEntity
  8
1
  6
Continuous
100
AcDbLine
 10
58.11125
 20
159.5864929999999
 30
0.0
 11
58.11125
 21
152.586493
 31
0.0
  0
LINE
  5
97E9
330
96AF
100
AcDbEntity
  8
1
  6
Continuous
100
AcDbLine
 10
20.11121
 20
192.5864929999999
 30
0.0
 11
20.11121
 21
152.586493
 31
0.0
  0
LINE
  5
97EA
330
96AF
100
AcDbEntity
  8
1
  6
Continuous
100
AcDbLine
 10
58.11125
 20
159.5864929999999
 30
0.0
 11
55.81125
 21
159.5864929999999
 31
0.0
  0
LINE
  5
97EB
330
96AF
100
AcDbEntity
  8
1
  6
Continuous
100
AcDbLine
 10
50.11115
 20
164.5864929999999
 30
0.0
 11
55.81115
 21
159.5864929999999
 31
0.0
  0
LINE
  5
97EC
330
96AF
100
AcDbEntity
  8
1
  6
Continuous
100
AcDbLine
 10
50.11124999999999
 20
164.5864929999999
 30
0.0
 11
36.74714999999999
 21
166.1364929999997
 31
0.0
  0
LINE
  5
97ED
330
96AF
100
AcDbEntity
  8
1
  6
Continuous
100
AcDbLine
 10
53.68725
 20
183.000493
 30
0.0
 11
36.74714999999999
 21
181.036493
 31
0.0
  0
LINE
  5
97EE
330
96AF
100
AcDbEntity
  8
1
  6
Continuous
100
AcDbLine
 10
52.11125
 20
206.586493
 30
0.0
 11
40.11124999999998
 21
212.586493
 31
0.0
  0
LINE
  5
97EF
330
96AF
100
AcDbEntity
  8
1
  6
Continuous
100
AcDbLine
 10
52.11125
 20
206.586493
 30
0.0
 11
49.87515
 21
202.113493
 31
0.0
  0
LINE
  5
97F0
330
96AF
100
AcDbEntity
  8
5
  6
PHANTOM
100
AcDbLine
 10
33.75535
 20
180.112493
 30
0.0
 11
55.58505
 21
168.9894929999999
 31
0.0
  0
LINE
  5
97F1
330
96AF
100
AcDbEntity
  8
5
  6
PHANTOM
100
AcDbLine
 10
67.14185
 20
184.1234929999999
 30
0.0
 11
71.14095
 21
185.189493
 31
0.0
  0
LINE
  5
97F2
330
96AF
100
AcDbEntity
  8
5
  6
PHANTOM
100
AcDbLine
 10
65.12025
 20
184.741493
 30
0.0
 11
62.01205
 21
188.3014929999999
 31
0.0
  0
LINE
  5
97F3
330
96AF
100
AcDbEntity
  8
5
  6
PHANTOM
100
AcDbLine
 10
56.55915
 20
174.476493
 30
0.0
 11
52.06865
 21
179.619493
 31
0.0
  0
LINE
  5
97F4
330
96AF
100
AcDbEntity
  8
1
  6
Continuous
100
AcDbLine
 10
108.9112499999999
 20
196.586493
 30
0.0
 11
109.61125
 21
196.586493
 31
0.0
  0
LINE
  5
97F5
330
96AF
100
AcDbEntity
  8
1
  6
Continuous
100
AcDbLine
 10
108.9112499999999
 20
188.5864929999999
 30
0.0
 11
109.61125
 21
188.5864929999999
 31
0.0
  0
LINE
  5
97F6
330
96AF
100
AcDbEntity
  8
1
  6
Continuous
100
AcDbLine
 10
109.61125
 20
204.613493
 30
0.0
 11
109.61125
 21
160.916493
 31
0.0
  0
LINE
  5
97F7
330
96AF
100
AcDbEntity
  8
1
  6
Continuous
100
AcDbLine
 10
114.1112499999999
 20
204.613493
 30
0.0
 11
114.1112499999999
 21
160.916493
 31
0.0
  0
LINE
  5
97F8
330
96AF
100
AcDbEntity
  8
1
  6
Continuous
100
AcDbLine
 10
127.6112499999999
 20
200.5864929999999
 30
0.0
 11
114.1112499999999
 21
200.5864929999999
 31
0.0
  0
LINE
  5
97F9
330
96AF
100
AcDbEntity
  8
1
  6
Continuous
100
AcDbLine
 10
127.6112499999999
 20
184.5864929999999
 30
0.0
 11
114.1112499999999
 21
184.5864929999999
 31
0.0
  0
LINE
  5
97FA
330
96AF
100
AcDbEntity
  8
1
  6
Continuous
100
AcDbLine
 10
114.1112499999999
 20
160.916493
 30
0.0
 11
109.61125
 21
160.916493
 31
0.0
  0
LINE
  5
97FB
330
96AF
100
AcDbEntity
  8
1
  6
Continuous
100
AcDbLine
 10
109.1112499999999
 20
196.586493
 30
0.0
 11
109.1112499999999
 21
188.5864929999999
 31
0.0
  0
LINE
  5
97FC
330
96AF
100
AcDbEntity
  8
1
  6
Continuous
100
AcDbLine
 10
126.6112499999999
 20
184.5864929999999
 30
0.0
 11
126.6112499999999
 21
168.5864929999999
 31
0.0
  0
LINE
  5
97FD
330
96AF
100
AcDbEntity
  8
1
  6
Continuous
100
AcDbLine
 10
115.61125
 20
184.5864929999999
 30
0.0
 11
115.61125
 21
168.5864929999999
 31
0.0
  0
LINE
  5
97FE
330
96AF
100
AcDbEntity
  8
1
  6
Continuous
100
AcDbLine
 10
126.6112499999999
 20
168.5864929999999
 30
0.0
 11
114.1112499999999
 21
168.5864929999999
 31
0.0
  0
LINE
  5
97FF
330
96AF
100
AcDbEntity
  8
1
  6
Continuous
100
AcDbLine
 10
233.37925
 20
167.2064929999999
 30
0.0
 11
240.4012499999998
 21
160.6764929999999
 31
0.0
  0
LINE
  5
9800
330
96AF
100
AcDbEntity
  8
1
  6
Continuous
100
AcDbLine
 10
44.47505
 20
166.7414929999999
 30
0.0
 11
46.23595
 21
171.1264929999998
 31
0.0
  0
LINE
  5
9801
330
96AF
100
AcDbEntity
  8
1
  6
Continuous
100
AcDbLine
 10
31.34455
 20
169.4654929999998
 30
0.0
 11
33.98645
 21
176.0454929999999
 31
0.0
  0
LINE
  5
9802
330
96AF
100
AcDbEntity
  8
1
  6
Continuous
100
AcDbLine
 10
245.67325
 20
206.086493
 30
0.0
 11
232.99625
 21
206.086493
 31
0.0
  0
LINE
  5
9803
330
96AF
100
AcDbEntity
  8
1
  6
Continuous
100
AcDbLine
 10
275.11125
 20
312.6594929999999
 30
0.0
 11
225.91125
 21
312.6594929999999
 31
0.0
  0
LINE
  5
9804
330
96AF
100
AcDbEntity
  8
1
  6
Continuous
100
AcDbLine
 10
223.61125
 20
310.3594929999998
 30
0.0
 11
223.61125
 21
267.6594929999998
 31
0.0
  0
LINE
  5
9805
330
96AF
100
AcDbEntity
  8
1
  6
Continuous
100
AcDbLine
 10
225.91125
 20
310.3594929999998
 30
0.0
 11
225.91125
 21
267.6594929999998
 31
0.0
  0
LINE
  5
9806
330
96AF
100
AcDbEntity
  8
1
  6
Continuous
100
AcDbLine
 10
275.11125
 20
310.3594929999998
 30
0.0
 11
225.91125
 21
310.3594929999998
 31
0.0
  0
LINE
  5
9807
330
96AF
100
AcDbEntity
  8
1
  6
Continuous
100
AcDbLine
 10
275.11125
 20
312.6594929999999
 30
0.0
 11
275.11125
 21
310.3594929999998
 31
0.0
  0
LINE
  5
9808
330
96AF
100
AcDbEntity
  8
1
  6
Continuous
100
AcDbLine
 10
228.11125
 20
267.6594929999998
 30
0.0
 11
223.61125
 21
267.6594929999998
 31
0.0
  0
LINE
  5
9809
330
96AF
100
AcDbEntity
  8
1
  6
Continuous
100
AcDbLine
 10
266.8112499999998
 20
333.6594929999999
 30
0.0
 11
232.9582499999999
 21
333.6594929999999
 31
0.0
  0
LINE
  5
980A
330
96AF
100
AcDbEntity
  8
1
  6
Continuous
100
AcDbLine
 10
269.11125
 20
331.3594929999998
 30
0.0
 11
269.11125
 21
312.6594929999999
 31
0.0
  0
LINE
  5
980B
330
96AF
100
AcDbEntity
  8
1
  6
Continuous
100
AcDbLine
 10
231.11125
 20
331.3594929999998
 30
0.0
 11
231.11125
 21
312.6594929999999
 31
0.0
  0
LINE
  5
980C
330
96AF
100
AcDbEntity
  8
1
  6
Continuous
100
AcDbLine
 10
233.4112499999999
 20
331.3594929999998
 30
0.0
 11
233.4112499999999
 21
330.659493
 31
0.0
  0
LINE
  5
980D
330
96AF
100
AcDbEntity
  8
4
  6
CENTER
100
AcDbLine
 10
251.11125
 20
339.8014929999998
 30
0.0
 11
251.11125
 21
285.0594929999999
 31
0.0
  0
LINE
  5
980E
330
96AF
100
AcDbEntity
  8
1
  6
Continuous
100
AcDbLine
 10
239.11125
 20
331.3594929999998
 30
0.0
 11
232.9582499999999
 21
331.3594929999998
 31
0.0
  0
LINE
  5
980F
330
96AF
100
AcDbEntity
  8
1
  6
Continuous
100
AcDbLine
 10
239.11125
 20
333.6594929999999
 30
0.0
 11
239.11125
 21
312.6594929999999
 31
0.0
  0
LINE
  5
9810
330
96AF
100
AcDbEntity
  8
1
  6
Continuous
100
AcDbLine
 10
251.11125
 20
333.2864929999999
 30
0.0
 11
251.11125
 21
312.6594929999999
 31
0.0
  0
LINE
  5
9811
330
96AF
100
AcDbEntity
  8
1
  6
Continuous
100
AcDbLine
 10
232.9582499999999
 20
331.3594929999998
 30
0.0
 11
232.9582499999999
 21
333.6594929999999
 31
0.0
  0
LINE
  5
9812
330
96AF
100
AcDbEntity
  8
1
  6
Continuous
100
AcDbLine
 10
232.03225
 20
326.159493
 30
0.0
 11
232.03225
 21
330.659493
 31
0.0
  0
LINE
  5
9813
330
96AF
100
AcDbEntity
  8
1
  6
Continuous
100
AcDbLine
 10
239.11125
 20
330.659493
 30
0.0
 11
232.03225
 21
330.659493
 31
0.0
  0
LINE
  5
9814
330
96AF
100
AcDbEntity
  8
1
  6
Continuous
100
AcDbLine
 10
239.11125
 20
326.159493
 30
0.0
 11
232.03225
 21
326.159493
 31
0.0
  0
LINE
  5
9815
330
96AF
100
AcDbEntity
  8
1
  6
Continuous
100
AcDbLine
 10
233.4112499999999
 20
326.159493
 30
0.0
 11
233.4112499999999
 21
312.6594929999999
 31
0.0
  0
LINE
  5
9816
330
96AF
100
AcDbEntity
  8
1
  6
Continuous
100
AcDbLine
 10
268.1112499999999
 20
299.659493
 30
0.0
 11
272.6112499999999
 21
299.659493
 31
0.0
  0
LINE
  5
9817
330
96AF
100
AcDbEntity
  8
1
  6
Continuous
100
AcDbLine
 10
266.61125
 20
288.459493
 30
0.0
 11
270.6112499999999
 21
288.459493
 31
0.0
  0
LINE
  5
9818
330
96AF
100
AcDbEntity
  8
1
  6
Continuous
100
AcDbLine
 10
270.6112499999999
 20
288.459493
 30
0.0
 11
270.6112499999999
 21
289.959493
 31
0.0
  0
LINE
  5
9819
330
96AF
100
AcDbEntity
  8
1
  6
Continuous
100
AcDbLine
 10
269.6112499999999
 20
299.659493
 30
0.0
 11
269.6112499999999
 21
301.0594929999999
 31
0.0
  0
LINE
  5
981A
330
96AF
100
AcDbEntity
  8
1
  6
Continuous
100
AcDbLine
 10
268.1112499999999
 20
289.959493
 30
0.0
 11
272.1612499999998
 21
289.959493
 31
0.0
  0
LINE
  5
981B
330
96AF
100
AcDbEntity
  8
1
  6
Continuous
100
AcDbLine
 10
268.1112499999999
 20
298.8764929999998
 30
0.0
 11
272.1612499999998
 21
298.8764929999998
 31
0.0
  0
LINE
  5
981C
330
96AF
100
AcDbEntity
  8
1
  6
Continuous
100
AcDbLine
 10
268.1112499999999
 20
291.459493
 30
0.0
 11
272.1612499999998
 21
291.459493
 31
0.0
  0
LINE
  5
981D
330
96AF
100
AcDbEntity
  8
1
  6
Continuous
100
AcDbLine
 10
268.1112499999999
 20
292.942493
 30
0.0
 11
272.1612499999998
 21
292.942493
 31
0.0
  0
LINE
  5
981E
330
96AF
100
AcDbEntity
  8
1
  6
Continuous
100
AcDbLine
 10
268.1112499999999
 20
294.426493
 30
0.0
 11
272.1612499999998
 21
294.426493
 31
0.0
  0
LINE
  5
981F
330
96AF
100
AcDbEntity
  8
1
  6
Continuous
100
AcDbLine
 10
268.1112499999999
 20
295.909493
 30
0.0
 11
272.1612499999998
 21
295.909493
 31
0.0
  0
LINE
  5
9820
330
96AF
100
AcDbEntity
  8
1
  6
Continuous
100
AcDbLine
 10
270.6112499999999
 20
298.8764929999998
 30
0.0
 11
270.6112499999999
 21
299.659493
 31
0.0
  0
LINE
  5
9821
330
96AF
100
AcDbEntity
  8
1
  6
Continuous
100
AcDbLine
 10
273.6112499999999
 20
306.3594929999998
 30
0.0
 11
273.6112499999999
 21
301.8594929999999
 31
0.0
  0
LINE
  5
9822
330
96AF
100
AcDbEntity
  8
1
  6
Continuous
100
AcDbLine
 10
233.4662499999998
 20
307.659493
 30
0.0
 11
233.4662499999998
 21
303.159493
 31
0.0
  0
LINE
  5
9823
330
96AF
100
AcDbEntity
  8
1
  6
Continuous
100
AcDbLine
 10
240.8162499999999
 20
307.659493
 30
0.0
 11
240.8162499999999
 21
303.159493
 31
0.0
  0
LINE
  5
9824
330
96AF
100
AcDbEntity
  8
1
  6
Continuous
100
AcDbLine
 10
270.1112499999999
 20
303.659493
 30
0.0
 11
270.1112499999999
 21
308.159493
 31
0.0
  0
LINE
  5
9825
330
96AF
100
AcDbEntity
  8
1
  6
Continuous
100
AcDbLine
 10
261.1112499999999
 20
303.659493
 30
0.0
 11
270.1112499999999
 21
303.659493
 31
0.0
  0
LINE
  5
9826
330
96AF
100
AcDbEntity
  8
1
  6
Continuous
100
AcDbLine
 10
268.6112499999999
 20
301.359493
 30
0.0
 11
268.6112499999999
 21
302.0914929999999
 31
0.0
  0
LINE
  5
9827
330
96AF
100
AcDbEntity
  8
1
  6
Continuous
100
AcDbLine
 10
261.7262499999998
 20
301.359493
 30
0.0
 11
269.4962499999999
 21
301.359493
 31
0.0
  0
LINE
  5
9828
330
96AF
100
AcDbEntity
  8
1
  6
Continuous
100
AcDbLine
 10
261.7262499999998
 20
299.8594929999999
 30
0.0
 11
269.4962499999999
 21
299.8594929999999
 31
0.0
  0
LINE
  5
9829
330
96AF
100
AcDbEntity
  8
1
  6
Continuous
100
AcDbLine
 10
261.1112499999999
 20
303.659493
 30
0.0
 11
261.1112499999999
 21
308.159493
 31
0.0
  0
LINE
  5
982A
330
96AF
100
AcDbEntity
  8
1
  6
Continuous
100
AcDbLine
 10
262.61125
 20
286.020493
 30
0.0
 11
262.61125
 21
296.159493
 31
0.0
  0
LINE
  5
982B
330
96AF
100
AcDbEntity
  8
1
  6
Continuous
100
AcDbLine
 10
253.61125
 20
295.920493
 30
0.0
 11
253.61125
 21
298.1594929999999
 31
0.0
  0
LINE
  5
982C
330
96AF
100
AcDbEntity
  8
1
  6
Continuous
100
AcDbLine
 10
260.59125
 20
286.020493
 30
0.0
 11
260.59125
 21
296.1524929999999
 31
0.0
  0
LINE
  5
982D
330
96AF
100
AcDbEntity
  8
1
  6
Continuous
100
AcDbLine
 10
253.61125
 20
298.1594929999999
 30
0.0
 11
260.61125
 21
298.1594929999999
 31
0.0
  0
LINE
  5
982E
330
96AF
100
AcDbEntity
  8
1
  6
Continuous
100
AcDbLine
 10
253.61125
 20
296.1524929999999
 30
0.0
 11
260.59125
 21
296.1524929999999
 31
0.0
  0
LINE
  5
982F
330
96AF
100
AcDbEntity
  8
1
  6
Continuous
100
AcDbLine
 10
230.11125
 20
301.659493
 30
0.0
 11
243.98525
 21
301.659493
 31
0.0
  0
LINE
  5
9830
330
96AF
100
AcDbEntity
  8
1
  6
Continuous
100
AcDbLine
 10
230.11125
 20
299.659493
 30
0.0
 11
243.61125
 21
299.659493
 31
0.0
  0
LINE
  5
9831
330
96AF
100
AcDbEntity
  8
1
  6
Continuous
100
AcDbLine
 10
272.6112499999999
 20
299.659493
 30
0.0
 11
272.6112499999999
 21
301.8594929999999
 31
0.0
  0
LINE
  5
9832
330
96AF
100
AcDbEntity
  8
4
  6
CENTER
100
AcDbLine
 10
265.6112499999999
 20
285.3984929999999
 30
0.0
 11
265.6112499999999
 21
315.034493
 31
0.0
  0
LINE
  5
9833
330
96AF
100
AcDbEntity
  8
1
  6
Continuous
100
AcDbLine
 10
244.41025
 20
288.659493
 30
0.0
 11
256.15125
 21
288.659493
 31
0.0
  0
LINE
  5
9834
330
96AF
100
AcDbEntity
  8
1
  6
Continuous
100
AcDbLine
 10
241.4102499999999
 20
290.659493
 30
0.0
 11
246.9302499999999
 21
290.659493
 31
0.0
  0
LINE
  5
9835
330
96AF
100
AcDbEntity
  8
1
  6
Continuous
100
AcDbLine
 10
243.61125
 20
290.659493
 30
0.0
 11
243.61125
 21
301.659493
 31
0.0
  0
LINE
  5
9836
330
96AF
100
AcDbEntity
  8
1
  6
Continuous
100
AcDbLine
 10
260.59125
 20
285.159493
 30
0.0
 11
262.15825
 21
285.159493
 31
0.0
  0
LINE
  5
9837
330
96AF
100
AcDbEntity
  8
1
  6
Continuous
100
AcDbLine
 10
256.15125
 20
280.9584929999999
 30
0.0
 11
256.15125
 21
288.659493
 31
0.0
  0
LINE
  5
9838
330
96AF
100
AcDbEntity
  8
1
  6
Continuous
100
AcDbLine
 10
256.15125
 20
280.9584929999999
 30
0.0
 11
259.96525
 21
284.567493
 31
0.0
  0
LINE
  5
9839
330
96AF
100
AcDbEntity
  8
1
  6
Continuous
100
AcDbLine
 10
258.17125
 20
280.9584929999999
 30
0.0
 11
261.9862499999999
 21
284.567493
 31
0.0
  0
LINE
  5
983A
330
96AF
100
AcDbEntity
  8
1
  6
Continuous
100
AcDbLine
 10
266.61125
 20
283.653493
 30
0.0
 11
266.61125
 21
290.659493
 31
0.0
  0
LINE
  5
983B
330
96AF
100
AcDbEntity
  8
1
  6
Continuous
100
AcDbLine
 10
256.15125
 20
280.9584929999999
 30
0.0
 11
263.48725
 21
280.6554929999999
 31
0.0
  0
LINE
  5
983C
330
96AF
100
AcDbEntity
  8
1
  6
Continuous
100
AcDbLine
 10
253.61125
 20
295.920493
 30
0.0
 11
256.5482499999998
 21
295.920493
 31
0.0
  0
LINE
  5
983D
330
96AF
100
AcDbEntity
  8
1
  6
Continuous
100
AcDbLine
 10
254.64025
 20
292.2904930000001
 30
0.0
 11
256.5482499999998
 21
295.920493
 31
0.0
  0
LINE
  5
983E
330
96AF
100
AcDbEntity
  8
1
  6
Continuous
100
AcDbLine
 10
254.64025
 20
294.290493
 30
0.0
 11
255.49725
 21
295.920493
 31
0.0
  0
LINE
  5
983F
330
96AF
100
AcDbEntity
  8
1
  6
Continuous
100
AcDbLine
 10
259.6062499999998
 20
294.447493
 30
0.0
 11
256.8922499999998
 21
289.748493
 31
0.0
  0
LINE
  5
9840
330
96AF
100
AcDbEntity
  8
1
  6
Continuous
100
AcDbLine
 10
262.61125
 20
290.659493
 30
0.0
 11
268.1112499999999
 21
290.659493
 31
0.0
  0
LINE
  5
9841
330
96AF
100
AcDbEntity
  8
1
  6
Continuous
100
AcDbLine
 10
266.61125
 20
288.659493
 30
0.0
 11
268.1112499999999
 21
288.659493
 31
0.0
  0
LINE
  5
9842
330
96AF
100
AcDbEntity
  8
1
  6
Continuous
100
AcDbLine
 10
268.1112499999999
 20
288.659493
 30
0.0
 11
268.1112499999999
 21
299.8594929999999
 31
0.0
  0
LINE
  5
9843
330
96AF
100
AcDbEntity
  8
1
  6
Continuous
100
AcDbLine
 10
271.52825
 20
308.159493
 30
0.0
 11
238.3942499999998
 21
308.159493
 31
0.0
  0
LINE
  5
9844
330
96AF
100
AcDbEntity
  8
1
  6
Continuous
100
AcDbLine
 10
262.61125
 20
301.359493
 30
0.0
 11
262.61125
 21
303.659493
 31
0.0
  0
LINE
  5
9845
330
96AF
100
AcDbEntity
  8
1
  6
Continuous
100
AcDbLine
 10
268.1112499999999
 20
297.3924929999999
 30
0.0
 11
272.1612499999998
 21
297.3924929999999
 31
0.0
  0
LINE
  5
9846
330
96AF
100
AcDbEntity
  8
1
  6
Continuous
100
AcDbLine
 10
244.86125
 20
307.659493
 30
0.0
 11
244.86125
 21
308.159493
 31
0.0
  0
LINE
  5
9847
330
96AF
100
AcDbEntity
  8
1
  6
Continuous
100
AcDbLine
 10
257.3612499999999
 20
307.659493
 30
0.0
 11
257.3612499999999
 21
308.159493
 31
0.0
  0
LINE
  5
9848
330
96AF
100
AcDbEntity
  8
1
  6
Continuous
100
AcDbLine
 10
247.61125
 20
292.1594929999999
 30
0.0
 11
252.19825
 21
292.1594929999999
 31
0.0
  0
LINE
  5
9849
330
96AF
100
AcDbEntity
  8
1
  6
Continuous
100
AcDbLine
 10
247.61125
 20
292.1594929999999
 30
0.0
 11
247.61125
 21
294.8624929999999
 31
0.0
  0
LINE
  5
984A
330
96AF
100
AcDbEntity
  8
1
  6
Continuous
100
AcDbLine
 10
246.11125
 20
301.9554929999998
 30
0.0
 11
246.11125
 21
303.159493
 31
0.0
  0
LINE
  5
984B
330
96AF
100
AcDbEntity
  8
1
  6
Continuous
100
AcDbLine
 10
256.1112499999999
 20
301.404493
 30
0.0
 11
256.1112499999999
 21
303.159493
 31
0.0
  0
LINE
  5
984C
330
96AF
100
AcDbEntity
  8
1
  6
Continuous
100
AcDbLine
 10
244.6452499999999
 20
302.0364929999999
 30
0.0
 11
257.5682499999999
 21
301.324493
 31
0.0
  0
LINE
  5
984D
330
96AF
100
AcDbEntity
  8
1
  6
Continuous
100
AcDbLine
 10
244.56825
 20
295.0304929999999
 30
0.0
 11
254.73425
 21
294.469493
 31
0.0
  0
LINE
  5
984E
330
96AF
100
AcDbEntity
  8
1
  6
Continuous
100
AcDbLine
 10
244.56825
 20
300.6384929999999
 30
0.0
 11
257.5682499999999
 21
299.9214929999999
 31
0.0
  0
LINE
  5
984F
330
96AF
100
AcDbEntity
  8
1
  6
Continuous
100
AcDbLine
 10
244.56825
 20
299.2364929999999
 30
0.0
 11
257.5682499999999
 21
298.519493
 31
0.0
  0
LINE
  5
9850
330
96AF
100
AcDbEntity
  8
1
  6
Continuous
100
AcDbLine
 10
244.56825
 20
297.834493
 30
0.0
 11
253.61125
 21
297.3354929999998
 31
0.0
  0
LINE
  5
9851
330
96AF
100
AcDbEntity
  8
1
  6
Continuous
100
AcDbLine
 10
244.56825
 20
296.432493
 30
0.0
 11
255.45025
 21
295.8324929999997
 31
0.0
  0
LINE
  5
9852
330
96AF
100
AcDbEntity
  8
1
  6
Continuous
100
AcDbLine
 10
262.60725
 20
303.019493
 30
0.0
 11
256.1112499999999
 21
302.661493
 31
0.0
  0
LINE
  5
9853
330
96AF
100
AcDbEntity
  8
1
  6
Continuous
100
AcDbLine
 10
269.9072499999999
 20
302.0204929999998
 30
0.0
 11
268.60725
 21
301.9484929999999
 31
0.0
  0
LINE
  5
9854
330
96AF
100
AcDbEntity
  8
1
  6
Continuous
100
AcDbLine
 10
246.1072499999999
 20
302.1094929999998
 30
0.0
 11
244.6462499999999
 21
302.0294929999999
 31
0.0
  0
LINE
  5
9855
330
96AF
100
AcDbEntity
  8
1
  6
Continuous
100
AcDbLine
 10
268.6112499999999
 20
301.659493
 30
0.0
 11
272.6112499999999
 21
301.659493
 31
0.0
  0
LINE
  5
9856
330
96AF
100
AcDbEntity
  8
1
  6
Continuous
100
AcDbLine
 10
269.8682499999998
 20
302.0224929999999
 30
0.0
 11
265.5342499999998
 21
302.2614929999999
 31
0.0
  0
LINE
  5
9857
330
96AF
100
AcDbEntity
  8
1
  6
Continuous
100
AcDbLine
 10
269.94525
 20
303.420493
 30
0.0
 11
265.6112499999999
 21
303.659493
 31
0.0
  0
LINE
  5
9858
330
96AF
100
AcDbEntity
  8
1
  6
Continuous
100
AcDbLine
 10
265.6112499999999
 20
303.659493
 30
0.0
 11
265.5342499999998
 21
302.2614929999999
 31
0.0
  0
LINE
  5
9859
330
96AF
100
AcDbEntity
  8
1
  6
Continuous
100
AcDbLine
 10
268.6112499999999
 20
303.4934929999999
 30
0.0
 11
268.6112499999999
 21
303.659493
 31
0.0
  0
LINE
  5
985A
330
96AF
100
AcDbEntity
  8
1
  6
Continuous
100
AcDbLine
 10
262.61125
 20
301.617493
 30
0.0
 11
257.42525
 21
301.331493
 31
0.0
  0
LINE
  5
985B
330
96AF
100
AcDbEntity
  8
1
  6
Continuous
100
AcDbLine
 10
274.7642499999999
 20
310.3594929999998
 30
0.0
 11
273.2962499999998
 21
308.891493
 31
0.0
  0
LINE
  5
985C
330
96AF
100
AcDbEntity
  8
4
  6
CENTER
100
AcDbLine
 10
234.56325
 20
277.6594929999999
 30
0.0
 11
220.26025
 21
277.6594929999999
 31
0.0
  0
LINE
  5
985D
330
96AF
100
AcDbEntity
  8
1
  6
Continuous
100
AcDbLine
 10
228.11125
 20
310.3594929999998
 30
0.0
 11
228.11125
 21
267.6594929999998
 31
0.0
  0
LINE
  5
985E
330
96AF
100
AcDbEntity
  8
1
  6
Continuous
100
AcDbLine
 10
227.37925
 20
290.644493
 30
0.0
 11
225.91125
 21
292.1124929999999
 31
0.0
  0
LINE
  5
985F
330
96AF
100
AcDbEntity
  8
1
  6
Continuous
100
AcDbLine
 10
227.37925
 20
298.4274930000001
 30
0.0
 11
225.91125
 21
296.9594929999999
 31
0.0
  0
LINE
  5
9860
330
96AF
100
AcDbEntity
  8
1
  6
Continuous
100
AcDbLine
 10
230.11125
 20
304.7214929999999
 30
0.0
 11
230.11125
 21
269.6594929999998
 31
0.0
  0
LINE
  5
9861
330
96AF
100
AcDbEntity
  8
1
  6
Continuous
100
AcDbLine
 10
232.11125
 20
284.659493
 30
0.0
 11
232.11125
 21
270.659493
 31
0.0
  0
LINE
  5
9862
330
96AF
100
AcDbEntity
  8
1
  6
Continuous
100
AcDbLine
 10
230.11125
 20
270.159493
 30
0.0
 11
231.61125
 21
270.159493
 31
0.0
  0
LINE
  5
9863
330
96AF
100
AcDbEntity
  8
1
  6
Continuous
100
AcDbLine
 10
231.61125
 20
270.159493
 30
0.0
 11
232.11125
 21
270.659493
 31
0.0
  0
LINE
  5
9864
330
96AF
100
AcDbEntity
  8
1
  6
Continuous
100
AcDbLine
 10
231.61125
 20
285.159493
 30
0.0
 11
232.11125
 21
284.659493
 31
0.0
  0
LINE
  5
9865
330
96AF
100
AcDbEntity
  8
1
  6
Continuous
100
AcDbLine
 10
231.61125
 20
285.159493
 30
0.0
 11
231.61125
 21
270.159493
 31
0.0
  0
LINE
  5
9866
330
96AF
100
AcDbEntity
  8
1
  6
Continuous
100
AcDbLine
 10
230.11125
 20
269.6594929999998
 30
0.0
 11
228.11125
 21
269.6594929999998
 31
0.0
  0
LINE
  5
9867
330
96AF
100
AcDbEntity
  8
1
  6
Continuous
100
AcDbLine
 10
230.11125
 20
304.7214929999999
 30
0.0
 11
228.11125
 21
304.7214929999999
 31
0.0
  0
LINE
  5
9868
330
96AF
100
AcDbEntity
  8
1
  6
Continuous
100
AcDbLine
 10
275.11125
 20
57.512793
 30
0.0
 11
225.91125
 21
57.512793
 31
0.0
  0
LINE
  5
9869
330
96AF
100
AcDbEntity
  8
1
  6
Continuous
100
AcDbLine
 10
223.61125
 20
59.812793
 30
0.0
 11
223.61125
 21
102.512493
 31
0.0
  0
LINE
  5
986A
330
96AF
100
AcDbEntity
  8
1
  6
Continuous
100
AcDbLine
 10
225.91125
 20
59.812793
 30
0.0
 11
225.91125
 21
102.512493
 31
0.0
  0
LINE
  5
986B
330
96AF
100
AcDbEntity
  8
1
  6
Continuous
100
AcDbLine
 10
275.11125
 20
59.812793
 30
0.0
 11
225.91125
 21
59.812793
 31
0.0
  0
LINE
  5
986C
330
96AF
100
AcDbEntity
  8
1
  6
Continuous
100
AcDbLine
 10
275.11125
 20
57.512793
 30
0.0
 11
275.11125
 21
59.812793
 31
0.0
  0
LINE
  5
986D
330
96AF
100
AcDbEntity
  8
1
  6
Continuous
100
AcDbLine
 10
228.11125
 20
102.512493
 30
0.0
 11
223.61125
 21
102.512493
 31
0.0
  0
LINE
  5
986E
330
96AF
100
AcDbEntity
  8
1
  6
Continuous
100
AcDbLine
 10
266.8112499999998
 20
36.51279300000001
 30
0.0
 11
232.9582499999999
 21
36.51279300000001
 31
0.0
  0
LINE
  5
986F
330
96AF
100
AcDbEntity
  8
1
  6
Continuous
100
AcDbLine
 10
269.11125
 20
38.812793
 30
0.0
 11
269.11125
 21
57.512793
 31
0.0
  0
LINE
  5
9870
330
96AF
100
AcDbEntity
  8
1
  6
Continuous
100
AcDbLine
 10
231.11125
 20
38.812793
 30
0.0
 11
231.11125
 21
57.512793
 31
0.0
  0
LINE
  5
9871
330
96AF
100
AcDbEntity
  8
4
  6
CENTER
100
AcDbLine
 10
251.11125
 20
29.925393
 30
0.0
 11
251.11125
 21
87.18349299999998
 31
0.0
  0
LINE
  5
9872
330
96AF
100
AcDbEntity
  8
1
  6
Continuous
100
AcDbLine
 10
260.61125
 20
81.712793
 30
0.0
 11
270.6112499999999
 21
81.712793
 31
0.0
  0
LINE
  5
9873
330
96AF
100
AcDbEntity
  8
1
  6
Continuous
100
AcDbLine
 10
260.61125
 20
81.712793
 30
0.0
 11
260.61125
 21
80.21279300000001
 31
0.0
  0
LINE
  5
9874
330
96AF
100
AcDbEntity
  8
1
  6
Continuous
100
AcDbLine
 10
270.6112499999999
 20
81.712793
 30
0.0
 11
270.6112499999999
 21
80.21279300000001
 31
0.0
  0
LINE
  5
9875
330
96AF
100
AcDbEntity
  8
1
  6
Continuous
100
AcDbLine
 10
259.0612499999999
 20
80.21279300000001
 30
0.0
 11
272.1612499999998
 21
80.21279300000001
 31
0.0
  0
LINE
  5
9876
330
96AF
100
AcDbEntity
  8
1
  6
Continuous
100
AcDbLine
 10
258.90425
 20
78.71279300000002
 30
0.0
 11
272.1612499999998
 21
78.71279300000002
 31
0.0
  0
LINE
  5
9877
330
96AF
100
AcDbEntity
  8
1
  6
Continuous
100
AcDbLine
 10
258.90425
 20
77.229493
 30
0.0
 11
272.1612499999998
 21
77.229493
 31
0.0
  0
LINE
  5
9878
330
96AF
100
AcDbEntity
  8
1
  6
Continuous
100
AcDbLine
 10
258.90425
 20
75.74619300000001
 30
0.0
 11
272.1612499999998
 21
75.74619300000001
 31
0.0
  0
LINE
  5
9879
330
96AF
100
AcDbEntity
  8
1
  6
Continuous
100
AcDbLine
 10
270.6112499999999
 20
71.296193
 30
0.0
 11
270.6112499999999
 21
70.512793
 31
0.0
  0
LINE
  5
987A
330
96AF
100
AcDbEntity
  8
1
  6
Continuous
100
AcDbLine
 10
273.6112499999999
 20
63.812793
 30
0.0
 11
273.6112499999999
 21
68.512793
 31
0.0
  0
LINE
  5
987B
330
96AF
100
AcDbEntity
  8
1
  6
Continuous
100
AcDbLine
 10
228.11125
 20
68.512793
 30
0.0
 11
248.18525
 21
68.512793
 31
0.0
  0
LINE
  5
987C
330
96AF
100
AcDbEntity
  8
1
  6
Continuous
100
AcDbLine
 10
228.11125
 20
70.512793
 30
0.0
 11
248.18525
 21
70.512793
 31
0.0
  0
LINE
  5
987D
330
96AF
100
AcDbEntity
  8
1
  6
Continuous
100
AcDbLine
 10
272.6112499999999
 20
70.512793
 30
0.0
 11
272.6112499999999
 21
68.512793
 31
0.0
  0
LINE
  5
987E
330
96AF
100
AcDbEntity
  8
4
  6
CENTER
100
AcDbLine
 10
265.6112499999999
 20
84.77369300000002
 30
0.0
 11
265.6112499999999
 21
51.360193
 31
0.0
  0
LINE
  5
987F
330
96AF
100
AcDbEntity
  8
1
  6
Continuous
100
AcDbLine
 10
240.27725
 20
79.512793
 30
0.0
 11
243.61125
 21
79.512793
 31
0.0
  0
LINE
  5
9880
330
96AF
100
AcDbEntity
  8
1
  6
Continuous
100
AcDbLine
 10
243.61125
 20
81.512793
 30
0.0
 11
243.61125
 21
70.512793
 31
0.0
  0
LINE
  5
9881
330
96AF
100
AcDbEntity
  8
1
  6
Continuous
100
AcDbLine
 10
256.15125
 20
89.21349300000001
 30
0.0
 11
256.15125
 21
81.512793
 31
0.0
  0
LINE
  5
9882
330
96AF
100
AcDbEntity
  8
1
  6
Continuous
100
AcDbLine
 10
266.61125
 20
86.51899300000001
 30
0.0
 11
266.61125
 21
81.712793
 31
0.0
  0
LINE
  5
9883
330
96AF
100
AcDbEntity
  8
1
  6
Continuous
100
AcDbLine
 10
256.15125
 20
89.21349300000001
 30
0.0
 11
263.48725
 21
89.51639299999998
 31
0.0
  0
LINE
  5
9884
330
96AF
100
AcDbEntity
  8
1
  6
Continuous
100
AcDbLine
 10
240.27725
 20
81.512793
 30
0.0
 11
260.61125
 21
81.512793
 31
0.0
  0
LINE
  5
9885
330
96AF
100
AcDbEntity
  8
1
  6
Continuous
100
AcDbLine
 10
258.85825
 20
62.012793
 30
0.0
 11
238.3942499999998
 21
62.012793
 31
0.0
  0
LINE
  5
9886
330
96AF
100
AcDbEntity
  8
1
  6
Continuous
100
AcDbLine
 10
246.9442499999999
 20
72.029493
 30
0.0
 11
258.3112499999999
 21
72.029493
 31
0.0
  0
LINE
  5
9887
330
96AF
100
AcDbEntity
  8
1
  6
Continuous
100
AcDbLine
 10
244.86125
 20
62.512793
 30
0.0
 11
244.86125
 21
62.012793
 31
0.0
  0
LINE
  5
9888
330
96AF
100
AcDbEntity
  8
1
  6
Continuous
100
AcDbLine
 10
257.3612499999999
 20
62.512793
 30
0.0
 11
257.3612499999999
 21
62.012793
 31
0.0
  0
LINE
  5
9889
330
96AF
100
AcDbEntity
  8
1
  6
Continuous
100
AcDbLine
 10
228.11125
 20
63.812793
 30
0.0
 11
273.6112499999999
 21
63.812793
 31
0.0
  0
LINE
  5
988A
330
96AF
100
AcDbEntity
  8
4
  6
CENTER
100
AcDbLine
 10
234.56325
 20
92.51249300000001
 30
0.0
 11
220.26025
 21
92.51249300000001
 31
0.0
  0
LINE
  5
988B
330
96AF
100
AcDbEntity
  8
1
  6
Continuous
100
AcDbLine
 10
228.11125
 20
73.290593
 30
0.0
 11
228.11125
 21
102.512493
 31
0.0
  0
LINE
  5
988C
330
96AF
100
AcDbEntity
  8
1
  6
Continuous
100
AcDbLine
 10
227.37925
 20
79.527893
 30
0.0
 11
225.91125
 21
78.06009300000003
 31
0.0
  0
LINE
  5
988D
330
96AF
100
AcDbEntity
  8
1
  6
Continuous
100
AcDbLine
 10
227.37925
 20
71.74499299999998
 30
0.0
 11
225.91125
 21
73.212793
 31
0.0
  0
LINE
  5
988E
330
96AF
100
AcDbEntity
  8
1
  6
Continuous
100
AcDbLine
 10
228.11125
 20
59.812793
 30
0.0
 11
228.11125
 21
69.977293
 31
0.0
  0
LINE
  5
988F
330
96AF
100
AcDbEntity
  8
1
  6
Continuous
100
AcDbLine
 10
230.11125
 20
73.290593
 30
0.0
 11
230.11125
 21
100.512493
 31
0.0
  0
LINE
  5
9890
330
96AF
100
AcDbEntity
  8
1
  6
Continuous
100
AcDbLine
 10
232.11125
 20
85.512793
 30
0.0
 11
232.11125
 21
99.512493
 31
0.0
  0
LINE
  5
9891
330
96AF
100
AcDbEntity
  8
1
  6
Continuous
100
AcDbLine
 10
230.11125
 20
100.012493
 30
0.0
 11
231.61125
 21
100.012493
 31
0.0
  0
LINE
  5
9892
330
96AF
100
AcDbEntity
  8
1
  6
Continuous
100
AcDbLine
 10
231.61125
 20
100.012493
 30
0.0
 11
232.11125
 21
99.512493
 31
0.0
  0
LINE
  5
9893
330
96AF
100
AcDbEntity
  8
1
  6
Continuous
100
AcDbLine
 10
231.61125
 20
85.012793
 30
0.0
 11
231.61125
 21
100.012493
 31
0.0
  0
LINE
  5
9894
330
96AF
100
AcDbEntity
  8
1
  6
Continuous
100
AcDbLine
 10
230.11125
 20
100.512493
 30
0.0
 11
228.11125
 21
100.512493
 31
0.0
  0
LINE
  5
9895
330
96AF
100
AcDbEntity
  8
1
  6
Continuous
100
AcDbLine
 10
233.4112499999999
 20
38.812793
 30
0.0
 11
233.4112499999999
 21
57.512793
 31
0.0
  0
LINE
  5
9896
330
96AF
100
AcDbEntity
  8
1
  6
Continuous
100
AcDbLine
 10
269.11125
 20
38.812793
 30
0.0
 11
264.51125
 21
38.812793
 31
0.0
  0
LINE
  5
9897
330
96AF
100
AcDbEntity
  8
1
  6
Continuous
100
AcDbLine
 10
266.8112499999998
 20
38.812793
 30
0.0
 11
266.8112499999998
 21
57.512793
 31
0.0
  0
LINE
  5
9898
330
96AF
100
AcDbEntity
  8
1
  6
Continuous
100
AcDbLine
 10
235.7112499999999
 20
38.812793
 30
0.0
 11
231.11125
 21
38.812793
 31
0.0
  0
LINE
  5
9899
330
96AF
100
AcDbEntity
  8
1
  6
Continuous
100
AcDbLine
 10
274.56425
 20
59.812793
 30
0.0
 11
272.59625
 21
61.78059300000001
 31
0.0
  0
LINE
  5
989A
330
96AF
100
AcDbEntity
  8
1
  6
Continuous
100
AcDbLine
 10
258.62625
 20
61.78059300000001
 30
0.0
 11
256.6582499999999
 21
59.812793
 31
0.0
  0
LINE
  5
989B
330
96AF
100
AcDbEntity
  8
1
  6
Continuous
100
AcDbLine
 10
254.58625
 20
76.81279299999999
 30
0.0
 11
254.58625
 21
72.029493
 31
0.0
  0
LINE
  5
989C
330
96AF
100
AcDbEntity
  8
1
  6
Continuous
100
AcDbLine
 10
246.2022499999999
 20
76.81279299999999
 30
0.0
 11
254.58625
 21
76.81279299999999
 31
0.0
  0
LINE
  5
989D
330
96AF
100
AcDbEntity
  8
1
  6
Continuous
100
AcDbLine
 10
254.58625
 20
68.312793
 30
0.0
 11
273.6112499999999
 21
68.312793
 31
0.0
  0
LINE
  5
989E
330
96AF
100
AcDbEntity
  8
1
  6
Continuous
100
AcDbLine
 10
260.61125
 20
71.296193
 30
0.0
 11
260.61125
 21
70.512793
 31
0.0
  0
LINE
  5
989F
330
96AF
100
AcDbEntity
  8
1
  6
Continuous
100
AcDbLine
 10
254.58625
 20
70.512793
 30
0.0
 11
272.6112499999999
 21
70.512793
 31
0.0
  0
LINE
  5
98A0
330
96AF
100
AcDbEntity
  8
1
  6
Continuous
100
AcDbLine
 10
254.58625
 20
68.512793
 30
0.0
 11
273.6112499999999
 21
68.512793
 31
0.0
  0
LINE
  5
98A1
330
96AF
100
AcDbEntity
  8
1
  6
Continuous
100
AcDbLine
 10
254.58625
 20
70.529493
 30
0.0
 11
254.58625
 21
63.812793
 31
0.0
  0
LINE
  5
98A2
330
96AF
100
AcDbEntity
  8
1
  6
Continuous
100
AcDbLine
 10
230.11125
 20
73.290593
 30
0.0
 11
228.11125
 21
73.290593
 31
0.0
  0
LINE
  5
98A3
330
96AF
100
AcDbEntity
  8
1
  6
Continuous
100
AcDbLine
 10
323.94925
 20
161.6334929999998
 30
0.0
 11
320.32625
 21
161.6334929999998
 31
0.0
  0
LINE
  5
98A4
330
96AF
100
AcDbEntity
  8
1
  6
Continuous
100
AcDbLine
 10
324.97325
 20
159.333493
 30
0.0
 11
320.12225
 21
159.333493
 31
0.0
  0
LINE
  5
98A5
330
96AF
100
AcDbEntity
  8
1
  6
Continuous
100
AcDbLine
 10
334.56725
 20
209.5384929999999
 30
0.0
 11
333.4682499999999
 21
209.5384929999999
 31
0.0
  0
LINE
  5
98A6
330
96AF
100
AcDbEntity
  8
1
  6
Continuous
100
AcDbLine
 10
334.34625
 20
207.5384929999999
 30
0.0
 11
331.66825
 21
207.5384929999999
 31
0.0
  0
LINE
  5
98A7
330
96AF
100
AcDbEntity
  8
1
  6
Continuous
100
AcDbLine
 10
362.3112499999999
 20
178.1384929999999
 30
0.0
 11
360.34325
 21
176.171493
 31
0.0
  0
LINE
  5
98A8
330
96AF
100
AcDbEntity
  8
1
  6
Continuous
100
AcDbLine
 10
362.3112499999999
 20
160.0334929999999
 30
0.0
 11
360.34325
 21
162.0014929999999
 31
0.0
  0
LINE
  5
98A9
330
96AF
100
AcDbEntity
  8
1
  6
Continuous
100
AcDbLine
 10
341.1112499999999
 20
188.5864929999999
 30
0.0
 11
335.4602499999999
 21
188.5864929999999
 31
0.0
  0
LINE
  5
98AA
330
96AF
100
AcDbEntity
  8
3
  6
DASHED
100
AcDbLine
 10
227.91125
 20
201.8364929999999
 30
0.0
 11
225.88525
 21
196.7714929999999
 31
0.0
  0
LINE
  5
98AB
330
96AF
100
AcDbEntity
  8
1
  6
Continuous
100
AcDbLine
 10
227.91125
 20
196.0864929999999
 30
0.0
 11
240.73625
 21
196.0864929999999
 31
0.0
  0
LINE
  5
98AC
330
96AF
100
AcDbEntity
  8
1
  6
Continuous
100
AcDbLine
 10
55.81125
 20
154.886493
 30
0.0
 11
55.81125
 21
152.586493
 31
0.0
  0
LINE
  5
98AD
330
96AF
100
AcDbEntity
  8
1
  6
Continuous
100
AcDbLine
 10
22.41115
 20
154.886493
 30
0.0
 11
22.41115
 21
152.586493
 31
0.0
  0
LINE
  5
98AE
330
96AF
100
AcDbEntity
  8
4
  6
CENTER
100
AcDbLine
 10
33.61124999999999
 20
192.5864929999999
 30
0.0
 11
46.61125
 21
192.5864929999999
 31
0.0
  0
LINE
  5
98AF
330
96AF
100
AcDbEntity
  8
4
  6
CENTER
100
AcDbLine
 10
40.11124999999998
 20
199.0864929999999
 30
0.0
 11
40.11124999999998
 21
186.0864929999999
 31
0.0
  0
LINE
  5
98B0
330
96AF
100
AcDbEntity
  8
4
  6
CENTER
100
AcDbLine
 10
255.61125
 20
169.086493
 30
0.0
 11
275.6112499999999
 21
169.086493
 31
0.0
  0
LINE
  5
98B1
330
96AF
100
AcDbEntity
  8
4
  6
CENTER
100
AcDbLine
 10
265.6112499999999
 20
179.0864929999999
 30
0.0
 11
265.6112499999999
 21
159.0864929999999
 31
0.0
  0
LINE
  5
98B2
330
96AF
100
AcDbEntity
  8
4
  6
CENTER
100
AcDbLine
 10
162.61125
 20
178.5864929999999
 30
0.0
 11
162.61125
 21
158.5864929999999
 31
0.0
  0
LINE
  5
98B3
330
96AF
100
AcDbEntity
  8
1
  6
Continuous
100
AcDbLine
 10
146.7042499999998
 20
145.814493
 30
0.0
 11
143.64625
 21
135.7094929999999
 31
0.0
  0
LINE
  5
98B4
330
96AF
100
AcDbEntity
  8
1
  6
Continuous
100
AcDbLine
 10
154.87025
 20
131.5314929999999
 30
0.0
 11
163.46825
 21
150.8434929999999
 31
0.0
  0
LINE
  5
98B5
330
96AF
100
AcDbEntity
  8
4
  6
CENTER
100
AcDbLine
 10
149.38925
 20
138.9714929999997
 30
0.0
 11
149.38925
 21
128.9714929999999
 31
0.0
  0
LINE
  5
98B6
330
96AF
100
AcDbEntity
  8
4
  6
CENTER
100
AcDbLine
 10
144.38925
 20
133.9714929999999
 30
0.0
 11
154.38925
 21
133.9714929999999
 31
0.0
  0
LINE
  5
98B7
330
96AF
100
AcDbEntity
  8
4
  6
CENTER
100
AcDbLine
 10
231.7532499999999
 20
79.290593
 30
0.0
 11
226.55625
 21
79.290593
 31
0.0
  0
LINE
  5
98B8
330
96AF
100
AcDbEntity
  8
1
  6
Continuous
100
AcDbLine
 10
258.90425
 20
74.279493
 30
0.0
 11
272.1612499999998
 21
74.279493
 31
0.0
  0
LINE
  5
98B9
330
96AF
100
AcDbEntity
  8
1
  6
Continuous
100
AcDbLine
 10
246.9442499999999
 20
70.529493
 30
0.0
 11
261.6112499999999
 21
70.529493
 31
0.0
  0
LINE
  5
98BA
330
96AF
100
AcDbEntity
  8
1
  6
Continuous
100
AcDbLine
 10
259.0612499999999
 20
72.779493
 30
0.0
 11
272.1612499999998
 21
72.779493
 31
0.0
  0
LINE
  5
98BB
330
96AF
100
AcDbEntity
  8
1
  6
Continuous
100
AcDbLine
 10
259.0612499999999
 20
71.279493
 30
0.0
 11
272.1612499999998
 21
71.279493
 31
0.0
  0
LINE
  5
98BC
330
96AF
100
AcDbEntity
  8
1
  6
Continuous
100
AcDbLine
 10
350.84425
 20
175.636493
 30
0.0
 11
350.84425
 21
162.4854929999998
 31
0.0
  0
LINE
  5
98BD
330
96AF
100
AcDbEntity
  8
1
  6
Continuous
100
AcDbLine
 10
350.0942499999999
 20
161.786493
 30
0.0
 11
350.0942499999999
 21
151.999493
 31
0.0
  0
LINE
  5
98BE
330
96AF
100
AcDbEntity
  8
1
  6
Continuous
100
AcDbLine
 10
351.5942499999999
 20
164.086493
 30
0.0
 11
351.5942499999999
 21
151.999493
 31
0.0
  0
LINE
  5
98BF
330
96AF
100
AcDbEntity
  8
1
  6
Continuous
100
AcDbLine
 10
358.3112499999999
 20
159.551493
 30
0.0
 11
353.8112499999999
 21
159.551493
 31
0.0
  0
LINE
  5
98C0
330
96AF
100
AcDbEntity
  8
1
  6
Continuous
100
AcDbLine
 10
248.76225
 20
73.312793
 30
0.0
 11
248.76225
 21
72.029493
 31
0.0
  0
LINE
  5
98C1
330
96AF
100
AcDbEntity
  8
1
  6
Continuous
100
AcDbLine
 10
246.77825
 20
76.81279299999999
 30
0.0
 11
248.76225
 21
73.329493
 31
0.0
  0
LINE
  5
98C2
330
96AF
100
AcDbEntity
  8
1
  6
Continuous
100
AcDbLine
 10
246.2022499999999
 20
76.81279299999999
 30
0.0
 11
248.18525
 21
73.329493
 31
0.0
  0
LINE
  5
98C3
330
96AF
100
AcDbEntity
  8
1
  6
Continuous
100
AcDbLine
 10
248.18525
 20
73.312793
 30
0.0
 11
248.18525
 21
72.029493
 31
0.0
  0
LINE
  5
98C4
330
96AF
100
AcDbEntity
  8
4
  6
CENTER
100
AcDbLine
 10
40.11124999999998
 20
181.0864929999999
 30
0.0
 11
40.11124999999998
 21
166.0864929999999
 31
0.0
  0
LINE
  5
98C5
330
96AF
100
AcDbEntity
  8
4
  6
CENTER
100
AcDbLine
 10
47.61124999999998
 20
173.5864929999999
 30
0.0
 11
32.61124999999999
 21
173.5864929999999
 31
0.0
  0
LINE
  5
98C6
330
96AF
100
AcDbEntity
  8
4
  6
CENTER
100
AcDbLine
 10
118.40925
 20
173.5864929999999
 30
0.0
 11
105.60575
 21
173.5864929999999
 31
0.0
  0
LINE
  5
98C7
330
96AF
100
AcDbEntity
  8
1
  6
Continuous
100
AcDbLine
 10
142.11125
 20
234.0864929999999
 30
0.0
 11
151.94325
 21
232.951493
 31
0.0
  0
LINE
  5
98C8
330
96AF
100
AcDbEntity
  8
1
  6
Continuous
100
AcDbLine
 10
155.46125
 20
229.4164929999999
 30
0.0
 11
157.5012499999999
 21
210.9304929999999
 31
0.0
  0
LINE
  5
98C9
330
96AF
100
AcDbEntity
  8
1
  6
Continuous
100
AcDbLine
 10
142.2802499999999
 20
227.843493
 30
0.0
 11
142.11125
 21
234.0864929999999
 31
0.0
  0
LINE
  5
98CA
330
96AF
100
AcDbEntity
  8
1
  6
Continuous
100
AcDbLine
 10
144.34225
 20
225.5514929999999
 30
0.0
 11
144.1182499999999
 21
233.8544929999999
 31
0.0
  0
LINE
  5
98CB
330
96AF
100
AcDbEntity
  8
1
  6
Continuous
100
AcDbLine
 10
32.61124999999999
 20
234.0864929999999
 30
0.0
 11
28.61124999999999
 21
234.0864929999999
 31
0.0
  0
LINE
  5
98CC
330
96AF
100
AcDbEntity
  8
1
  6
Continuous
100
AcDbLine
 10
28.61124999999999
 20
234.0864929999999
 30
0.0
 11
30.80004999999999
 21
218.7644929999999
 31
0.0
  0
LINE
  5
98CD
330
96AF
100
AcDbEntity
  8
4
  6
CENTER
100
AcDbLine
 10
235.61125
 20
65.05069300000001
 30
0.0
 11
235.61125
 21
53.574193
 31
0.0
  0
LINE
  5
98CE
330
96AF
100
AcDbEntity
  8
4
  6
CENTER
100
AcDbLine
 10
235.61125
 20
306.3574929999999
 30
0.0
 11
235.61125
 21
315.034493
 31
0.0
  0
LINE
  5
98CF
330
96AF
100
AcDbEntity
  8
5
  6
PHANTOM
100
AcDbLine
 10
242.85825
 20
230.047493
 30
0.0
 11
246.53925
 21
208.5024929999999
 31
0.0
  0
LINE
  5
98D0
330
96AF
100
AcDbEntity
  8
5
  6
PHANTOM
100
AcDbLine
 10
240.93525
 20
229.4294929999999
 30
0.0
 11
244.5782499999999
 21
208.101493
 31
0.0
  0
LINE
  5
98D1
330
96AF
100
AcDbEntity
  8
5
  6
PHANTOM
100
AcDbLine
 10
239.00925
 20
217.3064929999999
 30
0.0
 11
240.7412499999999
 21
207.170493
 31
0.0
  0
LINE
  5
98D2
330
96AF
100
AcDbEntity
  8
5
  6
PHANTOM
100
AcDbLine
 10
239.05025
 20
228.823493
 30
0.0
 11
242.85825
 21
230.047493
 31
0.0
  0
LINE
  5
98D3
330
96AF
100
AcDbEntity
  8
1
  6
Continuous
100
AcDbLine
 10
350.0942499999999
 20
155.113493
 30
0.0
 11
348.8112499999999
 21
155.113493
 31
0.0
  0
LINE
  5
98D4
330
96AF
100
AcDbEntity
  8
1
  6
Continuous
100
AcDbLine
 10
350.0942499999999
 20
160.344493
 30
0.0
 11
345.3112499999999
 21
160.344493
 31
0.0
  0
LINE
  5
98D5
330
96AF
100
AcDbEntity
  8
1
  6
Continuous
100
AcDbLine
 10
355.1112499999999
 20
180.152493
 30
0.0
 11
354.26725
 21
182.0494929999999
 31
0.0
  0
LINE
  5
98D6
330
96AF
100
AcDbEntity
  8
1
  6
Continuous
100
AcDbLine
 10
138.61125
 20
174.5864929999999
 30
0.0
 11
138.61125
 21
159.0864929999999
 31
0.0
  0
LINE
  5
98D7
330
96AF
100
AcDbEntity
  8
1
  6
Continuous
100
AcDbLine
 10
140.61125
 20
174.5864929999999
 30
0.0
 11
140.61125
 21
159.0864929999999
 31
0.0
  0
LINE
  5
98D8
330
96AF
100
AcDbEntity
  8
1
  6
Continuous
100
AcDbLine
 10
133.9112499999999
 20
174.5864929999999
 30
0.0
 11
133.9112499999999
 21
158.339493
 31
0.0
  0
LINE
  5
98D9
330
96AF
100
AcDbEntity
  8
1
  6
Continuous
100
AcDbLine
 10
155.11125
 20
204.586493
 30
0.0
 11
155.11125
 21
196.0864929999999
 31
0.0
  0
LINE
  5
98DA
330
96AF
100
AcDbEntity
  8
1
  6
Continuous
100
AcDbLine
 10
153.11125
 20
204.586493
 30
0.0
 11
153.11125
 21
196.0864929999999
 31
0.0
  0
LINE
  5
98DB
330
96AF
100
AcDbEntity
  8
1
  6
Continuous
100
AcDbLine
 10
230.11125
 20
301.8594929999999
 30
0.0
 11
244.14025
 21
301.8594929999999
 31
0.0
  0
LINE
  5
98DC
330
96AF
100
AcDbEntity
  8
1
  6
Continuous
100
AcDbLine
 10
270.1112499999999
 20
306.3594929999998
 30
0.0
 11
273.6112499999999
 21
306.3594929999998
 31
0.0
  0
LINE
  5
98DD
330
96AF
100
AcDbEntity
  8
1
  6
Continuous
100
AcDbLine
 10
270.82825
 20
307.659493
 30
0.0
 11
270.1112499999999
 21
307.659493
 31
0.0
  0
LINE
  5
98DE
330
96AF
100
AcDbEntity
  8
1
  6
Continuous
100
AcDbLine
 10
353.6112499999999
 20
161.0864929999999
 30
0.0
 11
353.8112499999999
 21
161.0864929999999
 31
0.0
  0
LINE
  5
98DF
330
96AF
100
AcDbEntity
  8
1
  6
Continuous
100
AcDbLine
 10
268.6112499999999
 20
301.8594929999999
 30
0.0
 11
273.6112499999999
 21
301.8594929999999
 31
0.0
  0
LINE
  5
98E0
330
96AF
100
AcDbEntity
  8
1
  6
Continuous
100
AcDbLine
 10
228.11125
 20
306.3594929999998
 30
0.0
 11
233.4662499999998
 21
306.3594929999998
 31
0.0
  0
LINE
  5
98E1
330
96AF
100
AcDbEntity
  8
1
  6
Continuous
100
AcDbLine
 10
242.76325
 20
307.659493
 30
0.0
 11
242.76325
 21
303.159493
 31
0.0
  0
LINE
  5
98E2
330
96AF
100
AcDbEntity
  8
1
  6
Continuous
100
AcDbLine
 10
261.1112499999999
 20
307.659493
 30
0.0
 11
233.4662499999998
 21
307.659493
 31
0.0
  0
LINE
  5
98E3
330
96AF
100
AcDbEntity
  8
1
  6
Continuous
100
AcDbLine
 10
262.61125
 20
303.159493
 30
0.0
 11
233.4662499999998
 21
303.159493
 31
0.0
  0
LINE
  5
98E4
330
96AF
100
AcDbEntity
  8
1
  6
Continuous
100
AcDbLine
 10
230.11125
 20
285.159493
 30
0.0
 11
240.04525
 21
285.159493
 31
0.0
  0
LINE
  5
98E5
330
96AF
100
AcDbEntity
  8
1
  6
Continuous
100
AcDbLine
 10
230.11125
 20
287.159493
 30
0.0
 11
240.04525
 21
287.159493
 31
0.0
  0
LINE
  5
98E6
330
96AF
100
AcDbEntity
  8
1
  6
Continuous
100
AcDbLine
 10
237.90225
 20
287.644493
 30
0.0
 11
238.83725
 21
289.202493
 31
0.0
  0
LINE
  5
98E7
330
96AF
100
AcDbEntity
  8
1
  6
Continuous
100
AcDbLine
 10
240.90225
 20
287.644493
 30
0.0
 11
241.83725
 21
289.202493
 31
0.0
  0
LINE
  5
98E8
330
96AF
100
AcDbEntity
  8
1
  6
Continuous
100
AcDbLine
 10
242.61725
 20
286.615493
 30
0.0
 11
243.5522499999999
 21
288.173493
 31
0.0
  0
LINE
  5
98E9
330
96AF
100
AcDbEntity
  8
1
  6
Continuous
100
AcDbLine
 10
241.72525
 20
206.0404929999999
 30
0.0
 11
237.7432499999999
 21
196.0864929999999
 31
0.0
  0
LINE
  5
98EA
330
96AF
100
AcDbEntity
  8
1
  6
Continuous
100
AcDbLine
 10
243.84325
 20
206.086493
 30
0.0
 11
239.84325
 21
196.0864929999999
 31
0.0
  0
LINE
  5
98EB
330
96AF
100
AcDbEntity
  8
1
  6
Continuous
100
AcDbLine
 10
257.6112499999999
 20
68.512793
 30
0.0
 11
257.6112499999999
 21
68.312793
 31
0.0
  0
LINE
  5
98EC
330
96AF
100
AcDbEntity
  8
1
  6
Continuous
100
AcDbLine
 10
270.82825
 20
62.512793
 30
0.0
 11
233.4662499999998
 21
62.512793
 31
0.0
  0
LINE
  5
98ED
330
96AF
100
AcDbEntity
  8
1
  6
Continuous
100
AcDbLine
 10
261.6112499999999
 20
63.812793
 30
0.0
 11
261.6112499999999
 21
62.512793
 31
0.0
  0
LINE
  5
98EE
330
96AF
100
AcDbEntity
  8
1
  6
Continuous
100
AcDbLine
 10
269.6112499999999
 20
63.812793
 30
0.0
 11
269.6112499999999
 21
62.512793
 31
0.0
  0
LINE
  5
98EF
330
96AF
100
AcDbEntity
  8
1
  6
Continuous
100
AcDbLine
 10
228.11125
 20
68.312793
 30
0.0
 11
248.18525
 21
68.312793
 31
0.0
  0
LINE
  5
98F0
330
96AF
100
AcDbEntity
  8
1
  6
Continuous
100
AcDbLine
 10
248.1952499999999
 20
73.312793
 30
0.0
 11
248.77125
 21
73.312793
 31
0.0
  0
LINE
  5
98F1
330
96AF
100
AcDbEntity
  8
1
  6
Continuous
100
AcDbLine
 10
248.76225
 20
70.529493
 30
0.0
 11
248.76225
 21
63.812793
 31
0.0
  0
LINE
  5
98F2
330
96AF
100
AcDbEntity
  8
1
  6
Continuous
100
AcDbLine
 10
248.18525
 20
70.529493
 30
0.0
 11
248.18525
 21
68.312793
 31
0.0
  0
LINE
  5
98F3
330
96AF
100
AcDbEntity
  8
1
  6
Continuous
100
AcDbLine
 10
230.11125
 20
83.012793
 30
0.0
 11
235.91225
 21
83.012793
 31
0.0
  0
LINE
  5
98F4
330
96AF
100
AcDbEntity
  8
1
  6
Continuous
100
AcDbLine
 10
230.11125
 20
85.012793
 30
0.0
 11
240.04525
 21
85.012793
 31
0.0
  0
LINE
  5
98F5
330
96AF
100
AcDbEntity
  8
1
  6
Continuous
100
AcDbLine
 10
238.48525
 20
83.55629300000002
 30
0.0
 11
239.42025
 21
81.99829300000002
 31
0.0
  0
LINE
  5
98F6
330
96AF
100
AcDbEntity
  8
1
  6
Continuous
100
AcDbLine
 10
236.77025
 20
82.527293
 30
0.0
 11
237.70525
 21
80.96929299999997
 31
0.0
  0
LINE
  5
98F7
330
96AF
100
AcDbEntity
  8
1
  6
Continuous
100
AcDbLine
 10
231.61125
 20
85.012793
 30
0.0
 11
232.11125
 21
85.512793
 31
0.0
  0
LINE
  5
98F8
330
96AF
100
AcDbEntity
  8
1
  6
Continuous
100
AcDbLine
 10
242.61725
 20
83.55629300000002
 30
0.0
 11
243.5522499999999
 21
81.99829300000002
 31
0.0
  0
LINE
  5
98F9
330
96AF
100
AcDbEntity
  8
1
  6
Continuous
100
AcDbLine
 10
360.61125
 20
146.5864929999999
 30
0.0
 11
360.61125
 21
138.5864929999998
 31
0.0
  0
LINE
  5
98FA
330
96AF
100
AcDbEntity
  8
1
  6
Continuous
100
AcDbLine
 10
233.4662499999998
 20
63.812793
 30
0.0
 11
233.4662499999998
 21
62.512793
 31
0.0
  0
LINE
  5
98FB
330
96AF
100
AcDbEntity
  8
1
  6
Continuous
100
AcDbLine
 10
135.61125
 20
202.6674929999999
 30
0.0
 11
135.61125
 21
201.7284929999999
 31
0.0
  0
LINE
  5
98FC
330
96AF
100
AcDbEntity
  8
1
  6
Continuous
100
AcDbLine
 10
135.61125
 20
199.4334929999999
 30
0.0
 11
135.61125
 21
198.963493
 31
0.0
  0
LINE
  5
98FD
330
96AF
100
AcDbEntity
  8
1
  6
Continuous
100
AcDbLine
 10
135.61125
 20
193.333493
 30
0.0
 11
135.61125
 21
192.863493
 31
0.0
  0
LINE
  5
98FE
330
96AF
100
AcDbEntity
  8
1
  6
Continuous
100
AcDbLine
 10
135.3152499999999
 20
201.0994929999998
 30
0.0
 11
135.3152499999999
 21
200.309493
 31
0.0
  0
LINE
  5
98FF
330
96AF
100
AcDbEntity
  8
1
  6
Continuous
100
AcDbLine
 10
136.3622499999999
 20
200.6984929999999
 30
0.0
 11
134.8622499999999
 21
200.143493
 31
0.0
  0
LINE
  5
9900
330
96AF
100
AcDbEntity
  8
1
  6
Continuous
100
AcDbLine
 10
136.37225
 20
201.7284929999999
 30
0.0
 11
134.87225
 21
201.7284929999999
 31
0.0
  0
LINE
  5
9901
330
96AF
100
AcDbEntity
  8
1
  6
Continuous
100
AcDbLine
 10
136.36025
 20
200.6984929999999
 30
0.0
 11
134.8622499999999
 21
201.279493
 31
0.0
  0
LINE
  5
9902
330
96AF
100
AcDbEntity
  8
1
  6
Continuous
100
AcDbLine
 10
136.36125
 20
204.2864929999999
 30
0.0
 11
136.36125
 21
203.1044929999999
 31
0.0
  0
LINE
  5
9903
330
96AF
100
AcDbEntity
  8
1
  6
Continuous
100
AcDbLine
 10
136.36125
 20
203.698493
 30
0.0
 11
134.86125
 21
203.698493
 31
0.0
  0
LINE
  5
9904
330
96AF
100
AcDbEntity
  8
1
  6
Continuous
100
AcDbLine
 10
136.37225
 20
202.6674929999999
 30
0.0
 11
134.87225
 21
202.6674929999999
 31
0.0
  0
LINE
  5
9905
330
96AF
100
AcDbEntity
  8
1
  6
Continuous
100
AcDbLine
 10
136.36125
 20
195.1384929999999
 30
0.0
 11
136.36125
 21
194.351493
 31
0.0
  0
LINE
  5
9906
330
96AF
100
AcDbEntity
  8
1
  6
Continuous
100
AcDbLine
 10
136.3622499999999
 20
191.798493
 30
0.0
 11
134.8622499999999
 21
191.798493
 31
0.0
  0
LINE
  5
9907
330
96AF
100
AcDbEntity
  8
1
  6
Continuous
100
AcDbLine
 10
136.3622499999999
 20
191.798493
 30
0.0
 11
136.2022499999999
 21
191.9634929999998
 31
0.0
  0
LINE
  5
9908
330
96AF
100
AcDbEntity
  8
1
  6
Continuous
100
AcDbLine
 10
136.36125
 20
196.2524929999999
 30
0.0
 11
136.36125
 21
196.1864929999999
 31
0.0
  0
LINE
  5
9909
330
96AF
100
AcDbEntity
  8
1
  6
Continuous
100
AcDbLine
 10
136.3592499999997
 20
190.2464929999999
 30
0.0
 11
134.85925
 21
190.2464929999999
 31
0.0
  0
LINE
  5
990A
330
96AF
100
AcDbEntity
  8
1
  6
Continuous
100
AcDbLine
 10
135.96825
 20
196.6154929999999
 30
0.0
 11
135.9052499999999
 21
196.6154929999999
 31
0.0
  0
LINE
  5
990B
330
96AF
100
AcDbEntity
  8
1
  6
Continuous
100
AcDbLine
 10
135.96825
 20
195.8284929999999
 30
0.0
 11
135.22325
 21
195.8284929999999
 31
0.0
  0
LINE
  5
990C
330
96AF
100
AcDbEntity
  8
1
  6
Continuous
100
AcDbLine
 10
135.46625
 20
194.351493
 30
0.0
 11
135.22125
 21
194.351493
 31
0.0
  0
LINE
  5
990D
330
96AF
100
AcDbEntity
  8
1
  6
Continuous
100
AcDbLine
 10
135.31725
 20
196.6154929999999
 30
0.0
 11
135.22325
 21
196.6154929999999
 31
0.0
  0
LINE
  5
990E
330
96AF
100
AcDbEntity
  8
1
  6
Continuous
100
AcDbLine
 10
136.36125
 20
195.1384929999999
 30
0.0
 11
135.46625
 21
195.1384929999999
 31
0.0
  0
LINE
  5
990F
330
96AF
100
AcDbEntity
  8
1
  6
Continuous
100
AcDbLine
 10
134.85925
 20
190.2464929999999
 30
0.0
 11
134.85925
 21
189.286493
 31
0.0
  0
LINE
  5
9910
330
96AF
100
AcDbEntity
  8
1
  6
Continuous
100
AcDbLine
 10
135.9692499999999
 20
198.0914929999999
 30
0.0
 11
135.90725
 21
198.0914929999999
 31
0.0
  0
LINE
  5
9911
330
96AF
100
AcDbEntity
  8
1
  6
Continuous
100
AcDbLine
 10
135.9692499999999
 20
197.304493
 30
0.0
 11
135.90725
 21
197.304493
 31
0.0
  0
LINE
  5
9912
330
96AF
100
AcDbEntity
  8
1
  6
Continuous
100
AcDbLine
 10
134.86125
 20
198.0914929999999
 30
0.0
 11
134.86125
 21
197.304493
 31
0.0
  0
LINE
  5
9913
330
96AF
100
AcDbEntity
  8
1
  6
Continuous
100
AcDbLine
 10
134.86125
 20
198.0914929999999
 30
0.0
 11
135.64825
 21
197.4024929999999
 31
0.0
  0
ARC
  5
9914
330
96AF
100
AcDbEntity
  8
1
  6
Continuous
100
AcDbCircle
 10
130.38425
 20
233.586493
 30
0.0
 40
5.0
100
AcDbArc
 50
41.9872
 51
90.0
  0
ARC
  5
9915
330
96AF
100
AcDbEntity
  8
1
  6
Continuous
100
AcDbCircle
 10
160.87925
 20
195.2184929999999
 30
0.0
 40
8.0
100
AcDbArc
 50
5.079609999999999
 51
41.9872
  0
ARC
  5
9916
330
96AF
100
AcDbEntity
  8
1
  6
Continuous
100
AcDbCircle
 10
164.0652499999999
 20
159.3744929999997
 30
0.0
 40
8.0
100
AcDbArc
 50
286.699
 51
5.079609999999999
  0
ARC
  5
9917
330
96AF
100
AcDbEntity
  8
1
  6
Continuous
100
AcDbCircle
 10
152.61125
 20
126.705493
 30
0.0
 40
20.0
100
AcDbArc
 50
106.6989999999997
 51
151.626
  0
ARC
  5
9918
330
96AF
100
AcDbEntity
  8
1
  6
Continuous
100
AcDbCircle
 10
130.6142499999999
 20
138.5864929999997
 30
0.0
 40
5.0
100
AcDbArc
 50
270.0
 51
331.6259999999999
  0
ARC
  5
9919
330
96AF
100
AcDbEntity
  8
1
  6
Continuous
100
AcDbCircle
 10
154.11125
 20
203.5864929999999
 30
0.0
 40
3.0
100
AcDbArc
 50
90.0
 51
180.0
  0
ARC
  5
991A
330
96AF
100
AcDbEntity
  8
1
  6
Continuous
100
AcDbCircle
 10
154.11125
 20
203.5864929999999
 30
0.0
 40
5.0
100
AcDbArc
 50
90.0
 51
169.3549999999999
  0
ARC
  5
991B
330
96AF
100
AcDbEntity
  8
1
  6
Continuous
100
AcDbCircle
 10
140.61125
 20
173.5864929999999
 30
0.0
 40
3.0
100
AcDbArc
 50
0.0
 51
90.0
  0
ARC
  5
991C
330
96AF
100
AcDbEntity
  8
1
  6
Continuous
100
AcDbCircle
 10
140.61125
 20
156.586493
 30
0.0
 40
3.0
100
AcDbArc
 50
270.0
 51
0.000009
  0
ARC
  5
991D
330
96AF
100
AcDbEntity
  8
1
  6
Continuous
100
AcDbCircle
 10
140.61125
 20
156.586493
 30
0.0
 40
5.0
100
AcDbArc
 50
270.0
 51
0.000009
  0
ARC
  5
991E
330
96AF
100
AcDbEntity
  8
1
  6
Continuous
100
AcDbCircle
 10
140.61125
 20
173.5864929999999
 30
0.0
 40
5.0
100
AcDbArc
 50
0.0
 51
90.0
  0
CIRCLE
  5
991F
330
96AF
100
AcDbEntity
  8
1
  6
Continuous
100
AcDbCircle
 10
145.61125
 20
193.5864929999999
 30
0.0
 40
1.0
  0
ARC
  5
9920
330
96AF
100
AcDbEntity
  8
1
  6
Continuous
100
AcDbCircle
 10
25.61125
 20
207.5864929999999
 30
0.0
 40
9.5
100
AcDbArc
 50
91.0609
 51
180.0
  0
ARC
  5
9921
330
96AF
100
AcDbEntity
  8
1
  6
Continuous
100
AcDbCircle
 10
56.49925
 20
228.5864929999999
 30
0.0
 40
10.0
100
AcDbArc
 50
90.0
 51
132.4919999999998
  0
ARC
  5
9922
330
96AF
100
AcDbEntity
  8
1
  6
Continuous
100
AcDbCircle
 10
25.25015
 20
227.082493
 30
0.0
 40
10.0
100
AcDbArc
 50
271.0609999999999
 51
312.492
  0
ARC
  5
9923
330
96AF
100
AcDbEntity
  8
1
  6
Continuous
100
AcDbCircle
 10
25.61125
 20
143.086493
 30
0.0
 40
9.5
100
AcDbArc
 50
180.0
 51
270.0
  0
ARC
  5
9924
330
96AF
100
AcDbEntity
  8
1
  6
Continuous
100
AcDbCircle
 10
25.61125
 20
207.5864929999999
 30
0.0
 40
2.1
100
AcDbArc
 50
17.1171
 51
250.9409999999999
  0
ARC
  5
9925
330
96AF
100
AcDbEntity
  8
1
  6
Continuous
100
AcDbCircle
 10
25.61125
 20
207.5864929999999
 30
0.0
 40
6.0
100
AcDbArc
 50
42.85379999999999
 51
225.204
  0
CIRCLE
  5
9926
330
96AF
100
AcDbEntity
  8
2
  6
Continuous
100
AcDbCircle
 10
55.61125
 20
142.5864929999999
 30
0.0
 40
3.0
  0
CIRCLE
  5
9927
330
96AF
100
AcDbEntity
  8
2
  6
Continuous
100
AcDbCircle
 10
25.61125
 20
142.5864929999999
 30
0.0
 40
3.0
  0
CIRCLE
  5
9928
330
96AF
100
AcDbEntity
  8
2
  6
Continuous
100
AcDbCircle
 10
55.61125
 20
229.586493
 30
0.0
 40
3.0
  0
ARC
  5
9929
330
96AF
100
AcDbEntity
  8
1
  6
Continuous
100
AcDbCircle
 10
7.29206
 20
189.135493
 30
0.0
 40
20.0
100
AcDbArc
 50
40.41279999999999
 51
45.2042
  0
ARC
  5
992A
330
96AF
100
AcDbEntity
  8
1
  6
Continuous
100
AcDbCircle
 10
44.67165
 20
225.269493
 30
0.0
 40
20.0
100
AcDbArc
 50
222.854
 51
227.645
  0
ARC
  5
992B
330
96AF
100
AcDbEntity
  8
1
  6
Continuous
100
AcDbCircle
 10
157.11125
 20
168.5864929999999
 30
0.0
 40
6.0
100
AcDbArc
 50
180.0
 51
270.0
  0
ARC
  5
992C
330
96AF
100
AcDbEntity
  8
1
  6
Continuous
100
AcDbCircle
 10
157.11125
 20
168.5864929999999
 30
0.0
 40
8.0
100
AcDbArc
 50
180.0
 51
255.018
  0
CIRCLE
  5
992D
330
96AF
100
AcDbEntity
  8
1
  6
Continuous
100
AcDbCircle
 10
55.61125
 20
229.586493
 30
0.0
 40
2.458499999999999
  0
CIRCLE
  5
992E
330
96AF
100
AcDbEntity
  8
1
  6
Continuous
100
AcDbCircle
 10
55.61125
 20
142.5864929999999
 30
0.0
 40
2.458499999999999
  0
CIRCLE
  5
992F
330
96AF
100
AcDbEntity
  8
1
  6
Continuous
100
AcDbCircle
 10
25.61125
 20
142.5864929999999
 30
0.0
 40
2.458499999999999
  0
ARC
  5
9930
330
96AF
100
AcDbEntity
  8
1
  6
Continuous
100
AcDbCircle
 10
132.8402499999999
 20
207.8364929999999
 30
0.0
 40
3.925309999999998
100
AcDbArc
 50
12.7289
 51
13.2681
  0
ARC
  5
9931
330
96AF
100
AcDbEntity
  8
1
  6
Continuous
100
AcDbCircle
 10
132.8402499999999
 20
207.8364929999999
 30
0.0
 40
3.925309999999998
100
AcDbArc
 50
13.2681
 51
15.2575
  0
ARC
  5
9932
330
96AF
100
AcDbEntity
  8
1
  6
Continuous
100
AcDbCircle
 10
136.46725
 20
208.825493
 30
0.0
 40
0.165003
100
AcDbArc
 50
15.2575
 51
90.0
  0
ARC
  5
9933
330
96AF
100
AcDbEntity
  8
1
  6
Continuous
100
AcDbCircle
 10
134.75425
 20
208.825493
 30
0.0
 40
0.165003
100
AcDbArc
 50
90.0
 51
164.7419999999998
  0
ARC
  5
9934
330
96AF
100
AcDbEntity
  8
1
  6
Continuous
100
AcDbCircle
 10
138.3812499999999
 20
207.8364929999999
 30
0.0
 40
3.925309999999998
100
AcDbArc
 50
164.7419999999998
 51
164.794
  0
ARC
  5
9935
330
96AF
100
AcDbEntity
  8
1
  6
Continuous
100
AcDbCircle
 10
138.3812499999999
 20
207.8364929999999
 30
0.0
 40
3.925309999999998
100
AcDbArc
 50
164.794
 51
167.2709999999999
  0
ARC
  5
9936
330
96AF
100
AcDbEntity
  8
1
  6
Continuous
100
AcDbCircle
 10
135.61125
 20
209.815493
 30
0.0
 40
0.850059
100
AcDbArc
 50
35.5311
 51
144.462
  0
ARC
  5
9937
330
96AF
100
AcDbEntity
  8
1
  6
Continuous
100
AcDbCircle
 10
135.00225
 20
209.4854929999999
 30
0.0
 40
0.165003
100
AcDbArc
 50
90.0
 51
153.986
  0
ARC
  5
9938
330
96AF
100
AcDbEntity
  8
1
  6
Continuous
100
AcDbCircle
 10
134.79725
 20
209.3534929999999
 30
0.0
 40
0.033014
100
AcDbArc
 50
157.056
 51
270.0
  0
ARC
  5
9939
330
96AF
100
AcDbEntity
  8
1
  6
Continuous
100
AcDbCircle
 10
138.3812499999999
 20
207.8364929999999
 30
0.0
 40
3.925309999999998
100
AcDbArc
 50
153.986
 51
157.056
  0
ARC
  5
993A
330
96AF
100
AcDbEntity
  8
1
  6
Continuous
100
AcDbCircle
 10
138.3812499999999
 20
207.8364929999999
 30
0.0
 40
3.925309999999998
100
AcDbArc
 50
153.986
 51
154.7719999999999
  0
ARC
  5
993B
330
96AF
100
AcDbEntity
  8
1
  6
Continuous
100
AcDbCircle
 10
136.2192499999999
 20
209.4854929999999
 30
0.0
 40
0.165003
100
AcDbArc
 50
26.0144
 51
90.0
  0
ARC
  5
993C
330
96AF
100
AcDbEntity
  8
1
  6
Continuous
100
AcDbCircle
 10
136.42525
 20
209.3534929999999
 30
0.0
 40
0.033014
100
AcDbArc
 50
270.0
 51
22.94399999999999
  0
ARC
  5
993D
330
96AF
100
AcDbEntity
  8
1
  6
Continuous
100
AcDbCircle
 10
132.8402499999999
 20
207.8364929999999
 30
0.0
 40
3.925309999999998
100
AcDbArc
 50
22.94399999999999
 51
26.0144
  0
ARC
  5
993E
330
96AF
100
AcDbEntity
  8
1
  6
Continuous
100
AcDbCircle
 10
136.5422499999999
 20
207.176493
 30
0.0
 40
0.165003
100
AcDbArc
 50
270.0
 51
349.8959999999998
  0
ARC
  5
993F
330
96AF
100
AcDbEntity
  8
1
  6
Continuous
100
AcDbCircle
 10
132.8402499999999
 20
207.8364929999999
 30
0.0
 40
3.925309999999998
100
AcDbArc
 50
349.8959999999998
 51
352.2069999999998
  0
ARC
  5
9940
330
96AF
100
AcDbEntity
  8
1
  6
Continuous
100
AcDbCircle
 10
136.6962499999999
 20
207.3084929999999
 30
0.0
 40
0.033014
100
AcDbArc
 50
352.2069999999998
 51
90.0
  0
ARC
  5
9941
330
96AF
100
AcDbEntity
  8
1
  6
Continuous
100
AcDbCircle
 10
134.67925
 20
207.176493
 30
0.0
 40
0.165003
100
AcDbArc
 50
190.1039999999999
 51
270.0
  0
ARC
  5
9942
330
96AF
100
AcDbEntity
  8
1
  6
Continuous
100
AcDbCircle
 10
134.5252499999997
 20
207.3084929999999
 30
0.0
 40
0.033014
100
AcDbArc
 50
90.0
 51
187.793
  0
ARC
  5
9943
330
96AF
100
AcDbEntity
  8
1
  6
Continuous
100
AcDbCircle
 10
138.3812499999999
 20
207.8364929999999
 30
0.0
 40
3.925309999999998
100
AcDbArc
 50
187.793
 51
190.1039999999999
  0
ARC
  5
9944
330
96AF
100
AcDbEntity
  8
1
  6
Continuous
100
AcDbCircle
 10
135.7762499999997
 20
206.187493
 30
0.0
 40
0.165003
100
AcDbArc
 50
90.0
 51
270.0
  0
ARC
  5
9945
330
96AF
100
AcDbEntity
  8
1
  6
Continuous
100
AcDbCircle
 10
135.61125
 20
205.856493
 30
0.0
 40
0.850126
100
AcDbArc
 50
215.5469999999997
 51
324.4619999999998
  0
ARC
  5
9946
330
96AF
100
AcDbEntity
  8
1
  6
Continuous
100
AcDbCircle
 10
138.3812499999999
 20
207.8364929999999
 30
0.0
 40
4.25518
100
AcDbArc
 50
144.462
 51
215.5379999999999
  0
ARC
  5
9947
330
96AF
100
AcDbEntity
  8
1
  6
Continuous
100
AcDbCircle
 10
134.58525
 20
208.694493
 30
0.0
 40
0.033014
100
AcDbArc
 50
167.2709999999999
 51
270.0
  0
ARC
  5
9948
330
96AF
100
AcDbEntity
  8
1
  6
Continuous
100
AcDbCircle
 10
136.6362499999999
 20
208.694493
 30
0.0
 40
0.033014
100
AcDbArc
 50
270.0
 51
12.7289
  0
ARC
  5
9949
330
96AF
100
AcDbEntity
  8
1
  6
Continuous
100
AcDbCircle
 10
132.8402499999999
 20
207.8364929999999
 30
0.0
 40
4.25518
100
AcDbArc
 50
324.4619999999998
 51
35.5377
  0
ARC
  5
994A
330
96AF
100
AcDbEntity
  8
1
  6
Continuous
100
AcDbCircle
 10
265.6112499999999
 20
207.5864929999999
 30
0.0
 40
9.5
100
AcDbArc
 50
0.0
 51
88.93919999999999
  0
ARC
  5
994B
330
96AF
100
AcDbEntity
  8
1
  6
Continuous
100
AcDbCircle
 10
234.72325
 20
228.5864929999999
 30
0.0
 40
10.0
100
AcDbArc
 50
47.50759999999999
 51
90.0
  0
ARC
  5
994C
330
96AF
100
AcDbEntity
  8
1
  6
Continuous
100
AcDbCircle
 10
265.9722499999999
 20
227.082493
 30
0.0
 40
10.0
100
AcDbArc
 50
236.29
 51
268.939
  0
ARC
  5
994D
330
96AF
100
AcDbEntity
  8
1
  6
Continuous
100
AcDbCircle
 10
265.6112499999999
 20
143.086493
 30
0.0
 40
9.5
100
AcDbArc
 50
270.0
 51
0.0
  0
CIRCLE
  5
994E
330
96AF
100
AcDbEntity
  8
2
  6
Continuous
100
AcDbCircle
 10
235.61125
 20
142.5864929999999
 30
0.0
 40
3.0
  0
CIRCLE
  5
994F
330
96AF
100
AcDbEntity
  8
2
  6
Continuous
100
AcDbCircle
 10
265.6112499999999
 20
142.5864929999999
 30
0.0
 40
3.0
  0
CIRCLE
  5
9950
330
96AF
100
AcDbEntity
  8
2
  6
Continuous
100
AcDbCircle
 10
235.61125
 20
229.586493
 30
0.0
 40
3.0
  0
CIRCLE
  5
9951
330
96AF
100
AcDbEntity
  8
1
  6
Continuous
100
AcDbCircle
 10
235.61125
 20
229.586493
 30
0.0
 40
2.458499999999999
  0
CIRCLE
  5
9952
330
96AF
100
AcDbEntity
  8
1
  6
Continuous
100
AcDbCircle
 10
235.61125
 20
142.5864929999999
 30
0.0
 40
2.458499999999999
  0
CIRCLE
  5
9953
330
96AF
100
AcDbEntity
  8
1
  6
Continuous
100
AcDbCircle
 10
265.6112499999999
 20
142.5864929999999
 30
0.0
 40
2.458499999999999
  0
ARC
  5
9954
330
96AF
100
AcDbEntity
  8
1
  6
Continuous
100
AcDbCircle
 10
361.83825
 20
233.586493
 30
0.0
 40
5.0
100
AcDbArc
 50
90.0
 51
138.013
  0
ARC
  5
9955
330
96AF
100
AcDbEntity
  8
1
  6
Continuous
100
AcDbCircle
 10
331.34325
 20
195.2184929999999
 30
0.0
 40
8.0
100
AcDbArc
 50
138.013
 51
174.9199999999999
  0
ARC
  5
9956
330
96AF
100
AcDbEntity
  8
1
  6
Continuous
100
AcDbCircle
 10
328.1572499999999
 20
159.3744929999997
 30
0.0
 40
8.0
100
AcDbArc
 50
174.9199999999999
 51
253.301
  0
ARC
  5
9957
330
96AF
100
AcDbEntity
  8
1
  6
Continuous
100
AcDbCircle
 10
339.61125
 20
126.705493
 30
0.0
 40
20.0
100
AcDbArc
 50
28.37399999999999
 51
72.82129999999998
  0
ARC
  5
9958
330
96AF
100
AcDbEntity
  8
1
  6
Continuous
100
AcDbCircle
 10
361.60825
 20
138.5864929999997
 30
0.0
 40
5.0
100
AcDbArc
 50
208.374
 51
270.0
  0
ARC
  5
9959
330
96AF
100
AcDbEntity
  8
1
  6
Continuous
100
AcDbCircle
 10
265.6112499999999
 20
169.086493
 30
0.0
 40
5.0
100
AcDbArc
 50
98.6269
 51
261.913
  0
CIRCLE
  5
995A
330
96AF
100
AcDbEntity
  8
1
  6
Continuous
100
AcDbCircle
 10
265.6112499999999
 20
207.5864929999999
 30
0.0
 40
4.0
  0
CIRCLE
  5
995B
330
96AF
100
AcDbEntity
  8
1
  6
Continuous
100
AcDbCircle
 10
265.6112499999999
 20
169.086493
 30
0.0
 40
7.299999999999998
  0
ARC
  5
995C
330
96AF
100
AcDbEntity
  8
1
  6
Continuous
100
AcDbCircle
 10
251.1942499999999
 20
156.2494929999997
 30
0.0
 40
5.0
100
AcDbArc
 50
165.701
 51
345.7009999999999
  0
ARC
  5
995D
330
96AF
100
AcDbEntity
  8
1
  6
Continuous
100
AcDbCircle
 10
251.1942499999999
 20
156.2494929999997
 30
0.0
 40
3.5
100
AcDbArc
 50
200.821
 51
345.7009999999999
  0
ARC
  5
995E
330
96AF
100
AcDbEntity
  8
1
  6
Continuous
100
AcDbCircle
 10
265.6112499999999
 20
169.086493
 30
0.0
 40
5.799999999999998
100
AcDbArc
 50
291.382
 51
266.3009999999998
  0
ARC
  5
995F
330
96AF
100
AcDbEntity
  8
1
  6
Continuous
100
AcDbCircle
 10
267.3612499999999
 20
164.6164929999999
 30
0.0
 40
1.0
100
AcDbArc
 50
180.0
 51
291.382
  0
ARC
  5
9960
330
96AF
100
AcDbEntity
  8
1
  6
Continuous
100
AcDbCircle
 10
267.3612499999999
 20
164.6164929999999
 30
0.0
 40
2.5
100
AcDbArc
 50
180.0
 51
291.382
  0
ARC
  5
9961
330
96AF
100
AcDbEntity
  8
1
  6
Continuous
100
AcDbCircle
 10
265.6112499999999
 20
169.086493
 30
0.0
 40
5.0
100
AcDbArc
 50
279.904
 51
81.37309999999997
  0
ARC
  5
9962
330
96AF
100
AcDbEntity
  8
1
  6
Continuous
100
AcDbCircle
 10
350.0782500000001
 20
175.636493
 30
0.0
 40
0.75
100
AcDbArc
 50
0.0
 51
180.0
  0
ARC
  5
9963
330
96AF
100
AcDbEntity
  8
1
  6
Continuous
100
AcDbCircle
 10
350.0782500000001
 20
162.536493
 30
0.0
 40
0.75
100
AcDbArc
 50
180.0
 51
0.0
  0
ARC
  5
9964
330
96AF
100
AcDbEntity
  8
1
  6
Continuous
100
AcDbCircle
 10
342.66125
 20
175.636493
 30
0.0
 40
0.75
100
AcDbArc
 50
0.0
 51
180.0
  0
ARC
  5
9965
330
96AF
100
AcDbEntity
  8
1
  6
Continuous
100
AcDbCircle
 10
342.66125
 20
162.536493
 30
0.0
 40
0.75
100
AcDbArc
 50
180.0
 51
0.0
  0
ARC
  5
9966
330
96AF
100
AcDbEntity
  8
1
  6
Continuous
100
AcDbCircle
 10
344.1442499999997
 20
175.636493
 30
0.0
 40
0.75
100
AcDbArc
 50
0.0
 51
180.0
  0
ARC
  5
9967
330
96AF
100
AcDbEntity
  8
1
  6
Continuous
100
AcDbCircle
 10
344.1442499999997
 20
162.536493
 30
0.0
 40
0.75
100
AcDbArc
 50
180.0
 51
0.0
  0
ARC
  5
9968
330
96AF
100
AcDbEntity
  8
1
  6
Continuous
100
AcDbCircle
 10
345.6282499999999
 20
175.636493
 30
0.0
 40
0.75
100
AcDbArc
 50
0.0
 51
180.0
  0
ARC
  5
9969
330
96AF
100
AcDbEntity
  8
1
  6
Continuous
100
AcDbCircle
 10
345.6282499999999
 20
162.536493
 30
0.0
 40
0.75
100
AcDbArc
 50
180.0
 51
0.0
  0
ARC
  5
996A
330
96AF
100
AcDbEntity
  8
1
  6
Continuous
100
AcDbCircle
 10
347.1112499999999
 20
175.636493
 30
0.0
 40
0.75
100
AcDbArc
 50
0.0
 51
180.0
  0
ARC
  5
996B
330
96AF
100
AcDbEntity
  8
1
  6
Continuous
100
AcDbCircle
 10
347.1112499999999
 20
162.536493
 30
0.0
 40
0.75
100
AcDbArc
 50
180.0
 51
0.0
  0
ARC
  5
996C
330
96AF
100
AcDbEntity
  8
1
  6
Continuous
100
AcDbCircle
 10
348.59425
 20
175.636493
 30
0.0
 40
0.75
100
AcDbArc
 50
0.0
 51
180.0
  0
ARC
  5
996D
330
96AF
100
AcDbEntity
  8
1
  6
Continuous
100
AcDbCircle
 10
348.59425
 20
162.536493
 30
0.0
 40
0.75
100
AcDbArc
 50
180.0
 51
0.0
  0
CIRCLE
  5
996E
330
96AF
100
AcDbEntity
  8
1
  6
Continuous
100
AcDbCircle
 10
329.61125
 20
168.5864929999999
 30
0.0
 40
7.5
  0
ARC
  5
996F
330
96AF
100
AcDbEntity
  8
1
  6
Continuous
100
AcDbCircle
 10
329.61125
 20
168.5864929999999
 30
0.0
 40
8.0
100
AcDbArc
 50
105.6999999999999
 51
203.9999999999998
  0
ARC
  5
9970
330
96AF
100
AcDbEntity
  8
1
  6
Continuous
100
AcDbCircle
 10
342.83325
 20
133.9714929999999
 30
0.0
 40
6.0
100
AcDbArc
 50
203.9999999999998
 51
16.8382
  0
ARC
  5
9971
330
96AF
100
AcDbEntity
  8
1
  6
Continuous
100
AcDbCircle
 10
343.61425
 20
159.009493
 30
0.0
 40
2.0
100
AcDbArc
 50
158.22
 51
196.8379999999999
  0
CIRCLE
  5
9972
330
96AF
100
AcDbEntity
  8
1
  6
Continuous
100
AcDbCircle
 10
342.83325
 20
133.9714929999999
 30
0.0
 40
3.25
  0
ARC
  5
9973
330
96AF
100
AcDbEntity
  8
1
  6
Continuous
100
AcDbCircle
 10
352.4402499999998
 20
181.2354929999999
 30
0.0
 40
2.0
100
AcDbArc
 50
24.0
 51
105.6999999999999
  0
ARC
  5
9974
330
96AF
100
AcDbEntity
  8
1
  6
Continuous
100
AcDbCircle
 10
265.6112499999999
 20
169.086493
 30
0.0
 40
8.0
100
AcDbArc
 50
277.3579999999999
 51
65.9371
  0
ARC
  5
9975
330
96AF
100
AcDbEntity
  8
1
  6
Continuous
100
AcDbCircle
 10
243.41325
 20
178.863493
 30
0.0
 40
0.5
100
AcDbArc
 50
68.5067
 51
94.3448
  0
ARC
  5
9976
330
96AF
100
AcDbEntity
  8
1
  6
Continuous
100
AcDbCircle
 10
244.21425
 20
168.339493
 30
0.0
 40
10.0
100
AcDbArc
 50
227.163
 51
277.3579999999999
  0
ARC
  5
9977
330
96AF
100
AcDbEntity
  8
1
  6
Continuous
100
AcDbCircle
 10
235.8402499999999
 20
176.783493
 30
0.0
 40
2.0
100
AcDbArc
 50
94.3448
 51
150.492
  0
ARC
  5
9978
330
96AF
100
AcDbEntity
  8
1
  6
Continuous
100
AcDbCircle
 10
231.0202499999999
 20
176.3884929999999
 30
0.0
 40
2.0
100
AcDbArc
 50
310.6449999999999
 51
330.4919999999999
  0
ARC
  5
9979
330
96AF
100
AcDbEntity
  8
1
  6
Continuous
100
AcDbCircle
 10
383.31125
 20
210.2864929999999
 30
0.0
 40
2.299999999999998
100
AcDbArc
 50
0.0
 51
90.0
  0
ARC
  5
997A
330
96AF
100
AcDbEntity
  8
1
  6
Continuous
100
AcDbCircle
 10
383.31125
 20
154.886493
 30
0.0
 40
2.299999999999998
100
AcDbArc
 50
270.0
 51
0.000009
  0
CIRCLE
  5
997B
330
96AF
100
AcDbEntity
  8
1
  6
Continuous
100
AcDbCircle
 10
373.6112499999999
 20
176.586493
 30
0.0
 40
2.9
  0
ARC
  5
997C
330
96AF
100
AcDbEntity
  8
1
  6
Continuous
100
AcDbCircle
 10
385.61125
 20
152.586493
 30
0.0
 40
2.299999999999998
100
AcDbArc
 50
90.0
 51
180.0
  0
ARC
  5
997D
330
96AF
100
AcDbEntity
  8
1
  6
Continuous
100
AcDbCircle
 10
251.11125
 20
192.5864929999999
 30
0.0
 40
14.0
100
AcDbArc
 50
45.7445
 51
58.6688
  0
ARC
  5
997E
330
96AF
100
AcDbEntity
  8
1
  6
Continuous
100
AcDbCircle
 10
244.13825
 20
206.986493
 30
0.0
 40
2.0
100
AcDbArc
 50
190.315
 51
206.7579999999999
  0
ARC
  5
997F
330
96AF
100
AcDbEntity
  8
1
  6
Continuous
100
AcDbCircle
 10
239.87925
 20
213.629493
 30
0.0
 40
1.0
100
AcDbArc
 50
10.31549999999998
 51
104.203
  0
ARC
  5
9980
330
96AF
100
AcDbEntity
  8
1
  6
Continuous
100
AcDbCircle
 10
268.4662499999999
 20
204.491493
 30
0.0
 40
35.0
100
AcDbArc
 50
193.8959999999999
 51
214.619
  0
ARC
  5
9981
330
96AF
100
AcDbEntity
  8
1
  6
Continuous
100
AcDbCircle
 10
252.0072499999999
 20
193.1294929999999
 30
0.0
 40
15.0
100
AcDbArc
 50
214.619
 51
235.963
  0
ARC
  5
9982
330
96AF
100
AcDbEntity
  8
1
  6
Continuous
100
AcDbCircle
 10
235.42325
 20
212.5024929999999
 30
0.0
 40
1.0
100
AcDbArc
 50
104.203
 51
166.3729999999999
  0
ARC
  5
9983
330
96AF
100
AcDbEntity
  8
1
  6
Continuous
100
AcDbCircle
 10
350.6112499999999
 20
179.0864929999999
 30
0.0
 40
1.0
100
AcDbArc
 50
0.0
 51
90.0
  0
ARC
  5
9984
330
96AF
100
AcDbEntity
  8
1
  6
Continuous
100
AcDbCircle
 10
350.6112499999999
 20
179.0864929999999
 30
0.0
 40
3.0
100
AcDbArc
 50
0.0
 51
90.0
  0
ARC
  5
9985
330
96AF
100
AcDbEntity
  8
1
  6
Continuous
100
AcDbCircle
 10
343.61125
 20
183.0864929999999
 30
0.0
 40
1.0
100
AcDbArc
 50
180.0
 51
270.0
  0
ARC
  5
9986
330
96AF
100
AcDbEntity
  8
1
  6
Continuous
100
AcDbCircle
 10
343.61125
 20
183.0864929999999
 30
0.0
 40
3.0
100
AcDbArc
 50
180.0
 51
270.0
  0
ARC
  5
9987
330
96AF
100
AcDbEntity
  8
1
  6
Continuous
100
AcDbCircle
 10
335.4602499999999
 20
191.5864929999999
 30
0.0
 40
3.0
100
AcDbArc
 50
191.4499999999999
 51
270.0
  0
ARC
  5
9988
330
96AF
100
AcDbEntity
  8
1
  6
Continuous
100
AcDbCircle
 10
340.73725
 20
228.977493
 30
0.0
 40
4.0
100
AcDbArc
 50
96.58200000000002
 51
173.702
  0
ARC
  5
9989
330
96AF
100
AcDbEntity
  8
1
  6
Continuous
100
AcDbCircle
 10
345.6112499999999
 20
206.0094929999999
 30
0.0
 40
3.0
100
AcDbArc
 50
140.5279999999999
 51
180.0
  0
ARC
  5
998A
330
96AF
100
AcDbEntity
  8
1
  6
Continuous
100
AcDbCircle
 10
344.6592499999999
 20
217.4384929999999
 30
0.0
 40
5.0
100
AcDbArc
 50
320.528
 51
358.4519999999998
  0
ARC
  5
998B
330
96AF
100
AcDbEntity
  8
1
  6
Continuous
100
AcDbCircle
 10
265.6112499999999
 20
207.5864929999999
 30
0.0
 40
8.3
100
AcDbArc
 50
314.796
 51
137.1459999999999
  0
ARC
  5
998C
330
96AF
100
AcDbEntity
  8
1
  6
Continuous
100
AcDbCircle
 10
283.93025
 20
189.135493
 30
0.0
 40
17.7
100
AcDbArc
 50
134.796
 51
180.1939999999999
  0
ARC
  5
998D
330
96AF
100
AcDbEntity
  8
1
  6
Continuous
100
AcDbCircle
 10
362.61125
 20
212.650493
 30
0.0
 40
2.5
100
AcDbArc
 50
135.0
 51
180.0
  0
ARC
  5
998E
330
96AF
100
AcDbEntity
  8
1
  6
Continuous
100
AcDbCircle
 10
352.5612499999998
 20
209.0864929999999
 30
0.0
 40
2.5
100
AcDbArc
 50
72.5424
 51
107.458
  0
ARC
  5
998F
330
96AF
100
AcDbEntity
  8
1
  6
Continuous
100
AcDbCircle
 10
352.5612499999998
 20
206.086493
 30
0.0
 40
2.5
100
AcDbArc
 50
252.5419999999999
 51
287.4579999999999
  0
ARC
  5
9990
330
96AF
100
AcDbEntity
  8
1
  6
Continuous
100
AcDbCircle
 10
265.6112499999999
 20
207.5864929999999
 30
0.0
 40
5.0
100
AcDbArc
 50
284.795
 51
104.7949999999999
  0
ARC
  5
9991
330
96AF
100
AcDbEntity
  8
1
  6
Continuous
100
AcDbCircle
 10
268.15125
 20
202.155493
 30
0.0
 40
10.0
100
AcDbArc
 50
171.87
 51
220.601
  0
ARC
  5
9992
330
96AF
100
AcDbEntity
  8
1
  6
Continuous
100
AcDbCircle
 10
276.1112499999999
 20
179.798493
 30
0.0
 40
8.0
100
AcDbArc
 50
180.0
 51
214.7229999999999
  0
ARC
  5
9993
330
96AF
100
AcDbEntity
  8
1
  6
Continuous
100
AcDbCircle
 10
243.80625
 20
164.337493
 30
0.0
 40
5.0
100
AcDbArc
 50
227.0769999999998
 51
277.144
  0
ARC
  5
9994
330
96AF
100
AcDbEntity
  8
1
  6
Continuous
100
AcDbCircle
 10
229.97425
 20
163.5454929999999
 30
0.0
 40
5.0
100
AcDbArc
 50
47.0772
 51
67.21129999999999
  0
ARC
  5
9995
330
96AF
100
AcDbEntity
  8
1
  6
Continuous
100
AcDbCircle
 10
238.61125
 20
179.713493
 30
0.0
 40
5.0
100
AcDbArc
 50
268.5529999999999
 51
0.0
  0
ARC
  5
9996
330
96AF
100
AcDbEntity
  8
5
  6
PHANTOM
100
AcDbCircle
 10
224.76625
 20
189.5664929999998
 30
0.0
 40
5.0
100
AcDbArc
 50
107.824
 51
176.0229999999999
  0
ARC
  5
9997
330
96AF
100
AcDbEntity
  8
5
  6
PHANTOM
100
AcDbCircle
 10
219.81625
 20
183.2484929999999
 30
0.0
 40
0.5
100
AcDbArc
 50
176.0229999999999
 51
287.824
  0
ARC
  5
9998
330
96AF
100
AcDbEntity
  8
1
  6
Continuous
100
AcDbCircle
 10
245.67325
 20
214.0864929999999
 30
0.0
 40
8.0
100
AcDbArc
 50
270.0
 51
351.8699999999997
  0
ARC
  5
9999
330
96AF
100
AcDbEntity
  8
1
  6
Continuous
100
AcDbCircle
 10
258.61125
 20
229.086493
 30
0.0
 40
5.0
100
AcDbArc
 50
90.0
 51
211.633
  0
ARC
  5
999A
330
96AF
100
AcDbEntity
  8
1
  6
Continuous
100
AcDbCircle
 10
250.09725
 20
223.841493
 30
0.0
 40
5.0
100
AcDbArc
 50
351.8699999999997
 51
31.6326
  0
ARC
  5
999B
330
96AF
100
AcDbEntity
  8
1
  6
Continuous
100
AcDbCircle
 10
235.61125
 20
189.9434929999999
 30
0.0
 40
8.0
100
AcDbArc
 50
0.0
 51
50.16399999999999
  0
ARC
  5
999C
330
96AF
100
AcDbEntity
  8
1
  6
Continuous
100
AcDbCircle
 10
268.15125
 20
202.155493
 30
0.0
 40
12.0
100
AcDbArc
 50
171.87
 51
220.601
  0
ARC
  5
999D
330
96AF
100
AcDbEntity
  8
1
  6
Continuous
100
AcDbCircle
 10
251.11125
 20
192.5864929999999
 30
0.0
 40
14.0
100
AcDbArc
 50
351.4959999999998
 51
39.26919999999999
  0
ARC
  5
999E
330
96AF
100
AcDbEntity
  8
1
  6
Continuous
100
AcDbCircle
 10
268.4662499999999
 20
204.491493
 30
0.0
 40
35.0
100
AcDbArc
 50
166.3729999999999
 51
177.389
  0
ARC
  5
999F
330
96AF
100
AcDbEntity
  8
1
  6
Continuous
100
AcDbCircle
 10
232.99625
 20
201.0864929999999
 30
0.0
 40
5.0
100
AcDbArc
 50
90.0
 51
158.1989999999999
  0
ARC
  5
99A0
330
96AF
100
AcDbEntity
  8
3
  6
DASHED
100
AcDbCircle
 10
226.34925
 20
196.586493
 30
0.0
 40
0.5
100
AcDbArc
 50
158.1989999999999
 51
270.0
  0
ARC
  5
99A1
330
96AF
100
AcDbEntity
  8
1
  6
Continuous
100
AcDbCircle
 10
354.8712499999999
 20
211.886493
 30
0.0
 40
0.7
100
AcDbArc
 50
356.843
 51
176.844
  0
ARC
  5
99A2
330
96AF
100
AcDbEntity
  8
1
  6
Continuous
100
AcDbCircle
 10
346.4382499999999
 20
186.0864929999999
 30
0.0
 40
0.7
100
AcDbArc
 50
176.844
 51
356.843
  0
ARC
  5
99A3
330
96AF
100
AcDbEntity
  8
1
  6
Continuous
100
AcDbCircle
 10
347.15525
 20
199.0864929999999
 30
0.0
 40
0.7
100
AcDbArc
 50
356.843
 51
176.844
  0
ARC
  5
99A4
330
96AF
100
AcDbEntity
  8
1
  6
Continuous
100
AcDbCircle
 10
352.7632500000001
 20
199.0864929999999
 30
0.0
 40
0.7
100
AcDbArc
 50
356.843
 51
176.844
  0
ARC
  5
99A5
330
96AF
100
AcDbEntity
  8
1
  6
Continuous
100
AcDbCircle
 10
353.4482499999999
 20
186.0864929999999
 30
0.0
 40
0.7
100
AcDbArc
 50
176.844
 51
356.843
  0
ARC
  5
99A6
330
96AF
100
AcDbEntity
  8
1
  6
Continuous
100
AcDbCircle
 10
351.3612499999999
 20
199.0864929999999
 30
0.0
 40
0.7
100
AcDbArc
 50
356.843
 51
176.844
  0
ARC
  5
99A7
330
96AF
100
AcDbEntity
  8
1
  6
Continuous
100
AcDbCircle
 10
352.0462499999999
 20
186.0864929999999
 30
0.0
 40
0.7
100
AcDbArc
 50
176.844
 51
356.843
  0
ARC
  5
99A8
330
96AF
100
AcDbEntity
  8
1
  6
Continuous
100
AcDbCircle
 10
349.9592499999998
 20
199.0864929999999
 30
0.0
 40
0.7
100
AcDbArc
 50
356.843
 51
176.844
  0
ARC
  5
99A9
330
96AF
100
AcDbEntity
  8
1
  6
Continuous
100
AcDbCircle
 10
350.6442499999997
 20
186.0864929999999
 30
0.0
 40
0.7
100
AcDbArc
 50
176.844
 51
356.843
  0
ARC
  5
99AA
330
96AF
100
AcDbEntity
  8
1
  6
Continuous
100
AcDbCircle
 10
348.5572499999997
 20
199.0864929999999
 30
0.0
 40
0.7
100
AcDbArc
 50
356.843
 51
176.844
  0
ARC
  5
99AB
330
96AF
100
AcDbEntity
  8
1
  6
Continuous
100
AcDbCircle
 10
349.2422499999997
 20
186.0864929999999
 30
0.0
 40
0.7
100
AcDbArc
 50
176.844
 51
356.843
  0
ARC
  5
99AC
330
96AF
100
AcDbEntity
  8
1
  6
Continuous
100
AcDbCircle
 10
347.84025
 20
186.0864929999999
 30
0.0
 40
0.7
100
AcDbArc
 50
176.844
 51
356.843
  0
ARC
  5
99AD
330
96AF
100
AcDbEntity
  8
1
  6
Continuous
100
AcDbCircle
 10
108.9112499999999
 20
210.2864929999999
 30
0.0
 40
2.299999999999998
100
AcDbArc
 50
90.0
 51
180.0
  0
ARC
  5
99AE
330
96AF
100
AcDbEntity
  8
1
  6
Continuous
100
AcDbCircle
 10
108.9112499999999
 20
154.886493
 30
0.0
 40
2.299999999999998
100
AcDbArc
 50
180.0
 51
270.0
  0
ARC
  5
99AF
330
96AF
100
AcDbEntity
  8
1
  6
Continuous
100
AcDbCircle
 10
106.61125
 20
152.586493
 30
0.0
 40
2.299999999999998
100
AcDbArc
 50
0.0
 51
90.0
  0
ARC
  5
99B0
330
96AF
100
AcDbEntity
  8
1
  6
Continuous
100
AcDbCircle
 10
108.9112499999999
 20
204.2864929999999
 30
0.0
 40
2.299999999999998
100
AcDbArc
 50
90.0
 51
180.0
  0
CIRCLE
  5
99B1
330
96AF
100
AcDbEntity
  8
1
  6
Continuous
100
AcDbCircle
 10
162.61125
 20
168.5864929999999
 30
0.0
 40
3.6
  0
ARC
  5
99B2
330
96AF
100
AcDbEntity
  8
1
  6
Continuous
100
AcDbCircle
 10
40.11124999999998
 20
192.5864929999999
 30
0.0
 40
20.0
100
AcDbArc
 50
90.0
 51
180.0
  0
CIRCLE
  5
99B3
330
96AF
100
AcDbEntity
  8
1
  6
Continuous
100
AcDbCircle
 10
40.11124999999998
 20
192.5864929999999
 30
0.0
 40
4.099999999999996
  0
ARC
  5
99B4
330
96AF
100
AcDbEntity
  8
1
  6
Continuous
100
AcDbCircle
 10
37.61124999999999
 20
173.5864929999999
 30
0.0
 40
7.5
100
AcDbArc
 50
96.61549999999998
 51
263.384
  0
ARC
  5
99B5
330
96AF
100
AcDbEntity
  8
1
  6
Continuous
100
AcDbCircle
 10
53.11125
 20
187.967493
 30
0.0
 40
5.0
100
AcDbArc
 50
276.615
 51
13.5949
  0
ARC
  5
99B6
330
96AF
100
AcDbEntity
  8
1
  6
Continuous
100
AcDbCircle
 10
22.41115
 20
152.586493
 30
0.0
 40
2.299999999999998
100
AcDbArc
 50
0.0
 51
180.0
  0
ARC
  5
99B7
330
96AF
100
AcDbEntity
  8
1
  6
Continuous
100
AcDbCircle
 10
55.81125
 20
152.586493
 30
0.0
 40
2.299999999999998
100
AcDbArc
 50
0.0
 51
180.0
  0
ARC
  5
99B8
330
96AF
100
AcDbEntity
  8
1
  6
Continuous
100
AcDbCircle
 10
38.26444999999999
 20
185.8294929999999
 30
0.0
 40
20.0
100
AcDbArc
 50
8.19547
 51
54.51170000000001
  0
ARC
  5
99B9
330
96AF
100
AcDbEntity
  8
5
  6
PHANTOM
100
AcDbCircle
 10
57.04035
 20
183.9604929999999
 30
0.0
 40
6.599999999999997
100
AcDbArc
 50
41.1237
 51
221.124
  0
ARC
  5
99BA
330
96AF
100
AcDbEntity
  8
5
  6
PHANTOM
100
AcDbCircle
 10
40.11124999999998
 20
192.5864929999999
 30
0.0
 40
33.0
100
AcDbArc
 50
349.848
 51
356.036
  0
ARC
  5
99BB
330
96AF
100
AcDbEntity
  8
5
  6
PHANTOM
100
AcDbCircle
 10
63.05615
 20
190.9954929999999
 30
0.0
 40
10.0
100
AcDbArc
 50
356.036
 51
63.0
  0
ARC
  5
99BC
330
96AF
100
AcDbEntity
  8
5
  6
PHANTOM
100
AcDbCircle
 10
36.43634999999999
 20
131.696493
 30
0.0
 40
75.0
100
AcDbArc
 50
65.82429999999999
 51
78.4824
  0
ARC
  5
99BD
330
96AF
100
AcDbEntity
  8
5
  6
PHANTOM
100
AcDbCircle
 10
70.62585
 20
187.1224929999999
 30
0.0
 40
2.0
100
AcDbArc
 50
284.923
 51
349.848
  0
ARC
  5
99BE
330
96AF
100
AcDbEntity
  8
5
  6
PHANTOM
100
AcDbCircle
 10
66.62685
 20
186.0564929999999
 30
0.0
 40
2.0
100
AcDbArc
 50
221.124
 51
284.923
  0
ARC
  5
99BF
330
96AF
100
AcDbEntity
  8
5
  6
PHANTOM
100
AcDbCircle
 10
56.49295
 20
170.7714929999999
 30
0.0
 40
2.0
100
AcDbArc
 50
243.0
 51
21.0381
  0
ARC
  5
99C0
330
96AF
100
AcDbEntity
  8
5
  6
PHANTOM
100
AcDbCircle
 10
49.02625
 20
167.8994929999998
 30
0.0
 40
10.0
100
AcDbArc
 50
21.0381
 51
41.1237
  0
CIRCLE
  5
99C1
330
96AF
100
AcDbEntity
  8
1
  6
Continuous
100
AcDbCircle
 10
40.11124999999998
 20
192.5864929999999
 30
0.0
 40
4.0
  0
ARC
  5
99C2
330
96AF
100
AcDbEntity
  8
1
  6
Continuous
100
AcDbCircle
 10
49.11125
 20
171.420493
 30
0.0
 40
10.0
100
AcDbArc
 50
293.0359999999997
 51
0.000009
  0
ARC
  5
99C3
330
96AF
100
AcDbEntity
  8
1
  6
Continuous
100
AcDbCircle
 10
46.33104999999999
 20
165.9964929999999
 30
0.0
 40
2.0
100
AcDbArc
 50
158.124
 51
202.237
  0
ARC
  5
99C4
330
96AF
100
AcDbEntity
  8
1
  6
Continuous
100
AcDbCircle
 10
40.11124999999998
 20
173.5864929999999
 30
0.0
 40
6.599999999999997
100
AcDbArc
 50
338.124
 51
158.124
  0
ARC
  5
99C5
330
96AF
100
AcDbEntity
  8
1
  6
Continuous
100
AcDbCircle
 10
-15.80985
 20
168.2174929999999
 30
0.0
 40
75.0
100
AcDbArc
 50
2.824279999999998
 51
13.0584
  0
ARC
  5
99C6
330
96AF
100
AcDbEntity
  8
1
  6
Continuous
100
AcDbCircle
 10
225.91125
 20
310.3594929999998
 30
0.0
 40
2.299999999999998
100
AcDbArc
 50
90.0
 51
180.0
  0
ARC
  5
99C7
330
96AF
100
AcDbEntity
  8
1
  6
Continuous
100
AcDbCircle
 10
233.4112499999999
 20
331.3594929999998
 30
0.0
 40
2.299999999999998
100
AcDbArc
 50
342.281
 51
358.1179999999998
  0
ARC
  5
99C8
330
96AF
100
AcDbEntity
  8
1
  6
Continuous
100
AcDbCircle
 10
266.8112499999998
 20
331.3594929999998
 30
0.0
 40
2.299999999999998
100
AcDbArc
 50
0.0
 51
90.0
  0
ARC
  5
99C9
330
96AF
100
AcDbEntity
  8
1
  6
Continuous
100
AcDbCircle
 10
233.4112499999999
 20
331.3594929999998
 30
0.0
 40
2.299999999999998
100
AcDbArc
 50
101.3639999999997
 51
180.0
  0
ARC
  5
99CA
330
96AF
100
AcDbEntity
  8
1
  6
Continuous
100
AcDbCircle
 10
272.1612499999998
 20
298.126493
 30
0.0
 40
0.75
100
AcDbArc
 50
270.0
 51
90.0
  0
ARC
  5
99CB
330
96AF
100
AcDbEntity
  8
1
  6
Continuous
100
AcDbCircle
 10
272.1612499999998
 20
290.7094929999999
 30
0.0
 40
0.75
100
AcDbArc
 50
270.0
 51
90.0
  0
ARC
  5
99CC
330
96AF
100
AcDbEntity
  8
1
  6
Continuous
100
AcDbCircle
 10
272.1612499999998
 20
292.192493
 30
0.0
 40
0.75
100
AcDbArc
 50
270.0
 51
90.0
  0
ARC
  5
99CD
330
96AF
100
AcDbEntity
  8
1
  6
Continuous
100
AcDbCircle
 10
272.1612499999998
 20
293.6764929999998
 30
0.0
 40
0.75
100
AcDbArc
 50
270.0
 51
90.0
  0
ARC
  5
99CE
330
96AF
100
AcDbEntity
  8
1
  6
Continuous
100
AcDbCircle
 10
272.1612499999998
 20
295.159493
 30
0.0
 40
0.75
100
AcDbArc
 50
270.0
 51
90.0
  0
ARC
  5
99CF
330
96AF
100
AcDbEntity
  8
1
  6
Continuous
100
AcDbCircle
 10
272.1612499999998
 20
296.642493
 30
0.0
 40
0.75
100
AcDbArc
 50
270.0
 51
90.0
  0
ARC
  5
99D0
330
96AF
100
AcDbEntity
  8
1
  6
Continuous
100
AcDbCircle
 10
260.39425
 20
310.159493
 30
0.0
 40
2.5
100
AcDbArc
 50
233.13
 51
270.0
  0
ARC
  5
99D1
330
96AF
100
AcDbEntity
  8
1
  6
Continuous
100
AcDbCircle
 10
270.82825
 20
310.159493
 30
0.0
 40
2.5
100
AcDbArc
 50
270.0
 51
315.445
  0
ARC
  5
99D2
330
96AF
100
AcDbEntity
  8
1
  6
Continuous
100
AcDbCircle
 10
267.11125
 20
300.6094929999998
 30
0.0
 40
2.5
100
AcDbArc
 50
342.5419999999999
 51
17.45759999999998
  0
ARC
  5
99D3
330
96AF
100
AcDbEntity
  8
1
  6
Continuous
100
AcDbCircle
 10
264.1112499999999
 20
300.6094929999998
 30
0.0
 40
2.5
100
AcDbArc
 50
162.542
 51
197.4579999999999
  0
ARC
  5
99D4
330
96AF
100
AcDbEntity
  8
1
  6
Continuous
100
AcDbCircle
 10
246.9302499999999
 20
298.6594929999998
 30
0.0
 40
10.0
100
AcDbArc
 50
270.0
 51
320.437
  0
ARC
  5
99D5
330
96AF
100
AcDbEntity
  8
1
  6
Continuous
100
AcDbCircle
 10
246.9302499999999
 20
300.6594929999998
 30
0.0
 40
10.0
100
AcDbArc
 50
270.0
 51
320.437
  0
ARC
  5
99D6
330
96AF
100
AcDbEntity
  8
1
  6
Continuous
100
AcDbCircle
 10
260.61125
 20
296.159493
 30
0.0
 40
2.0
100
AcDbArc
 50
0.0
 51
90.0
  0
ARC
  5
99D7
330
96AF
100
AcDbEntity
  8
1
  6
Continuous
100
AcDbCircle
 10
263.6112499999999
 20
283.653493
 30
0.0
 40
3.0
100
AcDbArc
 50
267.6359999999998
 51
0.000005
  0
ARC
  5
99D8
330
96AF
100
AcDbEntity
  8
1
  6
Continuous
100
AcDbCircle
 10
244.60725
 20
301.3374929999999
 30
0.0
 40
0.7
100
AcDbArc
 50
86.8435
 51
266.843
  0
ARC
  5
99D9
330
96AF
100
AcDbEntity
  8
1
  6
Continuous
100
AcDbCircle
 10
244.60725
 20
297.1314929999999
 30
0.0
 40
0.7
100
AcDbArc
 50
86.8435
 51
266.843
  0
ARC
  5
99DA
330
96AF
100
AcDbEntity
  8
1
  6
Continuous
100
AcDbCircle
 10
257.60725
 20
297.8164929999999
 30
0.0
 40
0.7
100
AcDbArc
 50
29.31640000000001
 51
86.8435
  0
ARC
  5
99DB
330
96AF
100
AcDbEntity
  8
1
  6
Continuous
100
AcDbCircle
 10
244.60725
 20
299.9354929999999
 30
0.0
 40
0.7
100
AcDbArc
 50
86.8435
 51
266.843
  0
ARC
  5
99DC
330
96AF
100
AcDbEntity
  8
1
  6
Continuous
100
AcDbCircle
 10
244.60725
 20
298.533493
 30
0.0
 40
0.7
100
AcDbArc
 50
86.8435
 51
266.843
  0
ARC
  5
99DD
330
96AF
100
AcDbEntity
  8
1
  6
Continuous
100
AcDbCircle
 10
244.60725
 20
295.7294929999998
 30
0.0
 40
0.7
100
AcDbArc
 50
86.8435
 51
266.843
  0
ARC
  5
99DE
330
96AF
100
AcDbEntity
  8
1
  6
Continuous
100
AcDbCircle
 10
269.9072499999999
 20
302.7214929999999
 30
0.0
 40
0.700005
100
AcDbArc
 50
273.1559999999999
 51
93.15649999999999
  0
ARC
  5
99DF
330
96AF
100
AcDbEntity
  8
1
  6
Continuous
100
AcDbCircle
 10
257.60725
 20
300.6204929999999
 30
0.0
 40
0.7
100
AcDbArc
 50
266.843
 51
86.8435
  0
ARC
  5
99E0
330
96AF
100
AcDbEntity
  8
1
  6
Continuous
100
AcDbCircle
 10
271.52825
 20
310.6594929999999
 30
0.0
 40
2.5
100
AcDbArc
 50
270.0
 51
315.0
  0
ARC
  5
99E1
330
96AF
100
AcDbEntity
  8
1
  6
Continuous
100
AcDbCircle
 10
238.3942499999998
 20
310.6594929999999
 30
0.0
 40
2.5
100
AcDbArc
 50
233.13
 51
270.0
  0
ARC
  5
99E2
330
96AF
100
AcDbEntity
  8
1
  6
Continuous
100
AcDbCircle
 10
225.6112499999999
 20
288.8764929999999
 30
0.0
 40
2.5
100
AcDbArc
 50
0.0
 51
45.0
  0
ARC
  5
99E3
330
96AF
100
AcDbEntity
  8
1
  6
Continuous
100
AcDbCircle
 10
225.6112499999999
 20
300.194493
 30
0.0
 40
2.5
100
AcDbArc
 50
315.0
 51
0.000005
  0
ARC
  5
99E4
330
96AF
100
AcDbEntity
  8
1
  6
Continuous
100
AcDbCircle
 10
225.91125
 20
59.812793
 30
0.0
 40
2.299999999999998
100
AcDbArc
 50
180.0
 51
270.0
  0
ARC
  5
99E5
330
96AF
100
AcDbEntity
  8
1
  6
Continuous
100
AcDbCircle
 10
266.8112499999998
 20
38.812793
 30
0.0
 40
2.299999999999998
100
AcDbArc
 50
90.00029999999998
 51
0.0
  0
ARC
  5
99E6
330
96AF
100
AcDbEntity
  8
1
  6
Continuous
100
AcDbCircle
 10
233.4112499999999
 20
38.812793
 30
0.0
 40
2.299999999999998
100
AcDbArc
 50
180.0
 51
90.0
  0
ARC
  5
99E7
330
96AF
100
AcDbEntity
  8
1
  6
Continuous
100
AcDbCircle
 10
272.1612499999998
 20
72.046193
 30
0.0
 40
0.75
100
AcDbArc
 50
270.0
 51
90.0
  0
ARC
  5
99E8
330
96AF
100
AcDbEntity
  8
1
  6
Continuous
100
AcDbCircle
 10
272.1612499999998
 20
79.462793
 30
0.0
 40
0.75
100
AcDbArc
 50
270.0
 51
90.0
  0
ARC
  5
99E9
330
96AF
100
AcDbEntity
  8
1
  6
Continuous
100
AcDbCircle
 10
272.1612499999998
 20
77.979493
 30
0.0
 40
0.75
100
AcDbArc
 50
270.0
 51
90.0
  0
ARC
  5
99EA
330
96AF
100
AcDbEntity
  8
1
  6
Continuous
100
AcDbCircle
 10
272.1612499999998
 20
76.49619300000002
 30
0.0
 40
0.75
100
AcDbArc
 50
270.0
 51
90.0
  0
ARC
  5
99EB
330
96AF
100
AcDbEntity
  8
1
  6
Continuous
100
AcDbCircle
 10
272.1612499999998
 20
75.012793
 30
0.0
 40
0.75
100
AcDbArc
 50
270.0
 51
90.0
  0
ARC
  5
99EC
330
96AF
100
AcDbEntity
  8
1
  6
Continuous
100
AcDbCircle
 10
272.1612499999998
 20
73.529493
 30
0.0
 40
0.75
100
AcDbArc
 50
270.0
 51
90.0
  0
ARC
  5
99ED
330
96AF
100
AcDbEntity
  8
1
  6
Continuous
100
AcDbCircle
 10
260.39425
 20
60.012793
 30
0.0
 40
2.5
100
AcDbArc
 50
90.0
 51
135.0
  0
ARC
  5
99EE
330
96AF
100
AcDbEntity
  8
1
  6
Continuous
100
AcDbCircle
 10
270.82825
 20
60.012793
 30
0.0
 40
2.5
100
AcDbArc
 50
44.55519999999999
 51
90.0
  0
ARC
  5
99EF
330
96AF
100
AcDbEntity
  8
1
  6
Continuous
100
AcDbCircle
 10
263.6112499999999
 20
86.51899300000001
 30
0.0
 40
3.0
100
AcDbArc
 50
0.0
 51
92.3643
  0
ARC
  5
99F0
330
96AF
100
AcDbEntity
  8
1
  6
Continuous
100
AcDbCircle
 10
238.3942499999998
 20
59.512793
 30
0.0
 40
2.5
100
AcDbArc
 50
90.0
 51
126.8699999999999
  0
ARC
  5
99F1
330
96AF
100
AcDbEntity
  8
1
  6
Continuous
100
AcDbCircle
 10
225.6112499999999
 20
81.29569299999998
 30
0.0
 40
2.5
100
AcDbArc
 50
315.0
 51
0.000005
  0
ARC
  5
99F2
330
96AF
100
AcDbEntity
  8
1
  6
Continuous
100
AcDbCircle
 10
225.6112499999999
 20
69.977293
 30
0.0
 40
2.5
100
AcDbArc
 50
0.0
 51
45.0
  0
ARC
  5
99F3
330
96AF
100
AcDbEntity
  8
1
  6
Continuous
100
AcDbCircle
 10
259.0612499999999
 20
79.462793
 30
0.0
 40
0.75
100
AcDbArc
 50
90.0
 51
270.0
  0
ARC
  5
99F4
330
96AF
100
AcDbEntity
  8
1
  6
Continuous
100
AcDbCircle
 10
259.0612499999999
 20
77.979493
 30
0.0
 40
0.75
100
AcDbArc
 50
90.0
 51
270.0
  0
ARC
  5
99F5
330
96AF
100
AcDbEntity
  8
1
  6
Continuous
100
AcDbCircle
 10
259.0612499999999
 20
76.49619300000002
 30
0.0
 40
0.75
100
AcDbArc
 50
90.0
 51
270.0
  0
ARC
  5
99F6
330
96AF
100
AcDbEntity
  8
1
  6
Continuous
100
AcDbCircle
 10
259.0612499999999
 20
75.012793
 30
0.0
 40
0.75
100
AcDbArc
 50
90.0
 51
270.0
  0
ARC
  5
99F7
330
96AF
100
AcDbEntity
  8
1
  6
Continuous
100
AcDbCircle
 10
259.0612499999999
 20
73.529493
 30
0.0
 40
0.75
100
AcDbArc
 50
90.0
 51
270.0
  0
ARC
  5
99F8
330
96AF
100
AcDbEntity
  8
1
  6
Continuous
100
AcDbCircle
 10
362.1112499999999
 20
174.4034929999999
 30
0.0
 40
2.5
100
AcDbArc
 50
135.0
 51
180.0
  0
ARC
  5
99F9
330
96AF
100
AcDbEntity
  8
1
  6
Continuous
100
AcDbCircle
 10
362.1112499999999
 20
163.7684929999998
 30
0.0
 40
2.5
100
AcDbArc
 50
180.0
 51
225.0
  0
ARC
  5
99FA
330
96AF
100
AcDbEntity
  8
1
  6
Continuous
100
AcDbCircle
 10
353.8112499999999
 20
159.613493
 30
0.0
 40
4.5
100
AcDbArc
 50
270.0
 51
359.209
  0
ARC
  5
99FB
330
96AF
100
AcDbEntity
  8
1
  6
Continuous
100
AcDbCircle
 10
335.4602499999999
 20
190.284493
 30
0.0
 40
3.0
100
AcDbArc
 50
173.702
 51
270.0
  0
ARC
  5
99FC
330
96AF
100
AcDbEntity
  8
1
  6
Continuous
100
AcDbCircle
 10
341.1112499999999
 20
187.0864929999999
 30
0.0
 40
1.5
100
AcDbArc
 50
0.0
 51
90.0
  0
ARC
  5
99FD
330
96AF
100
AcDbEntity
  8
1
  6
Continuous
100
AcDbCircle
 10
258.59125
 20
286.020493
 30
0.0
 40
2.0
100
AcDbArc
 50
313.415
 51
0.000005
  0
ARC
  5
99FE
330
96AF
100
AcDbEntity
  8
1
  6
Continuous
100
AcDbCircle
 10
260.61125
 20
286.020493
 30
0.0
 40
2.0
100
AcDbArc
 50
313.415
 51
0.000005
  0
ARC
  5
99FF
330
96AF
100
AcDbEntity
  8
1
  6
Continuous
100
AcDbCircle
 10
259.0612499999999
 20
72.029493
 30
0.0
 40
0.75
100
AcDbArc
 50
90.0
 51
270.0
  0
CIRCLE
  5
9A00
330
96AF
100
AcDbEntity
  8
1
  6
Continuous
100
AcDbCircle
 10
149.38925
 20
133.9714929999999
 30
0.0
 40
3.25
  0
ARC
  5
9A01
330
96AF
100
AcDbEntity
  8
1
  6
Continuous
100
AcDbCircle
 10
149.38925
 20
133.9714929999999
 30
0.0
 40
6.0
100
AcDbArc
 50
163.162
 51
336.0
  0
ARC
  5
9A02
330
96AF
100
AcDbEntity
  8
1
  6
Continuous
100
AcDbCircle
 10
246.9442499999999
 20
71.279493
 30
0.0
 40
0.75
100
AcDbArc
 50
90.0
 51
270.0
  0
ARC
  5
9A03
330
96AF
100
AcDbEntity
  8
1
  6
Continuous
100
AcDbCircle
 10
350.84425
 20
151.999493
 30
0.0
 40
0.75
100
AcDbArc
 50
180.0
 51
0.0
  0
ARC
  5
9A04
330
96AF
100
AcDbEntity
  8
1
  6
Continuous
100
AcDbCircle
 10
353.8112499999999
 20
160.381493
 30
0.0
 40
4.5
100
AcDbArc
 50
270.0
 51
349.365
  0
ARC
  5
9A05
330
96AF
100
AcDbEntity
  8
1
  6
Continuous
100
AcDbCircle
 10
151.48525
 20
228.977493
 30
0.0
 40
4.0
100
AcDbArc
 50
6.298319999999998
 51
83.41809999999998
  0
ARC
  5
9A06
330
96AF
100
AcDbEntity
  8
1
  6
Continuous
100
AcDbCircle
 10
41.12554999999999
 20
223.841493
 30
0.0
 40
5.0
100
AcDbArc
 50
148.3669999999999
 51
183.975
  0
ARC
  5
9A07
330
96AF
100
AcDbEntity
  8
1
  6
Continuous
100
AcDbCircle
 10
32.61124999999999
 20
229.086493
 30
0.0
 40
5.0
100
AcDbArc
 50
328.3669999999997
 51
90.0
  0
ARC
  5
9A08
330
96AF
100
AcDbEntity
  8
5
  6
PHANTOM
100
AcDbCircle
 10
234.08125
 20
216.464493
 30
0.0
 40
5.0
100
AcDbArc
 50
9.694269999999999
 51
49.45689999999999
  0
ARC
  5
9A09
330
96AF
100
AcDbEntity
  8
5
  6
PHANTOM
100
AcDbCircle
 10
240.58125
 20
224.063493
 30
0.0
 40
5.0
100
AcDbArc
 50
107.824
 51
229.457
  0
ARC
  5
9A0A
330
96AF
100
AcDbEntity
  8
1
  6
Continuous
100
AcDbCircle
 10
257.60725
 20
299.218493
 30
0.0
 40
0.7
100
AcDbArc
 50
266.843
 51
86.8435
  0
ARC
  5
9A0B
330
96AF
100
AcDbEntity
  8
1
  6
Continuous
100
AcDbCircle
 10
240.04525
 20
288.1594929999998
 30
0.0
 40
3.0
100
AcDbArc
 50
270.0
 51
329.036
  0
ARC
  5
9A0C
330
96AF
100
AcDbEntity
  8
1
  6
Continuous
100
AcDbCircle
 10
240.04525
 20
288.1594929999998
 30
0.0
 40
1.0
100
AcDbArc
 50
270.0
 51
329.036
  0
ARC
  5
9A0D
330
96AF
100
AcDbEntity
  8
1
  6
Continuous
100
AcDbCircle
 10
237.04525
 20
288.1594929999998
 30
0.0
 40
1.0
100
AcDbArc
 50
270.0
 51
329.036
  0
ARC
  5
9A0E
330
96AF
100
AcDbEntity
  8
1
  6
Continuous
100
AcDbCircle
 10
244.41025
 20
287.6594929999999
 30
0.0
 40
1.0
100
AcDbArc
 50
90.0
 51
149.036
  0
ARC
  5
9A0F
330
96AF
100
AcDbEntity
  8
1
  6
Continuous
100
AcDbCircle
 10
244.41025
 20
287.6594929999999
 30
0.0
 40
3.0
100
AcDbArc
 50
90.0
 51
149.036
  0
ARC
  5
9A10
330
96AF
100
AcDbEntity
  8
1
  6
Continuous
100
AcDbCircle
 10
241.4102499999999
 20
287.6594929999999
 30
0.0
 40
3.0
100
AcDbArc
 50
90.0
 51
149.036
  0
ARC
  5
9A11
330
96AF
100
AcDbEntity
  8
1
  6
Continuous
100
AcDbCircle
 10
265.6112499999999
 20
207.5864929999999
 30
0.0
 40
4.5
100
AcDbArc
 50
104.7949999999999
 51
247.9249999999999
  0
ARC
  5
9A12
330
96AF
100
AcDbEntity
  8
1
  6
Continuous
100
AcDbCircle
 10
235.91225
 20
82.01279300000001
 30
0.0
 40
1.0
100
AcDbArc
 50
30.9638
 51
90.0
  0
ARC
  5
9A13
330
96AF
100
AcDbEntity
  8
1
  6
Continuous
100
AcDbCircle
 10
235.91225
 20
82.01279300000001
 30
0.0
 40
3.0
100
AcDbArc
 50
30.9638
 51
90.0
  0
ARC
  5
9A14
330
96AF
100
AcDbEntity
  8
1
  6
Continuous
100
AcDbCircle
 10
240.27725
 20
82.512793
 30
0.0
 40
3.0
100
AcDbArc
 50
210.964
 51
270.0
  0
ARC
  5
9A15
330
96AF
100
AcDbEntity
  8
1
  6
Continuous
100
AcDbCircle
 10
240.27725
 20
82.512793
 30
0.0
 40
1.0
100
AcDbArc
 50
210.964
 51
270.0
  0
ARC
  5
9A16
330
96AF
100
AcDbEntity
  8
1
  6
Continuous
100
AcDbCircle
 10
240.04525
 20
82.01279300000001
 30
0.0
 40
3.0
100
AcDbArc
 50
30.9638
 51
90.0
  0
ARC
  5
9A17
330
96AF
100
AcDbEntity
  8
1
  6
Continuous
100
AcDbCircle
 10
244.41025
 20
82.512793
 30
0.0
 40
1.0
100
AcDbArc
 50
210.964
 51
270.0
  0
ARC
  5
9A18
330
96AF
100
AcDbEntity
  8
1
  6
Continuous
100
AcDbCircle
 10
135.9052499999999
 20
196.2214929999999
 30
0.0
 40
0.393389
100
AcDbArc
 50
90.0
 51
270.0
  0
ARC
  5
9A19
330
96AF
100
AcDbEntity
  8
1
  6
Continuous
100
AcDbCircle
 10
135.96825
 20
196.2214929999999
 30
0.0
 40
0.393389
100
AcDbArc
 50
270.0
 51
90.0
  0
ARC
  5
9A1A
330
96AF
100
AcDbEntity
  8
1
  6
Continuous
100
AcDbCircle
 10
135.25425
 20
196.2214929999999
 30
0.0
 40
0.393389
100
AcDbArc
 50
90.0
 51
270.0
  0
ARC
  5
9A1B
330
96AF
100
AcDbEntity
  8
1
  6
Continuous
100
AcDbCircle
 10
135.25325
 20
194.7454929999999
 30
0.0
 40
0.393389
100
AcDbArc
 50
90.0
 51
270.0
  0
ARC
  5
9A1C
330
96AF
100
AcDbEntity
  8
1
  6
Continuous
100
AcDbCircle
 10
135.46625
 20
194.7454929999999
 30
0.0
 40
0.393389
100
AcDbArc
 50
270.0
 51
90.0
  0
ARC
  5
9A1D
330
96AF
100
AcDbEntity
  8
1
  6
Continuous
100
AcDbCircle
 10
135.9692499999999
 20
197.698493
 30
0.0
 40
0.393389
100
AcDbArc
 50
270.0
 51
90.0
  0
ARC
  5
9A1E
330
96AF
100
AcDbEntity
  8
1
  6
Continuous
100
AcDbCircle
 10
135.90725
 20
197.698493
 30
0.0
 40
0.393389
100
AcDbArc
 50
228.7749999999999
 51
270.0
  0
CIRCLE
  5
9A1F
330
96AF
100
AcDbEntity
  8
1
  6
Continuous
100
AcDbCircle
 10
235.61125
 20
229.586493
 30
0.0
 40
4.0
  0
CIRCLE
  5
9A20
330
96AF
100
AcDbEntity
  8
1
  6
Continuous
100
AcDbCircle
 10
265.6112499999999
 20
142.5864929999999
 30
0.0
 40
4.0
  0
CIRCLE
  5
9A21
330
96AF
100
AcDbEntity
  8
1
  6
Continuous
100
AcDbCircle
 10
235.61125
 20
142.5864929999999
 30
0.0
 40
4.0
  0
ARC
  5
9A22
330
96AF
100
AcDbEntity
  8
1
  6
Continuous
100
AcDbCircle
 10
225.91125
 20
159.6338018065418
 30
0.0
 40
2.299999999999998
100
AcDbArc
 50
135.0
 51
180.0
  0
ARC
  5
9A23
330
96AF
100
AcDbEntity
  8
1
  6
Continuous
100
AcDbCircle
 10
225.6112499999999
 20
162.5861841934581
 30
0.0
 40
2.299999999999998
100
AcDbArc
 50
315.0
 51
0.0
  0
ARC
  5
9A24
330
96AF
100
AcDbEntity
  8
1
  6
Continuous
100
AcDbCircle
 10
225.91125
 20
209.539184193458
 30
0.0
 40
2.299999999999998
100
AcDbArc
 50
180.0
 51
225.0
  0
ARC
  5
9A25
330
96AF
100
AcDbEntity
  8
1
  6
Continuous
100
AcDbCircle
 10
225.6112499999999
 20
206.5858018065418
 30
0.0
 40
2.299999999999998
100
AcDbArc
 50
0.0
 51
45.0
  0
LINE
  5
9A26
330
96AF
100
AcDbEntity
  8
1
  6
Continuous
100
AcDbLine
 10
360.61125
 20
146.5864929999999
 30
0.0
 11
362.3112499999999
 21
147.5679884576223
 31
0.0
  0
LINE
  5
9A27
330
96AF
100
AcDbEntity
  8
1
  6
Continuous
100
AcDbLine
 10
360.61125
 20
138.5864929999998
 30
0.0
 11
362.3112499999999
 21
137.6049975423775
 31
0.0
  0
LINE
  5
9A28
330
96AF
100
AcDbEntity
  8
1
  6
Continuous
100
AcDbLine
 10
360.61125
 20
233.586493
 30
0.0
 11
360.61125
 21
225.5864929999999
 31
0.0
  0
LINE
  5
9A29
330
96AF
100
AcDbEntity
  8
1
  6
Continuous
100
AcDbLine
 10
360.61125
 20
225.5864929999999
 30
0.0
 11
362.3112499999999
 21
224.6049975423776
 31
0.0
  0
LINE
  5
9A2A
330
96AF
100
AcDbEntity
  8
1
  6
Continuous
100
AcDbLine
 10
360.61125
 20
233.586493
 30
0.0
 11
362.3112499999999
 21
234.5679884576223
 31
0.0
  0
LINE
  5
9A2B
330
96AF
100
AcDbEntity
  8
1
  6
Continuous
100
AcDbLine
 10
269.6112499999999
 20
61.51279299999998
 30
0.0
 11
261.6112499999999
 21
61.51279299999993
 31
0.0
  0
LINE
  5
9A2C
330
96AF
100
AcDbEntity
  8
1
  6
Continuous
100
AcDbLine
 10
261.6112499999999
 20
61.51279299999993
 30
0.0
 11
260.6297545423776
 21
59.812793
 31
0.0
  0
LINE
  5
9A2D
330
96AF
100
AcDbEntity
  8
1
  6
Continuous
100
AcDbLine
 10
269.6112499999999
 20
61.51279299999993
 30
0.0
 11
270.5927454576221
 21
59.812793
 31
0.0
  0
LINE
  5
9A2E
330
96AF
100
AcDbEntity
  8
1
  6
Continuous
100
AcDbLine
 10
239.61125
 20
61.51279299999993
 30
0.0
 11
240.5927454576223
 21
59.812793
 31
0.0
  0
LINE
  5
9A2F
330
96AF
100
AcDbEntity
  8
1
  6
Continuous
100
AcDbLine
 10
239.61125
 20
61.51279299999998
 30
0.0
 11
231.61125
 21
61.51279299999993
 31
0.0
  0
LINE
  5
9A30
330
96AF
100
AcDbEntity
  8
1
  6
Continuous
100
AcDbLine
 10
231.61125
 20
61.51279299999993
 30
0.0
 11
230.6297545423774
 21
59.812793
 31
0.0
  0
LINE
  5
9A31
330
96AF
100
AcDbEntity
  8
1
  6
Continuous
100
AcDbLine
 10
239.61125
 20
308.6594929999999
 30
0.0
 11
240.5927454576223
 21
310.3594929999998
 31
0.0
  0
LINE
  5
9A32
330
96AF
100
AcDbEntity
  8
1
  6
Continuous
100
AcDbLine
 10
239.61125
 20
308.6594929999999
 30
0.0
 11
231.61125
 21
308.6594929999999
 31
0.0
  0
LINE
  5
9A33
330
96AF
100
AcDbEntity
  8
1
  6
Continuous
100
AcDbLine
 10
231.61125
 20
308.6594929999999
 30
0.0
 11
230.6297545423774
 21
310.3594929999998
 31
0.0
  0
ENDSEC
  0
SECTION
  2
OBJECTS
  0
DICTIONARY
  5
969D
330
0
100
AcDbDictionary
281
     1
  3
ACAD_CIP_PREVIOUS_PRODUCT_INFO
350
9A99
  3
ACAD_COLOR
350
9A7B
  3
ACAD_DETAILVIEWSTYLE
350
9A94
  3
ACAD_GROUP
350
969E
  3
ACAD_LAYOUT
350
96AA
  3
ACAD_MATERIAL
350
9A49
  3
ACAD_MLEADERSTYLE
350
9A90
  3
ACAD_MLINESTYLE
350
96A7
  3
ACAD_PLOTSETTINGS
350
96A9
  3
ACAD_PLOTSTYLENAME
350
9A47
  3
ACAD_SCALELIST
350
9A7E
  3
ACAD_SECTIONVIEWSTYLE
350
9A92
  3
ACAD_TABLESTYLE
350
9A7C
  3
ACAD_VISUALSTYLE
350
9A62
  3
ACDB_RECOMPOSE_DATA
350
9AB7
  3
AcDbVariableDictionary
350
9AAA
  3
DWGPROPS
350
9AB8
  0
DICTIONARY
  5
9A9A
330
96A1
100
AcDbDictionary
280
     1
281
     1
  3
ADSK_XREC_LAYER_RECONCILED
360
9A9B
  0
DICTIONARY
  5
9A9C
330
96B7
100
AcDbDictionary
280
     1
281
     1
  3
ADSK_XREC_LAYER_RECONCILED
360
9A9D
  0
DICTIONARY
  5
9A9E
330
96B8
100
AcDbDictionary
280
     1
281
     1
  3
ADSK_XREC_LAYER_RECONCILED
360
9A9F
  0
DICTIONARY
  5
9AA0
330
96B9
100
AcDbDictionary
280
     1
281
     1
  3
ADSK_XREC_LAYER_RECONCILED
360
9AA1
  0
DICTIONARY
  5
9AA2
330
96BA
100
AcDbDictionary
280
     1
281
     1
  3
ADSK_XREC_LAYER_RECONCILED
360
9AA3
  0
DICTIONARY
  5
9AA4
330
96BB
100
AcDbDictionary
280
     1
281
     1
  3
ADSK_XREC_LAYER_RECONCILED
360
9AA5
  0
DICTIONARY
  5
9AA6
330
96BC
100
AcDbDictionary
280
     1
281
     1
  3
ADSK_XREC_LAYER_RECONCILED
360
9AA7
  0
DICTIONARY
  5
9AA8
330
96BD
100
AcDbDictionary
280
     1
281
     1
  3
ADSK_XREC_LAYER_RECONCILED
360
9AA9
  0
DICTIONARY
  5
9A42
330
96AF
100
AcDbDictionary
281
     1
  3
ACAD_LAYOUTSELFREF
350
9A43
  0
DICTIONARY
  5
9A40
330
96AB
100
AcDbDictionary
281
     1
  3
ACAD_LAYOUTSELFREF
350
9A41
  0
XRECORD
  5
9A99
102
{ACAD_REACTORS
330
969D
102
}
330
969D
100
AcDbXrecord
280
     1
300
ACDLT
300
2014
300
ACDLT_F_S
  0
DICTIONARY
  5
9A7B
102
{ACAD_REACTORS
330
969D
102
}
330
969D
100
AcDbDictionary
281
     1
  0
DICTIONARY
  5
9A94
102
{ACAD_REACTORS
330
969D
102
}
330
969D
100
AcDbDictionary
281
     1
  3
Imperial24
350
9A95
  0
DICTIONARY
  5
969E
102
{ACAD_REACTORS
330
969D
102
}
330
969D
100
AcDbDictionary
281
     1
  0
DICTIONARY
  5
96AA
102
{ACAD_REACTORS
330
969D
102
}
330
969D
100
AcDbDictionary
281
     1
  3
Model
350
9A96
  3
レイアウト1
350
9A97
  0
DICTIONARY
  5
9A49
102
{ACAD_REACTORS
330
969D
102
}
330
969D
100
AcDbDictionary
281
     1
  3
ByBlock
350
9A52
  3
ByLayer
350
9A4A
  3
Global
350
9A5A
  0
DICTIONARY
  5
9A90
102
{ACAD_REACTORS
330
969D
102
}
330
969D
100
AcDbDictionary
281
     1
  3
Standard
350
9A91
  0
DICTIONARY
  5
96A7
102
{ACAD_REACTORS
330
969D
102
}
330
969D
100
AcDbDictionary
281
     1
  3
STANDARD
350
96A8
  0
DICTIONARY
  5
96A9
102
{ACAD_REACTORS
330
969D
102
}
330
969D
100
AcDbDictionary
281
     1
  0
ACDBDICTIONARYWDFLT
  5
9A47
102
{ACAD_REACTORS
330
969D
102
}
330
969D
100
AcDbDictionary
281
     1
  3
Normal
350
9A48
100
AcDbDictionaryWithDefault
340
9A48
  0
DICTIONARY
  5
9A7E
102
{ACAD_REACTORS
330
969D
102
}
330
969D
100
AcDbDictionary
281
     1
  3
A0
350
9A7F
  3
A1
350
9A80
  3
A2
350
9A81
  3
A3
350
9A82
  3
A4
350
9A83
  3
A5
350
9A84
  3
A6
350
9A85
  3
A7
350
9A86
  3
A8
350
9A87
  3
A9
350
9A88
  3
B0
350
9A89
  3
B1
350
9A8A
  3
B2
350
9A8B
  3
B3
350
9A8C
  3
B4
350
9A8D
  3
B5
350
9A8E
  3
B6
350
9A8F
  0
DICTIONARY
  5
9A92
102
{ACAD_REACTORS
330
969D
102
}
330
969D
100
AcDbDictionary
281
     1
  3
Imperial24
350
9A93
  0
DICTIONARY
  5
9A7C
102
{ACAD_REACTORS
330
969D
102
}
330
969D
100
AcDbDictionary
281
     1
  3
Standard
350
9A7D
  0
DICTIONARY
  5
9A62
102
{ACAD_REACTORS
330
969D
102
}
330
969D
100
AcDbDictionary
281
     1
  3
2dWireframe
350
9A68
  3
Basic
350
9A67
  3
Brighten
350
9A6E
  3
ColorChange
350
9A72
  3
Conceptual
350
9A6B
  3
Dim
350
9A6D
  3
EdgeColorOff
350
9A7A
  3
Facepattern
350
9A71
  3
Flat
350
9A63
  3
FlatWithEdges
350
9A64
  3
Gouraud
350
9A65
  3
GouraudWithEdges
350
9A66
  3
Hidden
350
9A6A
  3
JitterOff
350
9A78
  3
Linepattern
350
9A70
  3
OverhangOff
350
9A79
  3
Realistic
350
9A6C
  3
Shaded
350
9A77
  3
Shaded with edges
350
9A76
  3
Shades of Gray
350
9A73
  3
Sketchy
350
9A74
  3
Thicken
350
9A6F
  3
Wireframe
350
9A69
  3
X-Ray
350
9A75
  0
XRECORD
  5
9AB7
102
{ACAD_REACTORS
330
969D
102
}
330
969D
100
AcDbXrecord
280
     1
 90
        1
330
9A7D
  0
DICTIONARY
  5
9AAA
102
{ACAD_REACTORS
330
969D
102
}
330
969D
100
AcDbDictionary
281
     1
  3
CANNOSCALE
350
9AAF
  3
CMLEADERSTYLE
350
9AAC
  3
CTABLESTYLE
350
9AAB
  3
CVIEWDETAILSTYLE
350
9AAD
  3
CVIEWSECTIONSTYLE
350
9AAE
  3
DIMASSOC
350
9AB2
  3
INDEXCTL
350
9AB1
  3
SORTENTS
350
9AB0
  3
XCLIPFRAME
350
9AB3
  0
XRECORD
  5
9AB8
102
{ACAD_REACTORS
330
969D
102
}
330
969D
100
AcDbXrecord
280
     1
  1
DWGPROPS COOKIE
  2

  3

  4

  6

  7

  8
Yoshitsune
  9

300
=
301
=
302
=
303
=
304
=
305
=
306
=
307
=
308
=
309
=
 40
0.0172630671296296
 41
2450737.700380671
 42
2457192.640314028
  1

 90
        0
  0
XRECORD
  5
9A9B
102
{ACAD_REACTORS
330
9A9A
102
}
330
9A9A
100
AcDbXrecord
280
     1
290
     1
  0
XRECORD
  5
9A9D
102
{ACAD_REACTORS
330
9A9C
102
}
330
9A9C
100
AcDbXrecord
280
     1
290
     1
  0
XRECORD
  5
9A9F
102
{ACAD_REACTORS
330
9A9E
102
}
330
9A9E
100
AcDbXrecord
280
     1
290
     1
  0
XRECORD
  5
9AA1
102
{ACAD_REACTORS
330
9AA0
102
}
330
9AA0
100
AcDbXrecord
280
     1
290
     1
  0
XRECORD
  5
9AA3
102
{ACAD_REACTORS
330
9AA2
102
}
330
9AA2
100
AcDbXrecord
280
     1
290
     1
  0
XRECORD
  5
9AA5
102
{ACAD_REACTORS
330
9AA4
102
}
330
9AA4
100
AcDbXrecord
280
     1
290
     1
  0
XRECORD
  5
9AA7
102
{ACAD_REACTORS
330
9AA6
102
}
330
9AA6
100
AcDbXrecord
280
     1
290
     1
  0
XRECORD
  5
9AA9
102
{ACAD_REACTORS
330
9AA8
102
}
330
9AA8
100
AcDbXrecord
280
     1
290
     1
  0
XRECORD
  5
9A43
102
{ACAD_REACTORS
330
9A42
102
}
330
9A42
100
AcDbXrecord
280
     1
340
96AF
  0
XRECORD
  5
9A41
102
{ACAD_REACTORS
330
9A40
102
}
330
9A40
100
AcDbXrecord
280
     1
340
96AB
  0
ACDBDETAILVIEWSTYLE
  5
9A95
102
{ACAD_XDICTIONARY
360
9AF0
102
}
102
{ACAD_REACTORS
330
9A94
102
}
330
9A94
100
AcDbModelDocViewStyle
 70
     0
  3
Imperial24
290
     0
100
AcDbDetailViewStyle
 70
     0
 71
     0
 90
        3
 71
     1
340
96A2
 40
0.24
340
0
 40
0.24
300

 40
0.36
280
     3
 71
     2
340
96A6
 90
       25
 71
     3
340
96A2
 40
0.24
 90
        1
 40
0.75
 90
        1
300
%<\AcVar ViewType \f "%tc1">% %<\AcVar ViewDetailId>%\PSCALE %<\AcVar ViewScale \f "%sn">%
 71
     4
340
96A6
 90
       25
340
96A6
 90
       25
280
     0
  0
LAYOUT
  5
9A96
102
{ACAD_XDICTIONARY
360
9AF2
102
}
102
{ACAD_REACTORS
330
96AA
102
}
330
96AA
100
AcDbPlotSettings
  1

  2
Canon LBP9100C
  4

  6

 40
0.0
 41
0.0
 42
0.0
 43
0.0
 44
0.0
 45
0.0
 46
0.0
 47
0.0
 48
0.0
 49
0.0
140
0.0
141
0.0
142
1.0
143
1.0
 70
  1712
 72
     0
 73
     0
 74
     0
  7

 75
     0
147
1.0
148
0.0
149
0.0
100
AcDbLayout
  1
Model
 70
     1
 71
     0
 10
0.0
 20
0.0
 11
12.0
 21
9.0
 12
0.0
 22
0.0
 32
0.0
 14
0.0
 24
0.0
 34
0.0
 15
0.0
 25
0.0
 35
0.0
146
0.0
 13
0.0
 23
0.0
 33
0.0
 16
1.0
 26
0.0
 36
0.0
 17
0.0
 27
1.0
 37
0.0
 76
     0
330
96AF
331
9A3F
  0
LAYOUT
  5
9A97
102
{ACAD_XDICTIONARY
360
9AF4
102
}
102
{ACAD_REACTORS
330
96AA
102
}
330
96AA
100
AcDbPlotSettings
  1

  2
Canon LBP9100C
  4

  6

 40
0.0
 41
0.0
 42
0.0
 43
0.0
 44
0.0
 45
0.0
 46
0.0
 47
0.0
 48
0.0
 49
0.0
140
0.0
141
0.0
142
1.0
143
1.0
 70
   688
 72
     0
 73
     0
 74
     5
  7

 75
    16
147
1.0
148
0.0
149
0.0
100
AcDbLayout
  1
レイアウト1
 70
     0
 71
     1
 10
0.0
 20
0.0
 11
420.0
 21
297.0
 12
0.0
 22
0.0
 32
0.0
 14
1.000000000000000E+20
 24
1.000000000000000E+20
 34
1.000000000000000E+20
 15
-1.000000000000000E+20
 25
-1.000000000000000E+20
 35
-1.000000000000000E+20
146
0.0
 13
0.0
 23
0.0
 33
0.0
 16
1.0
 26
0.0
 36
0.0
 17
0.0
 27
1.0
 37
0.0
 76
     0
330
96AB
  0
MATERIAL
  5
9A52
102
{ACAD_XDICTIONARY
360
9A53
102
}
102
{ACAD_REACTORS
330
9A49
102
}
330
9A49
100
AcDbMaterial
  1
ByBlock
 72
     0
 43
0.0208333333333333
 43
0.0
 43
0.0
 43
0.0
 43
0.0
 43
0.0208333333333333
 43
0.0
 43
0.0
 43
0.0
 43
0.0
 43
1.0
 43
0.0
 43
0.0
 43
0.0
 43
0.0
 43
1.0
 77
     0
 47
0.0208333333333333
 47
0.0
 47
0.0
 47
0.0
 47
0.0
 47
0.0208333333333333
 47
0.0
 47
0.0
 47
0.0
 47
0.0
 47
1.0
 47
0.0
 47
0.0
 47
0.0
 47
0.0
 47
1.0
171
     0
 49
0.0208333333333333
 49
0.0
 49
0.0
 49
0.0
 49
0.0
 49
0.0208333333333333
 49
0.0
 49
0.0
 49
0.0
 49
0.0
 49
1.0
 49
0.0
 49
0.0
 49
0.0
 49
0.0
 49
1.0
175
     0
142
0.0208333333333333
142
0.0
142
0.0
142
0.0
142
0.0
142
0.0208333333333333
142
0.0
142
0.0
142
0.0
142
0.0
142
1.0
142
0.0
142
0.0
142
0.0
142
0.0
142
1.0
179
     0
144
0.0208333333333333
144
0.0
144
0.0
144
0.0
144
0.0
144
0.0208333333333333
144
0.0
144
0.0
144
0.0
144
0.0
144
1.0
144
0.0
144
0.0
144
0.0
144
0.0
144
1.0
147
0.0208333333333333
147
0.0
147
0.0
147
0.0
147
0.0
147
0.0208333333333333
147
0.0
147
0.0
147
0.0
147
0.0
147
1.0
147
0.0
147
0.0
147
0.0
147
0.0
147
1.0
  0
MATERIAL
  5
9A4A
102
{ACAD_XDICTIONARY
360
9A4B
102
}
102
{ACAD_REACTORS
330
9A49
102
}
330
9A49
100
AcDbMaterial
  1
ByLayer
 72
     0
 43
0.0208333333333333
 43
0.0
 43
0.0
 43
0.0
 43
0.0
 43
0.0208333333333333
 43
0.0
 43
0.0
 43
0.0
 43
0.0
 43
1.0
 43
0.0
 43
0.0
 43
0.0
 43
0.0
 43
1.0
 77
     0
 47
0.0208333333333333
 47
0.0
 47
0.0
 47
0.0
 47
0.0
 47
0.0208333333333333
 47
0.0
 47
0.0
 47
0.0
 47
0.0
 47
1.0
 47
0.0
 47
0.0
 47
0.0
 47
0.0
 47
1.0
171
     0
 49
0.0208333333333333
 49
0.0
 49
0.0
 49
0.0
 49
0.0
 49
0.0208333333333333
 49
0.0
 49
0.0
 49
0.0
 49
0.0
 49
1.0
 49
0.0
 49
0.0
 49
0.0
 49
0.0
 49
1.0
175
     0
142
0.0208333333333333
142
0.0
142
0.0
142
0.0
142
0.0
142
0.0208333333333333
142
0.0
142
0.0
142
0.0
142
0.0
142
1.0
142
0.0
142
0.0
142
0.0
142
0.0
142
1.0
179
     0
144
0.0208333333333333
144
0.0
144
0.0
144
0.0
144
0.0
144
0.0208333333333333
144
0.0
144
0.0
144
0.0
144
0.0
144
1.0
144
0.0
144
0.0
144
0.0
144
0.0
144
1.0
147
0.0208333333333333
147
0.0
147
0.0
147
0.0
147
0.0
147
0.0208333333333333
147
0.0
147
0.0
147
0.0
147
0.0
147
1.0
147
0.0
147
0.0
147
0.0
147
0.0
147
1.0
  0
MATERIAL
  5
9A5A
102
{ACAD_XDICTIONARY
360
9A5B
102
}
102
{ACAD_REACTORS
330
9A49
102
}
330
9A49
100
AcDbMaterial
  1
Global
 72
     0
 43
0.0208333333333333
 43
0.0
 43
0.0
 43
0.0
 43
0.0
 43
0.0208333333333333
 43
0.0
 43
0.0
 43
0.0
 43
0.0
 43
1.0
 43
0.0
 43
0.0
 43
0.0
 43
0.0
 43
1.0
 77
     0
 47
0.0208333333333333
 47
0.0
 47
0.0
 47
0.0
 47
0.0
 47
0.0208333333333333
 47
0.0
 47
0.0
 47
0.0
 47
0.0
 47
1.0
 47
0.0
 47
0.0
 47
0.0
 47
0.0
 47
1.0
171
     0
 49
0.0208333333333333
 49
0.0
 49
0.0
 49
0.0
 49
0.0
 49
0.0208333333333333
 49
0.0
 49
0.0
 49
0.0
 49
0.0
 49
1.0
 49
0.0
 49
0.0
 49
0.0
 49
0.0
 49
1.0
175
     0
142
0.0208333333333333
142
0.0
142
0.0
142
0.0
142
0.0
142
0.0208333333333333
142
0.0
142
0.0
142
0.0
142
0.0
142
1.0
142
0.0
142
0.0
142
0.0
142
0.0
142
1.0
179
     0
144
0.0208333333333333
144
0.0
144
0.0
144
0.0
144
0.0
144
0.0208333333333333
144
0.0
144
0.0
144
0.0
144
0.0
144
1.0
144
0.0
144
0.0
144
0.0
144
0.0
144
1.0
147
0.0208333333333333
147
0.0
147
0.0
147
0.0
147
0.0
147
0.0208333333333333
147
0.0
147
0.0
147
0.0
147
0.0
147
1.0
147
0.0
147
0.0
147
0.0
147
0.0
147
1.0
  0
MLEADERSTYLE
  5
9A91
102
{ACAD_REACTORS
330
9A90
102
}
330
9A90
100
AcDbMLeaderStyle
170
     2
171
     1
172
     0
 90
        2
 40
0.0
 41
0.0
173
     1
 91
-1056964608
340
96A4
 92
       -2
290
     1
 42
0.09
291
     1
 43
0.36
  3
Standard
 44
0.18
300

342
96A2
174
     1
178
     6
175
     1
176
     0
 93
-1056964608
 45
0.18
292
     0
297
     0
 46
0.18
 94
-1056964608
 47
1.0
 49
1.0
140
1.0
293
     1
141
0.0
294
     1
177
     0
142
1.0
295
     0
296
     0
143
0.125
1001
ACAD_MLEADERVER
1070
     2
  0
MLINESTYLE
  5
96A8
102
{ACAD_REACTORS
330
96A7
102
}
330
96A7
100
AcDbMlineStyle
  2
STANDARD
 70
     0
  3

 62
   256
 51
90.0
 52
90.0
 71
     2
 49
0.5
 62
   256
  6
BYLAYER
 49
-0.5
 62
   256
  6
BYLAYER
  0
ACDBPLACEHOLDER
  5
9A48
102
{ACAD_REACTORS
330
9A47
102
}
330
9A47
  0
SCALE
  5
9A7F
102
{ACAD_REACTORS
330
9A7E
102
}
330
9A7E
100
AcDbScale
 70
     0
300
1:1
140
1.0
141
1.0
290
     1
  0
SCALE
  5
9A80
102
{ACAD_REACTORS
330
9A7E
102
}
330
9A7E
100
AcDbScale
 70
     0
300
1/128" = 1'-0"
140
0.0078125
141
12.0
290
     0
  0
SCALE
  5
9A81
102
{ACAD_REACTORS
330
9A7E
102
}
330
9A7E
100
AcDbScale
 70
     0
300
1/64" = 1'-0"
140
0.015625
141
12.0
290
     0
  0
SCALE
  5
9A82
102
{ACAD_REACTORS
330
9A7E
102
}
330
9A7E
100
AcDbScale
 70
     0
300
1/32" = 1'-0"
140
0.03125
141
12.0
290
     0
  0
SCALE
  5
9A83
102
{ACAD_REACTORS
330
9A7E
102
}
330
9A7E
100
AcDbScale
 70
     0
300
1/16" = 1'-0"
140
0.0625
141
12.0
290
     0
  0
SCALE
  5
9A84
102
{ACAD_REACTORS
330
9A7E
102
}
330
9A7E
100
AcDbScale
 70
     0
300
3/32" = 1'-0"
140
0.09375
141
12.0
290
     0
  0
SCALE
  5
9A85
102
{ACAD_REACTORS
330
9A7E
102
}
330
9A7E
100
AcDbScale
 70
     0
300
1/8" = 1'-0"
140
0.125
141
12.0
290
     0
  0
SCALE
  5
9A86
102
{ACAD_REACTORS
330
9A7E
102
}
330
9A7E
100
AcDbScale
 70
     0
300
3/16" = 1'-0"
140
0.1875
141
12.0
290
     0
  0
SCALE
  5
9A87
102
{ACAD_REACTORS
330
9A7E
102
}
330
9A7E
100
AcDbScale
 70
     0
300
1/4" = 1'-0"
140
0.25
141
12.0
290
     0
  0
SCALE
  5
9A88
102
{ACAD_REACTORS
330
9A7E
102
}
330
9A7E
100
AcDbScale
 70
     0
300
3/8" = 1'-0"
140
0.375
141
12.0
290
     0
  0
SCALE
  5
9A89
102
{ACAD_REACTORS
330
9A7E
102
}
330
9A7E
100
AcDbScale
 70
     0
300
1/2" = 1'-0"
140
0.5
141
12.0
290
     0
  0
SCALE
  5
9A8A
102
{ACAD_REACTORS
330
9A7E
102
}
330
9A7E
100
AcDbScale
 70
     0
300
3/4" = 1'-0"
140
0.75
141
12.0
290
     0
  0
SCALE
  5
9A8B
102
{ACAD_REACTORS
330
9A7E
102
}
330
9A7E
100
AcDbScale
 70
     0
300
1" = 1'-0"
140
1.0
141
12.0
290
     0
  0
SCALE
  5
9A8C
102
{ACAD_REACTORS
330
9A7E
102
}
330
9A7E
100
AcDbScale
 70
     0
300
1-1/2" = 1'-0"
140
1.5
141
12.0
290
     0
  0
SCALE
  5
9A8D
102
{ACAD_REACTORS
330
9A7E
102
}
330
9A7E
100
AcDbScale
 70
     0
300
3" = 1'-0"
140
3.0
141
12.0
290
     0
  0
SCALE
  5
9A8E
102
{ACAD_REACTORS
330
9A7E
102
}
330
9A7E
100
AcDbScale
 70
     0
300
6" = 1'-0"
140
6.0
141
12.0
290
     0
  0
SCALE
  5
9A8F
102
{ACAD_REACTORS
330
9A7E
102
}
330
9A7E
100
AcDbScale
 70
     0
300
1'-0" = 1'-0"
140
12.0
141
12.0
290
     0
  0
ACDBSECTIONVIEWSTYLE
  5
9A93
102
{ACAD_XDICTIONARY
360
9AEE
102
}
102
{ACAD_REACTORS
330
9A92
102
}
330
9A92
100
AcDbModelDocViewStyle
 70
     0
  3
Imperial24
290
     0
100
AcDbSectionViewStyle
 70
     0
 71
     0
 90
       78
 71
     1
340
96A2
 40
0.24
340
0
340
0
 40
0.24
300
I, O, Q, S, X, Z
 40
0.48
 90
        3
 40
0.18
 90
        1
 71
     2
340
96A6
 90
       25
340
96A6
 90
       50
 40
0.24
 40
0.0
 40
0.24
 71
     3
340
96A2
 40
0.24
 90
        1
 40
0.75
 90
        1
300
%<\AcVar ViewType \f "%tc1">% %<\AcVar ViewSectionStartId>%-%<\AcVar ViewSectionEndId>%\PSCALE %<\AcVar ViewScale \f "%sn">%
 71
     4
300
ANSI31
 40
1.0
 90
        0
290
     0
290
     0
 90
        6
 40
0.0
 40
1.570796326794896
 40
0.2617993877991494
 40
1.308996938995747
 40
-0.2617993877991494
 40
1.832595714594046
  0
TABLESTYLE
  5
9A7D
102
{ACAD_XDICTIONARY
360
9AB5
102
}
102
{ACAD_REACTORS
330
9A7C
102
}
330
9A7C
100
AcDbTableStyle
  3
Standard
 70
     0
 71
     0
 40
0.06
 41
0.06
280
     0
281
     0
  7
STANDARD
140
0.18
170
     2
 62
     0
 63
     7
283
     0
274
    -2
284
     1
 64
     0
275
    -2
285
     1
 65
     0
276
    -2
286
     1
 66
     0
277
    -2
287
     1
 67
     0
278
    -2
288
     1
 68
     0
279
    -2
289
     1
 69
     0
  7
STANDARD
140
0.25
170
     5
 62
     0
 63
     7
283
     0
274
    -2
284
     1
 64
     0
275
    -2
285
     1
 65
     0
276
    -2
286
     1
 66
     0
277
    -2
287
     1
 67
     0
278
    -2
288
     1
 68
     0
279
    -2
289
     1
 69
     0
  7
STANDARD
140
0.18
170
     5
 62
     0
 63
     7
283
     0
274
    -2
284
     1
 64
     0
275
    -2
285
     1
 65
     0
276
    -2
286
     1
 66
     0
277
    -2
287
     1
 67
     0
278
    -2
288
     1
 68
     0
279
    -2
289
     1
 69
     0
  0
VISUALSTYLE
  5
9A68
102
{ACAD_XDICTIONARY
360
9AC6
102
}
102
{ACAD_REACTORS
330
9A62
102
}
330
9A62
100
AcDbVisualStyle
  2
2dWireframe
 70
     4
 71
     0
 72
     2
 73
     0
 90
        0
 40
-0.6
 41
-30.0
 62
     5
 63
     7
 74
     1
 91
        4
 64
     7
 65
   257
 75
     1
175
     1
 42
1.0
 92
        0
 66
   257
 43
1.0
 76
     1
 77
     6
 78
     2
 67
     7
 79
     5
170
     0
171
     0
290
     0
174
     0
 93
        1
 44
0.0
173
     0
291
     0
 45
0.0
1001
ACAD
1000
AcDbSavedByObjectVersion
1070
     0
  0
VISUALSTYLE
  5
9A67
102
{ACAD_XDICTIONARY
360
9AC4
102
}
102
{ACAD_REACTORS
330
9A62
102
}
330
9A62
100
AcDbVisualStyle
  2
Basic
 70
     7
 71
     1
 72
     0
 73
     1
 90
        0
 40
-0.6
 41
-30.0
 62
     5
 63
     7
 74
     0
 91
        4
 64
     7
 65
   257
 75
     1
175
     1
 42
1.0
 92
        8
 66
     7
 43
1.0
 76
     1
 77
     6
 78
     2
 67
     7
 79
     5
170
     0
171
     0
290
     0
174
     0
 93
        1
 44
0.0
173
     0
291
     1
 45
0.0
1001
ACAD
1000
AcDbSavedByObjectVersion
1070
     0
  0
VISUALSTYLE
  5
9A6E
102
{ACAD_XDICTIONARY
360
9AD2
102
}
102
{ACAD_REACTORS
330
9A62
102
}
330
9A62
100
AcDbVisualStyle
  2
Brighten
 70
    12
 71
     2
 72
     2
 73
     0
 90
        0
 40
-0.6
 41
-30.0
 62
     5
 63
     7
 74
     1
 91
        4
 64
     7
 65
   257
 75
     1
175
     1
 42
1.0
 92
        8
 66
     7
 43
1.0
 76
     1
 77
     6
 78
     2
 67
     7
 79
     5
170
     0
171
     0
290
     0
174
     0
 93
        1
 44
50.0
173
     0
291
     1
 45
0.0
1001
ACAD
1000
AcDbSavedByObjectVersion
1070
     0
  0
VISUALSTYLE
  5
9A72
102
{ACAD_XDICTIONARY
360
9ADA
102
}
102
{ACAD_REACTORS
330
9A62
102
}
330
9A62
100
AcDbVisualStyle
  2
ColorChange
 70
    16
 71
     2
 72
     2
 73
     3
 90
        0
 40
-0.6
 41
-30.0
 62
     5
 63
     8
 74
     1
 91
        4
 64
     7
 65
   257
 75
     1
175
     1
 42
1.0
 92
        8
 66
     8
 43
1.0
 76
     1
 77
     6
 78
     2
 67
     7
 79
     5
170
     0
171
     0
290
     0
174
     0
 93
        1
 44
0.0
173
     0
291
     1
 45
0.0
1001
ACAD
1000
AcDbSavedByObjectVersion
1070
     0
  0
VISUALSTYLE
  5
9A6B
102
{ACAD_XDICTIONARY
360
9ACC
102
}
102
{ACAD_REACTORS
330
9A62
102
}
330
9A62
100
AcDbVisualStyle
  2
Conceptual
 70
     9
 71
     3
 72
     2
 73
     0
 90
        0
 40
-0.6
 41
-30.0
 62
     5
 63
     7
 74
     2
 91
        2
 64
     7
 65
   257
 75
     1
175
     1
 42
179.0
 92
        8
 66
     7
 43
1.0
 76
     1
 77
     6
 78
     2
 67
     7
 79
     3
170
     0
171
     0
290
     0
174
     0
 93
        1
 44
0.0
173
     0
291
     0
 45
0.0
1001
ACAD
1000
AcDbSavedByObjectVersion
1070
     0
  0
VISUALSTYLE
  5
9A6D
102
{ACAD_XDICTIONARY
360
9AD0
102
}
102
{ACAD_REACTORS
330
9A62
102
}
330
9A62
100
AcDbVisualStyle
  2
Dim
 70
    11
 71
     2
 72
     2
 73
     0
 90
        0
 40
-0.6
 41
-30.0
 62
     5
 63
     7
 74
     1
 91
        4
 64
     7
 65
   257
 75
     1
175
     1
 42
1.0
 92
        8
 66
     7
 43
1.0
 76
     1
 77
     6
 78
     2
 67
     7
 79
     5
170
     0
171
     0
290
     0
174
     0
 93
        1
 44
-50.0
173
     0
291
     1
 45
0.0
1001
ACAD
1000
AcDbSavedByObjectVersion
1070
     0
  0
VISUALSTYLE
  5
9A7A
102
{ACAD_XDICTIONARY
360
9AEA
102
}
102
{ACAD_REACTORS
330
9A62
102
}
330
9A62
100
AcDbVisualStyle
  2
EdgeColorOff
 70
    22
 71
     2
 72
     2
 73
     0
 90
        0
 40
-0.6
 41
-30.0
 62
     5
 63
     7
 74
     1
 91
        4
 64
     7
 65
   257
 75
     1
175
     1
 42
1.0
 92
        8
 66
     7
 43
1.0
 76
     1
 77
     6
 78
     2
 67
     7
 79
     5
170
     0
171
     0
290
     0
174
     0
 93
        1
 44
0.0
173
     0
291
     1
 45
0.0
1001
ACAD
1000
AcDbSavedByObjectVersion
1070
     0
  0
VISUALSTYLE
  5
9A71
102
{ACAD_XDICTIONARY
360
9AD8
102
}
102
{ACAD_REACTORS
330
9A62
102
}
330
9A62
100
AcDbVisualStyle
  2
Facepattern
 70
    15
 71
     2
 72
     2
 73
     0
 90
        0
 40
-0.6
 41
-30.0
 62
     5
 63
     7
 74
     1
 91
        4
 64
     7
 65
   257
 75
     1
175
     1
 42
1.0
 92
        8
 66
     7
 43
1.0
 76
     1
 77
     6
 78
     2
 67
     7
 79
     5
170
     0
171
     0
290
     0
174
     0
 93
        1
 44
0.0
173
     0
291
     1
 45
0.0
1001
ACAD
1000
AcDbSavedByObjectVersion
1070
     0
  0
VISUALSTYLE
  5
9A63
102
{ACAD_XDICTIONARY
360
9ABC
102
}
102
{ACAD_REACTORS
330
9A62
102
}
330
9A62
100
AcDbVisualStyle
  2
Flat
 70
     0
 71
     2
 72
     1
 73
     1
 90
        2
 40
-0.6
 41
30.0
 62
     5
 63
     7
 74
     0
 91
        0
 64
     7
 65
   257
 75
     1
175
     1
 42
1.0
 92
        8
 66
     7
 43
1.0
 76
     1
 77
     6
 78
     2
 67
     7
 79
     5
170
     0
171
     0
290
     0
174
     0
 93
       13
 44
0.0
173
     0
291
     1
 45
0.0
1001
ACAD
1000
AcDbSavedByObjectVersion
1070
     0
  0
VISUALSTYLE
  5
9A64
102
{ACAD_XDICTIONARY
360
9ABE
102
}
102
{ACAD_REACTORS
330
9A62
102
}
330
9A62
100
AcDbVisualStyle
  2
FlatWithEdges
 70
     1
 71
     2
 72
     1
 73
     1
 90
        2
 40
-0.6
 41
30.0
 62
     5
 63
     7
 74
     1
 91
        0
 64
     7
 65
   257
 75
     1
175
     1
 42
1.0
 92
        0
 66
   257
 43
1.0
 76
     1
 77
     6
 78
     2
 67
     7
 79
     5
170
     0
171
     0
290
     0
174
     0
 93
       13
 44
0.0
173
     0
291
     1
 45
0.0
1001
ACAD
1000
AcDbSavedByObjectVersion
1070
     0
  0
VISUALSTYLE
  5
9A65
102
{ACAD_XDICTIONARY
360
9AC0
102
}
102
{ACAD_REACTORS
330
9A62
102
}
330
9A62
100
AcDbVisualStyle
  2
Gouraud
 70
     2
 71
     2
 72
     2
 73
     1
 90
        2
 40
-0.6
 41
30.0
 62
     5
 63
     7
 74
     0
 91
        0
 64
     7
 65
   257
 75
     1
175
     1
 42
1.0
 92
        0
 66
     7
 43
1.0
 76
     1
 77
     6
 78
     2
 67
     7
 79
     5
170
     0
171
     0
290
     0
174
     0
 93
       13
 44
0.0
173
     0
291
     1
 45
0.0
1001
ACAD
1000
AcDbSavedByObjectVersion
1070
     0
  0
VISUALSTYLE
  5
9A66
102
{ACAD_XDICTIONARY
360
9AC2
102
}
102
{ACAD_REACTORS
330
9A62
102
}
330
9A62
100
AcDbVisualStyle
  2
GouraudWithEdges
 70
     3
 71
     2
 72
     2
 73
     1
 90
        2
 40
-0.6
 41
30.0
 62
     5
 63
     7
 74
     1
 91
        0
 64
     7
 65
   257
 75
     1
175
     1
 42
1.0
 92
        0
 66
   257
 43
1.0
 76
     1
 77
     6
 78
     2
 67
     7
 79
     5
170
     0
171
     0
290
     0
174
     0
 93
       13
 44
0.0
173
     0
291
     1
 45
0.0
1001
ACAD
1000
AcDbSavedByObjectVersion
1070
     0
  0
VISUALSTYLE
  5
9A6A
102
{ACAD_XDICTIONARY
360
9ACA
102
}
102
{ACAD_REACTORS
330
9A62
102
}
330
9A62
100
AcDbVisualStyle
  2
Hidden
 70
     6
 71
     1
 72
     2
 73
     2
 90
        0
 40
-0.6
 41
-30.0
 62
     5
 63
     7
 74
     2
 91
        2
 64
     7
 65
   257
 75
     2
175
     1
 42
40.0
 92
        0
 66
   257
 43
1.0
 76
     1
 77
     6
 78
     2
 67
     7
 79
     3
170
     0
171
     0
290
     0
174
     0
 93
        1
 44
0.0
173
     0
291
     0
 45
0.0
1001
ACAD
1000
AcDbSavedByObjectVersion
1070
     0
  0
VISUALSTYLE
  5
9A78
102
{ACAD_XDICTIONARY
360
9AE6
102
}
102
{ACAD_REACTORS
330
9A62
102
}
330
9A62
100
AcDbVisualStyle
  2
JitterOff
 70
    20
 71
     2
 72
     2
 73
     0
 90
        0
 40
-0.6
 41
-30.0
 62
     5
 63
     7
 74
     1
 91
        4
 64
     7
 65
   257
 75
     1
175
     1
 42
1.0
 92
       10
 66
     7
 43
1.0
 76
     1
 77
     6
 78
     2
 67
     7
 79
     5
170
     0
171
     0
290
     0
174
     0
 93
        1
 44
0.0
173
     0
291
     1
 45
0.0
1001
ACAD
1000
AcDbSavedByObjectVersion
1070
     0
  0
VISUALSTYLE
  5
9A70
102
{ACAD_XDICTIONARY
360
9AD6
102
}
102
{ACAD_REACTORS
330
9A62
102
}
330
9A62
100
AcDbVisualStyle
  2
Linepattern
 70
    14
 71
     2
 72
     2
 73
     0
 90
        0
 40
-0.6
 41
-30.0
 62
     5
 63
     7
 74
     1
 91
        4
 64
     7
 65
   257
 75
     7
175
     7
 42
1.0
 92
        8
 66
     7
 43
1.0
 76
     1
 77
     6
 78
     2
 67
     7
 79
     5
170
     0
171
     0
290
     0
174
     0
 93
        1
 44
0.0
173
     0
291
     1
 45
0.0
1001
ACAD
1000
AcDbSavedByObjectVersion
1070
     0
  0
VISUALSTYLE
  5
9A79
102
{ACAD_XDICTIONARY
360
9AE8
102
}
102
{ACAD_REACTORS
330
9A62
102
}
330
9A62
100
AcDbVisualStyle
  2
OverhangOff
 70
    21
 71
     2
 72
     2
 73
     0
 90
        0
 40
-0.6
 41
-30.0
 62
     5
 63
     7
 74
     1
 91
        4
 64
     7
 65
   257
 75
     1
175
     1
 42
1.0
 92
        9
 66
     7
 43
1.0
 76
     1
 77
     6
 78
     2
 67
     7
 79
     5
170
     0
171
     0
290
     0
174
     0
 93
        1
 44
0.0
173
     0
291
     1
 45
0.0
1001
ACAD
1000
AcDbSavedByObjectVersion
1070
     0
  0
VISUALSTYLE
  5
9A6C
102
{ACAD_XDICTIONARY
360
9ACE
102
}
102
{ACAD_REACTORS
330
9A62
102
}
330
9A62
100
AcDbVisualStyle
  2
Realistic
 70
     8
 71
     2
 72
     3
 73
     0
 90
        2
 40
-0.6
 41
30.0
 62
     5
 63
     7
 74
     0
 91
        0
 64
     7
 65
   257
 75
     1
175
     1
 42
1.0
 92
        8
 66
   257
 43
1.0
 76
     1
 77
     6
 78
     2
 67
     7
 79
     3
170
     0
171
     0
290
     0
174
     0
 93
       13
 44
0.0
173
     0
291
     0
 45
0.0
1001
ACAD
1000
AcDbSavedByObjectVersion
1070
     0
  0
VISUALSTYLE
  5
9A77
102
{ACAD_XDICTIONARY
360
9AE4
102
}
102
{ACAD_REACTORS
330
9A62
102
}
330
9A62
100
AcDbVisualStyle
  2
Shaded
 70
    27
 71
     2
 72
     2
 73
     1
 90
        2
 40
-0.6
 41
30.0
 62
     5
 63
     7
 74
     0
 91
        4
 64
     7
 65
   257
 75
     1
175
     1
 42
1.0
 92
        8
 66
   257
 43
1.0
 76
     1
 77
     6
 78
     2
 67
     8
 79
     3
170
     0
171
     0
290
     0
174
     0
 93
        5
 44
0.0
173
     0
291
     0
 45
0.0
1001
ACAD
1000
AcDbSavedByObjectVersion
1070
     0
  0
VISUALSTYLE
  5
9A76
102
{ACAD_XDICTIONARY
360
9AE2
102
}
102
{ACAD_REACTORS
330
9A62
102
}
330
9A62
100
AcDbVisualStyle
  2
Shaded with edges
 70
    26
 71
     2
 72
     2
 73
     1
 90
        2
 40
-0.6
 41
30.0
 62
     5
 63
     7
 74
     1
 91
       10
 64
     7
 65
   257
 75
     2
175
     1
 42
1.0
 92
        8
 66
   257
 43
1.0
 76
     1
 77
     6
 78
     2
 67
     7
 79
     3
170
     0
171
     0
290
     0
174
     0
 93
        5
 44
0.0
173
     0
291
     0
 45
0.0
1001
ACAD
1000
AcDbSavedByObjectVersion
1070
     0
  0
VISUALSTYLE
  5
9A73
102
{ACAD_XDICTIONARY
360
9ADC
102
}
102
{ACAD_REACTORS
330
9A62
102
}
330
9A62
100
AcDbVisualStyle
  2
Shades of Gray
 70
    23
 71
     2
 72
     2
 73
     3
 90
        0
 40
-0.6
 41
-30.0
 62
     5
 63
     7
 74
     2
 91
        2
 64
     7
 65
     7
 75
     1
175
     1
 42
40.0
 92
        8
 66
     7
 43
1.0
 76
     1
 77
     6
 78
     2
 67
     7
 79
     3
170
     0
171
     0
290
     0
174
     0
 93
        1
 44
0.0
173
     0
291
     0
 45
0.0
1001
ACAD
1000
AcDbSavedByObjectVersion
1070
     0
  0
VISUALSTYLE
  5
9A74
102
{ACAD_XDICTIONARY
360
9ADE
102
}
102
{ACAD_REACTORS
330
9A62
102
}
330
9A62
100
AcDbVisualStyle
  2
Sketchy
 70
    24
 71
     1
 72
     2
 73
     2
 90
        0
 40
-0.6
 41
-30.0
 62
     5
 63
     7
 74
     2
 91
        2
 64
     7
 65
     7
 75
     1
175
     1
 42
40.0
 92
       11
 66
     7
 43
1.0
 76
     1
 77
     6
 78
     2
 67
     7
 79
     6
170
     0
171
     0
290
     0
174
     0
 93
        1
 44
0.0
173
     0
291
     0
 45
0.0
1001
ACAD
1000
AcDbSavedByObjectVersion
1070
     0
  0
VISUALSTYLE
  5
9A6F
102
{ACAD_XDICTIONARY
360
9AD4
102
}
102
{ACAD_REACTORS
330
9A62
102
}
330
9A62
100
AcDbVisualStyle
  2
Thicken
 70
    13
 71
     2
 72
     2
 73
     0
 90
        0
 40
-0.6
 41
-30.0
 62
     5
 63
     7
 74
     1
 91
        4
 64
     7
 65
   257
 75
     1
175
     1
 42
1.0
 92
       12
 66
     7
 43
1.0
 76
     1
 77
     6
 78
     2
 67
     7
 79
     5
170
     0
171
     0
290
     0
174
     0
 93
        1
 44
0.0
173
     0
291
     1
 45
0.0
1001
ACAD
1000
AcDbSavedByObjectVersion
1070
     0
  0
VISUALSTYLE
  5
9A69
102
{ACAD_XDICTIONARY
360
9AC8
102
}
102
{ACAD_REACTORS
330
9A62
102
}
330
9A62
100
AcDbVisualStyle
  2
Wireframe
 70
     5
 71
     0
 72
     2
 73
     0
 90
        0
 40
-0.6
 41
-30.0
 62
     5
 63
     7
 74
     1
 91
        4
 64
     7
 65
   257
 75
     1
175
     1
 42
1.0
 92
        0
 66
   257
 43
1.0
 76
     1
 77
     6
 78
     2
 67
     7
 79
     3
170
     0
171
     0
290
     0
174
     0
 93
        1
 44
0.0
173
     0
291
     0
 45
0.0
1001
ACAD
1000
AcDbSavedByObjectVersion
1070
     0
  0
VISUALSTYLE
  5
9A75
102
{ACAD_XDICTIONARY
360
9AE0
102
}
102
{ACAD_REACTORS
330
9A62
102
}
330
9A62
100
AcDbVisualStyle
  2
X-Ray
 70
    25
 71
     2
 72
     2
 73
     1
 90
        1
 40
0.5
 41
-30.0
 62
     5
 63
     7
 74
     1
 91
        0
 64
     7
 65
   257
 75
     1
175
     1
 42
1.0
 92
        8
 66
     7
 43
1.0
 76
     1
 77
     6
 78
     2
 67
     7
 79
     3
170
     0
171
     0
290
     0
174
     0
 93
       13
 44
0.0
173
     0
291
     0
 45
0.0
1001
ACAD
1000
AcDbSavedByObjectVersion
1070
     0
  0
DICTIONARYVAR
  5
9AAF
102
{ACAD_REACTORS
330
9AAA
102
}
330
9AAA
100
DictionaryVariables
280
     0
  1
1:1
  0
DICTIONARYVAR
  5
9AAC
102
{ACAD_REACTORS
330
9AAA
102
}
330
9AAA
100
DictionaryVariables
280
     0
  1
STANDARD
  0
DICTIONARYVAR
  5
9AAB
102
{ACAD_REACTORS
330
9AAA
102
}
330
9AAA
100
DictionaryVariables
280
     0
  1
STANDARD
  0
DICTIONARYVAR
  5
9AAD
102
{ACAD_REACTORS
330
9AAA
102
}
330
9AAA
100
DictionaryVariables
280
     0
  1
Imperial24
  0
DICTIONARYVAR
  5
9AAE
102
{ACAD_REACTORS
330
9AAA
102
}
330
9AAA
100
DictionaryVariables
280
     0
  1
Imperial24
  0
DICTIONARYVAR
  5
9AB2
102
{ACAD_REACTORS
330
9AAA
102
}
330
9AAA
100
DictionaryVariables
280
     0
  1
1
  0
DICTIONARYVAR
  5
9AB1
102
{ACAD_REACTORS
330
9AAA
102
}
330
9AAA
100
DictionaryVariables
280
     0
  1
0
  0
DICTIONARYVAR
  5
9AB0
102
{ACAD_REACTORS
330
9AAA
102
}
330
9AAA
100
DictionaryVariables
280
     0
  1
127
  0
DICTIONARYVAR
  5
9AB3
102
{ACAD_REACTORS
330
9AAA
102
}
330
9AAA
100
DictionaryVariables
280
     0
  1
2
  0
DICTIONARY
  5
9AF0
330
9A95
100
AcDbDictionary
280
     1
281
     1
  3
ACAD_XREC_ROUNDTRIP
360
9AF1
  0
DICTIONARY
  5
9AF2
330
9A96
100
AcDbDictionary
280
     1
281
     1
  3
ACAD_XREC_ROUNDTRIP
360
9AF3
  0
DICTIONARY
  5
9AF4
330
9A97
100
AcDbDictionary
280
     1
281
     1
  3
ACAD_XREC_ROUNDTRIP
360
9AF5
  0
DICTIONARY
  5
9A53
330
9A52
100
AcDbDictionary
280
     1
281
     1
  3
ACAD_XREC_ROUNDTRIP
360
9ABA
  3
BUMPTILE
360
9A55
  3
DIFFUSETILE
360
9A54
  3
OPACITYTILE
360
9A58
  3
REFLECTIONTILE
360
9A57
  3
REFRACTIONTILE
360
9A59
  3
SPECULARTILE
360
9A56
  0
DICTIONARY
  5
9A4B
330
9A4A
100
AcDbDictionary
280
     1
281
     1
  3
ACAD_XREC_ROUNDTRIP
360
9AB9
  3
BUMPTILE
360
9A4D
  3
DIFFUSETILE
360
9A4C
  3
OPACITYTILE
360
9A50
  3
REFLECTIONTILE
360
9A4F
  3
REFRACTIONTILE
360
9A51
  3
SPECULARTILE
360
9A4E
  0
DICTIONARY
  5
9A5B
330
9A5A
100
AcDbDictionary
280
     1
281
     1
  3
ACAD_XREC_ROUNDTRIP
360
9ABB
  3
BUMPTILE
360
9A5D
  3
DIFFUSETILE
360
9A5C
  3
OPACITYTILE
360
9A60
  3
REFLECTIONTILE
360
9A5F
  3
REFRACTIONTILE
360
9A61
  3
SPECULARTILE
360
9A5E
  0
DICTIONARY
  5
9AEE
330
9A93
100
AcDbDictionary
280
     1
281
     1
  3
ACAD_XREC_ROUNDTRIP
360
9AEF
  0
DICTIONARY
  5
9AB5
330
9A7D
100
AcDbDictionary
280
     1
281
     1
  3
ACAD_ROUNDTRIP_2008_TABLESTYLE_CELLSTYLEMAP
360
9AB6
  3
ACAD_XREC_ROUNDTRIP
360
9AEC
  0
DICTIONARY
  5
9AC6
330
9A68
100
AcDbDictionary
280
     1
281
     1
  3
ACAD_XREC_ROUNDTRIP
360
9AC7
  0
DICTIONARY
  5
9AC4
330
9A67
100
AcDbDictionary
280
     1
281
     1
  3
ACAD_XREC_ROUNDTRIP
360
9AC5
  0
DICTIONARY
  5
9AD2
330
9A6E
100
AcDbDictionary
280
     1
281
     1
  3
ACAD_XREC_ROUNDTRIP
360
9AD3
  0
DICTIONARY
  5
9ADA
330
9A72
100
AcDbDictionary
280
     1
281
     1
  3
ACAD_XREC_ROUNDTRIP
360
9ADB
  0
DICTIONARY
  5
9ACC
330
9A6B
100
AcDbDictionary
280
     1
281
     1
  3
ACAD_XREC_ROUNDTRIP
360
9ACD
  0
DICTIONARY
  5
9AD0
330
9A6D
100
AcDbDictionary
280
     1
281
     1
  3
ACAD_XREC_ROUNDTRIP
360
9AD1
  0
DICTIONARY
  5
9AEA
330
9A7A
100
AcDbDictionary
280
     1
281
     1
  3
ACAD_XREC_ROUNDTRIP
360
9AEB
  0
DICTIONARY
  5
9AD8
330
9A71
100
AcDbDictionary
280
     1
281
     1
  3
ACAD_XREC_ROUNDTRIP
360
9AD9
  0
DICTIONARY
  5
9ABC
330
9A63
100
AcDbDictionary
280
     1
281
     1
  3
ACAD_XREC_ROUNDTRIP
360
9ABD
  0
DICTIONARY
  5
9ABE
330
9A64
100
AcDbDictionary
280
     1
281
     1
  3
ACAD_XREC_ROUNDTRIP
360
9ABF
  0
DICTIONARY
  5
9AC0
330
9A65
100
AcDbDictionary
280
     1
281
     1
  3
ACAD_XREC_ROUNDTRIP
360
9AC1
  0
DICTIONARY
  5
9AC2
330
9A66
100
AcDbDictionary
280
     1
281
     1
  3
ACAD_XREC_ROUNDTRIP
360
9AC3
  0
DICTIONARY
  5
9ACA
330
9A6A
100
AcDbDictionary
280
     1
281
     1
  3
ACAD_XREC_ROUNDTRIP
360
9ACB
  0
DICTIONARY
  5
9AE6
330
9A78
100
AcDbDictionary
280
     1
281
     1
  3
ACAD_XREC_ROUNDTRIP
360
9AE7
  0
DICTIONARY
  5
9AD6
330
9A70
100
AcDbDictionary
280
     1
281
     1
  3
ACAD_XREC_ROUNDTRIP
360
9AD7
  0
DICTIONARY
  5
9AE8
330
9A79
100
AcDbDictionary
280
     1
281
     1
  3
ACAD_XREC_ROUNDTRIP
360
9AE9
  0
DICTIONARY
  5
9ACE
330
9A6C
100
AcDbDictionary
280
     1
281
     1
  3
ACAD_XREC_ROUNDTRIP
360
9ACF
  0
DICTIONARY
  5
9AE4
330
9A77
100
AcDbDictionary
280
     1
281
     1
  3
ACAD_XREC_ROUNDTRIP
360
9AE5
  0
DICTIONARY
  5
9AE2
330
9A76
100
AcDbDictionary
280
     1
281
     1
  3
ACAD_XREC_ROUNDTRIP
360
9AE3
  0
DICTIONARY
  5
9ADC
330
9A73
100
AcDbDictionary
280
     1
281
     1
  3
ACAD_XREC_ROUNDTRIP
360
9ADD
  0
DICTIONARY
  5
9ADE
330
9A74
100
AcDbDictionary
280
     1
281
     1
  3
ACAD_XREC_ROUNDTRIP
360
9ADF
  0
DICTIONARY
  5
9AD4
330
9A6F
100
AcDbDictionary
280
     1
281
     1
  3
ACAD_XREC_ROUNDTRIP
360
9AD5
  0
DICTIONARY
  5
9AC8
330
9A69
100
AcDbDictionary
280
     1
281
     1
  3
ACAD_XREC_ROUNDTRIP
360
9AC9
  0
DICTIONARY
  5
9AE0
330
9A75
100
AcDbDictionary
280
     1
281
     1
  3
ACAD_XREC_ROUNDTRIP
360
9AE1
  0
XRECORD
  5
9AF1
102
{ACAD_REACTORS
330
9AF0
102
}
330
9AF0
100
AcDbXrecord
280
     1
102
DISPLAYNAME
  1
Imperial24
102
FLAGS
 90
        0
  0
XRECORD
  5
9AF3
102
{ACAD_REACTORS
330
9AF2
102
}
330
9AF2
100
AcDbXrecord
280
     1
102
SHADEPLOT
 70
     0
102
SHADEPLOTRESLEVEL
 70
     2
102
SHADEPLOTCUSTOMDPI
 70
   300
  0
XRECORD
  5
9AF5
102
{ACAD_REACTORS
330
9AF4
102
}
330
9AF4
100
AcDbXrecord
280
     1
102
SHADEPLOT
 70
     0
102
SHADEPLOTRESLEVEL
 70
     2
102
SHADEPLOTCUSTOMDPI
 70
   300
  0
XRECORD
  5
9ABA
102
{ACAD_REACTORS
330
9A53
102
}
330
9A53
100
AcDbXrecord
280
     1
102
MATERIAL
148
0.0
149
0.0
149
0.0
 93
        0
 94
      127
282
     0
 72
     0
 77
     0
171
     0
175
     0
179
     0
273
     0
  0
XRECORD
  5
9A55
102
{ACAD_REACTORS
330
9A53
102
}
330
9A53
100
AcDbXrecord
280
     1
270
     1
271
     1
  0
XRECORD
  5
9A54
102
{ACAD_REACTORS
330
9A53
102
}
330
9A53
100
AcDbXrecord
280
     1
270
     1
271
     1
  0
XRECORD
  5
9A58
102
{ACAD_REACTORS
330
9A53
102
}
330
9A53
100
AcDbXrecord
280
     1
270
     1
271
     1
  0
XRECORD
  5
9A57
102
{ACAD_REACTORS
330
9A53
102
}
330
9A53
100
AcDbXrecord
280
     1
270
     1
271
     1
  0
XRECORD
  5
9A59
102
{ACAD_REACTORS
330
9A53
102
}
330
9A53
100
AcDbXrecord
280
     1
270
     1
271
     1
  0
XRECORD
  5
9A56
102
{ACAD_REACTORS
330
9A53
102
}
330
9A53
100
AcDbXrecord
280
     1
270
     1
271
     1
  0
XRECORD
  5
9AB9
102
{ACAD_REACTORS
330
9A4B
102
}
330
9A4B
100
AcDbXrecord
280
     1
102
MATERIAL
148
0.0
149
0.0
149
0.0
 93
        0
 94
      127
282
     0
 72
     0
 77
     0
171
     0
175
     0
179
     0
273
     0
  0
XRECORD
  5
9A4D
102
{ACAD_REACTORS
330
9A4B
102
}
330
9A4B
100
AcDbXrecord
280
     1
270
     1
271
     1
  0
XRECORD
  5
9A4C
102
{ACAD_REACTORS
330
9A4B
102
}
330
9A4B
100
AcDbXrecord
280
     1
270
     1
271
     1
  0
XRECORD
  5
9A50
102
{ACAD_REACTORS
330
9A4B
102
}
330
9A4B
100
AcDbXrecord
280
     1
270
     1
271
     1
  0
XRECORD
  5
9A4F
102
{ACAD_REACTORS
330
9A4B
102
}
330
9A4B
100
AcDbXrecord
280
     1
270
     1
271
     1
  0
XRECORD
  5
9A51
102
{ACAD_REACTORS
330
9A4B
102
}
330
9A4B
100
AcDbXrecord
280
     1
270
     1
271
     1
  0
XRECORD
  5
9A4E
102
{ACAD_REACTORS
330
9A4B
102
}
330
9A4B
100
AcDbXrecord
280
     1
270
     1
271
     1
  0
XRECORD
  5
9ABB
102
{ACAD_REACTORS
330
9A5B
102
}
330
9A5B
100
AcDbXrecord
280
     1
102
MATERIAL
148
0.0
149
0.0
149
0.0
 93
        0
 94
      127
282
     0
 72
     0
 77
     0
171
     0
175
     0
179
     0
273
     0
  0
XRECORD
  5
9A5D
102
{ACAD_REACTORS
330
9A5B
102
}
330
9A5B
100
AcDbXrecord
280
     1
270
     1
271
     1
  0
XRECORD
  5
9A5C
102
{ACAD_REACTORS
330
9A5B
102
}
330
9A5B
100
AcDbXrecord
280
     1
270
     1
271
     1
  0
XRECORD
  5
9A60
102
{ACAD_REACTORS
330
9A5B
102
}
330
9A5B
100
AcDbXrecord
280
     1
270
     1
271
     1
  0
XRECORD
  5
9A5F
102
{ACAD_REACTORS
330
9A5B
102
}
330
9A5B
100
AcDbXrecord
280
     1
270
     1
271
     1
  0
XRECORD
  5
9A61
102
{ACAD_REACTORS
330
9A5B
102
}
330
9A5B
100
AcDbXrecord
280
     1
270
     1
271
     1
  0
XRECORD
  5
9A5E
102
{ACAD_REACTORS
330
9A5B
102
}
330
9A5B
100
AcDbXrecord
280
     1
270
     1
271
     1
  0
XRECORD
  5
9AEF
102
{ACAD_REACTORS
330
9AEE
102
}
330
9AEE
100
AcDbXrecord
280
     1
102
DISPLAYNAME
  1
Imperial24
102
FLAGS
 90
        0
  0
CELLSTYLEMAP
  5
9AB6
102
{ACAD_REACTORS
330
9AB5
102
}
330
9AB5
100
AcDbCellStyleMap
 90
        3
300
CELLSTYLE
  1
TABLEFORMAT_BEGIN
 90
        5
170
     1
 91
        0
 92
    32768
 62
   257
 93
        1
300
CONTENTFORMAT
  1
CONTENTFORMAT_BEGIN
 90
        0
 91
        0
 92
      512
 93
        0
300

 40
0.0
140
1.0
 94
        5
 62
     0
340
96A2
144
0.25
309
CONTENTFORMAT_END
171
     0
 94
        0
309
TABLEFORMAT_END
  1
CELLSTYLE_BEGIN
 90
        1
 91
        1
300
_TITLE
309
CELLSTYLE_END
300
CELLSTYLE
  1
TABLEFORMAT_BEGIN
 90
        5
170
     1
 91
        0
 92
        0
 62
   257
 93
        1
300
CONTENTFORMAT
  1
CONTENTFORMAT_BEGIN
 90
        0
 91
        0
 92
      512
 93
        0
300

 40
0.0
140
1.0
 94
        5
 62
     0
340
96A2
144
0.18
309
CONTENTFORMAT_END
171
     0
 94
        0
309
TABLEFORMAT_END
  1
CELLSTYLE_BEGIN
 90
        2
 91
        1
300
_HEADER
309
CELLSTYLE_END
300
CELLSTYLE
  1
TABLEFORMAT_BEGIN
 90
        5
170
     1
 91
        0
 92
        0
 62
   257
 93
        1
300
CONTENTFORMAT
  1
CONTENTFORMAT_BEGIN
 90
        0
 91
        0
 92
      512
 93
        0
300

 40
0.0
140
1.0
 94
        2
 62
     0
340
96A2
144
0.18
309
CONTENTFORMAT_END
171
     0
 94
        0
309
TABLEFORMAT_END
  1
CELLSTYLE_BEGIN
 90
        3
 91
        2
300
_DATA
309
CELLSTYLE_END
  0
XRECORD
  5
9AEC
102
{ACAD_REACTORS
330
9AB5
102
}
330
9AB5
100
AcDbXrecord
280
     1
102
ACAD_ROUNDTRIP_PRE2007_TABLESTYLE
 90
      512
 91
        0
  1

 92
      512
 93
        0
  2

 94
      512
 95
        0
  3

  0
XRECORD
  5
9AC7
102
{ACAD_REACTORS
330
9AC6
102
}
330
9AC6
100
AcDbXrecord
280
     1
102
RTVSPost2010Prop28
280
     1
102
RTVSPost2010PropOp28
 70
     1
102
RTVSPost2010Prop29
280
     1
102
RTVSPost2010PropOp29
 70
     1
102
RTVSPost2010Prop30
280
     0
102
RTVSPost2010PropOp30
 70
     1
102
RTVSPost2010Prop31
280
     0
102
RTVSPost2010PropOp31
 70
     1
102
RTVSPost2010Prop32
280
     0
102
RTVSPost2010PropOp32
 70
     1
102
RTVSPost2010Prop33
280
     0
102
RTVSPost2010PropOp33
 70
     1
102
RTVSPost2010Prop34
280
     0
102
RTVSPost2010PropOp34
 70
     1
102
RTVSPost2010Prop35
280
     0
102
RTVSPost2010PropOp35
 70
     1
102
RTVSPost2010Prop36
280
     0
102
RTVSPost2010PropOp36
 70
     1
102
RTVSPost2010Prop37
 90
       50
102
RTVSPost2010PropOp37
 70
     1
102
RTVSPost2010Prop38
140
0.0
102
RTVSPost2010PropOp38
 70
     1
102
RTVSPost2010Prop39
140
1.0
102
RTVSPost2010PropOp39
 70
     1
102
RTVSPost2010Prop40
 90
        0
102
RTVSPost2010PropOp40
 70
     1
102
RTVSPost2010Prop41ColorIndex
 90
       18
102
RTVSPost2010Prop41ColorRGB
 90
        0
102
RTVSPost2010PropOp41
 70
     1
102
RTVSPost2010Prop42
 90
       50
102
RTVSPost2010PropOp42
 70
     1
102
RTVSPost2010Prop43
 90
        3
102
RTVSPost2010PropOp43
 70
     1
102
RTVSPost2010Prop44ColorIndex
 90
        5
102
RTVSPost2010Prop44ColorRGB
 90
      255
102
RTVSPost2010PropOp44
 70
     1
102
RTVSPost2010Prop45
280
     0
102
RTVSPost2010PropOp45
 70
     1
102
RTVSPost2010Prop46
 90
       50
102
RTVSPost2010PropOp46
 70
     1
102
RTVSPost2010Prop47
 90
       50
102
RTVSPost2010PropOp47
 70
     1
102
RTVSPost2010Prop48
 90
       50
102
RTVSPost2010PropOp48
 70
     1
102
RTVSPost2010Prop49
280
     0
102
RTVSPost2010PropOp49
 70
     1
102
RTVSPost2010Prop50
 90
       50
102
RTVSPost2010PropOp50
 70
     1
102
RTVSPost2010Prop51ColorIndex
 90
      256
102
RTVSPost2010Prop51ColorRGB
 90
-16777216
102
RTVSPost2010PropOp51
 70
     0
102
RTVSPost2010Prop52
140
1.0
102
RTVSPost2010PropOp52
 70
     0
102
RTVSPost2010Prop53
 90
        2
102
RTVSPost2010PropOp53
 70
     1
102
RTVSPost2010Prop54
  1
strokes_ogs.tif
102
RTVSPost2010PropOp54
 70
     1
102
RTVSPost2010Prop55
280
     0
102
RTVSPost2010PropOp55
 70
     1
102
RTVSPost2010Prop56
140
1.0
102
RTVSPost2010PropOp56
 70
     1
102
RTVSPost2010Prop57
140
1.0
102
RTVSPost2010PropOp57
 70
     1
102
RTVSPropertyOp0
 70
     1
102
RTVSPropertyOp1
 70
     1
102
RTVSPropertyOp2
 70
     1
102
RTVSPropertyOp3
 70
     1
102
RTVSPropertyOp4
 70
     1
102
RTVSPropertyOp5
 70
     1
102
RTVSPropertyOp6
 70
     1
102
RTVSPropertyOp7
 70
     1
102
RTVSPropertyOp8
 70
     1
102
RTVSPropertyOp9
 70
     1
102
RTVSPropertyOp10
 70
     1
102
RTVSPropertyOp11
 70
     1
102
RTVSPropertyOp12
 70
     1
102
RTVSPropertyOp13
 70
     1
102
RTVSPropertyOp14
 70
     1
102
RTVSPropertyOp15
 70
     1
102
RTVSPropertyOp16
 70
     1
102
RTVSPropertyOp17
 70
     1
102
RTVSPropertyOp18
 70
     1
102
RTVSPropertyOp19
 70
     1
102
RTVSPropertyOp20
 70
     1
102
RTVSPropertyOp21
 70
     1
102
RTVSPropertyOp22
 70
     1
102
RTVSPropertyOp23
 70
     1
102
RTVSPropertyOp24
 70
     1
102
RTVSPropertyOp25
 70
     1
102
RTVSPropertyOp26
 70
     1
102
RTVSPropertyOp27
 70
     1
102
RTVSPropertyOp28
 70
     1
102
RTVSPropertyOp29
 70
     1
102
RTVSPropertyOp30
 70
     1
102
RTVSPropertyOp31
 70
     1
102
RTVSPropertyOp32
 70
     1
102
RTVSPropertyOp33
 70
     1
102
RTVSPropertyOp34
 70
     1
102
RTVSPropertyOp35
 70
     1
102
RTVSPropertyOp36
 70
     1
102
RTVSPropertyOp37
 70
     1
102
RTVSPropertyOp38
 70
     1
102
RTVSPropertyOp39
 70
     1
102
RTVSPropertyOp40
 70
     1
102
RTVSPropertyOp41
 70
     1
102
RTVSPropertyOp42
 70
     1
102
RTVSPropertyOp43
 70
     1
102
RTVSPropertyOp44
 70
     1
102
RTVSPropertyOp45
 70
     1
102
RTVSPropertyOp46
 70
     1
102
RTVSPropertyOp47
 70
     1
102
RTVSPropertyOp48
 70
     1
102
RTVSPropertyOp49
 70
     1
102
RTVSPropertyOp50
 70
     1
102
RTVSPropertyOp51
 70
     0
102
RTVSPropertyOp52
 70
     0
102
RTVSPropertyOp53
 70
     1
102
RTVSPropertyOp54
 70
     1
102
RTVSPropertyOp55
 70
     1
102
RTVSPropertyOp56
 70
     1
102
RTVSPropertyOp57
 70
     1
102
RTVSPropertyOp58
 70
     1
102
RTVSPropertyOp59
 70
     1
102
RTVSPropertyOp60
 70
     1
102
RTVSPropertyOp61
 70
     1
102
RTVSPropertyOp62
 70
     1
  0
XRECORD
  5
9AC5
102
{ACAD_REACTORS
330
9AC4
102
}
330
9AC4
100
AcDbXrecord
280
     1
102
RTVSPost2010Prop28
280
     0
102
RTVSPost2010PropOp28
 70
     1
102
RTVSPost2010Prop29
280
     1
102
RTVSPost2010PropOp29
 70
     1
102
RTVSPost2010Prop30
280
     1
102
RTVSPost2010PropOp30
 70
     1
102
RTVSPost2010Prop31
280
     0
102
RTVSPost2010PropOp31
 70
     1
102
RTVSPost2010Prop32
280
     0
102
RTVSPost2010PropOp32
 70
     1
102
RTVSPost2010Prop33
280
     0
102
RTVSPost2010PropOp33
 70
     1
102
RTVSPost2010Prop34
280
     0
102
RTVSPost2010PropOp34
 70
     1
102
RTVSPost2010Prop35
280
     0
102
RTVSPost2010PropOp35
 70
     1
102
RTVSPost2010Prop36
280
     0
102
RTVSPost2010PropOp36
 70
     1
102
RTVSPost2010Prop37
 90
       50
102
RTVSPost2010PropOp37
 70
     1
102
RTVSPost2010Prop38
140
0.0
102
RTVSPost2010PropOp38
 70
     1
102
RTVSPost2010Prop39
140
1.0
102
RTVSPost2010PropOp39
 70
     1
102
RTVSPost2010Prop40
 90
        0
102
RTVSPost2010PropOp40
 70
     1
102
RTVSPost2010Prop41ColorIndex
 90
       18
102
RTVSPost2010Prop41ColorRGB
 90
        0
102
RTVSPost2010PropOp41
 70
     1
102
RTVSPost2010Prop42
 90
       50
102
RTVSPost2010PropOp42
 70
     1
102
RTVSPost2010Prop43
 90
        3
102
RTVSPost2010PropOp43
 70
     1
102
RTVSPost2010Prop44ColorIndex
 90
        5
102
RTVSPost2010Prop44ColorRGB
 90
      255
102
RTVSPost2010PropOp44
 70
     1
102
RTVSPost2010Prop45
280
     0
102
RTVSPost2010PropOp45
 70
     1
102
RTVSPost2010Prop46
 90
       50
102
RTVSPost2010PropOp46
 70
     1
102
RTVSPost2010Prop47
 90
       50
102
RTVSPost2010PropOp47
 70
     1
102
RTVSPost2010Prop48
 90
       50
102
RTVSPost2010PropOp48
 70
     1
102
RTVSPost2010Prop49
280
     0
102
RTVSPost2010PropOp49
 70
     1
102
RTVSPost2010Prop50
 90
       50
102
RTVSPost2010PropOp50
 70
     1
102
RTVSPost2010Prop51ColorIndex
 90
      256
102
RTVSPost2010Prop51ColorRGB
 90
-16777216
102
RTVSPost2010PropOp51
 70
     0
102
RTVSPost2010Prop52
140
1.0
102
RTVSPost2010PropOp52
 70
     0
102
RTVSPost2010Prop53
 90
        2
102
RTVSPost2010PropOp53
 70
     1
102
RTVSPost2010Prop54
  1
strokes_ogs.tif
102
RTVSPost2010PropOp54
 70
     1
102
RTVSPost2010Prop55
280
     0
102
RTVSPost2010PropOp55
 70
     1
102
RTVSPost2010Prop56
140
1.0
102
RTVSPost2010PropOp56
 70
     1
102
RTVSPost2010Prop57
140
1.0
102
RTVSPost2010PropOp57
 70
     1
102
RTVSPropertyOp0
 70
     1
102
RTVSPropertyOp1
 70
     1
102
RTVSPropertyOp2
 70
     1
102
RTVSPropertyOp3
 70
     1
102
RTVSPropertyOp4
 70
     1
102
RTVSPropertyOp5
 70
     1
102
RTVSPropertyOp6
 70
     1
102
RTVSPropertyOp7
 70
     1
102
RTVSPropertyOp8
 70
     1
102
RTVSPropertyOp9
 70
     1
102
RTVSPropertyOp10
 70
     1
102
RTVSPropertyOp11
 70
     1
102
RTVSPropertyOp12
 70
     1
102
RTVSPropertyOp13
 70
     1
102
RTVSPropertyOp14
 70
     1
102
RTVSPropertyOp15
 70
     1
102
RTVSPropertyOp16
 70
     1
102
RTVSPropertyOp17
 70
     1
102
RTVSPropertyOp18
 70
     1
102
RTVSPropertyOp19
 70
     1
102
RTVSPropertyOp20
 70
     1
102
RTVSPropertyOp21
 70
     1
102
RTVSPropertyOp22
 70
     1
102
RTVSPropertyOp23
 70
     1
102
RTVSPropertyOp24
 70
     1
102
RTVSPropertyOp25
 70
     1
102
RTVSPropertyOp26
 70
     1
102
RTVSPropertyOp27
 70
     1
102
RTVSPropertyOp28
 70
     1
102
RTVSPropertyOp29
 70
     1
102
RTVSPropertyOp30
 70
     1
102
RTVSPropertyOp31
 70
     1
102
RTVSPropertyOp32
 70
     1
102
RTVSPropertyOp33
 70
     1
102
RTVSPropertyOp34
 70
     1
102
RTVSPropertyOp35
 70
     1
102
RTVSPropertyOp36
 70
     1
102
RTVSPropertyOp37
 70
     1
102
RTVSPropertyOp38
 70
     1
102
RTVSPropertyOp39
 70
     1
102
RTVSPropertyOp40
 70
     1
102
RTVSPropertyOp41
 70
     1
102
RTVSPropertyOp42
 70
     1
102
RTVSPropertyOp43
 70
     1
102
RTVSPropertyOp44
 70
     1
102
RTVSPropertyOp45
 70
     1
102
RTVSPropertyOp46
 70
     1
102
RTVSPropertyOp47
 70
     1
102
RTVSPropertyOp48
 70
     1
102
RTVSPropertyOp49
 70
     1
102
RTVSPropertyOp50
 70
     1
102
RTVSPropertyOp51
 70
     0
102
RTVSPropertyOp52
 70
     0
102
RTVSPropertyOp53
 70
     1
102
RTVSPropertyOp54
 70
     1
102
RTVSPropertyOp55
 70
     1
102
RTVSPropertyOp56
 70
     1
102
RTVSPropertyOp57
 70
     1
102
RTVSPropertyOp58
 70
     1
102
RTVSPropertyOp59
 70
     1
102
RTVSPropertyOp60
 70
     1
102
RTVSPropertyOp61
 70
     1
102
RTVSPropertyOp62
 70
     1
  0
XRECORD
  5
9AD3
102
{ACAD_REACTORS
330
9AD2
102
}
330
9AD2
100
AcDbXrecord
280
     1
102
RTVSPost2010Prop28
280
     0
102
RTVSPost2010PropOp28
 70
     1
102
RTVSPost2010Prop29
280
     1
102
RTVSPost2010PropOp29
 70
     1
102
RTVSPost2010Prop30
280
     1
102
RTVSPost2010PropOp30
 70
     1
102
RTVSPost2010Prop31
280
     0
102
RTVSPost2010PropOp31
 70
     1
102
RTVSPost2010Prop32
280
     0
102
RTVSPost2010PropOp32
 70
     1
102
RTVSPost2010Prop33
280
     0
102
RTVSPost2010PropOp33
 70
     1
102
RTVSPost2010Prop34
280
     0
102
RTVSPost2010PropOp34
 70
     1
102
RTVSPost2010Prop35
280
     0
102
RTVSPost2010PropOp35
 70
     1
102
RTVSPost2010Prop36
280
     0
102
RTVSPost2010PropOp36
 70
     1
102
RTVSPost2010Prop37
 90
       50
102
RTVSPost2010PropOp37
 70
     1
102
RTVSPost2010Prop38
140
0.0
102
RTVSPost2010PropOp38
 70
     1
102
RTVSPost2010Prop39
140
1.0
102
RTVSPost2010PropOp39
 70
     1
102
RTVSPost2010Prop40
 90
        0
102
RTVSPost2010PropOp40
 70
     1
102
RTVSPost2010Prop41ColorIndex
 90
       18
102
RTVSPost2010Prop41ColorRGB
 90
        0
102
RTVSPost2010PropOp41
 70
     1
102
RTVSPost2010Prop42
 90
       50
102
RTVSPost2010PropOp42
 70
     1
102
RTVSPost2010Prop43
 90
        3
102
RTVSPost2010PropOp43
 70
     1
102
RTVSPost2010Prop44ColorIndex
 90
        5
102
RTVSPost2010Prop44ColorRGB
 90
      255
102
RTVSPost2010PropOp44
 70
     1
102
RTVSPost2010Prop45
280
     0
102
RTVSPost2010PropOp45
 70
     1
102
RTVSPost2010Prop46
 90
       50
102
RTVSPost2010PropOp46
 70
     1
102
RTVSPost2010Prop47
 90
       50
102
RTVSPost2010PropOp47
 70
     1
102
RTVSPost2010Prop48
 90
       50
102
RTVSPost2010PropOp48
 70
     1
102
RTVSPost2010Prop49
280
     0
102
RTVSPost2010PropOp49
 70
     1
102
RTVSPost2010Prop50
 90
       50
102
RTVSPost2010PropOp50
 70
     1
102
RTVSPost2010Prop51ColorIndex
 90
      256
102
RTVSPost2010Prop51ColorRGB
 90
-16777216
102
RTVSPost2010PropOp51
 70
     0
102
RTVSPost2010Prop52
140
1.0
102
RTVSPost2010PropOp52
 70
     0
102
RTVSPost2010Prop53
 90
        2
102
RTVSPost2010PropOp53
 70
     1
102
RTVSPost2010Prop54
  1
strokes_ogs.tif
102
RTVSPost2010PropOp54
 70
     1
102
RTVSPost2010Prop55
280
     0
102
RTVSPost2010PropOp55
 70
     1
102
RTVSPost2010Prop56
140
1.0
102
RTVSPost2010PropOp56
 70
     1
102
RTVSPost2010Prop57
140
1.0
102
RTVSPost2010PropOp57
 70
     1
102
RTVSPropertyOp0
 70
     1
102
RTVSPropertyOp1
 70
     1
102
RTVSPropertyOp2
 70
     1
102
RTVSPropertyOp3
 70
     1
102
RTVSPropertyOp4
 70
     1
102
RTVSPropertyOp5
 70
     1
102
RTVSPropertyOp6
 70
     1
102
RTVSPropertyOp7
 70
     1
102
RTVSPropertyOp8
 70
     1
102
RTVSPropertyOp9
 70
     1
102
RTVSPropertyOp10
 70
     1
102
RTVSPropertyOp11
 70
     1
102
RTVSPropertyOp12
 70
     1
102
RTVSPropertyOp13
 70
     1
102
RTVSPropertyOp14
 70
     1
102
RTVSPropertyOp15
 70
     1
102
RTVSPropertyOp16
 70
     1
102
RTVSPropertyOp17
 70
     1
102
RTVSPropertyOp18
 70
     1
102
RTVSPropertyOp19
 70
     1
102
RTVSPropertyOp20
 70
     1
102
RTVSPropertyOp21
 70
     1
102
RTVSPropertyOp22
 70
     1
102
RTVSPropertyOp23
 70
     1
102
RTVSPropertyOp24
 70
     1
102
RTVSPropertyOp25
 70
     1
102
RTVSPropertyOp26
 70
     1
102
RTVSPropertyOp27
 70
     1
102
RTVSPropertyOp28
 70
     1
102
RTVSPropertyOp29
 70
     1
102
RTVSPropertyOp30
 70
     1
102
RTVSPropertyOp31
 70
     1
102
RTVSPropertyOp32
 70
     1
102
RTVSPropertyOp33
 70
     1
102
RTVSPropertyOp34
 70
     1
102
RTVSPropertyOp35
 70
     1
102
RTVSPropertyOp36
 70
     1
102
RTVSPropertyOp37
 70
     1
102
RTVSPropertyOp38
 70
     1
102
RTVSPropertyOp39
 70
     1
102
RTVSPropertyOp40
 70
     1
102
RTVSPropertyOp41
 70
     1
102
RTVSPropertyOp42
 70
     1
102
RTVSPropertyOp43
 70
     1
102
RTVSPropertyOp44
 70
     1
102
RTVSPropertyOp45
 70
     1
102
RTVSPropertyOp46
 70
     1
102
RTVSPropertyOp47
 70
     1
102
RTVSPropertyOp48
 70
     1
102
RTVSPropertyOp49
 70
     1
102
RTVSPropertyOp50
 70
     1
102
RTVSPropertyOp51
 70
     0
102
RTVSPropertyOp52
 70
     0
102
RTVSPropertyOp53
 70
     1
102
RTVSPropertyOp54
 70
     1
102
RTVSPropertyOp55
 70
     1
102
RTVSPropertyOp56
 70
     1
102
RTVSPropertyOp57
 70
     1
102
RTVSPropertyOp58
 70
     1
102
RTVSPropertyOp59
 70
     1
102
RTVSPropertyOp60
 70
     1
102
RTVSPropertyOp61
 70
     1
102
RTVSPropertyOp62
 70
     1
  0
XRECORD
  5
9ADB
102
{ACAD_REACTORS
330
9ADA
102
}
330
9ADA
100
AcDbXrecord
280
     1
102
RTVSPost2010Prop28
280
     0
102
RTVSPost2010PropOp28
 70
     1
102
RTVSPost2010Prop29
280
     1
102
RTVSPost2010PropOp29
 70
     1
102
RTVSPost2010Prop30
280
     1
102
RTVSPost2010PropOp30
 70
     1
102
RTVSPost2010Prop31
280
     0
102
RTVSPost2010PropOp31
 70
     1
102
RTVSPost2010Prop32
280
     0
102
RTVSPost2010PropOp32
 70
     1
102
RTVSPost2010Prop33
280
     0
102
RTVSPost2010PropOp33
 70
     1
102
RTVSPost2010Prop34
280
     0
102
RTVSPost2010PropOp34
 70
     1
102
RTVSPost2010Prop35
280
     0
102
RTVSPost2010PropOp35
 70
     1
102
RTVSPost2010Prop36
280
     0
102
RTVSPost2010PropOp36
 70
     1
102
RTVSPost2010Prop37
 90
       50
102
RTVSPost2010PropOp37
 70
     1
102
RTVSPost2010Prop38
140
0.0
102
RTVSPost2010PropOp38
 70
     1
102
RTVSPost2010Prop39
140
1.0
102
RTVSPost2010PropOp39
 70
     1
102
RTVSPost2010Prop40
 90
        0
102
RTVSPost2010PropOp40
 70
     1
102
RTVSPost2010Prop41ColorIndex
 90
       18
102
RTVSPost2010Prop41ColorRGB
 90
        0
102
RTVSPost2010PropOp41
 70
     1
102
RTVSPost2010Prop42
 90
       50
102
RTVSPost2010PropOp42
 70
     1
102
RTVSPost2010Prop43
 90
        3
102
RTVSPost2010PropOp43
 70
     1
102
RTVSPost2010Prop44ColorIndex
 90
        5
102
RTVSPost2010Prop44ColorRGB
 90
      255
102
RTVSPost2010PropOp44
 70
     1
102
RTVSPost2010Prop45
280
     0
102
RTVSPost2010PropOp45
 70
     1
102
RTVSPost2010Prop46
 90
       50
102
RTVSPost2010PropOp46
 70
     1
102
RTVSPost2010Prop47
 90
       50
102
RTVSPost2010PropOp47
 70
     1
102
RTVSPost2010Prop48
 90
       50
102
RTVSPost2010PropOp48
 70
     1
102
RTVSPost2010Prop49
280
     0
102
RTVSPost2010PropOp49
 70
     1
102
RTVSPost2010Prop50
 90
       50
102
RTVSPost2010PropOp50
 70
     1
102
RTVSPost2010Prop51ColorIndex
 90
      256
102
RTVSPost2010Prop51ColorRGB
 90
-16777216
102
RTVSPost2010PropOp51
 70
     0
102
RTVSPost2010Prop52
140
1.0
102
RTVSPost2010PropOp52
 70
     0
102
RTVSPost2010Prop53
 90
        2
102
RTVSPost2010PropOp53
 70
     1
102
RTVSPost2010Prop54
  1
strokes_ogs.tif
102
RTVSPost2010PropOp54
 70
     1
102
RTVSPost2010Prop55
280
     0
102
RTVSPost2010PropOp55
 70
     1
102
RTVSPost2010Prop56
140
1.0
102
RTVSPost2010PropOp56
 70
     1
102
RTVSPost2010Prop57
140
1.0
102
RTVSPost2010PropOp57
 70
     1
102
RTVSPropertyOp0
 70
     1
102
RTVSPropertyOp1
 70
     1
102
RTVSPropertyOp2
 70
     1
102
RTVSPropertyOp3
 70
     1
102
RTVSPropertyOp4
 70
     1
102
RTVSPropertyOp5
 70
     1
102
RTVSPropertyOp6
 70
     1
102
RTVSPropertyOp7
 70
     1
102
RTVSPropertyOp8
 70
     1
102
RTVSPropertyOp9
 70
     1
102
RTVSPropertyOp10
 70
     1
102
RTVSPropertyOp11
 70
     1
102
RTVSPropertyOp12
 70
     1
102
RTVSPropertyOp13
 70
     1
102
RTVSPropertyOp14
 70
     1
102
RTVSPropertyOp15
 70
     1
102
RTVSPropertyOp16
 70
     1
102
RTVSPropertyOp17
 70
     1
102
RTVSPropertyOp18
 70
     1
102
RTVSPropertyOp19
 70
     1
102
RTVSPropertyOp20
 70
     1
102
RTVSPropertyOp21
 70
     1
102
RTVSPropertyOp22
 70
     1
102
RTVSPropertyOp23
 70
     1
102
RTVSPropertyOp24
 70
     1
102
RTVSPropertyOp25
 70
     1
102
RTVSPropertyOp26
 70
     1
102
RTVSPropertyOp27
 70
     1
102
RTVSPropertyOp28
 70
     1
102
RTVSPropertyOp29
 70
     1
102
RTVSPropertyOp30
 70
     1
102
RTVSPropertyOp31
 70
     1
102
RTVSPropertyOp32
 70
     1
102
RTVSPropertyOp33
 70
     1
102
RTVSPropertyOp34
 70
     1
102
RTVSPropertyOp35
 70
     1
102
RTVSPropertyOp36
 70
     1
102
RTVSPropertyOp37
 70
     1
102
RTVSPropertyOp38
 70
     1
102
RTVSPropertyOp39
 70
     1
102
RTVSPropertyOp40
 70
     1
102
RTVSPropertyOp41
 70
     1
102
RTVSPropertyOp42
 70
     1
102
RTVSPropertyOp43
 70
     1
102
RTVSPropertyOp44
 70
     1
102
RTVSPropertyOp45
 70
     1
102
RTVSPropertyOp46
 70
     1
102
RTVSPropertyOp47
 70
     1
102
RTVSPropertyOp48
 70
     1
102
RTVSPropertyOp49
 70
     1
102
RTVSPropertyOp50
 70
     1
102
RTVSPropertyOp51
 70
     0
102
RTVSPropertyOp52
 70
     0
102
RTVSPropertyOp53
 70
     1
102
RTVSPropertyOp54
 70
     1
102
RTVSPropertyOp55
 70
     1
102
RTVSPropertyOp56
 70
     1
102
RTVSPropertyOp57
 70
     1
102
RTVSPropertyOp58
 70
     1
102
RTVSPropertyOp59
 70
     1
102
RTVSPropertyOp60
 70
     1
102
RTVSPropertyOp61
 70
     1
102
RTVSPropertyOp62
 70
     1
  0
XRECORD
  5
9ACD
102
{ACAD_REACTORS
330
9ACC
102
}
330
9ACC
100
AcDbXrecord
280
     1
102
RTVSPost2010Prop28
280
     0
102
RTVSPost2010PropOp28
 70
     1
102
RTVSPost2010Prop29
280
     1
102
RTVSPost2010PropOp29
 70
     1
102
RTVSPost2010Prop30
280
     1
102
RTVSPost2010PropOp30
 70
     1
102
RTVSPost2010Prop31
280
     0
102
RTVSPost2010PropOp31
 70
     1
102
RTVSPost2010Prop32
280
     0
102
RTVSPost2010PropOp32
 70
     1
102
RTVSPost2010Prop33
280
     0
102
RTVSPost2010PropOp33
 70
     1
102
RTVSPost2010Prop34
280
     0
102
RTVSPost2010PropOp34
 70
     1
102
RTVSPost2010Prop35
280
     0
102
RTVSPost2010PropOp35
 70
     1
102
RTVSPost2010Prop36
280
     0
102
RTVSPost2010PropOp36
 70
     1
102
RTVSPost2010Prop37
 90
       50
102
RTVSPost2010PropOp37
 70
     1
102
RTVSPost2010Prop38
140
0.0
102
RTVSPost2010PropOp38
 70
     1
102
RTVSPost2010Prop39
140
1.0
102
RTVSPost2010PropOp39
 70
     1
102
RTVSPost2010Prop40
 90
        0
102
RTVSPost2010PropOp40
 70
     1
102
RTVSPost2010Prop41ColorIndex
 90
       18
102
RTVSPost2010Prop41ColorRGB
 90
        0
102
RTVSPost2010PropOp41
 70
     1
102
RTVSPost2010Prop42
 90
       50
102
RTVSPost2010PropOp42
 70
     1
102
RTVSPost2010Prop43
 90
        3
102
RTVSPost2010PropOp43
 70
     1
102
RTVSPost2010Prop44ColorIndex
 90
        5
102
RTVSPost2010Prop44ColorRGB
 90
      255
102
RTVSPost2010PropOp44
 70
     1
102
RTVSPost2010Prop45
280
     0
102
RTVSPost2010PropOp45
 70
     1
102
RTVSPost2010Prop46
 90
       50
102
RTVSPost2010PropOp46
 70
     1
102
RTVSPost2010Prop47
 90
       50
102
RTVSPost2010PropOp47
 70
     1
102
RTVSPost2010Prop48
 90
       50
102
RTVSPost2010PropOp48
 70
     1
102
RTVSPost2010Prop49
280
     0
102
RTVSPost2010PropOp49
 70
     1
102
RTVSPost2010Prop50
 90
       50
102
RTVSPost2010PropOp50
 70
     1
102
RTVSPost2010Prop51ColorIndex
 90
      256
102
RTVSPost2010Prop51ColorRGB
 90
-16777216
102
RTVSPost2010PropOp51
 70
     0
102
RTVSPost2010Prop52
140
1.0
102
RTVSPost2010PropOp52
 70
     0
102
RTVSPost2010Prop53
 90
        2
102
RTVSPost2010PropOp53
 70
     1
102
RTVSPost2010Prop54
  1
strokes_ogs.tif
102
RTVSPost2010PropOp54
 70
     1
102
RTVSPost2010Prop55
280
     0
102
RTVSPost2010PropOp55
 70
     1
102
RTVSPost2010Prop56
140
1.0
102
RTVSPost2010PropOp56
 70
     1
102
RTVSPost2010Prop57
140
1.0
102
RTVSPost2010PropOp57
 70
     1
102
RTVSPropertyOp0
 70
     1
102
RTVSPropertyOp1
 70
     1
102
RTVSPropertyOp2
 70
     1
102
RTVSPropertyOp3
 70
     1
102
RTVSPropertyOp4
 70
     1
102
RTVSPropertyOp5
 70
     1
102
RTVSPropertyOp6
 70
     1
102
RTVSPropertyOp7
 70
     1
102
RTVSPropertyOp8
 70
     1
102
RTVSPropertyOp9
 70
     1
102
RTVSPropertyOp10
 70
     1
102
RTVSPropertyOp11
 70
     1
102
RTVSPropertyOp12
 70
     1
102
RTVSPropertyOp13
 70
     1
102
RTVSPropertyOp14
 70
     1
102
RTVSPropertyOp15
 70
     1
102
RTVSPropertyOp16
 70
     1
102
RTVSPropertyOp17
 70
     1
102
RTVSPropertyOp18
 70
     1
102
RTVSPropertyOp19
 70
     1
102
RTVSPropertyOp20
 70
     1
102
RTVSPropertyOp21
 70
     1
102
RTVSPropertyOp22
 70
     1
102
RTVSPropertyOp23
 70
     1
102
RTVSPropertyOp24
 70
     1
102
RTVSPropertyOp25
 70
     1
102
RTVSPropertyOp26
 70
     1
102
RTVSPropertyOp27
 70
     1
102
RTVSPropertyOp28
 70
     1
102
RTVSPropertyOp29
 70
     1
102
RTVSPropertyOp30
 70
     1
102
RTVSPropertyOp31
 70
     1
102
RTVSPropertyOp32
 70
     1
102
RTVSPropertyOp33
 70
     1
102
RTVSPropertyOp34
 70
     1
102
RTVSPropertyOp35
 70
     1
102
RTVSPropertyOp36
 70
     1
102
RTVSPropertyOp37
 70
     1
102
RTVSPropertyOp38
 70
     1
102
RTVSPropertyOp39
 70
     1
102
RTVSPropertyOp40
 70
     1
102
RTVSPropertyOp41
 70
     1
102
RTVSPropertyOp42
 70
     1
102
RTVSPropertyOp43
 70
     1
102
RTVSPropertyOp44
 70
     1
102
RTVSPropertyOp45
 70
     1
102
RTVSPropertyOp46
 70
     1
102
RTVSPropertyOp47
 70
     1
102
RTVSPropertyOp48
 70
     1
102
RTVSPropertyOp49
 70
     1
102
RTVSPropertyOp50
 70
     1
102
RTVSPropertyOp51
 70
     0
102
RTVSPropertyOp52
 70
     0
102
RTVSPropertyOp53
 70
     1
102
RTVSPropertyOp54
 70
     1
102
RTVSPropertyOp55
 70
     1
102
RTVSPropertyOp56
 70
     1
102
RTVSPropertyOp57
 70
     1
102
RTVSPropertyOp58
 70
     1
102
RTVSPropertyOp59
 70
     1
102
RTVSPropertyOp60
 70
     1
102
RTVSPropertyOp61
 70
     1
102
RTVSPropertyOp62
 70
     1
  0
XRECORD
  5
9AD1
102
{ACAD_REACTORS
330
9AD0
102
}
330
9AD0
100
AcDbXrecord
280
     1
102
RTVSPost2010Prop28
280
     0
102
RTVSPost2010PropOp28
 70
     1
102
RTVSPost2010Prop29
280
     1
102
RTVSPost2010PropOp29
 70
     1
102
RTVSPost2010Prop30
280
     1
102
RTVSPost2010PropOp30
 70
     1
102
RTVSPost2010Prop31
280
     0
102
RTVSPost2010PropOp31
 70
     1
102
RTVSPost2010Prop32
280
     0
102
RTVSPost2010PropOp32
 70
     1
102
RTVSPost2010Prop33
280
     0
102
RTVSPost2010PropOp33
 70
     1
102
RTVSPost2010Prop34
280
     0
102
RTVSPost2010PropOp34
 70
     1
102
RTVSPost2010Prop35
280
     0
102
RTVSPost2010PropOp35
 70
     1
102
RTVSPost2010Prop36
280
     0
102
RTVSPost2010PropOp36
 70
     1
102
RTVSPost2010Prop37
 90
       50
102
RTVSPost2010PropOp37
 70
     1
102
RTVSPost2010Prop38
140
0.0
102
RTVSPost2010PropOp38
 70
     1
102
RTVSPost2010Prop39
140
1.0
102
RTVSPost2010PropOp39
 70
     1
102
RTVSPost2010Prop40
 90
        0
102
RTVSPost2010PropOp40
 70
     1
102
RTVSPost2010Prop41ColorIndex
 90
       18
102
RTVSPost2010Prop41ColorRGB
 90
        0
102
RTVSPost2010PropOp41
 70
     1
102
RTVSPost2010Prop42
 90
       50
102
RTVSPost2010PropOp42
 70
     1
102
RTVSPost2010Prop43
 90
        3
102
RTVSPost2010PropOp43
 70
     1
102
RTVSPost2010Prop44ColorIndex
 90
        5
102
RTVSPost2010Prop44ColorRGB
 90
      255
102
RTVSPost2010PropOp44
 70
     1
102
RTVSPost2010Prop45
280
     0
102
RTVSPost2010PropOp45
 70
     1
102
RTVSPost2010Prop46
 90
       50
102
RTVSPost2010PropOp46
 70
     1
102
RTVSPost2010Prop47
 90
       50
102
RTVSPost2010PropOp47
 70
     1
102
RTVSPost2010Prop48
 90
       50
102
RTVSPost2010PropOp48
 70
     1
102
RTVSPost2010Prop49
280
     0
102
RTVSPost2010PropOp49
 70
     1
102
RTVSPost2010Prop50
 90
       50
102
RTVSPost2010PropOp50
 70
     1
102
RTVSPost2010Prop51ColorIndex
 90
      256
102
RTVSPost2010Prop51ColorRGB
 90
-16777216
102
RTVSPost2010PropOp51
 70
     0
102
RTVSPost2010Prop52
140
1.0
102
RTVSPost2010PropOp52
 70
     0
102
RTVSPost2010Prop53
 90
        2
102
RTVSPost2010PropOp53
 70
     1
102
RTVSPost2010Prop54
  1
strokes_ogs.tif
102
RTVSPost2010PropOp54
 70
     1
102
RTVSPost2010Prop55
280
     0
102
RTVSPost2010PropOp55
 70
     1
102
RTVSPost2010Prop56
140
1.0
102
RTVSPost2010PropOp56
 70
     1
102
RTVSPost2010Prop57
140
1.0
102
RTVSPost2010PropOp57
 70
     1
102
RTVSPropertyOp0
 70
     1
102
RTVSPropertyOp1
 70
     1
102
RTVSPropertyOp2
 70
     1
102
RTVSPropertyOp3
 70
     1
102
RTVSPropertyOp4
 70
     1
102
RTVSPropertyOp5
 70
     1
102
RTVSPropertyOp6
 70
     1
102
RTVSPropertyOp7
 70
     1
102
RTVSPropertyOp8
 70
     1
102
RTVSPropertyOp9
 70
     1
102
RTVSPropertyOp10
 70
     1
102
RTVSPropertyOp11
 70
     1
102
RTVSPropertyOp12
 70
     1
102
RTVSPropertyOp13
 70
     1
102
RTVSPropertyOp14
 70
     1
102
RTVSPropertyOp15
 70
     1
102
RTVSPropertyOp16
 70
     1
102
RTVSPropertyOp17
 70
     1
102
RTVSPropertyOp18
 70
     1
102
RTVSPropertyOp19
 70
     1
102
RTVSPropertyOp20
 70
     1
102
RTVSPropertyOp21
 70
     1
102
RTVSPropertyOp22
 70
     1
102
RTVSPropertyOp23
 70
     1
102
RTVSPropertyOp24
 70
     1
102
RTVSPropertyOp25
 70
     1
102
RTVSPropertyOp26
 70
     1
102
RTVSPropertyOp27
 70
     1
102
RTVSPropertyOp28
 70
     1
102
RTVSPropertyOp29
 70
     1
102
RTVSPropertyOp30
 70
     1
102
RTVSPropertyOp31
 70
     1
102
RTVSPropertyOp32
 70
     1
102
RTVSPropertyOp33
 70
     1
102
RTVSPropertyOp34
 70
     1
102
RTVSPropertyOp35
 70
     1
102
RTVSPropertyOp36
 70
     1
102
RTVSPropertyOp37
 70
     1
102
RTVSPropertyOp38
 70
     1
102
RTVSPropertyOp39
 70
     1
102
RTVSPropertyOp40
 70
     1
102
RTVSPropertyOp41
 70
     1
102
RTVSPropertyOp42
 70
     1
102
RTVSPropertyOp43
 70
     1
102
RTVSPropertyOp44
 70
     1
102
RTVSPropertyOp45
 70
     1
102
RTVSPropertyOp46
 70
     1
102
RTVSPropertyOp47
 70
     1
102
RTVSPropertyOp48
 70
     1
102
RTVSPropertyOp49
 70
     1
102
RTVSPropertyOp50
 70
     1
102
RTVSPropertyOp51
 70
     0
102
RTVSPropertyOp52
 70
     0
102
RTVSPropertyOp53
 70
     1
102
RTVSPropertyOp54
 70
     1
102
RTVSPropertyOp55
 70
     1
102
RTVSPropertyOp56
 70
     1
102
RTVSPropertyOp57
 70
     1
102
RTVSPropertyOp58
 70
     1
102
RTVSPropertyOp59
 70
     1
102
RTVSPropertyOp60
 70
     1
102
RTVSPropertyOp61
 70
     1
102
RTVSPropertyOp62
 70
     1
  0
XRECORD
  5
9AEB
102
{ACAD_REACTORS
330
9AEA
102
}
330
9AEA
100
AcDbXrecord
280
     1
102
RTVSPost2010Prop28
280
     0
102
RTVSPost2010PropOp28
 70
     1
102
RTVSPost2010Prop29
280
     1
102
RTVSPost2010PropOp29
 70
     1
102
RTVSPost2010Prop30
280
     1
102
RTVSPost2010PropOp30
 70
     1
102
RTVSPost2010Prop31
280
     0
102
RTVSPost2010PropOp31
 70
     1
102
RTVSPost2010Prop32
280
     0
102
RTVSPost2010PropOp32
 70
     1
102
RTVSPost2010Prop33
280
     0
102
RTVSPost2010PropOp33
 70
     1
102
RTVSPost2010Prop34
280
     0
102
RTVSPost2010PropOp34
 70
     1
102
RTVSPost2010Prop35
280
     0
102
RTVSPost2010PropOp35
 70
     1
102
RTVSPost2010Prop36
280
     0
102
RTVSPost2010PropOp36
 70
     1
102
RTVSPost2010Prop37
 90
       50
102
RTVSPost2010PropOp37
 70
     0
102
RTVSPost2010Prop38
140
0.0
102
RTVSPost2010PropOp38
 70
     0
102
RTVSPost2010Prop39
140
1.0
102
RTVSPost2010PropOp39
 70
     0
102
RTVSPost2010Prop40
 90
        0
102
RTVSPost2010PropOp40
 70
     0
102
RTVSPost2010Prop41ColorIndex
 90
       18
102
RTVSPost2010Prop41ColorRGB
 90
        0
102
RTVSPost2010PropOp41
 70
     0
102
RTVSPost2010Prop42
 90
       50
102
RTVSPost2010PropOp42
 70
     0
102
RTVSPost2010Prop43
 90
        3
102
RTVSPost2010PropOp43
 70
     0
102
RTVSPost2010Prop44ColorIndex
 90
        5
102
RTVSPost2010Prop44ColorRGB
 90
      255
102
RTVSPost2010PropOp44
 70
     0
102
RTVSPost2010Prop45
280
     0
102
RTVSPost2010PropOp45
 70
     1
102
RTVSPost2010Prop46
 90
       50
102
RTVSPost2010PropOp46
 70
     0
102
RTVSPost2010Prop47
 90
       50
102
RTVSPost2010PropOp47
 70
     0
102
RTVSPost2010Prop48
 90
       50
102
RTVSPost2010PropOp48
 70
     0
102
RTVSPost2010Prop49
280
     0
102
RTVSPost2010PropOp49
 70
     1
102
RTVSPost2010Prop50
 90
       50
102
RTVSPost2010PropOp50
 70
     0
102
RTVSPost2010Prop51ColorIndex
 90
      256
102
RTVSPost2010Prop51ColorRGB
 90
-16777216
102
RTVSPost2010PropOp51
 70
     0
102
RTVSPost2010Prop52
140
1.0
102
RTVSPost2010PropOp52
 70
     0
102
RTVSPost2010Prop53
 90
        2
102
RTVSPost2010PropOp53
 70
     0
102
RTVSPost2010Prop54
  1
strokes_ogs.tif
102
RTVSPost2010PropOp54
 70
     0
102
RTVSPost2010Prop55
280
     0
102
RTVSPost2010PropOp55
 70
     1
102
RTVSPost2010Prop56
140
1.0
102
RTVSPost2010PropOp56
 70
     0
102
RTVSPost2010Prop57
140
1.0
102
RTVSPost2010PropOp57
 70
     0
102
RTVSPropertyOp0
 70
     0
102
RTVSPropertyOp1
 70
     0
102
RTVSPropertyOp2
 70
     0
102
RTVSPropertyOp3
 70
     0
102
RTVSPropertyOp4
 70
     0
102
RTVSPropertyOp5
 70
     0
102
RTVSPropertyOp6
 70
     0
102
RTVSPropertyOp7
 70
     0
102
RTVSPropertyOp8
 70
     0
102
RTVSPropertyOp9
 70
     0
102
RTVSPropertyOp10
 70
     0
102
RTVSPropertyOp11
 70
     0
102
RTVSPropertyOp12
 70
     0
102
RTVSPropertyOp13
 70
     0
102
RTVSPropertyOp14
 70
     2
102
RTVSPropertyOp15
 70
     0
102
RTVSPropertyOp16
 70
     0
102
RTVSPropertyOp17
 70
     0
102
RTVSPropertyOp18
 70
     0
102
RTVSPropertyOp19
 70
     0
102
RTVSPropertyOp20
 70
     0
102
RTVSPropertyOp21
 70
     0
102
RTVSPropertyOp22
 70
     0
102
RTVSPropertyOp23
 70
     0
102
RTVSPropertyOp24
 70
     0
102
RTVSPropertyOp25
 70
     0
102
RTVSPropertyOp26
 70
     0
102
RTVSPropertyOp27
 70
     0
102
RTVSPropertyOp28
 70
     1
102
RTVSPropertyOp29
 70
     1
102
RTVSPropertyOp30
 70
     1
102
RTVSPropertyOp31
 70
     1
102
RTVSPropertyOp32
 70
     1
102
RTVSPropertyOp33
 70
     1
102
RTVSPropertyOp34
 70
     1
102
RTVSPropertyOp35
 70
     1
102
RTVSPropertyOp36
 70
     1
102
RTVSPropertyOp37
 70
     0
102
RTVSPropertyOp38
 70
     0
102
RTVSPropertyOp39
 70
     0
102
RTVSPropertyOp40
 70
     0
102
RTVSPropertyOp41
 70
     0
102
RTVSPropertyOp42
 70
     0
102
RTVSPropertyOp43
 70
     0
102
RTVSPropertyOp44
 70
     0
102
RTVSPropertyOp45
 70
     1
102
RTVSPropertyOp46
 70
     0
102
RTVSPropertyOp47
 70
     0
102
RTVSPropertyOp48
 70
     0
102
RTVSPropertyOp49
 70
     1
102
RTVSPropertyOp50
 70
     0
102
RTVSPropertyOp51
 70
     0
102
RTVSPropertyOp52
 70
     0
102
RTVSPropertyOp53
 70
     0
102
RTVSPropertyOp54
 70
     0
102
RTVSPropertyOp55
 70
     1
102
RTVSPropertyOp56
 70
     0
102
RTVSPropertyOp57
 70
     0
102
RTVSPropertyOp58
 70
     0
102
RTVSPropertyOp59
 70
     0
102
RTVSPropertyOp60
 70
     0
102
RTVSPropertyOp61
 70
     0
102
RTVSPropertyOp62
 70
     0
  0
XRECORD
  5
9AD9
102
{ACAD_REACTORS
330
9AD8
102
}
330
9AD8
100
AcDbXrecord
280
     1
102
RTVSPost2010Prop28
280
     0
102
RTVSPost2010PropOp28
 70
     1
102
RTVSPost2010Prop29
280
     1
102
RTVSPost2010PropOp29
 70
     1
102
RTVSPost2010Prop30
280
     1
102
RTVSPost2010PropOp30
 70
     1
102
RTVSPost2010Prop31
280
     0
102
RTVSPost2010PropOp31
 70
     1
102
RTVSPost2010Prop32
280
     0
102
RTVSPost2010PropOp32
 70
     1
102
RTVSPost2010Prop33
280
     0
102
RTVSPost2010PropOp33
 70
     1
102
RTVSPost2010Prop34
280
     0
102
RTVSPost2010PropOp34
 70
     1
102
RTVSPost2010Prop35
280
     0
102
RTVSPost2010PropOp35
 70
     1
102
RTVSPost2010Prop36
280
     0
102
RTVSPost2010PropOp36
 70
     1
102
RTVSPost2010Prop37
 90
       50
102
RTVSPost2010PropOp37
 70
     1
102
RTVSPost2010Prop38
140
0.0
102
RTVSPost2010PropOp38
 70
     1
102
RTVSPost2010Prop39
140
1.0
102
RTVSPost2010PropOp39
 70
     1
102
RTVSPost2010Prop40
 90
        0
102
RTVSPost2010PropOp40
 70
     1
102
RTVSPost2010Prop41ColorIndex
 90
       18
102
RTVSPost2010Prop41ColorRGB
 90
        0
102
RTVSPost2010PropOp41
 70
     1
102
RTVSPost2010Prop42
 90
       50
102
RTVSPost2010PropOp42
 70
     1
102
RTVSPost2010Prop43
 90
        3
102
RTVSPost2010PropOp43
 70
     1
102
RTVSPost2010Prop44ColorIndex
 90
        5
102
RTVSPost2010Prop44ColorRGB
 90
      255
102
RTVSPost2010PropOp44
 70
     1
102
RTVSPost2010Prop45
280
     0
102
RTVSPost2010PropOp45
 70
     1
102
RTVSPost2010Prop46
 90
       50
102
RTVSPost2010PropOp46
 70
     1
102
RTVSPost2010Prop47
 90
       50
102
RTVSPost2010PropOp47
 70
     1
102
RTVSPost2010Prop48
 90
       50
102
RTVSPost2010PropOp48
 70
     1
102
RTVSPost2010Prop49
280
     0
102
RTVSPost2010PropOp49
 70
     1
102
RTVSPost2010Prop50
 90
       50
102
RTVSPost2010PropOp50
 70
     1
102
RTVSPost2010Prop51ColorIndex
 90
      256
102
RTVSPost2010Prop51ColorRGB
 90
-16777216
102
RTVSPost2010PropOp51
 70
     0
102
RTVSPost2010Prop52
140
1.0
102
RTVSPost2010PropOp52
 70
     0
102
RTVSPost2010Prop53
 90
        2
102
RTVSPost2010PropOp53
 70
     1
102
RTVSPost2010Prop54
  1
strokes_ogs.tif
102
RTVSPost2010PropOp54
 70
     1
102
RTVSPost2010Prop55
280
     0
102
RTVSPost2010PropOp55
 70
     1
102
RTVSPost2010Prop56
140
1.0
102
RTVSPost2010PropOp56
 70
     1
102
RTVSPost2010Prop57
140
1.0
102
RTVSPost2010PropOp57
 70
     1
102
RTVSPropertyOp0
 70
     1
102
RTVSPropertyOp1
 70
     1
102
RTVSPropertyOp2
 70
     1
102
RTVSPropertyOp3
 70
     1
102
RTVSPropertyOp4
 70
     1
102
RTVSPropertyOp5
 70
     1
102
RTVSPropertyOp6
 70
     1
102
RTVSPropertyOp7
 70
     1
102
RTVSPropertyOp8
 70
     1
102
RTVSPropertyOp9
 70
     1
102
RTVSPropertyOp10
 70
     1
102
RTVSPropertyOp11
 70
     1
102
RTVSPropertyOp12
 70
     1
102
RTVSPropertyOp13
 70
     1
102
RTVSPropertyOp14
 70
     1
102
RTVSPropertyOp15
 70
     1
102
RTVSPropertyOp16
 70
     1
102
RTVSPropertyOp17
 70
     1
102
RTVSPropertyOp18
 70
     1
102
RTVSPropertyOp19
 70
     1
102
RTVSPropertyOp20
 70
     1
102
RTVSPropertyOp21
 70
     1
102
RTVSPropertyOp22
 70
     1
102
RTVSPropertyOp23
 70
     1
102
RTVSPropertyOp24
 70
     1
102
RTVSPropertyOp25
 70
     1
102
RTVSPropertyOp26
 70
     1
102
RTVSPropertyOp27
 70
     1
102
RTVSPropertyOp28
 70
     1
102
RTVSPropertyOp29
 70
     1
102
RTVSPropertyOp30
 70
     1
102
RTVSPropertyOp31
 70
     1
102
RTVSPropertyOp32
 70
     1
102
RTVSPropertyOp33
 70
     1
102
RTVSPropertyOp34
 70
     1
102
RTVSPropertyOp35
 70
     1
102
RTVSPropertyOp36
 70
     1
102
RTVSPropertyOp37
 70
     1
102
RTVSPropertyOp38
 70
     1
102
RTVSPropertyOp39
 70
     1
102
RTVSPropertyOp40
 70
     1
102
RTVSPropertyOp41
 70
     1
102
RTVSPropertyOp42
 70
     1
102
RTVSPropertyOp43
 70
     1
102
RTVSPropertyOp44
 70
     1
102
RTVSPropertyOp45
 70
     1
102
RTVSPropertyOp46
 70
     1
102
RTVSPropertyOp47
 70
     1
102
RTVSPropertyOp48
 70
     1
102
RTVSPropertyOp49
 70
     1
102
RTVSPropertyOp50
 70
     1
102
RTVSPropertyOp51
 70
     0
102
RTVSPropertyOp52
 70
     0
102
RTVSPropertyOp53
 70
     1
102
RTVSPropertyOp54
 70
     1
102
RTVSPropertyOp55
 70
     1
102
RTVSPropertyOp56
 70
     1
102
RTVSPropertyOp57
 70
     1
102
RTVSPropertyOp58
 70
     1
102
RTVSPropertyOp59
 70
     1
102
RTVSPropertyOp60
 70
     1
102
RTVSPropertyOp61
 70
     1
102
RTVSPropertyOp62
 70
     1
  0
XRECORD
  5
9ABD
102
{ACAD_REACTORS
330
9ABC
102
}
330
9ABC
100
AcDbXrecord
280
     1
102
RTVSPost2010Prop28
280
     0
102
RTVSPost2010PropOp28
 70
     1
102
RTVSPost2010Prop29
280
     1
102
RTVSPost2010PropOp29
 70
     1
102
RTVSPost2010Prop30
280
     1
102
RTVSPost2010PropOp30
 70
     1
102
RTVSPost2010Prop31
280
     0
102
RTVSPost2010PropOp31
 70
     1
102
RTVSPost2010Prop32
280
     0
102
RTVSPost2010PropOp32
 70
     1
102
RTVSPost2010Prop33
280
     0
102
RTVSPost2010PropOp33
 70
     1
102
RTVSPost2010Prop34
280
     0
102
RTVSPost2010PropOp34
 70
     1
102
RTVSPost2010Prop35
280
     0
102
RTVSPost2010PropOp35
 70
     1
102
RTVSPost2010Prop36
280
     0
102
RTVSPost2010PropOp36
 70
     1
102
RTVSPost2010Prop37
 90
       50
102
RTVSPost2010PropOp37
 70
     1
102
RTVSPost2010Prop38
140
0.0
102
RTVSPost2010PropOp38
 70
     1
102
RTVSPost2010Prop39
140
1.0
102
RTVSPost2010PropOp39
 70
     1
102
RTVSPost2010Prop40
 90
        0
102
RTVSPost2010PropOp40
 70
     1
102
RTVSPost2010Prop41ColorIndex
 90
       18
102
RTVSPost2010Prop41ColorRGB
 90
        0
102
RTVSPost2010PropOp41
 70
     1
102
RTVSPost2010Prop42
 90
       50
102
RTVSPost2010PropOp42
 70
     1
102
RTVSPost2010Prop43
 90
        3
102
RTVSPost2010PropOp43
 70
     1
102
RTVSPost2010Prop44ColorIndex
 90
        5
102
RTVSPost2010Prop44ColorRGB
 90
      255
102
RTVSPost2010PropOp44
 70
     1
102
RTVSPost2010Prop45
280
     0
102
RTVSPost2010PropOp45
 70
     1
102
RTVSPost2010Prop46
 90
       50
102
RTVSPost2010PropOp46
 70
     1
102
RTVSPost2010Prop47
 90
       50
102
RTVSPost2010PropOp47
 70
     1
102
RTVSPost2010Prop48
 90
       50
102
RTVSPost2010PropOp48
 70
     1
102
RTVSPost2010Prop49
280
     0
102
RTVSPost2010PropOp49
 70
     1
102
RTVSPost2010Prop50
 90
       50
102
RTVSPost2010PropOp50
 70
     1
102
RTVSPost2010Prop51ColorIndex
 90
      256
102
RTVSPost2010Prop51ColorRGB
 90
-16777216
102
RTVSPost2010PropOp51
 70
     0
102
RTVSPost2010Prop52
140
1.0
102
RTVSPost2010PropOp52
 70
     0
102
RTVSPost2010Prop53
 90
        2
102
RTVSPost2010PropOp53
 70
     1
102
RTVSPost2010Prop54
  1
strokes_ogs.tif
102
RTVSPost2010PropOp54
 70
     1
102
RTVSPost2010Prop55
280
     0
102
RTVSPost2010PropOp55
 70
     1
102
RTVSPost2010Prop56
140
1.0
102
RTVSPost2010PropOp56
 70
     1
102
RTVSPost2010Prop57
140
1.0
102
RTVSPost2010PropOp57
 70
     1
102
RTVSPropertyOp0
 70
     1
102
RTVSPropertyOp1
 70
     1
102
RTVSPropertyOp2
 70
     1
102
RTVSPropertyOp3
 70
     1
102
RTVSPropertyOp4
 70
     1
102
RTVSPropertyOp5
 70
     1
102
RTVSPropertyOp6
 70
     1
102
RTVSPropertyOp7
 70
     1
102
RTVSPropertyOp8
 70
     1
102
RTVSPropertyOp9
 70
     1
102
RTVSPropertyOp10
 70
     1
102
RTVSPropertyOp11
 70
     1
102
RTVSPropertyOp12
 70
     1
102
RTVSPropertyOp13
 70
     1
102
RTVSPropertyOp14
 70
     1
102
RTVSPropertyOp15
 70
     1
102
RTVSPropertyOp16
 70
     1
102
RTVSPropertyOp17
 70
     1
102
RTVSPropertyOp18
 70
     1
102
RTVSPropertyOp19
 70
     1
102
RTVSPropertyOp20
 70
     1
102
RTVSPropertyOp21
 70
     1
102
RTVSPropertyOp22
 70
     1
102
RTVSPropertyOp23
 70
     1
102
RTVSPropertyOp24
 70
     1
102
RTVSPropertyOp25
 70
     1
102
RTVSPropertyOp26
 70
     1
102
RTVSPropertyOp27
 70
     1
102
RTVSPropertyOp28
 70
     1
102
RTVSPropertyOp29
 70
     1
102
RTVSPropertyOp30
 70
     1
102
RTVSPropertyOp31
 70
     1
102
RTVSPropertyOp32
 70
     1
102
RTVSPropertyOp33
 70
     1
102
RTVSPropertyOp34
 70
     1
102
RTVSPropertyOp35
 70
     1
102
RTVSPropertyOp36
 70
     1
102
RTVSPropertyOp37
 70
     1
102
RTVSPropertyOp38
 70
     1
102
RTVSPropertyOp39
 70
     1
102
RTVSPropertyOp40
 70
     1
102
RTVSPropertyOp41
 70
     1
102
RTVSPropertyOp42
 70
     1
102
RTVSPropertyOp43
 70
     1
102
RTVSPropertyOp44
 70
     1
102
RTVSPropertyOp45
 70
     1
102
RTVSPropertyOp46
 70
     1
102
RTVSPropertyOp47
 70
     1
102
RTVSPropertyOp48
 70
     1
102
RTVSPropertyOp49
 70
     1
102
RTVSPropertyOp50
 70
     1
102
RTVSPropertyOp51
 70
     0
102
RTVSPropertyOp52
 70
     0
102
RTVSPropertyOp53
 70
     1
102
RTVSPropertyOp54
 70
     1
102
RTVSPropertyOp55
 70
     1
102
RTVSPropertyOp56
 70
     1
102
RTVSPropertyOp57
 70
     1
102
RTVSPropertyOp58
 70
     1
102
RTVSPropertyOp59
 70
     1
102
RTVSPropertyOp60
 70
     1
102
RTVSPropertyOp61
 70
     1
102
RTVSPropertyOp62
 70
     1
  0
XRECORD
  5
9ABF
102
{ACAD_REACTORS
330
9ABE
102
}
330
9ABE
100
AcDbXrecord
280
     1
102
RTVSPost2010Prop28
280
     0
102
RTVSPost2010PropOp28
 70
     1
102
RTVSPost2010Prop29
280
     1
102
RTVSPost2010PropOp29
 70
     1
102
RTVSPost2010Prop30
280
     1
102
RTVSPost2010PropOp30
 70
     1
102
RTVSPost2010Prop31
280
     0
102
RTVSPost2010PropOp31
 70
     1
102
RTVSPost2010Prop32
280
     0
102
RTVSPost2010PropOp32
 70
     1
102
RTVSPost2010Prop33
280
     0
102
RTVSPost2010PropOp33
 70
     1
102
RTVSPost2010Prop34
280
     0
102
RTVSPost2010PropOp34
 70
     1
102
RTVSPost2010Prop35
280
     0
102
RTVSPost2010PropOp35
 70
     1
102
RTVSPost2010Prop36
280
     0
102
RTVSPost2010PropOp36
 70
     1
102
RTVSPost2010Prop37
 90
       50
102
RTVSPost2010PropOp37
 70
     1
102
RTVSPost2010Prop38
140
0.0
102
RTVSPost2010PropOp38
 70
     1
102
RTVSPost2010Prop39
140
1.0
102
RTVSPost2010PropOp39
 70
     1
102
RTVSPost2010Prop40
 90
        0
102
RTVSPost2010PropOp40
 70
     1
102
RTVSPost2010Prop41ColorIndex
 90
       18
102
RTVSPost2010Prop41ColorRGB
 90
        0
102
RTVSPost2010PropOp41
 70
     1
102
RTVSPost2010Prop42
 90
       50
102
RTVSPost2010PropOp42
 70
     1
102
RTVSPost2010Prop43
 90
        3
102
RTVSPost2010PropOp43
 70
     1
102
RTVSPost2010Prop44ColorIndex
 90
        5
102
RTVSPost2010Prop44ColorRGB
 90
      255
102
RTVSPost2010PropOp44
 70
     1
102
RTVSPost2010Prop45
280
     0
102
RTVSPost2010PropOp45
 70
     1
102
RTVSPost2010Prop46
 90
       50
102
RTVSPost2010PropOp46
 70
     1
102
RTVSPost2010Prop47
 90
       50
102
RTVSPost2010PropOp47
 70
     1
102
RTVSPost2010Prop48
 90
       50
102
RTVSPost2010PropOp48
 70
     1
102
RTVSPost2010Prop49
280
     0
102
RTVSPost2010PropOp49
 70
     1
102
RTVSPost2010Prop50
 90
       50
102
RTVSPost2010PropOp50
 70
     1
102
RTVSPost2010Prop51ColorIndex
 90
      256
102
RTVSPost2010Prop51ColorRGB
 90
-16777216
102
RTVSPost2010PropOp51
 70
     0
102
RTVSPost2010Prop52
140
1.0
102
RTVSPost2010PropOp52
 70
     0
102
RTVSPost2010Prop53
 90
        2
102
RTVSPost2010PropOp53
 70
     1
102
RTVSPost2010Prop54
  1
strokes_ogs.tif
102
RTVSPost2010PropOp54
 70
     1
102
RTVSPost2010Prop55
280
     0
102
RTVSPost2010PropOp55
 70
     1
102
RTVSPost2010Prop56
140
1.0
102
RTVSPost2010PropOp56
 70
     1
102
RTVSPost2010Prop57
140
1.0
102
RTVSPost2010PropOp57
 70
     1
102
RTVSPropertyOp0
 70
     1
102
RTVSPropertyOp1
 70
     1
102
RTVSPropertyOp2
 70
     1
102
RTVSPropertyOp3
 70
     1
102
RTVSPropertyOp4
 70
     1
102
RTVSPropertyOp5
 70
     1
102
RTVSPropertyOp6
 70
     1
102
RTVSPropertyOp7
 70
     1
102
RTVSPropertyOp8
 70
     1
102
RTVSPropertyOp9
 70
     1
102
RTVSPropertyOp10
 70
     1
102
RTVSPropertyOp11
 70
     1
102
RTVSPropertyOp12
 70
     1
102
RTVSPropertyOp13
 70
     1
102
RTVSPropertyOp14
 70
     1
102
RTVSPropertyOp15
 70
     1
102
RTVSPropertyOp16
 70
     1
102
RTVSPropertyOp17
 70
     1
102
RTVSPropertyOp18
 70
     1
102
RTVSPropertyOp19
 70
     1
102
RTVSPropertyOp20
 70
     1
102
RTVSPropertyOp21
 70
     1
102
RTVSPropertyOp22
 70
     1
102
RTVSPropertyOp23
 70
     1
102
RTVSPropertyOp24
 70
     1
102
RTVSPropertyOp25
 70
     1
102
RTVSPropertyOp26
 70
     1
102
RTVSPropertyOp27
 70
     1
102
RTVSPropertyOp28
 70
     1
102
RTVSPropertyOp29
 70
     1
102
RTVSPropertyOp30
 70
     1
102
RTVSPropertyOp31
 70
     1
102
RTVSPropertyOp32
 70
     1
102
RTVSPropertyOp33
 70
     1
102
RTVSPropertyOp34
 70
     1
102
RTVSPropertyOp35
 70
     1
102
RTVSPropertyOp36
 70
     1
102
RTVSPropertyOp37
 70
     1
102
RTVSPropertyOp38
 70
     1
102
RTVSPropertyOp39
 70
     1
102
RTVSPropertyOp40
 70
     1
102
RTVSPropertyOp41
 70
     1
102
RTVSPropertyOp42
 70
     1
102
RTVSPropertyOp43
 70
     1
102
RTVSPropertyOp44
 70
     1
102
RTVSPropertyOp45
 70
     1
102
RTVSPropertyOp46
 70
     1
102
RTVSPropertyOp47
 70
     1
102
RTVSPropertyOp48
 70
     1
102
RTVSPropertyOp49
 70
     1
102
RTVSPropertyOp50
 70
     1
102
RTVSPropertyOp51
 70
     0
102
RTVSPropertyOp52
 70
     0
102
RTVSPropertyOp53
 70
     1
102
RTVSPropertyOp54
 70
     1
102
RTVSPropertyOp55
 70
     1
102
RTVSPropertyOp56
 70
     1
102
RTVSPropertyOp57
 70
     1
102
RTVSPropertyOp58
 70
     1
102
RTVSPropertyOp59
 70
     1
102
RTVSPropertyOp60
 70
     1
102
RTVSPropertyOp61
 70
     1
102
RTVSPropertyOp62
 70
     1
  0
XRECORD
  5
9AC1
102
{ACAD_REACTORS
330
9AC0
102
}
330
9AC0
100
AcDbXrecord
280
     1
102
RTVSPost2010Prop28
280
     0
102
RTVSPost2010PropOp28
 70
     1
102
RTVSPost2010Prop29
280
     1
102
RTVSPost2010PropOp29
 70
     1
102
RTVSPost2010Prop30
280
     1
102
RTVSPost2010PropOp30
 70
     1
102
RTVSPost2010Prop31
280
     0
102
RTVSPost2010PropOp31
 70
     1
102
RTVSPost2010Prop32
280
     0
102
RTVSPost2010PropOp32
 70
     1
102
RTVSPost2010Prop33
280
     0
102
RTVSPost2010PropOp33
 70
     1
102
RTVSPost2010Prop34
280
     0
102
RTVSPost2010PropOp34
 70
     1
102
RTVSPost2010Prop35
280
     0
102
RTVSPost2010PropOp35
 70
     1
102
RTVSPost2010Prop36
280
     0
102
RTVSPost2010PropOp36
 70
     1
102
RTVSPost2010Prop37
 90
       50
102
RTVSPost2010PropOp37
 70
     1
102
RTVSPost2010Prop38
140
0.0
102
RTVSPost2010PropOp38
 70
     1
102
RTVSPost2010Prop39
140
1.0
102
RTVSPost2010PropOp39
 70
     1
102
RTVSPost2010Prop40
 90
        0
102
RTVSPost2010PropOp40
 70
     1
102
RTVSPost2010Prop41ColorIndex
 90
       18
102
RTVSPost2010Prop41ColorRGB
 90
        0
102
RTVSPost2010PropOp41
 70
     1
102
RTVSPost2010Prop42
 90
       50
102
RTVSPost2010PropOp42
 70
     1
102
RTVSPost2010Prop43
 90
        3
102
RTVSPost2010PropOp43
 70
     1
102
RTVSPost2010Prop44ColorIndex
 90
        5
102
RTVSPost2010Prop44ColorRGB
 90
      255
102
RTVSPost2010PropOp44
 70
     1
102
RTVSPost2010Prop45
280
     0
102
RTVSPost2010PropOp45
 70
     1
102
RTVSPost2010Prop46
 90
       50
102
RTVSPost2010PropOp46
 70
     1
102
RTVSPost2010Prop47
 90
       50
102
RTVSPost2010PropOp47
 70
     1
102
RTVSPost2010Prop48
 90
       50
102
RTVSPost2010PropOp48
 70
     1
102
RTVSPost2010Prop49
280
     0
102
RTVSPost2010PropOp49
 70
     1
102
RTVSPost2010Prop50
 90
       50
102
RTVSPost2010PropOp50
 70
     1
102
RTVSPost2010Prop51ColorIndex
 90
      256
102
RTVSPost2010Prop51ColorRGB
 90
-16777216
102
RTVSPost2010PropOp51
 70
     0
102
RTVSPost2010Prop52
140
1.0
102
RTVSPost2010PropOp52
 70
     0
102
RTVSPost2010Prop53
 90
        2
102
RTVSPost2010PropOp53
 70
     1
102
RTVSPost2010Prop54
  1
strokes_ogs.tif
102
RTVSPost2010PropOp54
 70
     1
102
RTVSPost2010Prop55
280
     0
102
RTVSPost2010PropOp55
 70
     1
102
RTVSPost2010Prop56
140
1.0
102
RTVSPost2010PropOp56
 70
     1
102
RTVSPost2010Prop57
140
1.0
102
RTVSPost2010PropOp57
 70
     1
102
RTVSPropertyOp0
 70
     1
102
RTVSPropertyOp1
 70
     1
102
RTVSPropertyOp2
 70
     1
102
RTVSPropertyOp3
 70
     1
102
RTVSPropertyOp4
 70
     1
102
RTVSPropertyOp5
 70
     1
102
RTVSPropertyOp6
 70
     1
102
RTVSPropertyOp7
 70
     1
102
RTVSPropertyOp8
 70
     1
102
RTVSPropertyOp9
 70
     1
102
RTVSPropertyOp10
 70
     1
102
RTVSPropertyOp11
 70
     1
102
RTVSPropertyOp12
 70
     1
102
RTVSPropertyOp13
 70
     1
102
RTVSPropertyOp14
 70
     1
102
RTVSPropertyOp15
 70
     1
102
RTVSPropertyOp16
 70
     1
102
RTVSPropertyOp17
 70
     1
102
RTVSPropertyOp18
 70
     1
102
RTVSPropertyOp19
 70
     1
102
RTVSPropertyOp20
 70
     1
102
RTVSPropertyOp21
 70
     1
102
RTVSPropertyOp22
 70
     1
102
RTVSPropertyOp23
 70
     1
102
RTVSPropertyOp24
 70
     1
102
RTVSPropertyOp25
 70
     1
102
RTVSPropertyOp26
 70
     1
102
RTVSPropertyOp27
 70
     1
102
RTVSPropertyOp28
 70
     1
102
RTVSPropertyOp29
 70
     1
102
RTVSPropertyOp30
 70
     1
102
RTVSPropertyOp31
 70
     1
102
RTVSPropertyOp32
 70
     1
102
RTVSPropertyOp33
 70
     1
102
RTVSPropertyOp34
 70
     1
102
RTVSPropertyOp35
 70
     1
102
RTVSPropertyOp36
 70
     1
102
RTVSPropertyOp37
 70
     1
102
RTVSPropertyOp38
 70
     1
102
RTVSPropertyOp39
 70
     1
102
RTVSPropertyOp40
 70
     1
102
RTVSPropertyOp41
 70
     1
102
RTVSPropertyOp42
 70
     1
102
RTVSPropertyOp43
 70
     1
102
RTVSPropertyOp44
 70
     1
102
RTVSPropertyOp45
 70
     1
102
RTVSPropertyOp46
 70
     1
102
RTVSPropertyOp47
 70
     1
102
RTVSPropertyOp48
 70
     1
102
RTVSPropertyOp49
 70
     1
102
RTVSPropertyOp50
 70
     1
102
RTVSPropertyOp51
 70
     0
102
RTVSPropertyOp52
 70
     0
102
RTVSPropertyOp53
 70
     1
102
RTVSPropertyOp54
 70
     1
102
RTVSPropertyOp55
 70
     1
102
RTVSPropertyOp56
 70
     1
102
RTVSPropertyOp57
 70
     1
102
RTVSPropertyOp58
 70
     1
102
RTVSPropertyOp59
 70
     1
102
RTVSPropertyOp60
 70
     1
102
RTVSPropertyOp61
 70
     1
102
RTVSPropertyOp62
 70
     1
  0
XRECORD
  5
9AC3
102
{ACAD_REACTORS
330
9AC2
102
}
330
9AC2
100
AcDbXrecord
280
     1
102
RTVSPost2010Prop28
280
     0
102
RTVSPost2010PropOp28
 70
     1
102
RTVSPost2010Prop29
280
     1
102
RTVSPost2010PropOp29
 70
     1
102
RTVSPost2010Prop30
280
     1
102
RTVSPost2010PropOp30
 70
     1
102
RTVSPost2010Prop31
280
     0
102
RTVSPost2010PropOp31
 70
     1
102
RTVSPost2010Prop32
280
     0
102
RTVSPost2010PropOp32
 70
     1
102
RTVSPost2010Prop33
280
     0
102
RTVSPost2010PropOp33
 70
     1
102
RTVSPost2010Prop34
280
     0
102
RTVSPost2010PropOp34
 70
     1
102
RTVSPost2010Prop35
280
     0
102
RTVSPost2010PropOp35
 70
     1
102
RTVSPost2010Prop36
280
     0
102
RTVSPost2010PropOp36
 70
     1
102
RTVSPost2010Prop37
 90
       50
102
RTVSPost2010PropOp37
 70
     1
102
RTVSPost2010Prop38
140
0.0
102
RTVSPost2010PropOp38
 70
     1
102
RTVSPost2010Prop39
140
1.0
102
RTVSPost2010PropOp39
 70
     1
102
RTVSPost2010Prop40
 90
        0
102
RTVSPost2010PropOp40
 70
     1
102
RTVSPost2010Prop41ColorIndex
 90
       18
102
RTVSPost2010Prop41ColorRGB
 90
        0
102
RTVSPost2010PropOp41
 70
     1
102
RTVSPost2010Prop42
 90
       50
102
RTVSPost2010PropOp42
 70
     1
102
RTVSPost2010Prop43
 90
        3
102
RTVSPost2010PropOp43
 70
     1
102
RTVSPost2010Prop44ColorIndex
 90
        5
102
RTVSPost2010Prop44ColorRGB
 90
      255
102
RTVSPost2010PropOp44
 70
     1
102
RTVSPost2010Prop45
280
     0
102
RTVSPost2010PropOp45
 70
     1
102
RTVSPost2010Prop46
 90
       50
102
RTVSPost2010PropOp46
 70
     1
102
RTVSPost2010Prop47
 90
       50
102
RTVSPost2010PropOp47
 70
     1
102
RTVSPost2010Prop48
 90
       50
102
RTVSPost2010PropOp48
 70
     1
102
RTVSPost2010Prop49
280
     0
102
RTVSPost2010PropOp49
 70
     1
102
RTVSPost2010Prop50
 90
       50
102
RTVSPost2010PropOp50
 70
     1
102
RTVSPost2010Prop51ColorIndex
 90
      256
102
RTVSPost2010Prop51ColorRGB
 90
-16777216
102
RTVSPost2010PropOp51
 70
     0
102
RTVSPost2010Prop52
140
1.0
102
RTVSPost2010PropOp52
 70
     0
102
RTVSPost2010Prop53
 90
        2
102
RTVSPost2010PropOp53
 70
     1
102
RTVSPost2010Prop54
  1
strokes_ogs.tif
102
RTVSPost2010PropOp54
 70
     1
102
RTVSPost2010Prop55
280
     0
102
RTVSPost2010PropOp55
 70
     1
102
RTVSPost2010Prop56
140
1.0
102
RTVSPost2010PropOp56
 70
     1
102
RTVSPost2010Prop57
140
1.0
102
RTVSPost2010PropOp57
 70
     1
102
RTVSPropertyOp0
 70
     1
102
RTVSPropertyOp1
 70
     1
102
RTVSPropertyOp2
 70
     1
102
RTVSPropertyOp3
 70
     1
102
RTVSPropertyOp4
 70
     1
102
RTVSPropertyOp5
 70
     1
102
RTVSPropertyOp6
 70
     1
102
RTVSPropertyOp7
 70
     1
102
RTVSPropertyOp8
 70
     1
102
RTVSPropertyOp9
 70
     1
102
RTVSPropertyOp10
 70
     1
102
RTVSPropertyOp11
 70
     1
102
RTVSPropertyOp12
 70
     1
102
RTVSPropertyOp13
 70
     1
102
RTVSPropertyOp14
 70
     1
102
RTVSPropertyOp15
 70
     1
102
RTVSPropertyOp16
 70
     1
102
RTVSPropertyOp17
 70
     1
102
RTVSPropertyOp18
 70
     1
102
RTVSPropertyOp19
 70
     1
102
RTVSPropertyOp20
 70
     1
102
RTVSPropertyOp21
 70
     1
102
RTVSPropertyOp22
 70
     1
102
RTVSPropertyOp23
 70
     1
102
RTVSPropertyOp24
 70
     1
102
RTVSPropertyOp25
 70
     1
102
RTVSPropertyOp26
 70
     1
102
RTVSPropertyOp27
 70
     1
102
RTVSPropertyOp28
 70
     1
102
RTVSPropertyOp29
 70
     1
102
RTVSPropertyOp30
 70
     1
102
RTVSPropertyOp31
 70
     1
102
RTVSPropertyOp32
 70
     1
102
RTVSPropertyOp33
 70
     1
102
RTVSPropertyOp34
 70
     1
102
RTVSPropertyOp35
 70
     1
102
RTVSPropertyOp36
 70
     1
102
RTVSPropertyOp37
 70
     1
102
RTVSPropertyOp38
 70
     1
102
RTVSPropertyOp39
 70
     1
102
RTVSPropertyOp40
 70
     1
102
RTVSPropertyOp41
 70
     1
102
RTVSPropertyOp42
 70
     1
102
RTVSPropertyOp43
 70
     1
102
RTVSPropertyOp44
 70
     1
102
RTVSPropertyOp45
 70
     1
102
RTVSPropertyOp46
 70
     1
102
RTVSPropertyOp47
 70
     1
102
RTVSPropertyOp48
 70
     1
102
RTVSPropertyOp49
 70
     1
102
RTVSPropertyOp50
 70
     1
102
RTVSPropertyOp51
 70
     0
102
RTVSPropertyOp52
 70
     0
102
RTVSPropertyOp53
 70
     1
102
RTVSPropertyOp54
 70
     1
102
RTVSPropertyOp55
 70
     1
102
RTVSPropertyOp56
 70
     1
102
RTVSPropertyOp57
 70
     1
102
RTVSPropertyOp58
 70
     1
102
RTVSPropertyOp59
 70
     1
102
RTVSPropertyOp60
 70
     1
102
RTVSPropertyOp61
 70
     1
102
RTVSPropertyOp62
 70
     1
  0
XRECORD
  5
9ACB
102
{ACAD_REACTORS
330
9ACA
102
}
330
9ACA
100
AcDbXrecord
280
     1
102
RTVSPost2010Prop28
280
     0
102
RTVSPost2010PropOp28
 70
     1
102
RTVSPost2010Prop29
280
     1
102
RTVSPost2010PropOp29
 70
     1
102
RTVSPost2010Prop30
280
     1
102
RTVSPost2010PropOp30
 70
     1
102
RTVSPost2010Prop31
280
     0
102
RTVSPost2010PropOp31
 70
     1
102
RTVSPost2010Prop32
280
     0
102
RTVSPost2010PropOp32
 70
     1
102
RTVSPost2010Prop33
280
     0
102
RTVSPost2010PropOp33
 70
     1
102
RTVSPost2010Prop34
280
     0
102
RTVSPost2010PropOp34
 70
     1
102
RTVSPost2010Prop35
280
     0
102
RTVSPost2010PropOp35
 70
     1
102
RTVSPost2010Prop36
280
     0
102
RTVSPost2010PropOp36
 70
     1
102
RTVSPost2010Prop37
 90
       50
102
RTVSPost2010PropOp37
 70
     1
102
RTVSPost2010Prop38
140
0.0
102
RTVSPost2010PropOp38
 70
     1
102
RTVSPost2010Prop39
140
1.0
102
RTVSPost2010PropOp39
 70
     1
102
RTVSPost2010Prop40
 90
        0
102
RTVSPost2010PropOp40
 70
     1
102
RTVSPost2010Prop41ColorIndex
 90
       18
102
RTVSPost2010Prop41ColorRGB
 90
        0
102
RTVSPost2010PropOp41
 70
     1
102
RTVSPost2010Prop42
 90
       50
102
RTVSPost2010PropOp42
 70
     1
102
RTVSPost2010Prop43
 90
        3
102
RTVSPost2010PropOp43
 70
     1
102
RTVSPost2010Prop44ColorIndex
 90
        5
102
RTVSPost2010Prop44ColorRGB
 90
      255
102
RTVSPost2010PropOp44
 70
     1
102
RTVSPost2010Prop45
280
     0
102
RTVSPost2010PropOp45
 70
     1
102
RTVSPost2010Prop46
 90
       50
102
RTVSPost2010PropOp46
 70
     1
102
RTVSPost2010Prop47
 90
       50
102
RTVSPost2010PropOp47
 70
     1
102
RTVSPost2010Prop48
 90
       50
102
RTVSPost2010PropOp48
 70
     1
102
RTVSPost2010Prop49
280
     0
102
RTVSPost2010PropOp49
 70
     1
102
RTVSPost2010Prop50
 90
       50
102
RTVSPost2010PropOp50
 70
     1
102
RTVSPost2010Prop51ColorIndex
 90
      256
102
RTVSPost2010Prop51ColorRGB
 90
-16777216
102
RTVSPost2010PropOp51
 70
     0
102
RTVSPost2010Prop52
140
1.0
102
RTVSPost2010PropOp52
 70
     0
102
RTVSPost2010Prop53
 90
        2
102
RTVSPost2010PropOp53
 70
     1
102
RTVSPost2010Prop54
  1
strokes_ogs.tif
102
RTVSPost2010PropOp54
 70
     1
102
RTVSPost2010Prop55
280
     0
102
RTVSPost2010PropOp55
 70
     1
102
RTVSPost2010Prop56
140
1.0
102
RTVSPost2010PropOp56
 70
     1
102
RTVSPost2010Prop57
140
1.0
102
RTVSPost2010PropOp57
 70
     1
102
RTVSPropertyOp0
 70
     1
102
RTVSPropertyOp1
 70
     1
102
RTVSPropertyOp2
 70
     1
102
RTVSPropertyOp3
 70
     1
102
RTVSPropertyOp4
 70
     1
102
RTVSPropertyOp5
 70
     1
102
RTVSPropertyOp6
 70
     1
102
RTVSPropertyOp7
 70
     1
102
RTVSPropertyOp8
 70
     1
102
RTVSPropertyOp9
 70
     1
102
RTVSPropertyOp10
 70
     1
102
RTVSPropertyOp11
 70
     1
102
RTVSPropertyOp12
 70
     1
102
RTVSPropertyOp13
 70
     1
102
RTVSPropertyOp14
 70
     1
102
RTVSPropertyOp15
 70
     1
102
RTVSPropertyOp16
 70
     1
102
RTVSPropertyOp17
 70
     1
102
RTVSPropertyOp18
 70
     1
102
RTVSPropertyOp19
 70
     1
102
RTVSPropertyOp20
 70
     1
102
RTVSPropertyOp21
 70
     1
102
RTVSPropertyOp22
 70
     1
102
RTVSPropertyOp23
 70
     1
102
RTVSPropertyOp24
 70
     1
102
RTVSPropertyOp25
 70
     1
102
RTVSPropertyOp26
 70
     1
102
RTVSPropertyOp27
 70
     1
102
RTVSPropertyOp28
 70
     1
102
RTVSPropertyOp29
 70
     1
102
RTVSPropertyOp30
 70
     1
102
RTVSPropertyOp31
 70
     1
102
RTVSPropertyOp32
 70
     1
102
RTVSPropertyOp33
 70
     1
102
RTVSPropertyOp34
 70
     1
102
RTVSPropertyOp35
 70
     1
102
RTVSPropertyOp36
 70
     1
102
RTVSPropertyOp37
 70
     1
102
RTVSPropertyOp38
 70
     1
102
RTVSPropertyOp39
 70
     1
102
RTVSPropertyOp40
 70
     1
102
RTVSPropertyOp41
 70
     1
102
RTVSPropertyOp42
 70
     1
102
RTVSPropertyOp43
 70
     1
102
RTVSPropertyOp44
 70
     1
102
RTVSPropertyOp45
 70
     1
102
RTVSPropertyOp46
 70
     1
102
RTVSPropertyOp47
 70
     1
102
RTVSPropertyOp48
 70
     1
102
RTVSPropertyOp49
 70
     1
102
RTVSPropertyOp50
 70
     1
102
RTVSPropertyOp51
 70
     0
102
RTVSPropertyOp52
 70
     0
102
RTVSPropertyOp53
 70
     1
102
RTVSPropertyOp54
 70
     1
102
RTVSPropertyOp55
 70
     1
102
RTVSPropertyOp56
 70
     1
102
RTVSPropertyOp57
 70
     1
102
RTVSPropertyOp58
 70
     1
102
RTVSPropertyOp59
 70
     1
102
RTVSPropertyOp60
 70
     1
102
RTVSPropertyOp61
 70
     1
102
RTVSPropertyOp62
 70
     1
  0
XRECORD
  5
9AE7
102
{ACAD_REACTORS
330
9AE6
102
}
330
9AE6
100
AcDbXrecord
280
     1
102
RTVSPost2010Prop28
280
     0
102
RTVSPost2010PropOp28
 70
     1
102
RTVSPost2010Prop29
280
     1
102
RTVSPost2010PropOp29
 70
     1
102
RTVSPost2010Prop30
280
     1
102
RTVSPost2010PropOp30
 70
     1
102
RTVSPost2010Prop31
280
     0
102
RTVSPost2010PropOp31
 70
     1
102
RTVSPost2010Prop32
280
     0
102
RTVSPost2010PropOp32
 70
     1
102
RTVSPost2010Prop33
280
     0
102
RTVSPost2010PropOp33
 70
     1
102
RTVSPost2010Prop34
280
     0
102
RTVSPost2010PropOp34
 70
     1
102
RTVSPost2010Prop35
280
     0
102
RTVSPost2010PropOp35
 70
     1
102
RTVSPost2010Prop36
280
     0
102
RTVSPost2010PropOp36
 70
     1
102
RTVSPost2010Prop37
 90
       50
102
RTVSPost2010PropOp37
 70
     0
102
RTVSPost2010Prop38
140
0.0
102
RTVSPost2010PropOp38
 70
     0
102
RTVSPost2010Prop39
140
1.0
102
RTVSPost2010PropOp39
 70
     0
102
RTVSPost2010Prop40
 90
        0
102
RTVSPost2010PropOp40
 70
     0
102
RTVSPost2010Prop41ColorIndex
 90
       18
102
RTVSPost2010Prop41ColorRGB
 90
        0
102
RTVSPost2010PropOp41
 70
     0
102
RTVSPost2010Prop42
 90
       50
102
RTVSPost2010PropOp42
 70
     0
102
RTVSPost2010Prop43
 90
        3
102
RTVSPost2010PropOp43
 70
     0
102
RTVSPost2010Prop44ColorIndex
 90
        5
102
RTVSPost2010Prop44ColorRGB
 90
      255
102
RTVSPost2010PropOp44
 70
     0
102
RTVSPost2010Prop45
280
     0
102
RTVSPost2010PropOp45
 70
     1
102
RTVSPost2010Prop46
 90
       50
102
RTVSPost2010PropOp46
 70
     0
102
RTVSPost2010Prop47
 90
       50
102
RTVSPost2010PropOp47
 70
     0
102
RTVSPost2010Prop48
 90
       50
102
RTVSPost2010PropOp48
 70
     0
102
RTVSPost2010Prop49
280
     0
102
RTVSPost2010PropOp49
 70
     1
102
RTVSPost2010Prop50
 90
       50
102
RTVSPost2010PropOp50
 70
     0
102
RTVSPost2010Prop51ColorIndex
 90
      256
102
RTVSPost2010Prop51ColorRGB
 90
-16777216
102
RTVSPost2010PropOp51
 70
     0
102
RTVSPost2010Prop52
140
1.0
102
RTVSPost2010PropOp52
 70
     0
102
RTVSPost2010Prop53
 90
        2
102
RTVSPost2010PropOp53
 70
     0
102
RTVSPost2010Prop54
  1
strokes_ogs.tif
102
RTVSPost2010PropOp54
 70
     0
102
RTVSPost2010Prop55
280
     0
102
RTVSPost2010PropOp55
 70
     1
102
RTVSPost2010Prop56
140
1.0
102
RTVSPost2010PropOp56
 70
     0
102
RTVSPost2010Prop57
140
1.0
102
RTVSPost2010PropOp57
 70
     0
102
RTVSPropertyOp0
 70
     0
102
RTVSPropertyOp1
 70
     0
102
RTVSPropertyOp2
 70
     0
102
RTVSPropertyOp3
 70
     0
102
RTVSPropertyOp4
 70
     0
102
RTVSPropertyOp5
 70
     0
102
RTVSPropertyOp6
 70
     0
102
RTVSPropertyOp7
 70
     0
102
RTVSPropertyOp8
 70
     0
102
RTVSPropertyOp9
 70
     0
102
RTVSPropertyOp10
 70
     0
102
RTVSPropertyOp11
 70
     0
102
RTVSPropertyOp12
 70
     0
102
RTVSPropertyOp13
 70
     0
102
RTVSPropertyOp14
 70
     2
102
RTVSPropertyOp15
 70
     0
102
RTVSPropertyOp16
 70
     0
102
RTVSPropertyOp17
 70
     0
102
RTVSPropertyOp18
 70
     0
102
RTVSPropertyOp19
 70
     0
102
RTVSPropertyOp20
 70
     0
102
RTVSPropertyOp21
 70
     0
102
RTVSPropertyOp22
 70
     0
102
RTVSPropertyOp23
 70
     0
102
RTVSPropertyOp24
 70
     0
102
RTVSPropertyOp25
 70
     0
102
RTVSPropertyOp26
 70
     0
102
RTVSPropertyOp27
 70
     0
102
RTVSPropertyOp28
 70
     1
102
RTVSPropertyOp29
 70
     1
102
RTVSPropertyOp30
 70
     1
102
RTVSPropertyOp31
 70
     1
102
RTVSPropertyOp32
 70
     1
102
RTVSPropertyOp33
 70
     1
102
RTVSPropertyOp34
 70
     1
102
RTVSPropertyOp35
 70
     1
102
RTVSPropertyOp36
 70
     1
102
RTVSPropertyOp37
 70
     0
102
RTVSPropertyOp38
 70
     0
102
RTVSPropertyOp39
 70
     0
102
RTVSPropertyOp40
 70
     0
102
RTVSPropertyOp41
 70
     0
102
RTVSPropertyOp42
 70
     0
102
RTVSPropertyOp43
 70
     0
102
RTVSPropertyOp44
 70
     0
102
RTVSPropertyOp45
 70
     1
102
RTVSPropertyOp46
 70
     0
102
RTVSPropertyOp47
 70
     0
102
RTVSPropertyOp48
 70
     0
102
RTVSPropertyOp49
 70
     1
102
RTVSPropertyOp50
 70
     0
102
RTVSPropertyOp51
 70
     0
102
RTVSPropertyOp52
 70
     0
102
RTVSPropertyOp53
 70
     0
102
RTVSPropertyOp54
 70
     0
102
RTVSPropertyOp55
 70
     1
102
RTVSPropertyOp56
 70
     0
102
RTVSPropertyOp57
 70
     0
102
RTVSPropertyOp58
 70
     0
102
RTVSPropertyOp59
 70
     0
102
RTVSPropertyOp60
 70
     0
102
RTVSPropertyOp61
 70
     0
102
RTVSPropertyOp62
 70
     0
  0
XRECORD
  5
9AD7
102
{ACAD_REACTORS
330
9AD6
102
}
330
9AD6
100
AcDbXrecord
280
     1
102
RTVSPost2010Prop28
280
     0
102
RTVSPost2010PropOp28
 70
     1
102
RTVSPost2010Prop29
280
     1
102
RTVSPost2010PropOp29
 70
     1
102
RTVSPost2010Prop30
280
     1
102
RTVSPost2010PropOp30
 70
     1
102
RTVSPost2010Prop31
280
     0
102
RTVSPost2010PropOp31
 70
     1
102
RTVSPost2010Prop32
280
     0
102
RTVSPost2010PropOp32
 70
     1
102
RTVSPost2010Prop33
280
     0
102
RTVSPost2010PropOp33
 70
     1
102
RTVSPost2010Prop34
280
     0
102
RTVSPost2010PropOp34
 70
     1
102
RTVSPost2010Prop35
280
     0
102
RTVSPost2010PropOp35
 70
     1
102
RTVSPost2010Prop36
280
     0
102
RTVSPost2010PropOp36
 70
     1
102
RTVSPost2010Prop37
 90
       50
102
RTVSPost2010PropOp37
 70
     1
102
RTVSPost2010Prop38
140
0.0
102
RTVSPost2010PropOp38
 70
     1
102
RTVSPost2010Prop39
140
1.0
102
RTVSPost2010PropOp39
 70
     1
102
RTVSPost2010Prop40
 90
        0
102
RTVSPost2010PropOp40
 70
     1
102
RTVSPost2010Prop41ColorIndex
 90
       18
102
RTVSPost2010Prop41ColorRGB
 90
        0
102
RTVSPost2010PropOp41
 70
     1
102
RTVSPost2010Prop42
 90
       50
102
RTVSPost2010PropOp42
 70
     1
102
RTVSPost2010Prop43
 90
        3
102
RTVSPost2010PropOp43
 70
     1
102
RTVSPost2010Prop44ColorIndex
 90
        5
102
RTVSPost2010Prop44ColorRGB
 90
      255
102
RTVSPost2010PropOp44
 70
     1
102
RTVSPost2010Prop45
280
     0
102
RTVSPost2010PropOp45
 70
     1
102
RTVSPost2010Prop46
 90
       50
102
RTVSPost2010PropOp46
 70
     1
102
RTVSPost2010Prop47
 90
       50
102
RTVSPost2010PropOp47
 70
     1
102
RTVSPost2010Prop48
 90
       50
102
RTVSPost2010PropOp48
 70
     1
102
RTVSPost2010Prop49
280
     0
102
RTVSPost2010PropOp49
 70
     1
102
RTVSPost2010Prop50
 90
       50
102
RTVSPost2010PropOp50
 70
     1
102
RTVSPost2010Prop51ColorIndex
 90
      256
102
RTVSPost2010Prop51ColorRGB
 90
-16777216
102
RTVSPost2010PropOp51
 70
     0
102
RTVSPost2010Prop52
140
1.0
102
RTVSPost2010PropOp52
 70
     0
102
RTVSPost2010Prop53
 90
        2
102
RTVSPost2010PropOp53
 70
     1
102
RTVSPost2010Prop54
  1
strokes_ogs.tif
102
RTVSPost2010PropOp54
 70
     1
102
RTVSPost2010Prop55
280
     0
102
RTVSPost2010PropOp55
 70
     1
102
RTVSPost2010Prop56
140
1.0
102
RTVSPost2010PropOp56
 70
     1
102
RTVSPost2010Prop57
140
1.0
102
RTVSPost2010PropOp57
 70
     1
102
RTVSPropertyOp0
 70
     1
102
RTVSPropertyOp1
 70
     1
102
RTVSPropertyOp2
 70
     1
102
RTVSPropertyOp3
 70
     1
102
RTVSPropertyOp4
 70
     1
102
RTVSPropertyOp5
 70
     1
102
RTVSPropertyOp6
 70
     1
102
RTVSPropertyOp7
 70
     1
102
RTVSPropertyOp8
 70
     1
102
RTVSPropertyOp9
 70
     1
102
RTVSPropertyOp10
 70
     1
102
RTVSPropertyOp11
 70
     1
102
RTVSPropertyOp12
 70
     1
102
RTVSPropertyOp13
 70
     1
102
RTVSPropertyOp14
 70
     1
102
RTVSPropertyOp15
 70
     1
102
RTVSPropertyOp16
 70
     1
102
RTVSPropertyOp17
 70
     1
102
RTVSPropertyOp18
 70
     1
102
RTVSPropertyOp19
 70
     1
102
RTVSPropertyOp20
 70
     1
102
RTVSPropertyOp21
 70
     1
102
RTVSPropertyOp22
 70
     1
102
RTVSPropertyOp23
 70
     1
102
RTVSPropertyOp24
 70
     1
102
RTVSPropertyOp25
 70
     1
102
RTVSPropertyOp26
 70
     1
102
RTVSPropertyOp27
 70
     1
102
RTVSPropertyOp28
 70
     1
102
RTVSPropertyOp29
 70
     1
102
RTVSPropertyOp30
 70
     1
102
RTVSPropertyOp31
 70
     1
102
RTVSPropertyOp32
 70
     1
102
RTVSPropertyOp33
 70
     1
102
RTVSPropertyOp34
 70
     1
102
RTVSPropertyOp35
 70
     1
102
RTVSPropertyOp36
 70
     1
102
RTVSPropertyOp37
 70
     1
102
RTVSPropertyOp38
 70
     1
102
RTVSPropertyOp39
 70
     1
102
RTVSPropertyOp40
 70
     1
102
RTVSPropertyOp41
 70
     1
102
RTVSPropertyOp42
 70
     1
102
RTVSPropertyOp43
 70
     1
102
RTVSPropertyOp44
 70
     1
102
RTVSPropertyOp45
 70
     1
102
RTVSPropertyOp46
 70
     1
102
RTVSPropertyOp47
 70
     1
102
RTVSPropertyOp48
 70
     1
102
RTVSPropertyOp49
 70
     1
102
RTVSPropertyOp50
 70
     1
102
RTVSPropertyOp51
 70
     0
102
RTVSPropertyOp52
 70
     0
102
RTVSPropertyOp53
 70
     1
102
RTVSPropertyOp54
 70
     1
102
RTVSPropertyOp55
 70
     1
102
RTVSPropertyOp56
 70
     1
102
RTVSPropertyOp57
 70
     1
102
RTVSPropertyOp58
 70
     1
102
RTVSPropertyOp59
 70
     1
102
RTVSPropertyOp60
 70
     1
102
RTVSPropertyOp61
 70
     1
102
RTVSPropertyOp62
 70
     1
  0
XRECORD
  5
9AE9
102
{ACAD_REACTORS
330
9AE8
102
}
330
9AE8
100
AcDbXrecord
280
     1
102
RTVSPost2010Prop28
280
     0
102
RTVSPost2010PropOp28
 70
     1
102
RTVSPost2010Prop29
280
     1
102
RTVSPost2010PropOp29
 70
     1
102
RTVSPost2010Prop30
280
     1
102
RTVSPost2010PropOp30
 70
     1
102
RTVSPost2010Prop31
280
     0
102
RTVSPost2010PropOp31
 70
     1
102
RTVSPost2010Prop32
280
     0
102
RTVSPost2010PropOp32
 70
     1
102
RTVSPost2010Prop33
280
     0
102
RTVSPost2010PropOp33
 70
     1
102
RTVSPost2010Prop34
280
     0
102
RTVSPost2010PropOp34
 70
     1
102
RTVSPost2010Prop35
280
     0
102
RTVSPost2010PropOp35
 70
     1
102
RTVSPost2010Prop36
280
     0
102
RTVSPost2010PropOp36
 70
     1
102
RTVSPost2010Prop37
 90
       50
102
RTVSPost2010PropOp37
 70
     0
102
RTVSPost2010Prop38
140
0.0
102
RTVSPost2010PropOp38
 70
     0
102
RTVSPost2010Prop39
140
1.0
102
RTVSPost2010PropOp39
 70
     0
102
RTVSPost2010Prop40
 90
        0
102
RTVSPost2010PropOp40
 70
     0
102
RTVSPost2010Prop41ColorIndex
 90
       18
102
RTVSPost2010Prop41ColorRGB
 90
        0
102
RTVSPost2010PropOp41
 70
     0
102
RTVSPost2010Prop42
 90
       50
102
RTVSPost2010PropOp42
 70
     0
102
RTVSPost2010Prop43
 90
        3
102
RTVSPost2010PropOp43
 70
     0
102
RTVSPost2010Prop44ColorIndex
 90
        5
102
RTVSPost2010Prop44ColorRGB
 90
      255
102
RTVSPost2010PropOp44
 70
     0
102
RTVSPost2010Prop45
280
     0
102
RTVSPost2010PropOp45
 70
     1
102
RTVSPost2010Prop46
 90
       50
102
RTVSPost2010PropOp46
 70
     0
102
RTVSPost2010Prop47
 90
       50
102
RTVSPost2010PropOp47
 70
     0
102
RTVSPost2010Prop48
 90
       50
102
RTVSPost2010PropOp48
 70
     0
102
RTVSPost2010Prop49
280
     0
102
RTVSPost2010PropOp49
 70
     1
102
RTVSPost2010Prop50
 90
       50
102
RTVSPost2010PropOp50
 70
     0
102
RTVSPost2010Prop51ColorIndex
 90
      256
102
RTVSPost2010Prop51ColorRGB
 90
-16777216
102
RTVSPost2010PropOp51
 70
     0
102
RTVSPost2010Prop52
140
1.0
102
RTVSPost2010PropOp52
 70
     0
102
RTVSPost2010Prop53
 90
        2
102
RTVSPost2010PropOp53
 70
     0
102
RTVSPost2010Prop54
  1
strokes_ogs.tif
102
RTVSPost2010PropOp54
 70
     0
102
RTVSPost2010Prop55
280
     0
102
RTVSPost2010PropOp55
 70
     1
102
RTVSPost2010Prop56
140
1.0
102
RTVSPost2010PropOp56
 70
     0
102
RTVSPost2010Prop57
140
1.0
102
RTVSPost2010PropOp57
 70
     0
102
RTVSPropertyOp0
 70
     0
102
RTVSPropertyOp1
 70
     0
102
RTVSPropertyOp2
 70
     0
102
RTVSPropertyOp3
 70
     0
102
RTVSPropertyOp4
 70
     0
102
RTVSPropertyOp5
 70
     0
102
RTVSPropertyOp6
 70
     0
102
RTVSPropertyOp7
 70
     0
102
RTVSPropertyOp8
 70
     0
102
RTVSPropertyOp9
 70
     0
102
RTVSPropertyOp10
 70
     0
102
RTVSPropertyOp11
 70
     0
102
RTVSPropertyOp12
 70
     0
102
RTVSPropertyOp13
 70
     0
102
RTVSPropertyOp14
 70
     2
102
RTVSPropertyOp15
 70
     0
102
RTVSPropertyOp16
 70
     0
102
RTVSPropertyOp17
 70
     0
102
RTVSPropertyOp18
 70
     0
102
RTVSPropertyOp19
 70
     0
102
RTVSPropertyOp20
 70
     0
102
RTVSPropertyOp21
 70
     0
102
RTVSPropertyOp22
 70
     0
102
RTVSPropertyOp23
 70
     0
102
RTVSPropertyOp24
 70
     0
102
RTVSPropertyOp25
 70
     0
102
RTVSPropertyOp26
 70
     0
102
RTVSPropertyOp27
 70
     0
102
RTVSPropertyOp28
 70
     1
102
RTVSPropertyOp29
 70
     1
102
RTVSPropertyOp30
 70
     1
102
RTVSPropertyOp31
 70
     1
102
RTVSPropertyOp32
 70
     1
102
RTVSPropertyOp33
 70
     1
102
RTVSPropertyOp34
 70
     1
102
RTVSPropertyOp35
 70
     1
102
RTVSPropertyOp36
 70
     1
102
RTVSPropertyOp37
 70
     0
102
RTVSPropertyOp38
 70
     0
102
RTVSPropertyOp39
 70
     0
102
RTVSPropertyOp40
 70
     0
102
RTVSPropertyOp41
 70
     0
102
RTVSPropertyOp42
 70
     0
102
RTVSPropertyOp43
 70
     0
102
RTVSPropertyOp44
 70
     0
102
RTVSPropertyOp45
 70
     1
102
RTVSPropertyOp46
 70
     0
102
RTVSPropertyOp47
 70
     0
102
RTVSPropertyOp48
 70
     0
102
RTVSPropertyOp49
 70
     1
102
RTVSPropertyOp50
 70
     0
102
RTVSPropertyOp51
 70
     0
102
RTVSPropertyOp52
 70
     0
102
RTVSPropertyOp53
 70
     0
102
RTVSPropertyOp54
 70
     0
102
RTVSPropertyOp55
 70
     1
102
RTVSPropertyOp56
 70
     0
102
RTVSPropertyOp57
 70
     0
102
RTVSPropertyOp58
 70
     0
102
RTVSPropertyOp59
 70
     0
102
RTVSPropertyOp60
 70
     0
102
RTVSPropertyOp61
 70
     0
102
RTVSPropertyOp62
 70
     0
  0
XRECORD
  5
9ACF
102
{ACAD_REACTORS
330
9ACE
102
}
330
9ACE
100
AcDbXrecord
280
     1
102
RTVSPost2010Prop28
280
     0
102
RTVSPost2010PropOp28
 70
     1
102
RTVSPost2010Prop29
280
     1
102
RTVSPost2010PropOp29
 70
     1
102
RTVSPost2010Prop30
280
     1
102
RTVSPost2010PropOp30
 70
     1
102
RTVSPost2010Prop31
280
     0
102
RTVSPost2010PropOp31
 70
     1
102
RTVSPost2010Prop32
280
     0
102
RTVSPost2010PropOp32
 70
     1
102
RTVSPost2010Prop33
280
     0
102
RTVSPost2010PropOp33
 70
     1
102
RTVSPost2010Prop34
280
     0
102
RTVSPost2010PropOp34
 70
     1
102
RTVSPost2010Prop35
280
     0
102
RTVSPost2010PropOp35
 70
     1
102
RTVSPost2010Prop36
280
     0
102
RTVSPost2010PropOp36
 70
     1
102
RTVSPost2010Prop37
 90
       50
102
RTVSPost2010PropOp37
 70
     1
102
RTVSPost2010Prop38
140
0.0
102
RTVSPost2010PropOp38
 70
     1
102
RTVSPost2010Prop39
140
1.0
102
RTVSPost2010PropOp39
 70
     1
102
RTVSPost2010Prop40
 90
        0
102
RTVSPost2010PropOp40
 70
     1
102
RTVSPost2010Prop41ColorIndex
 90
       18
102
RTVSPost2010Prop41ColorRGB
 90
        0
102
RTVSPost2010PropOp41
 70
     1
102
RTVSPost2010Prop42
 90
       50
102
RTVSPost2010PropOp42
 70
     1
102
RTVSPost2010Prop43
 90
        3
102
RTVSPost2010PropOp43
 70
     1
102
RTVSPost2010Prop44ColorIndex
 90
        5
102
RTVSPost2010Prop44ColorRGB
 90
      255
102
RTVSPost2010PropOp44
 70
     1
102
RTVSPost2010Prop45
280
     0
102
RTVSPost2010PropOp45
 70
     1
102
RTVSPost2010Prop46
 90
       50
102
RTVSPost2010PropOp46
 70
     1
102
RTVSPost2010Prop47
 90
       50
102
RTVSPost2010PropOp47
 70
     1
102
RTVSPost2010Prop48
 90
       50
102
RTVSPost2010PropOp48
 70
     1
102
RTVSPost2010Prop49
280
     0
102
RTVSPost2010PropOp49
 70
     1
102
RTVSPost2010Prop50
 90
       50
102
RTVSPost2010PropOp50
 70
     1
102
RTVSPost2010Prop51ColorIndex
 90
      256
102
RTVSPost2010Prop51ColorRGB
 90
-16777216
102
RTVSPost2010PropOp51
 70
     0
102
RTVSPost2010Prop52
140
1.0
102
RTVSPost2010PropOp52
 70
     0
102
RTVSPost2010Prop53
 90
        2
102
RTVSPost2010PropOp53
 70
     1
102
RTVSPost2010Prop54
  1
strokes_ogs.tif
102
RTVSPost2010PropOp54
 70
     1
102
RTVSPost2010Prop55
280
     0
102
RTVSPost2010PropOp55
 70
     1
102
RTVSPost2010Prop56
140
1.0
102
RTVSPost2010PropOp56
 70
     1
102
RTVSPost2010Prop57
140
1.0
102
RTVSPost2010PropOp57
 70
     1
102
RTVSPropertyOp0
 70
     1
102
RTVSPropertyOp1
 70
     1
102
RTVSPropertyOp2
 70
     1
102
RTVSPropertyOp3
 70
     1
102
RTVSPropertyOp4
 70
     1
102
RTVSPropertyOp5
 70
     1
102
RTVSPropertyOp6
 70
     1
102
RTVSPropertyOp7
 70
     1
102
RTVSPropertyOp8
 70
     1
102
RTVSPropertyOp9
 70
     1
102
RTVSPropertyOp10
 70
     1
102
RTVSPropertyOp11
 70
     1
102
RTVSPropertyOp12
 70
     1
102
RTVSPropertyOp13
 70
     1
102
RTVSPropertyOp14
 70
     1
102
RTVSPropertyOp15
 70
     1
102
RTVSPropertyOp16
 70
     1
102
RTVSPropertyOp17
 70
     1
102
RTVSPropertyOp18
 70
     1
102
RTVSPropertyOp19
 70
     1
102
RTVSPropertyOp20
 70
     1
102
RTVSPropertyOp21
 70
     1
102
RTVSPropertyOp22
 70
     1
102
RTVSPropertyOp23
 70
     1
102
RTVSPropertyOp24
 70
     1
102
RTVSPropertyOp25
 70
     1
102
RTVSPropertyOp26
 70
     1
102
RTVSPropertyOp27
 70
     1
102
RTVSPropertyOp28
 70
     1
102
RTVSPropertyOp29
 70
     1
102
RTVSPropertyOp30
 70
     1
102
RTVSPropertyOp31
 70
     1
102
RTVSPropertyOp32
 70
     1
102
RTVSPropertyOp33
 70
     1
102
RTVSPropertyOp34
 70
     1
102
RTVSPropertyOp35
 70
     1
102
RTVSPropertyOp36
 70
     1
102
RTVSPropertyOp37
 70
     1
102
RTVSPropertyOp38
 70
     1
102
RTVSPropertyOp39
 70
     1
102
RTVSPropertyOp40
 70
     1
102
RTVSPropertyOp41
 70
     1
102
RTVSPropertyOp42
 70
     1
102
RTVSPropertyOp43
 70
     1
102
RTVSPropertyOp44
 70
     1
102
RTVSPropertyOp45
 70
     1
102
RTVSPropertyOp46
 70
     1
102
RTVSPropertyOp47
 70
     1
102
RTVSPropertyOp48
 70
     1
102
RTVSPropertyOp49
 70
     1
102
RTVSPropertyOp50
 70
     1
102
RTVSPropertyOp51
 70
     0
102
RTVSPropertyOp52
 70
     0
102
RTVSPropertyOp53
 70
     1
102
RTVSPropertyOp54
 70
     1
102
RTVSPropertyOp55
 70
     1
102
RTVSPropertyOp56
 70
     1
102
RTVSPropertyOp57
 70
     1
102
RTVSPropertyOp58
 70
     1
102
RTVSPropertyOp59
 70
     1
102
RTVSPropertyOp60
 70
     1
102
RTVSPropertyOp61
 70
     1
102
RTVSPropertyOp62
 70
     1
  0
XRECORD
  5
9AE5
102
{ACAD_REACTORS
330
9AE4
102
}
330
9AE4
100
AcDbXrecord
280
     1
102
RTVSPost2010Prop28
280
     0
102
RTVSPost2010PropOp28
 70
     1
102
RTVSPost2010Prop29
280
     1
102
RTVSPost2010PropOp29
 70
     1
102
RTVSPost2010Prop30
280
     1
102
RTVSPost2010PropOp30
 70
     1
102
RTVSPost2010Prop31
280
     0
102
RTVSPost2010PropOp31
 70
     1
102
RTVSPost2010Prop32
280
     0
102
RTVSPost2010PropOp32
 70
     1
102
RTVSPost2010Prop33
280
     0
102
RTVSPost2010PropOp33
 70
     1
102
RTVSPost2010Prop34
280
     0
102
RTVSPost2010PropOp34
 70
     1
102
RTVSPost2010Prop35
280
     0
102
RTVSPost2010PropOp35
 70
     1
102
RTVSPost2010Prop36
280
     0
102
RTVSPost2010PropOp36
 70
     1
102
RTVSPost2010Prop37
 90
       50
102
RTVSPost2010PropOp37
 70
     1
102
RTVSPost2010Prop38
140
0.0
102
RTVSPost2010PropOp38
 70
     1
102
RTVSPost2010Prop39
140
1.0
102
RTVSPost2010PropOp39
 70
     1
102
RTVSPost2010Prop40
 90
        0
102
RTVSPost2010PropOp40
 70
     1
102
RTVSPost2010Prop41ColorIndex
 90
       18
102
RTVSPost2010Prop41ColorRGB
 90
        0
102
RTVSPost2010PropOp41
 70
     1
102
RTVSPost2010Prop42
 90
       50
102
RTVSPost2010PropOp42
 70
     1
102
RTVSPost2010Prop43
 90
        3
102
RTVSPost2010PropOp43
 70
     1
102
RTVSPost2010Prop44ColorIndex
 90
        5
102
RTVSPost2010Prop44ColorRGB
 90
      255
102
RTVSPost2010PropOp44
 70
     1
102
RTVSPost2010Prop45
280
     0
102
RTVSPost2010PropOp45
 70
     1
102
RTVSPost2010Prop46
 90
       50
102
RTVSPost2010PropOp46
 70
     1
102
RTVSPost2010Prop47
 90
       50
102
RTVSPost2010PropOp47
 70
     1
102
RTVSPost2010Prop48
 90
       50
102
RTVSPost2010PropOp48
 70
     1
102
RTVSPost2010Prop49
280
     0
102
RTVSPost2010PropOp49
 70
     1
102
RTVSPost2010Prop50
 90
       50
102
RTVSPost2010PropOp50
 70
     1
102
RTVSPost2010Prop51ColorIndex
 90
      256
102
RTVSPost2010Prop51ColorRGB
 90
-16777216
102
RTVSPost2010PropOp51
 70
     0
102
RTVSPost2010Prop52
140
1.0
102
RTVSPost2010PropOp52
 70
     0
102
RTVSPost2010Prop53
 90
        2
102
RTVSPost2010PropOp53
 70
     1
102
RTVSPost2010Prop54
  1
strokes_ogs.tif
102
RTVSPost2010PropOp54
 70
     1
102
RTVSPost2010Prop55
280
     0
102
RTVSPost2010PropOp55
 70
     1
102
RTVSPost2010Prop56
140
1.0
102
RTVSPost2010PropOp56
 70
     1
102
RTVSPost2010Prop57
140
1.0
102
RTVSPost2010PropOp57
 70
     1
102
RTVSPropertyOp0
 70
     1
102
RTVSPropertyOp1
 70
     1
102
RTVSPropertyOp2
 70
     1
102
RTVSPropertyOp3
 70
     1
102
RTVSPropertyOp4
 70
     1
102
RTVSPropertyOp5
 70
     1
102
RTVSPropertyOp6
 70
     1
102
RTVSPropertyOp7
 70
     1
102
RTVSPropertyOp8
 70
     1
102
RTVSPropertyOp9
 70
     1
102
RTVSPropertyOp10
 70
     1
102
RTVSPropertyOp11
 70
     1
102
RTVSPropertyOp12
 70
     1
102
RTVSPropertyOp13
 70
     1
102
RTVSPropertyOp14
 70
     1
102
RTVSPropertyOp15
 70
     1
102
RTVSPropertyOp16
 70
     1
102
RTVSPropertyOp17
 70
     1
102
RTVSPropertyOp18
 70
     1
102
RTVSPropertyOp19
 70
     1
102
RTVSPropertyOp20
 70
     1
102
RTVSPropertyOp21
 70
     1
102
RTVSPropertyOp22
 70
     1
102
RTVSPropertyOp23
 70
     1
102
RTVSPropertyOp24
 70
     1
102
RTVSPropertyOp25
 70
     1
102
RTVSPropertyOp26
 70
     1
102
RTVSPropertyOp27
 70
     1
102
RTVSPropertyOp28
 70
     1
102
RTVSPropertyOp29
 70
     1
102
RTVSPropertyOp30
 70
     1
102
RTVSPropertyOp31
 70
     1
102
RTVSPropertyOp32
 70
     1
102
RTVSPropertyOp33
 70
     1
102
RTVSPropertyOp34
 70
     1
102
RTVSPropertyOp35
 70
     1
102
RTVSPropertyOp36
 70
     1
102
RTVSPropertyOp37
 70
     1
102
RTVSPropertyOp38
 70
     1
102
RTVSPropertyOp39
 70
     1
102
RTVSPropertyOp40
 70
     1
102
RTVSPropertyOp41
 70
     1
102
RTVSPropertyOp42
 70
     1
102
RTVSPropertyOp43
 70
     1
102
RTVSPropertyOp44
 70
     1
102
RTVSPropertyOp45
 70
     1
102
RTVSPropertyOp46
 70
     1
102
RTVSPropertyOp47
 70
     1
102
RTVSPropertyOp48
 70
     1
102
RTVSPropertyOp49
 70
     1
102
RTVSPropertyOp50
 70
     1
102
RTVSPropertyOp51
 70
     0
102
RTVSPropertyOp52
 70
     0
102
RTVSPropertyOp53
 70
     1
102
RTVSPropertyOp54
 70
     1
102
RTVSPropertyOp55
 70
     1
102
RTVSPropertyOp56
 70
     1
102
RTVSPropertyOp57
 70
     1
102
RTVSPropertyOp58
 70
     1
102
RTVSPropertyOp59
 70
     1
102
RTVSPropertyOp60
 70
     1
102
RTVSPropertyOp61
 70
     1
102
RTVSPropertyOp62
 70
     1
  0
XRECORD
  5
9AE3
102
{ACAD_REACTORS
330
9AE2
102
}
330
9AE2
100
AcDbXrecord
280
     1
102
RTVSPost2010Prop28
280
     0
102
RTVSPost2010PropOp28
 70
     1
102
RTVSPost2010Prop29
280
     1
102
RTVSPost2010PropOp29
 70
     1
102
RTVSPost2010Prop30
280
     1
102
RTVSPost2010PropOp30
 70
     1
102
RTVSPost2010Prop31
280
     0
102
RTVSPost2010PropOp31
 70
     1
102
RTVSPost2010Prop32
280
     0
102
RTVSPost2010PropOp32
 70
     1
102
RTVSPost2010Prop33
280
     0
102
RTVSPost2010PropOp33
 70
     1
102
RTVSPost2010Prop34
280
     0
102
RTVSPost2010PropOp34
 70
     1
102
RTVSPost2010Prop35
280
     0
102
RTVSPost2010PropOp35
 70
     1
102
RTVSPost2010Prop36
280
     0
102
RTVSPost2010PropOp36
 70
     1
102
RTVSPost2010Prop37
 90
       50
102
RTVSPost2010PropOp37
 70
     1
102
RTVSPost2010Prop38
140
0.0
102
RTVSPost2010PropOp38
 70
     1
102
RTVSPost2010Prop39
140
1.0
102
RTVSPost2010PropOp39
 70
     1
102
RTVSPost2010Prop40
 90
        0
102
RTVSPost2010PropOp40
 70
     1
102
RTVSPost2010Prop41ColorIndex
 90
       18
102
RTVSPost2010Prop41ColorRGB
 90
        0
102
RTVSPost2010PropOp41
 70
     1
102
RTVSPost2010Prop42
 90
       50
102
RTVSPost2010PropOp42
 70
     1
102
RTVSPost2010Prop43
 90
        3
102
RTVSPost2010PropOp43
 70
     1
102
RTVSPost2010Prop44ColorIndex
 90
        5
102
RTVSPost2010Prop44ColorRGB
 90
      255
102
RTVSPost2010PropOp44
 70
     1
102
RTVSPost2010Prop45
280
     0
102
RTVSPost2010PropOp45
 70
     1
102
RTVSPost2010Prop46
 90
       50
102
RTVSPost2010PropOp46
 70
     1
102
RTVSPost2010Prop47
 90
       50
102
RTVSPost2010PropOp47
 70
     1
102
RTVSPost2010Prop48
 90
       50
102
RTVSPost2010PropOp48
 70
     1
102
RTVSPost2010Prop49
280
     0
102
RTVSPost2010PropOp49
 70
     1
102
RTVSPost2010Prop50
 90
       50
102
RTVSPost2010PropOp50
 70
     1
102
RTVSPost2010Prop51ColorIndex
 90
      256
102
RTVSPost2010Prop51ColorRGB
 90
-16777216
102
RTVSPost2010PropOp51
 70
     0
102
RTVSPost2010Prop52
140
1.0
102
RTVSPost2010PropOp52
 70
     0
102
RTVSPost2010Prop53
 90
        2
102
RTVSPost2010PropOp53
 70
     1
102
RTVSPost2010Prop54
  1
strokes_ogs.tif
102
RTVSPost2010PropOp54
 70
     1
102
RTVSPost2010Prop55
280
     0
102
RTVSPost2010PropOp55
 70
     1
102
RTVSPost2010Prop56
140
1.0
102
RTVSPost2010PropOp56
 70
     1
102
RTVSPost2010Prop57
140
1.0
102
RTVSPost2010PropOp57
 70
     1
102
RTVSPropertyOp0
 70
     1
102
RTVSPropertyOp1
 70
     1
102
RTVSPropertyOp2
 70
     1
102
RTVSPropertyOp3
 70
     1
102
RTVSPropertyOp4
 70
     1
102
RTVSPropertyOp5
 70
     1
102
RTVSPropertyOp6
 70
     1
102
RTVSPropertyOp7
 70
     1
102
RTVSPropertyOp8
 70
     1
102
RTVSPropertyOp9
 70
     1
102
RTVSPropertyOp10
 70
     1
102
RTVSPropertyOp11
 70
     1
102
RTVSPropertyOp12
 70
     1
102
RTVSPropertyOp13
 70
     1
102
RTVSPropertyOp14
 70
     1
102
RTVSPropertyOp15
 70
     1
102
RTVSPropertyOp16
 70
     1
102
RTVSPropertyOp17
 70
     1
102
RTVSPropertyOp18
 70
     1
102
RTVSPropertyOp19
 70
     1
102
RTVSPropertyOp20
 70
     1
102
RTVSPropertyOp21
 70
     1
102
RTVSPropertyOp22
 70
     1
102
RTVSPropertyOp23
 70
     1
102
RTVSPropertyOp24
 70
     1
102
RTVSPropertyOp25
 70
     1
102
RTVSPropertyOp26
 70
     1
102
RTVSPropertyOp27
 70
     1
102
RTVSPropertyOp28
 70
     1
102
RTVSPropertyOp29
 70
     1
102
RTVSPropertyOp30
 70
     1
102
RTVSPropertyOp31
 70
     1
102
RTVSPropertyOp32
 70
     1
102
RTVSPropertyOp33
 70
     1
102
RTVSPropertyOp34
 70
     1
102
RTVSPropertyOp35
 70
     1
102
RTVSPropertyOp36
 70
     1
102
RTVSPropertyOp37
 70
     1
102
RTVSPropertyOp38
 70
     1
102
RTVSPropertyOp39
 70
     1
102
RTVSPropertyOp40
 70
     1
102
RTVSPropertyOp41
 70
     1
102
RTVSPropertyOp42
 70
     1
102
RTVSPropertyOp43
 70
     1
102
RTVSPropertyOp44
 70
     1
102
RTVSPropertyOp45
 70
     1
102
RTVSPropertyOp46
 70
     1
102
RTVSPropertyOp47
 70
     1
102
RTVSPropertyOp48
 70
     1
102
RTVSPropertyOp49
 70
     1
102
RTVSPropertyOp50
 70
     1
102
RTVSPropertyOp51
 70
     0
102
RTVSPropertyOp52
 70
     0
102
RTVSPropertyOp53
 70
     1
102
RTVSPropertyOp54
 70
     1
102
RTVSPropertyOp55
 70
     1
102
RTVSPropertyOp56
 70
     1
102
RTVSPropertyOp57
 70
     1
102
RTVSPropertyOp58
 70
     1
102
RTVSPropertyOp59
 70
     1
102
RTVSPropertyOp60
 70
     1
102
RTVSPropertyOp61
 70
     1
102
RTVSPropertyOp62
 70
     1
  0
XRECORD
  5
9ADD
102
{ACAD_REACTORS
330
9ADC
102
}
330
9ADC
100
AcDbXrecord
280
     1
102
RTVSPost2010Prop28
280
     0
102
RTVSPost2010PropOp28
 70
     1
102
RTVSPost2010Prop29
280
     1
102
RTVSPost2010PropOp29
 70
     1
102
RTVSPost2010Prop30
280
     1
102
RTVSPost2010PropOp30
 70
     1
102
RTVSPost2010Prop31
280
     0
102
RTVSPost2010PropOp31
 70
     1
102
RTVSPost2010Prop32
280
     0
102
RTVSPost2010PropOp32
 70
     1
102
RTVSPost2010Prop33
280
     0
102
RTVSPost2010PropOp33
 70
     1
102
RTVSPost2010Prop34
280
     0
102
RTVSPost2010PropOp34
 70
     1
102
RTVSPost2010Prop35
280
     0
102
RTVSPost2010PropOp35
 70
     1
102
RTVSPost2010Prop36
280
     0
102
RTVSPost2010PropOp36
 70
     1
102
RTVSPost2010Prop37
 90
       50
102
RTVSPost2010PropOp37
 70
     1
102
RTVSPost2010Prop38
140
0.0
102
RTVSPost2010PropOp38
 70
     1
102
RTVSPost2010Prop39
140
1.0
102
RTVSPost2010PropOp39
 70
     1
102
RTVSPost2010Prop40
 90
        0
102
RTVSPost2010PropOp40
 70
     1
102
RTVSPost2010Prop41ColorIndex
 90
       18
102
RTVSPost2010Prop41ColorRGB
 90
        0
102
RTVSPost2010PropOp41
 70
     1
102
RTVSPost2010Prop42
 90
       50
102
RTVSPost2010PropOp42
 70
     1
102
RTVSPost2010Prop43
 90
        3
102
RTVSPost2010PropOp43
 70
     1
102
RTVSPost2010Prop44ColorIndex
 90
        5
102
RTVSPost2010Prop44ColorRGB
 90
      255
102
RTVSPost2010PropOp44
 70
     1
102
RTVSPost2010Prop45
280
     0
102
RTVSPost2010PropOp45
 70
     1
102
RTVSPost2010Prop46
 90
       50
102
RTVSPost2010PropOp46
 70
     1
102
RTVSPost2010Prop47
 90
       50
102
RTVSPost2010PropOp47
 70
     1
102
RTVSPost2010Prop48
 90
       50
102
RTVSPost2010PropOp48
 70
     1
102
RTVSPost2010Prop49
280
     0
102
RTVSPost2010PropOp49
 70
     1
102
RTVSPost2010Prop50
 90
       50
102
RTVSPost2010PropOp50
 70
     1
102
RTVSPost2010Prop51ColorIndex
 90
      256
102
RTVSPost2010Prop51ColorRGB
 90
-16777216
102
RTVSPost2010PropOp51
 70
     0
102
RTVSPost2010Prop52
140
1.0
102
RTVSPost2010PropOp52
 70
     0
102
RTVSPost2010Prop53
 90
        2
102
RTVSPost2010PropOp53
 70
     1
102
RTVSPost2010Prop54
  1
strokes_ogs.tif
102
RTVSPost2010PropOp54
 70
     1
102
RTVSPost2010Prop55
280
     0
102
RTVSPost2010PropOp55
 70
     1
102
RTVSPost2010Prop56
140
1.0
102
RTVSPost2010PropOp56
 70
     1
102
RTVSPost2010Prop57
140
1.0
102
RTVSPost2010PropOp57
 70
     1
102
RTVSPropertyOp0
 70
     1
102
RTVSPropertyOp1
 70
     1
102
RTVSPropertyOp2
 70
     1
102
RTVSPropertyOp3
 70
     1
102
RTVSPropertyOp4
 70
     1
102
RTVSPropertyOp5
 70
     1
102
RTVSPropertyOp6
 70
     1
102
RTVSPropertyOp7
 70
     1
102
RTVSPropertyOp8
 70
     1
102
RTVSPropertyOp9
 70
     1
102
RTVSPropertyOp10
 70
     1
102
RTVSPropertyOp11
 70
     1
102
RTVSPropertyOp12
 70
     1
102
RTVSPropertyOp13
 70
     1
102
RTVSPropertyOp14
 70
     1
102
RTVSPropertyOp15
 70
     1
102
RTVSPropertyOp16
 70
     1
102
RTVSPropertyOp17
 70
     1
102
RTVSPropertyOp18
 70
     1
102
RTVSPropertyOp19
 70
     1
102
RTVSPropertyOp20
 70
     1
102
RTVSPropertyOp21
 70
     1
102
RTVSPropertyOp22
 70
     1
102
RTVSPropertyOp23
 70
     1
102
RTVSPropertyOp24
 70
     1
102
RTVSPropertyOp25
 70
     1
102
RTVSPropertyOp26
 70
     1
102
RTVSPropertyOp27
 70
     1
102
RTVSPropertyOp28
 70
     1
102
RTVSPropertyOp29
 70
     1
102
RTVSPropertyOp30
 70
     1
102
RTVSPropertyOp31
 70
     1
102
RTVSPropertyOp32
 70
     1
102
RTVSPropertyOp33
 70
     1
102
RTVSPropertyOp34
 70
     1
102
RTVSPropertyOp35
 70
     1
102
RTVSPropertyOp36
 70
     1
102
RTVSPropertyOp37
 70
     1
102
RTVSPropertyOp38
 70
     1
102
RTVSPropertyOp39
 70
     1
102
RTVSPropertyOp40
 70
     1
102
RTVSPropertyOp41
 70
     1
102
RTVSPropertyOp42
 70
     1
102
RTVSPropertyOp43
 70
     1
102
RTVSPropertyOp44
 70
     1
102
RTVSPropertyOp45
 70
     1
102
RTVSPropertyOp46
 70
     1
102
RTVSPropertyOp47
 70
     1
102
RTVSPropertyOp48
 70
     1
102
RTVSPropertyOp49
 70
     1
102
RTVSPropertyOp50
 70
     1
102
RTVSPropertyOp51
 70
     0
102
RTVSPropertyOp52
 70
     0
102
RTVSPropertyOp53
 70
     1
102
RTVSPropertyOp54
 70
     1
102
RTVSPropertyOp55
 70
     1
102
RTVSPropertyOp56
 70
     1
102
RTVSPropertyOp57
 70
     1
102
RTVSPropertyOp58
 70
     1
102
RTVSPropertyOp59
 70
     1
102
RTVSPropertyOp60
 70
     1
102
RTVSPropertyOp61
 70
     1
102
RTVSPropertyOp62
 70
     1
  0
XRECORD
  5
9ADF
102
{ACAD_REACTORS
330
9ADE
102
}
330
9ADE
100
AcDbXrecord
280
     1
102
RTVSPost2010Prop28
280
     0
102
RTVSPost2010PropOp28
 70
     1
102
RTVSPost2010Prop29
280
     1
102
RTVSPost2010PropOp29
 70
     1
102
RTVSPost2010Prop30
280
     1
102
RTVSPost2010PropOp30
 70
     1
102
RTVSPost2010Prop31
280
     0
102
RTVSPost2010PropOp31
 70
     1
102
RTVSPost2010Prop32
280
     0
102
RTVSPost2010PropOp32
 70
     1
102
RTVSPost2010Prop33
280
     0
102
RTVSPost2010PropOp33
 70
     1
102
RTVSPost2010Prop34
280
     0
102
RTVSPost2010PropOp34
 70
     1
102
RTVSPost2010Prop35
280
     0
102
RTVSPost2010PropOp35
 70
     1
102
RTVSPost2010Prop36
280
     0
102
RTVSPost2010PropOp36
 70
     1
102
RTVSPost2010Prop37
 90
       50
102
RTVSPost2010PropOp37
 70
     1
102
RTVSPost2010Prop38
140
0.0
102
RTVSPost2010PropOp38
 70
     1
102
RTVSPost2010Prop39
140
1.0
102
RTVSPost2010PropOp39
 70
     1
102
RTVSPost2010Prop40
 90
        0
102
RTVSPost2010PropOp40
 70
     1
102
RTVSPost2010Prop41ColorIndex
 90
       18
102
RTVSPost2010Prop41ColorRGB
 90
        0
102
RTVSPost2010PropOp41
 70
     1
102
RTVSPost2010Prop42
 90
       50
102
RTVSPost2010PropOp42
 70
     1
102
RTVSPost2010Prop43
 90
        3
102
RTVSPost2010PropOp43
 70
     1
102
RTVSPost2010Prop44ColorIndex
 90
        5
102
RTVSPost2010Prop44ColorRGB
 90
      255
102
RTVSPost2010PropOp44
 70
     1
102
RTVSPost2010Prop45
280
     0
102
RTVSPost2010PropOp45
 70
     1
102
RTVSPost2010Prop46
 90
       50
102
RTVSPost2010PropOp46
 70
     1
102
RTVSPost2010Prop47
 90
       50
102
RTVSPost2010PropOp47
 70
     1
102
RTVSPost2010Prop48
 90
       50
102
RTVSPost2010PropOp48
 70
     1
102
RTVSPost2010Prop49
280
     0
102
RTVSPost2010PropOp49
 70
     1
102
RTVSPost2010Prop50
 90
       50
102
RTVSPost2010PropOp50
 70
     1
102
RTVSPost2010Prop51ColorIndex
 90
      256
102
RTVSPost2010Prop51ColorRGB
 90
-16777216
102
RTVSPost2010PropOp51
 70
     0
102
RTVSPost2010Prop52
140
1.0
102
RTVSPost2010PropOp52
 70
     0
102
RTVSPost2010Prop53
 90
        2
102
RTVSPost2010PropOp53
 70
     1
102
RTVSPost2010Prop54
  1
strokes_ogs.tif
102
RTVSPost2010PropOp54
 70
     1
102
RTVSPost2010Prop55
280
     0
102
RTVSPost2010PropOp55
 70
     1
102
RTVSPost2010Prop56
140
1.0
102
RTVSPost2010PropOp56
 70
     1
102
RTVSPost2010Prop57
140
1.0
102
RTVSPost2010PropOp57
 70
     1
102
RTVSPropertyOp0
 70
     1
102
RTVSPropertyOp1
 70
     1
102
RTVSPropertyOp2
 70
     1
102
RTVSPropertyOp3
 70
     1
102
RTVSPropertyOp4
 70
     1
102
RTVSPropertyOp5
 70
     1
102
RTVSPropertyOp6
 70
     1
102
RTVSPropertyOp7
 70
     1
102
RTVSPropertyOp8
 70
     1
102
RTVSPropertyOp9
 70
     1
102
RTVSPropertyOp10
 70
     1
102
RTVSPropertyOp11
 70
     1
102
RTVSPropertyOp12
 70
     1
102
RTVSPropertyOp13
 70
     1
102
RTVSPropertyOp14
 70
     1
102
RTVSPropertyOp15
 70
     1
102
RTVSPropertyOp16
 70
     1
102
RTVSPropertyOp17
 70
     1
102
RTVSPropertyOp18
 70
     1
102
RTVSPropertyOp19
 70
     1
102
RTVSPropertyOp20
 70
     1
102
RTVSPropertyOp21
 70
     1
102
RTVSPropertyOp22
 70
     1
102
RTVSPropertyOp23
 70
     1
102
RTVSPropertyOp24
 70
     1
102
RTVSPropertyOp25
 70
     1
102
RTVSPropertyOp26
 70
     1
102
RTVSPropertyOp27
 70
     1
102
RTVSPropertyOp28
 70
     1
102
RTVSPropertyOp29
 70
     1
102
RTVSPropertyOp30
 70
     1
102
RTVSPropertyOp31
 70
     1
102
RTVSPropertyOp32
 70
     1
102
RTVSPropertyOp33
 70
     1
102
RTVSPropertyOp34
 70
     1
102
RTVSPropertyOp35
 70
     1
102
RTVSPropertyOp36
 70
     1
102
RTVSPropertyOp37
 70
     1
102
RTVSPropertyOp38
 70
     1
102
RTVSPropertyOp39
 70
     1
102
RTVSPropertyOp40
 70
     1
102
RTVSPropertyOp41
 70
     1
102
RTVSPropertyOp42
 70
     1
102
RTVSPropertyOp43
 70
     1
102
RTVSPropertyOp44
 70
     1
102
RTVSPropertyOp45
 70
     1
102
RTVSPropertyOp46
 70
     1
102
RTVSPropertyOp47
 70
     1
102
RTVSPropertyOp48
 70
     1
102
RTVSPropertyOp49
 70
     1
102
RTVSPropertyOp50
 70
     1
102
RTVSPropertyOp51
 70
     0
102
RTVSPropertyOp52
 70
     0
102
RTVSPropertyOp53
 70
     1
102
RTVSPropertyOp54
 70
     1
102
RTVSPropertyOp55
 70
     1
102
RTVSPropertyOp56
 70
     1
102
RTVSPropertyOp57
 70
     1
102
RTVSPropertyOp58
 70
     1
102
RTVSPropertyOp59
 70
     1
102
RTVSPropertyOp60
 70
     1
102
RTVSPropertyOp61
 70
     1
102
RTVSPropertyOp62
 70
     1
  0
XRECORD
  5
9AD5
102
{ACAD_REACTORS
330
9AD4
102
}
330
9AD4
100
AcDbXrecord
280
     1
102
RTVSPost2010Prop28
280
     0
102
RTVSPost2010PropOp28
 70
     1
102
RTVSPost2010Prop29
280
     1
102
RTVSPost2010PropOp29
 70
     1
102
RTVSPost2010Prop30
280
     1
102
RTVSPost2010PropOp30
 70
     1
102
RTVSPost2010Prop31
280
     0
102
RTVSPost2010PropOp31
 70
     1
102
RTVSPost2010Prop32
280
     0
102
RTVSPost2010PropOp32
 70
     1
102
RTVSPost2010Prop33
280
     0
102
RTVSPost2010PropOp33
 70
     1
102
RTVSPost2010Prop34
280
     0
102
RTVSPost2010PropOp34
 70
     1
102
RTVSPost2010Prop35
280
     0
102
RTVSPost2010PropOp35
 70
     1
102
RTVSPost2010Prop36
280
     0
102
RTVSPost2010PropOp36
 70
     1
102
RTVSPost2010Prop37
 90
       50
102
RTVSPost2010PropOp37
 70
     1
102
RTVSPost2010Prop38
140
0.0
102
RTVSPost2010PropOp38
 70
     1
102
RTVSPost2010Prop39
140
1.0
102
RTVSPost2010PropOp39
 70
     1
102
RTVSPost2010Prop40
 90
        0
102
RTVSPost2010PropOp40
 70
     1
102
RTVSPost2010Prop41ColorIndex
 90
       18
102
RTVSPost2010Prop41ColorRGB
 90
        0
102
RTVSPost2010PropOp41
 70
     1
102
RTVSPost2010Prop42
 90
       50
102
RTVSPost2010PropOp42
 70
     1
102
RTVSPost2010Prop43
 90
        3
102
RTVSPost2010PropOp43
 70
     1
102
RTVSPost2010Prop44ColorIndex
 90
        5
102
RTVSPost2010Prop44ColorRGB
 90
      255
102
RTVSPost2010PropOp44
 70
     1
102
RTVSPost2010Prop45
280
     0
102
RTVSPost2010PropOp45
 70
     1
102
RTVSPost2010Prop46
 90
       50
102
RTVSPost2010PropOp46
 70
     1
102
RTVSPost2010Prop47
 90
       50
102
RTVSPost2010PropOp47
 70
     1
102
RTVSPost2010Prop48
 90
       50
102
RTVSPost2010PropOp48
 70
     1
102
RTVSPost2010Prop49
280
     0
102
RTVSPost2010PropOp49
 70
     1
102
RTVSPost2010Prop50
 90
       50
102
RTVSPost2010PropOp50
 70
     1
102
RTVSPost2010Prop51ColorIndex
 90
      256
102
RTVSPost2010Prop51ColorRGB
 90
-16777216
102
RTVSPost2010PropOp51
 70
     0
102
RTVSPost2010Prop52
140
1.0
102
RTVSPost2010PropOp52
 70
     0
102
RTVSPost2010Prop53
 90
        2
102
RTVSPost2010PropOp53
 70
     1
102
RTVSPost2010Prop54
  1
strokes_ogs.tif
102
RTVSPost2010PropOp54
 70
     1
102
RTVSPost2010Prop55
280
     0
102
RTVSPost2010PropOp55
 70
     1
102
RTVSPost2010Prop56
140
1.0
102
RTVSPost2010PropOp56
 70
     1
102
RTVSPost2010Prop57
140
1.0
102
RTVSPost2010PropOp57
 70
     1
102
RTVSPropertyOp0
 70
     1
102
RTVSPropertyOp1
 70
     1
102
RTVSPropertyOp2
 70
     1
102
RTVSPropertyOp3
 70
     1
102
RTVSPropertyOp4
 70
     1
102
RTVSPropertyOp5
 70
     1
102
RTVSPropertyOp6
 70
     1
102
RTVSPropertyOp7
 70
     1
102
RTVSPropertyOp8
 70
     1
102
RTVSPropertyOp9
 70
     1
102
RTVSPropertyOp10
 70
     1
102
RTVSPropertyOp11
 70
     1
102
RTVSPropertyOp12
 70
     1
102
RTVSPropertyOp13
 70
     1
102
RTVSPropertyOp14
 70
     1
102
RTVSPropertyOp15
 70
     1
102
RTVSPropertyOp16
 70
     1
102
RTVSPropertyOp17
 70
     1
102
RTVSPropertyOp18
 70
     1
102
RTVSPropertyOp19
 70
     1
102
RTVSPropertyOp20
 70
     1
102
RTVSPropertyOp21
 70
     1
102
RTVSPropertyOp22
 70
     1
102
RTVSPropertyOp23
 70
     1
102
RTVSPropertyOp24
 70
     1
102
RTVSPropertyOp25
 70
     1
102
RTVSPropertyOp26
 70
     1
102
RTVSPropertyOp27
 70
     1
102
RTVSPropertyOp28
 70
     1
102
RTVSPropertyOp29
 70
     1
102
RTVSPropertyOp30
 70
     1
102
RTVSPropertyOp31
 70
     1
102
RTVSPropertyOp32
 70
     1
102
RTVSPropertyOp33
 70
     1
102
RTVSPropertyOp34
 70
     1
102
RTVSPropertyOp35
 70
     1
102
RTVSPropertyOp36
 70
     1
102
RTVSPropertyOp37
 70
     1
102
RTVSPropertyOp38
 70
     1
102
RTVSPropertyOp39
 70
     1
102
RTVSPropertyOp40
 70
     1
102
RTVSPropertyOp41
 70
     1
102
RTVSPropertyOp42
 70
     1
102
RTVSPropertyOp43
 70
     1
102
RTVSPropertyOp44
 70
     1
102
RTVSPropertyOp45
 70
     1
102
RTVSPropertyOp46
 70
     1
102
RTVSPropertyOp47
 70
     1
102
RTVSPropertyOp48
 70
     1
102
RTVSPropertyOp49
 70
     1
102
RTVSPropertyOp50
 70
     1
102
RTVSPropertyOp51
 70
     0
102
RTVSPropertyOp52
 70
     0
102
RTVSPropertyOp53
 70
     1
102
RTVSPropertyOp54
 70
     1
102
RTVSPropertyOp55
 70
     1
102
RTVSPropertyOp56
 70
     1
102
RTVSPropertyOp57
 70
     1
102
RTVSPropertyOp58
 70
     1
102
RTVSPropertyOp59
 70
     1
102
RTVSPropertyOp60
 70
     1
102
RTVSPropertyOp61
 70
     1
102
RTVSPropertyOp62
 70
     1
  0
XRECORD
  5
9AC9
102
{ACAD_REACTORS
330
9AC8
102
}
330
9AC8
100
AcDbXrecord
280
     1
102
RTVSPost2010Prop28
280
     0
102
RTVSPost2010PropOp28
 70
     1
102
RTVSPost2010Prop29
280
     1
102
RTVSPost2010PropOp29
 70
     1
102
RTVSPost2010Prop30
280
     1
102
RTVSPost2010PropOp30
 70
     1
102
RTVSPost2010Prop31
280
     0
102
RTVSPost2010PropOp31
 70
     1
102
RTVSPost2010Prop32
280
     0
102
RTVSPost2010PropOp32
 70
     1
102
RTVSPost2010Prop33
280
     0
102
RTVSPost2010PropOp33
 70
     1
102
RTVSPost2010Prop34
280
     0
102
RTVSPost2010PropOp34
 70
     1
102
RTVSPost2010Prop35
280
     0
102
RTVSPost2010PropOp35
 70
     1
102
RTVSPost2010Prop36
280
     0
102
RTVSPost2010PropOp36
 70
     1
102
RTVSPost2010Prop37
 90
       50
102
RTVSPost2010PropOp37
 70
     1
102
RTVSPost2010Prop38
140
0.0
102
RTVSPost2010PropOp38
 70
     1
102
RTVSPost2010Prop39
140
1.0
102
RTVSPost2010PropOp39
 70
     1
102
RTVSPost2010Prop40
 90
        0
102
RTVSPost2010PropOp40
 70
     1
102
RTVSPost2010Prop41ColorIndex
 90
       18
102
RTVSPost2010Prop41ColorRGB
 90
        0
102
RTVSPost2010PropOp41
 70
     1
102
RTVSPost2010Prop42
 90
       50
102
RTVSPost2010PropOp42
 70
     1
102
RTVSPost2010Prop43
 90
        3
102
RTVSPost2010PropOp43
 70
     1
102
RTVSPost2010Prop44ColorIndex
 90
        5
102
RTVSPost2010Prop44ColorRGB
 90
      255
102
RTVSPost2010PropOp44
 70
     1
102
RTVSPost2010Prop45
280
     0
102
RTVSPost2010PropOp45
 70
     1
102
RTVSPost2010Prop46
 90
       50
102
RTVSPost2010PropOp46
 70
     1
102
RTVSPost2010Prop47
 90
       50
102
RTVSPost2010PropOp47
 70
     1
102
RTVSPost2010Prop48
 90
       50
102
RTVSPost2010PropOp48
 70
     1
102
RTVSPost2010Prop49
280
     0
102
RTVSPost2010PropOp49
 70
     1
102
RTVSPost2010Prop50
 90
       50
102
RTVSPost2010PropOp50
 70
     1
102
RTVSPost2010Prop51ColorIndex
 90
      256
102
RTVSPost2010Prop51ColorRGB
 90
-16777216
102
RTVSPost2010PropOp51
 70
     0
102
RTVSPost2010Prop52
140
1.0
102
RTVSPost2010PropOp52
 70
     0
102
RTVSPost2010Prop53
 90
        2
102
RTVSPost2010PropOp53
 70
     1
102
RTVSPost2010Prop54
  1
strokes_ogs.tif
102
RTVSPost2010PropOp54
 70
     1
102
RTVSPost2010Prop55
280
     0
102
RTVSPost2010PropOp55
 70
     1
102
RTVSPost2010Prop56
140
1.0
102
RTVSPost2010PropOp56
 70
     1
102
RTVSPost2010Prop57
140
1.0
102
RTVSPost2010PropOp57
 70
     1
102
RTVSPropertyOp0
 70
     1
102
RTVSPropertyOp1
 70
     1
102
RTVSPropertyOp2
 70
     1
102
RTVSPropertyOp3
 70
     1
102
RTVSPropertyOp4
 70
     1
102
RTVSPropertyOp5
 70
     1
102
RTVSPropertyOp6
 70
     1
102
RTVSPropertyOp7
 70
     1
102
RTVSPropertyOp8
 70
     1
102
RTVSPropertyOp9
 70
     1
102
RTVSPropertyOp10
 70
     1
102
RTVSPropertyOp11
 70
     1
102
RTVSPropertyOp12
 70
     1
102
RTVSPropertyOp13
 70
     1
102
RTVSPropertyOp14
 70
     1
102
RTVSPropertyOp15
 70
     1
102
RTVSPropertyOp16
 70
     1
102
RTVSPropertyOp17
 70
     1
102
RTVSPropertyOp18
 70
     1
102
RTVSPropertyOp19
 70
     1
102
RTVSPropertyOp20
 70
     1
102
RTVSPropertyOp21
 70
     1
102
RTVSPropertyOp22
 70
     1
102
RTVSPropertyOp23
 70
     1
102
RTVSPropertyOp24
 70
     1
102
RTVSPropertyOp25
 70
     1
102
RTVSPropertyOp26
 70
     1
102
RTVSPropertyOp27
 70
     1
102
RTVSPropertyOp28
 70
     1
102
RTVSPropertyOp29
 70
     1
102
RTVSPropertyOp30
 70
     1
102
RTVSPropertyOp31
 70
     1
102
RTVSPropertyOp32
 70
     1
102
RTVSPropertyOp33
 70
     1
102
RTVSPropertyOp34
 70
     1
102
RTVSPropertyOp35
 70
     1
102
RTVSPropertyOp36
 70
     1
102
RTVSPropertyOp37
 70
     1
102
RTVSPropertyOp38
 70
     1
102
RTVSPropertyOp39
 70
     1
102
RTVSPropertyOp40
 70
     1
102
RTVSPropertyOp41
 70
     1
102
RTVSPropertyOp42
 70
     1
102
RTVSPropertyOp43
 70
     1
102
RTVSPropertyOp44
 70
     1
102
RTVSPropertyOp45
 70
     1
102
RTVSPropertyOp46
 70
     1
102
RTVSPropertyOp47
 70
     1
102
RTVSPropertyOp48
 70
     1
102
RTVSPropertyOp49
 70
     1
102
RTVSPropertyOp50
 70
     1
102
RTVSPropertyOp51
 70
     0
102
RTVSPropertyOp52
 70
     0
102
RTVSPropertyOp53
 70
     1
102
RTVSPropertyOp54
 70
     1
102
RTVSPropertyOp55
 70
     1
102
RTVSPropertyOp56
 70
     1
102
RTVSPropertyOp57
 70
     1
102
RTVSPropertyOp58
 70
     1
102
RTVSPropertyOp59
 70
     1
102
RTVSPropertyOp60
 70
     1
102
RTVSPropertyOp61
 70
     1
102
RTVSPropertyOp62
 70
     1
  0
XRECORD
  5
9AE1
102
{ACAD_REACTORS
330
9AE0
102
}
330
9AE0
100
AcDbXrecord
280
     1
102
RTVSPost2010Prop28
280
     0
102
RTVSPost2010PropOp28
 70
     1
102
RTVSPost2010Prop29
280
     1
102
RTVSPost2010PropOp29
 70
     1
102
RTVSPost2010Prop30
280
     1
102
RTVSPost2010PropOp30
 70
     1
102
RTVSPost2010Prop31
280
     0
102
RTVSPost2010PropOp31
 70
     1
102
RTVSPost2010Prop32
280
     0
102
RTVSPost2010PropOp32
 70
     1
102
RTVSPost2010Prop33
280
     0
102
RTVSPost2010PropOp33
 70
     1
102
RTVSPost2010Prop34
280
     0
102
RTVSPost2010PropOp34
 70
     1
102
RTVSPost2010Prop35
280
     0
102
RTVSPost2010PropOp35
 70
     1
102
RTVSPost2010Prop36
280
     0
102
RTVSPost2010PropOp36
 70
     1
102
RTVSPost2010Prop37
 90
       50
102
RTVSPost2010PropOp37
 70
     1
102
RTVSPost2010Prop38
140
0.0
102
RTVSPost2010PropOp38
 70
     1
102
RTVSPost2010Prop39
140
1.0
102
RTVSPost2010PropOp39
 70
     1
102
RTVSPost2010Prop40
 90
        0
102
RTVSPost2010PropOp40
 70
     1
102
RTVSPost2010Prop41ColorIndex
 90
       18
102
RTVSPost2010Prop41ColorRGB
 90
        0
102
RTVSPost2010PropOp41
 70
     1
102
RTVSPost2010Prop42
 90
       50
102
RTVSPost2010PropOp42
 70
     1
102
RTVSPost2010Prop43
 90
        3
102
RTVSPost2010PropOp43
 70
     1
102
RTVSPost2010Prop44ColorIndex
 90
        5
102
RTVSPost2010Prop44ColorRGB
 90
      255
102
RTVSPost2010PropOp44
 70
     1
102
RTVSPost2010Prop45
280
     0
102
RTVSPost2010PropOp45
 70
     1
102
RTVSPost2010Prop46
 90
       50
102
RTVSPost2010PropOp46
 70
     1
102
RTVSPost2010Prop47
 90
       50
102
RTVSPost2010PropOp47
 70
     1
102
RTVSPost2010Prop48
 90
       50
102
RTVSPost2010PropOp48
 70
     1
102
RTVSPost2010Prop49
280
     0
102
RTVSPost2010PropOp49
 70
     1
102
RTVSPost2010Prop50
 90
       50
102
RTVSPost2010PropOp50
 70
     1
102
RTVSPost2010Prop51ColorIndex
 90
      256
102
RTVSPost2010Prop51ColorRGB
 90
-16777216
102
RTVSPost2010PropOp51
 70
     0
102
RTVSPost2010Prop52
140
1.0
102
RTVSPost2010PropOp52
 70
     0
102
RTVSPost2010Prop53
 90
        2
102
RTVSPost2010PropOp53
 70
     1
102
RTVSPost2010Prop54
  1
strokes_ogs.tif
102
RTVSPost2010PropOp54
 70
     1
102
RTVSPost2010Prop55
280
     0
102
RTVSPost2010PropOp55
 70
     1
102
RTVSPost2010Prop56
140
1.0
102
RTVSPost2010PropOp56
 70
     1
102
RTVSPost2010Prop57
140
1.0
102
RTVSPost2010PropOp57
 70
     1
102
RTVSPropertyOp0
 70
     1
102
RTVSPropertyOp1
 70
     1
102
RTVSPropertyOp2
 70
     1
102
RTVSPropertyOp3
 70
     1
102
RTVSPropertyOp4
 70
     1
102
RTVSPropertyOp5
 70
     1
102
RTVSPropertyOp6
 70
     1
102
RTVSPropertyOp7
 70
     1
102
RTVSPropertyOp8
 70
     1
102
RTVSPropertyOp9
 70
     1
102
RTVSPropertyOp10
 70
     1
102
RTVSPropertyOp11
 70
     1
102
RTVSPropertyOp12
 70
     1
102
RTVSPropertyOp13
 70
     1
102
RTVSPropertyOp14
 70
     1
102
RTVSPropertyOp15
 70
     1
102
RTVSPropertyOp16
 70
     1
102
RTVSPropertyOp17
 70
     1
102
RTVSPropertyOp18
 70
     1
102
RTVSPropertyOp19
 70
     1
102
RTVSPropertyOp20
 70
     1
102
RTVSPropertyOp21
 70
     1
102
RTVSPropertyOp22
 70
     1
102
RTVSPropertyOp23
 70
     1
102
RTVSPropertyOp24
 70
     1
102
RTVSPropertyOp25
 70
     1
102
RTVSPropertyOp26
 70
     1
102
RTVSPropertyOp27
 70
     1
102
RTVSPropertyOp28
 70
     1
102
RTVSPropertyOp29
 70
     1
102
RTVSPropertyOp30
 70
     1
102
RTVSPropertyOp31
 70
     1
102
RTVSPropertyOp32
 70
     1
102
RTVSPropertyOp33
 70
     1
102
RTVSPropertyOp34
 70
     1
102
RTVSPropertyOp35
 70
     1
102
RTVSPropertyOp36
 70
     1
102
RTVSPropertyOp37
 70
     1
102
RTVSPropertyOp38
 70
     1
102
RTVSPropertyOp39
 70
     1
102
RTVSPropertyOp40
 70
     1
102
RTVSPropertyOp41
 70
     1
102
RTVSPropertyOp42
 70
     1
102
RTVSPropertyOp43
 70
     1
102
RTVSPropertyOp44
 70
     1
102
RTVSPropertyOp45
 70
     1
102
RTVSPropertyOp46
 70
     1
102
RTVSPropertyOp47
 70
     1
102
RTVSPropertyOp48
 70
     1
102
RTVSPropertyOp49
 70
     1
102
RTVSPropertyOp50
 70
     1
102
RTVSPropertyOp51
 70
     0
102
RTVSPropertyOp52
 70
     0
102
RTVSPropertyOp53
 70
     1
102
RTVSPropertyOp54
 70
     1
102
RTVSPropertyOp55
 70
     1
102
RTVSPropertyOp56
 70
     1
102
RTVSPropertyOp57
 70
     1
102
RTVSPropertyOp58
 70
     1
102
RTVSPropertyOp59
 70
     1
102
RTVSPropertyOp60
 70
     1
102
RTVSPropertyOp61
 70
     1
102
RTVSPropertyOp62
 70
     1
  0
ENDSEC
  0
EOF
