  0
SECTION
  2
HEADER
  9
$ACADVER
  1
AC1015
  9
$ACADMAINTVER
 70
    20
  9
$DWGCODEPAGE
  3
ANSI_932
  9
$INSBASE
 10
0.0
 20
0.0
 30
0.0
  9
$EXTMIN
 10
8.677464
 20
9.999999999999998
 30
0.0
  9
$EXTMAX
 10
382.8641809999999
 20
337.8789639999999
 30
0.0
  9
$LIMMIN
 10
0.0
 20
0.0
  9
$LIMMAX
 10
495.0
 20
341.25
  9
$ORTHOMODE
 70
     1
  9
$REGENMODE
 70
     1
  9
$FILLMODE
 70
     1
  9
$QTEXTMODE
 70
     0
  9
$MIRRTEXT
 70
     1
  9
$LTSCALE
 40
20.0
  9
$ATTMODE
 70
     1
  9
$TEXTSIZE
 40
5.0
  9
$TRACEWID
 40
1.0
  9
$TEXTSTYLE
  7
STANDARD
  9
$CLAYER
  8
0
  9
$CELTYPE
  6
BYLAYER
  9
$CECOLOR
 62
   256
  9
$CELTSCALE
 40
1.0
  9
$DISPSILH
 70
     0
  9
$DIMSCALE
 40
1.0
  9
$DIMASZ
 40
2.5
  9
$DIMEXO
 40
1.0
  9
$DIMDLI
 40
10.0
  9
$DIMRND
 40
0.0
  9
$DIMDLE
 40
0.0
  9
$DIMEXE
 40
1.0
  9
$DIMTP
 40
0.0
  9
$DIMTM
 40
0.0
  9
$DIMTXT
 40
2.5
  9
$DIMCEN
 40
0.0
  9
$DIMTSZ
 40
0.0
  9
$DIMTOL
 70
     0
  9
$DIMLIM
 70
     0
  9
$DIMTIH
 70
     0
  9
$DIMTOH
 70
     0
  9
$DIMSE1
 70
     0
  9
$DIMSE2
 70
     0
  9
$DIMTAD
 70
     3
  9
$DIMZIN
 70
     8
  9
$DIMBLK
  1

  9
$DIMASO
 70
     1
  9
$DIMSHO
 70
     1
  9
$DIMPOST
  1

  9
$DIMAPOST
  1

  9
$DIMALT
 70
     0
  9
$DIMALTD
 70
     2
  9
$DIMALTF
 40
0.0394
  9
$DIMLFAC
 40
1.0
  9
$DIMTOFL
 70
     1
  9
$DIMTVP
 40
0.0
  9
$DIMTIX
 70
     1
  9
$DIMSOXD
 70
     1
  9
$DIMSAH
 70
     1
  9
$DIMBLK1
  1
OPEN
  9
$DIMBLK2
  1
OPEN
  9
$DIMSTYLE
  2
STANDARD
  9
$DIMCLRD
 70
     0
  9
$DIMCLRE
 70
     0
  9
$DIMCLRT
 70
     0
  9
$DIMTFAC
 40
1.0
  9
$DIMGAP
 40
1.0
  9
$DIMJUST
 70
     0
  9
$DIMSD1
 70
     0
  9
$DIMSD2
 70
     0
  9
$DIMTOLJ
 70
     1
  9
$DIMTZIN
 70
     0
  9
$DIMALTZ
 70
     0
  9
$DIMALTTZ
 70
     0
  9
$DIMUPT
 70
     0
  9
$DIMDEC
 70
     4
  9
$DIMTDEC
 70
     4
  9
$DIMALTU
 70
     2
  9
$DIMALTTD
 70
     2
  9
$DIMTXSTY
  7
STANDARD
  9
$DIMAUNIT
 70
     0
  9
$DIMADEC
 70
     0
  9
$DIMALTRND
 40
0.0
  9
$DIMAZIN
 70
     0
  9
$DIMDSEP
 70
    46
  9
$DIMATFIT
 70
     3
  9
$DIMFRAC
 70
     0
  9
$DIMLDRBLK
  1
OPEN
  9
$DIMLUNIT
 70
     2
  9
$DIMLWD
 70
    -2
  9
$DIMLWE
 70
    -2
  9
$DIMTMOVE
 70
     0
  9
$LUNITS
 70
     2
  9
$LUPREC
 70
     4
  9
$SKETCHINC
 40
1.0
  9
$FILLETRAD
 40
2.5
  9
$AUNITS
 70
     0
  9
$AUPREC
 70
     2
  9
$MENU
  1
.
  9
$ELEVATION
 40
0.0
  9
$PELEVATION
 40
0.0
  9
$THICKNESS
 40
0.0
  9
$LIMCHECK
 70
     0
  9
$CHAMFERA
 40
10.0
  9
$CHAMFERB
 40
10.0
  9
$CHAMFERC
 40
0.0
  9
$CHAMFERD
 40
0.0
  9
$SKPOLY
 70
     0
  9
$TDCREATE
 40
2450737.700914120
  9
$TDUCREATE
 40
2450737.325914120
  9
$TDUPDATE
 40
2457192.640324526
  9
$TDUUPDATE
 40
2457192.265324525
  9
$TDINDWG
 40
0.0053749537
  9
$TDUSRTIMER
 40
0.0053746412
  9
$USRTIMER
 70
     1
  9
$ANGBASE
 50
0.0
  9
$ANGDIR
 70
     0
  9
$PDMODE
 70
     0
  9
$PDSIZE
 40
0.0
  9
$PLINEWID
 40
0.0
  9
$SPLFRAME
 70
     0
  9
$SPLINETYPE
 70
     6
  9
$SPLINESEGS
 70
     8
  9
$HANDSEED
  5
9E60
  9
$SURFTAB1
 70
     6
  9
$SURFTAB2
 70
     6
  9
$SURFTYPE
 70
     6
  9
$SURFU
 70
     6
  9
$SURFV
 70
     6
  9
$UCSBASE
  2

  9
$UCSNAME
  2

  9
$UCSORG
 10
0.0
 20
0.0
 30
0.0
  9
$UCSXDIR
 10
1.0
 20
0.0
 30
0.0
  9
$UCSYDIR
 10
0.0
 20
1.0
 30
0.0
  9
$UCSORTHOREF
  2

  9
$UCSORTHOVIEW
 70
     0
  9
$UCSORGTOP
 10
0.0
 20
0.0
 30
0.0
  9
$UCSORGBOTTOM
 10
0.0
 20
0.0
 30
0.0
  9
$UCSORGLEFT
 10
0.0
 20
0.0
 30
0.0
  9
$UCSORGRIGHT
 10
0.0
 20
0.0
 30
0.0
  9
$UCSORGFRONT
 10
0.0
 20
0.0
 30
0.0
  9
$UCSORGBACK
 10
0.0
 20
0.0
 30
0.0
  9
$PUCSBASE
  2

  9
$PUCSNAME
  2

  9
$PUCSORG
 10
0.0
 20
0.0
 30
0.0
  9
$PUCSXDIR
 10
1.0
 20
0.0
 30
0.0
  9
$PUCSYDIR
 10
0.0
 20
1.0
 30
0.0
  9
$PUCSORTHOREF
  2

  9
$PUCSORTHOVIEW
 70
     0
  9
$PUCSORGTOP
 10
0.0
 20
0.0
 30
0.0
  9
$PUCSORGBOTTOM
 10
0.0
 20
0.0
 30
0.0
  9
$PUCSORGLEFT
 10
0.0
 20
0.0
 30
0.0
  9
$PUCSORGRIGHT
 10
0.0
 20
0.0
 30
0.0
  9
$PUCSORGFRONT
 10
0.0
 20
0.0
 30
0.0
  9
$PUCSORGBACK
 10
0.0
 20
0.0
 30
0.0
  9
$USERI1
 70
     0
  9
$USERI2
 70
     0
  9
$USERI3
 70
     0
  9
$USERI4
 70
     0
  9
$USERI5
 70
     0
  9
$USERR1
 40
0.0
  9
$USERR2
 40
0.0
  9
$USERR3
 40
0.0
  9
$USERR4
 40
0.0
  9
$USERR5
 40
0.0
  9
$WORLDVIEW
 70
     1
  9
$SHADEDGE
 70
     3
  9
$SHADEDIF
 70
    70
  9
$TILEMODE
 70
     1
  9
$MAXACTVP
 70
    16
  9
$PINSBASE
 10
0.0
 20
0.0
 30
0.0
  9
$PLIMCHECK
 70
     0
  9
$PEXTMIN
 10
1.000000000000000E+20
 20
1.000000000000000E+20
 30
1.000000000000000E+20
  9
$PEXTMAX
 10
-1.000000000000000E+20
 20
-1.000000000000000E+20
 30
-1.000000000000000E+20
  9
$PLIMMIN
 10
0.0
 20
0.0
  9
$PLIMMAX
 10
420.0
 20
297.0
  9
$UNITMODE
 70
     0
  9
$VISRETAIN
 70
     0
  9
$PLINEGEN
 70
     0
  9
$PSLTSCALE
 70
     0
  9
$TREEDEPTH
 70
  3020
  9
$CMLSTYLE
  2
STANDARD
  9
$CMLJUST
 70
     0
  9
$CMLSCALE
 40
1.0
  9
$PROXYGRAPHICS
 70
     1
  9
$MEASUREMENT
 70
     0
  9
$CELWEIGHT
370
    -1
  9
$ENDCAPS
280
     0
  9
$JOINSTYLE
280
     0
  9
$LWDISPLAY
290
     0
  9
$INSUNITS
 70
     0
  9
$HYPERLINKBASE
  1

  9
$STYLESHEET
  1

  9
$XEDIT
290
     1
  9
$CEPSNTYPE
380
     0
  9
$PSTYLEMODE
290
     1
  9
$FINGERPRINTGUID
  2
{A4AA3E6F-576E-4909-91E8-0A8F100B3C1E}
  9
$VERSIONGUID
  2
{BF0AEF87-EAC2-4EDA-B1FE-C26F7DCD8661}
  9
$EXTNAMES
290
     1
  9
$PSVPSCALE
 40
0.0
  9
$OLESTARTUP
290
     0
  0
ENDSEC
  0
SECTION
  2
CLASSES
  0
CLASS
  1
ACDBDICTIONARYWDFLT
  2
AcDbDictionaryWithDefault
  3
ObjectDBX Classes
 90
        0
280
     0
281
     0
  0
CLASS
  1
ACDBPLACEHOLDER
  2
AcDbPlaceHolder
  3
ObjectDBX Classes
 90
        0
280
     0
281
     0
  0
CLASS
  1
LAYOUT
  2
AcDbLayout
  3
ObjectDBX Classes
 90
        0
280
     0
281
     0
  0
CLASS
  1
DICTIONARYVAR
  2
AcDbDictionaryVar
  3
ObjectDBX Classes
 90
        0
280
     0
281
     0
  0
CLASS
  1
MATERIAL
  2
AcDbMaterial
  3
ObjectDBX Classes
 90
     1153
280
     0
281
     0
  0
CLASS
  1
VISUALSTYLE
  2
AcDbVisualStyle
  3
ObjectDBX Classes
 90
     4095
280
     0
281
     0
  0
CLASS
  1
TABLESTYLE
  2
AcDbTableStyle
  3
ObjectDBX Classes
 90
     4095
280
     0
281
     0
  0
CLASS
  1
SCALE
  2
AcDbScale
  3
ObjectDBX Classes
 90
     1153
280
     0
281
     0
  0
CLASS
  1
MLEADERSTYLE
  2
AcDbMLeaderStyle
  3
ACDB_MLEADERSTYLE_CLASS
 90
     4095
280
     0
281
     0
  0
CLASS
  1
ACDBSECTIONVIEWSTYLE
  2
AcDbSectionViewStyle
  3
ObjectDBX Classes
 90
     1025
280
     0
281
     0
  0
CLASS
  1
ACDBDETAILVIEWSTYLE
  2
AcDbDetailViewStyle
  3
ObjectDBX Classes
 90
     1025
280
     0
281
     0
  0
CLASS
  1
CELLSTYLEMAP
  2
AcDbCellStyleMap
  3
ObjectDBX Classes
 90
     1152
280
     0
281
     0
  0
ENDSEC
  0
SECTION
  2
TABLES
  0
TABLE
  2
VPORT
  5
99FC
330
0
100
AcDbSymbolTable
 70
     1
  0
VPORT
  5
9DA9
330
99FC
100
AcDbSymbolTableRecord
100
AcDbViewportTableRecord
  2
*ACTIVE
 70
     0
 10
0.0
 20
0.0
 11
1.0
 21
1.0
 12
295.0995949822377
 22
173.9445026752299
 13
0.0
 23
0.0
 14
10.0
 24
10.0
 15
10.0
 25
10.0
 16
0.0
 26
0.0
 36
1.0
 17
0.0
 27
0.0
 37
0.0
 40
331.582249931743
 41
1.899603698811096
 42
50.0
 43
0.0
 44
0.0
 50
0.0
 51
0.0
 71
     0
 72
   100
 73
     1
 74
     0
 75
     0
 76
     0
 77
     0
 78
     0
281
     0
 65
     1
110
0.0
120
0.0
130
0.0
111
1.0
121
0.0
131
0.0
112
0.0
122
1.0
132
0.0
 79
     0
146
0.0
1001
ACAD_NAV_VCDISPLAY
1070
     3
  0
ENDTAB
  0
TABLE
  2
LTYPE
  5
99F9
330
0
100
AcDbSymbolTable
 70
     4
  0
LTYPE
  5
9A07
330
99F9
100
AcDbSymbolTableRecord
100
AcDbLinetypeTableRecord
  2
BYBLOCK
 70
     0
  3

 72
    65
 73
     0
 40
0.0
  0
LTYPE
  5
9A08
330
99F9
100
AcDbSymbolTableRecord
100
AcDbLinetypeTableRecord
  2
BYLAYER
 70
     0
  3

 72
    65
 73
     0
 40
0.0
  0
LTYPE
  5
9A09
330
99F9
100
AcDbSymbolTableRecord
100
AcDbLinetypeTableRecord
  2
CONTINUOUS
 70
     0
  3
Solid line
 72
    65
 73
     0
 40
0.0
  0
LTYPE
  5
9A17
330
99F9
100
AcDbSymbolTableRecord
100
AcDbLinetypeTableRecord
  2
DASHED
 70
     0
  3
__ __ __ __ __ __ __ __ __ __ __ __ __ __ __ __
 72
    65
 73
     2
 40
0.75
 49
0.5
 74
     0
 49
-0.25
 74
     0
  0
LTYPE
  5
9A18
330
99F9
100
AcDbSymbolTableRecord
100
AcDbLinetypeTableRecord
  2
CENTER
 70
     0
  3
____ _ ____ _ ____ _ ____ _ ____ _ ____ _ ____ 
 72
    65
 73
     4
 40
2.0
 49
1.25
 74
     0
 49
-0.25
 74
     0
 49
0.25
 74
     0
 49
-0.25
 74
     0
  0
LTYPE
  5
9A19
330
99F9
100
AcDbSymbolTableRecord
100
AcDbLinetypeTableRecord
  2
PHANTOM
 70
     0
  3
______  __  __  ______  __  __  ______  __  __ 
 72
    65
 73
     6
 40
2.5
 49
1.25
 74
     0
 49
-0.25
 74
     0
 49
0.25
 74
     0
 49
-0.25
 74
     0
 49
0.25
 74
     0
 49
-0.25
 74
     0
  0
ENDTAB
  0
TABLE
  2
LAYER
  5
99F6
330
0
100
AcDbSymbolTable
 70
     8
  0
LAYER
  5
9A04
102
{ACAD_XDICTIONARY
360
9E04
102
}
330
99F6
100
AcDbSymbolTableRecord
100
AcDbLayerTableRecord
  2
0
 70
     0
 62
     7
  6
CONTINUOUS
370
    -3
390
9DB2
  0
LAYER
  5
9A1A
102
{ACAD_XDICTIONARY
360
9E06
102
}
330
99F6
100
AcDbSymbolTableRecord
100
AcDbLayerTableRecord
  2
4
 70
     0
 62
     1
  6
CENTER
370
    -3
390
9DB2
  0
LAYER
  5
9A1B
102
{ACAD_XDICTIONARY
360
9E08
102
}
330
99F6
100
AcDbSymbolTableRecord
100
AcDbLayerTableRecord
  2
5
 70
     0
 62
     6
  6
PHANTOM
370
    -3
390
9DB2
  0
LAYER
  5
9A1C
102
{ACAD_XDICTIONARY
360
9E0A
102
}
330
99F6
100
AcDbSymbolTableRecord
100
AcDbLayerTableRecord
  2
1
 70
     0
 62
     7
  6
CONTINUOUS
370
    -3
390
9DB2
  0
LAYER
  5
9A1D
102
{ACAD_XDICTIONARY
360
9E0C
102
}
330
99F6
100
AcDbSymbolTableRecord
100
AcDbLayerTableRecord
  2
2
 70
     0
 62
     4
  6
CONTINUOUS
370
    -3
390
9DB2
  0
LAYER
  5
9A1E
102
{ACAD_XDICTIONARY
360
9E0E
102
}
330
99F6
100
AcDbSymbolTableRecord
100
AcDbLayerTableRecord
  2
3
 70
     0
 62
     2
  6
DASHED
370
    -3
390
9DB2
  0
LAYER
  5
9A1F
102
{ACAD_XDICTIONARY
360
9E10
102
}
330
99F6
100
AcDbSymbolTableRecord
100
AcDbLayerTableRecord
  2
6
 70
     0
 62
     5
  6
CONTINUOUS
370
    -3
390
9DB2
  0
LAYER
  5
9A20
102
{ACAD_XDICTIONARY
360
9E12
102
}
330
99F6
100
AcDbSymbolTableRecord
100
AcDbLayerTableRecord
  2
7
 70
     0
 62
     3
  6
CONTINUOUS
370
    -3
390
9DB2
  0
ENDTAB
  0
TABLE
  2
STYLE
  5
99F7
330
0
100
AcDbSymbolTable
 70
     1
  0
STYLE
  5
9A05
330
99F7
100
AcDbSymbolTableRecord
100
AcDbTextStyleTableRecord
  2
STANDARD
 70
     0
 40
0.0
 41
1.0
 50
0.0
 71
     0
 42
5.0
  3
txt
  4

  0
ENDTAB
  0
TABLE
  2
VIEW
  5
99FA
330
0
100
AcDbSymbolTable
 70
     0
  0
ENDTAB
  0
TABLE
  2
UCS
  5
99FB
330
0
100
AcDbSymbolTable
 70
     0
  0
ENDTAB
  0
TABLE
  2
APPID
  5
99FD
330
0
100
AcDbSymbolTable
 70
     3
  0
APPID
  5
9A06
330
99FD
100
AcDbSymbolTableRecord
100
AcDbRegAppTableRecord
  2
ACAD
 70
     0
  0
APPID
  5
9E1E
330
99FD
100
AcDbSymbolTableRecord
100
AcDbRegAppTableRecord
  2
ACAD_NAV_VCDISPLAY
 70
     0
  0
APPID
  5
9E57
330
99FD
100
AcDbSymbolTableRecord
100
AcDbRegAppTableRecord
  2
ACAD_MLEADERVER
 70
     0
  0
ENDTAB
  0
TABLE
  2
DIMSTYLE
  5
99FE
330
0
100
AcDbSymbolTable
 70
     1
100
AcDbDimStyleTable
 71
     0
  0
DIMSTYLE
105
9A22
330
99FE
100
AcDbSymbolTableRecord
100
AcDbDimStyleTableRecord
  2
STANDARD
 70
     0
 41
2.5
 42
1.0
 43
10.0
 44
1.0
 73
     0
 74
     0
 77
     3
 78
     8
140
2.5
141
0.0
143
0.0394
147
1.0
172
     1
173
     1
174
     1
175
     1
284
     8
285
     8
286
     8
340
9A05
  0
ENDTAB
  0
TABLE
  2
BLOCK_RECORD
  5
99F5
330
0
100
AcDbSymbolTable
 70
     1
  0
BLOCK_RECORD
  5
9A12
102
{ACAD_XDICTIONARY
360
9DAC
102
}
330
99F5
100
AcDbSymbolTableRecord
100
AcDbBlockTableRecord
  2
*MODEL_SPACE
340
9E00
  0
BLOCK_RECORD
  5
9A0E
102
{ACAD_XDICTIONARY
360
9DAA
102
}
330
99F5
100
AcDbSymbolTableRecord
100
AcDbBlockTableRecord
  2
*PAPER_SPACE
340
9E01
  0
BLOCK_RECORD
  5
9A2A
330
99F5
100
AcDbSymbolTableRecord
100
AcDbBlockTableRecord
  2
_OPEN
340
0
  0
ENDTAB
  0
ENDSEC
  0
SECTION
  2
BLOCKS
  0
BLOCK
  5
9A13
330
9A12
100
AcDbEntity
  8
0
100
AcDbBlockBegin
  2
*MODEL_SPACE
 70
     0
 10
0.0
 20
0.0
 30
0.0
  3
*MODEL_SPACE
  1

  0
ENDBLK
  5
9A14
330
9A12
100
AcDbEntity
  8
0
100
AcDbBlockEnd
  0
BLOCK
  5
9A0F
330
9A0E
100
AcDbEntity
 67
     1
  8
0
100
AcDbBlockBegin
  2
*PAPER_SPACE
 70
     0
 10
0.0
 20
0.0
 30
0.0
  3
*PAPER_SPACE
  1

  0
ENDBLK
  5
9A10
330
9A0E
100
AcDbEntity
 67
     1
  8
0
100
AcDbBlockEnd
  0
BLOCK
  5
9A2B
330
9A2A
100
AcDbEntity
  8
0
100
AcDbBlockBegin
  2
_OPEN
 70
     0
 10
0.0
 20
0.0
 30
0.0
  3
_OPEN
  1

  0
LINE
  5
9A2C
330
9A2A
100
AcDbEntity
  8
0
  6
ByBlock
 62
     0
100
AcDbLine
 10
-1.0
 20
0.1666666666666666
 30
0.0
 11
0.0
 21
0.0
 31
0.0
  0
LINE
  5
9A2D
330
9A2A
100
AcDbEntity
  8
0
  6
ByBlock
 62
     0
100
AcDbLine
 10
0.0
 20
0.0
 30
0.0
 11
-1.0
 21
-0.1666666666666666
 31
0.0
  0
LINE
  5
9A2E
330
9A2A
100
AcDbEntity
  8
0
  6
ByBlock
 62
     0
100
AcDbLine
 10
0.0
 20
0.0
 30
0.0
 11
-1.0
 21
0.0
 31
0.0
  0
ENDBLK
  5
9A2F
330
9A2A
100
AcDbEntity
  8
0
100
AcDbBlockEnd
  0
ENDSEC
  0
SECTION
  2
ENTITIES
  0
TEXT
  5
9A30
330
9A12
100
AcDbEntity
  8
7
  6
Continuous
100
AcDbText
 10
10.0
 20
18.0
 30
0.0
 40
3.0
  1
TYPE No.THA-295-1R
100
AcDbText
  0
TEXT
  5
9A31
330
9A12
100
AcDbEntity
  8
7
  6
Continuous
100
AcDbText
 10
10.0
 20
26.0
 30
0.0
 40
3.0
  1
CODE No.3259
100
AcDbText
  0
TEXT
  5
9A32
330
9A12
100
AcDbEntity
  8
1
  6
Continuous
100
AcDbText
 10
10.0
 20
10.0
 30
0.0
 40
1.399999999999999
  1
LAYER
100
AcDbText
  0
TEXT
  5
9A33
330
9A12
100
AcDbEntity
  8
1
  6
Continuous
100
AcDbText
 10
17.97951099999998
 20
10.04873699999998
 30
0.0
 40
1.399999999999999
  1
1
100
AcDbText
  0
TEXT
  5
9A34
330
9A12
100
AcDbEntity
  8
7
  6
Continuous
100
AcDbText
 10
29.97951099999999
 20
10.04873699999998
 30
0.0
 40
1.399999999999999
  1
7
100
AcDbText
  0
TEXT
  5
9A35
330
9A12
100
AcDbEntity
  8
4
  6
CENTER
100
AcDbText
 10
23.97951099999999
 20
10.04873699999998
 30
0.0
 40
1.399999999999999
  1
4
100
AcDbText
  0
TEXT
  5
9A36
330
9A12
100
AcDbEntity
  8
3
  6
DASHED
100
AcDbText
 10
21.979511
 20
10.04873699999998
 30
0.0
 40
1.399999999999999
  1
3
100
AcDbText
  0
TEXT
  5
9A37
330
9A12
100
AcDbEntity
  8
2
  6
Continuous
100
AcDbText
 10
19.97951099999999
 20
10.04873699999998
 30
0.0
 40
1.399999999999999
  1
2
100
AcDbText
  0
TEXT
  5
9A38
330
9A12
100
AcDbEntity
  8
6
  6
Continuous
100
AcDbText
 10
27.979511
 20
10.04873699999998
 30
0.0
 40
1.399999999999999
  1
6
100
AcDbText
  0
TEXT
  5
9A39
330
9A12
100
AcDbEntity
  8
5
  6
PHANTOM
100
AcDbText
 10
25.97951099999999
 20
10.04873699999998
 30
0.0
 40
1.399999999999999
  1
5
100
AcDbText
  0
LINE
  5
9A3A
330
9A12
100
AcDbEntity
  8
1
  6
Continuous
100
AcDbLine
 10
271.3641809999999
 20
236.6639639999999
 30
0.0
 11
271.3641809999999
 21
131.6639639999999
 31
0.0
  0
LINE
  5
9A3B
330
9A12
100
AcDbEntity
  8
1
  6
Continuous
100
AcDbLine
 10
268.3611809999998
 20
131.6639639999999
 30
0.0
 11
271.3641809999999
 21
131.6639639999999
 31
0.0
  0
LINE
  5
9A3C
330
9A12
100
AcDbEntity
  8
1
  6
Continuous
100
AcDbLine
 10
268.5911809999999
 20
236.6639639999999
 30
0.0
 11
271.3641809999999
 21
236.6639639999999
 31
0.0
  0
LINE
  5
9A3D
330
9A12
100
AcDbEntity
  8
1
  6
Continuous
100
AcDbLine
 10
264.874181
 20
235.007964
 30
0.0
 11
232.1501809999999
 21
198.6479639999997
 31
0.0
  0
LINE
  5
9A3E
330
9A12
100
AcDbEntity
  8
1
  6
Continuous
100
AcDbLine
 10
230.128181
 20
194.0039639999999
 30
0.0
 11
226.941181
 21
158.159964
 31
0.0
  0
LINE
  5
9A3F
330
9A12
100
AcDbEntity
  8
1
  6
Continuous
100
AcDbLine
 10
232.611181
 20
149.7889639999999
 30
0.0
 11
252.1111809999999
 21
143.9399639999997
 31
0.0
  0
LINE
  5
9A40
330
9A12
100
AcDbEntity
  8
1
  6
Continuous
100
AcDbLine
 10
227.164181
 20
160.663964
 30
0.0
 11
241.864181
 21
160.663964
 31
0.0
  0
LINE
  5
9A41
330
9A12
100
AcDbEntity
  8
1
  6
Continuous
100
AcDbLine
 10
229.137181
 20
158.663964
 30
0.0
 11
240.396181
 21
158.663964
 31
0.0
  0
LINE
  5
9A42
330
9A12
100
AcDbEntity
  8
1
  6
Continuous
100
AcDbLine
 10
247.864181
 20
201.663964
 30
0.0
 11
247.864181
 21
166.6639639999999
 31
0.0
  0
LINE
  5
9A43
330
9A12
100
AcDbEntity
  8
1
  6
Continuous
100
AcDbLine
 10
249.864181
 20
199.9929639999997
 30
0.0
 11
249.864181
 21
186.2349639999999
 31
0.0
  0
LINE
  5
9A44
330
9A12
100
AcDbEntity
  8
1
  6
Continuous
100
AcDbLine
 10
237.5641809999999
 20
204.6639639999999
 30
0.0
 11
244.864181
 21
204.6639639999999
 31
0.0
  0
LINE
  5
9A45
330
9A12
100
AcDbEntity
  8
1
  6
Continuous
100
AcDbLine
 10
240.258181
 20
206.6639639999999
 30
0.0
 11
243.0091809999999
 21
206.6639639999999
 31
0.0
  0
LINE
  5
9A46
330
9A12
100
AcDbEntity
  8
1
  6
Continuous
100
AcDbLine
 10
255.364181
 20
171.6639639999999
 30
0.0
 11
255.364181
 21
154.6639639999999
 31
0.0
  0
LINE
  5
9A47
330
9A12
100
AcDbEntity
  8
1
  6
Continuous
100
AcDbLine
 10
253.364181
 20
169.038964
 30
0.0
 11
253.364181
 21
156.5429639999998
 31
0.0
  0
LINE
  5
9A48
330
9A12
100
AcDbEntity
  8
1
  6
Continuous
100
AcDbLine
 10
260.0911809999999
 20
149.6639639999999
 30
0.0
 11
267.428181
 21
149.6639639999999
 31
0.0
  0
LINE
  5
9A49
330
9A12
100
AcDbEntity
  8
1
  6
Continuous
100
AcDbLine
 10
258.3641809999999
 20
151.6639639999999
 30
0.0
 11
271.3641809999999
 21
151.6639639999999
 31
0.0
  0
LINE
  5
9A4A
330
9A12
100
AcDbEntity
  8
1
  6
Continuous
100
AcDbLine
 10
258.3641809999999
 20
174.6639639999999
 30
0.0
 11
271.3641809999999
 21
174.6639639999999
 31
0.0
  0
LINE
  5
9A4B
330
9A12
100
AcDbEntity
  8
1
  6
Continuous
100
AcDbLine
 10
259.862181
 20
176.6639639999999
 30
0.0
 11
267.199181
 21
176.6639639999999
 31
0.0
  0
LINE
  5
9A4C
330
9A12
100
AcDbEntity
  8
4
  6
CENTER
100
AcDbLine
 10
231.364181
 20
166.6639639999999
 30
0.0
 11
241.364181
 21
166.6639639999999
 31
0.0
  0
LINE
  5
9A4D
330
9A12
100
AcDbEntity
  8
1
  6
Continuous
100
AcDbLine
 10
243.364181
 20
182.6639639999999
 30
0.0
 11
246.3641809999999
 21
182.6639639999999
 31
0.0
  0
LINE
  5
9A4E
330
9A12
100
AcDbEntity
  8
1
  6
Continuous
100
AcDbLine
 10
243.364181
 20
202.6639639999999
 30
0.0
 11
246.3641809999999
 21
202.6639639999999
 31
0.0
  0
LINE
  5
9A4F
330
9A12
100
AcDbEntity
  8
1
  6
Continuous
100
AcDbLine
 10
243.364181
 20
202.6639639999999
 30
0.0
 11
243.364181
 21
182.6639639999999
 31
0.0
  0
LINE
  5
9A50
330
9A12
100
AcDbEntity
  8
1
  6
Continuous
100
AcDbLine
 10
246.3641809999999
 20
202.6639639999999
 30
0.0
 11
246.3641809999999
 21
182.6639639999999
 31
0.0
  0
LINE
  5
9A51
330
9A12
100
AcDbEntity
  8
1
  6
Continuous
100
AcDbLine
 10
257.3641809999999
 20
153.6639639999999
 30
0.0
 11
266.3641809999999
 21
153.6639639999999
 31
0.0
  0
LINE
  5
9A52
330
9A12
100
AcDbEntity
  8
1
  6
Continuous
100
AcDbLine
 10
257.3641809999999
 20
172.6639639999999
 30
0.0
 11
266.3641809999999
 21
172.6639639999999
 31
0.0
  0
LINE
  5
9A53
330
9A12
100
AcDbEntity
  8
1
  6
Continuous
100
AcDbLine
 10
266.3641809999999
 20
172.6639639999999
 30
0.0
 11
266.3641809999999
 21
153.6639639999999
 31
0.0
  0
LINE
  5
9A54
330
9A12
100
AcDbEntity
  8
1
  6
Continuous
100
AcDbLine
 10
257.3641809999999
 20
172.6639639999999
 30
0.0
 11
257.3641809999999
 21
153.6639639999999
 31
0.0
  0
LINE
  5
9A55
330
9A12
100
AcDbEntity
  8
1
  6
Continuous
100
AcDbLine
 10
269.064181
 20
176.6639639999999
 30
0.0
 11
271.3641809999999
 21
174.6639639999999
 31
0.0
  0
LINE
  5
9A56
330
9A12
100
AcDbEntity
  8
1
  6
Continuous
100
AcDbLine
 10
271.3641809999999
 20
151.6639639999999
 30
0.0
 11
269.064181
 21
149.6639639999999
 31
0.0
  0
LINE
  5
9A57
330
9A12
100
AcDbEntity
  8
1
  6
Continuous
100
AcDbLine
 10
331.364181
 20
236.6639639999999
 30
0.0
 11
331.364181
 21
131.6639639999999
 31
0.0
  0
LINE
  5
9A58
330
9A12
100
AcDbEntity
  8
1
  6
Continuous
100
AcDbLine
 10
382.8641809999999
 20
205.6639639999999
 30
0.0
 11
382.8641809999999
 21
141.1639639999999
 31
0.0
  0
LINE
  5
9A59
330
9A12
100
AcDbEntity
  8
1
  6
Continuous
100
AcDbLine
 10
331.364181
 20
131.6639639999999
 30
0.0
 11
373.3641809999999
 21
131.6639639999999
 31
0.0
  0
LINE
  5
9A5A
330
9A12
100
AcDbEntity
  8
1
  6
Continuous
100
AcDbLine
 10
331.364181
 20
236.6639639999999
 30
0.0
 11
342.476181
 21
236.6639639999999
 31
0.0
  0
LINE
  5
9A5B
330
9A12
100
AcDbEntity
  8
1
  6
Continuous
100
AcDbLine
 10
349.2311809999998
 20
234.036964
 30
0.0
 11
366.970181
 21
217.786964
 31
0.0
  0
LINE
  5
9A5C
330
9A12
100
AcDbEntity
  8
4
  6
CENTER
100
AcDbLine
 10
373.3641809999999
 20
210.663964
 30
0.0
 11
373.3641809999999
 21
200.6639639999999
 31
0.0
  0
LINE
  5
9A5D
330
9A12
100
AcDbEntity
  8
4
  6
CENTER
100
AcDbLine
 10
368.3641809999999
 20
205.6639639999999
 30
0.0
 11
378.3641809999999
 21
205.6639639999999
 31
0.0
  0
LINE
  5
9A5E
330
9A12
100
AcDbEntity
  8
4
  6
CENTER
100
AcDbLine
 10
373.3641809999999
 20
145.6639639999998
 30
0.0
 11
373.3641809999999
 21
135.663964
 31
0.0
  0
LINE
  5
9A5F
330
9A12
100
AcDbEntity
  8
4
  6
CENTER
100
AcDbLine
 10
368.3641809999999
 20
140.6639639999999
 30
0.0
 11
378.3641809999999
 21
140.6639639999999
 31
0.0
  0
LINE
  5
9A60
330
9A12
100
AcDbEntity
  8
4
  6
CENTER
100
AcDbLine
 10
343.3641809999999
 20
145.6639639999998
 30
0.0
 11
343.3641809999999
 21
135.663964
 31
0.0
  0
LINE
  5
9A61
330
9A12
100
AcDbEntity
  8
4
  6
CENTER
100
AcDbLine
 10
338.3641809999998
 20
140.6639639999999
 30
0.0
 11
348.3641809999999
 21
140.6639639999999
 31
0.0
  0
LINE
  5
9A62
330
9A12
100
AcDbEntity
  8
1
  6
Continuous
100
AcDbLine
 10
333.3641809999999
 20
174.6639639999999
 30
0.0
 11
333.3641809999999
 21
151.6639639999999
 31
0.0
  0
LINE
  5
9A63
330
9A12
100
AcDbEntity
  8
1
  6
Continuous
100
AcDbLine
 10
331.364181
 20
176.6639639999999
 30
0.0
 11
333.3641809999999
 21
174.6639639999999
 31
0.0
  0
LINE
  5
9A64
330
9A12
100
AcDbEntity
  8
1
  6
Continuous
100
AcDbLine
 10
333.3641809999999
 20
151.6639639999999
 30
0.0
 11
331.364181
 21
149.6639639999999
 31
0.0
  0
LINE
  5
9A65
330
9A12
100
AcDbEntity
  8
4
  6
CENTER
100
AcDbLine
 10
343.3641809999999
 20
232.6639639999999
 30
0.0
 11
343.3641809999999
 21
222.663964
 31
0.0
  0
LINE
  5
9A66
330
9A12
100
AcDbEntity
  8
4
  6
CENTER
100
AcDbLine
 10
338.3641809999998
 20
227.6639639999999
 30
0.0
 11
348.3641809999999
 21
227.6639639999999
 31
0.0
  0
LINE
  5
9A67
330
9A12
100
AcDbEntity
  8
1
  6
Continuous
100
AcDbLine
 10
364.064181
 20
150.6639639999999
 30
0.0
 11
364.064181
 21
150.4639639999998
 31
0.0
  0
LINE
  5
9A68
330
9A12
100
AcDbEntity
  8
1
  6
Continuous
100
AcDbLine
 10
249.864181
 20
180.044964
 30
0.0
 11
249.864181
 21
168.134964
 31
0.0
  0
LINE
  5
9A69
330
9A12
100
AcDbEntity
  8
4
  6
CENTER
100
AcDbLine
 10
266.3641809999999
 20
140.6639639999999
 30
0.0
 11
276.3641809999999
 21
140.6639639999999
 31
0.0
  0
LINE
  5
9A6A
330
9A12
100
AcDbEntity
  8
4
  6
CENTER
100
AcDbLine
 10
237.494181
 20
190.6639639999999
 30
0.0
 11
298.0601809999999
 21
190.6639639999999
 31
0.0
  0
LINE
  5
9A6B
330
9A12
100
AcDbEntity
  8
4
  6
CENTER
100
AcDbLine
 10
266.3641809999999
 20
227.6639639999999
 30
0.0
 11
276.3641809999999
 21
227.6639639999999
 31
0.0
  0
LINE
  5
9A6C
330
9A12
100
AcDbEntity
  8
4
  6
CENTER
100
AcDbLine
 10
326.3641809999999
 20
166.6639639999999
 30
0.0
 11
336.3641809999998
 21
166.6639639999999
 31
0.0
  0
LINE
  5
9A6D
330
9A12
100
AcDbEntity
  8
1
  6
Continuous
100
AcDbLine
 10
264.390181
 20
189.8389639999997
 30
0.0
 11
263.760181
 21
189.8389639999997
 31
0.0
  0
LINE
  5
9A6E
330
9A12
100
AcDbEntity
  8
1
  6
Continuous
100
AcDbLine
 10
263.973181
 20
188.8489639999999
 30
0.0
 11
262.756181
 21
188.8489639999999
 31
0.0
  0
LINE
  5
9A6F
330
9A12
100
AcDbEntity
  8
1
  6
Continuous
100
AcDbLine
 10
262.550181
 20
189.1789639999998
 30
0.0
 11
264.1781809999999
 21
189.1789639999998
 31
0.0
  0
LINE
  5
9A70
330
9A12
100
AcDbEntity
  8
1
  6
Continuous
100
AcDbLine
 10
262.507181
 20
189.5089639999999
 30
0.0
 11
264.221181
 21
189.5089639999999
 31
0.0
  0
LINE
  5
9A71
330
9A12
100
AcDbEntity
  8
1
  6
Continuous
100
AcDbLine
 10
262.459181
 20
188.5189639999999
 30
0.0
 11
263.882181
 21
188.5189639999999
 31
0.0
  0
LINE
  5
9A72
330
9A12
100
AcDbEntity
  8
1
  6
Continuous
100
AcDbLine
 10
262.968181
 20
189.8389639999997
 30
0.0
 11
262.339181
 21
189.8389639999997
 31
0.0
  0
LINE
  5
9A73
330
9A12
100
AcDbEntity
  8
1
  6
Continuous
100
AcDbLine
 10
264.295181
 20
191.4879639999998
 30
0.0
 11
263.3641809999999
 21
191.4879639999998
 31
0.0
  0
LINE
  5
9A74
330
9A12
100
AcDbEntity
  8
1
  6
Continuous
100
AcDbLine
 10
263.3641809999999
 20
192.3129639999999
 30
0.0
 11
264.155181
 21
192.3129639999999
 31
0.0
  0
LINE
  5
9A75
330
9A12
100
AcDbEntity
  8
1
  6
Continuous
100
AcDbLine
 10
263.3641809999999
 20
190.498964
 30
0.0
 11
263.3641809999999
 21
190.1679639999999
 31
0.0
  0
LINE
  5
9A76
330
9A12
100
AcDbEntity
  8
1
  6
Continuous
100
AcDbLine
 10
263.3641809999999
 20
191.4879639999998
 30
0.0
 11
263.3641809999999
 21
191.3229639999999
 31
0.0
  0
LINE
  5
9A77
330
9A12
100
AcDbEntity
  8
1
  6
Continuous
100
AcDbLine
 10
263.3641809999999
 20
193.492964
 30
0.0
 11
263.3641809999999
 21
192.8109639999999
 31
0.0
  0
LINE
  5
9A78
330
9A12
100
AcDbEntity
  8
1
  6
Continuous
100
AcDbLine
 10
263.9811809999998
 20
192.6449639999999
 30
0.0
 11
262.591181
 21
193.0179639999998
 31
0.0
  0
LINE
  5
9A79
330
9A12
100
AcDbEntity
  8
1
  6
Continuous
100
AcDbLine
 10
262.241181
 20
190.1679639999999
 30
0.0
 11
264.488181
 21
190.1679639999999
 31
0.0
  0
LINE
  5
9A7A
330
9A12
100
AcDbEntity
  8
1
  6
Continuous
100
AcDbLine
 10
262.214181
 20
190.498964
 30
0.0
 11
264.5151809999999
 21
190.498964
 31
0.0
  0
LINE
  5
9A7B
330
9A12
100
AcDbEntity
  8
1
  6
Continuous
100
AcDbLine
 10
262.214181
 20
190.8289639999999
 30
0.0
 11
264.5151809999999
 21
190.8289639999999
 31
0.0
  0
LINE
  5
9A7C
330
9A12
100
AcDbEntity
  8
1
  6
Continuous
100
AcDbLine
 10
262.278181
 20
191.157964
 30
0.0
 11
264.4501809999998
 21
191.157964
 31
0.0
  0
LINE
  5
9A7D
330
9A12
100
AcDbEntity
  8
1
  6
Continuous
100
AcDbLine
 10
262.280181
 20
191.8179639999999
 30
0.0
 11
264.345181
 21
191.8179639999999
 31
0.0
  0
LINE
  5
9A7E
330
9A12
100
AcDbEntity
  8
1
  6
Continuous
100
AcDbLine
 10
262.968181
 20
191.4879639999998
 30
0.0
 11
262.433181
 21
191.4879639999998
 31
0.0
  0
LINE
  5
9A7F
330
9A12
100
AcDbEntity
  8
1
  6
Continuous
100
AcDbLine
 10
262.4351809999997
 20
192.147964
 30
0.0
 11
263.199181
 21
192.147964
 31
0.0
  0
LINE
  5
9A80
330
9A12
100
AcDbEntity
  8
1
  6
Continuous
100
AcDbLine
 10
263.199181
 20
192.4769639999999
 30
0.0
 11
262.495181
 21
192.4769639999999
 31
0.0
  0
LINE
  5
9A81
330
9A12
100
AcDbEntity
  8
1
  6
Continuous
100
AcDbLine
 10
175.3641809999997
 20
236.6639639999999
 30
0.0
 11
175.3641809999997
 21
131.6639639999999
 31
0.0
  0
LINE
  5
9A82
330
9A12
100
AcDbEntity
  8
1
  6
Continuous
100
AcDbLine
 10
123.864181
 20
205.6639639999999
 30
0.0
 11
123.864181
 21
141.1639639999999
 31
0.0
  0
LINE
  5
9A83
330
9A12
100
AcDbEntity
  8
1
  6
Continuous
100
AcDbLine
 10
175.3641809999997
 20
131.6639639999999
 30
0.0
 11
171.064181
 21
131.6639639999999
 31
0.0
  0
LINE
  5
9A84
330
9A12
100
AcDbEntity
  8
1
  6
Continuous
100
AcDbLine
 10
175.3641809999997
 20
236.6639639999999
 30
0.0
 11
164.252181
 21
236.6639639999999
 31
0.0
  0
LINE
  5
9A85
330
9A12
100
AcDbEntity
  8
1
  6
Continuous
100
AcDbLine
 10
157.497181
 20
234.036964
 30
0.0
 11
143.8791809999998
 21
221.5619639999999
 31
0.0
  0
LINE
  5
9A86
330
9A12
100
AcDbEntity
  8
4
  6
CENTER
100
AcDbLine
 10
147.864181
 20
210.663964
 30
0.0
 11
147.864181
 21
170.6639639999998
 31
0.0
  0
LINE
  5
9A87
330
9A12
100
AcDbEntity
  8
4
  6
CENTER
100
AcDbLine
 10
167.864181
 20
190.6639639999999
 30
0.0
 11
127.864181
 21
190.6639639999999
 31
0.0
  0
LINE
  5
9A88
330
9A12
100
AcDbEntity
  8
4
  6
CENTER
100
AcDbLine
 10
133.364181
 20
145.6639639999998
 30
0.0
 11
133.364181
 21
135.663964
 31
0.0
  0
LINE
  5
9A89
330
9A12
100
AcDbEntity
  8
4
  6
CENTER
100
AcDbLine
 10
138.364181
 20
140.6639639999999
 30
0.0
 11
128.3641809999997
 21
140.6639639999999
 31
0.0
  0
LINE
  5
9A8A
330
9A12
100
AcDbEntity
  8
4
  6
CENTER
100
AcDbLine
 10
163.364181
 20
145.6639639999998
 30
0.0
 11
163.364181
 21
135.663964
 31
0.0
  0
LINE
  5
9A8B
330
9A12
100
AcDbEntity
  8
4
  6
CENTER
100
AcDbLine
 10
168.364181
 20
140.6639639999999
 30
0.0
 11
158.364181
 21
140.6639639999999
 31
0.0
  0
LINE
  5
9A8C
330
9A12
100
AcDbEntity
  8
4
  6
CENTER
100
AcDbLine
 10
163.364181
 20
232.6639639999999
 30
0.0
 11
163.364181
 21
222.663964
 31
0.0
  0
LINE
  5
9A8D
330
9A12
100
AcDbEntity
  8
4
  6
CENTER
100
AcDbLine
 10
168.364181
 20
227.6639639999999
 30
0.0
 11
158.364181
 21
227.6639639999999
 31
0.0
  0
LINE
  5
9A8E
330
9A12
100
AcDbEntity
  8
1
  6
Continuous
100
AcDbLine
 10
127.664181
 20
157.4639639999998
 30
0.0
 11
127.664181
 21
150.4639639999998
 31
0.0
  0
LINE
  5
9A8F
330
9A12
100
AcDbEntity
  8
1
  6
Continuous
100
AcDbLine
 10
142.664181
 20
153.4639639999998
 30
0.0
 11
142.664181
 21
150.4639639999998
 31
0.0
  0
LINE
  5
9A90
330
9A12
100
AcDbEntity
  8
1
  6
Continuous
100
AcDbLine
 10
142.664181
 20
150.4639639999998
 30
0.0
 11
127.664181
 21
150.4639639999998
 31
0.0
  0
LINE
  5
9A91
330
9A12
100
AcDbEntity
  8
1
  6
Continuous
100
AcDbLine
 10
142.664181
 20
153.4639639999998
 30
0.0
 11
130.664181
 21
153.4639639999998
 31
0.0
  0
LINE
  5
9A92
330
9A12
100
AcDbEntity
  8
1
  6
Continuous
100
AcDbLine
 10
130.664181
 20
157.4639639999998
 30
0.0
 11
130.664181
 21
153.4639639999998
 31
0.0
  0
LINE
  5
9A93
330
9A12
100
AcDbEntity
  8
1
  6
Continuous
100
AcDbLine
 10
130.664181
 20
157.4639639999998
 30
0.0
 11
127.664181
 21
157.4639639999998
 31
0.0
  0
LINE
  5
9A94
330
9A12
100
AcDbEntity
  8
1
  6
Continuous
100
AcDbLine
 10
166.0641809999999
 20
157.4639639999998
 30
0.0
 11
166.0641809999999
 21
150.4639639999998
 31
0.0
  0
LINE
  5
9A95
330
9A12
100
AcDbEntity
  8
1
  6
Continuous
100
AcDbLine
 10
163.064181
 20
157.4639639999998
 30
0.0
 11
163.064181
 21
150.4639639999998
 31
0.0
  0
LINE
  5
9A96
330
9A12
100
AcDbEntity
  8
1
  6
Continuous
100
AcDbLine
 10
166.0641809999999
 20
157.4639639999998
 30
0.0
 11
163.064181
 21
157.4639639999998
 31
0.0
  0
LINE
  5
9A97
330
9A12
100
AcDbEntity
  8
1
  6
Continuous
100
AcDbLine
 10
166.0641809999999
 20
150.4639639999998
 30
0.0
 11
163.064181
 21
150.4639639999998
 31
0.0
  0
LINE
  5
9A98
330
9A12
100
AcDbEntity
  8
1
  6
Continuous
100
AcDbLine
 10
130.664181
 20
178.4639639999998
 30
0.0
 11
127.664181
 21
178.4639639999998
 31
0.0
  0
LINE
  5
9A99
330
9A12
100
AcDbEntity
  8
1
  6
Continuous
100
AcDbLine
 10
130.664181
 20
189.4639639999999
 30
0.0
 11
127.664181
 21
189.4639639999999
 31
0.0
  0
LINE
  5
9A9A
330
9A12
100
AcDbEntity
  8
1
  6
Continuous
100
AcDbLine
 10
127.664181
 20
189.4639639999999
 30
0.0
 11
127.664181
 21
178.4639639999998
 31
0.0
  0
LINE
  5
9A9B
330
9A12
100
AcDbEntity
  8
1
  6
Continuous
100
AcDbLine
 10
130.664181
 20
178.4639639999998
 30
0.0
 11
130.664181
 21
189.4639639999999
 31
0.0
  0
LINE
  5
9A9C
330
9A12
100
AcDbEntity
  8
1
  6
Continuous
100
AcDbLine
 10
154.603181
 20
204.163964
 30
0.0
 11
147.610181
 21
207.6599639999999
 31
0.0
  0
LINE
  5
9A9D
330
9A12
100
AcDbEntity
  8
1
  6
Continuous
100
AcDbLine
 10
156.107181
 20
206.765964
 30
0.0
 11
148.952181
 21
210.3429639999998
 31
0.0
  0
LINE
  5
9A9E
330
9A12
100
AcDbEntity
  8
1
  6
Continuous
100
AcDbLine
 10
156.107181
 20
206.765964
 30
0.0
 11
154.806181
 21
204.163964
 31
0.0
  0
LINE
  5
9A9F
330
9A12
100
AcDbEntity
  8
1
  6
Continuous
100
AcDbLine
 10
148.952181
 20
210.3429639999998
 30
0.0
 11
147.610181
 21
207.6599639999999
 31
0.0
  0
LINE
  5
9AA0
330
9A12
100
AcDbEntity
  8
4
  6
CENTER
100
AcDbLine
 10
180.364181
 20
166.6639639999999
 30
0.0
 11
163.0461809999999
 21
166.6639639999999
 31
0.0
  0
LINE
  5
9AA1
330
9A12
100
AcDbEntity
  8
1
  6
Continuous
100
AcDbLine
 10
34.364181
 20
236.6639639999999
 30
0.0
 11
34.364181
 21
131.6639639999999
 31
0.0
  0
LINE
  5
9AA2
330
9A12
100
AcDbEntity
  8
1
  6
Continuous
100
AcDbLine
 10
37.36748099999999
 20
131.6639639999999
 30
0.0
 11
34.364181
 21
131.6639639999999
 31
0.0
  0
LINE
  5
9AA3
330
9A12
100
AcDbEntity
  8
1
  6
Continuous
100
AcDbLine
 10
37.137381
 20
236.6639639999999
 30
0.0
 11
34.364181
 21
236.6639639999999
 31
0.0
  0
LINE
  5
9AA4
330
9A12
100
AcDbEntity
  8
1
  6
Continuous
100
AcDbLine
 10
40.85378099999998
 20
235.007964
 30
0.0
 11
49.03288100000001
 21
225.920964
 31
0.0
  0
LINE
  5
9AA5
330
9A12
100
AcDbEntity
  8
1
  6
Continuous
100
AcDbLine
 10
75.600481
 20
194.0039639999999
 30
0.0
 11
78.786681
 21
158.159964
 31
0.0
  0
LINE
  5
9AA6
330
9A12
100
AcDbEntity
  8
1
  6
Continuous
100
AcDbLine
 10
73.11688100000002
 20
149.7889639999999
 30
0.0
 11
70.221681
 21
148.920964
 31
0.0
  0
LINE
  5
9AA7
330
9A12
100
AcDbEntity
  8
1
  6
Continuous
100
AcDbLine
 10
57.864181
 20
179.504964
 30
0.0
 11
57.864181
 21
178.2059639999999
 31
0.0
  0
LINE
  5
9AA8
330
9A12
100
AcDbEntity
  8
1
  6
Continuous
100
AcDbLine
 10
62.364181
 20
182.6639639999999
 30
0.0
 11
59.364181
 21
182.6639639999999
 31
0.0
  0
LINE
  5
9AA9
330
9A12
100
AcDbEntity
  8
1
  6
Continuous
100
AcDbLine
 10
62.364181
 20
185.3719639999999
 30
0.0
 11
62.364181
 21
182.6639639999999
 31
0.0
  0
LINE
  5
9AAA
330
9A12
100
AcDbEntity
  8
1
  6
Continuous
100
AcDbLine
 10
59.364181
 20
185.3619639999998
 30
0.0
 11
59.364181
 21
182.6639639999999
 31
0.0
  0
LINE
  5
9AAB
330
9A12
100
AcDbEntity
  8
1
  6
Continuous
100
AcDbLine
 10
36.664081
 20
236.6639639999999
 30
0.0
 11
36.664081
 21
131.6639639999999
 31
0.0
  0
LINE
  5
9AAC
330
9A12
100
AcDbEntity
  8
4
  6
CENTER
100
AcDbLine
 10
40.97838099999999
 20
140.6639639999999
 30
0.0
 11
29.364181
 21
140.6639639999999
 31
0.0
  0
LINE
  5
9AAD
330
9A12
100
AcDbEntity
  8
4
  6
CENTER
100
AcDbLine
 10
62.564781
 20
167.1639639999999
 30
0.0
 11
29.364181
 21
167.1639639999999
 31
0.0
  0
LINE
  5
9AAE
330
9A12
100
AcDbEntity
  8
4
  6
CENTER
100
AcDbLine
 10
58.60078099999999
 20
190.6639639999999
 30
0.0
 11
8.677464
 21
190.6639639999999
 31
0.0
  0
LINE
  5
9AAF
330
9A12
100
AcDbEntity
  8
4
  6
CENTER
100
AcDbLine
 10
50.362181
 20
205.6639639999999
 30
0.0
 11
29.364181
 21
205.6639639999999
 31
0.0
  0
LINE
  5
9AB0
330
9A12
100
AcDbEntity
  8
4
  6
CENTER
100
AcDbLine
 10
41.339926306704
 20
227.6639639999999
 30
0.0
 11
29.364181
 21
227.6639639999999
 31
0.0
  0
LINE
  5
9AB1
330
9A12
100
AcDbEntity
  8
1
  6
Continuous
100
AcDbLine
 10
134.264181
 20
172.081964
 30
0.0
 11
134.264181
 21
162.2449639999999
 31
0.0
  0
LINE
  5
9AB2
330
9A12
100
AcDbEntity
  8
1
  6
Continuous
100
AcDbLine
 10
132.4641809999999
 20
172.081964
 30
0.0
 11
132.4641809999999
 21
162.2449639999999
 31
0.0
  0
LINE
  5
9AB3
330
9A12
100
AcDbEntity
  8
1
  6
Continuous
100
AcDbLine
 10
39.364181
 20
201.1639639999999
 30
0.0
 11
39.364181
 21
161.8459639999999
 31
0.0
  0
LINE
  5
9AB4
330
9A12
100
AcDbEntity
  8
1
  6
Continuous
100
AcDbLine
 10
58.56418099999999
 20
172.163964
 30
0.0
 11
58.56418099999999
 21
162.1639639999999
 31
0.0
  0
LINE
  5
9AB5
330
9A12
100
AcDbEntity
  8
1
  6
Continuous
100
AcDbLine
 10
58.56418099999999
 20
172.163964
 30
0.0
 11
57.064181
 21
172.163964
 31
0.0
  0
LINE
  5
9AB6
330
9A12
100
AcDbEntity
  8
1
  6
Continuous
100
AcDbLine
 10
58.56418099999999
 20
162.1639639999999
 30
0.0
 11
57.064181
 21
162.1639639999999
 31
0.0
  0
LINE
  5
9AB7
330
9A12
100
AcDbEntity
  8
1
  6
Continuous
100
AcDbLine
 10
40.664081
 20
171.163964
 30
0.0
 11
39.364181
 21
171.163964
 31
0.0
  0
LINE
  5
9AB8
330
9A12
100
AcDbEntity
  8
1
  6
Continuous
100
AcDbLine
 10
40.664081
 20
163.1639639999999
 30
0.0
 11
39.364181
 21
163.1639639999999
 31
0.0
  0
LINE
  5
9AB9
330
9A12
100
AcDbEntity
  8
1
  6
Continuous
100
AcDbLine
 10
142.936181
 20
153.091964
 30
0.0
 11
140.079181
 21
164.300964
 31
0.0
  0
LINE
  5
9ABA
330
9A12
100
AcDbEntity
  8
1
  6
Continuous
100
AcDbLine
 10
144.389181
 20
153.461964
 30
0.0
 11
140.4381809999998
 21
168.9669639999999
 31
0.0
  0
LINE
  5
9ABB
330
9A12
100
AcDbEntity
  8
1
  6
Continuous
100
AcDbLine
 10
132.6141809999997
 20
172.163964
 30
0.0
 11
132.6141809999997
 21
162.6939639999999
 31
0.0
  0
LINE
  5
9ABC
330
9A12
100
AcDbEntity
  8
1
  6
Continuous
100
AcDbLine
 10
134.114181
 20
172.163964
 30
0.0
 11
134.114181
 21
162.2449639999999
 31
0.0
  0
LINE
  5
9ABD
330
9A12
100
AcDbEntity
  8
1
  6
Continuous
100
AcDbLine
 10
132.6141809999997
 20
172.163964
 30
0.0
 11
134.114181
 21
172.163964
 31
0.0
  0
LINE
  5
9ABE
330
9A12
100
AcDbEntity
  8
1
  6
Continuous
100
AcDbLine
 10
57.064181
 20
173.7139639999998
 30
0.0
 11
57.064181
 21
160.6139639999998
 31
0.0
  0
LINE
  5
9ABF
330
9A12
100
AcDbEntity
  8
1
  6
Continuous
100
AcDbLine
 10
55.56418100000001
 20
173.7139639999998
 30
0.0
 11
55.56418100000001
 21
160.6139639999998
 31
0.0
  0
LINE
  5
9AC0
330
9A12
100
AcDbEntity
  8
1
  6
Continuous
100
AcDbLine
 10
54.080781
 20
173.7139639999998
 30
0.0
 11
54.080781
 21
160.6139639999998
 31
0.0
  0
LINE
  5
9AC1
330
9A12
100
AcDbEntity
  8
1
  6
Continuous
100
AcDbLine
 10
52.59748100000001
 20
173.7139639999998
 30
0.0
 11
52.59748100000001
 21
160.6139639999998
 31
0.0
  0
LINE
  5
9AC2
330
9A12
100
AcDbEntity
  8
1
  6
Continuous
100
AcDbLine
 10
51.114181
 20
173.7139639999998
 30
0.0
 11
51.114181
 21
160.6139639999998
 31
0.0
  0
LINE
  5
9AC3
330
9A12
100
AcDbEntity
  8
1
  6
Continuous
100
AcDbLine
 10
49.630781
 20
173.7139639999998
 30
0.0
 11
49.630781
 21
160.6139639999998
 31
0.0
  0
LINE
  5
9AC4
330
9A12
100
AcDbEntity
  8
1
  6
Continuous
100
AcDbLine
 10
48.147481
 20
172.163964
 30
0.0
 11
47.364181
 21
172.163964
 31
0.0
  0
LINE
  5
9AC5
330
9A12
100
AcDbEntity
  8
1
  6
Continuous
100
AcDbLine
 10
48.147481
 20
162.1639639999999
 30
0.0
 11
47.364181
 21
162.1639639999999
 31
0.0
  0
LINE
  5
9AC6
330
9A12
100
AcDbEntity
  8
1
  6
Continuous
100
AcDbLine
 10
61.62328099999999
 20
129.6089639999999
 30
0.0
 11
76.67248100000001
 21
163.409964
 31
0.0
  0
LINE
  5
9AC7
330
9A12
100
AcDbEntity
  8
1
  6
Continuous
100
AcDbLine
 10
47.076681
 20
181.2379639999998
 30
0.0
 11
50.900481
 21
180.1639639999999
 31
0.0
  0
LINE
  5
9AC8
330
9A12
100
AcDbEntity
  8
1
  6
Continuous
100
AcDbLine
 10
57.275381
 20
156.5069639999999
 30
0.0
 11
50.399181
 21
133.7869639999997
 31
0.0
  0
LINE
  5
9AC9
330
9A12
100
AcDbEntity
  8
1
  6
Continuous
100
AcDbLine
 10
56.403181
 20
159.8689639999998
 30
0.0
 11
57.21838100000001
 21
157.8289639999999
 31
0.0
  0
LINE
  5
9ACA
330
9A12
100
AcDbEntity
  8
1
  6
Continuous
100
AcDbLine
 10
169.0641809999999
 20
181.3129639999999
 30
0.0
 11
169.0641809999999
 21
126.0489639999997
 31
0.0
  0
LINE
  5
9ACB
330
9A12
100
AcDbEntity
  8
1
  6
Continuous
100
AcDbLine
 10
171.064181
 20
126.0489639999997
 30
0.0
 11
169.0641809999999
 21
126.0489639999997
 31
0.0
  0
LINE
  5
9ACC
330
9A12
100
AcDbEntity
  8
1
  6
Continuous
100
AcDbLine
 10
169.0641809999999
 20
131.6639639999999
 30
0.0
 11
133.364181
 21
131.6639639999999
 31
0.0
  0
LINE
  5
9ACD
330
9A12
100
AcDbEntity
  8
1
  6
Continuous
100
AcDbLine
 10
167.064181
 20
173.6639639999999
 30
0.0
 11
167.064181
 21
159.663964
 31
0.0
  0
LINE
  5
9ACE
330
9A12
100
AcDbEntity
  8
1
  6
Continuous
100
AcDbLine
 10
169.0641809999999
 20
159.1639639999999
 30
0.0
 11
167.5641809999999
 21
159.1639639999999
 31
0.0
  0
LINE
  5
9ACF
330
9A12
100
AcDbEntity
  8
1
  6
Continuous
100
AcDbLine
 10
169.0641809999999
 20
174.1639639999999
 30
0.0
 11
167.5641809999999
 21
174.1639639999999
 31
0.0
  0
LINE
  5
9AD0
330
9A12
100
AcDbEntity
  8
1
  6
Continuous
100
AcDbLine
 10
167.5641809999999
 20
159.1639639999999
 30
0.0
 11
167.064181
 21
159.663964
 31
0.0
  0
LINE
  5
9AD1
330
9A12
100
AcDbEntity
  8
1
  6
Continuous
100
AcDbLine
 10
167.5641809999999
 20
174.1639639999999
 30
0.0
 11
167.064181
 21
173.6639639999999
 31
0.0
  0
LINE
  5
9AD2
330
9A12
100
AcDbEntity
  8
1
  6
Continuous
100
AcDbLine
 10
167.5641809999999
 20
174.1639639999999
 30
0.0
 11
167.5641809999999
 21
159.1639639999999
 31
0.0
  0
LINE
  5
9AD3
330
9A12
100
AcDbEntity
  8
1
  6
Continuous
100
AcDbLine
 10
171.064181
 20
181.3129639999999
 30
0.0
 11
169.0641809999999
 21
181.3129639999999
 31
0.0
  0
LINE
  5
9AD4
330
9A12
100
AcDbEntity
  8
1
  6
Continuous
100
AcDbLine
 10
155.6001809999998
 20
177.438964
 30
0.0
 11
163.286181
 21
176.8549639999999
 31
0.0
  0
LINE
  5
9AD5
330
9A12
100
AcDbEntity
  8
1
  6
Continuous
100
AcDbLine
 10
144.2631809999998
 20
153.9589639999999
 30
0.0
 11
152.197181
 21
152.9349639999998
 31
0.0
  0
LINE
  5
9AD6
330
9A12
100
AcDbEntity
  8
1
  6
Continuous
100
AcDbLine
 10
132.3391809999999
 20
159.2289639999999
 30
0.0
 11
141.679181
 21
158.0239639999998
 31
0.0
  0
LINE
  5
9AD7
330
9A12
100
AcDbEntity
  8
1
  6
Continuous
100
AcDbLine
 10
144.8391809999999
 20
158.421964
 30
0.0
 11
144.2631809999998
 21
153.9589639999999
 31
0.0
  0
LINE
  5
9AD8
330
9A12
100
AcDbEntity
  8
1
  6
Continuous
100
AcDbLine
 10
152.7731809999998
 20
157.397964
 30
0.0
 11
152.197181
 21
152.9349639999998
 31
0.0
  0
LINE
  5
9AD9
330
9A12
100
AcDbEntity
  8
1
  6
Continuous
100
AcDbLine
 10
144.8391809999999
 20
158.421964
 30
0.0
 11
152.7731809999998
 21
157.397964
 31
0.0
  0
LINE
  5
9ADA
330
9A12
100
AcDbEntity
  8
1
  6
Continuous
100
AcDbLine
 10
167.064181
 20
164.1879639999999
 30
0.0
 11
161.560181
 21
159.0839639999998
 31
0.0
  0
LINE
  5
9ADB
330
9A12
100
AcDbEntity
  8
1
  6
Continuous
100
AcDbLine
 10
164.875181
 20
175.8459639999999
 30
0.0
 11
166.214181
 21
173.4809639999998
 31
0.0
  0
LINE
  5
9ADC
330
9A12
100
AcDbEntity
  8
1
  6
Continuous
100
AcDbLine
 10
152.6711809999999
 20
156.6039639999999
 30
0.0
 11
153.4801809999999
 21
156.4999639999998
 31
0.0
  0
LINE
  5
9ADD
330
9A12
100
AcDbEntity
  8
1
  6
Continuous
100
AcDbLine
 10
38.864181
 20
210.7279639999999
 30
0.0
 11
38.864181
 21
173.8369639999999
 31
0.0
  0
LINE
  5
9ADE
330
9A12
100
AcDbEntity
  8
4
  6
CENTER
100
AcDbLine
 10
39.364181
 20
175.6639639999999
 30
0.0
 11
29.364181
 21
175.6639639999999
 31
0.0
  0
LINE
  5
9ADF
330
9A12
100
AcDbEntity
  8
1
  6
Continuous
100
AcDbLine
 10
15.664131
 20
210.663964
 30
0.0
 11
34.364181
 21
210.663964
 31
0.0
  0
LINE
  5
9AE0
330
9A12
100
AcDbEntity
  8
1
  6
Continuous
100
AcDbLine
 10
13.364141
 20
208.3639639999999
 30
0.0
 11
13.364141
 21
152.9639639999998
 31
0.0
  0
LINE
  5
9AE1
330
9A12
100
AcDbEntity
  8
1
  6
Continuous
100
AcDbLine
 10
15.664131
 20
150.6639639999999
 30
0.0
 11
34.364181
 21
150.6639639999999
 31
0.0
  0
LINE
  5
9AE2
330
9A12
100
AcDbEntity
  8
1
  6
Continuous
100
AcDbLine
 10
39.364181
 20
212.706964
 30
0.0
 11
39.364181
 21
210.163964
 31
0.0
  0
LINE
  5
9AE3
330
9A12
100
AcDbEntity
  8
1
  6
Continuous
100
AcDbLine
 10
39.364181
 20
196.913964
 30
0.0
 11
38.864181
 21
196.913964
 31
0.0
  0
LINE
  5
9AE4
330
9A12
100
AcDbEntity
  8
1
  6
Continuous
100
AcDbLine
 10
39.364181
 20
184.4139639999999
 30
0.0
 11
38.864181
 21
184.4139639999999
 31
0.0
  0
LINE
  5
9AE5
330
9A12
100
AcDbEntity
  8
1
  6
Continuous
100
AcDbLine
 10
43.864181
 20
212.706964
 30
0.0
 11
43.864181
 21
210.6209639999999
 31
0.0
  0
LINE
  5
9AE6
330
9A12
100
AcDbEntity
  8
1
  6
Continuous
100
AcDbLine
 10
158.1121809999999
 20
211.886964
 30
0.0
 11
156.805181
 21
204.705964
 31
0.0
  0
LINE
  5
9AE7
330
9A12
100
AcDbEntity
  8
1
  6
Continuous
100
AcDbLine
 10
159.341181
 20
212.676964
 30
0.0
 11
163.798181
 21
211.548964
 31
0.0
  0
LINE
  5
9AE8
330
9A12
100
AcDbEntity
  8
1
  6
Continuous
100
AcDbLine
 10
39.364181
 20
212.706964
 30
0.0
 11
43.864181
 21
212.706964
 31
0.0
  0
LINE
  5
9AE9
330
9A12
100
AcDbEntity
  8
1
  6
Continuous
100
AcDbLine
 10
39.364181
 20
179.056964
 30
0.0
 11
43.864181
 21
179.056964
 31
0.0
  0
LINE
  5
9AEA
330
9A12
100
AcDbEntity
  8
1
  6
Continuous
100
AcDbLine
 10
45.164081
 20
153.9589639999999
 30
0.0
 11
47.380781
 21
153.9589639999999
 31
0.0
  0
LINE
  5
9AEB
330
9A12
100
AcDbEntity
  8
1
  6
Continuous
100
AcDbLine
 10
45.164081
 20
153.1909639999998
 30
0.0
 11
47.380781
 21
153.1909639999998
 31
0.0
  0
LINE
  5
9AEC
330
9A12
100
AcDbEntity
  8
1
  6
Continuous
100
AcDbLine
 10
40.664081
 20
175.163964
 30
0.0
 11
45.364181
 21
175.163964
 31
0.0
  0
LINE
  5
9AED
330
9A12
100
AcDbEntity
  8
1
  6
Continuous
100
AcDbLine
 10
53.66408100000001
 20
158.421964
 30
0.0
 11
53.66408100000001
 21
152.9349639999998
 31
0.0
  0
LINE
  5
9AEE
330
9A12
100
AcDbEntity
  8
1
  6
Continuous
100
AcDbLine
 10
40.664081
 20
175.163964
 30
0.0
 11
40.664081
 21
157.6289639999999
 31
0.0
  0
LINE
  5
9AEF
330
9A12
100
AcDbEntity
  8
1
  6
Continuous
100
AcDbLine
 10
45.164081
 20
175.163964
 30
0.0
 11
45.164081
 21
157.6289639999999
 31
0.0
  0
LINE
  5
9AF0
330
9A12
100
AcDbEntity
  8
1
  6
Continuous
100
AcDbLine
 10
50.164081
 20
153.1909639999998
 30
0.0
 11
53.664181
 21
152.9349639999998
 31
0.0
  0
LINE
  5
9AF1
330
9A12
100
AcDbEntity
  8
4
  6
CENTER
100
AcDbLine
 10
56.14198100000001
 20
137.0489639999999
 30
0.0
 11
56.14198100000001
 21
127.0489639999997
 31
0.0
  0
LINE
  5
9AF2
330
9A12
100
AcDbEntity
  8
4
  6
CENTER
100
AcDbLine
 10
51.141981
 20
132.0489639999999
 30
0.0
 11
61.14198100000001
 21
132.0489639999999
 31
0.0
  0
LINE
  5
9AF3
330
9A12
100
AcDbEntity
  8
1
  6
Continuous
100
AcDbLine
 10
45.164081
 20
158.421964
 30
0.0
 11
47.380781
 21
158.421964
 31
0.0
  0
LINE
  5
9AF4
330
9A12
100
AcDbEntity
  8
1
  6
Continuous
100
AcDbLine
 10
48.880781
 20
153.9589639999999
 30
0.0
 11
53.66408100000001
 21
153.9589639999999
 31
0.0
  0
LINE
  5
9AF5
330
9A12
100
AcDbEntity
  8
1
  6
Continuous
100
AcDbLine
 10
45.364181
 20
177.163964
 30
0.0
 11
45.364181
 21
158.421964
 31
0.0
  0
LINE
  5
9AF6
330
9A12
100
AcDbEntity
  8
1
  6
Continuous
100
AcDbLine
 10
47.364181
 20
177.163964
 30
0.0
 11
47.364181
 21
158.421964
 31
0.0
  0
LINE
  5
9AF7
330
9A12
100
AcDbEntity
  8
1
  6
Continuous
100
AcDbLine
 10
47.364181
 20
173.163964
 30
0.0
 11
45.364181
 21
173.163964
 31
0.0
  0
LINE
  5
9AF8
330
9A12
100
AcDbEntity
  8
1
  6
Continuous
100
AcDbLine
 10
55.364181
 20
180.1639639999999
 30
0.0
 11
48.364181
 21
180.1639639999999
 31
0.0
  0
LINE
  5
9AF9
330
9A12
100
AcDbEntity
  8
1
  6
Continuous
100
AcDbLine
 10
55.364181
 20
178.1639639999999
 30
0.0
 11
48.364181
 21
178.1639639999999
 31
0.0
  0
LINE
  5
9AFA
330
9A12
100
AcDbEntity
  8
1
  6
Continuous
100
AcDbLine
 10
56.364181
 20
204.0869639999999
 30
0.0
 11
56.364181
 21
181.1639639999999
 31
0.0
  0
LINE
  5
9AFB
330
9A12
100
AcDbEntity
  8
1
  6
Continuous
100
AcDbLine
 10
58.364181
 20
185.3619639999998
 30
0.0
 11
58.364181
 21
181.1639639999999
 31
0.0
  0
LINE
  5
9AFC
330
9A12
100
AcDbEntity
  8
1
  6
Continuous
100
AcDbLine
 10
48.864181
 20
232.1639639999999
 30
0.0
 11
58.69658100000001
 21
231.028964
 31
0.0
  0
LINE
  5
9AFD
330
9A12
100
AcDbEntity
  8
1
  6
Continuous
100
AcDbLine
 10
63.51478100000001
 20
185.3619639999998
 30
0.0
 11
58.364181
 21
185.3619639999998
 31
0.0
  0
LINE
  5
9AFE
330
9A12
100
AcDbEntity
  8
1
  6
Continuous
100
AcDbLine
 10
62.213981
 20
227.4939639999999
 30
0.0
 11
66.49668100000001
 21
188.6909639999998
 31
0.0
  0
LINE
  5
9AFF
330
9A12
100
AcDbEntity
  8
1
  6
Continuous
100
AcDbLine
 10
49.317681
 20
215.3809639999999
 30
0.0
 11
48.864181
 21
232.1639639999999
 31
0.0
  0
LINE
  5
9B00
330
9A12
100
AcDbEntity
  8
1
  6
Continuous
100
AcDbLine
 10
50.456281
 20
212.3369639999999
 30
0.0
 11
55.679881
 21
205.9939639999998
 31
0.0
  0
LINE
  5
9B01
330
9A12
100
AcDbEntity
  8
1
  6
Continuous
100
AcDbLine
 10
64.25428100000001
 20
209.0079639999999
 30
0.0
 11
73.578281
 21
198.6479639999997
 31
0.0
  0
LINE
  5
9B02
330
9A12
100
AcDbEntity
  8
1
  6
Continuous
100
AcDbLine
 10
56.770381
 20
178.5139639999999
 30
0.0
 11
71.528981
 21
174.3649639999999
 31
0.0
  0
LINE
  5
9B03
330
9A12
100
AcDbEntity
  8
4
  6
CENTER
100
AcDbLine
 10
69.364181
 20
176.6639639999999
 30
0.0
 11
69.364181
 21
156.6639639999999
 31
0.0
  0
LINE
  5
9B04
330
9A12
100
AcDbEntity
  8
4
  6
CENTER
100
AcDbLine
 10
59.364181
 20
166.6639639999999
 30
0.0
 11
79.364181
 21
166.6639639999999
 31
0.0
  0
LINE
  5
9B05
330
9A12
100
AcDbEntity
  8
1
  6
Continuous
100
AcDbLine
 10
36.664181
 20
213.9639639999999
 30
0.0
 11
38.13188099999999
 21
212.4959639999999
 31
0.0
  0
LINE
  5
9B06
330
9A12
100
AcDbEntity
  8
1
  6
Continuous
100
AcDbLine
 10
43.364181
 20
210.163964
 30
0.0
 11
38.864181
 21
210.163964
 31
0.0
  0
LINE
  5
9B07
330
9A12
100
AcDbEntity
  8
1
  6
Continuous
100
AcDbLine
 10
43.364181
 20
201.1639639999999
 30
0.0
 11
38.864181
 21
201.1639639999999
 31
0.0
  0
LINE
  5
9B08
330
9A12
100
AcDbEntity
  8
1
  6
Continuous
100
AcDbLine
 10
43.364181
 20
210.163964
 30
0.0
 11
43.364181
 21
201.1639639999999
 31
0.0
  0
LINE
  5
9B09
330
9A12
100
AcDbEntity
  8
1
  6
Continuous
100
AcDbLine
 10
45.66418099999999
 20
209.5479639999997
 30
0.0
 11
45.66418099999999
 21
201.778964
 31
0.0
  0
LINE
  5
9B0A
330
9A12
100
AcDbEntity
  8
1
  6
Continuous
100
AcDbLine
 10
47.164181
 20
209.5479639999997
 30
0.0
 11
47.164181
 21
201.778964
 31
0.0
  0
LINE
  5
9B0B
330
9A12
100
AcDbEntity
  8
1
  6
Continuous
100
AcDbLine
 10
45.66418099999999
 20
208.663964
 30
0.0
 11
44.87658099999999
 21
208.663964
 31
0.0
  0
LINE
  5
9B0C
330
9A12
100
AcDbEntity
  8
1
  6
Continuous
100
AcDbLine
 10
45.66418099999999
 20
202.6639639999999
 30
0.0
 11
45.207481
 21
202.6639639999999
 31
0.0
  0
LINE
  5
9B0D
330
9A12
100
AcDbEntity
  8
1
  6
Continuous
100
AcDbLine
 10
43.864181
 20
201.1639639999999
 30
0.0
 11
43.864181
 21
175.163964
 31
0.0
  0
LINE
  5
9B0E
330
9A12
100
AcDbEntity
  8
1
  6
Continuous
100
AcDbLine
 10
134.130181
 20
201.7379639999997
 30
0.0
 11
140.821181
 21
199.9709639999999
 31
0.0
  0
LINE
  5
9B0F
330
9A12
100
AcDbEntity
  8
1
  6
Continuous
100
AcDbLine
 10
132.0871809999998
 20
200.828964
 30
0.0
 11
140.6831809999999
 21
198.558964
 31
0.0
  0
LINE
  5
9B10
330
9A12
100
AcDbEntity
  8
1
  6
Continuous
100
AcDbLine
 10
134.6411809999999
 20
210.497964
 30
0.0
 11
134.3851809999998
 21
209.5309639999999
 31
0.0
  0
LINE
  5
9B11
330
9A12
100
AcDbEntity
  8
4
  6
CENTER
100
AcDbLine
 10
139.8641809999997
 20
205.6639639999999
 30
0.0
 11
126.864181
 21
205.6639639999999
 31
0.0
  0
LINE
  5
9B12
330
9A12
100
AcDbEntity
  8
4
  6
CENTER
100
AcDbLine
 10
133.364181
 20
212.163964
 30
0.0
 11
133.364181
 21
199.1639639999999
 31
0.0
  0
LINE
  5
9B13
330
9A12
100
AcDbEntity
  8
1
  6
Continuous
100
AcDbLine
 10
140.364181
 20
232.1639639999999
 30
0.0
 11
136.364181
 21
232.1639639999999
 31
0.0
  0
LINE
  5
9B14
330
9A12
100
AcDbEntity
  8
1
  6
Continuous
100
AcDbLine
 10
155.364181
 20
188.0209639999999
 30
0.0
 11
155.364181
 21
177.790964
 31
0.0
  0
LINE
  5
9B15
330
9A12
100
AcDbEntity
  8
1
  6
Continuous
100
AcDbLine
 10
130.864181
 20
181.8399639999999
 30
0.0
 11
130.864181
 21
177.8759639999999
 31
0.0
  0
LINE
  5
9B16
330
9A12
100
AcDbEntity
  8
1
  6
Continuous
100
AcDbLine
 10
136.364181
 20
232.1639639999999
 30
0.0
 11
140.723181
 21
201.6469639999999
 31
0.0
  0
LINE
  5
9B17
330
9A12
100
AcDbEntity
  8
1
  6
Continuous
100
AcDbLine
 10
138.4171809999999
 20
193.724964
 30
0.0
 11
132.364181
 21
186.6639639999999
 31
0.0
  0
LINE
  5
9B18
330
9A12
100
AcDbEntity
  8
1
  6
Continuous
100
AcDbLine
 10
132.364181
 20
186.6639639999999
 30
0.0
 11
133.882181
 21
185.3619639999998
 31
0.0
  0
LINE
  5
9B19
330
9A12
100
AcDbEntity
  8
1
  6
Continuous
100
AcDbLine
 10
143.929181
 20
221.211964
 30
0.0
 11
145.383181
 21
211.0319639999999
 31
0.0
  0
LINE
  5
9B1A
330
9A12
100
AcDbEntity
  8
1
  6
Continuous
100
AcDbLine
 10
154.547181
 20
157.4539639999999
 30
0.0
 11
143.003181
 21
158.900964
 31
0.0
  0
LINE
  5
9B1B
330
9A12
100
AcDbEntity
  8
5
  6
PHANTOM
100
AcDbLine
 10
179.006181
 20
180.8499639999998
 30
0.0
 11
165.310181
 21
185.252964
 31
0.0
  0
LINE
  5
9B1C
330
9A12
100
AcDbEntity
  8
5
  6
PHANTOM
100
AcDbLine
 10
175.739181
 20
192.403964
 30
0.0
 11
163.6711809999999
 21
196.283964
 31
0.0
  0
LINE
  5
9B1D
330
9A12
100
AcDbEntity
  8
5
  6
PHANTOM
100
AcDbLine
 10
179.196181
 20
187.9909639999999
 30
0.0
 11
179.657181
 21
181.3599639999999
 31
0.0
  0
LINE
  5
9B1E
330
9A12
100
AcDbEntity
  8
1
  6
Continuous
100
AcDbLine
 10
138.384181
 20
232.1639639999999
 30
0.0
 11
142.703181
 21
201.9299639999999
 31
0.0
  0
LINE
  5
9B1F
330
9A12
100
AcDbEntity
  8
1
  6
Continuous
100
AcDbLine
 10
139.9351809999997
 20
192.4229639999999
 30
0.0
 11
133.882181
 21
185.3619639999998
 31
0.0
  0
LINE
  5
9B20
330
9A12
100
AcDbEntity
  8
1
  6
Continuous
100
AcDbLine
 10
133.882181
 20
185.3619639999998
 30
0.0
 11
130.864181
 21
181.8399639999999
 31
0.0
  0
LINE
  5
9B21
330
9A12
100
AcDbEntity
  8
1
  6
Continuous
100
AcDbLine
 10
155.364181
 20
178.1639639999999
 30
0.0
 11
130.864181
 21
178.1639639999999
 31
0.0
  0
LINE
  5
9B22
330
9A12
100
AcDbEntity
  8
1
  6
Continuous
100
AcDbLine
 10
141.404181
 20
159.1009639999998
 30
0.0
 11
134.549181
 21
159.9599639999999
 31
0.0
  0
LINE
  5
9B23
330
9A12
100
AcDbEntity
  8
1
  6
Continuous
100
AcDbLine
 10
170.621181
 20
201.0209639999999
 30
0.0
 11
171.064181
 21
199.9139639999999
 31
0.0
  0
LINE
  5
9B24
330
9A12
100
AcDbEntity
  8
3
  6
DASHED
100
AcDbLine
 10
172.6251809999999
 20
194.1639639999999
 30
0.0
 11
171.064181
 21
194.1639639999999
 31
0.0
  0
LINE
  5
9B25
330
9A12
100
AcDbEntity
  8
1
  6
Continuous
100
AcDbLine
 10
143.2801809999999
 20
157.8169639999998
 30
0.0
 11
144.7371809999999
 21
157.6289639999999
 31
0.0
  0
LINE
  5
9B26
330
9A12
100
AcDbEntity
  8
1
  6
Continuous
100
AcDbLine
 10
54.864181
 20
194.1639639999999
 30
0.0
 11
54.864181
 21
187.1639639999999
 31
0.0
  0
LINE
  5
9B27
330
9A12
100
AcDbEntity
  8
1
  6
Continuous
100
AcDbLine
 10
54.864181
 20
194.1639639999999
 30
0.0
 11
52.68688100000001
 21
194.1639639999999
 31
0.0
  0
LINE
  5
9B28
330
9A12
100
AcDbEntity
  8
1
  6
Continuous
100
AcDbLine
 10
54.864181
 20
187.1639639999999
 30
0.0
 11
53.072881
 21
187.1639639999999
 31
0.0
  0
LINE
  5
9B29
330
9A12
100
AcDbEntity
  8
1
  6
Continuous
100
AcDbLine
 10
44.191381
 20
195.6639639999999
 30
0.0
 11
43.864181
 21
195.6639639999999
 31
0.0
  0
LINE
  5
9B2A
330
9A12
100
AcDbEntity
  8
1
  6
Continuous
100
AcDbLine
 10
44.742781
 20
185.663964
 30
0.0
 11
43.864181
 21
185.663964
 31
0.0
  0
LINE
  5
9B2B
330
9A12
100
AcDbEntity
  8
1
  6
Continuous
100
AcDbLine
 10
167.064181
 20
172.9589639999999
 30
0.0
 11
160.490181
 21
172.7929639999999
 31
0.0
  0
LINE
  5
9B2C
330
9A12
100
AcDbEntity
  8
1
  6
Continuous
100
AcDbLine
 10
43.404881
 20
209.924964
 30
0.0
 11
44.827681
 21
184.1249639999998
 31
0.0
  0
LINE
  5
9B2D
330
9A12
100
AcDbEntity
  8
1
  6
Continuous
100
AcDbLine
 10
44.802781
 20
210.0019639999999
 30
0.0
 11
46.225581
 21
184.201964
 31
0.0
  0
LINE
  5
9B2E
330
9A12
100
AcDbEntity
  8
1
  6
Continuous
100
AcDbLine
 10
52.519281
 20
197.201964
 30
0.0
 11
53.23188100000001
 21
184.278964
 31
0.0
  0
LINE
  5
9B2F
330
9A12
100
AcDbEntity
  8
1
  6
Continuous
100
AcDbLine
 10
46.910781
 20
197.201964
 30
0.0
 11
47.623381
 21
184.278964
 31
0.0
  0
LINE
  5
9B30
330
9A12
100
AcDbEntity
  8
1
  6
Continuous
100
AcDbLine
 10
48.312881
 20
197.201964
 30
0.0
 11
49.025581
 21
184.278964
 31
0.0
  0
LINE
  5
9B31
330
9A12
100
AcDbEntity
  8
1
  6
Continuous
100
AcDbLine
 10
49.714981
 20
197.201964
 30
0.0
 11
50.42768099999999
 21
184.278964
 31
0.0
  0
LINE
  5
9B32
330
9A12
100
AcDbEntity
  8
1
  6
Continuous
100
AcDbLine
 10
51.117181
 20
197.201964
 30
0.0
 11
51.82978099999999
 21
184.278964
 31
0.0
  0
LINE
  5
9B33
330
9A12
100
AcDbEntity
  8
1
  6
Continuous
100
AcDbLine
 10
43.805281
 20
202.6639639999999
 30
0.0
 11
43.364181
 21
202.6639639999999
 31
0.0
  0
LINE
  5
9B34
330
9A12
100
AcDbEntity
  8
1
  6
Continuous
100
AcDbLine
 10
43.474481
 20
208.663964
 30
0.0
 11
43.364181
 21
208.663964
 31
0.0
  0
LINE
  5
9B35
330
9A12
100
AcDbEntity
  8
1
  6
Continuous
100
AcDbLine
 10
290.064181
 20
210.663964
 30
0.0
 11
271.3641809999999
 21
210.663964
 31
0.0
  0
LINE
  5
9B36
330
9A12
100
AcDbEntity
  8
1
  6
Continuous
100
AcDbLine
 10
292.3641809999999
 20
208.3639639999999
 30
0.0
 11
292.3641809999999
 21
152.9639639999998
 31
0.0
  0
LINE
  5
9B37
330
9A12
100
AcDbEntity
  8
1
  6
Continuous
100
AcDbLine
 10
290.064181
 20
150.6639639999999
 30
0.0
 11
271.3641809999999
 21
150.6639639999999
 31
0.0
  0
LINE
  5
9B38
330
9A12
100
AcDbEntity
  8
1
  6
Continuous
100
AcDbLine
 10
292.3641809999999
 20
157.6639639999999
 30
0.0
 11
271.3641809999999
 21
157.6639639999999
 31
0.0
  0
LINE
  5
9B39
330
9A12
100
AcDbEntity
  8
1
  6
Continuous
100
AcDbLine
 10
292.3641809999999
 20
162.663964
 30
0.0
 11
290.064181
 21
162.663964
 31
0.0
  0
LINE
  5
9B3A
330
9A12
100
AcDbEntity
  8
1
  6
Continuous
100
AcDbLine
 10
290.064181
 20
202.6909639999999
 30
0.0
 11
290.064181
 21
157.6639639999999
 31
0.0
  0
LINE
  5
9B3B
330
9A12
100
AcDbEntity
  8
1
  6
Continuous
100
AcDbLine
 10
271.3641809999999
 20
204.6639639999999
 30
0.0
 11
290.064181
 21
204.6639639999999
 31
0.0
  0
LINE
  5
9B3C
330
9A12
100
AcDbEntity
  8
1
  6
Continuous
100
AcDbLine
 10
271.3641809999999
 20
202.6909639999999
 30
0.0
 11
290.064181
 21
202.6909639999999
 31
0.0
  0
LINE
  5
9B3D
330
9A12
100
AcDbEntity
  8
1
  6
Continuous
100
AcDbLine
 10
290.064181
 20
200.190964
 30
0.0
 11
292.3641809999999
 21
200.190964
 31
0.0
  0
LINE
  5
9B3E
330
9A12
100
AcDbEntity
  8
1
  6
Continuous
100
AcDbLine
 10
260.564181
 20
166.7439639999997
 30
0.0
 11
265.064181
 21
166.7439639999997
 31
0.0
  0
LINE
  5
9B3F
330
9A12
100
AcDbEntity
  8
1
  6
Continuous
100
AcDbLine
 10
260.564181
 20
172.6639639999999
 30
0.0
 11
260.564181
 21
156.4169639999998
 31
0.0
  0
LINE
  5
9B40
330
9A12
100
AcDbEntity
  8
1
  6
Continuous
100
AcDbLine
 10
258.3641809999999
 20
157.1639639999999
 30
0.0
 11
260.3641809999999
 21
157.1639639999999
 31
0.0
  0
LINE
  5
9B41
330
9A12
100
AcDbEntity
  8
1
  6
Continuous
100
AcDbLine
 10
258.3641809999999
 20
167.1639639999999
 30
0.0
 11
260.3641809999999
 21
167.1639639999999
 31
0.0
  0
LINE
  5
9B42
330
9A12
100
AcDbEntity
  8
1
  6
Continuous
100
AcDbLine
 10
243.864181
 20
194.1639639999999
 30
0.0
 11
245.864181
 21
194.1639639999999
 31
0.0
  0
LINE
  5
9B43
330
9A12
100
AcDbEntity
  8
1
  6
Continuous
100
AcDbLine
 10
260.564181
 20
156.4169639999998
 30
0.0
 11
265.064181
 21
156.4169639999998
 31
0.0
  0
LINE
  5
9B44
330
9A12
100
AcDbEntity
  8
1
  6
Continuous
100
AcDbLine
 10
340.8641809999999
 20
150.6639639999999
 30
0.0
 11
378.8641809999999
 21
150.6639639999999
 31
0.0
  0
LINE
  5
9B45
330
9A12
100
AcDbEntity
  8
1
  6
Continuous
100
AcDbLine
 10
340.8641809999999
 20
157.6639639999999
 30
0.0
 11
340.8641809999999
 21
150.6639639999999
 31
0.0
  0
LINE
  5
9B46
330
9A12
100
AcDbEntity
  8
1
  6
Continuous
100
AcDbLine
 10
378.8641809999999
 20
190.6639639999999
 30
0.0
 11
378.8641809999999
 21
150.6639639999999
 31
0.0
  0
LINE
  5
9B47
330
9A12
100
AcDbEntity
  8
1
  6
Continuous
100
AcDbLine
 10
340.8641809999999
 20
157.6639639999999
 30
0.0
 11
343.1641809999999
 21
157.6639639999999
 31
0.0
  0
LINE
  5
9B48
330
9A12
100
AcDbEntity
  8
1
  6
Continuous
100
AcDbLine
 10
348.8641809999998
 20
162.663964
 30
0.0
 11
343.1641809999999
 21
157.6639639999999
 31
0.0
  0
LINE
  5
9B49
330
9A12
100
AcDbEntity
  8
1
  6
Continuous
100
AcDbLine
 10
348.8641809999998
 20
162.663964
 30
0.0
 11
362.228181
 21
164.2139639999998
 31
0.0
  0
LINE
  5
9B4A
330
9A12
100
AcDbEntity
  8
1
  6
Continuous
100
AcDbLine
 10
345.288181
 20
181.0779639999998
 30
0.0
 11
362.228181
 21
179.1139639999999
 31
0.0
  0
LINE
  5
9B4B
330
9A12
100
AcDbEntity
  8
1
  6
Continuous
100
AcDbLine
 10
346.8641809999998
 20
204.6639639999999
 30
0.0
 11
358.8641809999999
 21
210.663964
 31
0.0
  0
LINE
  5
9B4C
330
9A12
100
AcDbEntity
  8
1
  6
Continuous
100
AcDbLine
 10
346.8641809999998
 20
204.6639639999999
 30
0.0
 11
349.100181
 21
200.190964
 31
0.0
  0
LINE
  5
9B4D
330
9A12
100
AcDbEntity
  8
5
  6
PHANTOM
100
AcDbLine
 10
365.220181
 20
178.1899639999998
 30
0.0
 11
343.390181
 21
167.0669639999998
 31
0.0
  0
LINE
  5
9B4E
330
9A12
100
AcDbEntity
  8
5
  6
PHANTOM
100
AcDbLine
 10
331.833181
 20
182.200964
 30
0.0
 11
327.834181
 21
183.2669639999997
 31
0.0
  0
LINE
  5
9B4F
330
9A12
100
AcDbEntity
  8
5
  6
PHANTOM
100
AcDbLine
 10
333.855181
 20
182.8189639999999
 30
0.0
 11
336.963181
 21
186.378964
 31
0.0
  0
LINE
  5
9B50
330
9A12
100
AcDbEntity
  8
5
  6
PHANTOM
100
AcDbLine
 10
342.416181
 20
172.5539639999998
 30
0.0
 11
346.9071809999999
 21
177.6969639999999
 31
0.0
  0
LINE
  5
9B51
330
9A12
100
AcDbEntity
  8
1
  6
Continuous
100
AcDbLine
 10
290.064181
 20
194.6639639999999
 30
0.0
 11
289.3641809999999
 21
194.6639639999999
 31
0.0
  0
LINE
  5
9B52
330
9A12
100
AcDbEntity
  8
1
  6
Continuous
100
AcDbLine
 10
290.064181
 20
186.6639639999999
 30
0.0
 11
289.3641809999999
 21
186.6639639999999
 31
0.0
  0
LINE
  5
9B53
330
9A12
100
AcDbEntity
  8
1
  6
Continuous
100
AcDbLine
 10
289.3641809999999
 20
202.6909639999999
 30
0.0
 11
289.3641809999999
 21
158.9939639999998
 31
0.0
  0
LINE
  5
9B54
330
9A12
100
AcDbEntity
  8
1
  6
Continuous
100
AcDbLine
 10
284.8641809999999
 20
202.6909639999999
 30
0.0
 11
284.8641809999999
 21
158.9939639999998
 31
0.0
  0
LINE
  5
9B55
330
9A12
100
AcDbEntity
  8
1
  6
Continuous
100
AcDbLine
 10
271.3641809999999
 20
198.6639639999999
 30
0.0
 11
284.8641809999999
 21
198.6639639999999
 31
0.0
  0
LINE
  5
9B56
330
9A12
100
AcDbEntity
  8
1
  6
Continuous
100
AcDbLine
 10
271.3641809999999
 20
182.6639639999999
 30
0.0
 11
284.8641809999999
 21
182.6639639999999
 31
0.0
  0
LINE
  5
9B57
330
9A12
100
AcDbEntity
  8
1
  6
Continuous
100
AcDbLine
 10
284.8641809999999
 20
158.9939639999998
 30
0.0
 11
289.3641809999999
 21
158.9939639999998
 31
0.0
  0
LINE
  5
9B58
330
9A12
100
AcDbEntity
  8
1
  6
Continuous
100
AcDbLine
 10
289.8641809999999
 20
194.6639639999999
 30
0.0
 11
289.8641809999999
 21
186.6639639999999
 31
0.0
  0
LINE
  5
9B59
330
9A12
100
AcDbEntity
  8
1
  6
Continuous
100
AcDbLine
 10
272.3641809999999
 20
182.6639639999999
 30
0.0
 11
272.3641809999999
 21
166.6639639999999
 31
0.0
  0
LINE
  5
9B5A
330
9A12
100
AcDbEntity
  8
1
  6
Continuous
100
AcDbLine
 10
283.3641809999999
 20
182.6639639999999
 30
0.0
 11
283.3641809999999
 21
166.6639639999999
 31
0.0
  0
LINE
  5
9B5B
330
9A12
100
AcDbEntity
  8
1
  6
Continuous
100
AcDbLine
 10
272.3641809999999
 20
166.6639639999999
 30
0.0
 11
284.8641809999999
 21
166.6639639999999
 31
0.0
  0
LINE
  5
9B5C
330
9A12
100
AcDbEntity
  8
1
  6
Continuous
100
AcDbLine
 10
165.5961809999998
 20
165.283964
 30
0.0
 11
158.574181
 21
158.7539639999999
 31
0.0
  0
LINE
  5
9B5D
330
9A12
100
AcDbEntity
  8
1
  6
Continuous
100
AcDbLine
 10
354.500181
 20
164.818964
 30
0.0
 11
352.7391809999999
 21
169.2039639999999
 31
0.0
  0
LINE
  5
9B5E
330
9A12
100
AcDbEntity
  8
1
  6
Continuous
100
AcDbLine
 10
367.631181
 20
167.5429639999999
 30
0.0
 11
364.9891809999999
 21
174.122964
 31
0.0
  0
LINE
  5
9B5F
330
9A12
100
AcDbEntity
  8
1
  6
Continuous
100
AcDbLine
 10
153.3021809999999
 20
204.163964
 30
0.0
 11
165.979181
 21
204.163964
 31
0.0
  0
LINE
  5
9B60
330
9A12
100
AcDbEntity
  8
1
  6
Continuous
100
AcDbLine
 10
123.864181
 20
310.7369639999999
 30
0.0
 11
173.0641809999999
 21
310.7369639999999
 31
0.0
  0
LINE
  5
9B61
330
9A12
100
AcDbEntity
  8
1
  6
Continuous
100
AcDbLine
 10
175.3641809999997
 20
308.4369639999998
 30
0.0
 11
175.3641809999997
 21
265.736964
 31
0.0
  0
LINE
  5
9B62
330
9A12
100
AcDbEntity
  8
1
  6
Continuous
100
AcDbLine
 10
173.0641809999999
 20
308.4369639999998
 30
0.0
 11
173.0641809999999
 21
265.736964
 31
0.0
  0
LINE
  5
9B63
330
9A12
100
AcDbEntity
  8
1
  6
Continuous
100
AcDbLine
 10
123.864181
 20
308.4369639999998
 30
0.0
 11
173.0641809999999
 21
308.4369639999998
 31
0.0
  0
LINE
  5
9B64
330
9A12
100
AcDbEntity
  8
1
  6
Continuous
100
AcDbLine
 10
123.864181
 20
310.7369639999999
 30
0.0
 11
123.864181
 21
308.4369639999998
 31
0.0
  0
LINE
  5
9B65
330
9A12
100
AcDbEntity
  8
1
  6
Continuous
100
AcDbLine
 10
170.864181
 20
265.736964
 30
0.0
 11
175.3641809999997
 21
265.736964
 31
0.0
  0
LINE
  5
9B66
330
9A12
100
AcDbEntity
  8
1
  6
Continuous
100
AcDbLine
 10
132.164181
 20
331.7369639999999
 30
0.0
 11
166.017181
 21
331.7369639999999
 31
0.0
  0
LINE
  5
9B67
330
9A12
100
AcDbEntity
  8
1
  6
Continuous
100
AcDbLine
 10
129.864181
 20
329.4369639999998
 30
0.0
 11
129.864181
 21
310.7369639999999
 31
0.0
  0
LINE
  5
9B68
330
9A12
100
AcDbEntity
  8
1
  6
Continuous
100
AcDbLine
 10
167.864181
 20
329.4369639999998
 30
0.0
 11
167.864181
 21
310.7369639999999
 31
0.0
  0
LINE
  5
9B69
330
9A12
100
AcDbEntity
  8
1
  6
Continuous
100
AcDbLine
 10
165.5641809999998
 20
329.4369639999998
 30
0.0
 11
165.5641809999998
 21
328.736964
 31
0.0
  0
LINE
  5
9B6A
330
9A12
100
AcDbEntity
  8
4
  6
CENTER
100
AcDbLine
 10
147.864181
 20
337.8789639999999
 30
0.0
 11
147.864181
 21
283.1369639999999
 31
0.0
  0
LINE
  5
9B6B
330
9A12
100
AcDbEntity
  8
1
  6
Continuous
100
AcDbLine
 10
159.864181
 20
329.4369639999998
 30
0.0
 11
166.017181
 21
329.4369639999998
 31
0.0
  0
LINE
  5
9B6C
330
9A12
100
AcDbEntity
  8
1
  6
Continuous
100
AcDbLine
 10
159.864181
 20
331.7369639999999
 30
0.0
 11
159.864181
 21
310.7369639999999
 31
0.0
  0
LINE
  5
9B6D
330
9A12
100
AcDbEntity
  8
1
  6
Continuous
100
AcDbLine
 10
147.864181
 20
331.363964
 30
0.0
 11
147.864181
 21
310.7369639999999
 31
0.0
  0
LINE
  5
9B6E
330
9A12
100
AcDbEntity
  8
1
  6
Continuous
100
AcDbLine
 10
166.017181
 20
329.4369639999998
 30
0.0
 11
166.017181
 21
331.7369639999999
 31
0.0
  0
LINE
  5
9B6F
330
9A12
100
AcDbEntity
  8
1
  6
Continuous
100
AcDbLine
 10
166.943181
 20
324.236964
 30
0.0
 11
166.943181
 21
328.736964
 31
0.0
  0
LINE
  5
9B70
330
9A12
100
AcDbEntity
  8
1
  6
Continuous
100
AcDbLine
 10
159.864181
 20
328.736964
 30
0.0
 11
166.943181
 21
328.736964
 31
0.0
  0
LINE
  5
9B71
330
9A12
100
AcDbEntity
  8
1
  6
Continuous
100
AcDbLine
 10
159.864181
 20
324.236964
 30
0.0
 11
166.943181
 21
324.236964
 31
0.0
  0
LINE
  5
9B72
330
9A12
100
AcDbEntity
  8
1
  6
Continuous
100
AcDbLine
 10
165.5641809999998
 20
324.236964
 30
0.0
 11
165.5641809999998
 21
310.7369639999999
 31
0.0
  0
LINE
  5
9B73
330
9A12
100
AcDbEntity
  8
1
  6
Continuous
100
AcDbLine
 10
130.864181
 20
297.736964
 30
0.0
 11
126.3641809999999
 21
297.736964
 31
0.0
  0
LINE
  5
9B74
330
9A12
100
AcDbEntity
  8
1
  6
Continuous
100
AcDbLine
 10
132.364181
 20
286.536964
 30
0.0
 11
128.3641809999997
 21
286.536964
 31
0.0
  0
LINE
  5
9B75
330
9A12
100
AcDbEntity
  8
1
  6
Continuous
100
AcDbLine
 10
128.3641809999997
 20
286.536964
 30
0.0
 11
128.3641809999997
 21
288.0369639999999
 31
0.0
  0
LINE
  5
9B76
330
9A12
100
AcDbEntity
  8
1
  6
Continuous
100
AcDbLine
 10
129.364181
 20
297.736964
 30
0.0
 11
129.364181
 21
299.1369639999998
 31
0.0
  0
LINE
  5
9B77
330
9A12
100
AcDbEntity
  8
1
  6
Continuous
100
AcDbLine
 10
130.864181
 20
288.0369639999999
 30
0.0
 11
126.814181
 21
288.0369639999999
 31
0.0
  0
LINE
  5
9B78
330
9A12
100
AcDbEntity
  8
1
  6
Continuous
100
AcDbLine
 10
130.864181
 20
296.9539639999999
 30
0.0
 11
126.814181
 21
296.9539639999999
 31
0.0
  0
LINE
  5
9B79
330
9A12
100
AcDbEntity
  8
1
  6
Continuous
100
AcDbLine
 10
130.864181
 20
289.536964
 30
0.0
 11
126.814181
 21
289.536964
 31
0.0
  0
LINE
  5
9B7A
330
9A12
100
AcDbEntity
  8
1
  6
Continuous
100
AcDbLine
 10
130.864181
 20
291.019964
 30
0.0
 11
126.814181
 21
291.019964
 31
0.0
  0
LINE
  5
9B7B
330
9A12
100
AcDbEntity
  8
1
  6
Continuous
100
AcDbLine
 10
130.864181
 20
292.5039639999998
 30
0.0
 11
126.814181
 21
292.5039639999998
 31
0.0
  0
LINE
  5
9B7C
330
9A12
100
AcDbEntity
  8
1
  6
Continuous
100
AcDbLine
 10
130.864181
 20
293.9869639999999
 30
0.0
 11
126.814181
 21
293.9869639999999
 31
0.0
  0
LINE
  5
9B7D
330
9A12
100
AcDbEntity
  8
1
  6
Continuous
100
AcDbLine
 10
128.3641809999997
 20
296.9539639999999
 30
0.0
 11
128.3641809999997
 21
297.736964
 31
0.0
  0
LINE
  5
9B7E
330
9A12
100
AcDbEntity
  8
1
  6
Continuous
100
AcDbLine
 10
125.3641809999999
 20
304.4369639999998
 30
0.0
 11
125.3641809999999
 21
299.9369639999999
 31
0.0
  0
LINE
  5
9B7F
330
9A12
100
AcDbEntity
  8
1
  6
Continuous
100
AcDbLine
 10
165.509181
 20
305.736964
 30
0.0
 11
165.509181
 21
301.236964
 31
0.0
  0
LINE
  5
9B80
330
9A12
100
AcDbEntity
  8
1
  6
Continuous
100
AcDbLine
 10
158.1591809999999
 20
305.736964
 30
0.0
 11
158.1591809999999
 21
301.236964
 31
0.0
  0
LINE
  5
9B81
330
9A12
100
AcDbEntity
  8
1
  6
Continuous
100
AcDbLine
 10
128.864181
 20
301.736964
 30
0.0
 11
128.864181
 21
306.236964
 31
0.0
  0
LINE
  5
9B82
330
9A12
100
AcDbEntity
  8
1
  6
Continuous
100
AcDbLine
 10
137.8641809999997
 20
301.736964
 30
0.0
 11
128.864181
 21
301.736964
 31
0.0
  0
LINE
  5
9B83
330
9A12
100
AcDbEntity
  8
1
  6
Continuous
100
AcDbLine
 10
130.364181
 20
299.436964
 30
0.0
 11
130.364181
 21
300.168964
 31
0.0
  0
LINE
  5
9B84
330
9A12
100
AcDbEntity
  8
1
  6
Continuous
100
AcDbLine
 10
137.2491809999999
 20
299.436964
 30
0.0
 11
129.479181
 21
299.436964
 31
0.0
  0
LINE
  5
9B85
330
9A12
100
AcDbEntity
  8
1
  6
Continuous
100
AcDbLine
 10
137.2491809999999
 20
297.9369639999998
 30
0.0
 11
129.479181
 21
297.9369639999998
 31
0.0
  0
LINE
  5
9B86
330
9A12
100
AcDbEntity
  8
1
  6
Continuous
100
AcDbLine
 10
137.8641809999997
 20
301.736964
 30
0.0
 11
137.8641809999997
 21
306.236964
 31
0.0
  0
LINE
  5
9B87
330
9A12
100
AcDbEntity
  8
1
  6
Continuous
100
AcDbLine
 10
136.364181
 20
284.097964
 30
0.0
 11
136.364181
 21
294.2369639999999
 31
0.0
  0
LINE
  5
9B88
330
9A12
100
AcDbEntity
  8
1
  6
Continuous
100
AcDbLine
 10
145.364181
 20
293.997964
 30
0.0
 11
145.364181
 21
296.236964
 31
0.0
  0
LINE
  5
9B89
330
9A12
100
AcDbEntity
  8
1
  6
Continuous
100
AcDbLine
 10
138.384181
 20
284.097964
 30
0.0
 11
138.384181
 21
294.2299639999998
 31
0.0
  0
LINE
  5
9B8A
330
9A12
100
AcDbEntity
  8
1
  6
Continuous
100
AcDbLine
 10
145.364181
 20
296.236964
 30
0.0
 11
138.364181
 21
296.236964
 31
0.0
  0
LINE
  5
9B8B
330
9A12
100
AcDbEntity
  8
1
  6
Continuous
100
AcDbLine
 10
145.364181
 20
294.2299639999998
 30
0.0
 11
138.384181
 21
294.2299639999998
 31
0.0
  0
LINE
  5
9B8C
330
9A12
100
AcDbEntity
  8
1
  6
Continuous
100
AcDbLine
 10
168.864181
 20
299.736964
 30
0.0
 11
154.990181
 21
299.736964
 31
0.0
  0
LINE
  5
9B8D
330
9A12
100
AcDbEntity
  8
1
  6
Continuous
100
AcDbLine
 10
168.864181
 20
297.736964
 30
0.0
 11
155.364181
 21
297.736964
 31
0.0
  0
LINE
  5
9B8E
330
9A12
100
AcDbEntity
  8
1
  6
Continuous
100
AcDbLine
 10
126.3641809999999
 20
297.736964
 30
0.0
 11
126.3641809999999
 21
299.9369639999999
 31
0.0
  0
LINE
  5
9B8F
330
9A12
100
AcDbEntity
  8
4
  6
CENTER
100
AcDbLine
 10
133.364181
 20
283.4759639999999
 30
0.0
 11
133.364181
 21
313.111964
 31
0.0
  0
LINE
  5
9B90
330
9A12
100
AcDbEntity
  8
1
  6
Continuous
100
AcDbLine
 10
154.565181
 20
286.736964
 30
0.0
 11
142.824181
 21
286.736964
 31
0.0
  0
LINE
  5
9B91
330
9A12
100
AcDbEntity
  8
1
  6
Continuous
100
AcDbLine
 10
157.565181
 20
288.736964
 30
0.0
 11
152.045181
 21
288.736964
 31
0.0
  0
LINE
  5
9B92
330
9A12
100
AcDbEntity
  8
1
  6
Continuous
100
AcDbLine
 10
155.364181
 20
288.736964
 30
0.0
 11
155.364181
 21
299.736964
 31
0.0
  0
LINE
  5
9B93
330
9A12
100
AcDbEntity
  8
1
  6
Continuous
100
AcDbLine
 10
138.384181
 20
283.2369639999999
 30
0.0
 11
136.8171809999997
 21
283.2369639999999
 31
0.0
  0
LINE
  5
9B94
330
9A12
100
AcDbEntity
  8
1
  6
Continuous
100
AcDbLine
 10
142.824181
 20
279.0359639999999
 30
0.0
 11
142.824181
 21
286.736964
 31
0.0
  0
LINE
  5
9B95
330
9A12
100
AcDbEntity
  8
1
  6
Continuous
100
AcDbLine
 10
142.824181
 20
279.0359639999999
 30
0.0
 11
139.0101809999999
 21
282.644964
 31
0.0
  0
LINE
  5
9B96
330
9A12
100
AcDbEntity
  8
1
  6
Continuous
100
AcDbLine
 10
140.804181
 20
279.0359639999999
 30
0.0
 11
136.989181
 21
282.644964
 31
0.0
  0
LINE
  5
9B97
330
9A12
100
AcDbEntity
  8
1
  6
Continuous
100
AcDbLine
 10
132.364181
 20
281.7309639999999
 30
0.0
 11
132.364181
 21
288.736964
 31
0.0
  0
LINE
  5
9B98
330
9A12
100
AcDbEntity
  8
1
  6
Continuous
100
AcDbLine
 10
142.824181
 20
279.0359639999999
 30
0.0
 11
135.4881809999999
 21
278.7329639999999
 31
0.0
  0
LINE
  5
9B99
330
9A12
100
AcDbEntity
  8
1
  6
Continuous
100
AcDbLine
 10
145.364181
 20
293.997964
 30
0.0
 11
142.427181
 21
293.997964
 31
0.0
  0
LINE
  5
9B9A
330
9A12
100
AcDbEntity
  8
1
  6
Continuous
100
AcDbLine
 10
144.335181
 20
290.3679639999999
 30
0.0
 11
142.427181
 21
293.997964
 31
0.0
  0
LINE
  5
9B9B
330
9A12
100
AcDbEntity
  8
1
  6
Continuous
100
AcDbLine
 10
144.335181
 20
292.3679639999999
 30
0.0
 11
143.478181
 21
293.997964
 31
0.0
  0
LINE
  5
9B9C
330
9A12
100
AcDbEntity
  8
1
  6
Continuous
100
AcDbLine
 10
139.3691809999999
 20
292.524964
 30
0.0
 11
142.0831809999999
 21
287.8259639999999
 31
0.0
  0
LINE
  5
9B9D
330
9A12
100
AcDbEntity
  8
1
  6
Continuous
100
AcDbLine
 10
136.364181
 20
288.736964
 30
0.0
 11
130.864181
 21
288.736964
 31
0.0
  0
LINE
  5
9B9E
330
9A12
100
AcDbEntity
  8
1
  6
Continuous
100
AcDbLine
 10
132.364181
 20
286.736964
 30
0.0
 11
130.864181
 21
286.736964
 31
0.0
  0
LINE
  5
9B9F
330
9A12
100
AcDbEntity
  8
1
  6
Continuous
100
AcDbLine
 10
130.864181
 20
286.736964
 30
0.0
 11
130.864181
 21
297.9369639999998
 31
0.0
  0
LINE
  5
9BA0
330
9A12
100
AcDbEntity
  8
1
  6
Continuous
100
AcDbLine
 10
127.447181
 20
306.236964
 30
0.0
 11
160.5811809999998
 21
306.236964
 31
0.0
  0
LINE
  5
9BA1
330
9A12
100
AcDbEntity
  8
1
  6
Continuous
100
AcDbLine
 10
136.364181
 20
299.436964
 30
0.0
 11
136.364181
 21
301.736964
 31
0.0
  0
LINE
  5
9BA2
330
9A12
100
AcDbEntity
  8
1
  6
Continuous
100
AcDbLine
 10
130.864181
 20
295.469964
 30
0.0
 11
126.814181
 21
295.469964
 31
0.0
  0
LINE
  5
9BA3
330
9A12
100
AcDbEntity
  8
1
  6
Continuous
100
AcDbLine
 10
154.114181
 20
305.736964
 30
0.0
 11
154.114181
 21
306.236964
 31
0.0
  0
LINE
  5
9BA4
330
9A12
100
AcDbEntity
  8
1
  6
Continuous
100
AcDbLine
 10
141.614181
 20
305.736964
 30
0.0
 11
141.614181
 21
306.236964
 31
0.0
  0
LINE
  5
9BA5
330
9A12
100
AcDbEntity
  8
1
  6
Continuous
100
AcDbLine
 10
151.364181
 20
290.2369639999997
 30
0.0
 11
146.777181
 21
290.2369639999997
 31
0.0
  0
LINE
  5
9BA6
330
9A12
100
AcDbEntity
  8
1
  6
Continuous
100
AcDbLine
 10
151.364181
 20
290.2369639999997
 30
0.0
 11
151.364181
 21
292.9399639999999
 31
0.0
  0
LINE
  5
9BA7
330
9A12
100
AcDbEntity
  8
1
  6
Continuous
100
AcDbLine
 10
152.864181
 20
300.0329639999999
 30
0.0
 11
152.864181
 21
301.236964
 31
0.0
  0
LINE
  5
9BA8
330
9A12
100
AcDbEntity
  8
1
  6
Continuous
100
AcDbLine
 10
142.864181
 20
299.481964
 30
0.0
 11
142.864181
 21
301.236964
 31
0.0
  0
LINE
  5
9BA9
330
9A12
100
AcDbEntity
  8
1
  6
Continuous
100
AcDbLine
 10
154.329181
 20
300.113964
 30
0.0
 11
141.407181
 21
299.401964
 31
0.0
  0
LINE
  5
9BAA
330
9A12
100
AcDbEntity
  8
1
  6
Continuous
100
AcDbLine
 10
154.407181
 20
293.1079639999999
 30
0.0
 11
144.241181
 21
292.546964
 31
0.0
  0
LINE
  5
9BAB
330
9A12
100
AcDbEntity
  8
1
  6
Continuous
100
AcDbLine
 10
154.407181
 20
298.7159639999998
 30
0.0
 11
141.407181
 21
297.9989639999999
 31
0.0
  0
LINE
  5
9BAC
330
9A12
100
AcDbEntity
  8
1
  6
Continuous
100
AcDbLine
 10
154.407181
 20
297.3139639999999
 30
0.0
 11
141.407181
 21
296.596964
 31
0.0
  0
LINE
  5
9BAD
330
9A12
100
AcDbEntity
  8
1
  6
Continuous
100
AcDbLine
 10
154.407181
 20
295.911964
 30
0.0
 11
145.364181
 21
295.412964
 31
0.0
  0
LINE
  5
9BAE
330
9A12
100
AcDbEntity
  8
1
  6
Continuous
100
AcDbLine
 10
154.407181
 20
294.509964
 30
0.0
 11
143.525181
 21
293.909964
 31
0.0
  0
LINE
  5
9BAF
330
9A12
100
AcDbEntity
  8
1
  6
Continuous
100
AcDbLine
 10
136.3681809999999
 20
301.096964
 30
0.0
 11
142.864181
 21
300.7389639999999
 31
0.0
  0
LINE
  5
9BB0
330
9A12
100
AcDbEntity
  8
1
  6
Continuous
100
AcDbLine
 10
129.068181
 20
300.097964
 30
0.0
 11
130.368181
 21
300.0259639999999
 31
0.0
  0
LINE
  5
9BB1
330
9A12
100
AcDbEntity
  8
1
  6
Continuous
100
AcDbLine
 10
152.8681809999999
 20
300.1869639999998
 30
0.0
 11
154.329181
 21
300.106964
 31
0.0
  0
LINE
  5
9BB2
330
9A12
100
AcDbEntity
  8
1
  6
Continuous
100
AcDbLine
 10
130.364181
 20
299.736964
 30
0.0
 11
126.3641809999999
 21
299.736964
 31
0.0
  0
LINE
  5
9BB3
330
9A12
100
AcDbEntity
  8
1
  6
Continuous
100
AcDbLine
 10
129.107181
 20
300.0999639999997
 30
0.0
 11
133.4411809999997
 21
300.3389639999999
 31
0.0
  0
LINE
  5
9BB4
330
9A12
100
AcDbEntity
  8
1
  6
Continuous
100
AcDbLine
 10
129.029181
 20
301.497964
 30
0.0
 11
133.364181
 21
301.736964
 31
0.0
  0
LINE
  5
9BB5
330
9A12
100
AcDbEntity
  8
1
  6
Continuous
100
AcDbLine
 10
133.364181
 20
301.736964
 30
0.0
 11
133.4411809999997
 21
300.3389639999999
 31
0.0
  0
LINE
  5
9BB6
330
9A12
100
AcDbEntity
  8
1
  6
Continuous
100
AcDbLine
 10
130.364181
 20
301.570964
 30
0.0
 11
130.364181
 21
301.736964
 31
0.0
  0
LINE
  5
9BB7
330
9A12
100
AcDbEntity
  8
1
  6
Continuous
100
AcDbLine
 10
136.364181
 20
299.694964
 30
0.0
 11
141.550181
 21
299.408964
 31
0.0
  0
LINE
  5
9BB8
330
9A12
100
AcDbEntity
  8
1
  6
Continuous
100
AcDbLine
 10
124.211181
 20
308.4369639999998
 30
0.0
 11
125.6791809999999
 21
306.968964
 31
0.0
  0
LINE
  5
9BB9
330
9A12
100
AcDbEntity
  8
4
  6
CENTER
100
AcDbLine
 10
164.412181
 20
275.7369639999997
 30
0.0
 11
178.715181
 21
275.7369639999997
 31
0.0
  0
LINE
  5
9BBA
330
9A12
100
AcDbEntity
  8
1
  6
Continuous
100
AcDbLine
 10
170.864181
 20
308.4369639999998
 30
0.0
 11
170.864181
 21
265.736964
 31
0.0
  0
LINE
  5
9BBB
330
9A12
100
AcDbEntity
  8
1
  6
Continuous
100
AcDbLine
 10
171.596181
 20
288.7219639999999
 30
0.0
 11
173.0641809999999
 21
290.1899639999999
 31
0.0
  0
LINE
  5
9BBC
330
9A12
100
AcDbEntity
  8
1
  6
Continuous
100
AcDbLine
 10
171.596181
 20
296.5049639999999
 30
0.0
 11
173.0641809999999
 21
295.036964
 31
0.0
  0
LINE
  5
9BBD
330
9A12
100
AcDbEntity
  8
1
  6
Continuous
100
AcDbLine
 10
168.864181
 20
302.798964
 30
0.0
 11
168.864181
 21
267.736964
 31
0.0
  0
LINE
  5
9BBE
330
9A12
100
AcDbEntity
  8
1
  6
Continuous
100
AcDbLine
 10
166.864181
 20
282.736964
 30
0.0
 11
166.864181
 21
268.736964
 31
0.0
  0
LINE
  5
9BBF
330
9A12
100
AcDbEntity
  8
1
  6
Continuous
100
AcDbLine
 10
168.864181
 20
268.236964
 30
0.0
 11
167.364181
 21
268.236964
 31
0.0
  0
LINE
  5
9BC0
330
9A12
100
AcDbEntity
  8
1
  6
Continuous
100
AcDbLine
 10
167.364181
 20
268.236964
 30
0.0
 11
166.864181
 21
268.736964
 31
0.0
  0
LINE
  5
9BC1
330
9A12
100
AcDbEntity
  8
1
  6
Continuous
100
AcDbLine
 10
167.364181
 20
283.2369639999999
 30
0.0
 11
166.864181
 21
282.736964
 31
0.0
  0
LINE
  5
9BC2
330
9A12
100
AcDbEntity
  8
1
  6
Continuous
100
AcDbLine
 10
167.364181
 20
283.2369639999999
 30
0.0
 11
167.364181
 21
268.236964
 31
0.0
  0
LINE
  5
9BC3
330
9A12
100
AcDbEntity
  8
1
  6
Continuous
100
AcDbLine
 10
168.864181
 20
267.736964
 30
0.0
 11
170.864181
 21
267.736964
 31
0.0
  0
LINE
  5
9BC4
330
9A12
100
AcDbEntity
  8
1
  6
Continuous
100
AcDbLine
 10
168.864181
 20
302.798964
 30
0.0
 11
170.864181
 21
302.798964
 31
0.0
  0
LINE
  5
9BC5
330
9A12
100
AcDbEntity
  8
1
  6
Continuous
100
AcDbLine
 10
123.864181
 20
55.590264
 30
0.0
 11
173.0641809999999
 21
55.590264
 31
0.0
  0
LINE
  5
9BC6
330
9A12
100
AcDbEntity
  8
1
  6
Continuous
100
AcDbLine
 10
175.3641809999997
 20
57.890264
 30
0.0
 11
175.3641809999997
 21
100.5899639999999
 31
0.0
  0
LINE
  5
9BC7
330
9A12
100
AcDbEntity
  8
1
  6
Continuous
100
AcDbLine
 10
173.0641809999999
 20
57.890264
 30
0.0
 11
173.0641809999999
 21
100.5899639999999
 31
0.0
  0
LINE
  5
9BC8
330
9A12
100
AcDbEntity
  8
1
  6
Continuous
100
AcDbLine
 10
123.864181
 20
57.890264
 30
0.0
 11
173.0641809999999
 21
57.890264
 31
0.0
  0
LINE
  5
9BC9
330
9A12
100
AcDbEntity
  8
1
  6
Continuous
100
AcDbLine
 10
123.864181
 20
55.590264
 30
0.0
 11
123.864181
 21
57.890264
 31
0.0
  0
LINE
  5
9BCA
330
9A12
100
AcDbEntity
  8
1
  6
Continuous
100
AcDbLine
 10
170.864181
 20
100.5899639999999
 30
0.0
 11
175.3641809999997
 21
100.5899639999999
 31
0.0
  0
LINE
  5
9BCB
330
9A12
100
AcDbEntity
  8
1
  6
Continuous
100
AcDbLine
 10
132.164181
 20
34.59026399999999
 30
0.0
 11
165.5641809999998
 21
34.59026399999999
 31
0.0
  0
LINE
  5
9BCC
330
9A12
100
AcDbEntity
  8
1
  6
Continuous
100
AcDbLine
 10
129.864181
 20
36.890264
 30
0.0
 11
129.864181
 21
55.590264
 31
0.0
  0
LINE
  5
9BCD
330
9A12
100
AcDbEntity
  8
1
  6
Continuous
100
AcDbLine
 10
167.864181
 20
36.890264
 30
0.0
 11
167.864181
 21
55.590264
 31
0.0
  0
LINE
  5
9BCE
330
9A12
100
AcDbEntity
  8
4
  6
CENTER
100
AcDbLine
 10
147.864181
 20
28.002864
 30
0.0
 11
147.864181
 21
85.260964
 31
0.0
  0
LINE
  5
9BCF
330
9A12
100
AcDbEntity
  8
1
  6
Continuous
100
AcDbLine
 10
138.364181
 20
79.79026399999998
 30
0.0
 11
128.3641809999997
 21
79.79026399999998
 31
0.0
  0
LINE
  5
9BD0
330
9A12
100
AcDbEntity
  8
1
  6
Continuous
100
AcDbLine
 10
138.364181
 20
79.79026399999998
 30
0.0
 11
138.364181
 21
78.29026399999998
 31
0.0
  0
LINE
  5
9BD1
330
9A12
100
AcDbEntity
  8
1
  6
Continuous
100
AcDbLine
 10
128.3641809999997
 20
79.79026399999998
 30
0.0
 11
128.3641809999997
 21
78.29026399999998
 31
0.0
  0
LINE
  5
9BD2
330
9A12
100
AcDbEntity
  8
1
  6
Continuous
100
AcDbLine
 10
139.914181
 20
78.29026399999998
 30
0.0
 11
126.814181
 21
78.29026399999998
 31
0.0
  0
LINE
  5
9BD3
330
9A12
100
AcDbEntity
  8
1
  6
Continuous
100
AcDbLine
 10
140.0711809999999
 20
76.79026399999997
 30
0.0
 11
126.814181
 21
76.79026399999997
 31
0.0
  0
LINE
  5
9BD4
330
9A12
100
AcDbEntity
  8
1
  6
Continuous
100
AcDbLine
 10
140.0711809999999
 20
75.30696399999998
 30
0.0
 11
126.814181
 21
75.30696399999998
 31
0.0
  0
LINE
  5
9BD5
330
9A12
100
AcDbEntity
  8
1
  6
Continuous
100
AcDbLine
 10
140.0711809999999
 20
73.82366399999998
 30
0.0
 11
126.814181
 21
73.82366399999998
 31
0.0
  0
LINE
  5
9BD6
330
9A12
100
AcDbEntity
  8
1
  6
Continuous
100
AcDbLine
 10
128.3641809999997
 20
69.37366400000001
 30
0.0
 11
128.3641809999997
 21
68.59026400000001
 31
0.0
  0
LINE
  5
9BD7
330
9A12
100
AcDbEntity
  8
1
  6
Continuous
100
AcDbLine
 10
125.3641809999999
 20
61.890264
 30
0.0
 11
125.3641809999999
 21
66.59026400000001
 31
0.0
  0
LINE
  5
9BD8
330
9A12
100
AcDbEntity
  8
1
  6
Continuous
100
AcDbLine
 10
170.864181
 20
66.59026400000001
 30
0.0
 11
150.7901809999999
 21
66.59026400000001
 31
0.0
  0
LINE
  5
9BD9
330
9A12
100
AcDbEntity
  8
1
  6
Continuous
100
AcDbLine
 10
170.864181
 20
68.59026400000001
 30
0.0
 11
150.7901809999999
 21
68.59026400000001
 31
0.0
  0
LINE
  5
9BDA
330
9A12
100
AcDbEntity
  8
1
  6
Continuous
100
AcDbLine
 10
126.3641809999999
 20
68.59026400000001
 30
0.0
 11
126.3641809999999
 21
66.59026400000001
 31
0.0
  0
LINE
  5
9BDB
330
9A12
100
AcDbEntity
  8
4
  6
CENTER
100
AcDbLine
 10
133.364181
 20
82.85116399999997
 30
0.0
 11
133.364181
 21
49.437664
 31
0.0
  0
LINE
  5
9BDC
330
9A12
100
AcDbEntity
  8
1
  6
Continuous
100
AcDbLine
 10
158.698181
 20
77.590264
 30
0.0
 11
155.364181
 21
77.590264
 31
0.0
  0
LINE
  5
9BDD
330
9A12
100
AcDbEntity
  8
1
  6
Continuous
100
AcDbLine
 10
155.364181
 20
79.590264
 30
0.0
 11
155.364181
 21
68.59026400000001
 31
0.0
  0
LINE
  5
9BDE
330
9A12
100
AcDbEntity
  8
1
  6
Continuous
100
AcDbLine
 10
142.824181
 20
87.29096400000001
 30
0.0
 11
142.824181
 21
79.590264
 31
0.0
  0
LINE
  5
9BDF
330
9A12
100
AcDbEntity
  8
1
  6
Continuous
100
AcDbLine
 10
132.364181
 20
84.59646399999998
 30
0.0
 11
132.364181
 21
79.79026399999998
 31
0.0
  0
LINE
  5
9BE0
330
9A12
100
AcDbEntity
  8
1
  6
Continuous
100
AcDbLine
 10
142.824181
 20
87.29096400000001
 30
0.0
 11
135.4881809999999
 21
87.59386399999998
 31
0.0
  0
LINE
  5
9BE1
330
9A12
100
AcDbEntity
  8
1
  6
Continuous
100
AcDbLine
 10
158.698181
 20
79.590264
 30
0.0
 11
138.364181
 21
79.590264
 31
0.0
  0
LINE
  5
9BE2
330
9A12
100
AcDbEntity
  8
1
  6
Continuous
100
AcDbLine
 10
140.1171809999999
 20
60.09026399999999
 30
0.0
 11
160.5811809999998
 21
60.09026399999999
 31
0.0
  0
LINE
  5
9BE3
330
9A12
100
AcDbEntity
  8
1
  6
Continuous
100
AcDbLine
 10
152.031181
 20
70.106964
 30
0.0
 11
140.664181
 21
70.106964
 31
0.0
  0
LINE
  5
9BE4
330
9A12
100
AcDbEntity
  8
1
  6
Continuous
100
AcDbLine
 10
154.114181
 20
60.590264
 30
0.0
 11
154.114181
 21
60.09026399999999
 31
0.0
  0
LINE
  5
9BE5
330
9A12
100
AcDbEntity
  8
1
  6
Continuous
100
AcDbLine
 10
141.614181
 20
60.590264
 30
0.0
 11
141.614181
 21
60.09026399999999
 31
0.0
  0
LINE
  5
9BE6
330
9A12
100
AcDbEntity
  8
1
  6
Continuous
100
AcDbLine
 10
170.864181
 20
61.890264
 30
0.0
 11
125.3641809999999
 21
61.890264
 31
0.0
  0
LINE
  5
9BE7
330
9A12
100
AcDbEntity
  8
4
  6
CENTER
100
AcDbLine
 10
164.412181
 20
90.58996399999999
 30
0.0
 11
178.715181
 21
90.58996399999999
 31
0.0
  0
LINE
  5
9BE8
330
9A12
100
AcDbEntity
  8
1
  6
Continuous
100
AcDbLine
 10
170.864181
 20
71.36806400000001
 30
0.0
 11
170.864181
 21
100.5899639999999
 31
0.0
  0
LINE
  5
9BE9
330
9A12
100
AcDbEntity
  8
1
  6
Continuous
100
AcDbLine
 10
171.596181
 20
77.60536399999998
 30
0.0
 11
173.0641809999999
 21
76.13756399999998
 31
0.0
  0
LINE
  5
9BEA
330
9A12
100
AcDbEntity
  8
1
  6
Continuous
100
AcDbLine
 10
171.596181
 20
69.822464
 30
0.0
 11
173.0641809999999
 21
71.29026399999998
 31
0.0
  0
LINE
  5
9BEB
330
9A12
100
AcDbEntity
  8
1
  6
Continuous
100
AcDbLine
 10
170.864181
 20
57.890264
 30
0.0
 11
170.864181
 21
68.054764
 31
0.0
  0
LINE
  5
9BEC
330
9A12
100
AcDbEntity
  8
1
  6
Continuous
100
AcDbLine
 10
168.864181
 20
71.36806400000001
 30
0.0
 11
168.864181
 21
98.589964
 31
0.0
  0
LINE
  5
9BED
330
9A12
100
AcDbEntity
  8
1
  6
Continuous
100
AcDbLine
 10
166.864181
 20
83.59026400000002
 30
0.0
 11
166.864181
 21
97.589964
 31
0.0
  0
LINE
  5
9BEE
330
9A12
100
AcDbEntity
  8
1
  6
Continuous
100
AcDbLine
 10
168.864181
 20
98.08996399999999
 30
0.0
 11
167.364181
 21
98.08996399999999
 31
0.0
  0
LINE
  5
9BEF
330
9A12
100
AcDbEntity
  8
1
  6
Continuous
100
AcDbLine
 10
167.364181
 20
98.08996399999999
 30
0.0
 11
166.864181
 21
97.589964
 31
0.0
  0
LINE
  5
9BF0
330
9A12
100
AcDbEntity
  8
1
  6
Continuous
100
AcDbLine
 10
167.364181
 20
83.090264
 30
0.0
 11
167.364181
 21
98.08996399999999
 31
0.0
  0
LINE
  5
9BF1
330
9A12
100
AcDbEntity
  8
1
  6
Continuous
100
AcDbLine
 10
168.864181
 20
98.589964
 30
0.0
 11
170.864181
 21
98.589964
 31
0.0
  0
LINE
  5
9BF2
330
9A12
100
AcDbEntity
  8
1
  6
Continuous
100
AcDbLine
 10
165.5641809999998
 20
36.890264
 30
0.0
 11
165.5641809999998
 21
55.590264
 31
0.0
  0
LINE
  5
9BF3
330
9A12
100
AcDbEntity
  8
1
  6
Continuous
100
AcDbLine
 10
129.864181
 20
36.890264
 30
0.0
 11
134.4641809999999
 21
36.890264
 31
0.0
  0
LINE
  5
9BF4
330
9A12
100
AcDbEntity
  8
1
  6
Continuous
100
AcDbLine
 10
132.164181
 20
36.890264
 30
0.0
 11
132.164181
 21
55.590264
 31
0.0
  0
LINE
  5
9BF5
330
9A12
100
AcDbEntity
  8
1
  6
Continuous
100
AcDbLine
 10
163.264181
 20
36.890264
 30
0.0
 11
167.864181
 21
36.890264
 31
0.0
  0
LINE
  5
9BF6
330
9A12
100
AcDbEntity
  8
1
  6
Continuous
100
AcDbLine
 10
124.4111809999999
 20
57.890264
 30
0.0
 11
126.379181
 21
59.858064
 31
0.0
  0
LINE
  5
9BF7
330
9A12
100
AcDbEntity
  8
1
  6
Continuous
100
AcDbLine
 10
140.349181
 20
59.858064
 30
0.0
 11
142.317181
 21
57.890264
 31
0.0
  0
LINE
  5
9BF8
330
9A12
100
AcDbEntity
  8
1
  6
Continuous
100
AcDbLine
 10
144.389181
 20
74.890264
 30
0.0
 11
144.389181
 21
70.106964
 31
0.0
  0
LINE
  5
9BF9
330
9A12
100
AcDbEntity
  8
1
  6
Continuous
100
AcDbLine
 10
152.7731809999998
 20
74.890264
 30
0.0
 11
144.389181
 21
74.890264
 31
0.0
  0
LINE
  5
9BFA
330
9A12
100
AcDbEntity
  8
1
  6
Continuous
100
AcDbLine
 10
144.389181
 20
66.390264
 30
0.0
 11
125.3641809999999
 21
66.390264
 31
0.0
  0
LINE
  5
9BFB
330
9A12
100
AcDbEntity
  8
1
  6
Continuous
100
AcDbLine
 10
138.364181
 20
69.37366400000001
 30
0.0
 11
138.364181
 21
68.59026400000001
 31
0.0
  0
LINE
  5
9BFC
330
9A12
100
AcDbEntity
  8
1
  6
Continuous
100
AcDbLine
 10
144.389181
 20
68.59026400000001
 30
0.0
 11
126.3641809999999
 21
68.59026400000001
 31
0.0
  0
LINE
  5
9BFD
330
9A12
100
AcDbEntity
  8
1
  6
Continuous
100
AcDbLine
 10
144.389181
 20
66.59026400000001
 30
0.0
 11
125.3641809999999
 21
66.59026400000001
 31
0.0
  0
LINE
  5
9BFE
330
9A12
100
AcDbEntity
  8
1
  6
Continuous
100
AcDbLine
 10
144.389181
 20
68.60696400000001
 30
0.0
 11
144.389181
 21
61.890264
 31
0.0
  0
LINE
  5
9BFF
330
9A12
100
AcDbEntity
  8
1
  6
Continuous
100
AcDbLine
 10
168.864181
 20
71.36806400000001
 30
0.0
 11
170.864181
 21
71.36806400000001
 31
0.0
  0
LINE
  5
9C00
330
9A12
100
AcDbEntity
  8
1
  6
Continuous
100
AcDbLine
 10
75.02568100000002
 20
159.710964
 30
0.0
 11
78.648781
 21
159.710964
 31
0.0
  0
LINE
  5
9C01
330
9A12
100
AcDbEntity
  8
1
  6
Continuous
100
AcDbLine
 10
74.00168100000001
 20
157.4109639999998
 30
0.0
 11
78.85328100000002
 21
157.4109639999998
 31
0.0
  0
LINE
  5
9C02
330
9A12
100
AcDbEntity
  8
1
  6
Continuous
100
AcDbLine
 10
64.407881
 20
207.6159639999999
 30
0.0
 11
65.506681
 21
207.6159639999999
 31
0.0
  0
LINE
  5
9C03
330
9A12
100
AcDbEntity
  8
1
  6
Continuous
100
AcDbLine
 10
64.628681
 20
205.6159639999999
 30
0.0
 11
67.30668100000001
 21
205.6159639999999
 31
0.0
  0
LINE
  5
9C04
330
9A12
100
AcDbEntity
  8
1
  6
Continuous
100
AcDbLine
 10
36.664081
 20
176.2159639999999
 30
0.0
 11
38.631881
 21
174.248964
 31
0.0
  0
LINE
  5
9C05
330
9A12
100
AcDbEntity
  8
1
  6
Continuous
100
AcDbLine
 10
36.664081
 20
158.110964
 30
0.0
 11
38.631881
 21
160.0789639999999
 31
0.0
  0
LINE
  5
9C06
330
9A12
100
AcDbEntity
  8
1
  6
Continuous
100
AcDbLine
 10
57.864181
 20
186.6639639999999
 30
0.0
 11
63.51478100000001
 21
186.6639639999999
 31
0.0
  0
LINE
  5
9C07
330
9A12
100
AcDbEntity
  8
3
  6
DASHED
100
AcDbLine
 10
171.064181
 20
199.9139639999999
 30
0.0
 11
173.0901809999997
 21
194.848964
 31
0.0
  0
LINE
  5
9C08
330
9A12
100
AcDbEntity
  8
1
  6
Continuous
100
AcDbLine
 10
171.064181
 20
194.1639639999999
 30
0.0
 11
158.239181
 21
194.1639639999999
 31
0.0
  0
LINE
  5
9C09
330
9A12
100
AcDbEntity
  8
1
  6
Continuous
100
AcDbLine
 10
343.1641809999999
 20
152.9639639999998
 30
0.0
 11
343.1641809999999
 21
150.6639639999999
 31
0.0
  0
LINE
  5
9C0A
330
9A12
100
AcDbEntity
  8
1
  6
Continuous
100
AcDbLine
 10
376.564181
 20
152.9639639999998
 30
0.0
 11
376.564181
 21
150.6639639999999
 31
0.0
  0
LINE
  5
9C0B
330
9A12
100
AcDbEntity
  8
4
  6
CENTER
100
AcDbLine
 10
365.3641809999998
 20
190.6639639999999
 30
0.0
 11
352.3641809999999
 21
190.6639639999999
 31
0.0
  0
LINE
  5
9C0C
330
9A12
100
AcDbEntity
  8
4
  6
CENTER
100
AcDbLine
 10
358.8641809999999
 20
197.163964
 30
0.0
 11
358.8641809999999
 21
184.1639639999999
 31
0.0
  0
LINE
  5
9C0D
330
9A12
100
AcDbEntity
  8
4
  6
CENTER
100
AcDbLine
 10
143.364181
 20
167.1639639999999
 30
0.0
 11
123.3641809999999
 21
167.1639639999999
 31
0.0
  0
LINE
  5
9C0E
330
9A12
100
AcDbEntity
  8
4
  6
CENTER
100
AcDbLine
 10
133.364181
 20
177.163964
 30
0.0
 11
133.364181
 21
157.1639639999999
 31
0.0
  0
LINE
  5
9C0F
330
9A12
100
AcDbEntity
  8
4
  6
CENTER
100
AcDbLine
 10
236.364181
 20
176.6639639999999
 30
0.0
 11
236.364181
 21
156.6639639999999
 31
0.0
  0
LINE
  5
9C10
330
9A12
100
AcDbEntity
  8
1
  6
Continuous
100
AcDbLine
 10
252.271181
 20
143.8919639999997
 30
0.0
 11
255.329181
 21
133.7869639999997
 31
0.0
  0
LINE
  5
9C11
330
9A12
100
AcDbEntity
  8
1
  6
Continuous
100
AcDbLine
 10
244.1051809999999
 20
129.6089639999999
 30
0.0
 11
235.506181
 21
148.920964
 31
0.0
  0
LINE
  5
9C12
330
9A12
100
AcDbEntity
  8
4
  6
CENTER
100
AcDbLine
 10
249.586181
 20
137.0489639999999
 30
0.0
 11
249.586181
 21
127.0489639999997
 31
0.0
  0
LINE
  5
9C13
330
9A12
100
AcDbEntity
  8
4
  6
CENTER
100
AcDbLine
 10
254.586181
 20
132.0489639999999
 30
0.0
 11
244.586181
 21
132.0489639999999
 31
0.0
  0
LINE
  5
9C14
330
9A12
100
AcDbEntity
  8
4
  6
CENTER
100
AcDbLine
 10
167.222181
 20
77.368064
 30
0.0
 11
172.419181
 21
77.368064
 31
0.0
  0
LINE
  5
9C15
330
9A12
100
AcDbEntity
  8
1
  6
Continuous
100
AcDbLine
 10
140.0711809999999
 20
72.35696400000001
 30
0.0
 11
126.814181
 21
72.35696400000001
 31
0.0
  0
LINE
  5
9C16
330
9A12
100
AcDbEntity
  8
1
  6
Continuous
100
AcDbLine
 10
152.031181
 20
68.60696400000001
 30
0.0
 11
137.364181
 21
68.60696400000001
 31
0.0
  0
LINE
  5
9C17
330
9A12
100
AcDbEntity
  8
1
  6
Continuous
100
AcDbLine
 10
139.914181
 20
70.85696400000002
 30
0.0
 11
126.814181
 21
70.85696400000002
 31
0.0
  0
LINE
  5
9C18
330
9A12
100
AcDbEntity
  8
1
  6
Continuous
100
AcDbLine
 10
139.914181
 20
69.35696400000001
 30
0.0
 11
126.814181
 21
69.35696400000001
 31
0.0
  0
LINE
  5
9C19
330
9A12
100
AcDbEntity
  8
1
  6
Continuous
100
AcDbLine
 10
48.130781
 20
173.7139639999998
 30
0.0
 11
48.130781
 21
160.562964
 31
0.0
  0
LINE
  5
9C1A
330
9A12
100
AcDbEntity
  8
1
  6
Continuous
100
AcDbLine
 10
48.880781
 20
159.8639639999998
 30
0.0
 11
48.880781
 21
150.076964
 31
0.0
  0
LINE
  5
9C1B
330
9A12
100
AcDbEntity
  8
1
  6
Continuous
100
AcDbLine
 10
47.380781
 20
162.1639639999999
 30
0.0
 11
47.380781
 21
150.076964
 31
0.0
  0
LINE
  5
9C1C
330
9A12
100
AcDbEntity
  8
1
  6
Continuous
100
AcDbLine
 10
40.664081
 20
157.6289639999999
 30
0.0
 11
45.164081
 21
157.6289639999999
 31
0.0
  0
LINE
  5
9C1D
330
9A12
100
AcDbEntity
  8
1
  6
Continuous
100
AcDbLine
 10
150.2131809999999
 20
71.390264
 30
0.0
 11
150.2131809999999
 21
70.106964
 31
0.0
  0
LINE
  5
9C1E
330
9A12
100
AcDbEntity
  8
1
  6
Continuous
100
AcDbLine
 10
152.197181
 20
74.890264
 30
0.0
 11
150.2131809999999
 21
71.406964
 31
0.0
  0
LINE
  5
9C1F
330
9A12
100
AcDbEntity
  8
1
  6
Continuous
100
AcDbLine
 10
152.7731809999998
 20
74.890264
 30
0.0
 11
150.7901809999999
 21
71.406964
 31
0.0
  0
LINE
  5
9C20
330
9A12
100
AcDbEntity
  8
1
  6
Continuous
100
AcDbLine
 10
150.7901809999999
 20
71.390264
 30
0.0
 11
150.7901809999999
 21
70.106964
 31
0.0
  0
LINE
  5
9C21
330
9A12
100
AcDbEntity
  8
4
  6
CENTER
100
AcDbLine
 10
358.8641809999999
 20
179.1639639999999
 30
0.0
 11
358.8641809999999
 21
164.1639639999999
 31
0.0
  0
LINE
  5
9C22
330
9A12
100
AcDbEntity
  8
4
  6
CENTER
100
AcDbLine
 10
351.3641809999999
 20
171.6639639999999
 30
0.0
 11
366.3641809999999
 21
171.6639639999999
 31
0.0
  0
LINE
  5
9C23
330
9A12
100
AcDbEntity
  8
4
  6
CENTER
100
AcDbLine
 10
280.5661809999999
 20
171.6639639999999
 30
0.0
 11
293.369181
 21
171.6639639999999
 31
0.0
  0
LINE
  5
9C24
330
9A12
100
AcDbEntity
  8
1
  6
Continuous
100
AcDbLine
 10
256.8641809999999
 20
232.1639639999999
 30
0.0
 11
247.032181
 21
231.028964
 31
0.0
  0
LINE
  5
9C25
330
9A12
100
AcDbEntity
  8
1
  6
Continuous
100
AcDbLine
 10
243.514181
 20
227.4939639999999
 30
0.0
 11
241.4741809999999
 21
209.0079639999999
 31
0.0
  0
LINE
  5
9C26
330
9A12
100
AcDbEntity
  8
1
  6
Continuous
100
AcDbLine
 10
256.6951809999998
 20
225.920964
 30
0.0
 11
256.8641809999999
 21
232.1639639999999
 31
0.0
  0
LINE
  5
9C27
330
9A12
100
AcDbEntity
  8
1
  6
Continuous
100
AcDbLine
 10
254.633181
 20
223.628964
 30
0.0
 11
254.8571809999998
 21
231.9319639999999
 31
0.0
  0
LINE
  5
9C28
330
9A12
100
AcDbEntity
  8
1
  6
Continuous
100
AcDbLine
 10
366.3641809999999
 20
232.1639639999999
 30
0.0
 11
370.3641809999999
 21
232.1639639999999
 31
0.0
  0
LINE
  5
9C29
330
9A12
100
AcDbEntity
  8
1
  6
Continuous
100
AcDbLine
 10
370.3641809999999
 20
232.1639639999999
 30
0.0
 11
368.175181
 21
216.8419639999999
 31
0.0
  0
LINE
  5
9C2A
330
9A12
100
AcDbEntity
  8
4
  6
CENTER
100
AcDbLine
 10
163.364181
 20
63.12816399999999
 30
0.0
 11
163.364181
 21
51.651664
 31
0.0
  0
LINE
  5
9C2B
330
9A12
100
AcDbEntity
  8
4
  6
CENTER
100
AcDbLine
 10
163.364181
 20
304.6099639999998
 30
0.0
 11
163.364181
 21
312.3559639999998
 31
0.0
  0
LINE
  5
9C2C
330
9A12
100
AcDbEntity
  8
5
  6
PHANTOM
100
AcDbLine
 10
156.116181
 20
228.1249639999999
 30
0.0
 11
152.436181
 21
206.5799639999999
 31
0.0
  0
LINE
  5
9C2D
330
9A12
100
AcDbEntity
  8
5
  6
PHANTOM
100
AcDbLine
 10
158.0401809999998
 20
227.506964
 30
0.0
 11
154.396181
 21
206.1789639999997
 31
0.0
  0
LINE
  5
9C2E
330
9A12
100
AcDbEntity
  8
5
  6
PHANTOM
100
AcDbLine
 10
159.966181
 20
215.383964
 30
0.0
 11
158.234181
 21
205.247964
 31
0.0
  0
LINE
  5
9C2F
330
9A12
100
AcDbEntity
  8
5
  6
PHANTOM
100
AcDbLine
 10
159.924181
 20
226.9009639999999
 30
0.0
 11
156.116181
 21
228.1249639999999
 31
0.0
  0
LINE
  5
9C30
330
9A12
100
AcDbEntity
  8
1
  6
Continuous
100
AcDbLine
 10
48.880781
 20
153.1909639999998
 30
0.0
 11
50.164081
 21
153.1909639999998
 31
0.0
  0
LINE
  5
9C31
330
9A12
100
AcDbEntity
  8
1
  6
Continuous
100
AcDbLine
 10
48.880781
 20
158.421964
 30
0.0
 11
53.66408100000001
 21
158.421964
 31
0.0
  0
LINE
  5
9C32
330
9A12
100
AcDbEntity
  8
1
  6
Continuous
100
AcDbLine
 10
43.864181
 20
178.2299639999999
 30
0.0
 11
44.708381
 21
180.1269639999999
 31
0.0
  0
LINE
  5
9C33
330
9A12
100
AcDbEntity
  8
1
  6
Continuous
100
AcDbLine
 10
260.3641809999999
 20
172.6639639999999
 30
0.0
 11
260.3641809999999
 21
157.1639639999999
 31
0.0
  0
LINE
  5
9C34
330
9A12
100
AcDbEntity
  8
1
  6
Continuous
100
AcDbLine
 10
258.3641809999999
 20
172.6639639999999
 30
0.0
 11
258.3641809999999
 21
157.1639639999999
 31
0.0
  0
LINE
  5
9C35
330
9A12
100
AcDbEntity
  8
1
  6
Continuous
100
AcDbLine
 10
265.064181
 20
172.6639639999999
 30
0.0
 11
265.064181
 21
156.4169639999998
 31
0.0
  0
LINE
  5
9C36
330
9A12
100
AcDbEntity
  8
1
  6
Continuous
100
AcDbLine
 10
243.864181
 20
202.6639639999999
 30
0.0
 11
243.864181
 21
194.1639639999999
 31
0.0
  0
LINE
  5
9C37
330
9A12
100
AcDbEntity
  8
1
  6
Continuous
100
AcDbLine
 10
245.864181
 20
202.6639639999999
 30
0.0
 11
245.864181
 21
194.1639639999999
 31
0.0
  0
LINE
  5
9C38
330
9A12
100
AcDbEntity
  8
1
  6
Continuous
100
AcDbLine
 10
168.864181
 20
299.9369639999999
 30
0.0
 11
154.8351809999997
 21
299.9369639999999
 31
0.0
  0
LINE
  5
9C39
330
9A12
100
AcDbEntity
  8
1
  6
Continuous
100
AcDbLine
 10
128.864181
 20
304.4369639999998
 30
0.0
 11
125.3641809999999
 21
304.4369639999998
 31
0.0
  0
LINE
  5
9C3A
330
9A12
100
AcDbEntity
  8
1
  6
Continuous
100
AcDbLine
 10
128.1471809999999
 20
305.736964
 30
0.0
 11
128.864181
 21
305.736964
 31
0.0
  0
LINE
  5
9C3B
330
9A12
100
AcDbEntity
  8
1
  6
Continuous
100
AcDbLine
 10
45.364181
 20
159.1639639999999
 30
0.0
 11
45.164081
 21
159.1639639999999
 31
0.0
  0
LINE
  5
9C3C
330
9A12
100
AcDbEntity
  8
1
  6
Continuous
100
AcDbLine
 10
130.364181
 20
299.9369639999999
 30
0.0
 11
125.3641809999999
 21
299.9369639999999
 31
0.0
  0
LINE
  5
9C3D
330
9A12
100
AcDbEntity
  8
1
  6
Continuous
100
AcDbLine
 10
170.864181
 20
304.4369639999998
 30
0.0
 11
165.509181
 21
304.4369639999998
 31
0.0
  0
LINE
  5
9C3E
330
9A12
100
AcDbEntity
  8
1
  6
Continuous
100
AcDbLine
 10
156.2121809999998
 20
305.736964
 30
0.0
 11
156.2121809999998
 21
301.236964
 31
0.0
  0
LINE
  5
9C3F
330
9A12
100
AcDbEntity
  8
1
  6
Continuous
100
AcDbLine
 10
137.8641809999997
 20
305.736964
 30
0.0
 11
165.509181
 21
305.736964
 31
0.0
  0
LINE
  5
9C40
330
9A12
100
AcDbEntity
  8
1
  6
Continuous
100
AcDbLine
 10
136.364181
 20
301.236964
 30
0.0
 11
165.509181
 21
301.236964
 31
0.0
  0
LINE
  5
9C41
330
9A12
100
AcDbEntity
  8
1
  6
Continuous
100
AcDbLine
 10
168.864181
 20
283.2369639999999
 30
0.0
 11
158.930181
 21
283.2369639999999
 31
0.0
  0
LINE
  5
9C42
330
9A12
100
AcDbEntity
  8
1
  6
Continuous
100
AcDbLine
 10
168.864181
 20
285.236964
 30
0.0
 11
158.930181
 21
285.236964
 31
0.0
  0
LINE
  5
9C43
330
9A12
100
AcDbEntity
  8
1
  6
Continuous
100
AcDbLine
 10
161.073181
 20
285.721964
 30
0.0
 11
160.138181
 21
287.279964
 31
0.0
  0
LINE
  5
9C44
330
9A12
100
AcDbEntity
  8
1
  6
Continuous
100
AcDbLine
 10
158.073181
 20
285.721964
 30
0.0
 11
157.138181
 21
287.279964
 31
0.0
  0
LINE
  5
9C45
330
9A12
100
AcDbEntity
  8
1
  6
Continuous
100
AcDbLine
 10
156.358181
 20
284.692964
 30
0.0
 11
155.423181
 21
286.250964
 31
0.0
  0
LINE
  5
9C46
330
9A12
100
AcDbEntity
  8
1
  6
Continuous
100
AcDbLine
 10
157.250181
 20
204.117964
 30
0.0
 11
161.232181
 21
194.1639639999999
 31
0.0
  0
LINE
  5
9C47
330
9A12
100
AcDbEntity
  8
1
  6
Continuous
100
AcDbLine
 10
155.132181
 20
204.163964
 30
0.0
 11
159.132181
 21
194.1639639999999
 31
0.0
  0
LINE
  5
9C48
330
9A12
100
AcDbEntity
  8
1
  6
Continuous
100
AcDbLine
 10
141.364181
 20
66.59026400000001
 30
0.0
 11
141.364181
 21
66.390264
 31
0.0
  0
LINE
  5
9C49
330
9A12
100
AcDbEntity
  8
1
  6
Continuous
100
AcDbLine
 10
128.1471809999999
 20
60.590264
 30
0.0
 11
165.509181
 21
60.590264
 31
0.0
  0
LINE
  5
9C4A
330
9A12
100
AcDbEntity
  8
1
  6
Continuous
100
AcDbLine
 10
137.364181
 20
61.890264
 30
0.0
 11
137.364181
 21
60.590264
 31
0.0
  0
LINE
  5
9C4B
330
9A12
100
AcDbEntity
  8
1
  6
Continuous
100
AcDbLine
 10
129.364181
 20
61.890264
 30
0.0
 11
129.364181
 21
60.590264
 31
0.0
  0
LINE
  5
9C4C
330
9A12
100
AcDbEntity
  8
1
  6
Continuous
100
AcDbLine
 10
170.864181
 20
66.390264
 30
0.0
 11
150.7901809999999
 21
66.390264
 31
0.0
  0
LINE
  5
9C4D
330
9A12
100
AcDbEntity
  8
1
  6
Continuous
100
AcDbLine
 10
150.780181
 20
71.390264
 30
0.0
 11
150.204181
 21
71.390264
 31
0.0
  0
LINE
  5
9C4E
330
9A12
100
AcDbEntity
  8
1
  6
Continuous
100
AcDbLine
 10
150.2131809999999
 20
68.60696400000001
 30
0.0
 11
150.2131809999999
 21
61.890264
 31
0.0
  0
LINE
  5
9C4F
330
9A12
100
AcDbEntity
  8
1
  6
Continuous
100
AcDbLine
 10
150.7901809999999
 20
68.60696400000001
 30
0.0
 11
150.7901809999999
 21
66.390264
 31
0.0
  0
LINE
  5
9C50
330
9A12
100
AcDbEntity
  8
1
  6
Continuous
100
AcDbLine
 10
168.864181
 20
81.09026400000002
 30
0.0
 11
163.0631809999998
 21
81.09026400000002
 31
0.0
  0
LINE
  5
9C51
330
9A12
100
AcDbEntity
  8
1
  6
Continuous
100
AcDbLine
 10
168.864181
 20
83.090264
 30
0.0
 11
158.930181
 21
83.090264
 31
0.0
  0
LINE
  5
9C52
330
9A12
100
AcDbEntity
  8
1
  6
Continuous
100
AcDbLine
 10
160.490181
 20
81.633764
 30
0.0
 11
159.555181
 21
80.07576400000003
 31
0.0
  0
LINE
  5
9C53
330
9A12
100
AcDbEntity
  8
1
  6
Continuous
100
AcDbLine
 10
162.205181
 20
80.604764
 30
0.0
 11
161.270181
 21
79.04676399999998
 31
0.0
  0
LINE
  5
9C54
330
9A12
100
AcDbEntity
  8
1
  6
Continuous
100
AcDbLine
 10
167.364181
 20
83.090264
 30
0.0
 11
166.864181
 21
83.59026400000002
 31
0.0
  0
LINE
  5
9C55
330
9A12
100
AcDbEntity
  8
1
  6
Continuous
100
AcDbLine
 10
156.358181
 20
81.633764
 30
0.0
 11
155.423181
 21
80.07576400000003
 31
0.0
  0
LINE
  5
9C56
330
9A12
100
AcDbEntity
  8
1
  6
Continuous
100
AcDbLine
 10
165.509181
 20
61.890264
 30
0.0
 11
165.509181
 21
60.590264
 31
0.0
  0
LINE
  5
9C57
330
9A12
100
AcDbEntity
  8
1
  6
Continuous
100
AcDbLine
 10
263.3641809999999
 20
195.831964
 30
0.0
 11
263.3641809999999
 21
196.7709639999999
 31
0.0
  0
LINE
  5
9C58
330
9A12
100
AcDbEntity
  8
1
  6
Continuous
100
AcDbLine
 10
263.3641809999999
 20
199.0669639999999
 30
0.0
 11
263.3641809999999
 21
199.5369639999999
 31
0.0
  0
LINE
  5
9C59
330
9A12
100
AcDbEntity
  8
1
  6
Continuous
100
AcDbLine
 10
263.3641809999999
 20
205.1669639999999
 30
0.0
 11
263.3641809999999
 21
205.6369639999998
 31
0.0
  0
LINE
  5
9C5A
330
9A12
100
AcDbEntity
  8
1
  6
Continuous
100
AcDbLine
 10
263.660181
 20
197.3999639999999
 30
0.0
 11
263.660181
 21
198.189964
 31
0.0
  0
LINE
  5
9C5B
330
9A12
100
AcDbEntity
  8
1
  6
Continuous
100
AcDbLine
 10
262.6131809999999
 20
197.801964
 30
0.0
 11
264.113181
 21
198.355964
 31
0.0
  0
LINE
  5
9C5C
330
9A12
100
AcDbEntity
  8
1
  6
Continuous
100
AcDbLine
 10
262.603181
 20
196.7709639999999
 30
0.0
 11
264.103181
 21
196.7709639999999
 31
0.0
  0
LINE
  5
9C5D
330
9A12
100
AcDbEntity
  8
1
  6
Continuous
100
AcDbLine
 10
262.615181
 20
197.801964
 30
0.0
 11
264.113181
 21
197.2199639999999
 31
0.0
  0
LINE
  5
9C5E
330
9A12
100
AcDbEntity
  8
1
  6
Continuous
100
AcDbLine
 10
262.6141809999999
 20
194.2139639999999
 30
0.0
 11
262.6141809999999
 21
195.3949639999999
 31
0.0
  0
LINE
  5
9C5F
330
9A12
100
AcDbEntity
  8
1
  6
Continuous
100
AcDbLine
 10
262.6141809999999
 20
194.801964
 30
0.0
 11
264.1141809999999
 21
194.801964
 31
0.0
  0
LINE
  5
9C60
330
9A12
100
AcDbEntity
  8
1
  6
Continuous
100
AcDbLine
 10
262.603181
 20
195.831964
 30
0.0
 11
264.103181
 21
195.831964
 31
0.0
  0
LINE
  5
9C61
330
9A12
100
AcDbEntity
  8
1
  6
Continuous
100
AcDbLine
 10
262.6141809999999
 20
203.3609639999998
 30
0.0
 11
262.6141809999999
 21
204.1479639999999
 31
0.0
  0
LINE
  5
9C62
330
9A12
100
AcDbEntity
  8
1
  6
Continuous
100
AcDbLine
 10
262.6131809999999
 20
206.701964
 30
0.0
 11
264.113181
 21
206.701964
 31
0.0
  0
LINE
  5
9C63
330
9A12
100
AcDbEntity
  8
1
  6
Continuous
100
AcDbLine
 10
262.6131809999999
 20
206.701964
 30
0.0
 11
262.773181
 21
206.5359639999999
 31
0.0
  0
LINE
  5
9C64
330
9A12
100
AcDbEntity
  8
1
  6
Continuous
100
AcDbLine
 10
262.6141809999999
 20
202.2469639999999
 30
0.0
 11
262.6141809999999
 21
202.312964
 31
0.0
  0
LINE
  5
9C65
330
9A12
100
AcDbEntity
  8
1
  6
Continuous
100
AcDbLine
 10
262.6161809999999
 20
208.2539639999999
 30
0.0
 11
264.1161809999999
 21
208.2539639999999
 31
0.0
  0
LINE
  5
9C66
330
9A12
100
AcDbEntity
  8
1
  6
Continuous
100
AcDbLine
 10
263.009181
 20
209.039964
 30
0.0
 11
263.072181
 21
209.039964
 31
0.0
  0
LINE
  5
9C67
330
9A12
100
AcDbEntity
  8
1
  6
Continuous
100
AcDbLine
 10
263.007181
 20
201.884964
 30
0.0
 11
263.070181
 21
201.884964
 31
0.0
  0
LINE
  5
9C68
330
9A12
100
AcDbEntity
  8
1
  6
Continuous
100
AcDbLine
 10
263.007181
 20
202.6709639999999
 30
0.0
 11
263.7521809999999
 21
202.6709639999999
 31
0.0
  0
LINE
  5
9C69
330
9A12
100
AcDbEntity
  8
1
  6
Continuous
100
AcDbLine
 10
263.509181
 20
204.1479639999999
 30
0.0
 11
263.754181
 21
204.1479639999999
 31
0.0
  0
LINE
  5
9C6A
330
9A12
100
AcDbEntity
  8
1
  6
Continuous
100
AcDbLine
 10
263.658181
 20
201.884964
 30
0.0
 11
263.7521809999999
 21
201.884964
 31
0.0
  0
LINE
  5
9C6B
330
9A12
100
AcDbEntity
  8
1
  6
Continuous
100
AcDbLine
 10
262.6141809999999
 20
203.3609639999998
 30
0.0
 11
263.509181
 21
203.3609639999998
 31
0.0
  0
LINE
  5
9C6C
330
9A12
100
AcDbEntity
  8
1
  6
Continuous
100
AcDbLine
 10
262.6161809999999
 20
208.2539639999999
 30
0.0
 11
262.6161809999999
 21
208.6469639999999
 31
0.0
  0
LINE
  5
9C6D
330
9A12
100
AcDbEntity
  8
1
  6
Continuous
100
AcDbLine
 10
263.4651809999999
 20
208.2539639999999
 30
0.0
 11
263.4651809999999
 21
208.6469639999999
 31
0.0
  0
LINE
  5
9C6E
330
9A12
100
AcDbEntity
  8
1
  6
Continuous
100
AcDbLine
 10
263.4651809999999
 20
208.6469639999999
 30
0.0
 11
264.1161809999999
 21
209.039964
 31
0.0
  0
LINE
  5
9C6F
330
9A12
100
AcDbEntity
  8
1
  6
Continuous
100
AcDbLine
 10
263.006181
 20
200.407964
 30
0.0
 11
263.068181
 21
200.407964
 31
0.0
  0
LINE
  5
9C70
330
9A12
100
AcDbEntity
  8
1
  6
Continuous
100
AcDbLine
 10
263.006181
 20
201.194964
 30
0.0
 11
263.068181
 21
201.194964
 31
0.0
  0
LINE
  5
9C71
330
9A12
100
AcDbEntity
  8
1
  6
Continuous
100
AcDbLine
 10
264.1141809999999
 20
200.407964
 30
0.0
 11
264.1141809999999
 21
201.194964
 31
0.0
  0
LINE
  5
9C72
330
9A12
100
AcDbEntity
  8
1
  6
Continuous
100
AcDbLine
 10
264.1141809999999
 20
200.407964
 30
0.0
 11
263.327181
 21
201.0969639999999
 31
0.0
  0
ARC
  5
9C73
330
9A12
100
AcDbEntity
  8
1
  6
Continuous
100
AcDbCircle
 10
268.5911809999999
 20
231.6639639999999
 30
0.0
 40
5.0
100
AcDbArc
 50
90.0
 51
138.013
  0
ARC
  5
9C74
330
9A12
100
AcDbEntity
  8
1
  6
Continuous
100
AcDbCircle
 10
238.096181
 20
193.2959639999999
 30
0.0
 40
8.0
100
AcDbArc
 50
138.013
 51
174.9199999999999
  0
ARC
  5
9C75
330
9A12
100
AcDbEntity
  8
1
  6
Continuous
100
AcDbCircle
 10
234.910181
 20
157.451964
 30
0.0
 40
8.0
100
AcDbArc
 50
174.9199999999999
 51
253.301
  0
ARC
  5
9C76
330
9A12
100
AcDbEntity
  8
1
  6
Continuous
100
AcDbCircle
 10
246.3641809999999
 20
124.7829639999997
 30
0.0
 40
20.0
100
AcDbArc
 50
28.37399999999999
 51
73.30079999999998
  0
ARC
  5
9C77
330
9A12
100
AcDbEntity
  8
1
  6
Continuous
100
AcDbCircle
 10
268.3611809999998
 20
136.663964
 30
0.0
 40
5.0
100
AcDbArc
 50
208.374
 51
270.0
  0
ARC
  5
9C78
330
9A12
100
AcDbEntity
  8
1
  6
Continuous
100
AcDbCircle
 10
244.864181
 20
201.663964
 30
0.0
 40
3.0
100
AcDbArc
 50
0.0
 51
90.0
  0
ARC
  5
9C79
330
9A12
100
AcDbEntity
  8
1
  6
Continuous
100
AcDbCircle
 10
244.864181
 20
201.663964
 30
0.0
 40
5.0
100
AcDbArc
 50
10.6455
 51
90.0
  0
ARC
  5
9C7A
330
9A12
100
AcDbEntity
  8
1
  6
Continuous
100
AcDbCircle
 10
258.3641809999999
 20
171.6639639999999
 30
0.0
 40
3.0
100
AcDbArc
 50
90.0
 51
180.0
  0
ARC
  5
9C7B
330
9A12
100
AcDbEntity
  8
1
  6
Continuous
100
AcDbCircle
 10
258.3641809999999
 20
154.6639639999999
 30
0.0
 40
3.0
100
AcDbArc
 50
180.0
 51
270.0
  0
ARC
  5
9C7C
330
9A12
100
AcDbEntity
  8
1
  6
Continuous
100
AcDbCircle
 10
258.3641809999999
 20
154.6639639999999
 30
0.0
 40
5.0
100
AcDbArc
 50
180.0
 51
270.0
  0
ARC
  5
9C7D
330
9A12
100
AcDbEntity
  8
1
  6
Continuous
100
AcDbCircle
 10
258.3641809999999
 20
171.6639639999999
 30
0.0
 40
5.0
100
AcDbArc
 50
90.0
 51
180.0
  0
CIRCLE
  5
9C7E
330
9A12
100
AcDbEntity
  8
1
  6
Continuous
100
AcDbCircle
 10
253.364181
 20
191.6639639999999
 30
0.0
 40
1.0
  0
ARC
  5
9C7F
330
9A12
100
AcDbEntity
  8
1
  6
Continuous
100
AcDbCircle
 10
373.3641809999999
 20
205.6639639999999
 30
0.0
 40
9.5
100
AcDbArc
 50
0.0
 51
88.93919999999999
  0
ARC
  5
9C80
330
9A12
100
AcDbEntity
  8
1
  6
Continuous
100
AcDbCircle
 10
342.476181
 20
226.663964
 30
0.0
 40
10.0
100
AcDbArc
 50
47.50759999999999
 51
90.0
  0
ARC
  5
9C81
330
9A12
100
AcDbEntity
  8
1
  6
Continuous
100
AcDbCircle
 10
373.725181
 20
225.159964
 30
0.0
 40
10.0
100
AcDbArc
 50
227.5079999999999
 51
268.939
  0
ARC
  5
9C82
330
9A12
100
AcDbEntity
  8
1
  6
Continuous
100
AcDbCircle
 10
373.3641809999999
 20
141.1639639999999
 30
0.0
 40
9.5
100
AcDbArc
 50
270.0
 51
0.0
  0
ARC
  5
9C83
330
9A12
100
AcDbEntity
  8
1
  6
Continuous
100
AcDbCircle
 10
373.3641809999999
 20
205.6639639999999
 30
0.0
 40
2.1
100
AcDbArc
 50
289.059
 51
162.8829999999998
  0
ARC
  5
9C84
330
9A12
100
AcDbEntity
  8
1
  6
Continuous
100
AcDbCircle
 10
373.3641809999999
 20
205.6639639999999
 30
0.0
 40
6.0
100
AcDbArc
 50
314.796
 51
137.1459999999999
  0
CIRCLE
  5
9C85
330
9A12
100
AcDbEntity
  8
2
  6
Continuous
100
AcDbCircle
 10
343.3641809999999
 20
140.6639639999999
 30
0.0
 40
3.0
  0
CIRCLE
  5
9C86
330
9A12
100
AcDbEntity
  8
2
  6
Continuous
100
AcDbCircle
 10
373.3641809999999
 20
140.6639639999999
 30
0.0
 40
3.0
  0
CIRCLE
  5
9C87
330
9A12
100
AcDbEntity
  8
2
  6
Continuous
100
AcDbCircle
 10
343.3641809999999
 20
227.6639639999999
 30
0.0
 40
3.0
  0
ARC
  5
9C88
330
9A12
100
AcDbEntity
  8
1
  6
Continuous
100
AcDbCircle
 10
391.683181
 20
187.2129639999998
 30
0.0
 40
20.0
100
AcDbArc
 50
134.796
 51
139.5869999999999
  0
ARC
  5
9C89
330
9A12
100
AcDbEntity
  8
1
  6
Continuous
100
AcDbCircle
 10
354.304181
 20
223.346964
 30
0.0
 40
20.0
100
AcDbArc
 50
312.355
 51
317.1459999999999
  0
ARC
  5
9C8A
330
9A12
100
AcDbEntity
  8
1
  6
Continuous
100
AcDbCircle
 10
241.864181
 20
166.6639639999999
 30
0.0
 40
6.0
100
AcDbArc
 50
270.0
 51
0.0
  0
ARC
  5
9C8B
330
9A12
100
AcDbEntity
  8
1
  6
Continuous
100
AcDbCircle
 10
241.864181
 20
166.6639639999999
 30
0.0
 40
8.0
100
AcDbArc
 50
284.982
 51
0.0
  0
CIRCLE
  5
9C8C
330
9A12
100
AcDbEntity
  8
1
  6
Continuous
100
AcDbCircle
 10
343.3641809999999
 20
227.6639639999999
 30
0.0
 40
2.458499999999999
  0
CIRCLE
  5
9C8D
330
9A12
100
AcDbEntity
  8
1
  6
Continuous
100
AcDbCircle
 10
343.3641809999999
 20
140.6639639999999
 30
0.0
 40
2.458499999999999
  0
CIRCLE
  5
9C8E
330
9A12
100
AcDbEntity
  8
1
  6
Continuous
100
AcDbCircle
 10
373.3641809999999
 20
140.6639639999999
 30
0.0
 40
2.458499999999999
  0
ARC
  5
9C8F
330
9A12
100
AcDbEntity
  8
1
  6
Continuous
100
AcDbCircle
 10
266.1351809999998
 20
190.662964
 30
0.0
 40
3.925309999999998
100
AcDbArc
 50
192.729
 51
193.2679999999999
  0
ARC
  5
9C90
330
9A12
100
AcDbEntity
  8
1
  6
Continuous
100
AcDbCircle
 10
266.1351809999998
 20
190.662964
 30
0.0
 40
3.925309999999998
100
AcDbArc
 50
193.2679999999999
 51
195.257
  0
ARC
  5
9C91
330
9A12
100
AcDbEntity
  8
1
  6
Continuous
100
AcDbCircle
 10
262.507181
 20
189.6739639999999
 30
0.0
 40
0.165003
100
AcDbArc
 50
195.257
 51
270.0
  0
ARC
  5
9C92
330
9A12
100
AcDbEntity
  8
1
  6
Continuous
100
AcDbCircle
 10
264.221181
 20
189.6739639999999
 30
0.0
 40
0.165003
100
AcDbArc
 50
270.0
 51
344.7419999999997
  0
ARC
  5
9C93
330
9A12
100
AcDbEntity
  8
1
  6
Continuous
100
AcDbCircle
 10
260.594181
 20
190.662964
 30
0.0
 40
3.925309999999998
100
AcDbArc
 50
344.7419999999997
 51
344.794
  0
ARC
  5
9C94
330
9A12
100
AcDbEntity
  8
1
  6
Continuous
100
AcDbCircle
 10
260.594181
 20
190.662964
 30
0.0
 40
3.925309999999998
100
AcDbArc
 50
344.794
 51
347.2709999999997
  0
ARC
  5
9C95
330
9A12
100
AcDbEntity
  8
1
  6
Continuous
100
AcDbCircle
 10
263.3641809999999
 20
188.6839639999998
 30
0.0
 40
0.850059
100
AcDbArc
 50
215.5309999999999
 51
324.4619999999998
  0
ARC
  5
9C96
330
9A12
100
AcDbEntity
  8
1
  6
Continuous
100
AcDbCircle
 10
263.973181
 20
189.0139639999999
 30
0.0
 40
0.165003
100
AcDbArc
 50
270.0
 51
333.9859999999998
  0
ARC
  5
9C97
330
9A12
100
AcDbEntity
  8
1
  6
Continuous
100
AcDbCircle
 10
264.1781809999999
 20
189.1459639999999
 30
0.0
 40
0.033014
100
AcDbArc
 50
337.0559999999999
 51
90.0
  0
ARC
  5
9C98
330
9A12
100
AcDbEntity
  8
1
  6
Continuous
100
AcDbCircle
 10
260.594181
 20
190.662964
 30
0.0
 40
3.925309999999998
100
AcDbArc
 50
333.9859999999998
 51
337.0559999999999
  0
ARC
  5
9C99
330
9A12
100
AcDbEntity
  8
1
  6
Continuous
100
AcDbCircle
 10
260.594181
 20
190.662964
 30
0.0
 40
3.925309999999998
100
AcDbArc
 50
333.9859999999998
 51
334.7719999999999
  0
ARC
  5
9C9A
330
9A12
100
AcDbEntity
  8
1
  6
Continuous
100
AcDbCircle
 10
262.756181
 20
189.0139639999999
 30
0.0
 40
0.165003
100
AcDbArc
 50
206.014
 51
270.0
  0
ARC
  5
9C9B
330
9A12
100
AcDbEntity
  8
1
  6
Continuous
100
AcDbCircle
 10
262.550181
 20
189.1459639999999
 30
0.0
 40
0.033014
100
AcDbArc
 50
90.0
 51
202.944
  0
ARC
  5
9C9C
330
9A12
100
AcDbEntity
  8
1
  6
Continuous
100
AcDbCircle
 10
266.1351809999998
 20
190.662964
 30
0.0
 40
3.925309999999998
100
AcDbArc
 50
202.944
 51
206.014
  0
ARC
  5
9C9D
330
9A12
100
AcDbEntity
  8
1
  6
Continuous
100
AcDbCircle
 10
262.433181
 20
191.3229639999999
 30
0.0
 40
0.165003
100
AcDbArc
 50
90.0
 51
169.896
  0
ARC
  5
9C9E
330
9A12
100
AcDbEntity
  8
1
  6
Continuous
100
AcDbCircle
 10
266.1351809999998
 20
190.662964
 30
0.0
 40
3.925309999999998
100
AcDbArc
 50
169.896
 51
172.2069999999999
  0
ARC
  5
9C9F
330
9A12
100
AcDbEntity
  8
1
  6
Continuous
100
AcDbCircle
 10
262.278181
 20
191.1909639999999
 30
0.0
 40
0.033014
100
AcDbArc
 50
172.2069999999999
 51
270.0
  0
ARC
  5
9CA0
330
9A12
100
AcDbEntity
  8
1
  6
Continuous
100
AcDbCircle
 10
264.295181
 20
191.3229639999999
 30
0.0
 40
0.165003
100
AcDbArc
 50
10.10399999999999
 51
90.0
  0
ARC
  5
9CA1
330
9A12
100
AcDbEntity
  8
1
  6
Continuous
100
AcDbCircle
 10
264.4501809999998
 20
191.1909639999999
 30
0.0
 40
0.033014
100
AcDbArc
 50
270.0
 51
7.792979999999998
  0
ARC
  5
9CA2
330
9A12
100
AcDbEntity
  8
1
  6
Continuous
100
AcDbCircle
 10
260.594181
 20
190.662964
 30
0.0
 40
3.925309999999998
100
AcDbArc
 50
7.792969999999996
 51
10.10399999999999
  0
ARC
  5
9CA3
330
9A12
100
AcDbEntity
  8
1
  6
Continuous
100
AcDbCircle
 10
263.199181
 20
192.3129639999999
 30
0.0
 40
0.165003
100
AcDbArc
 50
270.0
 51
90.0
  0
ARC
  5
9CA4
330
9A12
100
AcDbEntity
  8
1
  6
Continuous
100
AcDbCircle
 10
263.3641809999999
 20
192.6429639999998
 30
0.0
 40
0.850126
100
AcDbArc
 50
35.54679999999999
 51
144.462
  0
ARC
  5
9CA5
330
9A12
100
AcDbEntity
  8
1
  6
Continuous
100
AcDbCircle
 10
260.594181
 20
190.662964
 30
0.0
 40
4.25518
100
AcDbArc
 50
324.4619999999998
 51
35.53799999999998
  0
ARC
  5
9CA6
330
9A12
100
AcDbEntity
  8
1
  6
Continuous
100
AcDbCircle
 10
264.390181
 20
189.8049639999999
 30
0.0
 40
0.033014
100
AcDbArc
 50
347.2709999999997
 51
90.0
  0
ARC
  5
9CA7
330
9A12
100
AcDbEntity
  8
1
  6
Continuous
100
AcDbCircle
 10
262.339181
 20
189.8049639999999
 30
0.0
 40
0.033014
100
AcDbArc
 50
90.0
 51
192.729
  0
ARC
  5
9CA8
330
9A12
100
AcDbEntity
  8
1
  6
Continuous
100
AcDbCircle
 10
266.1351809999998
 20
190.662964
 30
0.0
 40
4.25518
100
AcDbArc
 50
144.462
 51
215.5379999999999
  0
ARC
  5
9CA9
330
9A12
100
AcDbEntity
  8
1
  6
Continuous
100
AcDbCircle
 10
133.364181
 20
205.6639639999999
 30
0.0
 40
9.5
100
AcDbArc
 50
91.0609
 51
180.0
  0
ARC
  5
9CAA
330
9A12
100
AcDbEntity
  8
1
  6
Continuous
100
AcDbCircle
 10
164.252181
 20
226.663964
 30
0.0
 40
10.0
100
AcDbArc
 50
90.0
 51
132.4919999999998
  0
ARC
  5
9CAB
330
9A12
100
AcDbEntity
  8
1
  6
Continuous
100
AcDbCircle
 10
133.003181
 20
225.159964
 30
0.0
 40
10.0
100
AcDbArc
 50
271.0609999999999
 51
303.7099999999999
  0
ARC
  5
9CAC
330
9A12
100
AcDbEntity
  8
1
  6
Continuous
100
AcDbCircle
 10
133.364181
 20
141.1639639999999
 30
0.0
 40
9.5
100
AcDbArc
 50
180.0
 51
270.0
  0
CIRCLE
  5
9CAD
330
9A12
100
AcDbEntity
  8
2
  6
Continuous
100
AcDbCircle
 10
163.364181
 20
140.6639639999999
 30
0.0
 40
3.0
  0
CIRCLE
  5
9CAE
330
9A12
100
AcDbEntity
  8
2
  6
Continuous
100
AcDbCircle
 10
133.364181
 20
140.6639639999999
 30
0.0
 40
3.0
  0
CIRCLE
  5
9CAF
330
9A12
100
AcDbEntity
  8
2
  6
Continuous
100
AcDbCircle
 10
163.364181
 20
227.6639639999999
 30
0.0
 40
3.0
  0
CIRCLE
  5
9CB0
330
9A12
100
AcDbEntity
  8
1
  6
Continuous
100
AcDbCircle
 10
163.364181
 20
227.6639639999999
 30
0.0
 40
2.458499999999999
  0
CIRCLE
  5
9CB1
330
9A12
100
AcDbEntity
  8
1
  6
Continuous
100
AcDbCircle
 10
163.364181
 20
140.6639639999999
 30
0.0
 40
2.458499999999999
  0
CIRCLE
  5
9CB2
330
9A12
100
AcDbEntity
  8
1
  6
Continuous
100
AcDbCircle
 10
133.364181
 20
140.6639639999999
 30
0.0
 40
2.458499999999999
  0
ARC
  5
9CB3
330
9A12
100
AcDbEntity
  8
1
  6
Continuous
100
AcDbCircle
 10
37.137381
 20
231.6639639999999
 30
0.0
 40
5.0
100
AcDbArc
 50
41.9872
 51
90.0
  0
ARC
  5
9CB4
330
9A12
100
AcDbEntity
  8
1
  6
Continuous
100
AcDbCircle
 10
67.63198100000001
 20
193.2959639999999
 30
0.0
 40
8.0
100
AcDbArc
 50
5.079609999999999
 51
41.9872
  0
ARC
  5
9CB5
330
9A12
100
AcDbEntity
  8
1
  6
Continuous
100
AcDbCircle
 10
70.81808100000002
 20
157.451964
 30
0.0
 40
8.0
100
AcDbArc
 50
286.699
 51
5.079609999999999
  0
ARC
  5
9CB6
330
9A12
100
AcDbEntity
  8
1
  6
Continuous
100
AcDbCircle
 10
59.364181
 20
124.7829639999997
 30
0.0
 40
20.0
100
AcDbArc
 50
107.1789999999998
 51
151.626
  0
ARC
  5
9CB7
330
9A12
100
AcDbEntity
  8
1
  6
Continuous
100
AcDbCircle
 10
37.36748099999999
 20
136.663964
 30
0.0
 40
5.0
100
AcDbArc
 50
270.0
 51
331.6259999999999
  0
ARC
  5
9CB8
330
9A12
100
AcDbEntity
  8
1
  6
Continuous
100
AcDbCircle
 10
133.364181
 20
167.1639639999999
 30
0.0
 40
5.0
100
AcDbArc
 50
278.0869999999998
 51
81.37309999999997
  0
CIRCLE
  5
9CB9
330
9A12
100
AcDbEntity
  8
1
  6
Continuous
100
AcDbCircle
 10
133.364181
 20
205.6639639999999
 30
0.0
 40
4.0
  0
CIRCLE
  5
9CBA
330
9A12
100
AcDbEntity
  8
1
  6
Continuous
100
AcDbCircle
 10
133.364181
 20
167.1639639999999
 30
0.0
 40
7.299999999999998
  0
ARC
  5
9CBB
330
9A12
100
AcDbEntity
  8
1
  6
Continuous
100
AcDbCircle
 10
147.781181
 20
154.326964
 30
0.0
 40
5.0
100
AcDbArc
 50
194.299
 51
14.2985
  0
ARC
  5
9CBC
330
9A12
100
AcDbEntity
  8
1
  6
Continuous
100
AcDbCircle
 10
147.781181
 20
154.326964
 30
0.0
 40
3.5
100
AcDbArc
 50
194.299
 51
339.1789999999998
  0
ARC
  5
9CBD
330
9A12
100
AcDbEntity
  8
1
  6
Continuous
100
AcDbCircle
 10
133.364181
 20
167.1639639999999
 30
0.0
 40
5.799999999999998
100
AcDbArc
 50
273.699
 51
248.618
  0
ARC
  5
9CBE
330
9A12
100
AcDbEntity
  8
1
  6
Continuous
100
AcDbCircle
 10
131.6141809999997
 20
162.6939639999999
 30
0.0
 40
1.0
100
AcDbArc
 50
248.618
 51
0.0
  0
ARC
  5
9CBF
330
9A12
100
AcDbEntity
  8
1
  6
Continuous
100
AcDbCircle
 10
131.6141809999997
 20
162.6939639999999
 30
0.0
 40
2.5
100
AcDbArc
 50
248.618
 51
0.0
  0
ARC
  5
9CC0
330
9A12
100
AcDbEntity
  8
1
  6
Continuous
100
AcDbCircle
 10
133.364181
 20
167.1639639999999
 30
0.0
 40
5.0
100
AcDbArc
 50
98.6269
 51
260.096
  0
ARC
  5
9CC1
330
9A12
100
AcDbEntity
  8
1
  6
Continuous
100
AcDbCircle
 10
48.897481
 20
173.7139639999998
 30
0.0
 40
0.75
100
AcDbArc
 50
0.0
 51
180.0
  0
ARC
  5
9CC2
330
9A12
100
AcDbEntity
  8
1
  6
Continuous
100
AcDbCircle
 10
48.897481
 20
160.6139639999998
 30
0.0
 40
0.75
100
AcDbArc
 50
180.0
 51
0.0
  0
ARC
  5
9CC3
330
9A12
100
AcDbEntity
  8
1
  6
Continuous
100
AcDbCircle
 10
56.31418100000001
 20
173.7139639999998
 30
0.0
 40
0.75
100
AcDbArc
 50
0.0
 51
180.0
  0
ARC
  5
9CC4
330
9A12
100
AcDbEntity
  8
1
  6
Continuous
100
AcDbCircle
 10
56.31418100000001
 20
160.6139639999998
 30
0.0
 40
0.75
100
AcDbArc
 50
180.0
 51
0.0
  0
ARC
  5
9CC5
330
9A12
100
AcDbEntity
  8
1
  6
Continuous
100
AcDbCircle
 10
54.83078100000001
 20
173.7139639999998
 30
0.0
 40
0.75
100
AcDbArc
 50
0.0
 51
180.0
  0
ARC
  5
9CC6
330
9A12
100
AcDbEntity
  8
1
  6
Continuous
100
AcDbCircle
 10
54.83078100000001
 20
160.6139639999998
 30
0.0
 40
0.75
100
AcDbArc
 50
180.0
 51
0.0
  0
ARC
  5
9CC7
330
9A12
100
AcDbEntity
  8
1
  6
Continuous
100
AcDbCircle
 10
53.34748100000001
 20
173.7139639999998
 30
0.0
 40
0.75
100
AcDbArc
 50
0.0
 51
180.0
  0
ARC
  5
9CC8
330
9A12
100
AcDbEntity
  8
1
  6
Continuous
100
AcDbCircle
 10
53.34748100000001
 20
160.6139639999998
 30
0.0
 40
0.75
100
AcDbArc
 50
180.0
 51
0.0
  0
ARC
  5
9CC9
330
9A12
100
AcDbEntity
  8
1
  6
Continuous
100
AcDbCircle
 10
51.864181
 20
173.7139639999998
 30
0.0
 40
0.75
100
AcDbArc
 50
0.0
 51
180.0
  0
ARC
  5
9CCA
330
9A12
100
AcDbEntity
  8
1
  6
Continuous
100
AcDbCircle
 10
51.864181
 20
160.6139639999998
 30
0.0
 40
0.75
100
AcDbArc
 50
180.0
 51
0.0
  0
ARC
  5
9CCB
330
9A12
100
AcDbEntity
  8
1
  6
Continuous
100
AcDbCircle
 10
50.38078099999999
 20
173.7139639999998
 30
0.0
 40
0.75
100
AcDbArc
 50
0.0
 51
180.0
  0
ARC
  5
9CCC
330
9A12
100
AcDbEntity
  8
1
  6
Continuous
100
AcDbCircle
 10
50.38078099999999
 20
160.6139639999998
 30
0.0
 40
0.75
100
AcDbArc
 50
180.0
 51
0.0
  0
CIRCLE
  5
9CCD
330
9A12
100
AcDbEntity
  8
1
  6
Continuous
100
AcDbCircle
 10
69.364181
 20
166.6639639999999
 30
0.0
 40
7.5
  0
ARC
  5
9CCE
330
9A12
100
AcDbEntity
  8
1
  6
Continuous
100
AcDbCircle
 10
69.364181
 20
166.6639639999999
 30
0.0
 40
8.0
100
AcDbArc
 50
336.0
 51
74.2998
  0
ARC
  5
9CCF
330
9A12
100
AcDbEntity
  8
1
  6
Continuous
100
AcDbCircle
 10
56.14198100000001
 20
132.0489639999999
 30
0.0
 40
6.0
100
AcDbArc
 50
163.162
 51
336.0
  0
ARC
  5
9CD0
330
9A12
100
AcDbEntity
  8
1
  6
Continuous
100
AcDbCircle
 10
55.36118100000001
 20
157.0869639999999
 30
0.0
 40
2.0
100
AcDbArc
 50
343.1619999999999
 51
21.7799
  0
CIRCLE
  5
9CD1
330
9A12
100
AcDbEntity
  8
1
  6
Continuous
100
AcDbCircle
 10
56.14198100000001
 20
132.0489639999999
 30
0.0
 40
3.25
  0
ARC
  5
9CD2
330
9A12
100
AcDbEntity
  8
1
  6
Continuous
100
AcDbCircle
 10
46.535481
 20
179.312964
 30
0.0
 40
2.0
100
AcDbArc
 50
74.2998
 51
156.0
  0
ARC
  5
9CD3
330
9A12
100
AcDbEntity
  8
1
  6
Continuous
100
AcDbCircle
 10
133.364181
 20
167.1639639999999
 30
0.0
 40
8.0
100
AcDbArc
 50
114.0629999999999
 51
262.6419999999999
  0
ARC
  5
9CD4
330
9A12
100
AcDbEntity
  8
1
  6
Continuous
100
AcDbCircle
 10
155.562181
 20
176.9409639999999
 30
0.0
 40
0.5
100
AcDbArc
 50
85.65529999999998
 51
111.4929999999999
  0
ARC
  5
9CD5
330
9A12
100
AcDbEntity
  8
1
  6
Continuous
100
AcDbCircle
 10
154.761181
 20
166.4169639999998
 30
0.0
 40
10.0
100
AcDbArc
 50
262.6419999999999
 51
312.8369999999998
  0
ARC
  5
9CD6
330
9A12
100
AcDbEntity
  8
1
  6
Continuous
100
AcDbCircle
 10
163.1351809999999
 20
174.8609639999999
 30
0.0
 40
2.0
100
AcDbArc
 50
29.50839999999999
 51
85.65529999999998
  0
ARC
  5
9CD7
330
9A12
100
AcDbEntity
  8
1
  6
Continuous
100
AcDbCircle
 10
167.955181
 20
174.4659639999999
 30
0.0
 40
2.0
100
AcDbArc
 50
209.5079999999998
 51
229.355
  0
ARC
  5
9CD8
330
9A12
100
AcDbEntity
  8
1
  6
Continuous
100
AcDbCircle
 10
15.664131
 20
208.3639639999999
 30
0.0
 40
2.299999999999998
100
AcDbArc
 50
90.0
 51
180.0
  0
ARC
  5
9CD9
330
9A12
100
AcDbEntity
  8
1
  6
Continuous
100
AcDbCircle
 10
15.664131
 20
152.9639639999998
 30
0.0
 40
2.299999999999998
100
AcDbArc
 50
180.0
 51
270.0
  0
CIRCLE
  5
9CDA
330
9A12
100
AcDbEntity
  8
1
  6
Continuous
100
AcDbCircle
 10
25.364181
 20
174.6639639999999
 30
0.0
 40
2.9
  0
ARC
  5
9CDB
330
9A12
100
AcDbEntity
  8
1
  6
Continuous
100
AcDbCircle
 10
13.364141
 20
150.6639639999999
 30
0.0
 40
2.299999999999998
100
AcDbArc
 50
0.0
 51
90.0
  0
ARC
  5
9CDC
330
9A12
100
AcDbEntity
  8
1
  6
Continuous
100
AcDbCircle
 10
147.864181
 20
190.6639639999999
 30
0.0
 40
14.0
100
AcDbArc
 50
121.3309999999999
 51
134.2549999999999
  0
ARC
  5
9CDD
330
9A12
100
AcDbEntity
  8
1
  6
Continuous
100
AcDbCircle
 10
154.8371809999999
 20
205.0639639999999
 30
0.0
 40
2.0
100
AcDbArc
 50
333.2419999999999
 51
349.685
  0
ARC
  5
9CDE
330
9A12
100
AcDbEntity
  8
1
  6
Continuous
100
AcDbCircle
 10
159.096181
 20
211.7069639999999
 30
0.0
 40
1.0
100
AcDbArc
 50
75.79739999999998
 51
169.6849999999997
  0
ARC
  5
9CDF
330
9A12
100
AcDbEntity
  8
1
  6
Continuous
100
AcDbCircle
 10
130.509181
 20
202.5689639999999
 30
0.0
 40
35.0
100
AcDbArc
 50
325.3809999999999
 51
346.1040000000001
  0
ARC
  5
9CE0
330
9A12
100
AcDbEntity
  8
1
  6
Continuous
100
AcDbCircle
 10
146.9681809999999
 20
191.206964
 30
0.0
 40
15.0
100
AcDbArc
 50
304.0370000000001
 51
325.3809999999999
  0
ARC
  5
9CE1
330
9A12
100
AcDbEntity
  8
1
  6
Continuous
100
AcDbCircle
 10
163.552181
 20
210.5799639999999
 30
0.0
 40
1.0
100
AcDbArc
 50
13.62659999999998
 51
75.79739999999998
  0
ARC
  5
9CE2
330
9A12
100
AcDbEntity
  8
1
  6
Continuous
100
AcDbCircle
 10
48.364181
 20
177.163964
 30
0.0
 40
1.0
100
AcDbArc
 50
90.0
 51
180.0
  0
ARC
  5
9CE3
330
9A12
100
AcDbEntity
  8
1
  6
Continuous
100
AcDbCircle
 10
48.364181
 20
177.163964
 30
0.0
 40
3.0
100
AcDbArc
 50
90.0
 51
180.0
  0
ARC
  5
9CE4
330
9A12
100
AcDbEntity
  8
1
  6
Continuous
100
AcDbCircle
 10
55.364181
 20
181.1639639999999
 30
0.0
 40
1.0
100
AcDbArc
 50
270.0
 51
0.000005
  0
ARC
  5
9CE5
330
9A12
100
AcDbEntity
  8
1
  6
Continuous
100
AcDbCircle
 10
55.364181
 20
181.1639639999999
 30
0.0
 40
3.0
100
AcDbArc
 50
270.0
 51
0.000005
  0
ARC
  5
9CE6
330
9A12
100
AcDbEntity
  8
1
  6
Continuous
100
AcDbCircle
 10
63.51478100000001
 20
189.663964
 30
0.0
 40
3.0
100
AcDbArc
 50
270.0
 51
348.55
  0
ARC
  5
9CE7
330
9A12
100
AcDbEntity
  8
1
  6
Continuous
100
AcDbCircle
 10
58.238081
 20
227.054964
 30
0.0
 40
4.0
100
AcDbArc
 50
6.298319999999998
 51
83.41809999999998
  0
ARC
  5
9CE8
330
9A12
100
AcDbEntity
  8
1
  6
Continuous
100
AcDbCircle
 10
53.364181
 20
204.0869639999999
 30
0.0
 40
3.0
100
AcDbArc
 50
0.0
 51
39.4725
  0
ARC
  5
9CE9
330
9A12
100
AcDbEntity
  8
1
  6
Continuous
100
AcDbCircle
 10
54.31588099999999
 20
215.515964
 30
0.0
 40
5.0
100
AcDbArc
 50
181.548
 51
219.472
  0
ARC
  5
9CEA
330
9A12
100
AcDbEntity
  8
1
  6
Continuous
100
AcDbCircle
 10
133.364181
 20
205.6639639999999
 30
0.0
 40
8.3
100
AcDbArc
 50
42.85379999999999
 51
225.204
  0
ARC
  5
9CEB
330
9A12
100
AcDbEntity
  8
1
  6
Continuous
100
AcDbCircle
 10
115.045181
 20
187.2129639999998
 30
0.0
 40
17.7
100
AcDbArc
 50
359.8059999999999
 51
45.2042
  0
ARC
  5
9CEC
330
9A12
100
AcDbEntity
  8
1
  6
Continuous
100
AcDbCircle
 10
36.364181
 20
210.7279639999999
 30
0.0
 40
2.5
100
AcDbArc
 50
0.0
 51
45.0
  0
ARC
  5
9CED
330
9A12
100
AcDbEntity
  8
1
  6
Continuous
100
AcDbCircle
 10
46.414181
 20
207.1639639999999
 30
0.0
 40
2.5
100
AcDbArc
 50
72.5424
 51
107.458
  0
ARC
  5
9CEE
330
9A12
100
AcDbEntity
  8
1
  6
Continuous
100
AcDbCircle
 10
46.414181
 20
204.163964
 30
0.0
 40
2.5
100
AcDbArc
 50
252.5419999999999
 51
287.4579999999999
  0
ARC
  5
9CEF
330
9A12
100
AcDbEntity
  8
1
  6
Continuous
100
AcDbCircle
 10
133.364181
 20
205.6639639999999
 30
0.0
 40
5.0
100
AcDbArc
 50
75.20520000000002
 51
255.205
  0
ARC
  5
9CF0
330
9A12
100
AcDbEntity
  8
1
  6
Continuous
100
AcDbCircle
 10
130.824181
 20
200.2329639999999
 30
0.0
 40
10.0
100
AcDbArc
 50
319.3989999999997
 51
8.13011
  0
ARC
  5
9CF1
330
9A12
100
AcDbEntity
  8
1
  6
Continuous
100
AcDbCircle
 10
122.864181
 20
177.8759639999999
 30
0.0
 40
8.0
100
AcDbArc
 50
325.276
 51
0.000005
  0
ARC
  5
9CF2
330
9A12
100
AcDbEntity
  8
1
  6
Continuous
100
AcDbCircle
 10
155.169181
 20
162.4149639999999
 30
0.0
 40
5.0
100
AcDbArc
 50
262.8559999999998
 51
312.923
  0
ARC
  5
9CF3
330
9A12
100
AcDbEntity
  8
1
  6
Continuous
100
AcDbCircle
 10
169.001181
 20
161.622964
 30
0.0
 40
5.0
100
AcDbArc
 50
112.789
 51
132.923
  0
ARC
  5
9CF4
330
9A12
100
AcDbEntity
  8
1
  6
Continuous
100
AcDbCircle
 10
160.364181
 20
177.790964
 30
0.0
 40
5.0
100
AcDbArc
 50
180.0
 51
271.4469999999999
  0
ARC
  5
9CF5
330
9A12
100
AcDbEntity
  8
5
  6
PHANTOM
100
AcDbCircle
 10
174.2081809999999
 20
187.6439639999999
 30
0.0
 40
5.0
100
AcDbArc
 50
3.97704
 51
72.1756
  0
ARC
  5
9CF6
330
9A12
100
AcDbEntity
  8
5
  6
PHANTOM
100
AcDbCircle
 10
179.1591809999999
 20
181.325964
 30
0.0
 40
0.5
100
AcDbArc
 50
252.176
 51
3.97704
  0
ARC
  5
9CF7
330
9A12
100
AcDbEntity
  8
1
  6
Continuous
100
AcDbCircle
 10
153.3021809999999
 20
212.163964
 30
0.0
 40
8.0
100
AcDbArc
 50
188.1299999999999
 51
270.0
  0
ARC
  5
9CF8
330
9A12
100
AcDbEntity
  8
1
  6
Continuous
100
AcDbCircle
 10
140.364181
 20
227.163964
 30
0.0
 40
5.0
100
AcDbArc
 50
328.3669999999997
 51
90.0
  0
ARC
  5
9CF9
330
9A12
100
AcDbEntity
  8
1
  6
Continuous
100
AcDbCircle
 10
148.878181
 20
221.9189639999999
 30
0.0
 40
5.0
100
AcDbArc
 50
148.3669999999999
 51
188.1299999999999
  0
ARC
  5
9CFA
330
9A12
100
AcDbEntity
  8
1
  6
Continuous
100
AcDbCircle
 10
163.364181
 20
188.0209639999999
 30
0.0
 40
8.0
100
AcDbArc
 50
129.836
 51
180.0
  0
ARC
  5
9CFB
330
9A12
100
AcDbEntity
  8
1
  6
Continuous
100
AcDbCircle
 10
130.824181
 20
200.2329639999999
 30
0.0
 40
12.0
100
AcDbArc
 50
319.3989999999997
 51
8.13011
  0
ARC
  5
9CFC
330
9A12
100
AcDbEntity
  8
1
  6
Continuous
100
AcDbCircle
 10
147.864181
 20
190.6639639999999
 30
0.0
 40
14.0
100
AcDbArc
 50
140.731
 51
188.504
  0
ARC
  5
9CFD
330
9A12
100
AcDbEntity
  8
1
  6
Continuous
100
AcDbCircle
 10
130.509181
 20
202.5689639999999
 30
0.0
 40
35.0
100
AcDbArc
 50
2.61057
 51
13.62659999999998
  0
ARC
  5
9CFE
330
9A12
100
AcDbEntity
  8
1
  6
Continuous
100
AcDbCircle
 10
165.979181
 20
199.1639639999999
 30
0.0
 40
5.0
100
AcDbArc
 50
21.8014
 51
90.0
  0
ARC
  5
9CFF
330
9A12
100
AcDbEntity
  8
3
  6
DASHED
100
AcDbCircle
 10
172.6251809999999
 20
194.6639639999999
 30
0.0
 40
0.5
100
AcDbArc
 50
270.0
 51
21.8014
  0
ARC
  5
9D00
330
9A12
100
AcDbEntity
  8
1
  6
Continuous
100
AcDbCircle
 10
44.10378099999999
 20
209.9639639999999
 30
0.0
 40
0.7
100
AcDbArc
 50
3.156499999999998
 51
183.1559999999998
  0
ARC
  5
9D01
330
9A12
100
AcDbEntity
  8
1
  6
Continuous
100
AcDbCircle
 10
52.537281
 20
184.1639639999999
 30
0.0
 40
0.7
100
AcDbArc
 50
183.1559999999998
 51
3.156499999999998
  0
ARC
  5
9D02
330
9A12
100
AcDbEntity
  8
1
  6
Continuous
100
AcDbCircle
 10
51.82038099999999
 20
197.163964
 30
0.0
 40
0.7
100
AcDbArc
 50
3.156499999999998
 51
183.1559999999998
  0
ARC
  5
9D03
330
9A12
100
AcDbEntity
  8
1
  6
Continuous
100
AcDbCircle
 10
46.211781
 20
197.163964
 30
0.0
 40
0.7
100
AcDbArc
 50
3.156499999999998
 51
183.1559999999998
  0
ARC
  5
9D04
330
9A12
100
AcDbEntity
  8
1
  6
Continuous
100
AcDbCircle
 10
45.526581
 20
184.1639639999999
 30
0.0
 40
0.7
100
AcDbArc
 50
183.1559999999998
 51
3.156499999999998
  0
ARC
  5
9D05
330
9A12
100
AcDbEntity
  8
1
  6
Continuous
100
AcDbCircle
 10
47.613981
 20
197.163964
 30
0.0
 40
0.7
100
AcDbArc
 50
3.156499999999998
 51
183.1559999999998
  0
ARC
  5
9D06
330
9A12
100
AcDbEntity
  8
1
  6
Continuous
100
AcDbCircle
 10
46.928781
 20
184.1639639999999
 30
0.0
 40
0.7
100
AcDbArc
 50
183.1559999999998
 51
3.156499999999998
  0
ARC
  5
9D07
330
9A12
100
AcDbEntity
  8
1
  6
Continuous
100
AcDbCircle
 10
49.016081
 20
197.163964
 30
0.0
 40
0.7
100
AcDbArc
 50
3.156499999999998
 51
183.1559999999998
  0
ARC
  5
9D08
330
9A12
100
AcDbEntity
  8
1
  6
Continuous
100
AcDbCircle
 10
48.330881
 20
184.1639639999999
 30
0.0
 40
0.7
100
AcDbArc
 50
183.1559999999998
 51
3.156499999999998
  0
ARC
  5
9D09
330
9A12
100
AcDbEntity
  8
1
  6
Continuous
100
AcDbCircle
 10
50.418181
 20
197.163964
 30
0.0
 40
0.7
100
AcDbArc
 50
3.156499999999998
 51
183.1559999999998
  0
ARC
  5
9D0A
330
9A12
100
AcDbEntity
  8
1
  6
Continuous
100
AcDbCircle
 10
49.732981
 20
184.1639639999999
 30
0.0
 40
0.7
100
AcDbArc
 50
183.1559999999998
 51
3.156499999999998
  0
ARC
  5
9D0B
330
9A12
100
AcDbEntity
  8
1
  6
Continuous
100
AcDbCircle
 10
51.135081
 20
184.1639639999999
 30
0.0
 40
0.7
100
AcDbArc
 50
183.1559999999998
 51
3.156499999999998
  0
ARC
  5
9D0C
330
9A12
100
AcDbEntity
  8
1
  6
Continuous
100
AcDbCircle
 10
290.064181
 20
208.3639639999999
 30
0.0
 40
2.299999999999998
100
AcDbArc
 50
0.0
 51
90.0
  0
ARC
  5
9D0D
330
9A12
100
AcDbEntity
  8
1
  6
Continuous
100
AcDbCircle
 10
290.064181
 20
152.9639639999998
 30
0.0
 40
2.299999999999998
100
AcDbArc
 50
270.0
 51
0.0
  0
ARC
  5
9D0E
330
9A12
100
AcDbEntity
  8
1
  6
Continuous
100
AcDbCircle
 10
292.3641809999999
 20
150.6639639999999
 30
0.0
 40
2.299999999999998
100
AcDbArc
 50
90.0
 51
180.0
  0
ARC
  5
9D0F
330
9A12
100
AcDbEntity
  8
1
  6
Continuous
100
AcDbCircle
 10
290.064181
 20
202.3639639999999
 30
0.0
 40
2.299999999999998
100
AcDbArc
 50
0.0
 51
90.0
  0
CIRCLE
  5
9D10
330
9A12
100
AcDbEntity
  8
1
  6
Continuous
100
AcDbCircle
 10
236.364181
 20
166.6639639999999
 30
0.0
 40
3.6
  0
ARC
  5
9D11
330
9A12
100
AcDbEntity
  8
1
  6
Continuous
100
AcDbCircle
 10
358.8641809999999
 20
190.6639639999999
 30
0.0
 40
20.0
100
AcDbArc
 50
0.0
 51
90.0
  0
CIRCLE
  5
9D12
330
9A12
100
AcDbEntity
  8
1
  6
Continuous
100
AcDbCircle
 10
358.8641809999999
 20
190.6639639999999
 30
0.0
 40
4.099999999999996
  0
ARC
  5
9D13
330
9A12
100
AcDbEntity
  8
1
  6
Continuous
100
AcDbCircle
 10
361.3641809999998
 20
171.6639639999999
 30
0.0
 40
7.5
100
AcDbArc
 50
276.615
 51
83.38449999999998
  0
ARC
  5
9D14
330
9A12
100
AcDbEntity
  8
1
  6
Continuous
100
AcDbCircle
 10
345.8641809999999
 20
186.0449639999999
 30
0.0
 40
5.0
100
AcDbArc
 50
166.405
 51
263.384
  0
ARC
  5
9D15
330
9A12
100
AcDbEntity
  8
1
  6
Continuous
100
AcDbCircle
 10
376.564181
 20
150.6639639999999
 30
0.0
 40
2.299999999999998
100
AcDbArc
 50
0.0
 51
180.0
  0
ARC
  5
9D16
330
9A12
100
AcDbEntity
  8
1
  6
Continuous
100
AcDbCircle
 10
343.1641809999999
 20
150.6639639999999
 30
0.0
 40
2.299999999999998
100
AcDbArc
 50
0.0
 51
180.0
  0
ARC
  5
9D17
330
9A12
100
AcDbEntity
  8
1
  6
Continuous
100
AcDbCircle
 10
360.711181
 20
183.9069639999999
 30
0.0
 40
20.0
100
AcDbArc
 50
125.488
 51
171.805
  0
ARC
  5
9D18
330
9A12
100
AcDbEntity
  8
5
  6
PHANTOM
100
AcDbCircle
 10
341.935181
 20
182.0379639999999
 30
0.0
 40
6.599999999999997
100
AcDbArc
 50
318.8759999999998
 51
138.8759999999997
  0
ARC
  5
9D19
330
9A12
100
AcDbEntity
  8
5
  6
PHANTOM
100
AcDbCircle
 10
358.8641809999999
 20
190.6639639999999
 30
0.0
 40
33.0
100
AcDbArc
 50
183.964
 51
190.1519999999999
  0
ARC
  5
9D1A
330
9A12
100
AcDbEntity
  8
5
  6
PHANTOM
100
AcDbCircle
 10
335.919181
 20
189.0729639999999
 30
0.0
 40
10.0
100
AcDbArc
 50
117.0
 51
183.964
  0
ARC
  5
9D1B
330
9A12
100
AcDbEntity
  8
5
  6
PHANTOM
100
AcDbCircle
 10
362.5391809999999
 20
129.7739639999997
 30
0.0
 40
75.0
100
AcDbArc
 50
101.5179999999999
 51
114.176
  0
ARC
  5
9D1C
330
9A12
100
AcDbEntity
  8
5
  6
PHANTOM
100
AcDbCircle
 10
328.349181
 20
185.199964
 30
0.0
 40
2.0
100
AcDbArc
 50
190.1519999999999
 51
255.0769999999999
  0
ARC
  5
9D1D
330
9A12
100
AcDbEntity
  8
5
  6
PHANTOM
100
AcDbCircle
 10
332.348181
 20
184.1339639999999
 30
0.0
 40
2.0
100
AcDbArc
 50
255.0769999999999
 51
318.8759999999998
  0
ARC
  5
9D1E
330
9A12
100
AcDbEntity
  8
5
  6
PHANTOM
100
AcDbCircle
 10
342.482181
 20
168.848964
 30
0.0
 40
2.0
100
AcDbArc
 50
158.962
 51
297.0
  0
ARC
  5
9D1F
330
9A12
100
AcDbEntity
  8
5
  6
PHANTOM
100
AcDbCircle
 10
349.949181
 20
165.9769639999999
 30
0.0
 40
10.0
100
AcDbArc
 50
138.8759999999997
 51
158.962
  0
CIRCLE
  5
9D20
330
9A12
100
AcDbEntity
  8
1
  6
Continuous
100
AcDbCircle
 10
358.8641809999999
 20
190.6639639999999
 30
0.0
 40
4.0
  0
ARC
  5
9D21
330
9A12
100
AcDbEntity
  8
1
  6
Continuous
100
AcDbCircle
 10
349.8641809999999
 20
169.4979639999999
 30
0.0
 40
10.0
100
AcDbArc
 50
180.0
 51
246.964
  0
ARC
  5
9D22
330
9A12
100
AcDbEntity
  8
1
  6
Continuous
100
AcDbCircle
 10
352.644181
 20
164.0739639999999
 30
0.0
 40
2.0
100
AcDbArc
 50
337.7629999999999
 51
21.8764
  0
ARC
  5
9D23
330
9A12
100
AcDbEntity
  8
1
  6
Continuous
100
AcDbCircle
 10
358.8641809999999
 20
171.6639639999999
 30
0.0
 40
6.599999999999997
100
AcDbArc
 50
21.8764
 51
201.8759999999998
  0
ARC
  5
9D24
330
9A12
100
AcDbEntity
  8
1
  6
Continuous
100
AcDbCircle
 10
414.785181
 20
166.2949639999999
 30
0.0
 40
75.0
100
AcDbArc
 50
166.942
 51
177.176
  0
ARC
  5
9D25
330
9A12
100
AcDbEntity
  8
1
  6
Continuous
100
AcDbCircle
 10
173.0641809999999
 20
308.4369639999998
 30
0.0
 40
2.299999999999998
100
AcDbArc
 50
0.0
 51
90.0
  0
ARC
  5
9D26
330
9A12
100
AcDbEntity
  8
1
  6
Continuous
100
AcDbCircle
 10
165.5641809999998
 20
329.4369639999998
 30
0.0
 40
2.299999999999998
100
AcDbArc
 50
181.882
 51
197.719
  0
ARC
  5
9D27
330
9A12
100
AcDbEntity
  8
1
  6
Continuous
100
AcDbCircle
 10
132.164181
 20
329.4369639999998
 30
0.0
 40
2.299999999999998
100
AcDbArc
 50
90.0
 51
180.0
  0
ARC
  5
9D28
330
9A12
100
AcDbEntity
  8
1
  6
Continuous
100
AcDbCircle
 10
165.5641809999998
 20
329.4369639999998
 30
0.0
 40
2.299999999999998
100
AcDbArc
 50
0.0
 51
78.6362
  0
ARC
  5
9D29
330
9A12
100
AcDbEntity
  8
1
  6
Continuous
100
AcDbCircle
 10
126.814181
 20
296.203964
 30
0.0
 40
0.75
100
AcDbArc
 50
90.0
 51
270.0
  0
ARC
  5
9D2A
330
9A12
100
AcDbEntity
  8
1
  6
Continuous
100
AcDbCircle
 10
126.814181
 20
288.786964
 30
0.0
 40
0.75
100
AcDbArc
 50
90.0
 51
270.0
  0
ARC
  5
9D2B
330
9A12
100
AcDbEntity
  8
1
  6
Continuous
100
AcDbCircle
 10
126.814181
 20
290.269964
 30
0.0
 40
0.75
100
AcDbArc
 50
90.0
 51
270.0
  0
ARC
  5
9D2C
330
9A12
100
AcDbEntity
  8
1
  6
Continuous
100
AcDbCircle
 10
126.814181
 20
291.753964
 30
0.0
 40
0.75
100
AcDbArc
 50
90.0
 51
270.0
  0
ARC
  5
9D2D
330
9A12
100
AcDbEntity
  8
1
  6
Continuous
100
AcDbCircle
 10
126.814181
 20
293.236964
 30
0.0
 40
0.75
100
AcDbArc
 50
90.0
 51
270.0
  0
ARC
  5
9D2E
330
9A12
100
AcDbEntity
  8
1
  6
Continuous
100
AcDbCircle
 10
126.814181
 20
294.719964
 30
0.0
 40
0.75
100
AcDbArc
 50
90.0
 51
270.0
  0
ARC
  5
9D2F
330
9A12
100
AcDbEntity
  8
1
  6
Continuous
100
AcDbCircle
 10
138.5811809999998
 20
308.236964
 30
0.0
 40
2.5
100
AcDbArc
 50
270.0
 51
306.87
  0
ARC
  5
9D30
330
9A12
100
AcDbEntity
  8
1
  6
Continuous
100
AcDbCircle
 10
128.1471809999999
 20
308.236964
 30
0.0
 40
2.5
100
AcDbArc
 50
224.555
 51
270.0
  0
ARC
  5
9D31
330
9A12
100
AcDbEntity
  8
1
  6
Continuous
100
AcDbCircle
 10
131.864181
 20
298.686964
 30
0.0
 40
2.5
100
AcDbArc
 50
162.542
 51
197.4579999999999
  0
ARC
  5
9D32
330
9A12
100
AcDbEntity
  8
1
  6
Continuous
100
AcDbCircle
 10
134.8641809999998
 20
298.686964
 30
0.0
 40
2.5
100
AcDbArc
 50
342.5419999999999
 51
17.45759999999998
  0
ARC
  5
9D33
330
9A12
100
AcDbEntity
  8
1
  6
Continuous
100
AcDbCircle
 10
152.045181
 20
296.736964
 30
0.0
 40
10.0
100
AcDbArc
 50
219.5629999999999
 51
270.0
  0
ARC
  5
9D34
330
9A12
100
AcDbEntity
  8
1
  6
Continuous
100
AcDbCircle
 10
152.045181
 20
298.736964
 30
0.0
 40
10.0
100
AcDbArc
 50
219.5629999999999
 51
270.0
  0
ARC
  5
9D35
330
9A12
100
AcDbEntity
  8
1
  6
Continuous
100
AcDbCircle
 10
138.364181
 20
294.2369639999999
 30
0.0
 40
2.0
100
AcDbArc
 50
90.0
 51
180.0
  0
ARC
  5
9D36
330
9A12
100
AcDbEntity
  8
1
  6
Continuous
100
AcDbCircle
 10
135.364181
 20
281.7309639999999
 30
0.0
 40
3.0
100
AcDbArc
 50
180.0
 51
272.3639999999999
  0
ARC
  5
9D37
330
9A12
100
AcDbEntity
  8
1
  6
Continuous
100
AcDbCircle
 10
154.3681809999999
 20
299.4149639999998
 30
0.0
 40
0.7
100
AcDbArc
 50
273.1559999999999
 51
93.15649999999999
  0
ARC
  5
9D38
330
9A12
100
AcDbEntity
  8
1
  6
Continuous
100
AcDbCircle
 10
154.3681809999999
 20
295.208964
 30
0.0
 40
0.7
100
AcDbArc
 50
273.1559999999999
 51
93.15649999999999
  0
ARC
  5
9D39
330
9A12
100
AcDbEntity
  8
1
  6
Continuous
100
AcDbCircle
 10
141.3681809999999
 20
295.893964
 30
0.0
 40
0.7
100
AcDbArc
 50
93.15649999999999
 51
150.6839999999999
  0
ARC
  5
9D3A
330
9A12
100
AcDbEntity
  8
1
  6
Continuous
100
AcDbCircle
 10
154.3681809999999
 20
298.012964
 30
0.0
 40
0.7
100
AcDbArc
 50
273.1559999999999
 51
93.15649999999999
  0
ARC
  5
9D3B
330
9A12
100
AcDbEntity
  8
1
  6
Continuous
100
AcDbCircle
 10
154.3681809999999
 20
296.610964
 30
0.0
 40
0.7
100
AcDbArc
 50
273.1559999999999
 51
93.15649999999999
  0
ARC
  5
9D3C
330
9A12
100
AcDbEntity
  8
1
  6
Continuous
100
AcDbCircle
 10
154.3681809999999
 20
293.806964
 30
0.0
 40
0.7
100
AcDbArc
 50
273.1559999999999
 51
93.15649999999999
  0
ARC
  5
9D3D
330
9A12
100
AcDbEntity
  8
1
  6
Continuous
100
AcDbCircle
 10
129.068181
 20
300.798964
 30
0.0
 40
0.700005
100
AcDbArc
 50
86.8435
 51
266.843
  0
ARC
  5
9D3E
330
9A12
100
AcDbEntity
  8
1
  6
Continuous
100
AcDbCircle
 10
141.3681809999999
 20
298.697964
 30
0.0
 40
0.7
100
AcDbArc
 50
93.15649999999999
 51
273.1559999999999
  0
ARC
  5
9D3F
330
9A12
100
AcDbEntity
  8
1
  6
Continuous
100
AcDbCircle
 10
127.447181
 20
308.7369639999999
 30
0.0
 40
2.5
100
AcDbArc
 50
225.0
 51
270.0
  0
ARC
  5
9D40
330
9A12
100
AcDbEntity
  8
1
  6
Continuous
100
AcDbCircle
 10
160.5811809999998
 20
308.7369639999999
 30
0.0
 40
2.5
100
AcDbArc
 50
270.0
 51
306.87
  0
ARC
  5
9D41
330
9A12
100
AcDbEntity
  8
1
  6
Continuous
100
AcDbCircle
 10
173.3641809999998
 20
286.9539639999999
 30
0.0
 40
2.5
100
AcDbArc
 50
135.0
 51
180.0
  0
ARC
  5
9D42
330
9A12
100
AcDbEntity
  8
1
  6
Continuous
100
AcDbCircle
 10
173.3641809999998
 20
298.271964
 30
0.0
 40
2.5
100
AcDbArc
 50
180.0
 51
225.0
  0
ARC
  5
9D43
330
9A12
100
AcDbEntity
  8
1
  6
Continuous
100
AcDbCircle
 10
173.0641809999999
 20
57.890264
 30
0.0
 40
2.299999999999998
100
AcDbArc
 50
270.0
 51
0.0
  0
ARC
  5
9D44
330
9A12
100
AcDbEntity
  8
1
  6
Continuous
100
AcDbCircle
 10
132.164181
 20
36.890264
 30
0.0
 40
2.299999999999998
100
AcDbArc
 50
180.0
 51
90.0
  0
ARC
  5
9D45
330
9A12
100
AcDbEntity
  8
1
  6
Continuous
100
AcDbCircle
 10
165.5641809999998
 20
36.890264
 30
0.0
 40
2.299999999999998
100
AcDbArc
 50
90.00029999999998
 51
0.0
  0
ARC
  5
9D46
330
9A12
100
AcDbEntity
  8
1
  6
Continuous
100
AcDbCircle
 10
126.814181
 20
70.12366400000001
 30
0.0
 40
0.75
100
AcDbArc
 50
90.0
 51
270.0
  0
ARC
  5
9D47
330
9A12
100
AcDbEntity
  8
1
  6
Continuous
100
AcDbCircle
 10
126.814181
 20
77.54026399999998
 30
0.0
 40
0.75
100
AcDbArc
 50
90.0
 51
270.0
  0
ARC
  5
9D48
330
9A12
100
AcDbEntity
  8
1
  6
Continuous
100
AcDbCircle
 10
126.814181
 20
76.05696399999998
 30
0.0
 40
0.75
100
AcDbArc
 50
90.0
 51
270.0
  0
ARC
  5
9D49
330
9A12
100
AcDbEntity
  8
1
  6
Continuous
100
AcDbCircle
 10
126.814181
 20
74.57366399999997
 30
0.0
 40
0.75
100
AcDbArc
 50
90.0
 51
270.0
  0
ARC
  5
9D4A
330
9A12
100
AcDbEntity
  8
1
  6
Continuous
100
AcDbCircle
 10
126.814181
 20
73.090264
 30
0.0
 40
0.75
100
AcDbArc
 50
90.0
 51
270.0
  0
ARC
  5
9D4B
330
9A12
100
AcDbEntity
  8
1
  6
Continuous
100
AcDbCircle
 10
126.814181
 20
71.60696400000002
 30
0.0
 40
0.75
100
AcDbArc
 50
90.0
 51
270.0
  0
ARC
  5
9D4C
330
9A12
100
AcDbEntity
  8
1
  6
Continuous
100
AcDbCircle
 10
138.5811809999998
 20
58.090264
 30
0.0
 40
2.5
100
AcDbArc
 50
45.0
 51
90.0
  0
ARC
  5
9D4D
330
9A12
100
AcDbEntity
  8
1
  6
Continuous
100
AcDbCircle
 10
128.1471809999999
 20
58.090264
 30
0.0
 40
2.5
100
AcDbArc
 50
90.0
 51
135.4449999999999
  0
ARC
  5
9D4E
330
9A12
100
AcDbEntity
  8
1
  6
Continuous
100
AcDbCircle
 10
135.364181
 20
84.59646399999998
 30
0.0
 40
3.0
100
AcDbArc
 50
87.63580000000002
 51
180.0
  0
ARC
  5
9D4F
330
9A12
100
AcDbEntity
  8
1
  6
Continuous
100
AcDbCircle
 10
160.5811809999998
 20
57.59026399999999
 30
0.0
 40
2.5
100
AcDbArc
 50
53.13009999999999
 51
90.0
  0
ARC
  5
9D50
330
9A12
100
AcDbEntity
  8
1
  6
Continuous
100
AcDbCircle
 10
173.3641809999998
 20
79.373164
 30
0.0
 40
2.5
100
AcDbArc
 50
180.0
 51
225.0
  0
ARC
  5
9D51
330
9A12
100
AcDbEntity
  8
1
  6
Continuous
100
AcDbCircle
 10
173.3641809999998
 20
68.054764
 30
0.0
 40
2.5
100
AcDbArc
 50
135.0
 51
180.0
  0
ARC
  5
9D52
330
9A12
100
AcDbEntity
  8
1
  6
Continuous
100
AcDbCircle
 10
139.914181
 20
77.54026399999998
 30
0.0
 40
0.75
100
AcDbArc
 50
270.0
 51
90.0
  0
ARC
  5
9D53
330
9A12
100
AcDbEntity
  8
1
  6
Continuous
100
AcDbCircle
 10
139.914181
 20
76.05696399999998
 30
0.0
 40
0.75
100
AcDbArc
 50
270.0
 51
90.0
  0
ARC
  5
9D54
330
9A12
100
AcDbEntity
  8
1
  6
Continuous
100
AcDbCircle
 10
139.914181
 20
74.57366399999997
 30
0.0
 40
0.75
100
AcDbArc
 50
270.0
 51
90.0
  0
ARC
  5
9D55
330
9A12
100
AcDbEntity
  8
1
  6
Continuous
100
AcDbCircle
 10
139.914181
 20
73.090264
 30
0.0
 40
0.75
100
AcDbArc
 50
270.0
 51
90.0
  0
ARC
  5
9D56
330
9A12
100
AcDbEntity
  8
1
  6
Continuous
100
AcDbCircle
 10
139.914181
 20
71.60696400000002
 30
0.0
 40
0.75
100
AcDbArc
 50
270.0
 51
90.0
  0
ARC
  5
9D57
330
9A12
100
AcDbEntity
  8
1
  6
Continuous
100
AcDbCircle
 10
36.864181
 20
172.480964
 30
0.0
 40
2.5
100
AcDbArc
 50
0.0
 51
45.0
  0
ARC
  5
9D58
330
9A12
100
AcDbEntity
  8
1
  6
Continuous
100
AcDbCircle
 10
36.864181
 20
161.8459639999999
 30
0.0
 40
2.5
100
AcDbArc
 50
315.0
 51
0.0
  0
ARC
  5
9D59
330
9A12
100
AcDbEntity
  8
1
  6
Continuous
100
AcDbCircle
 10
45.164081
 20
157.6909639999998
 30
0.0
 40
4.5
100
AcDbArc
 50
180.791
 51
270.0
  0
ARC
  5
9D5A
330
9A12
100
AcDbEntity
  8
1
  6
Continuous
100
AcDbCircle
 10
63.51478100000001
 20
188.361964
 30
0.0
 40
3.0
100
AcDbArc
 50
270.0
 51
6.298319999999998
  0
ARC
  5
9D5B
330
9A12
100
AcDbEntity
  8
1
  6
Continuous
100
AcDbCircle
 10
57.864181
 20
185.1639639999999
 30
0.0
 40
1.5
100
AcDbArc
 50
90.0
 51
180.0
  0
ARC
  5
9D5C
330
9A12
100
AcDbEntity
  8
1
  6
Continuous
100
AcDbCircle
 10
140.384181
 20
284.097964
 30
0.0
 40
2.0
100
AcDbArc
 50
180.0
 51
226.584
  0
ARC
  5
9D5D
330
9A12
100
AcDbEntity
  8
1
  6
Continuous
100
AcDbCircle
 10
138.364181
 20
284.097964
 30
0.0
 40
2.0
100
AcDbArc
 50
180.0
 51
226.584
  0
ARC
  5
9D5E
330
9A12
100
AcDbEntity
  8
1
  6
Continuous
100
AcDbCircle
 10
139.914181
 20
70.106964
 30
0.0
 40
0.75
100
AcDbArc
 50
270.0
 51
90.0
  0
CIRCLE
  5
9D5F
330
9A12
100
AcDbEntity
  8
1
  6
Continuous
100
AcDbCircle
 10
249.586181
 20
132.0489639999999
 30
0.0
 40
3.25
  0
ARC
  5
9D60
330
9A12
100
AcDbEntity
  8
1
  6
Continuous
100
AcDbCircle
 10
249.586181
 20
132.0489639999999
 30
0.0
 40
6.0
100
AcDbArc
 50
203.9999999999998
 51
16.8382
  0
ARC
  5
9D61
330
9A12
100
AcDbEntity
  8
1
  6
Continuous
100
AcDbCircle
 10
152.031181
 20
69.35696400000001
 30
0.0
 40
0.75
100
AcDbArc
 50
270.0
 51
90.0
  0
ARC
  5
9D62
330
9A12
100
AcDbEntity
  8
1
  6
Continuous
100
AcDbCircle
 10
48.130781
 20
150.076964
 30
0.0
 40
0.75
100
AcDbArc
 50
180.0
 51
0.0
  0
ARC
  5
9D63
330
9A12
100
AcDbEntity
  8
1
  6
Continuous
100
AcDbCircle
 10
45.164081
 20
158.4589639999999
 30
0.0
 40
4.5
100
AcDbArc
 50
190.6349999999999
 51
270.0
  0
ARC
  5
9D64
330
9A12
100
AcDbEntity
  8
1
  6
Continuous
100
AcDbCircle
 10
247.4901809999999
 20
227.054964
 30
0.0
 40
4.0
100
AcDbArc
 50
96.58200000000002
 51
173.702
  0
ARC
  5
9D65
330
9A12
100
AcDbEntity
  8
1
  6
Continuous
100
AcDbCircle
 10
357.850181
 20
221.9189639999999
 30
0.0
 40
5.0
100
AcDbArc
 50
356.0249999999999
 51
31.6326
  0
ARC
  5
9D66
330
9A12
100
AcDbEntity
  8
1
  6
Continuous
100
AcDbCircle
 10
366.3641809999999
 20
227.163964
 30
0.0
 40
5.0
100
AcDbArc
 50
90.0
 51
211.633
  0
ARC
  5
9D67
330
9A12
100
AcDbEntity
  8
5
  6
PHANTOM
100
AcDbCircle
 10
164.894181
 20
214.541964
 30
0.0
 40
5.0
100
AcDbArc
 50
130.543
 51
170.3059999999998
  0
ARC
  5
9D68
330
9A12
100
AcDbEntity
  8
5
  6
PHANTOM
100
AcDbCircle
 10
158.3941809999998
 20
222.140964
 30
0.0
 40
5.0
100
AcDbArc
 50
310.543
 51
72.1756
  0
ARC
  5
9D69
330
9A12
100
AcDbEntity
  8
1
  6
Continuous
100
AcDbCircle
 10
141.3681809999999
 20
297.295964
 30
0.0
 40
0.7
100
AcDbArc
 50
93.15649999999999
 51
273.1559999999999
  0
ARC
  5
9D6A
330
9A12
100
AcDbEntity
  8
1
  6
Continuous
100
AcDbCircle
 10
158.930181
 20
286.236964
 30
0.0
 40
3.0
100
AcDbArc
 50
210.964
 51
270.0
  0
ARC
  5
9D6B
330
9A12
100
AcDbEntity
  8
1
  6
Continuous
100
AcDbCircle
 10
158.930181
 20
286.236964
 30
0.0
 40
1.0
100
AcDbArc
 50
210.964
 51
270.0
  0
ARC
  5
9D6C
330
9A12
100
AcDbEntity
  8
1
  6
Continuous
100
AcDbCircle
 10
161.930181
 20
286.236964
 30
0.0
 40
1.0
100
AcDbArc
 50
210.964
 51
270.0
  0
ARC
  5
9D6D
330
9A12
100
AcDbEntity
  8
1
  6
Continuous
100
AcDbCircle
 10
154.565181
 20
285.7369639999999
 30
0.0
 40
1.0
100
AcDbArc
 50
30.9638
 51
90.0
  0
ARC
  5
9D6E
330
9A12
100
AcDbEntity
  8
1
  6
Continuous
100
AcDbCircle
 10
154.565181
 20
285.7369639999999
 30
0.0
 40
3.0
100
AcDbArc
 50
30.9638
 51
90.0
  0
ARC
  5
9D6F
330
9A12
100
AcDbEntity
  8
1
  6
Continuous
100
AcDbCircle
 10
157.565181
 20
285.7369639999999
 30
0.0
 40
3.0
100
AcDbArc
 50
30.9638
 51
90.0
  0
ARC
  5
9D70
330
9A12
100
AcDbEntity
  8
1
  6
Continuous
100
AcDbCircle
 10
133.364181
 20
205.6639639999999
 30
0.0
 40
4.5
100
AcDbArc
 50
292.0749999999998
 51
75.2051
  0
ARC
  5
9D71
330
9A12
100
AcDbEntity
  8
1
  6
Continuous
100
AcDbCircle
 10
163.0631809999998
 20
80.09026400000001
 30
0.0
 40
1.0
100
AcDbArc
 50
90.0
 51
149.036
  0
ARC
  5
9D72
330
9A12
100
AcDbEntity
  8
1
  6
Continuous
100
AcDbCircle
 10
163.0631809999998
 20
80.09026400000001
 30
0.0
 40
3.0
100
AcDbArc
 50
90.0
 51
149.036
  0
ARC
  5
9D73
330
9A12
100
AcDbEntity
  8
1
  6
Continuous
100
AcDbCircle
 10
158.698181
 20
80.590264
 30
0.0
 40
3.0
100
AcDbArc
 50
270.0
 51
329.036
  0
ARC
  5
9D74
330
9A12
100
AcDbEntity
  8
1
  6
Continuous
100
AcDbCircle
 10
158.698181
 20
80.590264
 30
0.0
 40
1.0
100
AcDbArc
 50
270.0
 51
329.036
  0
ARC
  5
9D75
330
9A12
100
AcDbEntity
  8
1
  6
Continuous
100
AcDbCircle
 10
158.930181
 20
80.09026400000001
 30
0.0
 40
3.0
100
AcDbArc
 50
90.0
 51
149.036
  0
ARC
  5
9D76
330
9A12
100
AcDbEntity
  8
1
  6
Continuous
100
AcDbCircle
 10
154.565181
 20
80.590264
 30
0.0
 40
1.0
100
AcDbArc
 50
270.0
 51
329.036
  0
ARC
  5
9D77
330
9A12
100
AcDbEntity
  8
1
  6
Continuous
100
AcDbCircle
 10
263.009181
 20
208.6469639999999
 30
0.0
 40
0.393389
100
AcDbArc
 50
90.0
 51
180.0
  0
ARC
  5
9D78
330
9A12
100
AcDbEntity
  8
1
  6
Continuous
100
AcDbCircle
 10
263.072181
 20
208.6469639999999
 30
0.0
 40
0.393389
100
AcDbArc
 50
0.0
 51
90.0
  0
ARC
  5
9D79
330
9A12
100
AcDbEntity
  8
1
  6
Continuous
100
AcDbCircle
 10
263.070181
 20
202.2779639999999
 30
0.0
 40
0.393389
100
AcDbArc
 50
270.0
 51
90.0
  0
ARC
  5
9D7A
330
9A12
100
AcDbEntity
  8
1
  6
Continuous
100
AcDbCircle
 10
263.007181
 20
202.2779639999999
 30
0.0
 40
0.393389
100
AcDbArc
 50
90.0
 51
270.0
  0
ARC
  5
9D7B
330
9A12
100
AcDbEntity
  8
1
  6
Continuous
100
AcDbCircle
 10
263.721181
 20
202.2779639999999
 30
0.0
 40
0.393389
100
AcDbArc
 50
270.0
 51
90.0
  0
ARC
  5
9D7C
330
9A12
100
AcDbEntity
  8
1
  6
Continuous
100
AcDbCircle
 10
263.7221809999999
 20
203.7539639999998
 30
0.0
 40
0.393389
100
AcDbArc
 50
270.0
 51
90.0
  0
ARC
  5
9D7D
330
9A12
100
AcDbEntity
  8
1
  6
Continuous
100
AcDbCircle
 10
263.509181
 20
203.7539639999998
 30
0.0
 40
0.393389
100
AcDbArc
 50
90.0
 51
270.0
  0
ARC
  5
9D7E
330
9A12
100
AcDbEntity
  8
1
  6
Continuous
100
AcDbCircle
 10
263.006181
 20
200.801964
 30
0.0
 40
0.393389
100
AcDbArc
 50
90.0
 51
270.0
  0
ARC
  5
9D7F
330
9A12
100
AcDbEntity
  8
1
  6
Continuous
100
AcDbCircle
 10
263.068181
 20
200.801964
 30
0.0
 40
0.393389
100
AcDbArc
 50
48.775
 51
90.0
  0
LINE
  5
9D80
330
9A12
100
AcDbEntity
  8
1
  6
Continuous
100
AcDbLine
 10
38.36414099999998
 20
144.6639639999999
 30
0.0
 11
38.36414099999993
 21
136.663964
 31
0.0
  0
LINE
  5
9D81
330
9A12
100
AcDbEntity
  8
1
  6
Continuous
100
AcDbLine
 10
38.36414099999993
 20
136.663964
 30
0.0
 11
36.664141
 21
135.6824685423775
 31
0.0
  0
LINE
  5
9D82
330
9A12
100
AcDbEntity
  8
1
  6
Continuous
100
AcDbLine
 10
38.36414099999993
 20
144.6639639999999
 30
0.0
 11
36.664141
 21
145.6454594576223
 31
0.0
  0
LINE
  5
9D83
330
9A12
100
AcDbEntity
  8
1
  6
Continuous
100
AcDbLine
 10
38.36414099999998
 20
231.6639639999999
 30
0.0
 11
38.36414099999993
 21
223.6639639999999
 31
0.0
  0
LINE
  5
9D84
330
9A12
100
AcDbEntity
  8
1
  6
Continuous
100
AcDbLine
 10
38.36414099999993
 20
231.6639639999999
 30
0.0
 11
36.664141
 21
232.6454594576222
 31
0.0
  0
LINE
  5
9D85
330
9A12
100
AcDbEntity
  8
1
  6
Continuous
100
AcDbLine
 10
38.36414099999993
 20
223.6639639999999
 30
0.0
 11
36.664141
 21
222.6824685423776
 31
0.0
  0
CIRCLE
  5
9D86
330
9A12
100
AcDbEntity
  8
1
  6
Continuous
100
AcDbCircle
 10
133.364181
 20
140.6639639999999
 30
0.0
 40
4.0
  0
CIRCLE
  5
9D87
330
9A12
100
AcDbEntity
  8
1
  6
Continuous
100
AcDbCircle
 10
163.364181
 20
140.6639639999999
 30
0.0
 40
4.0
  0
CIRCLE
  5
9D88
330
9A12
100
AcDbEntity
  8
1
  6
Continuous
100
AcDbCircle
 10
163.364181
 20
227.6639639999999
 30
0.0
 40
4.0
  0
LINE
  5
9D89
330
9A12
100
AcDbEntity
  8
1
  6
Continuous
100
AcDbLine
 10
159.3641809999998
 20
306.7369039999999
 30
0.0
 11
158.3826855423773
 21
308.436904
 31
0.0
  0
LINE
  5
9D8A
330
9A12
100
AcDbEntity
  8
1
  6
Continuous
100
AcDbLine
 10
167.3641809999998
 20
306.7369039999999
 30
0.0
 11
168.3456764576221
 21
308.4369039999999
 31
0.0
  0
LINE
  5
9D8B
330
9A12
100
AcDbEntity
  8
1
  6
Continuous
100
AcDbLine
 10
167.3641809999998
 20
306.7369039999999
 30
0.0
 11
159.3641809999998
 21
306.7369039999999
 31
0.0
  0
LINE
  5
9D8C
330
9A12
100
AcDbEntity
  8
1
  6
Continuous
100
AcDbLine
 10
167.3641809999998
 20
59.59032399999995
 30
0.0
 11
168.3456764576221
 21
57.89032400000002
 31
0.0
  0
LINE
  5
9D8D
330
9A12
100
AcDbEntity
  8
1
  6
Continuous
100
AcDbLine
 10
167.3641809999998
 20
59.59032399999995
 30
0.0
 11
159.3641809999998
 21
59.5903239999999
 31
0.0
  0
LINE
  5
9D8E
330
9A12
100
AcDbEntity
  8
1
  6
Continuous
100
AcDbLine
 10
159.3641809999998
 20
59.5903239999999
 30
0.0
 11
158.3826855423773
 21
57.89032399999996
 31
0.0
  0
LINE
  5
9D8F
330
9A12
100
AcDbEntity
  8
1
  6
Continuous
100
AcDbLine
 10
137.3641809999998
 20
59.59032399999995
 30
0.0
 11
129.3641809999997
 21
59.5903239999999
 31
0.0
  0
LINE
  5
9D90
330
9A12
100
AcDbEntity
  8
1
  6
Continuous
100
AcDbLine
 10
137.3641809999998
 20
59.59032399999995
 30
0.0
 11
138.3456764576223
 21
57.89032400000002
 31
0.0
  0
LINE
  5
9D91
330
9A12
100
AcDbEntity
  8
1
  6
Continuous
100
AcDbLine
 10
129.3641809999997
 20
59.5903239999999
 30
0.0
 11
128.3826855423773
 21
57.89032399999996
 31
0.0
  0
LINE
  5
9D92
330
9A12
100
AcDbEntity
  8
1
  6
Continuous
100
AcDbLine
 10
173.0641809999999
 20
157.7109639999999
 30
0.0
 11
173.0641809999999
 21
131.6639639999999
 31
0.0
  0
ARC
  5
9D93
330
9A12
100
AcDbEntity
  8
1
  6
Continuous
100
AcDbCircle
 10
173.3641809999998
 20
160.6636551934579
 30
0.0
 40
2.299999999999998
100
AcDbArc
 50
180.0
 51
225.0
  0
LINE
  5
9D94
330
9A12
100
AcDbEntity
  8
1
  6
Continuous
100
AcDbLine
 10
173.3641809999998
 20
160.663964
 30
0.0
 11
174.690526596729
 21
159.3376184032709
 31
0.0
  0
LINE
  5
9D95
330
9A12
100
AcDbEntity
  8
1
  6
Continuous
100
AcDbLine
 10
171.7378354032708
 20
159.0373095967288
 30
0.0
 11
173.0641809999999
 21
157.7109639999999
 31
0.0
  0
ARC
  5
9D96
330
9A12
100
AcDbEntity
  8
1
  6
Continuous
100
AcDbCircle
 10
173.0641809999999
 20
157.7112728065418
 30
0.0
 40
2.299999999999998
100
AcDbArc
 50
0.000000000000007
 51
45.0
  0
LINE
  5
9D97
330
9A12
100
AcDbEntity
  8
1
  6
Continuous
100
AcDbLine
 10
173.3641809999998
 20
204.6639639999999
 30
0.0
 11
173.3641809999998
 21
160.663964
 31
0.0
  0
LINE
  5
9D98
330
9A12
100
AcDbEntity
  8
1
  6
Continuous
100
AcDbLine
 10
171.064181
 20
204.6632728065416
 30
0.0
 11
171.064181
 21
126.0489639999997
 31
0.0
  0
ARC
  5
9D99
330
9A12
100
AcDbEntity
  8
1
  6
Continuous
100
AcDbCircle
 10
173.3641809999998
 20
204.6632728065416
 30
0.0
 40
2.299999999999998
100
AcDbArc
 50
135.0
 51
180.0
  0
LINE
  5
9D9A
330
9A12
100
AcDbEntity
  8
1
  6
Continuous
100
AcDbLine
 10
171.7378354032708
 20
206.2896184032708
 30
0.0
 11
173.0641809999999
 21
207.6159639999999
 31
0.0
  0
ARC
  5
9D9B
330
9A12
100
AcDbEntity
  8
1
  6
Continuous
100
AcDbCircle
 10
173.0641809999999
 20
207.6166551934579
 30
0.0
 40
2.299999999999998
100
AcDbArc
 50
315.0
 51
0.000000000000007
  0
LINE
  5
9D9C
330
9A12
100
AcDbEntity
  8
1
  6
Continuous
100
AcDbLine
 10
173.3641809999998
 20
204.6639639999999
 30
0.0
 11
174.690526596729
 21
205.9903095967288
 31
0.0
  0
LINE
  5
9D9D
330
9A12
100
AcDbEntity
  8
1
  6
Continuous
100
AcDbLine
 10
173.0641809999999
 20
236.6639639999999
 30
0.0
 11
173.0641809999999
 21
207.6159639999999
 31
0.0
  0
ENDSEC
  0
SECTION
  2
OBJECTS
  0
DICTIONARY
  5
9A00
330
0
100
AcDbDictionary
281
     1
  3
ACAD_CIP_PREVIOUS_PRODUCT_INFO
350
9E03
  3
ACAD_COLOR
350
9DE5
  3
ACAD_DETAILVIEWSTYLE
350
9DFE
  3
ACAD_GROUP
350
9A01
  3
ACAD_LAYOUT
350
9A0D
  3
ACAD_MATERIAL
350
9DB3
  3
ACAD_MLEADERSTYLE
350
9DFA
  3
ACAD_MLINESTYLE
350
9A0A
  3
ACAD_PLOTSETTINGS
350
9A0C
  3
ACAD_PLOTSTYLENAME
350
9DB1
  3
ACAD_SCALELIST
350
9DE8
  3
ACAD_SECTIONVIEWSTYLE
350
9DFC
  3
ACAD_TABLESTYLE
350
9DE6
  3
ACAD_VISUALSTYLE
350
9DCC
  3
ACDB_RECOMPOSE_DATA
350
9E21
  3
AcDbVariableDictionary
350
9E14
  3
DWGPROPS
350
9E22
  0
DICTIONARY
  5
9E04
330
9A04
100
AcDbDictionary
280
     1
281
     1
  3
ADSK_XREC_LAYER_RECONCILED
360
9E05
  0
DICTIONARY
  5
9E06
330
9A1A
100
AcDbDictionary
280
     1
281
     1
  3
ADSK_XREC_LAYER_RECONCILED
360
9E07
  0
DICTIONARY
  5
9E08
330
9A1B
100
AcDbDictionary
280
     1
281
     1
  3
ADSK_XREC_LAYER_RECONCILED
360
9E09
  0
DICTIONARY
  5
9E0A
330
9A1C
100
AcDbDictionary
280
     1
281
     1
  3
ADSK_XREC_LAYER_RECONCILED
360
9E0B
  0
DICTIONARY
  5
9E0C
330
9A1D
100
AcDbDictionary
280
     1
281
     1
  3
ADSK_XREC_LAYER_RECONCILED
360
9E0D
  0
DICTIONARY
  5
9E0E
330
9A1E
100
AcDbDictionary
280
     1
281
     1
  3
ADSK_XREC_LAYER_RECONCILED
360
9E0F
  0
DICTIONARY
  5
9E10
330
9A1F
100
AcDbDictionary
280
     1
281
     1
  3
ADSK_XREC_LAYER_RECONCILED
360
9E11
  0
DICTIONARY
  5
9E12
330
9A20
100
AcDbDictionary
280
     1
281
     1
  3
ADSK_XREC_LAYER_RECONCILED
360
9E13
  0
DICTIONARY
  5
9DAC
330
9A12
100
AcDbDictionary
281
     1
  3
ACAD_LAYOUTSELFREF
350
9DAD
  0
DICTIONARY
  5
9DAA
330
9A0E
100
AcDbDictionary
281
     1
  3
ACAD_LAYOUTSELFREF
350
9DAB
  0
XRECORD
  5
9E03
102
{ACAD_REACTORS
330
9A00
102
}
330
9A00
100
AcDbXrecord
280
     1
300
ACDLT
300
2014
300
ACDLT_F_S
  0
DICTIONARY
  5
9DE5
102
{ACAD_REACTORS
330
9A00
102
}
330
9A00
100
AcDbDictionary
281
     1
  0
DICTIONARY
  5
9DFE
102
{ACAD_REACTORS
330
9A00
102
}
330
9A00
100
AcDbDictionary
281
     1
  3
Imperial24
350
9DFF
  0
DICTIONARY
  5
9A01
102
{ACAD_REACTORS
330
9A00
102
}
330
9A00
100
AcDbDictionary
281
     1
  0
DICTIONARY
  5
9A0D
102
{ACAD_REACTORS
330
9A00
102
}
330
9A00
100
AcDbDictionary
281
     1
  3
Model
350
9E00
  3
レイアウト1
350
9E01
  0
DICTIONARY
  5
9DB3
102
{ACAD_REACTORS
330
9A00
102
}
330
9A00
100
AcDbDictionary
281
     1
  3
ByBlock
350
9DBC
  3
ByLayer
350
9DB4
  3
Global
350
9DC4
  0
DICTIONARY
  5
9DFA
102
{ACAD_REACTORS
330
9A00
102
}
330
9A00
100
AcDbDictionary
281
     1
  3
Standard
350
9DFB
  0
DICTIONARY
  5
9A0A
102
{ACAD_REACTORS
330
9A00
102
}
330
9A00
100
AcDbDictionary
281
     1
  3
STANDARD
350
9A0B
  0
DICTIONARY
  5
9A0C
102
{ACAD_REACTORS
330
9A00
102
}
330
9A00
100
AcDbDictionary
281
     1
  0
ACDBDICTIONARYWDFLT
  5
9DB1
102
{ACAD_REACTORS
330
9A00
102
}
330
9A00
100
AcDbDictionary
281
     1
  3
Normal
350
9DB2
100
AcDbDictionaryWithDefault
340
9DB2
  0
DICTIONARY
  5
9DE8
102
{ACAD_REACTORS
330
9A00
102
}
330
9A00
100
AcDbDictionary
281
     1
  3
A0
350
9DE9
  3
A1
350
9DEA
  3
A2
350
9DEB
  3
A3
350
9DEC
  3
A4
350
9DED
  3
A5
350
9DEE
  3
A6
350
9DEF
  3
A7
350
9DF0
  3
A8
350
9DF1
  3
A9
350
9DF2
  3
B0
350
9DF3
  3
B1
350
9DF4
  3
B2
350
9DF5
  3
B3
350
9DF6
  3
B4
350
9DF7
  3
B5
350
9DF8
  3
B6
350
9DF9
  0
DICTIONARY
  5
9DFC
102
{ACAD_REACTORS
330
9A00
102
}
330
9A00
100
AcDbDictionary
281
     1
  3
Imperial24
350
9DFD
  0
DICTIONARY
  5
9DE6
102
{ACAD_REACTORS
330
9A00
102
}
330
9A00
100
AcDbDictionary
281
     1
  3
Standard
350
9DE7
  0
DICTIONARY
  5
9DCC
102
{ACAD_REACTORS
330
9A00
102
}
330
9A00
100
AcDbDictionary
281
     1
  3
2dWireframe
350
9DD2
  3
Basic
350
9DD1
  3
Brighten
350
9DD8
  3
ColorChange
350
9DDC
  3
Conceptual
350
9DD5
  3
Dim
350
9DD7
  3
EdgeColorOff
350
9DE4
  3
Facepattern
350
9DDB
  3
Flat
350
9DCD
  3
FlatWithEdges
350
9DCE
  3
Gouraud
350
9DCF
  3
GouraudWithEdges
350
9DD0
  3
Hidden
350
9DD4
  3
JitterOff
350
9DE2
  3
Linepattern
350
9DDA
  3
OverhangOff
350
9DE3
  3
Realistic
350
9DD6
  3
Shaded
350
9DE1
  3
Shaded with edges
350
9DE0
  3
Shades of Gray
350
9DDD
  3
Sketchy
350
9DDE
  3
Thicken
350
9DD9
  3
Wireframe
350
9DD3
  3
X-Ray
350
9DDF
  0
XRECORD
  5
9E21
102
{ACAD_REACTORS
330
9A00
102
}
330
9A00
100
AcDbXrecord
280
     1
 90
        1
330
9DE7
  0
DICTIONARY
  5
9E14
102
{ACAD_REACTORS
330
9A00
102
}
330
9A00
100
AcDbDictionary
281
     1
  3
CANNOSCALE
350
9E19
  3
CMLEADERSTYLE
350
9E16
  3
CTABLESTYLE
350
9E15
  3
CVIEWDETAILSTYLE
350
9E17
  3
CVIEWSECTIONSTYLE
350
9E18
  3
DIMASSOC
350
9E1C
  3
INDEXCTL
350
9E1B
  3
SORTENTS
350
9E1A
  3
XCLIPFRAME
350
9E1D
  0
XRECORD
  5
9E22
102
{ACAD_REACTORS
330
9A00
102
}
330
9A00
100
AcDbXrecord
280
     1
  1
DWGPROPS COOKIE
  2

  3

  4

  6

  7

  8
Yoshitsune
  9

300
=
301
=
302
=
303
=
304
=
305
=
306
=
307
=
308
=
309
=
 40
0.0053742708333333
 41
2450737.70091412
 42
2457192.640324526
  1

 90
        0
  0
XRECORD
  5
9E05
102
{ACAD_REACTORS
330
9E04
102
}
330
9E04
100
AcDbXrecord
280
     1
290
     1
  0
XRECORD
  5
9E07
102
{ACAD_REACTORS
330
9E06
102
}
330
9E06
100
AcDbXrecord
280
     1
290
     1
  0
XRECORD
  5
9E09
102
{ACAD_REACTORS
330
9E08
102
}
330
9E08
100
AcDbXrecord
280
     1
290
     1
  0
XRECORD
  5
9E0B
102
{ACAD_REACTORS
330
9E0A
102
}
330
9E0A
100
AcDbXrecord
280
     1
290
     1
  0
XRECORD
  5
9E0D
102
{ACAD_REACTORS
330
9E0C
102
}
330
9E0C
100
AcDbXrecord
280
     1
290
     1
  0
XRECORD
  5
9E0F
102
{ACAD_REACTORS
330
9E0E
102
}
330
9E0E
100
AcDbXrecord
280
     1
290
     1
  0
XRECORD
  5
9E11
102
{ACAD_REACTORS
330
9E10
102
}
330
9E10
100
AcDbXrecord
280
     1
290
     1
  0
XRECORD
  5
9E13
102
{ACAD_REACTORS
330
9E12
102
}
330
9E12
100
AcDbXrecord
280
     1
290
     1
  0
XRECORD
  5
9DAD
102
{ACAD_REACTORS
330
9DAC
102
}
330
9DAC
100
AcDbXrecord
280
     1
340
9A12
  0
XRECORD
  5
9DAB
102
{ACAD_REACTORS
330
9DAA
102
}
330
9DAA
100
AcDbXrecord
280
     1
340
9A0E
  0
ACDBDETAILVIEWSTYLE
  5
9DFF
102
{ACAD_XDICTIONARY
360
9E5A
102
}
102
{ACAD_REACTORS
330
9DFE
102
}
330
9DFE
100
AcDbModelDocViewStyle
 70
     0
  3
Imperial24
290
     0
100
AcDbDetailViewStyle
 70
     0
 71
     0
 90
        3
 71
     1
340
9A05
 40
0.24
340
0
 40
0.24
300

 40
0.36
280
     3
 71
     2
340
9A09
 90
       25
 71
     3
340
9A05
 40
0.24
 90
        1
 40
0.75
 90
        1
300
%<\AcVar ViewType \f "%tc1">% %<\AcVar ViewDetailId>%\PSCALE %<\AcVar ViewScale \f "%sn">%
 71
     4
340
9A09
 90
       25
340
9A09
 90
       25
280
     0
  0
LAYOUT
  5
9E00
102
{ACAD_XDICTIONARY
360
9E5C
102
}
102
{ACAD_REACTORS
330
9A0D
102
}
330
9A0D
100
AcDbPlotSettings
  1

  2
Canon LBP9100C
  4

  6

 40
0.0
 41
0.0
 42
0.0
 43
0.0
 44
0.0
 45
0.0
 46
0.0
 47
0.0
 48
0.0
 49
0.0
140
0.0
141
0.0
142
1.0
143
1.0
 70
  1712
 72
     0
 73
     0
 74
     0
  7

 75
     0
147
1.0
148
0.0
149
0.0
100
AcDbLayout
  1
Model
 70
     1
 71
     0
 10
0.0
 20
0.0
 11
12.0
 21
9.0
 12
0.0
 22
0.0
 32
0.0
 14
0.0
 24
0.0
 34
0.0
 15
0.0
 25
0.0
 35
0.0
146
0.0
 13
0.0
 23
0.0
 33
0.0
 16
1.0
 26
0.0
 36
0.0
 17
0.0
 27
1.0
 37
0.0
 76
     0
330
9A12
331
9DA9
  0
LAYOUT
  5
9E01
102
{ACAD_XDICTIONARY
360
9E5E
102
}
102
{ACAD_REACTORS
330
9A0D
102
}
330
9A0D
100
AcDbPlotSettings
  1

  2
Canon LBP9100C
  4

  6

 40
0.0
 41
0.0
 42
0.0
 43
0.0
 44
0.0
 45
0.0
 46
0.0
 47
0.0
 48
0.0
 49
0.0
140
0.0
141
0.0
142
1.0
143
1.0
 70
   688
 72
     0
 73
     0
 74
     5
  7

 75
    16
147
1.0
148
0.0
149
0.0
100
AcDbLayout
  1
レイアウト1
 70
     0
 71
     1
 10
0.0
 20
0.0
 11
420.0
 21
297.0
 12
0.0
 22
0.0
 32
0.0
 14
1.000000000000000E+20
 24
1.000000000000000E+20
 34
1.000000000000000E+20
 15
-1.000000000000000E+20
 25
-1.000000000000000E+20
 35
-1.000000000000000E+20
146
0.0
 13
0.0
 23
0.0
 33
0.0
 16
1.0
 26
0.0
 36
0.0
 17
0.0
 27
1.0
 37
0.0
 76
     0
330
9A0E
  0
MATERIAL
  5
9DBC
102
{ACAD_XDICTIONARY
360
9DBD
102
}
102
{ACAD_REACTORS
330
9DB3
102
}
330
9DB3
100
AcDbMaterial
  1
ByBlock
 72
     0
 43
0.0208333333333333
 43
0.0
 43
0.0
 43
0.0
 43
0.0
 43
0.0208333333333333
 43
0.0
 43
0.0
 43
0.0
 43
0.0
 43
1.0
 43
0.0
 43
0.0
 43
0.0
 43
0.0
 43
1.0
 77
     0
 47
0.0208333333333333
 47
0.0
 47
0.0
 47
0.0
 47
0.0
 47
0.0208333333333333
 47
0.0
 47
0.0
 47
0.0
 47
0.0
 47
1.0
 47
0.0
 47
0.0
 47
0.0
 47
0.0
 47
1.0
171
     0
 49
0.0208333333333333
 49
0.0
 49
0.0
 49
0.0
 49
0.0
 49
0.0208333333333333
 49
0.0
 49
0.0
 49
0.0
 49
0.0
 49
1.0
 49
0.0
 49
0.0
 49
0.0
 49
0.0
 49
1.0
175
     0
142
0.0208333333333333
142
0.0
142
0.0
142
0.0
142
0.0
142
0.0208333333333333
142
0.0
142
0.0
142
0.0
142
0.0
142
1.0
142
0.0
142
0.0
142
0.0
142
0.0
142
1.0
179
     0
144
0.0208333333333333
144
0.0
144
0.0
144
0.0
144
0.0
144
0.0208333333333333
144
0.0
144
0.0
144
0.0
144
0.0
144
1.0
144
0.0
144
0.0
144
0.0
144
0.0
144
1.0
147
0.0208333333333333
147
0.0
147
0.0
147
0.0
147
0.0
147
0.0208333333333333
147
0.0
147
0.0
147
0.0
147
0.0
147
1.0
147
0.0
147
0.0
147
0.0
147
0.0
147
1.0
  0
MATERIAL
  5
9DB4
102
{ACAD_XDICTIONARY
360
9DB5
102
}
102
{ACAD_REACTORS
330
9DB3
102
}
330
9DB3
100
AcDbMaterial
  1
ByLayer
 72
     0
 43
0.0208333333333333
 43
0.0
 43
0.0
 43
0.0
 43
0.0
 43
0.0208333333333333
 43
0.0
 43
0.0
 43
0.0
 43
0.0
 43
1.0
 43
0.0
 43
0.0
 43
0.0
 43
0.0
 43
1.0
 77
     0
 47
0.0208333333333333
 47
0.0
 47
0.0
 47
0.0
 47
0.0
 47
0.0208333333333333
 47
0.0
 47
0.0
 47
0.0
 47
0.0
 47
1.0
 47
0.0
 47
0.0
 47
0.0
 47
0.0
 47
1.0
171
     0
 49
0.0208333333333333
 49
0.0
 49
0.0
 49
0.0
 49
0.0
 49
0.0208333333333333
 49
0.0
 49
0.0
 49
0.0
 49
0.0
 49
1.0
 49
0.0
 49
0.0
 49
0.0
 49
0.0
 49
1.0
175
     0
142
0.0208333333333333
142
0.0
142
0.0
142
0.0
142
0.0
142
0.0208333333333333
142
0.0
142
0.0
142
0.0
142
0.0
142
1.0
142
0.0
142
0.0
142
0.0
142
0.0
142
1.0
179
     0
144
0.0208333333333333
144
0.0
144
0.0
144
0.0
144
0.0
144
0.0208333333333333
144
0.0
144
0.0
144
0.0
144
0.0
144
1.0
144
0.0
144
0.0
144
0.0
144
0.0
144
1.0
147
0.0208333333333333
147
0.0
147
0.0
147
0.0
147
0.0
147
0.0208333333333333
147
0.0
147
0.0
147
0.0
147
0.0
147
1.0
147
0.0
147
0.0
147
0.0
147
0.0
147
1.0
  0
MATERIAL
  5
9DC4
102
{ACAD_XDICTIONARY
360
9DC5
102
}
102
{ACAD_REACTORS
330
9DB3
102
}
330
9DB3
100
AcDbMaterial
  1
Global
 72
     0
 43
0.0208333333333333
 43
0.0
 43
0.0
 43
0.0
 43
0.0
 43
0.0208333333333333
 43
0.0
 43
0.0
 43
0.0
 43
0.0
 43
1.0
 43
0.0
 43
0.0
 43
0.0
 43
0.0
 43
1.0
 77
     0
 47
0.0208333333333333
 47
0.0
 47
0.0
 47
0.0
 47
0.0
 47
0.0208333333333333
 47
0.0
 47
0.0
 47
0.0
 47
0.0
 47
1.0
 47
0.0
 47
0.0
 47
0.0
 47
0.0
 47
1.0
171
     0
 49
0.0208333333333333
 49
0.0
 49
0.0
 49
0.0
 49
0.0
 49
0.0208333333333333
 49
0.0
 49
0.0
 49
0.0
 49
0.0
 49
1.0
 49
0.0
 49
0.0
 49
0.0
 49
0.0
 49
1.0
175
     0
142
0.0208333333333333
142
0.0
142
0.0
142
0.0
142
0.0
142
0.0208333333333333
142
0.0
142
0.0
142
0.0
142
0.0
142
1.0
142
0.0
142
0.0
142
0.0
142
0.0
142
1.0
179
     0
144
0.0208333333333333
144
0.0
144
0.0
144
0.0
144
0.0
144
0.0208333333333333
144
0.0
144
0.0
144
0.0
144
0.0
144
1.0
144
0.0
144
0.0
144
0.0
144
0.0
144
1.0
147
0.0208333333333333
147
0.0
147
0.0
147
0.0
147
0.0
147
0.0208333333333333
147
0.0
147
0.0
147
0.0
147
0.0
147
1.0
147
0.0
147
0.0
147
0.0
147
0.0
147
1.0
  0
MLEADERSTYLE
  5
9DFB
102
{ACAD_REACTORS
330
9DFA
102
}
330
9DFA
100
AcDbMLeaderStyle
170
     2
171
     1
172
     0
 90
        2
 40
0.0
 41
0.0
173
     1
 91
-1056964608
340
9A07
 92
       -2
290
     1
 42
0.09
291
     1
 43
0.36
  3
Standard
 44
0.18
300

342
9A05
174
     1
178
     6
175
     1
176
     0
 93
-1056964608
 45
0.18
292
     0
297
     0
 46
0.18
 94
-1056964608
 47
1.0
 49
1.0
140
1.0
293
     1
141
0.0
294
     1
177
     0
142
1.0
295
     0
296
     0
143
0.125
1001
ACAD_MLEADERVER
1070
     2
  0
MLINESTYLE
  5
9A0B
102
{ACAD_REACTORS
330
9A0A
102
}
330
9A0A
100
AcDbMlineStyle
  2
STANDARD
 70
     0
  3

 62
   256
 51
90.0
 52
90.0
 71
     2
 49
0.5
 62
   256
  6
BYLAYER
 49
-0.5
 62
   256
  6
BYLAYER
  0
ACDBPLACEHOLDER
  5
9DB2
102
{ACAD_REACTORS
330
9DB1
102
}
330
9DB1
  0
SCALE
  5
9DE9
102
{ACAD_REACTORS
330
9DE8
102
}
330
9DE8
100
AcDbScale
 70
     0
300
1:1
140
1.0
141
1.0
290
     1
  0
SCALE
  5
9DEA
102
{ACAD_REACTORS
330
9DE8
102
}
330
9DE8
100
AcDbScale
 70
     0
300
1/128" = 1'-0"
140
0.0078125
141
12.0
290
     0
  0
SCALE
  5
9DEB
102
{ACAD_REACTORS
330
9DE8
102
}
330
9DE8
100
AcDbScale
 70
     0
300
1/64" = 1'-0"
140
0.015625
141
12.0
290
     0
  0
SCALE
  5
9DEC
102
{ACAD_REACTORS
330
9DE8
102
}
330
9DE8
100
AcDbScale
 70
     0
300
1/32" = 1'-0"
140
0.03125
141
12.0
290
     0
  0
SCALE
  5
9DED
102
{ACAD_REACTORS
330
9DE8
102
}
330
9DE8
100
AcDbScale
 70
     0
300
1/16" = 1'-0"
140
0.0625
141
12.0
290
     0
  0
SCALE
  5
9DEE
102
{ACAD_REACTORS
330
9DE8
102
}
330
9DE8
100
AcDbScale
 70
     0
300
3/32" = 1'-0"
140
0.09375
141
12.0
290
     0
  0
SCALE
  5
9DEF
102
{ACAD_REACTORS
330
9DE8
102
}
330
9DE8
100
AcDbScale
 70
     0
300
1/8" = 1'-0"
140
0.125
141
12.0
290
     0
  0
SCALE
  5
9DF0
102
{ACAD_REACTORS
330
9DE8
102
}
330
9DE8
100
AcDbScale
 70
     0
300
3/16" = 1'-0"
140
0.1875
141
12.0
290
     0
  0
SCALE
  5
9DF1
102
{ACAD_REACTORS
330
9DE8
102
}
330
9DE8
100
AcDbScale
 70
     0
300
1/4" = 1'-0"
140
0.25
141
12.0
290
     0
  0
SCALE
  5
9DF2
102
{ACAD_REACTORS
330
9DE8
102
}
330
9DE8
100
AcDbScale
 70
     0
300
3/8" = 1'-0"
140
0.375
141
12.0
290
     0
  0
SCALE
  5
9DF3
102
{ACAD_REACTORS
330
9DE8
102
}
330
9DE8
100
AcDbScale
 70
     0
300
1/2" = 1'-0"
140
0.5
141
12.0
290
     0
  0
SCALE
  5
9DF4
102
{ACAD_REACTORS
330
9DE8
102
}
330
9DE8
100
AcDbScale
 70
     0
300
3/4" = 1'-0"
140
0.75
141
12.0
290
     0
  0
SCALE
  5
9DF5
102
{ACAD_REACTORS
330
9DE8
102
}
330
9DE8
100
AcDbScale
 70
     0
300
1" = 1'-0"
140
1.0
141
12.0
290
     0
  0
SCALE
  5
9DF6
102
{ACAD_REACTORS
330
9DE8
102
}
330
9DE8
100
AcDbScale
 70
     0
300
1-1/2" = 1'-0"
140
1.5
141
12.0
290
     0
  0
SCALE
  5
9DF7
102
{ACAD_REACTORS
330
9DE8
102
}
330
9DE8
100
AcDbScale
 70
     0
300
3" = 1'-0"
140
3.0
141
12.0
290
     0
  0
SCALE
  5
9DF8
102
{ACAD_REACTORS
330
9DE8
102
}
330
9DE8
100
AcDbScale
 70
     0
300
6" = 1'-0"
140
6.0
141
12.0
290
     0
  0
SCALE
  5
9DF9
102
{ACAD_REACTORS
330
9DE8
102
}
330
9DE8
100
AcDbScale
 70
     0
300
1'-0" = 1'-0"
140
12.0
141
12.0
290
     0
  0
ACDBSECTIONVIEWSTYLE
  5
9DFD
102
{ACAD_XDICTIONARY
360
9E58
102
}
102
{ACAD_REACTORS
330
9DFC
102
}
330
9DFC
100
AcDbModelDocViewStyle
 70
     0
  3
Imperial24
290
     0
100
AcDbSectionViewStyle
 70
     0
 71
     0
 90
       78
 71
     1
340
9A05
 40
0.24
340
0
340
0
 40
0.24
300
I, O, Q, S, X, Z
 40
0.48
 90
        3
 40
0.18
 90
        1
 71
     2
340
9A09
 90
       25
340
9A09
 90
       50
 40
0.24
 40
0.0
 40
0.24
 71
     3
340
9A05
 40
0.24
 90
        1
 40
0.75
 90
        1
300
%<\AcVar ViewType \f "%tc1">% %<\AcVar ViewSectionStartId>%-%<\AcVar ViewSectionEndId>%\PSCALE %<\AcVar ViewScale \f "%sn">%
 71
     4
300
ANSI31
 40
1.0
 90
        0
290
     0
290
     0
 90
        6
 40
0.0
 40
1.570796326794896
 40
0.2617993877991494
 40
1.308996938995747
 40
-0.2617993877991494
 40
1.832595714594046
  0
TABLESTYLE
  5
9DE7
102
{ACAD_XDICTIONARY
360
9E1F
102
}
102
{ACAD_REACTORS
330
9DE6
102
}
330
9DE6
100
AcDbTableStyle
  3
Standard
 70
     0
 71
     0
 40
0.06
 41
0.06
280
     0
281
     0
  7
STANDARD
140
0.18
170
     2
 62
     0
 63
     7
283
     0
274
    -2
284
     1
 64
     0
275
    -2
285
     1
 65
     0
276
    -2
286
     1
 66
     0
277
    -2
287
     1
 67
     0
278
    -2
288
     1
 68
     0
279
    -2
289
     1
 69
     0
  7
STANDARD
140
0.25
170
     5
 62
     0
 63
     7
283
     0
274
    -2
284
     1
 64
     0
275
    -2
285
     1
 65
     0
276
    -2
286
     1
 66
     0
277
    -2
287
     1
 67
     0
278
    -2
288
     1
 68
     0
279
    -2
289
     1
 69
     0
  7
STANDARD
140
0.18
170
     5
 62
     0
 63
     7
283
     0
274
    -2
284
     1
 64
     0
275
    -2
285
     1
 65
     0
276
    -2
286
     1
 66
     0
277
    -2
287
     1
 67
     0
278
    -2
288
     1
 68
     0
279
    -2
289
     1
 69
     0
  0
VISUALSTYLE
  5
9DD2
102
{ACAD_XDICTIONARY
360
9E30
102
}
102
{ACAD_REACTORS
330
9DCC
102
}
330
9DCC
100
AcDbVisualStyle
  2
2dWireframe
 70
     4
 71
     0
 72
     2
 73
     0
 90
        0
 40
-0.6
 41
-30.0
 62
     5
 63
     7
 74
     1
 91
        4
 64
     7
 65
   257
 75
     1
175
     1
 42
1.0
 92
        0
 66
   257
 43
1.0
 76
     1
 77
     6
 78
     2
 67
     7
 79
     5
170
     0
171
     0
290
     0
174
     0
 93
        1
 44
0.0
173
     0
291
     0
 45
0.0
1001
ACAD
1000
AcDbSavedByObjectVersion
1070
     0
  0
VISUALSTYLE
  5
9DD1
102
{ACAD_XDICTIONARY
360
9E2E
102
}
102
{ACAD_REACTORS
330
9DCC
102
}
330
9DCC
100
AcDbVisualStyle
  2
Basic
 70
     7
 71
     1
 72
     0
 73
     1
 90
        0
 40
-0.6
 41
-30.0
 62
     5
 63
     7
 74
     0
 91
        4
 64
     7
 65
   257
 75
     1
175
     1
 42
1.0
 92
        8
 66
     7
 43
1.0
 76
     1
 77
     6
 78
     2
 67
     7
 79
     5
170
     0
171
     0
290
     0
174
     0
 93
        1
 44
0.0
173
     0
291
     1
 45
0.0
1001
ACAD
1000
AcDbSavedByObjectVersion
1070
     0
  0
VISUALSTYLE
  5
9DD8
102
{ACAD_XDICTIONARY
360
9E3C
102
}
102
{ACAD_REACTORS
330
9DCC
102
}
330
9DCC
100
AcDbVisualStyle
  2
Brighten
 70
    12
 71
     2
 72
     2
 73
     0
 90
        0
 40
-0.6
 41
-30.0
 62
     5
 63
     7
 74
     1
 91
        4
 64
     7
 65
   257
 75
     1
175
     1
 42
1.0
 92
        8
 66
     7
 43
1.0
 76
     1
 77
     6
 78
     2
 67
     7
 79
     5
170
     0
171
     0
290
     0
174
     0
 93
        1
 44
50.0
173
     0
291
     1
 45
0.0
1001
ACAD
1000
AcDbSavedByObjectVersion
1070
     0
  0
VISUALSTYLE
  5
9DDC
102
{ACAD_XDICTIONARY
360
9E44
102
}
102
{ACAD_REACTORS
330
9DCC
102
}
330
9DCC
100
AcDbVisualStyle
  2
ColorChange
 70
    16
 71
     2
 72
     2
 73
     3
 90
        0
 40
-0.6
 41
-30.0
 62
     5
 63
     8
 74
     1
 91
        4
 64
     7
 65
   257
 75
     1
175
     1
 42
1.0
 92
        8
 66
     8
 43
1.0
 76
     1
 77
     6
 78
     2
 67
     7
 79
     5
170
     0
171
     0
290
     0
174
     0
 93
        1
 44
0.0
173
     0
291
     1
 45
0.0
1001
ACAD
1000
AcDbSavedByObjectVersion
1070
     0
  0
VISUALSTYLE
  5
9DD5
102
{ACAD_XDICTIONARY
360
9E36
102
}
102
{ACAD_REACTORS
330
9DCC
102
}
330
9DCC
100
AcDbVisualStyle
  2
Conceptual
 70
     9
 71
     3
 72
     2
 73
     0
 90
        0
 40
-0.6
 41
-30.0
 62
     5
 63
     7
 74
     2
 91
        2
 64
     7
 65
   257
 75
     1
175
     1
 42
179.0
 92
        8
 66
     7
 43
1.0
 76
     1
 77
     6
 78
     2
 67
     7
 79
     3
170
     0
171
     0
290
     0
174
     0
 93
        1
 44
0.0
173
     0
291
     0
 45
0.0
1001
ACAD
1000
AcDbSavedByObjectVersion
1070
     0
  0
VISUALSTYLE
  5
9DD7
102
{ACAD_XDICTIONARY
360
9E3A
102
}
102
{ACAD_REACTORS
330
9DCC
102
}
330
9DCC
100
AcDbVisualStyle
  2
Dim
 70
    11
 71
     2
 72
     2
 73
     0
 90
        0
 40
-0.6
 41
-30.0
 62
     5
 63
     7
 74
     1
 91
        4
 64
     7
 65
   257
 75
     1
175
     1
 42
1.0
 92
        8
 66
     7
 43
1.0
 76
     1
 77
     6
 78
     2
 67
     7
 79
     5
170
     0
171
     0
290
     0
174
     0
 93
        1
 44
-50.0
173
     0
291
     1
 45
0.0
1001
ACAD
1000
AcDbSavedByObjectVersion
1070
     0
  0
VISUALSTYLE
  5
9DE4
102
{ACAD_XDICTIONARY
360
9E54
102
}
102
{ACAD_REACTORS
330
9DCC
102
}
330
9DCC
100
AcDbVisualStyle
  2
EdgeColorOff
 70
    22
 71
     2
 72
     2
 73
     0
 90
        0
 40
-0.6
 41
-30.0
 62
     5
 63
     7
 74
     1
 91
        4
 64
     7
 65
   257
 75
     1
175
     1
 42
1.0
 92
        8
 66
     7
 43
1.0
 76
     1
 77
     6
 78
     2
 67
     7
 79
     5
170
     0
171
     0
290
     0
174
     0
 93
        1
 44
0.0
173
     0
291
     1
 45
0.0
1001
ACAD
1000
AcDbSavedByObjectVersion
1070
     0
  0
VISUALSTYLE
  5
9DDB
102
{ACAD_XDICTIONARY
360
9E42
102
}
102
{ACAD_REACTORS
330
9DCC
102
}
330
9DCC
100
AcDbVisualStyle
  2
Facepattern
 70
    15
 71
     2
 72
     2
 73
     0
 90
        0
 40
-0.6
 41
-30.0
 62
     5
 63
     7
 74
     1
 91
        4
 64
     7
 65
   257
 75
     1
175
     1
 42
1.0
 92
        8
 66
     7
 43
1.0
 76
     1
 77
     6
 78
     2
 67
     7
 79
     5
170
     0
171
     0
290
     0
174
     0
 93
        1
 44
0.0
173
     0
291
     1
 45
0.0
1001
ACAD
1000
AcDbSavedByObjectVersion
1070
     0
  0
VISUALSTYLE
  5
9DCD
102
{ACAD_XDICTIONARY
360
9E26
102
}
102
{ACAD_REACTORS
330
9DCC
102
}
330
9DCC
100
AcDbVisualStyle
  2
Flat
 70
     0
 71
     2
 72
     1
 73
     1
 90
        2
 40
-0.6
 41
30.0
 62
     5
 63
     7
 74
     0
 91
        0
 64
     7
 65
   257
 75
     1
175
     1
 42
1.0
 92
        8
 66
     7
 43
1.0
 76
     1
 77
     6
 78
     2
 67
     7
 79
     5
170
     0
171
     0
290
     0
174
     0
 93
       13
 44
0.0
173
     0
291
     1
 45
0.0
1001
ACAD
1000
AcDbSavedByObjectVersion
1070
     0
  0
VISUALSTYLE
  5
9DCE
102
{ACAD_XDICTIONARY
360
9E28
102
}
102
{ACAD_REACTORS
330
9DCC
102
}
330
9DCC
100
AcDbVisualStyle
  2
FlatWithEdges
 70
     1
 71
     2
 72
     1
 73
     1
 90
        2
 40
-0.6
 41
30.0
 62
     5
 63
     7
 74
     1
 91
        0
 64
     7
 65
   257
 75
     1
175
     1
 42
1.0
 92
        0
 66
   257
 43
1.0
 76
     1
 77
     6
 78
     2
 67
     7
 79
     5
170
     0
171
     0
290
     0
174
     0
 93
       13
 44
0.0
173
     0
291
     1
 45
0.0
1001
ACAD
1000
AcDbSavedByObjectVersion
1070
     0
  0
VISUALSTYLE
  5
9DCF
102
{ACAD_XDICTIONARY
360
9E2A
102
}
102
{ACAD_REACTORS
330
9DCC
102
}
330
9DCC
100
AcDbVisualStyle
  2
Gouraud
 70
     2
 71
     2
 72
     2
 73
     1
 90
        2
 40
-0.6
 41
30.0
 62
     5
 63
     7
 74
     0
 91
        0
 64
     7
 65
   257
 75
     1
175
     1
 42
1.0
 92
        0
 66
     7
 43
1.0
 76
     1
 77
     6
 78
     2
 67
     7
 79
     5
170
     0
171
     0
290
     0
174
     0
 93
       13
 44
0.0
173
     0
291
     1
 45
0.0
1001
ACAD
1000
AcDbSavedByObjectVersion
1070
     0
  0
VISUALSTYLE
  5
9DD0
102
{ACAD_XDICTIONARY
360
9E2C
102
}
102
{ACAD_REACTORS
330
9DCC
102
}
330
9DCC
100
AcDbVisualStyle
  2
GouraudWithEdges
 70
     3
 71
     2
 72
     2
 73
     1
 90
        2
 40
-0.6
 41
30.0
 62
     5
 63
     7
 74
     1
 91
        0
 64
     7
 65
   257
 75
     1
175
     1
 42
1.0
 92
        0
 66
   257
 43
1.0
 76
     1
 77
     6
 78
     2
 67
     7
 79
     5
170
     0
171
     0
290
     0
174
     0
 93
       13
 44
0.0
173
     0
291
     1
 45
0.0
1001
ACAD
1000
AcDbSavedByObjectVersion
1070
     0
  0
VISUALSTYLE
  5
9DD4
102
{ACAD_XDICTIONARY
360
9E34
102
}
102
{ACAD_REACTORS
330
9DCC
102
}
330
9DCC
100
AcDbVisualStyle
  2
Hidden
 70
     6
 71
     1
 72
     2
 73
     2
 90
        0
 40
-0.6
 41
-30.0
 62
     5
 63
     7
 74
     2
 91
        2
 64
     7
 65
   257
 75
     2
175
     1
 42
40.0
 92
        0
 66
   257
 43
1.0
 76
     1
 77
     6
 78
     2
 67
     7
 79
     3
170
     0
171
     0
290
     0
174
     0
 93
        1
 44
0.0
173
     0
291
     0
 45
0.0
1001
ACAD
1000
AcDbSavedByObjectVersion
1070
     0
  0
VISUALSTYLE
  5
9DE2
102
{ACAD_XDICTIONARY
360
9E50
102
}
102
{ACAD_REACTORS
330
9DCC
102
}
330
9DCC
100
AcDbVisualStyle
  2
JitterOff
 70
    20
 71
     2
 72
     2
 73
     0
 90
        0
 40
-0.6
 41
-30.0
 62
     5
 63
     7
 74
     1
 91
        4
 64
     7
 65
   257
 75
     1
175
     1
 42
1.0
 92
       10
 66
     7
 43
1.0
 76
     1
 77
     6
 78
     2
 67
     7
 79
     5
170
     0
171
     0
290
     0
174
     0
 93
        1
 44
0.0
173
     0
291
     1
 45
0.0
1001
ACAD
1000
AcDbSavedByObjectVersion
1070
     0
  0
VISUALSTYLE
  5
9DDA
102
{ACAD_XDICTIONARY
360
9E40
102
}
102
{ACAD_REACTORS
330
9DCC
102
}
330
9DCC
100
AcDbVisualStyle
  2
Linepattern
 70
    14
 71
     2
 72
     2
 73
     0
 90
        0
 40
-0.6
 41
-30.0
 62
     5
 63
     7
 74
     1
 91
        4
 64
     7
 65
   257
 75
     7
175
     7
 42
1.0
 92
        8
 66
     7
 43
1.0
 76
     1
 77
     6
 78
     2
 67
     7
 79
     5
170
     0
171
     0
290
     0
174
     0
 93
        1
 44
0.0
173
     0
291
     1
 45
0.0
1001
ACAD
1000
AcDbSavedByObjectVersion
1070
     0
  0
VISUALSTYLE
  5
9DE3
102
{ACAD_XDICTIONARY
360
9E52
102
}
102
{ACAD_REACTORS
330
9DCC
102
}
330
9DCC
100
AcDbVisualStyle
  2
OverhangOff
 70
    21
 71
     2
 72
     2
 73
     0
 90
        0
 40
-0.6
 41
-30.0
 62
     5
 63
     7
 74
     1
 91
        4
 64
     7
 65
   257
 75
     1
175
     1
 42
1.0
 92
        9
 66
     7
 43
1.0
 76
     1
 77
     6
 78
     2
 67
     7
 79
     5
170
     0
171
     0
290
     0
174
     0
 93
        1
 44
0.0
173
     0
291
     1
 45
0.0
1001
ACAD
1000
AcDbSavedByObjectVersion
1070
     0
  0
VISUALSTYLE
  5
9DD6
102
{ACAD_XDICTIONARY
360
9E38
102
}
102
{ACAD_REACTORS
330
9DCC
102
}
330
9DCC
100
AcDbVisualStyle
  2
Realistic
 70
     8
 71
     2
 72
     3
 73
     0
 90
        2
 40
-0.6
 41
30.0
 62
     5
 63
     7
 74
     0
 91
        0
 64
     7
 65
   257
 75
     1
175
     1
 42
1.0
 92
        8
 66
   257
 43
1.0
 76
     1
 77
     6
 78
     2
 67
     7
 79
     3
170
     0
171
     0
290
     0
174
     0
 93
       13
 44
0.0
173
     0
291
     0
 45
0.0
1001
ACAD
1000
AcDbSavedByObjectVersion
1070
     0
  0
VISUALSTYLE
  5
9DE1
102
{ACAD_XDICTIONARY
360
9E4E
102
}
102
{ACAD_REACTORS
330
9DCC
102
}
330
9DCC
100
AcDbVisualStyle
  2
Shaded
 70
    27
 71
     2
 72
     2
 73
     1
 90
        2
 40
-0.6
 41
30.0
 62
     5
 63
     7
 74
     0
 91
        4
 64
     7
 65
   257
 75
     1
175
     1
 42
1.0
 92
        8
 66
   257
 43
1.0
 76
     1
 77
     6
 78
     2
 67
     8
 79
     3
170
     0
171
     0
290
     0
174
     0
 93
        5
 44
0.0
173
     0
291
     0
 45
0.0
1001
ACAD
1000
AcDbSavedByObjectVersion
1070
     0
  0
VISUALSTYLE
  5
9DE0
102
{ACAD_XDICTIONARY
360
9E4C
102
}
102
{ACAD_REACTORS
330
9DCC
102
}
330
9DCC
100
AcDbVisualStyle
  2
Shaded with edges
 70
    26
 71
     2
 72
     2
 73
     1
 90
        2
 40
-0.6
 41
30.0
 62
     5
 63
     7
 74
     1
 91
       10
 64
     7
 65
   257
 75
     2
175
     1
 42
1.0
 92
        8
 66
   257
 43
1.0
 76
     1
 77
     6
 78
     2
 67
     7
 79
     3
170
     0
171
     0
290
     0
174
     0
 93
        5
 44
0.0
173
     0
291
     0
 45
0.0
1001
ACAD
1000
AcDbSavedByObjectVersion
1070
     0
  0
VISUALSTYLE
  5
9DDD
102
{ACAD_XDICTIONARY
360
9E46
102
}
102
{ACAD_REACTORS
330
9DCC
102
}
330
9DCC
100
AcDbVisualStyle
  2
Shades of Gray
 70
    23
 71
     2
 72
     2
 73
     3
 90
        0
 40
-0.6
 41
-30.0
 62
     5
 63
     7
 74
     2
 91
        2
 64
     7
 65
     7
 75
     1
175
     1
 42
40.0
 92
        8
 66
     7
 43
1.0
 76
     1
 77
     6
 78
     2
 67
     7
 79
     3
170
     0
171
     0
290
     0
174
     0
 93
        1
 44
0.0
173
     0
291
     0
 45
0.0
1001
ACAD
1000
AcDbSavedByObjectVersion
1070
     0
  0
VISUALSTYLE
  5
9DDE
102
{ACAD_XDICTIONARY
360
9E48
102
}
102
{ACAD_REACTORS
330
9DCC
102
}
330
9DCC
100
AcDbVisualStyle
  2
Sketchy
 70
    24
 71
     1
 72
     2
 73
     2
 90
        0
 40
-0.6
 41
-30.0
 62
     5
 63
     7
 74
     2
 91
        2
 64
     7
 65
     7
 75
     1
175
     1
 42
40.0
 92
       11
 66
     7
 43
1.0
 76
     1
 77
     6
 78
     2
 67
     7
 79
     6
170
     0
171
     0
290
     0
174
     0
 93
        1
 44
0.0
173
     0
291
     0
 45
0.0
1001
ACAD
1000
AcDbSavedByObjectVersion
1070
     0
  0
VISUALSTYLE
  5
9DD9
102
{ACAD_XDICTIONARY
360
9E3E
102
}
102
{ACAD_REACTORS
330
9DCC
102
}
330
9DCC
100
AcDbVisualStyle
  2
Thicken
 70
    13
 71
     2
 72
     2
 73
     0
 90
        0
 40
-0.6
 41
-30.0
 62
     5
 63
     7
 74
     1
 91
        4
 64
     7
 65
   257
 75
     1
175
     1
 42
1.0
 92
       12
 66
     7
 43
1.0
 76
     1
 77
     6
 78
     2
 67
     7
 79
     5
170
     0
171
     0
290
     0
174
     0
 93
        1
 44
0.0
173
     0
291
     1
 45
0.0
1001
ACAD
1000
AcDbSavedByObjectVersion
1070
     0
  0
VISUALSTYLE
  5
9DD3
102
{ACAD_XDICTIONARY
360
9E32
102
}
102
{ACAD_REACTORS
330
9DCC
102
}
330
9DCC
100
AcDbVisualStyle
  2
Wireframe
 70
     5
 71
     0
 72
     2
 73
     0
 90
        0
 40
-0.6
 41
-30.0
 62
     5
 63
     7
 74
     1
 91
        4
 64
     7
 65
   257
 75
     1
175
     1
 42
1.0
 92
        0
 66
   257
 43
1.0
 76
     1
 77
     6
 78
     2
 67
     7
 79
     3
170
     0
171
     0
290
     0
174
     0
 93
        1
 44
0.0
173
     0
291
     0
 45
0.0
1001
ACAD
1000
AcDbSavedByObjectVersion
1070
     0
  0
VISUALSTYLE
  5
9DDF
102
{ACAD_XDICTIONARY
360
9E4A
102
}
102
{ACAD_REACTORS
330
9DCC
102
}
330
9DCC
100
AcDbVisualStyle
  2
X-Ray
 70
    25
 71
     2
 72
     2
 73
     1
 90
        1
 40
0.5
 41
-30.0
 62
     5
 63
     7
 74
     1
 91
        0
 64
     7
 65
   257
 75
     1
175
     1
 42
1.0
 92
        8
 66
     7
 43
1.0
 76
     1
 77
     6
 78
     2
 67
     7
 79
     3
170
     0
171
     0
290
     0
174
     0
 93
       13
 44
0.0
173
     0
291
     0
 45
0.0
1001
ACAD
1000
AcDbSavedByObjectVersion
1070
     0
  0
DICTIONARYVAR
  5
9E19
102
{ACAD_REACTORS
330
9E14
102
}
330
9E14
100
DictionaryVariables
280
     0
  1
1:1
  0
DICTIONARYVAR
  5
9E16
102
{ACAD_REACTORS
330
9E14
102
}
330
9E14
100
DictionaryVariables
280
     0
  1
STANDARD
  0
DICTIONARYVAR
  5
9E15
102
{ACAD_REACTORS
330
9E14
102
}
330
9E14
100
DictionaryVariables
280
     0
  1
STANDARD
  0
DICTIONARYVAR
  5
9E17
102
{ACAD_REACTORS
330
9E14
102
}
330
9E14
100
DictionaryVariables
280
     0
  1
Imperial24
  0
DICTIONARYVAR
  5
9E18
102
{ACAD_REACTORS
330
9E14
102
}
330
9E14
100
DictionaryVariables
280
     0
  1
Imperial24
  0
DICTIONARYVAR
  5
9E1C
102
{ACAD_REACTORS
330
9E14
102
}
330
9E14
100
DictionaryVariables
280
     0
  1
1
  0
DICTIONARYVAR
  5
9E1B
102
{ACAD_REACTORS
330
9E14
102
}
330
9E14
100
DictionaryVariables
280
     0
  1
0
  0
DICTIONARYVAR
  5
9E1A
102
{ACAD_REACTORS
330
9E14
102
}
330
9E14
100
DictionaryVariables
280
     0
  1
127
  0
DICTIONARYVAR
  5
9E1D
102
{ACAD_REACTORS
330
9E14
102
}
330
9E14
100
DictionaryVariables
280
     0
  1
2
  0
DICTIONARY
  5
9E5A
330
9DFF
100
AcDbDictionary
280
     1
281
     1
  3
ACAD_XREC_ROUNDTRIP
360
9E5B
  0
DICTIONARY
  5
9E5C
330
9E00
100
AcDbDictionary
280
     1
281
     1
  3
ACAD_XREC_ROUNDTRIP
360
9E5D
  0
DICTIONARY
  5
9E5E
330
9E01
100
AcDbDictionary
280
     1
281
     1
  3
ACAD_XREC_ROUNDTRIP
360
9E5F
  0
DICTIONARY
  5
9DBD
330
9DBC
100
AcDbDictionary
280
     1
281
     1
  3
ACAD_XREC_ROUNDTRIP
360
9E24
  3
BUMPTILE
360
9DBF
  3
DIFFUSETILE
360
9DBE
  3
OPACITYTILE
360
9DC2
  3
REFLECTIONTILE
360
9DC1
  3
REFRACTIONTILE
360
9DC3
  3
SPECULARTILE
360
9DC0
  0
DICTIONARY
  5
9DB5
330
9DB4
100
AcDbDictionary
280
     1
281
     1
  3
ACAD_XREC_ROUNDTRIP
360
9E23
  3
BUMPTILE
360
9DB7
  3
DIFFUSETILE
360
9DB6
  3
OPACITYTILE
360
9DBA
  3
REFLECTIONTILE
360
9DB9
  3
REFRACTIONTILE
360
9DBB
  3
SPECULARTILE
360
9DB8
  0
DICTIONARY
  5
9DC5
330
9DC4
100
AcDbDictionary
280
     1
281
     1
  3
ACAD_XREC_ROUNDTRIP
360
9E25
  3
BUMPTILE
360
9DC7
  3
DIFFUSETILE
360
9DC6
  3
OPACITYTILE
360
9DCA
  3
REFLECTIONTILE
360
9DC9
  3
REFRACTIONTILE
360
9DCB
  3
SPECULARTILE
360
9DC8
  0
DICTIONARY
  5
9E58
330
9DFD
100
AcDbDictionary
280
     1
281
     1
  3
ACAD_XREC_ROUNDTRIP
360
9E59
  0
DICTIONARY
  5
9E1F
330
9DE7
100
AcDbDictionary
280
     1
281
     1
  3
ACAD_ROUNDTRIP_2008_TABLESTYLE_CELLSTYLEMAP
360
9E20
  3
ACAD_XREC_ROUNDTRIP
360
9E56
  0
DICTIONARY
  5
9E30
330
9DD2
100
AcDbDictionary
280
     1
281
     1
  3
ACAD_XREC_ROUNDTRIP
360
9E31
  0
DICTIONARY
  5
9E2E
330
9DD1
100
AcDbDictionary
280
     1
281
     1
  3
ACAD_XREC_ROUNDTRIP
360
9E2F
  0
DICTIONARY
  5
9E3C
330
9DD8
100
AcDbDictionary
280
     1
281
     1
  3
ACAD_XREC_ROUNDTRIP
360
9E3D
  0
DICTIONARY
  5
9E44
330
9DDC
100
AcDbDictionary
280
     1
281
     1
  3
ACAD_XREC_ROUNDTRIP
360
9E45
  0
DICTIONARY
  5
9E36
330
9DD5
100
AcDbDictionary
280
     1
281
     1
  3
ACAD_XREC_ROUNDTRIP
360
9E37
  0
DICTIONARY
  5
9E3A
330
9DD7
100
AcDbDictionary
280
     1
281
     1
  3
ACAD_XREC_ROUNDTRIP
360
9E3B
  0
DICTIONARY
  5
9E54
330
9DE4
100
AcDbDictionary
280
     1
281
     1
  3
ACAD_XREC_ROUNDTRIP
360
9E55
  0
DICTIONARY
  5
9E42
330
9DDB
100
AcDbDictionary
280
     1
281
     1
  3
ACAD_XREC_ROUNDTRIP
360
9E43
  0
DICTIONARY
  5
9E26
330
9DCD
100
AcDbDictionary
280
     1
281
     1
  3
ACAD_XREC_ROUNDTRIP
360
9E27
  0
DICTIONARY
  5
9E28
330
9DCE
100
AcDbDictionary
280
     1
281
     1
  3
ACAD_XREC_ROUNDTRIP
360
9E29
  0
DICTIONARY
  5
9E2A
330
9DCF
100
AcDbDictionary
280
     1
281
     1
  3
ACAD_XREC_ROUNDTRIP
360
9E2B
  0
DICTIONARY
  5
9E2C
330
9DD0
100
AcDbDictionary
280
     1
281
     1
  3
ACAD_XREC_ROUNDTRIP
360
9E2D
  0
DICTIONARY
  5
9E34
330
9DD4
100
AcDbDictionary
280
     1
281
     1
  3
ACAD_XREC_ROUNDTRIP
360
9E35
  0
DICTIONARY
  5
9E50
330
9DE2
100
AcDbDictionary
280
     1
281
     1
  3
ACAD_XREC_ROUNDTRIP
360
9E51
  0
DICTIONARY
  5
9E40
330
9DDA
100
AcDbDictionary
280
     1
281
     1
  3
ACAD_XREC_ROUNDTRIP
360
9E41
  0
DICTIONARY
  5
9E52
330
9DE3
100
AcDbDictionary
280
     1
281
     1
  3
ACAD_XREC_ROUNDTRIP
360
9E53
  0
DICTIONARY
  5
9E38
330
9DD6
100
AcDbDictionary
280
     1
281
     1
  3
ACAD_XREC_ROUNDTRIP
360
9E39
  0
DICTIONARY
  5
9E4E
330
9DE1
100
AcDbDictionary
280
     1
281
     1
  3
ACAD_XREC_ROUNDTRIP
360
9E4F
  0
DICTIONARY
  5
9E4C
330
9DE0
100
AcDbDictionary
280
     1
281
     1
  3
ACAD_XREC_ROUNDTRIP
360
9E4D
  0
DICTIONARY
  5
9E46
330
9DDD
100
AcDbDictionary
280
     1
281
     1
  3
ACAD_XREC_ROUNDTRIP
360
9E47
  0
DICTIONARY
  5
9E48
330
9DDE
100
AcDbDictionary
280
     1
281
     1
  3
ACAD_XREC_ROUNDTRIP
360
9E49
  0
DICTIONARY
  5
9E3E
330
9DD9
100
AcDbDictionary
280
     1
281
     1
  3
ACAD_XREC_ROUNDTRIP
360
9E3F
  0
DICTIONARY
  5
9E32
330
9DD3
100
AcDbDictionary
280
     1
281
     1
  3
ACAD_XREC_ROUNDTRIP
360
9E33
  0
DICTIONARY
  5
9E4A
330
9DDF
100
AcDbDictionary
280
     1
281
     1
  3
ACAD_XREC_ROUNDTRIP
360
9E4B
  0
XRECORD
  5
9E5B
102
{ACAD_REACTORS
330
9E5A
102
}
330
9E5A
100
AcDbXrecord
280
     1
102
DISPLAYNAME
  1
Imperial24
102
FLAGS
 90
        0
  0
XRECORD
  5
9E5D
102
{ACAD_REACTORS
330
9E5C
102
}
330
9E5C
100
AcDbXrecord
280
     1
102
SHADEPLOT
 70
     0
102
SHADEPLOTRESLEVEL
 70
     2
102
SHADEPLOTCUSTOMDPI
 70
   300
  0
XRECORD
  5
9E5F
102
{ACAD_REACTORS
330
9E5E
102
}
330
9E5E
100
AcDbXrecord
280
     1
102
SHADEPLOT
 70
     0
102
SHADEPLOTRESLEVEL
 70
     2
102
SHADEPLOTCUSTOMDPI
 70
   300
  0
XRECORD
  5
9E24
102
{ACAD_REACTORS
330
9DBD
102
}
330
9DBD
100
AcDbXrecord
280
     1
102
MATERIAL
148
0.0
149
0.0
149
0.0
 93
        0
 94
      127
282
     0
 72
     0
 77
     0
171
     0
175
     0
179
     0
273
     0
  0
XRECORD
  5
9DBF
102
{ACAD_REACTORS
330
9DBD
102
}
330
9DBD
100
AcDbXrecord
280
     1
270
     1
271
     1
  0
XRECORD
  5
9DBE
102
{ACAD_REACTORS
330
9DBD
102
}
330
9DBD
100
AcDbXrecord
280
     1
270
     1
271
     1
  0
XRECORD
  5
9DC2
102
{ACAD_REACTORS
330
9DBD
102
}
330
9DBD
100
AcDbXrecord
280
     1
270
     1
271
     1
  0
XRECORD
  5
9DC1
102
{ACAD_REACTORS
330
9DBD
102
}
330
9DBD
100
AcDbXrecord
280
     1
270
     1
271
     1
  0
XRECORD
  5
9DC3
102
{ACAD_REACTORS
330
9DBD
102
}
330
9DBD
100
AcDbXrecord
280
     1
270
     1
271
     1
  0
XRECORD
  5
9DC0
102
{ACAD_REACTORS
330
9DBD
102
}
330
9DBD
100
AcDbXrecord
280
     1
270
     1
271
     1
  0
XRECORD
  5
9E23
102
{ACAD_REACTORS
330
9DB5
102
}
330
9DB5
100
AcDbXrecord
280
     1
102
MATERIAL
148
0.0
149
0.0
149
0.0
 93
        0
 94
      127
282
     0
 72
     0
 77
     0
171
     0
175
     0
179
     0
273
     0
  0
XRECORD
  5
9DB7
102
{ACAD_REACTORS
330
9DB5
102
}
330
9DB5
100
AcDbXrecord
280
     1
270
     1
271
     1
  0
XRECORD
  5
9DB6
102
{ACAD_REACTORS
330
9DB5
102
}
330
9DB5
100
AcDbXrecord
280
     1
270
     1
271
     1
  0
XRECORD
  5
9DBA
102
{ACAD_REACTORS
330
9DB5
102
}
330
9DB5
100
AcDbXrecord
280
     1
270
     1
271
     1
  0
XRECORD
  5
9DB9
102
{ACAD_REACTORS
330
9DB5
102
}
330
9DB5
100
AcDbXrecord
280
     1
270
     1
271
     1
  0
XRECORD
  5
9DBB
102
{ACAD_REACTORS
330
9DB5
102
}
330
9DB5
100
AcDbXrecord
280
     1
270
     1
271
     1
  0
XRECORD
  5
9DB8
102
{ACAD_REACTORS
330
9DB5
102
}
330
9DB5
100
AcDbXrecord
280
     1
270
     1
271
     1
  0
XRECORD
  5
9E25
102
{ACAD_REACTORS
330
9DC5
102
}
330
9DC5
100
AcDbXrecord
280
     1
102
MATERIAL
148
0.0
149
0.0
149
0.0
 93
        0
 94
      127
282
     0
 72
     0
 77
     0
171
     0
175
     0
179
     0
273
     0
  0
XRECORD
  5
9DC7
102
{ACAD_REACTORS
330
9DC5
102
}
330
9DC5
100
AcDbXrecord
280
     1
270
     1
271
     1
  0
XRECORD
  5
9DC6
102
{ACAD_REACTORS
330
9DC5
102
}
330
9DC5
100
AcDbXrecord
280
     1
270
     1
271
     1
  0
XRECORD
  5
9DCA
102
{ACAD_REACTORS
330
9DC5
102
}
330
9DC5
100
AcDbXrecord
280
     1
270
     1
271
     1
  0
XRECORD
  5
9DC9
102
{ACAD_REACTORS
330
9DC5
102
}
330
9DC5
100
AcDbXrecord
280
     1
270
     1
271
     1
  0
XRECORD
  5
9DCB
102
{ACAD_REACTORS
330
9DC5
102
}
330
9DC5
100
AcDbXrecord
280
     1
270
     1
271
     1
  0
XRECORD
  5
9DC8
102
{ACAD_REACTORS
330
9DC5
102
}
330
9DC5
100
AcDbXrecord
280
     1
270
     1
271
     1
  0
XRECORD
  5
9E59
102
{ACAD_REACTORS
330
9E58
102
}
330
9E58
100
AcDbXrecord
280
     1
102
DISPLAYNAME
  1
Imperial24
102
FLAGS
 90
        0
  0
CELLSTYLEMAP
  5
9E20
102
{ACAD_REACTORS
330
9E1F
102
}
330
9E1F
100
AcDbCellStyleMap
 90
        3
300
CELLSTYLE
  1
TABLEFORMAT_BEGIN
 90
        5
170
     1
 91
        0
 92
    32768
 62
   257
 93
        1
300
CONTENTFORMAT
  1
CONTENTFORMAT_BEGIN
 90
        0
 91
        0
 92
      512
 93
        0
300

 40
0.0
140
1.0
 94
        5
 62
     0
340
9A05
144
0.25
309
CONTENTFORMAT_END
171
     0
 94
        0
309
TABLEFORMAT_END
  1
CELLSTYLE_BEGIN
 90
        1
 91
        1
300
_TITLE
309
CELLSTYLE_END
300
CELLSTYLE
  1
TABLEFORMAT_BEGIN
 90
        5
170
     1
 91
        0
 92
        0
 62
   257
 93
        1
300
CONTENTFORMAT
  1
CONTENTFORMAT_BEGIN
 90
        0
 91
        0
 92
      512
 93
        0
300

 40
0.0
140
1.0
 94
        5
 62
     0
340
9A05
144
0.18
309
CONTENTFORMAT_END
171
     0
 94
        0
309
TABLEFORMAT_END
  1
CELLSTYLE_BEGIN
 90
        2
 91
        1
300
_HEADER
309
CELLSTYLE_END
300
CELLSTYLE
  1
TABLEFORMAT_BEGIN
 90
        5
170
     1
 91
        0
 92
        0
 62
   257
 93
        1
300
CONTENTFORMAT
  1
CONTENTFORMAT_BEGIN
 90
        0
 91
        0
 92
      512
 93
        0
300

 40
0.0
140
1.0
 94
        2
 62
     0
340
9A05
144
0.18
309
CONTENTFORMAT_END
171
     0
 94
        0
309
TABLEFORMAT_END
  1
CELLSTYLE_BEGIN
 90
        3
 91
        2
300
_DATA
309
CELLSTYLE_END
  0
XRECORD
  5
9E56
102
{ACAD_REACTORS
330
9E1F
102
}
330
9E1F
100
AcDbXrecord
280
     1
102
ACAD_ROUNDTRIP_PRE2007_TABLESTYLE
 90
      512
 91
        0
  1

 92
      512
 93
        0
  2

 94
      512
 95
        0
  3

  0
XRECORD
  5
9E31
102
{ACAD_REACTORS
330
9E30
102
}
330
9E30
100
AcDbXrecord
280
     1
102
RTVSPost2010Prop28
280
     1
102
RTVSPost2010PropOp28
 70
     1
102
RTVSPost2010Prop29
280
     1
102
RTVSPost2010PropOp29
 70
     1
102
RTVSPost2010Prop30
280
     0
102
RTVSPost2010PropOp30
 70
     1
102
RTVSPost2010Prop31
280
     0
102
RTVSPost2010PropOp31
 70
     1
102
RTVSPost2010Prop32
280
     0
102
RTVSPost2010PropOp32
 70
     1
102
RTVSPost2010Prop33
280
     0
102
RTVSPost2010PropOp33
 70
     1
102
RTVSPost2010Prop34
280
     0
102
RTVSPost2010PropOp34
 70
     1
102
RTVSPost2010Prop35
280
     0
102
RTVSPost2010PropOp35
 70
     1
102
RTVSPost2010Prop36
280
     0
102
RTVSPost2010PropOp36
 70
     1
102
RTVSPost2010Prop37
 90
       50
102
RTVSPost2010PropOp37
 70
     1
102
RTVSPost2010Prop38
140
0.0
102
RTVSPost2010PropOp38
 70
     1
102
RTVSPost2010Prop39
140
1.0
102
RTVSPost2010PropOp39
 70
     1
102
RTVSPost2010Prop40
 90
        0
102
RTVSPost2010PropOp40
 70
     1
102
RTVSPost2010Prop41ColorIndex
 90
       18
102
RTVSPost2010Prop41ColorRGB
 90
        0
102
RTVSPost2010PropOp41
 70
     1
102
RTVSPost2010Prop42
 90
       50
102
RTVSPost2010PropOp42
 70
     1
102
RTVSPost2010Prop43
 90
        3
102
RTVSPost2010PropOp43
 70
     1
102
RTVSPost2010Prop44ColorIndex
 90
        5
102
RTVSPost2010Prop44ColorRGB
 90
      255
102
RTVSPost2010PropOp44
 70
     1
102
RTVSPost2010Prop45
280
     0
102
RTVSPost2010PropOp45
 70
     1
102
RTVSPost2010Prop46
 90
       50
102
RTVSPost2010PropOp46
 70
     1
102
RTVSPost2010Prop47
 90
       50
102
RTVSPost2010PropOp47
 70
     1
102
RTVSPost2010Prop48
 90
       50
102
RTVSPost2010PropOp48
 70
     1
102
RTVSPost2010Prop49
280
     0
102
RTVSPost2010PropOp49
 70
     1
102
RTVSPost2010Prop50
 90
       50
102
RTVSPost2010PropOp50
 70
     1
102
RTVSPost2010Prop51ColorIndex
 90
      256
102
RTVSPost2010Prop51ColorRGB
 90
-16777216
102
RTVSPost2010PropOp51
 70
     0
102
RTVSPost2010Prop52
140
1.0
102
RTVSPost2010PropOp52
 70
     0
102
RTVSPost2010Prop53
 90
        2
102
RTVSPost2010PropOp53
 70
     1
102
RTVSPost2010Prop54
  1
strokes_ogs.tif
102
RTVSPost2010PropOp54
 70
     1
102
RTVSPost2010Prop55
280
     0
102
RTVSPost2010PropOp55
 70
     1
102
RTVSPost2010Prop56
140
1.0
102
RTVSPost2010PropOp56
 70
     1
102
RTVSPost2010Prop57
140
1.0
102
RTVSPost2010PropOp57
 70
     1
102
RTVSPropertyOp0
 70
     1
102
RTVSPropertyOp1
 70
     1
102
RTVSPropertyOp2
 70
     1
102
RTVSPropertyOp3
 70
     1
102
RTVSPropertyOp4
 70
     1
102
RTVSPropertyOp5
 70
     1
102
RTVSPropertyOp6
 70
     1
102
RTVSPropertyOp7
 70
     1
102
RTVSPropertyOp8
 70
     1
102
RTVSPropertyOp9
 70
     1
102
RTVSPropertyOp10
 70
     1
102
RTVSPropertyOp11
 70
     1
102
RTVSPropertyOp12
 70
     1
102
RTVSPropertyOp13
 70
     1
102
RTVSPropertyOp14
 70
     1
102
RTVSPropertyOp15
 70
     1
102
RTVSPropertyOp16
 70
     1
102
RTVSPropertyOp17
 70
     1
102
RTVSPropertyOp18
 70
     1
102
RTVSPropertyOp19
 70
     1
102
RTVSPropertyOp20
 70
     1
102
RTVSPropertyOp21
 70
     1
102
RTVSPropertyOp22
 70
     1
102
RTVSPropertyOp23
 70
     1
102
RTVSPropertyOp24
 70
     1
102
RTVSPropertyOp25
 70
     1
102
RTVSPropertyOp26
 70
     1
102
RTVSPropertyOp27
 70
     1
102
RTVSPropertyOp28
 70
     1
102
RTVSPropertyOp29
 70
     1
102
RTVSPropertyOp30
 70
     1
102
RTVSPropertyOp31
 70
     1
102
RTVSPropertyOp32
 70
     1
102
RTVSPropertyOp33
 70
     1
102
RTVSPropertyOp34
 70
     1
102
RTVSPropertyOp35
 70
     1
102
RTVSPropertyOp36
 70
     1
102
RTVSPropertyOp37
 70
     1
102
RTVSPropertyOp38
 70
     1
102
RTVSPropertyOp39
 70
     1
102
RTVSPropertyOp40
 70
     1
102
RTVSPropertyOp41
 70
     1
102
RTVSPropertyOp42
 70
     1
102
RTVSPropertyOp43
 70
     1
102
RTVSPropertyOp44
 70
     1
102
RTVSPropertyOp45
 70
     1
102
RTVSPropertyOp46
 70
     1
102
RTVSPropertyOp47
 70
     1
102
RTVSPropertyOp48
 70
     1
102
RTVSPropertyOp49
 70
     1
102
RTVSPropertyOp50
 70
     1
102
RTVSPropertyOp51
 70
     0
102
RTVSPropertyOp52
 70
     0
102
RTVSPropertyOp53
 70
     1
102
RTVSPropertyOp54
 70
     1
102
RTVSPropertyOp55
 70
     1
102
RTVSPropertyOp56
 70
     1
102
RTVSPropertyOp57
 70
     1
102
RTVSPropertyOp58
 70
     1
102
RTVSPropertyOp59
 70
     1
102
RTVSPropertyOp60
 70
     1
102
RTVSPropertyOp61
 70
     1
102
RTVSPropertyOp62
 70
     1
  0
XRECORD
  5
9E2F
102
{ACAD_REACTORS
330
9E2E
102
}
330
9E2E
100
AcDbXrecord
280
     1
102
RTVSPost2010Prop28
280
     0
102
RTVSPost2010PropOp28
 70
     1
102
RTVSPost2010Prop29
280
     1
102
RTVSPost2010PropOp29
 70
     1
102
RTVSPost2010Prop30
280
     1
102
RTVSPost2010PropOp30
 70
     1
102
RTVSPost2010Prop31
280
     0
102
RTVSPost2010PropOp31
 70
     1
102
RTVSPost2010Prop32
280
     0
102
RTVSPost2010PropOp32
 70
     1
102
RTVSPost2010Prop33
280
     0
102
RTVSPost2010PropOp33
 70
     1
102
RTVSPost2010Prop34
280
     0
102
RTVSPost2010PropOp34
 70
     1
102
RTVSPost2010Prop35
280
     0
102
RTVSPost2010PropOp35
 70
     1
102
RTVSPost2010Prop36
280
     0
102
RTVSPost2010PropOp36
 70
     1
102
RTVSPost2010Prop37
 90
       50
102
RTVSPost2010PropOp37
 70
     1
102
RTVSPost2010Prop38
140
0.0
102
RTVSPost2010PropOp38
 70
     1
102
RTVSPost2010Prop39
140
1.0
102
RTVSPost2010PropOp39
 70
     1
102
RTVSPost2010Prop40
 90
        0
102
RTVSPost2010PropOp40
 70
     1
102
RTVSPost2010Prop41ColorIndex
 90
       18
102
RTVSPost2010Prop41ColorRGB
 90
        0
102
RTVSPost2010PropOp41
 70
     1
102
RTVSPost2010Prop42
 90
       50
102
RTVSPost2010PropOp42
 70
     1
102
RTVSPost2010Prop43
 90
        3
102
RTVSPost2010PropOp43
 70
     1
102
RTVSPost2010Prop44ColorIndex
 90
        5
102
RTVSPost2010Prop44ColorRGB
 90
      255
102
RTVSPost2010PropOp44
 70
     1
102
RTVSPost2010Prop45
280
     0
102
RTVSPost2010PropOp45
 70
     1
102
RTVSPost2010Prop46
 90
       50
102
RTVSPost2010PropOp46
 70
     1
102
RTVSPost2010Prop47
 90
       50
102
RTVSPost2010PropOp47
 70
     1
102
RTVSPost2010Prop48
 90
       50
102
RTVSPost2010PropOp48
 70
     1
102
RTVSPost2010Prop49
280
     0
102
RTVSPost2010PropOp49
 70
     1
102
RTVSPost2010Prop50
 90
       50
102
RTVSPost2010PropOp50
 70
     1
102
RTVSPost2010Prop51ColorIndex
 90
      256
102
RTVSPost2010Prop51ColorRGB
 90
-16777216
102
RTVSPost2010PropOp51
 70
     0
102
RTVSPost2010Prop52
140
1.0
102
RTVSPost2010PropOp52
 70
     0
102
RTVSPost2010Prop53
 90
        2
102
RTVSPost2010PropOp53
 70
     1
102
RTVSPost2010Prop54
  1
strokes_ogs.tif
102
RTVSPost2010PropOp54
 70
     1
102
RTVSPost2010Prop55
280
     0
102
RTVSPost2010PropOp55
 70
     1
102
RTVSPost2010Prop56
140
1.0
102
RTVSPost2010PropOp56
 70
     1
102
RTVSPost2010Prop57
140
1.0
102
RTVSPost2010PropOp57
 70
     1
102
RTVSPropertyOp0
 70
     1
102
RTVSPropertyOp1
 70
     1
102
RTVSPropertyOp2
 70
     1
102
RTVSPropertyOp3
 70
     1
102
RTVSPropertyOp4
 70
     1
102
RTVSPropertyOp5
 70
     1
102
RTVSPropertyOp6
 70
     1
102
RTVSPropertyOp7
 70
     1
102
RTVSPropertyOp8
 70
     1
102
RTVSPropertyOp9
 70
     1
102
RTVSPropertyOp10
 70
     1
102
RTVSPropertyOp11
 70
     1
102
RTVSPropertyOp12
 70
     1
102
RTVSPropertyOp13
 70
     1
102
RTVSPropertyOp14
 70
     1
102
RTVSPropertyOp15
 70
     1
102
RTVSPropertyOp16
 70
     1
102
RTVSPropertyOp17
 70
     1
102
RTVSPropertyOp18
 70
     1
102
RTVSPropertyOp19
 70
     1
102
RTVSPropertyOp20
 70
     1
102
RTVSPropertyOp21
 70
     1
102
RTVSPropertyOp22
 70
     1
102
RTVSPropertyOp23
 70
     1
102
RTVSPropertyOp24
 70
     1
102
RTVSPropertyOp25
 70
     1
102
RTVSPropertyOp26
 70
     1
102
RTVSPropertyOp27
 70
     1
102
RTVSPropertyOp28
 70
     1
102
RTVSPropertyOp29
 70
     1
102
RTVSPropertyOp30
 70
     1
102
RTVSPropertyOp31
 70
     1
102
RTVSPropertyOp32
 70
     1
102
RTVSPropertyOp33
 70
     1
102
RTVSPropertyOp34
 70
     1
102
RTVSPropertyOp35
 70
     1
102
RTVSPropertyOp36
 70
     1
102
RTVSPropertyOp37
 70
     1
102
RTVSPropertyOp38
 70
     1
102
RTVSPropertyOp39
 70
     1
102
RTVSPropertyOp40
 70
     1
102
RTVSPropertyOp41
 70
     1
102
RTVSPropertyOp42
 70
     1
102
RTVSPropertyOp43
 70
     1
102
RTVSPropertyOp44
 70
     1
102
RTVSPropertyOp45
 70
     1
102
RTVSPropertyOp46
 70
     1
102
RTVSPropertyOp47
 70
     1
102
RTVSPropertyOp48
 70
     1
102
RTVSPropertyOp49
 70
     1
102
RTVSPropertyOp50
 70
     1
102
RTVSPropertyOp51
 70
     0
102
RTVSPropertyOp52
 70
     0
102
RTVSPropertyOp53
 70
     1
102
RTVSPropertyOp54
 70
     1
102
RTVSPropertyOp55
 70
     1
102
RTVSPropertyOp56
 70
     1
102
RTVSPropertyOp57
 70
     1
102
RTVSPropertyOp58
 70
     1
102
RTVSPropertyOp59
 70
     1
102
RTVSPropertyOp60
 70
     1
102
RTVSPropertyOp61
 70
     1
102
RTVSPropertyOp62
 70
     1
  0
XRECORD
  5
9E3D
102
{ACAD_REACTORS
330
9E3C
102
}
330
9E3C
100
AcDbXrecord
280
     1
102
RTVSPost2010Prop28
280
     0
102
RTVSPost2010PropOp28
 70
     1
102
RTVSPost2010Prop29
280
     1
102
RTVSPost2010PropOp29
 70
     1
102
RTVSPost2010Prop30
280
     1
102
RTVSPost2010PropOp30
 70
     1
102
RTVSPost2010Prop31
280
     0
102
RTVSPost2010PropOp31
 70
     1
102
RTVSPost2010Prop32
280
     0
102
RTVSPost2010PropOp32
 70
     1
102
RTVSPost2010Prop33
280
     0
102
RTVSPost2010PropOp33
 70
     1
102
RTVSPost2010Prop34
280
     0
102
RTVSPost2010PropOp34
 70
     1
102
RTVSPost2010Prop35
280
     0
102
RTVSPost2010PropOp35
 70
     1
102
RTVSPost2010Prop36
280
     0
102
RTVSPost2010PropOp36
 70
     1
102
RTVSPost2010Prop37
 90
       50
102
RTVSPost2010PropOp37
 70
     1
102
RTVSPost2010Prop38
140
0.0
102
RTVSPost2010PropOp38
 70
     1
102
RTVSPost2010Prop39
140
1.0
102
RTVSPost2010PropOp39
 70
     1
102
RTVSPost2010Prop40
 90
        0
102
RTVSPost2010PropOp40
 70
     1
102
RTVSPost2010Prop41ColorIndex
 90
       18
102
RTVSPost2010Prop41ColorRGB
 90
        0
102
RTVSPost2010PropOp41
 70
     1
102
RTVSPost2010Prop42
 90
       50
102
RTVSPost2010PropOp42
 70
     1
102
RTVSPost2010Prop43
 90
        3
102
RTVSPost2010PropOp43
 70
     1
102
RTVSPost2010Prop44ColorIndex
 90
        5
102
RTVSPost2010Prop44ColorRGB
 90
      255
102
RTVSPost2010PropOp44
 70
     1
102
RTVSPost2010Prop45
280
     0
102
RTVSPost2010PropOp45
 70
     1
102
RTVSPost2010Prop46
 90
       50
102
RTVSPost2010PropOp46
 70
     1
102
RTVSPost2010Prop47
 90
       50
102
RTVSPost2010PropOp47
 70
     1
102
RTVSPost2010Prop48
 90
       50
102
RTVSPost2010PropOp48
 70
     1
102
RTVSPost2010Prop49
280
     0
102
RTVSPost2010PropOp49
 70
     1
102
RTVSPost2010Prop50
 90
       50
102
RTVSPost2010PropOp50
 70
     1
102
RTVSPost2010Prop51ColorIndex
 90
      256
102
RTVSPost2010Prop51ColorRGB
 90
-16777216
102
RTVSPost2010PropOp51
 70
     0
102
RTVSPost2010Prop52
140
1.0
102
RTVSPost2010PropOp52
 70
     0
102
RTVSPost2010Prop53
 90
        2
102
RTVSPost2010PropOp53
 70
     1
102
RTVSPost2010Prop54
  1
strokes_ogs.tif
102
RTVSPost2010PropOp54
 70
     1
102
RTVSPost2010Prop55
280
     0
102
RTVSPost2010PropOp55
 70
     1
102
RTVSPost2010Prop56
140
1.0
102
RTVSPost2010PropOp56
 70
     1
102
RTVSPost2010Prop57
140
1.0
102
RTVSPost2010PropOp57
 70
     1
102
RTVSPropertyOp0
 70
     1
102
RTVSPropertyOp1
 70
     1
102
RTVSPropertyOp2
 70
     1
102
RTVSPropertyOp3
 70
     1
102
RTVSPropertyOp4
 70
     1
102
RTVSPropertyOp5
 70
     1
102
RTVSPropertyOp6
 70
     1
102
RTVSPropertyOp7
 70
     1
102
RTVSPropertyOp8
 70
     1
102
RTVSPropertyOp9
 70
     1
102
RTVSPropertyOp10
 70
     1
102
RTVSPropertyOp11
 70
     1
102
RTVSPropertyOp12
 70
     1
102
RTVSPropertyOp13
 70
     1
102
RTVSPropertyOp14
 70
     1
102
RTVSPropertyOp15
 70
     1
102
RTVSPropertyOp16
 70
     1
102
RTVSPropertyOp17
 70
     1
102
RTVSPropertyOp18
 70
     1
102
RTVSPropertyOp19
 70
     1
102
RTVSPropertyOp20
 70
     1
102
RTVSPropertyOp21
 70
     1
102
RTVSPropertyOp22
 70
     1
102
RTVSPropertyOp23
 70
     1
102
RTVSPropertyOp24
 70
     1
102
RTVSPropertyOp25
 70
     1
102
RTVSPropertyOp26
 70
     1
102
RTVSPropertyOp27
 70
     1
102
RTVSPropertyOp28
 70
     1
102
RTVSPropertyOp29
 70
     1
102
RTVSPropertyOp30
 70
     1
102
RTVSPropertyOp31
 70
     1
102
RTVSPropertyOp32
 70
     1
102
RTVSPropertyOp33
 70
     1
102
RTVSPropertyOp34
 70
     1
102
RTVSPropertyOp35
 70
     1
102
RTVSPropertyOp36
 70
     1
102
RTVSPropertyOp37
 70
     1
102
RTVSPropertyOp38
 70
     1
102
RTVSPropertyOp39
 70
     1
102
RTVSPropertyOp40
 70
     1
102
RTVSPropertyOp41
 70
     1
102
RTVSPropertyOp42
 70
     1
102
RTVSPropertyOp43
 70
     1
102
RTVSPropertyOp44
 70
     1
102
RTVSPropertyOp45
 70
     1
102
RTVSPropertyOp46
 70
     1
102
RTVSPropertyOp47
 70
     1
102
RTVSPropertyOp48
 70
     1
102
RTVSPropertyOp49
 70
     1
102
RTVSPropertyOp50
 70
     1
102
RTVSPropertyOp51
 70
     0
102
RTVSPropertyOp52
 70
     0
102
RTVSPropertyOp53
 70
     1
102
RTVSPropertyOp54
 70
     1
102
RTVSPropertyOp55
 70
     1
102
RTVSPropertyOp56
 70
     1
102
RTVSPropertyOp57
 70
     1
102
RTVSPropertyOp58
 70
     1
102
RTVSPropertyOp59
 70
     1
102
RTVSPropertyOp60
 70
     1
102
RTVSPropertyOp61
 70
     1
102
RTVSPropertyOp62
 70
     1
  0
XRECORD
  5
9E45
102
{ACAD_REACTORS
330
9E44
102
}
330
9E44
100
AcDbXrecord
280
     1
102
RTVSPost2010Prop28
280
     0
102
RTVSPost2010PropOp28
 70
     1
102
RTVSPost2010Prop29
280
     1
102
RTVSPost2010PropOp29
 70
     1
102
RTVSPost2010Prop30
280
     1
102
RTVSPost2010PropOp30
 70
     1
102
RTVSPost2010Prop31
280
     0
102
RTVSPost2010PropOp31
 70
     1
102
RTVSPost2010Prop32
280
     0
102
RTVSPost2010PropOp32
 70
     1
102
RTVSPost2010Prop33
280
     0
102
RTVSPost2010PropOp33
 70
     1
102
RTVSPost2010Prop34
280
     0
102
RTVSPost2010PropOp34
 70
     1
102
RTVSPost2010Prop35
280
     0
102
RTVSPost2010PropOp35
 70
     1
102
RTVSPost2010Prop36
280
     0
102
RTVSPost2010PropOp36
 70
     1
102
RTVSPost2010Prop37
 90
       50
102
RTVSPost2010PropOp37
 70
     1
102
RTVSPost2010Prop38
140
0.0
102
RTVSPost2010PropOp38
 70
     1
102
RTVSPost2010Prop39
140
1.0
102
RTVSPost2010PropOp39
 70
     1
102
RTVSPost2010Prop40
 90
        0
102
RTVSPost2010PropOp40
 70
     1
102
RTVSPost2010Prop41ColorIndex
 90
       18
102
RTVSPost2010Prop41ColorRGB
 90
        0
102
RTVSPost2010PropOp41
 70
     1
102
RTVSPost2010Prop42
 90
       50
102
RTVSPost2010PropOp42
 70
     1
102
RTVSPost2010Prop43
 90
        3
102
RTVSPost2010PropOp43
 70
     1
102
RTVSPost2010Prop44ColorIndex
 90
        5
102
RTVSPost2010Prop44ColorRGB
 90
      255
102
RTVSPost2010PropOp44
 70
     1
102
RTVSPost2010Prop45
280
     0
102
RTVSPost2010PropOp45
 70
     1
102
RTVSPost2010Prop46
 90
       50
102
RTVSPost2010PropOp46
 70
     1
102
RTVSPost2010Prop47
 90
       50
102
RTVSPost2010PropOp47
 70
     1
102
RTVSPost2010Prop48
 90
       50
102
RTVSPost2010PropOp48
 70
     1
102
RTVSPost2010Prop49
280
     0
102
RTVSPost2010PropOp49
 70
     1
102
RTVSPost2010Prop50
 90
       50
102
RTVSPost2010PropOp50
 70
     1
102
RTVSPost2010Prop51ColorIndex
 90
      256
102
RTVSPost2010Prop51ColorRGB
 90
-16777216
102
RTVSPost2010PropOp51
 70
     0
102
RTVSPost2010Prop52
140
1.0
102
RTVSPost2010PropOp52
 70
     0
102
RTVSPost2010Prop53
 90
        2
102
RTVSPost2010PropOp53
 70
     1
102
RTVSPost2010Prop54
  1
strokes_ogs.tif
102
RTVSPost2010PropOp54
 70
     1
102
RTVSPost2010Prop55
280
     0
102
RTVSPost2010PropOp55
 70
     1
102
RTVSPost2010Prop56
140
1.0
102
RTVSPost2010PropOp56
 70
     1
102
RTVSPost2010Prop57
140
1.0
102
RTVSPost2010PropOp57
 70
     1
102
RTVSPropertyOp0
 70
     1
102
RTVSPropertyOp1
 70
     1
102
RTVSPropertyOp2
 70
     1
102
RTVSPropertyOp3
 70
     1
102
RTVSPropertyOp4
 70
     1
102
RTVSPropertyOp5
 70
     1
102
RTVSPropertyOp6
 70
     1
102
RTVSPropertyOp7
 70
     1
102
RTVSPropertyOp8
 70
     1
102
RTVSPropertyOp9
 70
     1
102
RTVSPropertyOp10
 70
     1
102
RTVSPropertyOp11
 70
     1
102
RTVSPropertyOp12
 70
     1
102
RTVSPropertyOp13
 70
     1
102
RTVSPropertyOp14
 70
     1
102
RTVSPropertyOp15
 70
     1
102
RTVSPropertyOp16
 70
     1
102
RTVSPropertyOp17
 70
     1
102
RTVSPropertyOp18
 70
     1
102
RTVSPropertyOp19
 70
     1
102
RTVSPropertyOp20
 70
     1
102
RTVSPropertyOp21
 70
     1
102
RTVSPropertyOp22
 70
     1
102
RTVSPropertyOp23
 70
     1
102
RTVSPropertyOp24
 70
     1
102
RTVSPropertyOp25
 70
     1
102
RTVSPropertyOp26
 70
     1
102
RTVSPropertyOp27
 70
     1
102
RTVSPropertyOp28
 70
     1
102
RTVSPropertyOp29
 70
     1
102
RTVSPropertyOp30
 70
     1
102
RTVSPropertyOp31
 70
     1
102
RTVSPropertyOp32
 70
     1
102
RTVSPropertyOp33
 70
     1
102
RTVSPropertyOp34
 70
     1
102
RTVSPropertyOp35
 70
     1
102
RTVSPropertyOp36
 70
     1
102
RTVSPropertyOp37
 70
     1
102
RTVSPropertyOp38
 70
     1
102
RTVSPropertyOp39
 70
     1
102
RTVSPropertyOp40
 70
     1
102
RTVSPropertyOp41
 70
     1
102
RTVSPropertyOp42
 70
     1
102
RTVSPropertyOp43
 70
     1
102
RTVSPropertyOp44
 70
     1
102
RTVSPropertyOp45
 70
     1
102
RTVSPropertyOp46
 70
     1
102
RTVSPropertyOp47
 70
     1
102
RTVSPropertyOp48
 70
     1
102
RTVSPropertyOp49
 70
     1
102
RTVSPropertyOp50
 70
     1
102
RTVSPropertyOp51
 70
     0
102
RTVSPropertyOp52
 70
     0
102
RTVSPropertyOp53
 70
     1
102
RTVSPropertyOp54
 70
     1
102
RTVSPropertyOp55
 70
     1
102
RTVSPropertyOp56
 70
     1
102
RTVSPropertyOp57
 70
     1
102
RTVSPropertyOp58
 70
     1
102
RTVSPropertyOp59
 70
     1
102
RTVSPropertyOp60
 70
     1
102
RTVSPropertyOp61
 70
     1
102
RTVSPropertyOp62
 70
     1
  0
XRECORD
  5
9E37
102
{ACAD_REACTORS
330
9E36
102
}
330
9E36
100
AcDbXrecord
280
     1
102
RTVSPost2010Prop28
280
     0
102
RTVSPost2010PropOp28
 70
     1
102
RTVSPost2010Prop29
280
     1
102
RTVSPost2010PropOp29
 70
     1
102
RTVSPost2010Prop30
280
     1
102
RTVSPost2010PropOp30
 70
     1
102
RTVSPost2010Prop31
280
     0
102
RTVSPost2010PropOp31
 70
     1
102
RTVSPost2010Prop32
280
     0
102
RTVSPost2010PropOp32
 70
     1
102
RTVSPost2010Prop33
280
     0
102
RTVSPost2010PropOp33
 70
     1
102
RTVSPost2010Prop34
280
     0
102
RTVSPost2010PropOp34
 70
     1
102
RTVSPost2010Prop35
280
     0
102
RTVSPost2010PropOp35
 70
     1
102
RTVSPost2010Prop36
280
     0
102
RTVSPost2010PropOp36
 70
     1
102
RTVSPost2010Prop37
 90
       50
102
RTVSPost2010PropOp37
 70
     1
102
RTVSPost2010Prop38
140
0.0
102
RTVSPost2010PropOp38
 70
     1
102
RTVSPost2010Prop39
140
1.0
102
RTVSPost2010PropOp39
 70
     1
102
RTVSPost2010Prop40
 90
        0
102
RTVSPost2010PropOp40
 70
     1
102
RTVSPost2010Prop41ColorIndex
 90
       18
102
RTVSPost2010Prop41ColorRGB
 90
        0
102
RTVSPost2010PropOp41
 70
     1
102
RTVSPost2010Prop42
 90
       50
102
RTVSPost2010PropOp42
 70
     1
102
RTVSPost2010Prop43
 90
        3
102
RTVSPost2010PropOp43
 70
     1
102
RTVSPost2010Prop44ColorIndex
 90
        5
102
RTVSPost2010Prop44ColorRGB
 90
      255
102
RTVSPost2010PropOp44
 70
     1
102
RTVSPost2010Prop45
280
     0
102
RTVSPost2010PropOp45
 70
     1
102
RTVSPost2010Prop46
 90
       50
102
RTVSPost2010PropOp46
 70
     1
102
RTVSPost2010Prop47
 90
       50
102
RTVSPost2010PropOp47
 70
     1
102
RTVSPost2010Prop48
 90
       50
102
RTVSPost2010PropOp48
 70
     1
102
RTVSPost2010Prop49
280
     0
102
RTVSPost2010PropOp49
 70
     1
102
RTVSPost2010Prop50
 90
       50
102
RTVSPost2010PropOp50
 70
     1
102
RTVSPost2010Prop51ColorIndex
 90
      256
102
RTVSPost2010Prop51ColorRGB
 90
-16777216
102
RTVSPost2010PropOp51
 70
     0
102
RTVSPost2010Prop52
140
1.0
102
RTVSPost2010PropOp52
 70
     0
102
RTVSPost2010Prop53
 90
        2
102
RTVSPost2010PropOp53
 70
     1
102
RTVSPost2010Prop54
  1
strokes_ogs.tif
102
RTVSPost2010PropOp54
 70
     1
102
RTVSPost2010Prop55
280
     0
102
RTVSPost2010PropOp55
 70
     1
102
RTVSPost2010Prop56
140
1.0
102
RTVSPost2010PropOp56
 70
     1
102
RTVSPost2010Prop57
140
1.0
102
RTVSPost2010PropOp57
 70
     1
102
RTVSPropertyOp0
 70
     1
102
RTVSPropertyOp1
 70
     1
102
RTVSPropertyOp2
 70
     1
102
RTVSPropertyOp3
 70
     1
102
RTVSPropertyOp4
 70
     1
102
RTVSPropertyOp5
 70
     1
102
RTVSPropertyOp6
 70
     1
102
RTVSPropertyOp7
 70
     1
102
RTVSPropertyOp8
 70
     1
102
RTVSPropertyOp9
 70
     1
102
RTVSPropertyOp10
 70
     1
102
RTVSPropertyOp11
 70
     1
102
RTVSPropertyOp12
 70
     1
102
RTVSPropertyOp13
 70
     1
102
RTVSPropertyOp14
 70
     1
102
RTVSPropertyOp15
 70
     1
102
RTVSPropertyOp16
 70
     1
102
RTVSPropertyOp17
 70
     1
102
RTVSPropertyOp18
 70
     1
102
RTVSPropertyOp19
 70
     1
102
RTVSPropertyOp20
 70
     1
102
RTVSPropertyOp21
 70
     1
102
RTVSPropertyOp22
 70
     1
102
RTVSPropertyOp23
 70
     1
102
RTVSPropertyOp24
 70
     1
102
RTVSPropertyOp25
 70
     1
102
RTVSPropertyOp26
 70
     1
102
RTVSPropertyOp27
 70
     1
102
RTVSPropertyOp28
 70
     1
102
RTVSPropertyOp29
 70
     1
102
RTVSPropertyOp30
 70
     1
102
RTVSPropertyOp31
 70
     1
102
RTVSPropertyOp32
 70
     1
102
RTVSPropertyOp33
 70
     1
102
RTVSPropertyOp34
 70
     1
102
RTVSPropertyOp35
 70
     1
102
RTVSPropertyOp36
 70
     1
102
RTVSPropertyOp37
 70
     1
102
RTVSPropertyOp38
 70
     1
102
RTVSPropertyOp39
 70
     1
102
RTVSPropertyOp40
 70
     1
102
RTVSPropertyOp41
 70
     1
102
RTVSPropertyOp42
 70
     1
102
RTVSPropertyOp43
 70
     1
102
RTVSPropertyOp44
 70
     1
102
RTVSPropertyOp45
 70
     1
102
RTVSPropertyOp46
 70
     1
102
RTVSPropertyOp47
 70
     1
102
RTVSPropertyOp48
 70
     1
102
RTVSPropertyOp49
 70
     1
102
RTVSPropertyOp50
 70
     1
102
RTVSPropertyOp51
 70
     0
102
RTVSPropertyOp52
 70
     0
102
RTVSPropertyOp53
 70
     1
102
RTVSPropertyOp54
 70
     1
102
RTVSPropertyOp55
 70
     1
102
RTVSPropertyOp56
 70
     1
102
RTVSPropertyOp57
 70
     1
102
RTVSPropertyOp58
 70
     1
102
RTVSPropertyOp59
 70
     1
102
RTVSPropertyOp60
 70
     1
102
RTVSPropertyOp61
 70
     1
102
RTVSPropertyOp62
 70
     1
  0
XRECORD
  5
9E3B
102
{ACAD_REACTORS
330
9E3A
102
}
330
9E3A
100
AcDbXrecord
280
     1
102
RTVSPost2010Prop28
280
     0
102
RTVSPost2010PropOp28
 70
     1
102
RTVSPost2010Prop29
280
     1
102
RTVSPost2010PropOp29
 70
     1
102
RTVSPost2010Prop30
280
     1
102
RTVSPost2010PropOp30
 70
     1
102
RTVSPost2010Prop31
280
     0
102
RTVSPost2010PropOp31
 70
     1
102
RTVSPost2010Prop32
280
     0
102
RTVSPost2010PropOp32
 70
     1
102
RTVSPost2010Prop33
280
     0
102
RTVSPost2010PropOp33
 70
     1
102
RTVSPost2010Prop34
280
     0
102
RTVSPost2010PropOp34
 70
     1
102
RTVSPost2010Prop35
280
     0
102
RTVSPost2010PropOp35
 70
     1
102
RTVSPost2010Prop36
280
     0
102
RTVSPost2010PropOp36
 70
     1
102
RTVSPost2010Prop37
 90
       50
102
RTVSPost2010PropOp37
 70
     1
102
RTVSPost2010Prop38
140
0.0
102
RTVSPost2010PropOp38
 70
     1
102
RTVSPost2010Prop39
140
1.0
102
RTVSPost2010PropOp39
 70
     1
102
RTVSPost2010Prop40
 90
        0
102
RTVSPost2010PropOp40
 70
     1
102
RTVSPost2010Prop41ColorIndex
 90
       18
102
RTVSPost2010Prop41ColorRGB
 90
        0
102
RTVSPost2010PropOp41
 70
     1
102
RTVSPost2010Prop42
 90
       50
102
RTVSPost2010PropOp42
 70
     1
102
RTVSPost2010Prop43
 90
        3
102
RTVSPost2010PropOp43
 70
     1
102
RTVSPost2010Prop44ColorIndex
 90
        5
102
RTVSPost2010Prop44ColorRGB
 90
      255
102
RTVSPost2010PropOp44
 70
     1
102
RTVSPost2010Prop45
280
     0
102
RTVSPost2010PropOp45
 70
     1
102
RTVSPost2010Prop46
 90
       50
102
RTVSPost2010PropOp46
 70
     1
102
RTVSPost2010Prop47
 90
       50
102
RTVSPost2010PropOp47
 70
     1
102
RTVSPost2010Prop48
 90
       50
102
RTVSPost2010PropOp48
 70
     1
102
RTVSPost2010Prop49
280
     0
102
RTVSPost2010PropOp49
 70
     1
102
RTVSPost2010Prop50
 90
       50
102
RTVSPost2010PropOp50
 70
     1
102
RTVSPost2010Prop51ColorIndex
 90
      256
102
RTVSPost2010Prop51ColorRGB
 90
-16777216
102
RTVSPost2010PropOp51
 70
     0
102
RTVSPost2010Prop52
140
1.0
102
RTVSPost2010PropOp52
 70
     0
102
RTVSPost2010Prop53
 90
        2
102
RTVSPost2010PropOp53
 70
     1
102
RTVSPost2010Prop54
  1
strokes_ogs.tif
102
RTVSPost2010PropOp54
 70
     1
102
RTVSPost2010Prop55
280
     0
102
RTVSPost2010PropOp55
 70
     1
102
RTVSPost2010Prop56
140
1.0
102
RTVSPost2010PropOp56
 70
     1
102
RTVSPost2010Prop57
140
1.0
102
RTVSPost2010PropOp57
 70
     1
102
RTVSPropertyOp0
 70
     1
102
RTVSPropertyOp1
 70
     1
102
RTVSPropertyOp2
 70
     1
102
RTVSPropertyOp3
 70
     1
102
RTVSPropertyOp4
 70
     1
102
RTVSPropertyOp5
 70
     1
102
RTVSPropertyOp6
 70
     1
102
RTVSPropertyOp7
 70
     1
102
RTVSPropertyOp8
 70
     1
102
RTVSPropertyOp9
 70
     1
102
RTVSPropertyOp10
 70
     1
102
RTVSPropertyOp11
 70
     1
102
RTVSPropertyOp12
 70
     1
102
RTVSPropertyOp13
 70
     1
102
RTVSPropertyOp14
 70
     1
102
RTVSPropertyOp15
 70
     1
102
RTVSPropertyOp16
 70
     1
102
RTVSPropertyOp17
 70
     1
102
RTVSPropertyOp18
 70
     1
102
RTVSPropertyOp19
 70
     1
102
RTVSPropertyOp20
 70
     1
102
RTVSPropertyOp21
 70
     1
102
RTVSPropertyOp22
 70
     1
102
RTVSPropertyOp23
 70
     1
102
RTVSPropertyOp24
 70
     1
102
RTVSPropertyOp25
 70
     1
102
RTVSPropertyOp26
 70
     1
102
RTVSPropertyOp27
 70
     1
102
RTVSPropertyOp28
 70
     1
102
RTVSPropertyOp29
 70
     1
102
RTVSPropertyOp30
 70
     1
102
RTVSPropertyOp31
 70
     1
102
RTVSPropertyOp32
 70
     1
102
RTVSPropertyOp33
 70
     1
102
RTVSPropertyOp34
 70
     1
102
RTVSPropertyOp35
 70
     1
102
RTVSPropertyOp36
 70
     1
102
RTVSPropertyOp37
 70
     1
102
RTVSPropertyOp38
 70
     1
102
RTVSPropertyOp39
 70
     1
102
RTVSPropertyOp40
 70
     1
102
RTVSPropertyOp41
 70
     1
102
RTVSPropertyOp42
 70
     1
102
RTVSPropertyOp43
 70
     1
102
RTVSPropertyOp44
 70
     1
102
RTVSPropertyOp45
 70
     1
102
RTVSPropertyOp46
 70
     1
102
RTVSPropertyOp47
 70
     1
102
RTVSPropertyOp48
 70
     1
102
RTVSPropertyOp49
 70
     1
102
RTVSPropertyOp50
 70
     1
102
RTVSPropertyOp51
 70
     0
102
RTVSPropertyOp52
 70
     0
102
RTVSPropertyOp53
 70
     1
102
RTVSPropertyOp54
 70
     1
102
RTVSPropertyOp55
 70
     1
102
RTVSPropertyOp56
 70
     1
102
RTVSPropertyOp57
 70
     1
102
RTVSPropertyOp58
 70
     1
102
RTVSPropertyOp59
 70
     1
102
RTVSPropertyOp60
 70
     1
102
RTVSPropertyOp61
 70
     1
102
RTVSPropertyOp62
 70
     1
  0
XRECORD
  5
9E55
102
{ACAD_REACTORS
330
9E54
102
}
330
9E54
100
AcDbXrecord
280
     1
102
RTVSPost2010Prop28
280
     0
102
RTVSPost2010PropOp28
 70
     1
102
RTVSPost2010Prop29
280
     1
102
RTVSPost2010PropOp29
 70
     1
102
RTVSPost2010Prop30
280
     1
102
RTVSPost2010PropOp30
 70
     1
102
RTVSPost2010Prop31
280
     0
102
RTVSPost2010PropOp31
 70
     1
102
RTVSPost2010Prop32
280
     0
102
RTVSPost2010PropOp32
 70
     1
102
RTVSPost2010Prop33
280
     0
102
RTVSPost2010PropOp33
 70
     1
102
RTVSPost2010Prop34
280
     0
102
RTVSPost2010PropOp34
 70
     1
102
RTVSPost2010Prop35
280
     0
102
RTVSPost2010PropOp35
 70
     1
102
RTVSPost2010Prop36
280
     0
102
RTVSPost2010PropOp36
 70
     1
102
RTVSPost2010Prop37
 90
       50
102
RTVSPost2010PropOp37
 70
     0
102
RTVSPost2010Prop38
140
0.0
102
RTVSPost2010PropOp38
 70
     0
102
RTVSPost2010Prop39
140
1.0
102
RTVSPost2010PropOp39
 70
     0
102
RTVSPost2010Prop40
 90
        0
102
RTVSPost2010PropOp40
 70
     0
102
RTVSPost2010Prop41ColorIndex
 90
       18
102
RTVSPost2010Prop41ColorRGB
 90
        0
102
RTVSPost2010PropOp41
 70
     0
102
RTVSPost2010Prop42
 90
       50
102
RTVSPost2010PropOp42
 70
     0
102
RTVSPost2010Prop43
 90
        3
102
RTVSPost2010PropOp43
 70
     0
102
RTVSPost2010Prop44ColorIndex
 90
        5
102
RTVSPost2010Prop44ColorRGB
 90
      255
102
RTVSPost2010PropOp44
 70
     0
102
RTVSPost2010Prop45
280
     0
102
RTVSPost2010PropOp45
 70
     1
102
RTVSPost2010Prop46
 90
       50
102
RTVSPost2010PropOp46
 70
     0
102
RTVSPost2010Prop47
 90
       50
102
RTVSPost2010PropOp47
 70
     0
102
RTVSPost2010Prop48
 90
       50
102
RTVSPost2010PropOp48
 70
     0
102
RTVSPost2010Prop49
280
     0
102
RTVSPost2010PropOp49
 70
     1
102
RTVSPost2010Prop50
 90
       50
102
RTVSPost2010PropOp50
 70
     0
102
RTVSPost2010Prop51ColorIndex
 90
      256
102
RTVSPost2010Prop51ColorRGB
 90
-16777216
102
RTVSPost2010PropOp51
 70
     0
102
RTVSPost2010Prop52
140
1.0
102
RTVSPost2010PropOp52
 70
     0
102
RTVSPost2010Prop53
 90
        2
102
RTVSPost2010PropOp53
 70
     0
102
RTVSPost2010Prop54
  1
strokes_ogs.tif
102
RTVSPost2010PropOp54
 70
     0
102
RTVSPost2010Prop55
280
     0
102
RTVSPost2010PropOp55
 70
     1
102
RTVSPost2010Prop56
140
1.0
102
RTVSPost2010PropOp56
 70
     0
102
RTVSPost2010Prop57
140
1.0
102
RTVSPost2010PropOp57
 70
     0
102
RTVSPropertyOp0
 70
     0
102
RTVSPropertyOp1
 70
     0
102
RTVSPropertyOp2
 70
     0
102
RTVSPropertyOp3
 70
     0
102
RTVSPropertyOp4
 70
     0
102
RTVSPropertyOp5
 70
     0
102
RTVSPropertyOp6
 70
     0
102
RTVSPropertyOp7
 70
     0
102
RTVSPropertyOp8
 70
     0
102
RTVSPropertyOp9
 70
     0
102
RTVSPropertyOp10
 70
     0
102
RTVSPropertyOp11
 70
     0
102
RTVSPropertyOp12
 70
     0
102
RTVSPropertyOp13
 70
     0
102
RTVSPropertyOp14
 70
     2
102
RTVSPropertyOp15
 70
     0
102
RTVSPropertyOp16
 70
     0
102
RTVSPropertyOp17
 70
     0
102
RTVSPropertyOp18
 70
     0
102
RTVSPropertyOp19
 70
     0
102
RTVSPropertyOp20
 70
     0
102
RTVSPropertyOp21
 70
     0
102
RTVSPropertyOp22
 70
     0
102
RTVSPropertyOp23
 70
     0
102
RTVSPropertyOp24
 70
     0
102
RTVSPropertyOp25
 70
     0
102
RTVSPropertyOp26
 70
     0
102
RTVSPropertyOp27
 70
     0
102
RTVSPropertyOp28
 70
     1
102
RTVSPropertyOp29
 70
     1
102
RTVSPropertyOp30
 70
     1
102
RTVSPropertyOp31
 70
     1
102
RTVSPropertyOp32
 70
     1
102
RTVSPropertyOp33
 70
     1
102
RTVSPropertyOp34
 70
     1
102
RTVSPropertyOp35
 70
     1
102
RTVSPropertyOp36
 70
     1
102
RTVSPropertyOp37
 70
     0
102
RTVSPropertyOp38
 70
     0
102
RTVSPropertyOp39
 70
     0
102
RTVSPropertyOp40
 70
     0
102
RTVSPropertyOp41
 70
     0
102
RTVSPropertyOp42
 70
     0
102
RTVSPropertyOp43
 70
     0
102
RTVSPropertyOp44
 70
     0
102
RTVSPropertyOp45
 70
     1
102
RTVSPropertyOp46
 70
     0
102
RTVSPropertyOp47
 70
     0
102
RTVSPropertyOp48
 70
     0
102
RTVSPropertyOp49
 70
     1
102
RTVSPropertyOp50
 70
     0
102
RTVSPropertyOp51
 70
     0
102
RTVSPropertyOp52
 70
     0
102
RTVSPropertyOp53
 70
     0
102
RTVSPropertyOp54
 70
     0
102
RTVSPropertyOp55
 70
     1
102
RTVSPropertyOp56
 70
     0
102
RTVSPropertyOp57
 70
     0
102
RTVSPropertyOp58
 70
     0
102
RTVSPropertyOp59
 70
     0
102
RTVSPropertyOp60
 70
     0
102
RTVSPropertyOp61
 70
     0
102
RTVSPropertyOp62
 70
     0
  0
XRECORD
  5
9E43
102
{ACAD_REACTORS
330
9E42
102
}
330
9E42
100
AcDbXrecord
280
     1
102
RTVSPost2010Prop28
280
     0
102
RTVSPost2010PropOp28
 70
     1
102
RTVSPost2010Prop29
280
     1
102
RTVSPost2010PropOp29
 70
     1
102
RTVSPost2010Prop30
280
     1
102
RTVSPost2010PropOp30
 70
     1
102
RTVSPost2010Prop31
280
     0
102
RTVSPost2010PropOp31
 70
     1
102
RTVSPost2010Prop32
280
     0
102
RTVSPost2010PropOp32
 70
     1
102
RTVSPost2010Prop33
280
     0
102
RTVSPost2010PropOp33
 70
     1
102
RTVSPost2010Prop34
280
     0
102
RTVSPost2010PropOp34
 70
     1
102
RTVSPost2010Prop35
280
     0
102
RTVSPost2010PropOp35
 70
     1
102
RTVSPost2010Prop36
280
     0
102
RTVSPost2010PropOp36
 70
     1
102
RTVSPost2010Prop37
 90
       50
102
RTVSPost2010PropOp37
 70
     1
102
RTVSPost2010Prop38
140
0.0
102
RTVSPost2010PropOp38
 70
     1
102
RTVSPost2010Prop39
140
1.0
102
RTVSPost2010PropOp39
 70
     1
102
RTVSPost2010Prop40
 90
        0
102
RTVSPost2010PropOp40
 70
     1
102
RTVSPost2010Prop41ColorIndex
 90
       18
102
RTVSPost2010Prop41ColorRGB
 90
        0
102
RTVSPost2010PropOp41
 70
     1
102
RTVSPost2010Prop42
 90
       50
102
RTVSPost2010PropOp42
 70
     1
102
RTVSPost2010Prop43
 90
        3
102
RTVSPost2010PropOp43
 70
     1
102
RTVSPost2010Prop44ColorIndex
 90
        5
102
RTVSPost2010Prop44ColorRGB
 90
      255
102
RTVSPost2010PropOp44
 70
     1
102
RTVSPost2010Prop45
280
     0
102
RTVSPost2010PropOp45
 70
     1
102
RTVSPost2010Prop46
 90
       50
102
RTVSPost2010PropOp46
 70
     1
102
RTVSPost2010Prop47
 90
       50
102
RTVSPost2010PropOp47
 70
     1
102
RTVSPost2010Prop48
 90
       50
102
RTVSPost2010PropOp48
 70
     1
102
RTVSPost2010Prop49
280
     0
102
RTVSPost2010PropOp49
 70
     1
102
RTVSPost2010Prop50
 90
       50
102
RTVSPost2010PropOp50
 70
     1
102
RTVSPost2010Prop51ColorIndex
 90
      256
102
RTVSPost2010Prop51ColorRGB
 90
-16777216
102
RTVSPost2010PropOp51
 70
     0
102
RTVSPost2010Prop52
140
1.0
102
RTVSPost2010PropOp52
 70
     0
102
RTVSPost2010Prop53
 90
        2
102
RTVSPost2010PropOp53
 70
     1
102
RTVSPost2010Prop54
  1
strokes_ogs.tif
102
RTVSPost2010PropOp54
 70
     1
102
RTVSPost2010Prop55
280
     0
102
RTVSPost2010PropOp55
 70
     1
102
RTVSPost2010Prop56
140
1.0
102
RTVSPost2010PropOp56
 70
     1
102
RTVSPost2010Prop57
140
1.0
102
RTVSPost2010PropOp57
 70
     1
102
RTVSPropertyOp0
 70
     1
102
RTVSPropertyOp1
 70
     1
102
RTVSPropertyOp2
 70
     1
102
RTVSPropertyOp3
 70
     1
102
RTVSPropertyOp4
 70
     1
102
RTVSPropertyOp5
 70
     1
102
RTVSPropertyOp6
 70
     1
102
RTVSPropertyOp7
 70
     1
102
RTVSPropertyOp8
 70
     1
102
RTVSPropertyOp9
 70
     1
102
RTVSPropertyOp10
 70
     1
102
RTVSPropertyOp11
 70
     1
102
RTVSPropertyOp12
 70
     1
102
RTVSPropertyOp13
 70
     1
102
RTVSPropertyOp14
 70
     1
102
RTVSPropertyOp15
 70
     1
102
RTVSPropertyOp16
 70
     1
102
RTVSPropertyOp17
 70
     1
102
RTVSPropertyOp18
 70
     1
102
RTVSPropertyOp19
 70
     1
102
RTVSPropertyOp20
 70
     1
102
RTVSPropertyOp21
 70
     1
102
RTVSPropertyOp22
 70
     1
102
RTVSPropertyOp23
 70
     1
102
RTVSPropertyOp24
 70
     1
102
RTVSPropertyOp25
 70
     1
102
RTVSPropertyOp26
 70
     1
102
RTVSPropertyOp27
 70
     1
102
RTVSPropertyOp28
 70
     1
102
RTVSPropertyOp29
 70
     1
102
RTVSPropertyOp30
 70
     1
102
RTVSPropertyOp31
 70
     1
102
RTVSPropertyOp32
 70
     1
102
RTVSPropertyOp33
 70
     1
102
RTVSPropertyOp34
 70
     1
102
RTVSPropertyOp35
 70
     1
102
RTVSPropertyOp36
 70
     1
102
RTVSPropertyOp37
 70
     1
102
RTVSPropertyOp38
 70
     1
102
RTVSPropertyOp39
 70
     1
102
RTVSPropertyOp40
 70
     1
102
RTVSPropertyOp41
 70
     1
102
RTVSPropertyOp42
 70
     1
102
RTVSPropertyOp43
 70
     1
102
RTVSPropertyOp44
 70
     1
102
RTVSPropertyOp45
 70
     1
102
RTVSPropertyOp46
 70
     1
102
RTVSPropertyOp47
 70
     1
102
RTVSPropertyOp48
 70
     1
102
RTVSPropertyOp49
 70
     1
102
RTVSPropertyOp50
 70
     1
102
RTVSPropertyOp51
 70
     0
102
RTVSPropertyOp52
 70
     0
102
RTVSPropertyOp53
 70
     1
102
RTVSPropertyOp54
 70
     1
102
RTVSPropertyOp55
 70
     1
102
RTVSPropertyOp56
 70
     1
102
RTVSPropertyOp57
 70
     1
102
RTVSPropertyOp58
 70
     1
102
RTVSPropertyOp59
 70
     1
102
RTVSPropertyOp60
 70
     1
102
RTVSPropertyOp61
 70
     1
102
RTVSPropertyOp62
 70
     1
  0
XRECORD
  5
9E27
102
{ACAD_REACTORS
330
9E26
102
}
330
9E26
100
AcDbXrecord
280
     1
102
RTVSPost2010Prop28
280
     0
102
RTVSPost2010PropOp28
 70
     1
102
RTVSPost2010Prop29
280
     1
102
RTVSPost2010PropOp29
 70
     1
102
RTVSPost2010Prop30
280
     1
102
RTVSPost2010PropOp30
 70
     1
102
RTVSPost2010Prop31
280
     0
102
RTVSPost2010PropOp31
 70
     1
102
RTVSPost2010Prop32
280
     0
102
RTVSPost2010PropOp32
 70
     1
102
RTVSPost2010Prop33
280
     0
102
RTVSPost2010PropOp33
 70
     1
102
RTVSPost2010Prop34
280
     0
102
RTVSPost2010PropOp34
 70
     1
102
RTVSPost2010Prop35
280
     0
102
RTVSPost2010PropOp35
 70
     1
102
RTVSPost2010Prop36
280
     0
102
RTVSPost2010PropOp36
 70
     1
102
RTVSPost2010Prop37
 90
       50
102
RTVSPost2010PropOp37
 70
     1
102
RTVSPost2010Prop38
140
0.0
102
RTVSPost2010PropOp38
 70
     1
102
RTVSPost2010Prop39
140
1.0
102
RTVSPost2010PropOp39
 70
     1
102
RTVSPost2010Prop40
 90
        0
102
RTVSPost2010PropOp40
 70
     1
102
RTVSPost2010Prop41ColorIndex
 90
       18
102
RTVSPost2010Prop41ColorRGB
 90
        0
102
RTVSPost2010PropOp41
 70
     1
102
RTVSPost2010Prop42
 90
       50
102
RTVSPost2010PropOp42
 70
     1
102
RTVSPost2010Prop43
 90
        3
102
RTVSPost2010PropOp43
 70
     1
102
RTVSPost2010Prop44ColorIndex
 90
        5
102
RTVSPost2010Prop44ColorRGB
 90
      255
102
RTVSPost2010PropOp44
 70
     1
102
RTVSPost2010Prop45
280
     0
102
RTVSPost2010PropOp45
 70
     1
102
RTVSPost2010Prop46
 90
       50
102
RTVSPost2010PropOp46
 70
     1
102
RTVSPost2010Prop47
 90
       50
102
RTVSPost2010PropOp47
 70
     1
102
RTVSPost2010Prop48
 90
       50
102
RTVSPost2010PropOp48
 70
     1
102
RTVSPost2010Prop49
280
     0
102
RTVSPost2010PropOp49
 70
     1
102
RTVSPost2010Prop50
 90
       50
102
RTVSPost2010PropOp50
 70
     1
102
RTVSPost2010Prop51ColorIndex
 90
      256
102
RTVSPost2010Prop51ColorRGB
 90
-16777216
102
RTVSPost2010PropOp51
 70
     0
102
RTVSPost2010Prop52
140
1.0
102
RTVSPost2010PropOp52
 70
     0
102
RTVSPost2010Prop53
 90
        2
102
RTVSPost2010PropOp53
 70
     1
102
RTVSPost2010Prop54
  1
strokes_ogs.tif
102
RTVSPost2010PropOp54
 70
     1
102
RTVSPost2010Prop55
280
     0
102
RTVSPost2010PropOp55
 70
     1
102
RTVSPost2010Prop56
140
1.0
102
RTVSPost2010PropOp56
 70
     1
102
RTVSPost2010Prop57
140
1.0
102
RTVSPost2010PropOp57
 70
     1
102
RTVSPropertyOp0
 70
     1
102
RTVSPropertyOp1
 70
     1
102
RTVSPropertyOp2
 70
     1
102
RTVSPropertyOp3
 70
     1
102
RTVSPropertyOp4
 70
     1
102
RTVSPropertyOp5
 70
     1
102
RTVSPropertyOp6
 70
     1
102
RTVSPropertyOp7
 70
     1
102
RTVSPropertyOp8
 70
     1
102
RTVSPropertyOp9
 70
     1
102
RTVSPropertyOp10
 70
     1
102
RTVSPropertyOp11
 70
     1
102
RTVSPropertyOp12
 70
     1
102
RTVSPropertyOp13
 70
     1
102
RTVSPropertyOp14
 70
     1
102
RTVSPropertyOp15
 70
     1
102
RTVSPropertyOp16
 70
     1
102
RTVSPropertyOp17
 70
     1
102
RTVSPropertyOp18
 70
     1
102
RTVSPropertyOp19
 70
     1
102
RTVSPropertyOp20
 70
     1
102
RTVSPropertyOp21
 70
     1
102
RTVSPropertyOp22
 70
     1
102
RTVSPropertyOp23
 70
     1
102
RTVSPropertyOp24
 70
     1
102
RTVSPropertyOp25
 70
     1
102
RTVSPropertyOp26
 70
     1
102
RTVSPropertyOp27
 70
     1
102
RTVSPropertyOp28
 70
     1
102
RTVSPropertyOp29
 70
     1
102
RTVSPropertyOp30
 70
     1
102
RTVSPropertyOp31
 70
     1
102
RTVSPropertyOp32
 70
     1
102
RTVSPropertyOp33
 70
     1
102
RTVSPropertyOp34
 70
     1
102
RTVSPropertyOp35
 70
     1
102
RTVSPropertyOp36
 70
     1
102
RTVSPropertyOp37
 70
     1
102
RTVSPropertyOp38
 70
     1
102
RTVSPropertyOp39
 70
     1
102
RTVSPropertyOp40
 70
     1
102
RTVSPropertyOp41
 70
     1
102
RTVSPropertyOp42
 70
     1
102
RTVSPropertyOp43
 70
     1
102
RTVSPropertyOp44
 70
     1
102
RTVSPropertyOp45
 70
     1
102
RTVSPropertyOp46
 70
     1
102
RTVSPropertyOp47
 70
     1
102
RTVSPropertyOp48
 70
     1
102
RTVSPropertyOp49
 70
     1
102
RTVSPropertyOp50
 70
     1
102
RTVSPropertyOp51
 70
     0
102
RTVSPropertyOp52
 70
     0
102
RTVSPropertyOp53
 70
     1
102
RTVSPropertyOp54
 70
     1
102
RTVSPropertyOp55
 70
     1
102
RTVSPropertyOp56
 70
     1
102
RTVSPropertyOp57
 70
     1
102
RTVSPropertyOp58
 70
     1
102
RTVSPropertyOp59
 70
     1
102
RTVSPropertyOp60
 70
     1
102
RTVSPropertyOp61
 70
     1
102
RTVSPropertyOp62
 70
     1
  0
XRECORD
  5
9E29
102
{ACAD_REACTORS
330
9E28
102
}
330
9E28
100
AcDbXrecord
280
     1
102
RTVSPost2010Prop28
280
     0
102
RTVSPost2010PropOp28
 70
     1
102
RTVSPost2010Prop29
280
     1
102
RTVSPost2010PropOp29
 70
     1
102
RTVSPost2010Prop30
280
     1
102
RTVSPost2010PropOp30
 70
     1
102
RTVSPost2010Prop31
280
     0
102
RTVSPost2010PropOp31
 70
     1
102
RTVSPost2010Prop32
280
     0
102
RTVSPost2010PropOp32
 70
     1
102
RTVSPost2010Prop33
280
     0
102
RTVSPost2010PropOp33
 70
     1
102
RTVSPost2010Prop34
280
     0
102
RTVSPost2010PropOp34
 70
     1
102
RTVSPost2010Prop35
280
     0
102
RTVSPost2010PropOp35
 70
     1
102
RTVSPost2010Prop36
280
     0
102
RTVSPost2010PropOp36
 70
     1
102
RTVSPost2010Prop37
 90
       50
102
RTVSPost2010PropOp37
 70
     1
102
RTVSPost2010Prop38
140
0.0
102
RTVSPost2010PropOp38
 70
     1
102
RTVSPost2010Prop39
140
1.0
102
RTVSPost2010PropOp39
 70
     1
102
RTVSPost2010Prop40
 90
        0
102
RTVSPost2010PropOp40
 70
     1
102
RTVSPost2010Prop41ColorIndex
 90
       18
102
RTVSPost2010Prop41ColorRGB
 90
        0
102
RTVSPost2010PropOp41
 70
     1
102
RTVSPost2010Prop42
 90
       50
102
RTVSPost2010PropOp42
 70
     1
102
RTVSPost2010Prop43
 90
        3
102
RTVSPost2010PropOp43
 70
     1
102
RTVSPost2010Prop44ColorIndex
 90
        5
102
RTVSPost2010Prop44ColorRGB
 90
      255
102
RTVSPost2010PropOp44
 70
     1
102
RTVSPost2010Prop45
280
     0
102
RTVSPost2010PropOp45
 70
     1
102
RTVSPost2010Prop46
 90
       50
102
RTVSPost2010PropOp46
 70
     1
102
RTVSPost2010Prop47
 90
       50
102
RTVSPost2010PropOp47
 70
     1
102
RTVSPost2010Prop48
 90
       50
102
RTVSPost2010PropOp48
 70
     1
102
RTVSPost2010Prop49
280
     0
102
RTVSPost2010PropOp49
 70
     1
102
RTVSPost2010Prop50
 90
       50
102
RTVSPost2010PropOp50
 70
     1
102
RTVSPost2010Prop51ColorIndex
 90
      256
102
RTVSPost2010Prop51ColorRGB
 90
-16777216
102
RTVSPost2010PropOp51
 70
     0
102
RTVSPost2010Prop52
140
1.0
102
RTVSPost2010PropOp52
 70
     0
102
RTVSPost2010Prop53
 90
        2
102
RTVSPost2010PropOp53
 70
     1
102
RTVSPost2010Prop54
  1
strokes_ogs.tif
102
RTVSPost2010PropOp54
 70
     1
102
RTVSPost2010Prop55
280
     0
102
RTVSPost2010PropOp55
 70
     1
102
RTVSPost2010Prop56
140
1.0
102
RTVSPost2010PropOp56
 70
     1
102
RTVSPost2010Prop57
140
1.0
102
RTVSPost2010PropOp57
 70
     1
102
RTVSPropertyOp0
 70
     1
102
RTVSPropertyOp1
 70
     1
102
RTVSPropertyOp2
 70
     1
102
RTVSPropertyOp3
 70
     1
102
RTVSPropertyOp4
 70
     1
102
RTVSPropertyOp5
 70
     1
102
RTVSPropertyOp6
 70
     1
102
RTVSPropertyOp7
 70
     1
102
RTVSPropertyOp8
 70
     1
102
RTVSPropertyOp9
 70
     1
102
RTVSPropertyOp10
 70
     1
102
RTVSPropertyOp11
 70
     1
102
RTVSPropertyOp12
 70
     1
102
RTVSPropertyOp13
 70
     1
102
RTVSPropertyOp14
 70
     1
102
RTVSPropertyOp15
 70
     1
102
RTVSPropertyOp16
 70
     1
102
RTVSPropertyOp17
 70
     1
102
RTVSPropertyOp18
 70
     1
102
RTVSPropertyOp19
 70
     1
102
RTVSPropertyOp20
 70
     1
102
RTVSPropertyOp21
 70
     1
102
RTVSPropertyOp22
 70
     1
102
RTVSPropertyOp23
 70
     1
102
RTVSPropertyOp24
 70
     1
102
RTVSPropertyOp25
 70
     1
102
RTVSPropertyOp26
 70
     1
102
RTVSPropertyOp27
 70
     1
102
RTVSPropertyOp28
 70
     1
102
RTVSPropertyOp29
 70
     1
102
RTVSPropertyOp30
 70
     1
102
RTVSPropertyOp31
 70
     1
102
RTVSPropertyOp32
 70
     1
102
RTVSPropertyOp33
 70
     1
102
RTVSPropertyOp34
 70
     1
102
RTVSPropertyOp35
 70
     1
102
RTVSPropertyOp36
 70
     1
102
RTVSPropertyOp37
 70
     1
102
RTVSPropertyOp38
 70
     1
102
RTVSPropertyOp39
 70
     1
102
RTVSPropertyOp40
 70
     1
102
RTVSPropertyOp41
 70
     1
102
RTVSPropertyOp42
 70
     1
102
RTVSPropertyOp43
 70
     1
102
RTVSPropertyOp44
 70
     1
102
RTVSPropertyOp45
 70
     1
102
RTVSPropertyOp46
 70
     1
102
RTVSPropertyOp47
 70
     1
102
RTVSPropertyOp48
 70
     1
102
RTVSPropertyOp49
 70
     1
102
RTVSPropertyOp50
 70
     1
102
RTVSPropertyOp51
 70
     0
102
RTVSPropertyOp52
 70
     0
102
RTVSPropertyOp53
 70
     1
102
RTVSPropertyOp54
 70
     1
102
RTVSPropertyOp55
 70
     1
102
RTVSPropertyOp56
 70
     1
102
RTVSPropertyOp57
 70
     1
102
RTVSPropertyOp58
 70
     1
102
RTVSPropertyOp59
 70
     1
102
RTVSPropertyOp60
 70
     1
102
RTVSPropertyOp61
 70
     1
102
RTVSPropertyOp62
 70
     1
  0
XRECORD
  5
9E2B
102
{ACAD_REACTORS
330
9E2A
102
}
330
9E2A
100
AcDbXrecord
280
     1
102
RTVSPost2010Prop28
280
     0
102
RTVSPost2010PropOp28
 70
     1
102
RTVSPost2010Prop29
280
     1
102
RTVSPost2010PropOp29
 70
     1
102
RTVSPost2010Prop30
280
     1
102
RTVSPost2010PropOp30
 70
     1
102
RTVSPost2010Prop31
280
     0
102
RTVSPost2010PropOp31
 70
     1
102
RTVSPost2010Prop32
280
     0
102
RTVSPost2010PropOp32
 70
     1
102
RTVSPost2010Prop33
280
     0
102
RTVSPost2010PropOp33
 70
     1
102
RTVSPost2010Prop34
280
     0
102
RTVSPost2010PropOp34
 70
     1
102
RTVSPost2010Prop35
280
     0
102
RTVSPost2010PropOp35
 70
     1
102
RTVSPost2010Prop36
280
     0
102
RTVSPost2010PropOp36
 70
     1
102
RTVSPost2010Prop37
 90
       50
102
RTVSPost2010PropOp37
 70
     1
102
RTVSPost2010Prop38
140
0.0
102
RTVSPost2010PropOp38
 70
     1
102
RTVSPost2010Prop39
140
1.0
102
RTVSPost2010PropOp39
 70
     1
102
RTVSPost2010Prop40
 90
        0
102
RTVSPost2010PropOp40
 70
     1
102
RTVSPost2010Prop41ColorIndex
 90
       18
102
RTVSPost2010Prop41ColorRGB
 90
        0
102
RTVSPost2010PropOp41
 70
     1
102
RTVSPost2010Prop42
 90
       50
102
RTVSPost2010PropOp42
 70
     1
102
RTVSPost2010Prop43
 90
        3
102
RTVSPost2010PropOp43
 70
     1
102
RTVSPost2010Prop44ColorIndex
 90
        5
102
RTVSPost2010Prop44ColorRGB
 90
      255
102
RTVSPost2010PropOp44
 70
     1
102
RTVSPost2010Prop45
280
     0
102
RTVSPost2010PropOp45
 70
     1
102
RTVSPost2010Prop46
 90
       50
102
RTVSPost2010PropOp46
 70
     1
102
RTVSPost2010Prop47
 90
       50
102
RTVSPost2010PropOp47
 70
     1
102
RTVSPost2010Prop48
 90
       50
102
RTVSPost2010PropOp48
 70
     1
102
RTVSPost2010Prop49
280
     0
102
RTVSPost2010PropOp49
 70
     1
102
RTVSPost2010Prop50
 90
       50
102
RTVSPost2010PropOp50
 70
     1
102
RTVSPost2010Prop51ColorIndex
 90
      256
102
RTVSPost2010Prop51ColorRGB
 90
-16777216
102
RTVSPost2010PropOp51
 70
     0
102
RTVSPost2010Prop52
140
1.0
102
RTVSPost2010PropOp52
 70
     0
102
RTVSPost2010Prop53
 90
        2
102
RTVSPost2010PropOp53
 70
     1
102
RTVSPost2010Prop54
  1
strokes_ogs.tif
102
RTVSPost2010PropOp54
 70
     1
102
RTVSPost2010Prop55
280
     0
102
RTVSPost2010PropOp55
 70
     1
102
RTVSPost2010Prop56
140
1.0
102
RTVSPost2010PropOp56
 70
     1
102
RTVSPost2010Prop57
140
1.0
102
RTVSPost2010PropOp57
 70
     1
102
RTVSPropertyOp0
 70
     1
102
RTVSPropertyOp1
 70
     1
102
RTVSPropertyOp2
 70
     1
102
RTVSPropertyOp3
 70
     1
102
RTVSPropertyOp4
 70
     1
102
RTVSPropertyOp5
 70
     1
102
RTVSPropertyOp6
 70
     1
102
RTVSPropertyOp7
 70
     1
102
RTVSPropertyOp8
 70
     1
102
RTVSPropertyOp9
 70
     1
102
RTVSPropertyOp10
 70
     1
102
RTVSPropertyOp11
 70
     1
102
RTVSPropertyOp12
 70
     1
102
RTVSPropertyOp13
 70
     1
102
RTVSPropertyOp14
 70
     1
102
RTVSPropertyOp15
 70
     1
102
RTVSPropertyOp16
 70
     1
102
RTVSPropertyOp17
 70
     1
102
RTVSPropertyOp18
 70
     1
102
RTVSPropertyOp19
 70
     1
102
RTVSPropertyOp20
 70
     1
102
RTVSPropertyOp21
 70
     1
102
RTVSPropertyOp22
 70
     1
102
RTVSPropertyOp23
 70
     1
102
RTVSPropertyOp24
 70
     1
102
RTVSPropertyOp25
 70
     1
102
RTVSPropertyOp26
 70
     1
102
RTVSPropertyOp27
 70
     1
102
RTVSPropertyOp28
 70
     1
102
RTVSPropertyOp29
 70
     1
102
RTVSPropertyOp30
 70
     1
102
RTVSPropertyOp31
 70
     1
102
RTVSPropertyOp32
 70
     1
102
RTVSPropertyOp33
 70
     1
102
RTVSPropertyOp34
 70
     1
102
RTVSPropertyOp35
 70
     1
102
RTVSPropertyOp36
 70
     1
102
RTVSPropertyOp37
 70
     1
102
RTVSPropertyOp38
 70
     1
102
RTVSPropertyOp39
 70
     1
102
RTVSPropertyOp40
 70
     1
102
RTVSPropertyOp41
 70
     1
102
RTVSPropertyOp42
 70
     1
102
RTVSPropertyOp43
 70
     1
102
RTVSPropertyOp44
 70
     1
102
RTVSPropertyOp45
 70
     1
102
RTVSPropertyOp46
 70
     1
102
RTVSPropertyOp47
 70
     1
102
RTVSPropertyOp48
 70
     1
102
RTVSPropertyOp49
 70
     1
102
RTVSPropertyOp50
 70
     1
102
RTVSPropertyOp51
 70
     0
102
RTVSPropertyOp52
 70
     0
102
RTVSPropertyOp53
 70
     1
102
RTVSPropertyOp54
 70
     1
102
RTVSPropertyOp55
 70
     1
102
RTVSPropertyOp56
 70
     1
102
RTVSPropertyOp57
 70
     1
102
RTVSPropertyOp58
 70
     1
102
RTVSPropertyOp59
 70
     1
102
RTVSPropertyOp60
 70
     1
102
RTVSPropertyOp61
 70
     1
102
RTVSPropertyOp62
 70
     1
  0
XRECORD
  5
9E2D
102
{ACAD_REACTORS
330
9E2C
102
}
330
9E2C
100
AcDbXrecord
280
     1
102
RTVSPost2010Prop28
280
     0
102
RTVSPost2010PropOp28
 70
     1
102
RTVSPost2010Prop29
280
     1
102
RTVSPost2010PropOp29
 70
     1
102
RTVSPost2010Prop30
280
     1
102
RTVSPost2010PropOp30
 70
     1
102
RTVSPost2010Prop31
280
     0
102
RTVSPost2010PropOp31
 70
     1
102
RTVSPost2010Prop32
280
     0
102
RTVSPost2010PropOp32
 70
     1
102
RTVSPost2010Prop33
280
     0
102
RTVSPost2010PropOp33
 70
     1
102
RTVSPost2010Prop34
280
     0
102
RTVSPost2010PropOp34
 70
     1
102
RTVSPost2010Prop35
280
     0
102
RTVSPost2010PropOp35
 70
     1
102
RTVSPost2010Prop36
280
     0
102
RTVSPost2010PropOp36
 70
     1
102
RTVSPost2010Prop37
 90
       50
102
RTVSPost2010PropOp37
 70
     1
102
RTVSPost2010Prop38
140
0.0
102
RTVSPost2010PropOp38
 70
     1
102
RTVSPost2010Prop39
140
1.0
102
RTVSPost2010PropOp39
 70
     1
102
RTVSPost2010Prop40
 90
        0
102
RTVSPost2010PropOp40
 70
     1
102
RTVSPost2010Prop41ColorIndex
 90
       18
102
RTVSPost2010Prop41ColorRGB
 90
        0
102
RTVSPost2010PropOp41
 70
     1
102
RTVSPost2010Prop42
 90
       50
102
RTVSPost2010PropOp42
 70
     1
102
RTVSPost2010Prop43
 90
        3
102
RTVSPost2010PropOp43
 70
     1
102
RTVSPost2010Prop44ColorIndex
 90
        5
102
RTVSPost2010Prop44ColorRGB
 90
      255
102
RTVSPost2010PropOp44
 70
     1
102
RTVSPost2010Prop45
280
     0
102
RTVSPost2010PropOp45
 70
     1
102
RTVSPost2010Prop46
 90
       50
102
RTVSPost2010PropOp46
 70
     1
102
RTVSPost2010Prop47
 90
       50
102
RTVSPost2010PropOp47
 70
     1
102
RTVSPost2010Prop48
 90
       50
102
RTVSPost2010PropOp48
 70
     1
102
RTVSPost2010Prop49
280
     0
102
RTVSPost2010PropOp49
 70
     1
102
RTVSPost2010Prop50
 90
       50
102
RTVSPost2010PropOp50
 70
     1
102
RTVSPost2010Prop51ColorIndex
 90
      256
102
RTVSPost2010Prop51ColorRGB
 90
-16777216
102
RTVSPost2010PropOp51
 70
     0
102
RTVSPost2010Prop52
140
1.0
102
RTVSPost2010PropOp52
 70
     0
102
RTVSPost2010Prop53
 90
        2
102
RTVSPost2010PropOp53
 70
     1
102
RTVSPost2010Prop54
  1
strokes_ogs.tif
102
RTVSPost2010PropOp54
 70
     1
102
RTVSPost2010Prop55
280
     0
102
RTVSPost2010PropOp55
 70
     1
102
RTVSPost2010Prop56
140
1.0
102
RTVSPost2010PropOp56
 70
     1
102
RTVSPost2010Prop57
140
1.0
102
RTVSPost2010PropOp57
 70
     1
102
RTVSPropertyOp0
 70
     1
102
RTVSPropertyOp1
 70
     1
102
RTVSPropertyOp2
 70
     1
102
RTVSPropertyOp3
 70
     1
102
RTVSPropertyOp4
 70
     1
102
RTVSPropertyOp5
 70
     1
102
RTVSPropertyOp6
 70
     1
102
RTVSPropertyOp7
 70
     1
102
RTVSPropertyOp8
 70
     1
102
RTVSPropertyOp9
 70
     1
102
RTVSPropertyOp10
 70
     1
102
RTVSPropertyOp11
 70
     1
102
RTVSPropertyOp12
 70
     1
102
RTVSPropertyOp13
 70
     1
102
RTVSPropertyOp14
 70
     1
102
RTVSPropertyOp15
 70
     1
102
RTVSPropertyOp16
 70
     1
102
RTVSPropertyOp17
 70
     1
102
RTVSPropertyOp18
 70
     1
102
RTVSPropertyOp19
 70
     1
102
RTVSPropertyOp20
 70
     1
102
RTVSPropertyOp21
 70
     1
102
RTVSPropertyOp22
 70
     1
102
RTVSPropertyOp23
 70
     1
102
RTVSPropertyOp24
 70
     1
102
RTVSPropertyOp25
 70
     1
102
RTVSPropertyOp26
 70
     1
102
RTVSPropertyOp27
 70
     1
102
RTVSPropertyOp28
 70
     1
102
RTVSPropertyOp29
 70
     1
102
RTVSPropertyOp30
 70
     1
102
RTVSPropertyOp31
 70
     1
102
RTVSPropertyOp32
 70
     1
102
RTVSPropertyOp33
 70
     1
102
RTVSPropertyOp34
 70
     1
102
RTVSPropertyOp35
 70
     1
102
RTVSPropertyOp36
 70
     1
102
RTVSPropertyOp37
 70
     1
102
RTVSPropertyOp38
 70
     1
102
RTVSPropertyOp39
 70
     1
102
RTVSPropertyOp40
 70
     1
102
RTVSPropertyOp41
 70
     1
102
RTVSPropertyOp42
 70
     1
102
RTVSPropertyOp43
 70
     1
102
RTVSPropertyOp44
 70
     1
102
RTVSPropertyOp45
 70
     1
102
RTVSPropertyOp46
 70
     1
102
RTVSPropertyOp47
 70
     1
102
RTVSPropertyOp48
 70
     1
102
RTVSPropertyOp49
 70
     1
102
RTVSPropertyOp50
 70
     1
102
RTVSPropertyOp51
 70
     0
102
RTVSPropertyOp52
 70
     0
102
RTVSPropertyOp53
 70
     1
102
RTVSPropertyOp54
 70
     1
102
RTVSPropertyOp55
 70
     1
102
RTVSPropertyOp56
 70
     1
102
RTVSPropertyOp57
 70
     1
102
RTVSPropertyOp58
 70
     1
102
RTVSPropertyOp59
 70
     1
102
RTVSPropertyOp60
 70
     1
102
RTVSPropertyOp61
 70
     1
102
RTVSPropertyOp62
 70
     1
  0
XRECORD
  5
9E35
102
{ACAD_REACTORS
330
9E34
102
}
330
9E34
100
AcDbXrecord
280
     1
102
RTVSPost2010Prop28
280
     0
102
RTVSPost2010PropOp28
 70
     1
102
RTVSPost2010Prop29
280
     1
102
RTVSPost2010PropOp29
 70
     1
102
RTVSPost2010Prop30
280
     1
102
RTVSPost2010PropOp30
 70
     1
102
RTVSPost2010Prop31
280
     0
102
RTVSPost2010PropOp31
 70
     1
102
RTVSPost2010Prop32
280
     0
102
RTVSPost2010PropOp32
 70
     1
102
RTVSPost2010Prop33
280
     0
102
RTVSPost2010PropOp33
 70
     1
102
RTVSPost2010Prop34
280
     0
102
RTVSPost2010PropOp34
 70
     1
102
RTVSPost2010Prop35
280
     0
102
RTVSPost2010PropOp35
 70
     1
102
RTVSPost2010Prop36
280
     0
102
RTVSPost2010PropOp36
 70
     1
102
RTVSPost2010Prop37
 90
       50
102
RTVSPost2010PropOp37
 70
     1
102
RTVSPost2010Prop38
140
0.0
102
RTVSPost2010PropOp38
 70
     1
102
RTVSPost2010Prop39
140
1.0
102
RTVSPost2010PropOp39
 70
     1
102
RTVSPost2010Prop40
 90
        0
102
RTVSPost2010PropOp40
 70
     1
102
RTVSPost2010Prop41ColorIndex
 90
       18
102
RTVSPost2010Prop41ColorRGB
 90
        0
102
RTVSPost2010PropOp41
 70
     1
102
RTVSPost2010Prop42
 90
       50
102
RTVSPost2010PropOp42
 70
     1
102
RTVSPost2010Prop43
 90
        3
102
RTVSPost2010PropOp43
 70
     1
102
RTVSPost2010Prop44ColorIndex
 90
        5
102
RTVSPost2010Prop44ColorRGB
 90
      255
102
RTVSPost2010PropOp44
 70
     1
102
RTVSPost2010Prop45
280
     0
102
RTVSPost2010PropOp45
 70
     1
102
RTVSPost2010Prop46
 90
       50
102
RTVSPost2010PropOp46
 70
     1
102
RTVSPost2010Prop47
 90
       50
102
RTVSPost2010PropOp47
 70
     1
102
RTVSPost2010Prop48
 90
       50
102
RTVSPost2010PropOp48
 70
     1
102
RTVSPost2010Prop49
280
     0
102
RTVSPost2010PropOp49
 70
     1
102
RTVSPost2010Prop50
 90
       50
102
RTVSPost2010PropOp50
 70
     1
102
RTVSPost2010Prop51ColorIndex
 90
      256
102
RTVSPost2010Prop51ColorRGB
 90
-16777216
102
RTVSPost2010PropOp51
 70
     0
102
RTVSPost2010Prop52
140
1.0
102
RTVSPost2010PropOp52
 70
     0
102
RTVSPost2010Prop53
 90
        2
102
RTVSPost2010PropOp53
 70
     1
102
RTVSPost2010Prop54
  1
strokes_ogs.tif
102
RTVSPost2010PropOp54
 70
     1
102
RTVSPost2010Prop55
280
     0
102
RTVSPost2010PropOp55
 70
     1
102
RTVSPost2010Prop56
140
1.0
102
RTVSPost2010PropOp56
 70
     1
102
RTVSPost2010Prop57
140
1.0
102
RTVSPost2010PropOp57
 70
     1
102
RTVSPropertyOp0
 70
     1
102
RTVSPropertyOp1
 70
     1
102
RTVSPropertyOp2
 70
     1
102
RTVSPropertyOp3
 70
     1
102
RTVSPropertyOp4
 70
     1
102
RTVSPropertyOp5
 70
     1
102
RTVSPropertyOp6
 70
     1
102
RTVSPropertyOp7
 70
     1
102
RTVSPropertyOp8
 70
     1
102
RTVSPropertyOp9
 70
     1
102
RTVSPropertyOp10
 70
     1
102
RTVSPropertyOp11
 70
     1
102
RTVSPropertyOp12
 70
     1
102
RTVSPropertyOp13
 70
     1
102
RTVSPropertyOp14
 70
     1
102
RTVSPropertyOp15
 70
     1
102
RTVSPropertyOp16
 70
     1
102
RTVSPropertyOp17
 70
     1
102
RTVSPropertyOp18
 70
     1
102
RTVSPropertyOp19
 70
     1
102
RTVSPropertyOp20
 70
     1
102
RTVSPropertyOp21
 70
     1
102
RTVSPropertyOp22
 70
     1
102
RTVSPropertyOp23
 70
     1
102
RTVSPropertyOp24
 70
     1
102
RTVSPropertyOp25
 70
     1
102
RTVSPropertyOp26
 70
     1
102
RTVSPropertyOp27
 70
     1
102
RTVSPropertyOp28
 70
     1
102
RTVSPropertyOp29
 70
     1
102
RTVSPropertyOp30
 70
     1
102
RTVSPropertyOp31
 70
     1
102
RTVSPropertyOp32
 70
     1
102
RTVSPropertyOp33
 70
     1
102
RTVSPropertyOp34
 70
     1
102
RTVSPropertyOp35
 70
     1
102
RTVSPropertyOp36
 70
     1
102
RTVSPropertyOp37
 70
     1
102
RTVSPropertyOp38
 70
     1
102
RTVSPropertyOp39
 70
     1
102
RTVSPropertyOp40
 70
     1
102
RTVSPropertyOp41
 70
     1
102
RTVSPropertyOp42
 70
     1
102
RTVSPropertyOp43
 70
     1
102
RTVSPropertyOp44
 70
     1
102
RTVSPropertyOp45
 70
     1
102
RTVSPropertyOp46
 70
     1
102
RTVSPropertyOp47
 70
     1
102
RTVSPropertyOp48
 70
     1
102
RTVSPropertyOp49
 70
     1
102
RTVSPropertyOp50
 70
     1
102
RTVSPropertyOp51
 70
     0
102
RTVSPropertyOp52
 70
     0
102
RTVSPropertyOp53
 70
     1
102
RTVSPropertyOp54
 70
     1
102
RTVSPropertyOp55
 70
     1
102
RTVSPropertyOp56
 70
     1
102
RTVSPropertyOp57
 70
     1
102
RTVSPropertyOp58
 70
     1
102
RTVSPropertyOp59
 70
     1
102
RTVSPropertyOp60
 70
     1
102
RTVSPropertyOp61
 70
     1
102
RTVSPropertyOp62
 70
     1
  0
XRECORD
  5
9E51
102
{ACAD_REACTORS
330
9E50
102
}
330
9E50
100
AcDbXrecord
280
     1
102
RTVSPost2010Prop28
280
     0
102
RTVSPost2010PropOp28
 70
     1
102
RTVSPost2010Prop29
280
     1
102
RTVSPost2010PropOp29
 70
     1
102
RTVSPost2010Prop30
280
     1
102
RTVSPost2010PropOp30
 70
     1
102
RTVSPost2010Prop31
280
     0
102
RTVSPost2010PropOp31
 70
     1
102
RTVSPost2010Prop32
280
     0
102
RTVSPost2010PropOp32
 70
     1
102
RTVSPost2010Prop33
280
     0
102
RTVSPost2010PropOp33
 70
     1
102
RTVSPost2010Prop34
280
     0
102
RTVSPost2010PropOp34
 70
     1
102
RTVSPost2010Prop35
280
     0
102
RTVSPost2010PropOp35
 70
     1
102
RTVSPost2010Prop36
280
     0
102
RTVSPost2010PropOp36
 70
     1
102
RTVSPost2010Prop37
 90
       50
102
RTVSPost2010PropOp37
 70
     0
102
RTVSPost2010Prop38
140
0.0
102
RTVSPost2010PropOp38
 70
     0
102
RTVSPost2010Prop39
140
1.0
102
RTVSPost2010PropOp39
 70
     0
102
RTVSPost2010Prop40
 90
        0
102
RTVSPost2010PropOp40
 70
     0
102
RTVSPost2010Prop41ColorIndex
 90
       18
102
RTVSPost2010Prop41ColorRGB
 90
        0
102
RTVSPost2010PropOp41
 70
     0
102
RTVSPost2010Prop42
 90
       50
102
RTVSPost2010PropOp42
 70
     0
102
RTVSPost2010Prop43
 90
        3
102
RTVSPost2010PropOp43
 70
     0
102
RTVSPost2010Prop44ColorIndex
 90
        5
102
RTVSPost2010Prop44ColorRGB
 90
      255
102
RTVSPost2010PropOp44
 70
     0
102
RTVSPost2010Prop45
280
     0
102
RTVSPost2010PropOp45
 70
     1
102
RTVSPost2010Prop46
 90
       50
102
RTVSPost2010PropOp46
 70
     0
102
RTVSPost2010Prop47
 90
       50
102
RTVSPost2010PropOp47
 70
     0
102
RTVSPost2010Prop48
 90
       50
102
RTVSPost2010PropOp48
 70
     0
102
RTVSPost2010Prop49
280
     0
102
RTVSPost2010PropOp49
 70
     1
102
RTVSPost2010Prop50
 90
       50
102
RTVSPost2010PropOp50
 70
     0
102
RTVSPost2010Prop51ColorIndex
 90
      256
102
RTVSPost2010Prop51ColorRGB
 90
-16777216
102
RTVSPost2010PropOp51
 70
     0
102
RTVSPost2010Prop52
140
1.0
102
RTVSPost2010PropOp52
 70
     0
102
RTVSPost2010Prop53
 90
        2
102
RTVSPost2010PropOp53
 70
     0
102
RTVSPost2010Prop54
  1
strokes_ogs.tif
102
RTVSPost2010PropOp54
 70
     0
102
RTVSPost2010Prop55
280
     0
102
RTVSPost2010PropOp55
 70
     1
102
RTVSPost2010Prop56
140
1.0
102
RTVSPost2010PropOp56
 70
     0
102
RTVSPost2010Prop57
140
1.0
102
RTVSPost2010PropOp57
 70
     0
102
RTVSPropertyOp0
 70
     0
102
RTVSPropertyOp1
 70
     0
102
RTVSPropertyOp2
 70
     0
102
RTVSPropertyOp3
 70
     0
102
RTVSPropertyOp4
 70
     0
102
RTVSPropertyOp5
 70
     0
102
RTVSPropertyOp6
 70
     0
102
RTVSPropertyOp7
 70
     0
102
RTVSPropertyOp8
 70
     0
102
RTVSPropertyOp9
 70
     0
102
RTVSPropertyOp10
 70
     0
102
RTVSPropertyOp11
 70
     0
102
RTVSPropertyOp12
 70
     0
102
RTVSPropertyOp13
 70
     0
102
RTVSPropertyOp14
 70
     2
102
RTVSPropertyOp15
 70
     0
102
RTVSPropertyOp16
 70
     0
102
RTVSPropertyOp17
 70
     0
102
RTVSPropertyOp18
 70
     0
102
RTVSPropertyOp19
 70
     0
102
RTVSPropertyOp20
 70
     0
102
RTVSPropertyOp21
 70
     0
102
RTVSPropertyOp22
 70
     0
102
RTVSPropertyOp23
 70
     0
102
RTVSPropertyOp24
 70
     0
102
RTVSPropertyOp25
 70
     0
102
RTVSPropertyOp26
 70
     0
102
RTVSPropertyOp27
 70
     0
102
RTVSPropertyOp28
 70
     1
102
RTVSPropertyOp29
 70
     1
102
RTVSPropertyOp30
 70
     1
102
RTVSPropertyOp31
 70
     1
102
RTVSPropertyOp32
 70
     1
102
RTVSPropertyOp33
 70
     1
102
RTVSPropertyOp34
 70
     1
102
RTVSPropertyOp35
 70
     1
102
RTVSPropertyOp36
 70
     1
102
RTVSPropertyOp37
 70
     0
102
RTVSPropertyOp38
 70
     0
102
RTVSPropertyOp39
 70
     0
102
RTVSPropertyOp40
 70
     0
102
RTVSPropertyOp41
 70
     0
102
RTVSPropertyOp42
 70
     0
102
RTVSPropertyOp43
 70
     0
102
RTVSPropertyOp44
 70
     0
102
RTVSPropertyOp45
 70
     1
102
RTVSPropertyOp46
 70
     0
102
RTVSPropertyOp47
 70
     0
102
RTVSPropertyOp48
 70
     0
102
RTVSPropertyOp49
 70
     1
102
RTVSPropertyOp50
 70
     0
102
RTVSPropertyOp51
 70
     0
102
RTVSPropertyOp52
 70
     0
102
RTVSPropertyOp53
 70
     0
102
RTVSPropertyOp54
 70
     0
102
RTVSPropertyOp55
 70
     1
102
RTVSPropertyOp56
 70
     0
102
RTVSPropertyOp57
 70
     0
102
RTVSPropertyOp58
 70
     0
102
RTVSPropertyOp59
 70
     0
102
RTVSPropertyOp60
 70
     0
102
RTVSPropertyOp61
 70
     0
102
RTVSPropertyOp62
 70
     0
  0
XRECORD
  5
9E41
102
{ACAD_REACTORS
330
9E40
102
}
330
9E40
100
AcDbXrecord
280
     1
102
RTVSPost2010Prop28
280
     0
102
RTVSPost2010PropOp28
 70
     1
102
RTVSPost2010Prop29
280
     1
102
RTVSPost2010PropOp29
 70
     1
102
RTVSPost2010Prop30
280
     1
102
RTVSPost2010PropOp30
 70
     1
102
RTVSPost2010Prop31
280
     0
102
RTVSPost2010PropOp31
 70
     1
102
RTVSPost2010Prop32
280
     0
102
RTVSPost2010PropOp32
 70
     1
102
RTVSPost2010Prop33
280
     0
102
RTVSPost2010PropOp33
 70
     1
102
RTVSPost2010Prop34
280
     0
102
RTVSPost2010PropOp34
 70
     1
102
RTVSPost2010Prop35
280
     0
102
RTVSPost2010PropOp35
 70
     1
102
RTVSPost2010Prop36
280
     0
102
RTVSPost2010PropOp36
 70
     1
102
RTVSPost2010Prop37
 90
       50
102
RTVSPost2010PropOp37
 70
     1
102
RTVSPost2010Prop38
140
0.0
102
RTVSPost2010PropOp38
 70
     1
102
RTVSPost2010Prop39
140
1.0
102
RTVSPost2010PropOp39
 70
     1
102
RTVSPost2010Prop40
 90
        0
102
RTVSPost2010PropOp40
 70
     1
102
RTVSPost2010Prop41ColorIndex
 90
       18
102
RTVSPost2010Prop41ColorRGB
 90
        0
102
RTVSPost2010PropOp41
 70
     1
102
RTVSPost2010Prop42
 90
       50
102
RTVSPost2010PropOp42
 70
     1
102
RTVSPost2010Prop43
 90
        3
102
RTVSPost2010PropOp43
 70
     1
102
RTVSPost2010Prop44ColorIndex
 90
        5
102
RTVSPost2010Prop44ColorRGB
 90
      255
102
RTVSPost2010PropOp44
 70
     1
102
RTVSPost2010Prop45
280
     0
102
RTVSPost2010PropOp45
 70
     1
102
RTVSPost2010Prop46
 90
       50
102
RTVSPost2010PropOp46
 70
     1
102
RTVSPost2010Prop47
 90
       50
102
RTVSPost2010PropOp47
 70
     1
102
RTVSPost2010Prop48
 90
       50
102
RTVSPost2010PropOp48
 70
     1
102
RTVSPost2010Prop49
280
     0
102
RTVSPost2010PropOp49
 70
     1
102
RTVSPost2010Prop50
 90
       50
102
RTVSPost2010PropOp50
 70
     1
102
RTVSPost2010Prop51ColorIndex
 90
      256
102
RTVSPost2010Prop51ColorRGB
 90
-16777216
102
RTVSPost2010PropOp51
 70
     0
102
RTVSPost2010Prop52
140
1.0
102
RTVSPost2010PropOp52
 70
     0
102
RTVSPost2010Prop53
 90
        2
102
RTVSPost2010PropOp53
 70
     1
102
RTVSPost2010Prop54
  1
strokes_ogs.tif
102
RTVSPost2010PropOp54
 70
     1
102
RTVSPost2010Prop55
280
     0
102
RTVSPost2010PropOp55
 70
     1
102
RTVSPost2010Prop56
140
1.0
102
RTVSPost2010PropOp56
 70
     1
102
RTVSPost2010Prop57
140
1.0
102
RTVSPost2010PropOp57
 70
     1
102
RTVSPropertyOp0
 70
     1
102
RTVSPropertyOp1
 70
     1
102
RTVSPropertyOp2
 70
     1
102
RTVSPropertyOp3
 70
     1
102
RTVSPropertyOp4
 70
     1
102
RTVSPropertyOp5
 70
     1
102
RTVSPropertyOp6
 70
     1
102
RTVSPropertyOp7
 70
     1
102
RTVSPropertyOp8
 70
     1
102
RTVSPropertyOp9
 70
     1
102
RTVSPropertyOp10
 70
     1
102
RTVSPropertyOp11
 70
     1
102
RTVSPropertyOp12
 70
     1
102
RTVSPropertyOp13
 70
     1
102
RTVSPropertyOp14
 70
     1
102
RTVSPropertyOp15
 70
     1
102
RTVSPropertyOp16
 70
     1
102
RTVSPropertyOp17
 70
     1
102
RTVSPropertyOp18
 70
     1
102
RTVSPropertyOp19
 70
     1
102
RTVSPropertyOp20
 70
     1
102
RTVSPropertyOp21
 70
     1
102
RTVSPropertyOp22
 70
     1
102
RTVSPropertyOp23
 70
     1
102
RTVSPropertyOp24
 70
     1
102
RTVSPropertyOp25
 70
     1
102
RTVSPropertyOp26
 70
     1
102
RTVSPropertyOp27
 70
     1
102
RTVSPropertyOp28
 70
     1
102
RTVSPropertyOp29
 70
     1
102
RTVSPropertyOp30
 70
     1
102
RTVSPropertyOp31
 70
     1
102
RTVSPropertyOp32
 70
     1
102
RTVSPropertyOp33
 70
     1
102
RTVSPropertyOp34
 70
     1
102
RTVSPropertyOp35
 70
     1
102
RTVSPropertyOp36
 70
     1
102
RTVSPropertyOp37
 70
     1
102
RTVSPropertyOp38
 70
     1
102
RTVSPropertyOp39
 70
     1
102
RTVSPropertyOp40
 70
     1
102
RTVSPropertyOp41
 70
     1
102
RTVSPropertyOp42
 70
     1
102
RTVSPropertyOp43
 70
     1
102
RTVSPropertyOp44
 70
     1
102
RTVSPropertyOp45
 70
     1
102
RTVSPropertyOp46
 70
     1
102
RTVSPropertyOp47
 70
     1
102
RTVSPropertyOp48
 70
     1
102
RTVSPropertyOp49
 70
     1
102
RTVSPropertyOp50
 70
     1
102
RTVSPropertyOp51
 70
     0
102
RTVSPropertyOp52
 70
     0
102
RTVSPropertyOp53
 70
     1
102
RTVSPropertyOp54
 70
     1
102
RTVSPropertyOp55
 70
     1
102
RTVSPropertyOp56
 70
     1
102
RTVSPropertyOp57
 70
     1
102
RTVSPropertyOp58
 70
     1
102
RTVSPropertyOp59
 70
     1
102
RTVSPropertyOp60
 70
     1
102
RTVSPropertyOp61
 70
     1
102
RTVSPropertyOp62
 70
     1
  0
XRECORD
  5
9E53
102
{ACAD_REACTORS
330
9E52
102
}
330
9E52
100
AcDbXrecord
280
     1
102
RTVSPost2010Prop28
280
     0
102
RTVSPost2010PropOp28
 70
     1
102
RTVSPost2010Prop29
280
     1
102
RTVSPost2010PropOp29
 70
     1
102
RTVSPost2010Prop30
280
     1
102
RTVSPost2010PropOp30
 70
     1
102
RTVSPost2010Prop31
280
     0
102
RTVSPost2010PropOp31
 70
     1
102
RTVSPost2010Prop32
280
     0
102
RTVSPost2010PropOp32
 70
     1
102
RTVSPost2010Prop33
280
     0
102
RTVSPost2010PropOp33
 70
     1
102
RTVSPost2010Prop34
280
     0
102
RTVSPost2010PropOp34
 70
     1
102
RTVSPost2010Prop35
280
     0
102
RTVSPost2010PropOp35
 70
     1
102
RTVSPost2010Prop36
280
     0
102
RTVSPost2010PropOp36
 70
     1
102
RTVSPost2010Prop37
 90
       50
102
RTVSPost2010PropOp37
 70
     0
102
RTVSPost2010Prop38
140
0.0
102
RTVSPost2010PropOp38
 70
     0
102
RTVSPost2010Prop39
140
1.0
102
RTVSPost2010PropOp39
 70
     0
102
RTVSPost2010Prop40
 90
        0
102
RTVSPost2010PropOp40
 70
     0
102
RTVSPost2010Prop41ColorIndex
 90
       18
102
RTVSPost2010Prop41ColorRGB
 90
        0
102
RTVSPost2010PropOp41
 70
     0
102
RTVSPost2010Prop42
 90
       50
102
RTVSPost2010PropOp42
 70
     0
102
RTVSPost2010Prop43
 90
        3
102
RTVSPost2010PropOp43
 70
     0
102
RTVSPost2010Prop44ColorIndex
 90
        5
102
RTVSPost2010Prop44ColorRGB
 90
      255
102
RTVSPost2010PropOp44
 70
     0
102
RTVSPost2010Prop45
280
     0
102
RTVSPost2010PropOp45
 70
     1
102
RTVSPost2010Prop46
 90
       50
102
RTVSPost2010PropOp46
 70
     0
102
RTVSPost2010Prop47
 90
       50
102
RTVSPost2010PropOp47
 70
     0
102
RTVSPost2010Prop48
 90
       50
102
RTVSPost2010PropOp48
 70
     0
102
RTVSPost2010Prop49
280
     0
102
RTVSPost2010PropOp49
 70
     1
102
RTVSPost2010Prop50
 90
       50
102
RTVSPost2010PropOp50
 70
     0
102
RTVSPost2010Prop51ColorIndex
 90
      256
102
RTVSPost2010Prop51ColorRGB
 90
-16777216
102
RTVSPost2010PropOp51
 70
     0
102
RTVSPost2010Prop52
140
1.0
102
RTVSPost2010PropOp52
 70
     0
102
RTVSPost2010Prop53
 90
        2
102
RTVSPost2010PropOp53
 70
     0
102
RTVSPost2010Prop54
  1
strokes_ogs.tif
102
RTVSPost2010PropOp54
 70
     0
102
RTVSPost2010Prop55
280
     0
102
RTVSPost2010PropOp55
 70
     1
102
RTVSPost2010Prop56
140
1.0
102
RTVSPost2010PropOp56
 70
     0
102
RTVSPost2010Prop57
140
1.0
102
RTVSPost2010PropOp57
 70
     0
102
RTVSPropertyOp0
 70
     0
102
RTVSPropertyOp1
 70
     0
102
RTVSPropertyOp2
 70
     0
102
RTVSPropertyOp3
 70
     0
102
RTVSPropertyOp4
 70
     0
102
RTVSPropertyOp5
 70
     0
102
RTVSPropertyOp6
 70
     0
102
RTVSPropertyOp7
 70
     0
102
RTVSPropertyOp8
 70
     0
102
RTVSPropertyOp9
 70
     0
102
RTVSPropertyOp10
 70
     0
102
RTVSPropertyOp11
 70
     0
102
RTVSPropertyOp12
 70
     0
102
RTVSPropertyOp13
 70
     0
102
RTVSPropertyOp14
 70
     2
102
RTVSPropertyOp15
 70
     0
102
RTVSPropertyOp16
 70
     0
102
RTVSPropertyOp17
 70
     0
102
RTVSPropertyOp18
 70
     0
102
RTVSPropertyOp19
 70
     0
102
RTVSPropertyOp20
 70
     0
102
RTVSPropertyOp21
 70
     0
102
RTVSPropertyOp22
 70
     0
102
RTVSPropertyOp23
 70
     0
102
RTVSPropertyOp24
 70
     0
102
RTVSPropertyOp25
 70
     0
102
RTVSPropertyOp26
 70
     0
102
RTVSPropertyOp27
 70
     0
102
RTVSPropertyOp28
 70
     1
102
RTVSPropertyOp29
 70
     1
102
RTVSPropertyOp30
 70
     1
102
RTVSPropertyOp31
 70
     1
102
RTVSPropertyOp32
 70
     1
102
RTVSPropertyOp33
 70
     1
102
RTVSPropertyOp34
 70
     1
102
RTVSPropertyOp35
 70
     1
102
RTVSPropertyOp36
 70
     1
102
RTVSPropertyOp37
 70
     0
102
RTVSPropertyOp38
 70
     0
102
RTVSPropertyOp39
 70
     0
102
RTVSPropertyOp40
 70
     0
102
RTVSPropertyOp41
 70
     0
102
RTVSPropertyOp42
 70
     0
102
RTVSPropertyOp43
 70
     0
102
RTVSPropertyOp44
 70
     0
102
RTVSPropertyOp45
 70
     1
102
RTVSPropertyOp46
 70
     0
102
RTVSPropertyOp47
 70
     0
102
RTVSPropertyOp48
 70
     0
102
RTVSPropertyOp49
 70
     1
102
RTVSPropertyOp50
 70
     0
102
RTVSPropertyOp51
 70
     0
102
RTVSPropertyOp52
 70
     0
102
RTVSPropertyOp53
 70
     0
102
RTVSPropertyOp54
 70
     0
102
RTVSPropertyOp55
 70
     1
102
RTVSPropertyOp56
 70
     0
102
RTVSPropertyOp57
 70
     0
102
RTVSPropertyOp58
 70
     0
102
RTVSPropertyOp59
 70
     0
102
RTVSPropertyOp60
 70
     0
102
RTVSPropertyOp61
 70
     0
102
RTVSPropertyOp62
 70
     0
  0
XRECORD
  5
9E39
102
{ACAD_REACTORS
330
9E38
102
}
330
9E38
100
AcDbXrecord
280
     1
102
RTVSPost2010Prop28
280
     0
102
RTVSPost2010PropOp28
 70
     1
102
RTVSPost2010Prop29
280
     1
102
RTVSPost2010PropOp29
 70
     1
102
RTVSPost2010Prop30
280
     1
102
RTVSPost2010PropOp30
 70
     1
102
RTVSPost2010Prop31
280
     0
102
RTVSPost2010PropOp31
 70
     1
102
RTVSPost2010Prop32
280
     0
102
RTVSPost2010PropOp32
 70
     1
102
RTVSPost2010Prop33
280
     0
102
RTVSPost2010PropOp33
 70
     1
102
RTVSPost2010Prop34
280
     0
102
RTVSPost2010PropOp34
 70
     1
102
RTVSPost2010Prop35
280
     0
102
RTVSPost2010PropOp35
 70
     1
102
RTVSPost2010Prop36
280
     0
102
RTVSPost2010PropOp36
 70
     1
102
RTVSPost2010Prop37
 90
       50
102
RTVSPost2010PropOp37
 70
     1
102
RTVSPost2010Prop38
140
0.0
102
RTVSPost2010PropOp38
 70
     1
102
RTVSPost2010Prop39
140
1.0
102
RTVSPost2010PropOp39
 70
     1
102
RTVSPost2010Prop40
 90
        0
102
RTVSPost2010PropOp40
 70
     1
102
RTVSPost2010Prop41ColorIndex
 90
       18
102
RTVSPost2010Prop41ColorRGB
 90
        0
102
RTVSPost2010PropOp41
 70
     1
102
RTVSPost2010Prop42
 90
       50
102
RTVSPost2010PropOp42
 70
     1
102
RTVSPost2010Prop43
 90
        3
102
RTVSPost2010PropOp43
 70
     1
102
RTVSPost2010Prop44ColorIndex
 90
        5
102
RTVSPost2010Prop44ColorRGB
 90
      255
102
RTVSPost2010PropOp44
 70
     1
102
RTVSPost2010Prop45
280
     0
102
RTVSPost2010PropOp45
 70
     1
102
RTVSPost2010Prop46
 90
       50
102
RTVSPost2010PropOp46
 70
     1
102
RTVSPost2010Prop47
 90
       50
102
RTVSPost2010PropOp47
 70
     1
102
RTVSPost2010Prop48
 90
       50
102
RTVSPost2010PropOp48
 70
     1
102
RTVSPost2010Prop49
280
     0
102
RTVSPost2010PropOp49
 70
     1
102
RTVSPost2010Prop50
 90
       50
102
RTVSPost2010PropOp50
 70
     1
102
RTVSPost2010Prop51ColorIndex
 90
      256
102
RTVSPost2010Prop51ColorRGB
 90
-16777216
102
RTVSPost2010PropOp51
 70
     0
102
RTVSPost2010Prop52
140
1.0
102
RTVSPost2010PropOp52
 70
     0
102
RTVSPost2010Prop53
 90
        2
102
RTVSPost2010PropOp53
 70
     1
102
RTVSPost2010Prop54
  1
strokes_ogs.tif
102
RTVSPost2010PropOp54
 70
     1
102
RTVSPost2010Prop55
280
     0
102
RTVSPost2010PropOp55
 70
     1
102
RTVSPost2010Prop56
140
1.0
102
RTVSPost2010PropOp56
 70
     1
102
RTVSPost2010Prop57
140
1.0
102
RTVSPost2010PropOp57
 70
     1
102
RTVSPropertyOp0
 70
     1
102
RTVSPropertyOp1
 70
     1
102
RTVSPropertyOp2
 70
     1
102
RTVSPropertyOp3
 70
     1
102
RTVSPropertyOp4
 70
     1
102
RTVSPropertyOp5
 70
     1
102
RTVSPropertyOp6
 70
     1
102
RTVSPropertyOp7
 70
     1
102
RTVSPropertyOp8
 70
     1
102
RTVSPropertyOp9
 70
     1
102
RTVSPropertyOp10
 70
     1
102
RTVSPropertyOp11
 70
     1
102
RTVSPropertyOp12
 70
     1
102
RTVSPropertyOp13
 70
     1
102
RTVSPropertyOp14
 70
     1
102
RTVSPropertyOp15
 70
     1
102
RTVSPropertyOp16
 70
     1
102
RTVSPropertyOp17
 70
     1
102
RTVSPropertyOp18
 70
     1
102
RTVSPropertyOp19
 70
     1
102
RTVSPropertyOp20
 70
     1
102
RTVSPropertyOp21
 70
     1
102
RTVSPropertyOp22
 70
     1
102
RTVSPropertyOp23
 70
     1
102
RTVSPropertyOp24
 70
     1
102
RTVSPropertyOp25
 70
     1
102
RTVSPropertyOp26
 70
     1
102
RTVSPropertyOp27
 70
     1
102
RTVSPropertyOp28
 70
     1
102
RTVSPropertyOp29
 70
     1
102
RTVSPropertyOp30
 70
     1
102
RTVSPropertyOp31
 70
     1
102
RTVSPropertyOp32
 70
     1
102
RTVSPropertyOp33
 70
     1
102
RTVSPropertyOp34
 70
     1
102
RTVSPropertyOp35
 70
     1
102
RTVSPropertyOp36
 70
     1
102
RTVSPropertyOp37
 70
     1
102
RTVSPropertyOp38
 70
     1
102
RTVSPropertyOp39
 70
     1
102
RTVSPropertyOp40
 70
     1
102
RTVSPropertyOp41
 70
     1
102
RTVSPropertyOp42
 70
     1
102
RTVSPropertyOp43
 70
     1
102
RTVSPropertyOp44
 70
     1
102
RTVSPropertyOp45
 70
     1
102
RTVSPropertyOp46
 70
     1
102
RTVSPropertyOp47
 70
     1
102
RTVSPropertyOp48
 70
     1
102
RTVSPropertyOp49
 70
     1
102
RTVSPropertyOp50
 70
     1
102
RTVSPropertyOp51
 70
     0
102
RTVSPropertyOp52
 70
     0
102
RTVSPropertyOp53
 70
     1
102
RTVSPropertyOp54
 70
     1
102
RTVSPropertyOp55
 70
     1
102
RTVSPropertyOp56
 70
     1
102
RTVSPropertyOp57
 70
     1
102
RTVSPropertyOp58
 70
     1
102
RTVSPropertyOp59
 70
     1
102
RTVSPropertyOp60
 70
     1
102
RTVSPropertyOp61
 70
     1
102
RTVSPropertyOp62
 70
     1
  0
XRECORD
  5
9E4F
102
{ACAD_REACTORS
330
9E4E
102
}
330
9E4E
100
AcDbXrecord
280
     1
102
RTVSPost2010Prop28
280
     0
102
RTVSPost2010PropOp28
 70
     1
102
RTVSPost2010Prop29
280
     1
102
RTVSPost2010PropOp29
 70
     1
102
RTVSPost2010Prop30
280
     1
102
RTVSPost2010PropOp30
 70
     1
102
RTVSPost2010Prop31
280
     0
102
RTVSPost2010PropOp31
 70
     1
102
RTVSPost2010Prop32
280
     0
102
RTVSPost2010PropOp32
 70
     1
102
RTVSPost2010Prop33
280
     0
102
RTVSPost2010PropOp33
 70
     1
102
RTVSPost2010Prop34
280
     0
102
RTVSPost2010PropOp34
 70
     1
102
RTVSPost2010Prop35
280
     0
102
RTVSPost2010PropOp35
 70
     1
102
RTVSPost2010Prop36
280
     0
102
RTVSPost2010PropOp36
 70
     1
102
RTVSPost2010Prop37
 90
       50
102
RTVSPost2010PropOp37
 70
     1
102
RTVSPost2010Prop38
140
0.0
102
RTVSPost2010PropOp38
 70
     1
102
RTVSPost2010Prop39
140
1.0
102
RTVSPost2010PropOp39
 70
     1
102
RTVSPost2010Prop40
 90
        0
102
RTVSPost2010PropOp40
 70
     1
102
RTVSPost2010Prop41ColorIndex
 90
       18
102
RTVSPost2010Prop41ColorRGB
 90
        0
102
RTVSPost2010PropOp41
 70
     1
102
RTVSPost2010Prop42
 90
       50
102
RTVSPost2010PropOp42
 70
     1
102
RTVSPost2010Prop43
 90
        3
102
RTVSPost2010PropOp43
 70
     1
102
RTVSPost2010Prop44ColorIndex
 90
        5
102
RTVSPost2010Prop44ColorRGB
 90
      255
102
RTVSPost2010PropOp44
 70
     1
102
RTVSPost2010Prop45
280
     0
102
RTVSPost2010PropOp45
 70
     1
102
RTVSPost2010Prop46
 90
       50
102
RTVSPost2010PropOp46
 70
     1
102
RTVSPost2010Prop47
 90
       50
102
RTVSPost2010PropOp47
 70
     1
102
RTVSPost2010Prop48
 90
       50
102
RTVSPost2010PropOp48
 70
     1
102
RTVSPost2010Prop49
280
     0
102
RTVSPost2010PropOp49
 70
     1
102
RTVSPost2010Prop50
 90
       50
102
RTVSPost2010PropOp50
 70
     1
102
RTVSPost2010Prop51ColorIndex
 90
      256
102
RTVSPost2010Prop51ColorRGB
 90
-16777216
102
RTVSPost2010PropOp51
 70
     0
102
RTVSPost2010Prop52
140
1.0
102
RTVSPost2010PropOp52
 70
     0
102
RTVSPost2010Prop53
 90
        2
102
RTVSPost2010PropOp53
 70
     1
102
RTVSPost2010Prop54
  1
strokes_ogs.tif
102
RTVSPost2010PropOp54
 70
     1
102
RTVSPost2010Prop55
280
     0
102
RTVSPost2010PropOp55
 70
     1
102
RTVSPost2010Prop56
140
1.0
102
RTVSPost2010PropOp56
 70
     1
102
RTVSPost2010Prop57
140
1.0
102
RTVSPost2010PropOp57
 70
     1
102
RTVSPropertyOp0
 70
     1
102
RTVSPropertyOp1
 70
     1
102
RTVSPropertyOp2
 70
     1
102
RTVSPropertyOp3
 70
     1
102
RTVSPropertyOp4
 70
     1
102
RTVSPropertyOp5
 70
     1
102
RTVSPropertyOp6
 70
     1
102
RTVSPropertyOp7
 70
     1
102
RTVSPropertyOp8
 70
     1
102
RTVSPropertyOp9
 70
     1
102
RTVSPropertyOp10
 70
     1
102
RTVSPropertyOp11
 70
     1
102
RTVSPropertyOp12
 70
     1
102
RTVSPropertyOp13
 70
     1
102
RTVSPropertyOp14
 70
     1
102
RTVSPropertyOp15
 70
     1
102
RTVSPropertyOp16
 70
     1
102
RTVSPropertyOp17
 70
     1
102
RTVSPropertyOp18
 70
     1
102
RTVSPropertyOp19
 70
     1
102
RTVSPropertyOp20
 70
     1
102
RTVSPropertyOp21
 70
     1
102
RTVSPropertyOp22
 70
     1
102
RTVSPropertyOp23
 70
     1
102
RTVSPropertyOp24
 70
     1
102
RTVSPropertyOp25
 70
     1
102
RTVSPropertyOp26
 70
     1
102
RTVSPropertyOp27
 70
     1
102
RTVSPropertyOp28
 70
     1
102
RTVSPropertyOp29
 70
     1
102
RTVSPropertyOp30
 70
     1
102
RTVSPropertyOp31
 70
     1
102
RTVSPropertyOp32
 70
     1
102
RTVSPropertyOp33
 70
     1
102
RTVSPropertyOp34
 70
     1
102
RTVSPropertyOp35
 70
     1
102
RTVSPropertyOp36
 70
     1
102
RTVSPropertyOp37
 70
     1
102
RTVSPropertyOp38
 70
     1
102
RTVSPropertyOp39
 70
     1
102
RTVSPropertyOp40
 70
     1
102
RTVSPropertyOp41
 70
     1
102
RTVSPropertyOp42
 70
     1
102
RTVSPropertyOp43
 70
     1
102
RTVSPropertyOp44
 70
     1
102
RTVSPropertyOp45
 70
     1
102
RTVSPropertyOp46
 70
     1
102
RTVSPropertyOp47
 70
     1
102
RTVSPropertyOp48
 70
     1
102
RTVSPropertyOp49
 70
     1
102
RTVSPropertyOp50
 70
     1
102
RTVSPropertyOp51
 70
     0
102
RTVSPropertyOp52
 70
     0
102
RTVSPropertyOp53
 70
     1
102
RTVSPropertyOp54
 70
     1
102
RTVSPropertyOp55
 70
     1
102
RTVSPropertyOp56
 70
     1
102
RTVSPropertyOp57
 70
     1
102
RTVSPropertyOp58
 70
     1
102
RTVSPropertyOp59
 70
     1
102
RTVSPropertyOp60
 70
     1
102
RTVSPropertyOp61
 70
     1
102
RTVSPropertyOp62
 70
     1
  0
XRECORD
  5
9E4D
102
{ACAD_REACTORS
330
9E4C
102
}
330
9E4C
100
AcDbXrecord
280
     1
102
RTVSPost2010Prop28
280
     0
102
RTVSPost2010PropOp28
 70
     1
102
RTVSPost2010Prop29
280
     1
102
RTVSPost2010PropOp29
 70
     1
102
RTVSPost2010Prop30
280
     1
102
RTVSPost2010PropOp30
 70
     1
102
RTVSPost2010Prop31
280
     0
102
RTVSPost2010PropOp31
 70
     1
102
RTVSPost2010Prop32
280
     0
102
RTVSPost2010PropOp32
 70
     1
102
RTVSPost2010Prop33
280
     0
102
RTVSPost2010PropOp33
 70
     1
102
RTVSPost2010Prop34
280
     0
102
RTVSPost2010PropOp34
 70
     1
102
RTVSPost2010Prop35
280
     0
102
RTVSPost2010PropOp35
 70
     1
102
RTVSPost2010Prop36
280
     0
102
RTVSPost2010PropOp36
 70
     1
102
RTVSPost2010Prop37
 90
       50
102
RTVSPost2010PropOp37
 70
     1
102
RTVSPost2010Prop38
140
0.0
102
RTVSPost2010PropOp38
 70
     1
102
RTVSPost2010Prop39
140
1.0
102
RTVSPost2010PropOp39
 70
     1
102
RTVSPost2010Prop40
 90
        0
102
RTVSPost2010PropOp40
 70
     1
102
RTVSPost2010Prop41ColorIndex
 90
       18
102
RTVSPost2010Prop41ColorRGB
 90
        0
102
RTVSPost2010PropOp41
 70
     1
102
RTVSPost2010Prop42
 90
       50
102
RTVSPost2010PropOp42
 70
     1
102
RTVSPost2010Prop43
 90
        3
102
RTVSPost2010PropOp43
 70
     1
102
RTVSPost2010Prop44ColorIndex
 90
        5
102
RTVSPost2010Prop44ColorRGB
 90
      255
102
RTVSPost2010PropOp44
 70
     1
102
RTVSPost2010Prop45
280
     0
102
RTVSPost2010PropOp45
 70
     1
102
RTVSPost2010Prop46
 90
       50
102
RTVSPost2010PropOp46
 70
     1
102
RTVSPost2010Prop47
 90
       50
102
RTVSPost2010PropOp47
 70
     1
102
RTVSPost2010Prop48
 90
       50
102
RTVSPost2010PropOp48
 70
     1
102
RTVSPost2010Prop49
280
     0
102
RTVSPost2010PropOp49
 70
     1
102
RTVSPost2010Prop50
 90
       50
102
RTVSPost2010PropOp50
 70
     1
102
RTVSPost2010Prop51ColorIndex
 90
      256
102
RTVSPost2010Prop51ColorRGB
 90
-16777216
102
RTVSPost2010PropOp51
 70
     0
102
RTVSPost2010Prop52
140
1.0
102
RTVSPost2010PropOp52
 70
     0
102
RTVSPost2010Prop53
 90
        2
102
RTVSPost2010PropOp53
 70
     1
102
RTVSPost2010Prop54
  1
strokes_ogs.tif
102
RTVSPost2010PropOp54
 70
     1
102
RTVSPost2010Prop55
280
     0
102
RTVSPost2010PropOp55
 70
     1
102
RTVSPost2010Prop56
140
1.0
102
RTVSPost2010PropOp56
 70
     1
102
RTVSPost2010Prop57
140
1.0
102
RTVSPost2010PropOp57
 70
     1
102
RTVSPropertyOp0
 70
     1
102
RTVSPropertyOp1
 70
     1
102
RTVSPropertyOp2
 70
     1
102
RTVSPropertyOp3
 70
     1
102
RTVSPropertyOp4
 70
     1
102
RTVSPropertyOp5
 70
     1
102
RTVSPropertyOp6
 70
     1
102
RTVSPropertyOp7
 70
     1
102
RTVSPropertyOp8
 70
     1
102
RTVSPropertyOp9
 70
     1
102
RTVSPropertyOp10
 70
     1
102
RTVSPropertyOp11
 70
     1
102
RTVSPropertyOp12
 70
     1
102
RTVSPropertyOp13
 70
     1
102
RTVSPropertyOp14
 70
     1
102
RTVSPropertyOp15
 70
     1
102
RTVSPropertyOp16
 70
     1
102
RTVSPropertyOp17
 70
     1
102
RTVSPropertyOp18
 70
     1
102
RTVSPropertyOp19
 70
     1
102
RTVSPropertyOp20
 70
     1
102
RTVSPropertyOp21
 70
     1
102
RTVSPropertyOp22
 70
     1
102
RTVSPropertyOp23
 70
     1
102
RTVSPropertyOp24
 70
     1
102
RTVSPropertyOp25
 70
     1
102
RTVSPropertyOp26
 70
     1
102
RTVSPropertyOp27
 70
     1
102
RTVSPropertyOp28
 70
     1
102
RTVSPropertyOp29
 70
     1
102
RTVSPropertyOp30
 70
     1
102
RTVSPropertyOp31
 70
     1
102
RTVSPropertyOp32
 70
     1
102
RTVSPropertyOp33
 70
     1
102
RTVSPropertyOp34
 70
     1
102
RTVSPropertyOp35
 70
     1
102
RTVSPropertyOp36
 70
     1
102
RTVSPropertyOp37
 70
     1
102
RTVSPropertyOp38
 70
     1
102
RTVSPropertyOp39
 70
     1
102
RTVSPropertyOp40
 70
     1
102
RTVSPropertyOp41
 70
     1
102
RTVSPropertyOp42
 70
     1
102
RTVSPropertyOp43
 70
     1
102
RTVSPropertyOp44
 70
     1
102
RTVSPropertyOp45
 70
     1
102
RTVSPropertyOp46
 70
     1
102
RTVSPropertyOp47
 70
     1
102
RTVSPropertyOp48
 70
     1
102
RTVSPropertyOp49
 70
     1
102
RTVSPropertyOp50
 70
     1
102
RTVSPropertyOp51
 70
     0
102
RTVSPropertyOp52
 70
     0
102
RTVSPropertyOp53
 70
     1
102
RTVSPropertyOp54
 70
     1
102
RTVSPropertyOp55
 70
     1
102
RTVSPropertyOp56
 70
     1
102
RTVSPropertyOp57
 70
     1
102
RTVSPropertyOp58
 70
     1
102
RTVSPropertyOp59
 70
     1
102
RTVSPropertyOp60
 70
     1
102
RTVSPropertyOp61
 70
     1
102
RTVSPropertyOp62
 70
     1
  0
XRECORD
  5
9E47
102
{ACAD_REACTORS
330
9E46
102
}
330
9E46
100
AcDbXrecord
280
     1
102
RTVSPost2010Prop28
280
     0
102
RTVSPost2010PropOp28
 70
     1
102
RTVSPost2010Prop29
280
     1
102
RTVSPost2010PropOp29
 70
     1
102
RTVSPost2010Prop30
280
     1
102
RTVSPost2010PropOp30
 70
     1
102
RTVSPost2010Prop31
280
     0
102
RTVSPost2010PropOp31
 70
     1
102
RTVSPost2010Prop32
280
     0
102
RTVSPost2010PropOp32
 70
     1
102
RTVSPost2010Prop33
280
     0
102
RTVSPost2010PropOp33
 70
     1
102
RTVSPost2010Prop34
280
     0
102
RTVSPost2010PropOp34
 70
     1
102
RTVSPost2010Prop35
280
     0
102
RTVSPost2010PropOp35
 70
     1
102
RTVSPost2010Prop36
280
     0
102
RTVSPost2010PropOp36
 70
     1
102
RTVSPost2010Prop37
 90
       50
102
RTVSPost2010PropOp37
 70
     1
102
RTVSPost2010Prop38
140
0.0
102
RTVSPost2010PropOp38
 70
     1
102
RTVSPost2010Prop39
140
1.0
102
RTVSPost2010PropOp39
 70
     1
102
RTVSPost2010Prop40
 90
        0
102
RTVSPost2010PropOp40
 70
     1
102
RTVSPost2010Prop41ColorIndex
 90
       18
102
RTVSPost2010Prop41ColorRGB
 90
        0
102
RTVSPost2010PropOp41
 70
     1
102
RTVSPost2010Prop42
 90
       50
102
RTVSPost2010PropOp42
 70
     1
102
RTVSPost2010Prop43
 90
        3
102
RTVSPost2010PropOp43
 70
     1
102
RTVSPost2010Prop44ColorIndex
 90
        5
102
RTVSPost2010Prop44ColorRGB
 90
      255
102
RTVSPost2010PropOp44
 70
     1
102
RTVSPost2010Prop45
280
     0
102
RTVSPost2010PropOp45
 70
     1
102
RTVSPost2010Prop46
 90
       50
102
RTVSPost2010PropOp46
 70
     1
102
RTVSPost2010Prop47
 90
       50
102
RTVSPost2010PropOp47
 70
     1
102
RTVSPost2010Prop48
 90
       50
102
RTVSPost2010PropOp48
 70
     1
102
RTVSPost2010Prop49
280
     0
102
RTVSPost2010PropOp49
 70
     1
102
RTVSPost2010Prop50
 90
       50
102
RTVSPost2010PropOp50
 70
     1
102
RTVSPost2010Prop51ColorIndex
 90
      256
102
RTVSPost2010Prop51ColorRGB
 90
-16777216
102
RTVSPost2010PropOp51
 70
     0
102
RTVSPost2010Prop52
140
1.0
102
RTVSPost2010PropOp52
 70
     0
102
RTVSPost2010Prop53
 90
        2
102
RTVSPost2010PropOp53
 70
     1
102
RTVSPost2010Prop54
  1
strokes_ogs.tif
102
RTVSPost2010PropOp54
 70
     1
102
RTVSPost2010Prop55
280
     0
102
RTVSPost2010PropOp55
 70
     1
102
RTVSPost2010Prop56
140
1.0
102
RTVSPost2010PropOp56
 70
     1
102
RTVSPost2010Prop57
140
1.0
102
RTVSPost2010PropOp57
 70
     1
102
RTVSPropertyOp0
 70
     1
102
RTVSPropertyOp1
 70
     1
102
RTVSPropertyOp2
 70
     1
102
RTVSPropertyOp3
 70
     1
102
RTVSPropertyOp4
 70
     1
102
RTVSPropertyOp5
 70
     1
102
RTVSPropertyOp6
 70
     1
102
RTVSPropertyOp7
 70
     1
102
RTVSPropertyOp8
 70
     1
102
RTVSPropertyOp9
 70
     1
102
RTVSPropertyOp10
 70
     1
102
RTVSPropertyOp11
 70
     1
102
RTVSPropertyOp12
 70
     1
102
RTVSPropertyOp13
 70
     1
102
RTVSPropertyOp14
 70
     1
102
RTVSPropertyOp15
 70
     1
102
RTVSPropertyOp16
 70
     1
102
RTVSPropertyOp17
 70
     1
102
RTVSPropertyOp18
 70
     1
102
RTVSPropertyOp19
 70
     1
102
RTVSPropertyOp20
 70
     1
102
RTVSPropertyOp21
 70
     1
102
RTVSPropertyOp22
 70
     1
102
RTVSPropertyOp23
 70
     1
102
RTVSPropertyOp24
 70
     1
102
RTVSPropertyOp25
 70
     1
102
RTVSPropertyOp26
 70
     1
102
RTVSPropertyOp27
 70
     1
102
RTVSPropertyOp28
 70
     1
102
RTVSPropertyOp29
 70
     1
102
RTVSPropertyOp30
 70
     1
102
RTVSPropertyOp31
 70
     1
102
RTVSPropertyOp32
 70
     1
102
RTVSPropertyOp33
 70
     1
102
RTVSPropertyOp34
 70
     1
102
RTVSPropertyOp35
 70
     1
102
RTVSPropertyOp36
 70
     1
102
RTVSPropertyOp37
 70
     1
102
RTVSPropertyOp38
 70
     1
102
RTVSPropertyOp39
 70
     1
102
RTVSPropertyOp40
 70
     1
102
RTVSPropertyOp41
 70
     1
102
RTVSPropertyOp42
 70
     1
102
RTVSPropertyOp43
 70
     1
102
RTVSPropertyOp44
 70
     1
102
RTVSPropertyOp45
 70
     1
102
RTVSPropertyOp46
 70
     1
102
RTVSPropertyOp47
 70
     1
102
RTVSPropertyOp48
 70
     1
102
RTVSPropertyOp49
 70
     1
102
RTVSPropertyOp50
 70
     1
102
RTVSPropertyOp51
 70
     0
102
RTVSPropertyOp52
 70
     0
102
RTVSPropertyOp53
 70
     1
102
RTVSPropertyOp54
 70
     1
102
RTVSPropertyOp55
 70
     1
102
RTVSPropertyOp56
 70
     1
102
RTVSPropertyOp57
 70
     1
102
RTVSPropertyOp58
 70
     1
102
RTVSPropertyOp59
 70
     1
102
RTVSPropertyOp60
 70
     1
102
RTVSPropertyOp61
 70
     1
102
RTVSPropertyOp62
 70
     1
  0
XRECORD
  5
9E49
102
{ACAD_REACTORS
330
9E48
102
}
330
9E48
100
AcDbXrecord
280
     1
102
RTVSPost2010Prop28
280
     0
102
RTVSPost2010PropOp28
 70
     1
102
RTVSPost2010Prop29
280
     1
102
RTVSPost2010PropOp29
 70
     1
102
RTVSPost2010Prop30
280
     1
102
RTVSPost2010PropOp30
 70
     1
102
RTVSPost2010Prop31
280
     0
102
RTVSPost2010PropOp31
 70
     1
102
RTVSPost2010Prop32
280
     0
102
RTVSPost2010PropOp32
 70
     1
102
RTVSPost2010Prop33
280
     0
102
RTVSPost2010PropOp33
 70
     1
102
RTVSPost2010Prop34
280
     0
102
RTVSPost2010PropOp34
 70
     1
102
RTVSPost2010Prop35
280
     0
102
RTVSPost2010PropOp35
 70
     1
102
RTVSPost2010Prop36
280
     0
102
RTVSPost2010PropOp36
 70
     1
102
RTVSPost2010Prop37
 90
       50
102
RTVSPost2010PropOp37
 70
     1
102
RTVSPost2010Prop38
140
0.0
102
RTVSPost2010PropOp38
 70
     1
102
RTVSPost2010Prop39
140
1.0
102
RTVSPost2010PropOp39
 70
     1
102
RTVSPost2010Prop40
 90
        0
102
RTVSPost2010PropOp40
 70
     1
102
RTVSPost2010Prop41ColorIndex
 90
       18
102
RTVSPost2010Prop41ColorRGB
 90
        0
102
RTVSPost2010PropOp41
 70
     1
102
RTVSPost2010Prop42
 90
       50
102
RTVSPost2010PropOp42
 70
     1
102
RTVSPost2010Prop43
 90
        3
102
RTVSPost2010PropOp43
 70
     1
102
RTVSPost2010Prop44ColorIndex
 90
        5
102
RTVSPost2010Prop44ColorRGB
 90
      255
102
RTVSPost2010PropOp44
 70
     1
102
RTVSPost2010Prop45
280
     0
102
RTVSPost2010PropOp45
 70
     1
102
RTVSPost2010Prop46
 90
       50
102
RTVSPost2010PropOp46
 70
     1
102
RTVSPost2010Prop47
 90
       50
102
RTVSPost2010PropOp47
 70
     1
102
RTVSPost2010Prop48
 90
       50
102
RTVSPost2010PropOp48
 70
     1
102
RTVSPost2010Prop49
280
     0
102
RTVSPost2010PropOp49
 70
     1
102
RTVSPost2010Prop50
 90
       50
102
RTVSPost2010PropOp50
 70
     1
102
RTVSPost2010Prop51ColorIndex
 90
      256
102
RTVSPost2010Prop51ColorRGB
 90
-16777216
102
RTVSPost2010PropOp51
 70
     0
102
RTVSPost2010Prop52
140
1.0
102
RTVSPost2010PropOp52
 70
     0
102
RTVSPost2010Prop53
 90
        2
102
RTVSPost2010PropOp53
 70
     1
102
RTVSPost2010Prop54
  1
strokes_ogs.tif
102
RTVSPost2010PropOp54
 70
     1
102
RTVSPost2010Prop55
280
     0
102
RTVSPost2010PropOp55
 70
     1
102
RTVSPost2010Prop56
140
1.0
102
RTVSPost2010PropOp56
 70
     1
102
RTVSPost2010Prop57
140
1.0
102
RTVSPost2010PropOp57
 70
     1
102
RTVSPropertyOp0
 70
     1
102
RTVSPropertyOp1
 70
     1
102
RTVSPropertyOp2
 70
     1
102
RTVSPropertyOp3
 70
     1
102
RTVSPropertyOp4
 70
     1
102
RTVSPropertyOp5
 70
     1
102
RTVSPropertyOp6
 70
     1
102
RTVSPropertyOp7
 70
     1
102
RTVSPropertyOp8
 70
     1
102
RTVSPropertyOp9
 70
     1
102
RTVSPropertyOp10
 70
     1
102
RTVSPropertyOp11
 70
     1
102
RTVSPropertyOp12
 70
     1
102
RTVSPropertyOp13
 70
     1
102
RTVSPropertyOp14
 70
     1
102
RTVSPropertyOp15
 70
     1
102
RTVSPropertyOp16
 70
     1
102
RTVSPropertyOp17
 70
     1
102
RTVSPropertyOp18
 70
     1
102
RTVSPropertyOp19
 70
     1
102
RTVSPropertyOp20
 70
     1
102
RTVSPropertyOp21
 70
     1
102
RTVSPropertyOp22
 70
     1
102
RTVSPropertyOp23
 70
     1
102
RTVSPropertyOp24
 70
     1
102
RTVSPropertyOp25
 70
     1
102
RTVSPropertyOp26
 70
     1
102
RTVSPropertyOp27
 70
     1
102
RTVSPropertyOp28
 70
     1
102
RTVSPropertyOp29
 70
     1
102
RTVSPropertyOp30
 70
     1
102
RTVSPropertyOp31
 70
     1
102
RTVSPropertyOp32
 70
     1
102
RTVSPropertyOp33
 70
     1
102
RTVSPropertyOp34
 70
     1
102
RTVSPropertyOp35
 70
     1
102
RTVSPropertyOp36
 70
     1
102
RTVSPropertyOp37
 70
     1
102
RTVSPropertyOp38
 70
     1
102
RTVSPropertyOp39
 70
     1
102
RTVSPropertyOp40
 70
     1
102
RTVSPropertyOp41
 70
     1
102
RTVSPropertyOp42
 70
     1
102
RTVSPropertyOp43
 70
     1
102
RTVSPropertyOp44
 70
     1
102
RTVSPropertyOp45
 70
     1
102
RTVSPropertyOp46
 70
     1
102
RTVSPropertyOp47
 70
     1
102
RTVSPropertyOp48
 70
     1
102
RTVSPropertyOp49
 70
     1
102
RTVSPropertyOp50
 70
     1
102
RTVSPropertyOp51
 70
     0
102
RTVSPropertyOp52
 70
     0
102
RTVSPropertyOp53
 70
     1
102
RTVSPropertyOp54
 70
     1
102
RTVSPropertyOp55
 70
     1
102
RTVSPropertyOp56
 70
     1
102
RTVSPropertyOp57
 70
     1
102
RTVSPropertyOp58
 70
     1
102
RTVSPropertyOp59
 70
     1
102
RTVSPropertyOp60
 70
     1
102
RTVSPropertyOp61
 70
     1
102
RTVSPropertyOp62
 70
     1
  0
XRECORD
  5
9E3F
102
{ACAD_REACTORS
330
9E3E
102
}
330
9E3E
100
AcDbXrecord
280
     1
102
RTVSPost2010Prop28
280
     0
102
RTVSPost2010PropOp28
 70
     1
102
RTVSPost2010Prop29
280
     1
102
RTVSPost2010PropOp29
 70
     1
102
RTVSPost2010Prop30
280
     1
102
RTVSPost2010PropOp30
 70
     1
102
RTVSPost2010Prop31
280
     0
102
RTVSPost2010PropOp31
 70
     1
102
RTVSPost2010Prop32
280
     0
102
RTVSPost2010PropOp32
 70
     1
102
RTVSPost2010Prop33
280
     0
102
RTVSPost2010PropOp33
 70
     1
102
RTVSPost2010Prop34
280
     0
102
RTVSPost2010PropOp34
 70
     1
102
RTVSPost2010Prop35
280
     0
102
RTVSPost2010PropOp35
 70
     1
102
RTVSPost2010Prop36
280
     0
102
RTVSPost2010PropOp36
 70
     1
102
RTVSPost2010Prop37
 90
       50
102
RTVSPost2010PropOp37
 70
     1
102
RTVSPost2010Prop38
140
0.0
102
RTVSPost2010PropOp38
 70
     1
102
RTVSPost2010Prop39
140
1.0
102
RTVSPost2010PropOp39
 70
     1
102
RTVSPost2010Prop40
 90
        0
102
RTVSPost2010PropOp40
 70
     1
102
RTVSPost2010Prop41ColorIndex
 90
       18
102
RTVSPost2010Prop41ColorRGB
 90
        0
102
RTVSPost2010PropOp41
 70
     1
102
RTVSPost2010Prop42
 90
       50
102
RTVSPost2010PropOp42
 70
     1
102
RTVSPost2010Prop43
 90
        3
102
RTVSPost2010PropOp43
 70
     1
102
RTVSPost2010Prop44ColorIndex
 90
        5
102
RTVSPost2010Prop44ColorRGB
 90
      255
102
RTVSPost2010PropOp44
 70
     1
102
RTVSPost2010Prop45
280
     0
102
RTVSPost2010PropOp45
 70
     1
102
RTVSPost2010Prop46
 90
       50
102
RTVSPost2010PropOp46
 70
     1
102
RTVSPost2010Prop47
 90
       50
102
RTVSPost2010PropOp47
 70
     1
102
RTVSPost2010Prop48
 90
       50
102
RTVSPost2010PropOp48
 70
     1
102
RTVSPost2010Prop49
280
     0
102
RTVSPost2010PropOp49
 70
     1
102
RTVSPost2010Prop50
 90
       50
102
RTVSPost2010PropOp50
 70
     1
102
RTVSPost2010Prop51ColorIndex
 90
      256
102
RTVSPost2010Prop51ColorRGB
 90
-16777216
102
RTVSPost2010PropOp51
 70
     0
102
RTVSPost2010Prop52
140
1.0
102
RTVSPost2010PropOp52
 70
     0
102
RTVSPost2010Prop53
 90
        2
102
RTVSPost2010PropOp53
 70
     1
102
RTVSPost2010Prop54
  1
strokes_ogs.tif
102
RTVSPost2010PropOp54
 70
     1
102
RTVSPost2010Prop55
280
     0
102
RTVSPost2010PropOp55
 70
     1
102
RTVSPost2010Prop56
140
1.0
102
RTVSPost2010PropOp56
 70
     1
102
RTVSPost2010Prop57
140
1.0
102
RTVSPost2010PropOp57
 70
     1
102
RTVSPropertyOp0
 70
     1
102
RTVSPropertyOp1
 70
     1
102
RTVSPropertyOp2
 70
     1
102
RTVSPropertyOp3
 70
     1
102
RTVSPropertyOp4
 70
     1
102
RTVSPropertyOp5
 70
     1
102
RTVSPropertyOp6
 70
     1
102
RTVSPropertyOp7
 70
     1
102
RTVSPropertyOp8
 70
     1
102
RTVSPropertyOp9
 70
     1
102
RTVSPropertyOp10
 70
     1
102
RTVSPropertyOp11
 70
     1
102
RTVSPropertyOp12
 70
     1
102
RTVSPropertyOp13
 70
     1
102
RTVSPropertyOp14
 70
     1
102
RTVSPropertyOp15
 70
     1
102
RTVSPropertyOp16
 70
     1
102
RTVSPropertyOp17
 70
     1
102
RTVSPropertyOp18
 70
     1
102
RTVSPropertyOp19
 70
     1
102
RTVSPropertyOp20
 70
     1
102
RTVSPropertyOp21
 70
     1
102
RTVSPropertyOp22
 70
     1
102
RTVSPropertyOp23
 70
     1
102
RTVSPropertyOp24
 70
     1
102
RTVSPropertyOp25
 70
     1
102
RTVSPropertyOp26
 70
     1
102
RTVSPropertyOp27
 70
     1
102
RTVSPropertyOp28
 70
     1
102
RTVSPropertyOp29
 70
     1
102
RTVSPropertyOp30
 70
     1
102
RTVSPropertyOp31
 70
     1
102
RTVSPropertyOp32
 70
     1
102
RTVSPropertyOp33
 70
     1
102
RTVSPropertyOp34
 70
     1
102
RTVSPropertyOp35
 70
     1
102
RTVSPropertyOp36
 70
     1
102
RTVSPropertyOp37
 70
     1
102
RTVSPropertyOp38
 70
     1
102
RTVSPropertyOp39
 70
     1
102
RTVSPropertyOp40
 70
     1
102
RTVSPropertyOp41
 70
     1
102
RTVSPropertyOp42
 70
     1
102
RTVSPropertyOp43
 70
     1
102
RTVSPropertyOp44
 70
     1
102
RTVSPropertyOp45
 70
     1
102
RTVSPropertyOp46
 70
     1
102
RTVSPropertyOp47
 70
     1
102
RTVSPropertyOp48
 70
     1
102
RTVSPropertyOp49
 70
     1
102
RTVSPropertyOp50
 70
     1
102
RTVSPropertyOp51
 70
     0
102
RTVSPropertyOp52
 70
     0
102
RTVSPropertyOp53
 70
     1
102
RTVSPropertyOp54
 70
     1
102
RTVSPropertyOp55
 70
     1
102
RTVSPropertyOp56
 70
     1
102
RTVSPropertyOp57
 70
     1
102
RTVSPropertyOp58
 70
     1
102
RTVSPropertyOp59
 70
     1
102
RTVSPropertyOp60
 70
     1
102
RTVSPropertyOp61
 70
     1
102
RTVSPropertyOp62
 70
     1
  0
XRECORD
  5
9E33
102
{ACAD_REACTORS
330
9E32
102
}
330
9E32
100
AcDbXrecord
280
     1
102
RTVSPost2010Prop28
280
     0
102
RTVSPost2010PropOp28
 70
     1
102
RTVSPost2010Prop29
280
     1
102
RTVSPost2010PropOp29
 70
     1
102
RTVSPost2010Prop30
280
     1
102
RTVSPost2010PropOp30
 70
     1
102
RTVSPost2010Prop31
280
     0
102
RTVSPost2010PropOp31
 70
     1
102
RTVSPost2010Prop32
280
     0
102
RTVSPost2010PropOp32
 70
     1
102
RTVSPost2010Prop33
280
     0
102
RTVSPost2010PropOp33
 70
     1
102
RTVSPost2010Prop34
280
     0
102
RTVSPost2010PropOp34
 70
     1
102
RTVSPost2010Prop35
280
     0
102
RTVSPost2010PropOp35
 70
     1
102
RTVSPost2010Prop36
280
     0
102
RTVSPost2010PropOp36
 70
     1
102
RTVSPost2010Prop37
 90
       50
102
RTVSPost2010PropOp37
 70
     1
102
RTVSPost2010Prop38
140
0.0
102
RTVSPost2010PropOp38
 70
     1
102
RTVSPost2010Prop39
140
1.0
102
RTVSPost2010PropOp39
 70
     1
102
RTVSPost2010Prop40
 90
        0
102
RTVSPost2010PropOp40
 70
     1
102
RTVSPost2010Prop41ColorIndex
 90
       18
102
RTVSPost2010Prop41ColorRGB
 90
        0
102
RTVSPost2010PropOp41
 70
     1
102
RTVSPost2010Prop42
 90
       50
102
RTVSPost2010PropOp42
 70
     1
102
RTVSPost2010Prop43
 90
        3
102
RTVSPost2010PropOp43
 70
     1
102
RTVSPost2010Prop44ColorIndex
 90
        5
102
RTVSPost2010Prop44ColorRGB
 90
      255
102
RTVSPost2010PropOp44
 70
     1
102
RTVSPost2010Prop45
280
     0
102
RTVSPost2010PropOp45
 70
     1
102
RTVSPost2010Prop46
 90
       50
102
RTVSPost2010PropOp46
 70
     1
102
RTVSPost2010Prop47
 90
       50
102
RTVSPost2010PropOp47
 70
     1
102
RTVSPost2010Prop48
 90
       50
102
RTVSPost2010PropOp48
 70
     1
102
RTVSPost2010Prop49
280
     0
102
RTVSPost2010PropOp49
 70
     1
102
RTVSPost2010Prop50
 90
       50
102
RTVSPost2010PropOp50
 70
     1
102
RTVSPost2010Prop51ColorIndex
 90
      256
102
RTVSPost2010Prop51ColorRGB
 90
-16777216
102
RTVSPost2010PropOp51
 70
     0
102
RTVSPost2010Prop52
140
1.0
102
RTVSPost2010PropOp52
 70
     0
102
RTVSPost2010Prop53
 90
        2
102
RTVSPost2010PropOp53
 70
     1
102
RTVSPost2010Prop54
  1
strokes_ogs.tif
102
RTVSPost2010PropOp54
 70
     1
102
RTVSPost2010Prop55
280
     0
102
RTVSPost2010PropOp55
 70
     1
102
RTVSPost2010Prop56
140
1.0
102
RTVSPost2010PropOp56
 70
     1
102
RTVSPost2010Prop57
140
1.0
102
RTVSPost2010PropOp57
 70
     1
102
RTVSPropertyOp0
 70
     1
102
RTVSPropertyOp1
 70
     1
102
RTVSPropertyOp2
 70
     1
102
RTVSPropertyOp3
 70
     1
102
RTVSPropertyOp4
 70
     1
102
RTVSPropertyOp5
 70
     1
102
RTVSPropertyOp6
 70
     1
102
RTVSPropertyOp7
 70
     1
102
RTVSPropertyOp8
 70
     1
102
RTVSPropertyOp9
 70
     1
102
RTVSPropertyOp10
 70
     1
102
RTVSPropertyOp11
 70
     1
102
RTVSPropertyOp12
 70
     1
102
RTVSPropertyOp13
 70
     1
102
RTVSPropertyOp14
 70
     1
102
RTVSPropertyOp15
 70
     1
102
RTVSPropertyOp16
 70
     1
102
RTVSPropertyOp17
 70
     1
102
RTVSPropertyOp18
 70
     1
102
RTVSPropertyOp19
 70
     1
102
RTVSPropertyOp20
 70
     1
102
RTVSPropertyOp21
 70
     1
102
RTVSPropertyOp22
 70
     1
102
RTVSPropertyOp23
 70
     1
102
RTVSPropertyOp24
 70
     1
102
RTVSPropertyOp25
 70
     1
102
RTVSPropertyOp26
 70
     1
102
RTVSPropertyOp27
 70
     1
102
RTVSPropertyOp28
 70
     1
102
RTVSPropertyOp29
 70
     1
102
RTVSPropertyOp30
 70
     1
102
RTVSPropertyOp31
 70
     1
102
RTVSPropertyOp32
 70
     1
102
RTVSPropertyOp33
 70
     1
102
RTVSPropertyOp34
 70
     1
102
RTVSPropertyOp35
 70
     1
102
RTVSPropertyOp36
 70
     1
102
RTVSPropertyOp37
 70
     1
102
RTVSPropertyOp38
 70
     1
102
RTVSPropertyOp39
 70
     1
102
RTVSPropertyOp40
 70
     1
102
RTVSPropertyOp41
 70
     1
102
RTVSPropertyOp42
 70
     1
102
RTVSPropertyOp43
 70
     1
102
RTVSPropertyOp44
 70
     1
102
RTVSPropertyOp45
 70
     1
102
RTVSPropertyOp46
 70
     1
102
RTVSPropertyOp47
 70
     1
102
RTVSPropertyOp48
 70
     1
102
RTVSPropertyOp49
 70
     1
102
RTVSPropertyOp50
 70
     1
102
RTVSPropertyOp51
 70
     0
102
RTVSPropertyOp52
 70
     0
102
RTVSPropertyOp53
 70
     1
102
RTVSPropertyOp54
 70
     1
102
RTVSPropertyOp55
 70
     1
102
RTVSPropertyOp56
 70
     1
102
RTVSPropertyOp57
 70
     1
102
RTVSPropertyOp58
 70
     1
102
RTVSPropertyOp59
 70
     1
102
RTVSPropertyOp60
 70
     1
102
RTVSPropertyOp61
 70
     1
102
RTVSPropertyOp62
 70
     1
  0
XRECORD
  5
9E4B
102
{ACAD_REACTORS
330
9E4A
102
}
330
9E4A
100
AcDbXrecord
280
     1
102
RTVSPost2010Prop28
280
     0
102
RTVSPost2010PropOp28
 70
     1
102
RTVSPost2010Prop29
280
     1
102
RTVSPost2010PropOp29
 70
     1
102
RTVSPost2010Prop30
280
     1
102
RTVSPost2010PropOp30
 70
     1
102
RTVSPost2010Prop31
280
     0
102
RTVSPost2010PropOp31
 70
     1
102
RTVSPost2010Prop32
280
     0
102
RTVSPost2010PropOp32
 70
     1
102
RTVSPost2010Prop33
280
     0
102
RTVSPost2010PropOp33
 70
     1
102
RTVSPost2010Prop34
280
     0
102
RTVSPost2010PropOp34
 70
     1
102
RTVSPost2010Prop35
280
     0
102
RTVSPost2010PropOp35
 70
     1
102
RTVSPost2010Prop36
280
     0
102
RTVSPost2010PropOp36
 70
     1
102
RTVSPost2010Prop37
 90
       50
102
RTVSPost2010PropOp37
 70
     1
102
RTVSPost2010Prop38
140
0.0
102
RTVSPost2010PropOp38
 70
     1
102
RTVSPost2010Prop39
140
1.0
102
RTVSPost2010PropOp39
 70
     1
102
RTVSPost2010Prop40
 90
        0
102
RTVSPost2010PropOp40
 70
     1
102
RTVSPost2010Prop41ColorIndex
 90
       18
102
RTVSPost2010Prop41ColorRGB
 90
        0
102
RTVSPost2010PropOp41
 70
     1
102
RTVSPost2010Prop42
 90
       50
102
RTVSPost2010PropOp42
 70
     1
102
RTVSPost2010Prop43
 90
        3
102
RTVSPost2010PropOp43
 70
     1
102
RTVSPost2010Prop44ColorIndex
 90
        5
102
RTVSPost2010Prop44ColorRGB
 90
      255
102
RTVSPost2010PropOp44
 70
     1
102
RTVSPost2010Prop45
280
     0
102
RTVSPost2010PropOp45
 70
     1
102
RTVSPost2010Prop46
 90
       50
102
RTVSPost2010PropOp46
 70
     1
102
RTVSPost2010Prop47
 90
       50
102
RTVSPost2010PropOp47
 70
     1
102
RTVSPost2010Prop48
 90
       50
102
RTVSPost2010PropOp48
 70
     1
102
RTVSPost2010Prop49
280
     0
102
RTVSPost2010PropOp49
 70
     1
102
RTVSPost2010Prop50
 90
       50
102
RTVSPost2010PropOp50
 70
     1
102
RTVSPost2010Prop51ColorIndex
 90
      256
102
RTVSPost2010Prop51ColorRGB
 90
-16777216
102
RTVSPost2010PropOp51
 70
     0
102
RTVSPost2010Prop52
140
1.0
102
RTVSPost2010PropOp52
 70
     0
102
RTVSPost2010Prop53
 90
        2
102
RTVSPost2010PropOp53
 70
     1
102
RTVSPost2010Prop54
  1
strokes_ogs.tif
102
RTVSPost2010PropOp54
 70
     1
102
RTVSPost2010Prop55
280
     0
102
RTVSPost2010PropOp55
 70
     1
102
RTVSPost2010Prop56
140
1.0
102
RTVSPost2010PropOp56
 70
     1
102
RTVSPost2010Prop57
140
1.0
102
RTVSPost2010PropOp57
 70
     1
102
RTVSPropertyOp0
 70
     1
102
RTVSPropertyOp1
 70
     1
102
RTVSPropertyOp2
 70
     1
102
RTVSPropertyOp3
 70
     1
102
RTVSPropertyOp4
 70
     1
102
RTVSPropertyOp5
 70
     1
102
RTVSPropertyOp6
 70
     1
102
RTVSPropertyOp7
 70
     1
102
RTVSPropertyOp8
 70
     1
102
RTVSPropertyOp9
 70
     1
102
RTVSPropertyOp10
 70
     1
102
RTVSPropertyOp11
 70
     1
102
RTVSPropertyOp12
 70
     1
102
RTVSPropertyOp13
 70
     1
102
RTVSPropertyOp14
 70
     1
102
RTVSPropertyOp15
 70
     1
102
RTVSPropertyOp16
 70
     1
102
RTVSPropertyOp17
 70
     1
102
RTVSPropertyOp18
 70
     1
102
RTVSPropertyOp19
 70
     1
102
RTVSPropertyOp20
 70
     1
102
RTVSPropertyOp21
 70
     1
102
RTVSPropertyOp22
 70
     1
102
RTVSPropertyOp23
 70
     1
102
RTVSPropertyOp24
 70
     1
102
RTVSPropertyOp25
 70
     1
102
RTVSPropertyOp26
 70
     1
102
RTVSPropertyOp27
 70
     1
102
RTVSPropertyOp28
 70
     1
102
RTVSPropertyOp29
 70
     1
102
RTVSPropertyOp30
 70
     1
102
RTVSPropertyOp31
 70
     1
102
RTVSPropertyOp32
 70
     1
102
RTVSPropertyOp33
 70
     1
102
RTVSPropertyOp34
 70
     1
102
RTVSPropertyOp35
 70
     1
102
RTVSPropertyOp36
 70
     1
102
RTVSPropertyOp37
 70
     1
102
RTVSPropertyOp38
 70
     1
102
RTVSPropertyOp39
 70
     1
102
RTVSPropertyOp40
 70
     1
102
RTVSPropertyOp41
 70
     1
102
RTVSPropertyOp42
 70
     1
102
RTVSPropertyOp43
 70
     1
102
RTVSPropertyOp44
 70
     1
102
RTVSPropertyOp45
 70
     1
102
RTVSPropertyOp46
 70
     1
102
RTVSPropertyOp47
 70
     1
102
RTVSPropertyOp48
 70
     1
102
RTVSPropertyOp49
 70
     1
102
RTVSPropertyOp50
 70
     1
102
RTVSPropertyOp51
 70
     0
102
RTVSPropertyOp52
 70
     0
102
RTVSPropertyOp53
 70
     1
102
RTVSPropertyOp54
 70
     1
102
RTVSPropertyOp55
 70
     1
102
RTVSPropertyOp56
 70
     1
102
RTVSPropertyOp57
 70
     1
102
RTVSPropertyOp58
 70
     1
102
RTVSPropertyOp59
 70
     1
102
RTVSPropertyOp60
 70
     1
102
RTVSPropertyOp61
 70
     1
102
RTVSPropertyOp62
 70
     1
  0
ENDSEC
  0
EOF
