  0
SECTION
  2
HEADER
  9
$ACADVER
  1
AC1015
  9
$ACADMAINTVER
 70
    20
  9
$DWGCODEPAGE
  3
ANSI_932
  9
$INSBASE
 10
0.0
 20
0.0
 30
0.0
  9
$EXTMIN
 10
10.0
 20
9.999999999999998
 30
0.0
  9
$EXTMAX
 10
345.5366399999999
 20
293.7839999999998
 30
0.0
  9
$LIMMIN
 10
0.0
 20
0.0
  9
$LIMMAX
 10
495.0
 20
341.25
  9
$ORTHOMODE
 70
     1
  9
$REGENMODE
 70
     1
  9
$FILLMODE
 70
     1
  9
$QTEXTMODE
 70
     0
  9
$MIRRTEXT
 70
     1
  9
$LTSCALE
 40
20.0
  9
$ATTMODE
 70
     1
  9
$TEXTSIZE
 40
5.0
  9
$TRACEWID
 40
1.0
  9
$TEXTSTYLE
  7
STANDARD
  9
$CLAYER
  8
0
  9
$CELTYPE
  6
BYLAYER
  9
$CECOLOR
 62
   256
  9
$CELTSCALE
 40
1.0
  9
$DISPSILH
 70
     0
  9
$DIMSCALE
 40
1.0
  9
$DIMASZ
 40
3.0
  9
$DIMEXO
 40
1.0
  9
$DIMDLI
 40
10.0
  9
$DIMRND
 40
0.0
  9
$DIMDLE
 40
0.0
  9
$DIMEXE
 40
1.0
  9
$DIMTP
 40
0.0
  9
$DIMTM
 40
0.0
  9
$DIMTXT
 40
3.2
  9
$DIMCEN
 40
0.0
  9
$DIMTSZ
 40
0.0
  9
$DIMTOL
 70
     0
  9
$DIMLIM
 70
     0
  9
$DIMTIH
 70
     0
  9
$DIMTOH
 70
     0
  9
$DIMSE1
 70
     0
  9
$DIMSE2
 70
     0
  9
$DIMTAD
 70
     3
  9
$DIMZIN
 70
     8
  9
$DIMBLK
  1

  9
$DIMASO
 70
     1
  9
$DIMSHO
 70
     1
  9
$DIMPOST
  1

  9
$DIMAPOST
  1

  9
$DIMALT
 70
     0
  9
$DIMALTD
 70
     2
  9
$DIMALTF
 40
25.4
  9
$DIMLFAC
 40
1.0
  9
$DIMTOFL
 70
     1
  9
$DIMTVP
 40
0.0
  9
$DIMTIX
 70
     0
  9
$DIMSOXD
 70
     0
  9
$DIMSAH
 70
     1
  9
$DIMBLK1
  1

  9
$DIMBLK2
  1

  9
$DIMSTYLE
  2
STANDARD
  9
$DIMCLRD
 70
     0
  9
$DIMCLRE
 70
     0
  9
$DIMCLRT
 70
     0
  9
$DIMTFAC
 40
1.0
  9
$DIMGAP
 40
1.0
  9
$DIMJUST
 70
     0
  9
$DIMSD1
 70
     0
  9
$DIMSD2
 70
     0
  9
$DIMTOLJ
 70
     1
  9
$DIMTZIN
 70
     0
  9
$DIMALTZ
 70
     0
  9
$DIMALTTZ
 70
     0
  9
$DIMUPT
 70
     0
  9
$DIMDEC
 70
     4
  9
$DIMTDEC
 70
     4
  9
$DIMALTU
 70
     2
  9
$DIMALTTD
 70
     2
  9
$DIMTXSTY
  7
STANDARD
  9
$DIMAUNIT
 70
     0
  9
$DIMADEC
 70
     0
  9
$DIMALTRND
 40
0.0
  9
$DIMAZIN
 70
     0
  9
$DIMDSEP
 70
    46
  9
$DIMATFIT
 70
     3
  9
$DIMFRAC
 70
     0
  9
$DIMLDRBLK
  1

  9
$DIMLUNIT
 70
     2
  9
$DIMLWD
 70
    -2
  9
$DIMLWE
 70
    -2
  9
$DIMTMOVE
 70
     0
  9
$LUNITS
 70
     2
  9
$LUPREC
 70
     4
  9
$SKETCHINC
 40
1.0
  9
$FILLETRAD
 40
2.5
  9
$AUNITS
 70
     0
  9
$AUPREC
 70
     2
  9
$MENU
  1
.
  9
$ELEVATION
 40
0.0
  9
$PELEVATION
 40
0.0
  9
$THICKNESS
 40
0.0
  9
$LIMCHECK
 70
     0
  9
$CHAMFERA
 40
10.0
  9
$CHAMFERB
 40
10.0
  9
$CHAMFERC
 40
0.0
  9
$CHAMFERD
 40
0.0
  9
$SKPOLY
 70
     0
  9
$TDCREATE
 40
2451298.562525348
  9
$TDUCREATE
 40
2451298.187525347
  9
$TDUPDATE
 40
2457192.640366539
  9
$TDUUPDATE
 40
2457192.265366539
  9
$TDINDWG
 40
0.0000156829
  9
$TDUSRTIMER
 40
0.0000153704
  9
$USRTIMER
 70
     1
  9
$ANGBASE
 50
0.0
  9
$ANGDIR
 70
     0
  9
$PDMODE
 70
     0
  9
$PDSIZE
 40
0.0
  9
$PLINEWID
 40
0.0
  9
$SPLFRAME
 70
     0
  9
$SPLINETYPE
 70
     6
  9
$SPLINESEGS
 70
     8
  9
$HANDSEED
  5
9752
  9
$SURFTAB1
 70
     6
  9
$SURFTAB2
 70
     6
  9
$SURFTYPE
 70
     6
  9
$SURFU
 70
     6
  9
$SURFV
 70
     6
  9
$UCSBASE
  2

  9
$UCSNAME
  2

  9
$UCSORG
 10
0.0
 20
0.0
 30
0.0
  9
$UCSXDIR
 10
1.0
 20
0.0
 30
0.0
  9
$UCSYDIR
 10
0.0
 20
1.0
 30
0.0
  9
$UCSORTHOREF
  2

  9
$UCSORTHOVIEW
 70
     0
  9
$UCSORGTOP
 10
0.0
 20
0.0
 30
0.0
  9
$UCSORGBOTTOM
 10
0.0
 20
0.0
 30
0.0
  9
$UCSORGLEFT
 10
0.0
 20
0.0
 30
0.0
  9
$UCSORGRIGHT
 10
0.0
 20
0.0
 30
0.0
  9
$UCSORGFRONT
 10
0.0
 20
0.0
 30
0.0
  9
$UCSORGBACK
 10
0.0
 20
0.0
 30
0.0
  9
$PUCSBASE
  2

  9
$PUCSNAME
  2

  9
$PUCSORG
 10
0.0
 20
0.0
 30
0.0
  9
$PUCSXDIR
 10
1.0
 20
0.0
 30
0.0
  9
$PUCSYDIR
 10
0.0
 20
1.0
 30
0.0
  9
$PUCSORTHOREF
  2

  9
$PUCSORTHOVIEW
 70
     0
  9
$PUCSORGTOP
 10
0.0
 20
0.0
 30
0.0
  9
$PUCSORGBOTTOM
 10
0.0
 20
0.0
 30
0.0
  9
$PUCSORGLEFT
 10
0.0
 20
0.0
 30
0.0
  9
$PUCSORGRIGHT
 10
0.0
 20
0.0
 30
0.0
  9
$PUCSORGFRONT
 10
0.0
 20
0.0
 30
0.0
  9
$PUCSORGBACK
 10
0.0
 20
0.0
 30
0.0
  9
$USERI1
 70
     0
  9
$USERI2
 70
     0
  9
$USERI3
 70
     0
  9
$USERI4
 70
     0
  9
$USERI5
 70
     0
  9
$USERR1
 40
0.0
  9
$USERR2
 40
0.0
  9
$USERR3
 40
0.0
  9
$USERR4
 40
0.0
  9
$USERR5
 40
0.0
  9
$WORLDVIEW
 70
     1
  9
$SHADEDGE
 70
     3
  9
$SHADEDIF
 70
    70
  9
$TILEMODE
 70
     1
  9
$MAXACTVP
 70
    16
  9
$PINSBASE
 10
0.0
 20
0.0
 30
0.0
  9
$PLIMCHECK
 70
     0
  9
$PEXTMIN
 10
1.000000000000000E+20
 20
1.000000000000000E+20
 30
1.000000000000000E+20
  9
$PEXTMAX
 10
-1.000000000000000E+20
 20
-1.000000000000000E+20
 30
-1.000000000000000E+20
  9
$PLIMMIN
 10
0.0
 20
0.0
  9
$PLIMMAX
 10
420.0
 20
297.0
  9
$UNITMODE
 70
     0
  9
$VISRETAIN
 70
     0
  9
$PLINEGEN
 70
     0
  9
$PSLTSCALE
 70
     0
  9
$TREEDEPTH
 70
  3020
  9
$CMLSTYLE
  2
STANDARD
  9
$CMLJUST
 70
     0
  9
$CMLSCALE
 40
1.0
  9
$PROXYGRAPHICS
 70
     1
  9
$MEASUREMENT
 70
     0
  9
$CELWEIGHT
370
    -1
  9
$ENDCAPS
280
     0
  9
$JOINSTYLE
280
     0
  9
$LWDISPLAY
290
     0
  9
$INSUNITS
 70
     0
  9
$HYPERLINKBASE
  1

  9
$STYLESHEET
  1

  9
$XEDIT
290
     1
  9
$CEPSNTYPE
380
     0
  9
$PSTYLEMODE
290
     1
  9
$FINGERPRINTGUID
  2
{F2EBD5B5-EF2C-47DC-B036-FAB5BBBA62A3}
  9
$VERSIONGUID
  2
{A0237AD5-799E-4AAB-91F6-BE1B3019B88B}
  9
$EXTNAMES
290
     1
  9
$PSVPSCALE
 40
0.0
  9
$OLESTARTUP
290
     0
  0
ENDSEC
  0
SECTION
  2
CLASSES
  0
CLASS
  1
ACDBDICTIONARYWDFLT
  2
AcDbDictionaryWithDefault
  3
ObjectDBX Classes
 90
        0
280
     0
281
     0
  0
CLASS
  1
ACDBPLACEHOLDER
  2
AcDbPlaceHolder
  3
ObjectDBX Classes
 90
        0
280
     0
281
     0
  0
CLASS
  1
LAYOUT
  2
AcDbLayout
  3
ObjectDBX Classes
 90
        0
280
     0
281
     0
  0
CLASS
  1
DICTIONARYVAR
  2
AcDbDictionaryVar
  3
ObjectDBX Classes
 90
        0
280
     0
281
     0
  0
CLASS
  1
MATERIAL
  2
AcDbMaterial
  3
ObjectDBX Classes
 90
     1153
280
     0
281
     0
  0
CLASS
  1
VISUALSTYLE
  2
AcDbVisualStyle
  3
ObjectDBX Classes
 90
     4095
280
     0
281
     0
  0
CLASS
  1
TABLESTYLE
  2
AcDbTableStyle
  3
ObjectDBX Classes
 90
     4095
280
     0
281
     0
  0
CLASS
  1
SCALE
  2
AcDbScale
  3
ObjectDBX Classes
 90
     1153
280
     0
281
     0
  0
CLASS
  1
MLEADERSTYLE
  2
AcDbMLeaderStyle
  3
ACDB_MLEADERSTYLE_CLASS
 90
     4095
280
     0
281
     0
  0
CLASS
  1
ACDBSECTIONVIEWSTYLE
  2
AcDbSectionViewStyle
  3
ObjectDBX Classes
 90
     1025
280
     0
281
     0
  0
CLASS
  1
ACDBDETAILVIEWSTYLE
  2
AcDbDetailViewStyle
  3
ObjectDBX Classes
 90
     1025
280
     0
281
     0
  0
CLASS
  1
CELLSTYLEMAP
  2
AcDbCellStyleMap
  3
ObjectDBX Classes
 90
     1152
280
     0
281
     0
  0
ENDSEC
  0
SECTION
  2
TABLES
  0
TABLE
  2
VPORT
  5
93BA
330
0
100
AcDbSymbolTable
 70
     1
  0
VPORT
  5
969B
330
93BA
100
AcDbSymbolTableRecord
100
AcDbViewportTableRecord
  2
*ACTIVE
 70
     0
 10
0.0
 20
0.0
 11
1.0
 21
1.0
 12
263.7272008568535
 22
151.8925960638648
 13
0.0
 23
0.0
 14
10.0
 24
10.0
 15
10.0
 25
10.0
 16
0.0
 26
0.0
 36
1.0
 17
0.0
 27
0.0
 37
0.0
 40
286.9851612406061
 41
1.899603698811096
 42
50.0
 43
0.0
 44
0.0
 50
0.0
 51
0.0
 71
     0
 72
   100
 73
     1
 74
     0
 75
     0
 76
     0
 77
     0
 78
     0
281
     0
 65
     1
110
0.0
120
0.0
130
0.0
111
1.0
121
0.0
131
0.0
112
0.0
122
1.0
132
0.0
 79
     0
146
0.0
1001
ACAD_NAV_VCDISPLAY
1070
     3
  0
ENDTAB
  0
TABLE
  2
LTYPE
  5
93B7
330
0
100
AcDbSymbolTable
 70
     4
  0
LTYPE
  5
93C5
330
93B7
100
AcDbSymbolTableRecord
100
AcDbLinetypeTableRecord
  2
BYBLOCK
 70
     0
  3

 72
    65
 73
     0
 40
0.0
  0
LTYPE
  5
93C6
330
93B7
100
AcDbSymbolTableRecord
100
AcDbLinetypeTableRecord
  2
BYLAYER
 70
     0
  3

 72
    65
 73
     0
 40
0.0
  0
LTYPE
  5
93C7
330
93B7
100
AcDbSymbolTableRecord
100
AcDbLinetypeTableRecord
  2
CONTINUOUS
 70
     0
  3
Solid line
 72
    65
 73
     0
 40
0.0
  0
LTYPE
  5
93D5
330
93B7
100
AcDbSymbolTableRecord
100
AcDbLinetypeTableRecord
  2
DASHED
 70
     0
  3
__ __ __ __ __ __ __ __ __ __ __ __ __ __ __ __
 72
    65
 73
     2
 40
0.75
 49
0.5
 74
     0
 49
-0.25
 74
     0
  0
LTYPE
  5
93D6
330
93B7
100
AcDbSymbolTableRecord
100
AcDbLinetypeTableRecord
  2
CENTER
 70
     0
  3
____ _ ____ _ ____ _ ____ _ ____ _ ____ _ ____ 
 72
    65
 73
     4
 40
2.0
 49
1.25
 74
     0
 49
-0.25
 74
     0
 49
0.25
 74
     0
 49
-0.25
 74
     0
  0
LTYPE
  5
93D7
330
93B7
100
AcDbSymbolTableRecord
100
AcDbLinetypeTableRecord
  2
PHANTOM
 70
     0
  3
______  __  __  ______  __  __  ______  __  __ 
 72
    65
 73
     6
 40
2.5
 49
1.25
 74
     0
 49
-0.25
 74
     0
 49
0.25
 74
     0
 49
-0.25
 74
     0
 49
0.25
 74
     0
 49
-0.25
 74
     0
  0
ENDTAB
  0
TABLE
  2
LAYER
  5
93B4
330
0
100
AcDbSymbolTable
 70
     8
  0
LAYER
  5
93C2
102
{ACAD_XDICTIONARY
360
96F6
102
}
330
93B4
100
AcDbSymbolTableRecord
100
AcDbLayerTableRecord
  2
0
 70
     0
 62
     7
  6
CONTINUOUS
370
    -3
390
96A4
  0
LAYER
  5
93D8
102
{ACAD_XDICTIONARY
360
96F8
102
}
330
93B4
100
AcDbSymbolTableRecord
100
AcDbLayerTableRecord
  2
4
 70
     0
 62
     1
  6
CENTER
370
    -3
390
96A4
  0
LAYER
  5
93D9
102
{ACAD_XDICTIONARY
360
96FA
102
}
330
93B4
100
AcDbSymbolTableRecord
100
AcDbLayerTableRecord
  2
5
 70
     0
 62
     6
  6
PHANTOM
370
    -3
390
96A4
  0
LAYER
  5
93DA
102
{ACAD_XDICTIONARY
360
96FC
102
}
330
93B4
100
AcDbSymbolTableRecord
100
AcDbLayerTableRecord
  2
1
 70
     0
 62
     7
  6
CONTINUOUS
370
    -3
390
96A4
  0
LAYER
  5
93DB
102
{ACAD_XDICTIONARY
360
96FE
102
}
330
93B4
100
AcDbSymbolTableRecord
100
AcDbLayerTableRecord
  2
2
 70
     0
 62
     4
  6
CONTINUOUS
370
    -3
390
96A4
  0
LAYER
  5
93DC
102
{ACAD_XDICTIONARY
360
9700
102
}
330
93B4
100
AcDbSymbolTableRecord
100
AcDbLayerTableRecord
  2
3
 70
     0
 62
     2
  6
DASHED
370
    -3
390
96A4
  0
LAYER
  5
93DD
102
{ACAD_XDICTIONARY
360
9702
102
}
330
93B4
100
AcDbSymbolTableRecord
100
AcDbLayerTableRecord
  2
6
 70
     0
 62
     5
  6
CONTINUOUS
370
    -3
390
96A4
  0
LAYER
  5
93DE
102
{ACAD_XDICTIONARY
360
9704
102
}
330
93B4
100
AcDbSymbolTableRecord
100
AcDbLayerTableRecord
  2
7
 70
     0
 62
     3
  6
CONTINUOUS
370
    -3
390
96A4
  0
ENDTAB
  0
TABLE
  2
STYLE
  5
93B5
330
0
100
AcDbSymbolTable
 70
     1
  0
STYLE
  5
93C3
330
93B5
100
AcDbSymbolTableRecord
100
AcDbTextStyleTableRecord
  2
STANDARD
 70
     0
 40
0.0
 41
1.0
 50
0.0
 71
     0
 42
5.0
  3
txt
  4

  0
ENDTAB
  0
TABLE
  2
VIEW
  5
93B8
330
0
100
AcDbSymbolTable
 70
     0
  0
ENDTAB
  0
TABLE
  2
UCS
  5
93B9
330
0
100
AcDbSymbolTable
 70
     0
  0
ENDTAB
  0
TABLE
  2
APPID
  5
93BB
330
0
100
AcDbSymbolTable
 70
     3
  0
APPID
  5
93C4
330
93BB
100
AcDbSymbolTableRecord
100
AcDbRegAppTableRecord
  2
ACAD
 70
     0
  0
APPID
  5
9710
330
93BB
100
AcDbSymbolTableRecord
100
AcDbRegAppTableRecord
  2
ACAD_NAV_VCDISPLAY
 70
     0
  0
APPID
  5
9749
330
93BB
100
AcDbSymbolTableRecord
100
AcDbRegAppTableRecord
  2
ACAD_MLEADERVER
 70
     0
  0
ENDTAB
  0
TABLE
  2
DIMSTYLE
  5
93BC
330
0
100
AcDbSymbolTable
 70
     1
100
AcDbDimStyleTable
 71
     0
  0
DIMSTYLE
105
93E0
330
93BC
100
AcDbSymbolTableRecord
100
AcDbDimStyleTableRecord
  2
STANDARD
 70
     0
 41
3.0
 42
1.0
 43
10.0
 44
1.0
 73
     0
 74
     0
 77
     3
 78
     8
140
3.2
141
0.0
147
1.0
172
     1
173
     1
284
     8
285
     8
286
     8
340
93C3
  0
ENDTAB
  0
TABLE
  2
BLOCK_RECORD
  5
93B3
330
0
100
AcDbSymbolTable
 70
     0
  0
BLOCK_RECORD
  5
93D0
102
{ACAD_XDICTIONARY
360
969E
102
}
330
93B3
100
AcDbSymbolTableRecord
100
AcDbBlockTableRecord
  2
*MODEL_SPACE
340
96F2
  0
BLOCK_RECORD
  5
93CC
102
{ACAD_XDICTIONARY
360
969C
102
}
330
93B3
100
AcDbSymbolTableRecord
100
AcDbBlockTableRecord
  2
*PAPER_SPACE
340
96F3
  0
ENDTAB
  0
ENDSEC
  0
SECTION
  2
BLOCKS
  0
BLOCK
  5
93D1
330
93D0
100
AcDbEntity
  8
0
100
AcDbBlockBegin
  2
*MODEL_SPACE
 70
     0
 10
0.0
 20
0.0
 30
0.0
  3
*MODEL_SPACE
  1

  0
ENDBLK
  5
93D2
330
93D0
100
AcDbEntity
  8
0
100
AcDbBlockEnd
  0
BLOCK
  5
93CD
330
93CC
100
AcDbEntity
 67
     1
  8
0
100
AcDbBlockBegin
  2
*PAPER_SPACE
 70
     0
 10
0.0
 20
0.0
 30
0.0
  3
*PAPER_SPACE
  1

  0
ENDBLK
  5
93CE
330
93CC
100
AcDbEntity
 67
     1
  8
0
100
AcDbBlockEnd
  0
ENDSEC
  0
SECTION
  2
ENTITIES
  0
TEXT
  5
93E8
330
93D0
100
AcDbEntity
  8
7
  6
Continuous
100
AcDbText
 10
10.0
 20
18.0
 30
0.0
 40
3.0
  1
TYPE No.THA-296-2K
100
AcDbText
  0
TEXT
  5
93E9
330
93D0
100
AcDbEntity
  8
7
  6
Continuous
100
AcDbText
 10
10.0
 20
26.0
 30
0.0
 40
3.0
  1
CODE No.3643
100
AcDbText
  0
TEXT
  5
93EA
330
93D0
100
AcDbEntity
  8
1
  6
Continuous
100
AcDbText
 10
10.0
 20
10.0
 30
0.0
 40
1.399999999999999
  1
LAYER
100
AcDbText
  0
TEXT
  5
93EB
330
93D0
100
AcDbEntity
  8
1
  6
Continuous
100
AcDbText
 10
17.97951099999998
 20
10.04873699999998
 30
0.0
 40
1.399999999999999
  1
1
100
AcDbText
  0
TEXT
  5
93EC
330
93D0
100
AcDbEntity
  8
7
  6
Continuous
100
AcDbText
 10
29.97951099999999
 20
10.04873699999998
 30
0.0
 40
1.399999999999999
  1
7
100
AcDbText
  0
TEXT
  5
93ED
330
93D0
100
AcDbEntity
  8
4
  6
CENTER
100
AcDbText
 10
23.97951099999999
 20
10.04873699999998
 30
0.0
 40
1.399999999999999
  1
4
100
AcDbText
  0
TEXT
  5
93EE
330
93D0
100
AcDbEntity
  8
3
  6
DASHED
100
AcDbText
 10
21.979511
 20
10.04873699999998
 30
0.0
 40
1.399999999999999
  1
3
100
AcDbText
  0
TEXT
  5
93EF
330
93D0
100
AcDbEntity
  8
2
  6
Continuous
100
AcDbText
 10
19.97951099999999
 20
10.04873699999998
 30
0.0
 40
1.399999999999999
  1
2
100
AcDbText
  0
TEXT
  5
93F0
330
93D0
100
AcDbEntity
  8
6
  6
Continuous
100
AcDbText
 10
27.979511
 20
10.04873699999998
 30
0.0
 40
1.399999999999999
  1
6
100
AcDbText
  0
TEXT
  5
93F1
330
93D0
100
AcDbEntity
  8
5
  6
PHANTOM
100
AcDbText
 10
25.97951099999999
 20
10.04873699999998
 30
0.0
 40
1.399999999999999
  1
5
100
AcDbText
  0
LINE
  5
93F2
330
93D0
100
AcDbEntity
  8
4
  6
CENTER
100
AcDbLine
 10
139.7296399999999
 20
125.9349999999999
 30
0.0
 11
164.7846399999999
 21
125.9349999999999
 31
0.0
  0
LINE
  5
93F3
330
93D0
100
AcDbEntity
  8
1
  6
Continuous
100
AcDbLine
 10
13.54233999999999
 20
161.935
 30
0.0
 11
13.54233999999999
 21
44.9352
 31
0.0
  0
LINE
  5
93F4
330
93D0
100
AcDbEntity
  8
1
  6
Continuous
100
AcDbLine
 10
41.54234
 20
161.935
 30
0.0
 11
41.54234
 21
44.9352
 31
0.0
  0
LINE
  5
93F5
330
93D0
100
AcDbEntity
  8
1
  6
Continuous
100
AcDbLine
 10
13.54233999999999
 20
161.935
 30
0.0
 11
41.54234
 21
161.935
 31
0.0
  0
LINE
  5
93F6
330
93D0
100
AcDbEntity
  8
1
  6
Continuous
100
AcDbLine
 10
13.54233999999999
 20
44.9352
 30
0.0
 11
41.54234
 21
44.9352
 31
0.0
  0
LINE
  5
93F7
330
93D0
100
AcDbEntity
  8
1
  6
Continuous
100
AcDbLine
 10
40.54234
 20
160.935
 30
0.0
 11
40.54234
 21
45.9352
 31
0.0
  0
LINE
  5
93F8
330
93D0
100
AcDbEntity
  8
1
  6
Continuous
100
AcDbLine
 10
14.54234
 20
160.935
 30
0.0
 11
40.54234
 21
160.935
 31
0.0
  0
LINE
  5
93F9
330
93D0
100
AcDbEntity
  8
1
  6
Continuous
100
AcDbLine
 10
14.54234
 20
160.935
 30
0.0
 11
14.54234
 21
45.9352
 31
0.0
  0
LINE
  5
93FA
330
93D0
100
AcDbEntity
  8
1
  6
Continuous
100
AcDbLine
 10
14.54234
 20
45.9352
 30
0.0
 11
40.54234
 21
45.9352
 31
0.0
  0
LINE
  5
93FB
330
93D0
100
AcDbEntity
  8
1
  6
Continuous
100
AcDbLine
 10
40.54234
 20
45.9352
 30
0.0
 11
41.54234
 21
44.9352
 31
0.0
  0
LINE
  5
93FC
330
93D0
100
AcDbEntity
  8
1
  6
Continuous
100
AcDbLine
 10
14.54234
 20
45.9352
 30
0.0
 11
13.54233999999999
 21
44.9352
 31
0.0
  0
LINE
  5
93FD
330
93D0
100
AcDbEntity
  8
1
  6
Continuous
100
AcDbLine
 10
13.54233999999999
 20
161.935
 30
0.0
 11
14.54234
 21
160.935
 31
0.0
  0
LINE
  5
93FE
330
93D0
100
AcDbEntity
  8
1
  6
Continuous
100
AcDbLine
 10
41.54234
 20
161.935
 30
0.0
 11
40.54234
 21
160.935
 31
0.0
  0
LINE
  5
93FF
330
93D0
100
AcDbEntity
  8
1
  6
Continuous
100
AcDbLine
 10
142.2896399999999
 20
160.935
 30
0.0
 11
142.2896399999999
 21
45.9352
 31
0.0
  0
LINE
  5
9400
330
93D0
100
AcDbEntity
  8
1
  6
Continuous
100
AcDbLine
 10
144.2896399999999
 20
161.935
 30
0.0
 11
144.2896399999999
 21
44.9352
 31
0.0
  0
LINE
  5
9401
330
93D0
100
AcDbEntity
  8
1
  6
Continuous
100
AcDbLine
 10
143.2896399999999
 20
161.935
 30
0.0
 11
143.2896399999999
 21
44.9352
 31
0.0
  0
LINE
  5
9402
330
93D0
100
AcDbEntity
  8
1
  6
Continuous
100
AcDbLine
 10
143.2896399999999
 20
44.9352
 30
0.0
 11
144.2896399999999
 21
44.9352
 31
0.0
  0
LINE
  5
9403
330
93D0
100
AcDbEntity
  8
1
  6
Continuous
100
AcDbLine
 10
143.2896399999999
 20
161.935
 30
0.0
 11
144.2896399999999
 21
161.935
 31
0.0
  0
LINE
  5
9404
330
93D0
100
AcDbEntity
  8
1
  6
Continuous
100
AcDbLine
 10
143.2896399999999
 20
161.935
 30
0.0
 11
142.2896399999999
 21
160.935
 31
0.0
  0
LINE
  5
9405
330
93D0
100
AcDbEntity
  8
1
  6
Continuous
100
AcDbLine
 10
142.2896399999999
 20
45.9352
 30
0.0
 11
143.2896399999999
 21
44.9352
 31
0.0
  0
LINE
  5
9406
330
93D0
100
AcDbEntity
  8
4
  6
CENTER
100
AcDbLine
 10
27.54234
 20
168.8378919999999
 30
0.0
 11
27.54234
 21
37.355
 31
0.0
  0
LINE
  5
9407
330
93D0
100
AcDbEntity
  8
1
  6
Continuous
100
AcDbLine
 10
37.04234
 20
130.435
 30
0.0
 11
37.04234
 21
57.9352
 31
0.0
  0
LINE
  5
9408
330
93D0
100
AcDbEntity
  8
1
  6
Continuous
100
AcDbLine
 10
18.04234
 20
130.435
 30
0.0
 11
18.04234
 21
57.9352
 31
0.0
  0
LINE
  5
9409
330
93D0
100
AcDbEntity
  8
1
  6
Continuous
100
AcDbLine
 10
18.04234
 20
130.435
 30
0.0
 11
37.04234
 21
130.435
 31
0.0
  0
LINE
  5
940A
330
93D0
100
AcDbEntity
  8
1
  6
Continuous
100
AcDbLine
 10
18.04234
 20
57.9352
 30
0.0
 11
37.04234
 21
57.9352
 31
0.0
  0
LINE
  5
940B
330
93D0
100
AcDbEntity
  8
1
  6
Continuous
100
AcDbLine
 10
18.14234
 20
58.0352
 30
0.0
 11
36.94234
 21
58.0352
 31
0.0
  0
LINE
  5
940C
330
93D0
100
AcDbEntity
  8
1
  6
Continuous
100
AcDbLine
 10
18.14234
 20
129.935
 30
0.0
 11
18.14234
 21
58.0352
 31
0.0
  0
LINE
  5
940D
330
93D0
100
AcDbEntity
  8
1
  6
Continuous
100
AcDbLine
 10
36.94234
 20
129.935
 30
0.0
 11
36.94234
 21
58.0352
 31
0.0
  0
LINE
  5
940E
330
93D0
100
AcDbEntity
  8
1
  6
Continuous
100
AcDbLine
 10
18.14234
 20
129.935
 30
0.0
 11
36.94234
 21
129.935
 31
0.0
  0
LINE
  5
940F
330
93D0
100
AcDbEntity
  8
1
  6
Continuous
100
AcDbLine
 10
18.14234
 20
129.435
 30
0.0
 11
36.94234
 21
129.435
 31
0.0
  0
LINE
  5
9410
330
93D0
100
AcDbEntity
  8
1
  6
Continuous
100
AcDbLine
 10
22.29233999999999
 20
130.435
 30
0.0
 11
22.29233999999999
 21
129.935
 31
0.0
  0
LINE
  5
9411
330
93D0
100
AcDbEntity
  8
1
  6
Continuous
100
AcDbLine
 10
32.79234000000001
 20
130.435
 30
0.0
 11
32.79234000000001
 21
129.935
 31
0.0
  0
LINE
  5
9412
330
93D0
100
AcDbEntity
  8
1
  6
Continuous
100
AcDbLine
 10
19.99233999999999
 20
147.9349999999998
 30
0.0
 11
35.09234
 21
147.9349999999998
 31
0.0
  0
LINE
  5
9413
330
93D0
100
AcDbEntity
  8
1
  6
Continuous
100
AcDbLine
 10
19.99233999999999
 20
137.6349999999999
 30
0.0
 11
35.09234
 21
137.6349999999999
 31
0.0
  0
LINE
  5
9414
330
93D0
100
AcDbEntity
  8
1
  6
Continuous
100
AcDbLine
 10
35.09234
 20
147.9349999999998
 30
0.0
 11
35.09234
 21
137.6349999999999
 31
0.0
  0
LINE
  5
9415
330
93D0
100
AcDbEntity
  8
1
  6
Continuous
100
AcDbLine
 10
19.99233999999999
 20
147.9349999999998
 30
0.0
 11
19.99233999999999
 21
137.6349999999999
 31
0.0
  0
LINE
  5
9416
330
93D0
100
AcDbEntity
  8
1
  6
Continuous
100
AcDbLine
 10
37.09234
 20
149.9349999999998
 30
0.0
 11
37.09234
 21
135.6349999999999
 31
0.0
  0
LINE
  5
9417
330
93D0
100
AcDbEntity
  8
1
  6
Continuous
100
AcDbLine
 10
17.99234
 20
149.9349999999998
 30
0.0
 11
37.09234
 21
149.9349999999998
 31
0.0
  0
LINE
  5
9418
330
93D0
100
AcDbEntity
  8
1
  6
Continuous
100
AcDbLine
 10
17.99234
 20
135.6349999999999
 30
0.0
 11
37.09234
 21
135.6349999999999
 31
0.0
  0
LINE
  5
9419
330
93D0
100
AcDbEntity
  8
1
  6
Continuous
100
AcDbLine
 10
17.99234
 20
149.9349999999998
 30
0.0
 11
17.99234
 21
135.6349999999999
 31
0.0
  0
LINE
  5
941A
330
93D0
100
AcDbEntity
  8
1
  6
Continuous
100
AcDbLine
 10
35.09234
 20
137.6349999999999
 30
0.0
 11
37.09234
 21
135.6349999999999
 31
0.0
  0
LINE
  5
941B
330
93D0
100
AcDbEntity
  8
1
  6
Continuous
100
AcDbLine
 10
37.09234
 20
149.9349999999998
 30
0.0
 11
35.09234
 21
147.9349999999998
 31
0.0
  0
LINE
  5
941C
330
93D0
100
AcDbEntity
  8
1
  6
Continuous
100
AcDbLine
 10
17.99234
 20
149.9349999999998
 30
0.0
 11
19.99233999999999
 21
147.9349999999998
 31
0.0
  0
LINE
  5
941D
330
93D0
100
AcDbEntity
  8
1
  6
Continuous
100
AcDbLine
 10
19.99233999999999
 20
137.6349999999999
 30
0.0
 11
17.99234
 21
135.6349999999999
 31
0.0
  0
LINE
  5
941E
330
93D0
100
AcDbEntity
  8
4
  6
CENTER
100
AcDbLine
 10
18.54344
 20
68.43519999999999
 30
0.0
 11
36.67924
 21
68.43519999999999
 31
0.0
  0
LINE
  5
941F
330
93D0
100
AcDbEntity
  8
1
  6
Continuous
100
AcDbLine
 10
26.49233999999999
 20
71.93519999999998
 30
0.0
 11
26.49233999999999
 21
64.9352
 31
0.0
  0
LINE
  5
9420
330
93D0
100
AcDbEntity
  8
1
  6
Continuous
100
AcDbLine
 10
28.59234000000001
 20
71.93519999999998
 30
0.0
 11
28.59234000000001
 21
64.9352
 31
0.0
  0
LINE
  5
9421
330
93D0
100
AcDbEntity
  8
1
  6
Continuous
100
AcDbLine
 10
26.49233999999999
 20
71.93519999999998
 30
0.0
 11
28.59234000000001
 21
71.93519999999998
 31
0.0
  0
LINE
  5
9422
330
93D0
100
AcDbEntity
  8
1
  6
Continuous
100
AcDbLine
 10
26.49233999999999
 20
64.9352
 30
0.0
 11
28.59234000000001
 21
64.9352
 31
0.0
  0
LINE
  5
9423
330
93D0
100
AcDbEntity
  8
1
  6
Continuous
100
AcDbLine
 10
148.28964
 20
235.284
 30
0.0
 11
148.28964
 21
229.2839999999999
 31
0.0
  0
LINE
  5
9424
330
93D0
100
AcDbEntity
  8
4
  6
CENTER
100
AcDbLine
 10
140.2816399999998
 20
155.935
 30
0.0
 11
151.1656399999999
 21
155.935
 31
0.0
  0
LINE
  5
9425
330
93D0
100
AcDbEntity
  8
1
  6
Continuous
100
AcDbLine
 10
144.2896399999999
 20
228.784
 30
0.0
 11
148.28964
 21
229.2839999999999
 31
0.0
  0
LINE
  5
9426
330
93D0
100
AcDbEntity
  8
1
  6
Continuous
100
AcDbLine
 10
144.2896399999999
 20
235.7839999999999
 30
0.0
 11
148.28964
 21
235.284
 31
0.0
  0
LINE
  5
9427
330
93D0
100
AcDbEntity
  8
1
  6
Continuous
100
AcDbLine
 10
144.2896399999999
 20
54.4352
 30
0.0
 11
148.28964
 21
53.9352
 31
0.0
  0
LINE
  5
9428
330
93D0
100
AcDbEntity
  8
4
  6
CENTER
100
AcDbLine
 10
140.2816399999998
 20
50.9352
 30
0.0
 11
151.1656399999999
 21
50.9352
 31
0.0
  0
LINE
  5
9429
330
93D0
100
AcDbEntity
  8
1
  6
Continuous
100
AcDbLine
 10
148.28964
 20
53.9352
 30
0.0
 11
148.28964
 21
47.9352
 31
0.0
  0
LINE
  5
942A
330
93D0
100
AcDbEntity
  8
1
  6
Continuous
100
AcDbLine
 10
144.2896399999999
 20
47.4352
 30
0.0
 11
148.28964
 21
47.9352
 31
0.0
  0
LINE
  5
942B
330
93D0
100
AcDbEntity
  8
1
  6
Continuous
100
AcDbLine
 10
144.2896399999999
 20
150.9349999999998
 30
0.0
 11
158.58964
 21
150.9349999999998
 31
0.0
  0
LINE
  5
942C
330
93D0
100
AcDbEntity
  8
4
  6
CENTER
100
AcDbLine
 10
146.7896399999998
 20
129.655
 30
0.0
 11
146.7896399999998
 21
122.209
 31
0.0
  0
LINE
  5
942D
330
93D0
100
AcDbEntity
  8
1
  6
Continuous
100
AcDbLine
 10
144.2896399999999
 20
55.9352
 30
0.0
 11
146.7896399999998
 21
55.9352
 31
0.0
  0
LINE
  5
942E
330
93D0
100
AcDbEntity
  8
1
  6
Continuous
100
AcDbLine
 10
153.28964
 20
98.9352
 30
0.0
 11
153.28964
 21
56.2376
 31
0.0
  0
LINE
  5
942F
330
93D0
100
AcDbEntity
  8
1
  6
Continuous
100
AcDbLine
 10
153.28964
 20
98.9352
 30
0.0
 11
156.2896399999999
 21
98.9352
 31
0.0
  0
LINE
  5
9430
330
93D0
100
AcDbEntity
  8
1
  6
Continuous
100
AcDbLine
 10
153.28964
 20
81.43519999999998
 30
0.0
 11
163.2896399999999
 21
81.43519999999998
 31
0.0
  0
LINE
  5
9431
330
93D0
100
AcDbEntity
  8
1
  6
Continuous
100
AcDbLine
 10
167.2896399999999
 20
77.43519999999998
 30
0.0
 11
167.2896399999999
 21
62.031
 31
0.0
  0
LINE
  5
9432
330
93D0
100
AcDbEntity
  8
1
  6
Continuous
100
AcDbLine
 10
298.0366399999999
 20
161.935
 30
0.0
 11
298.0366399999999
 21
150.9349999999998
 31
0.0
  0
LINE
  5
9433
330
93D0
100
AcDbEntity
  8
1
  6
Continuous
100
AcDbLine
 10
298.0366399999999
 20
161.935
 30
0.0
 11
270.0366399999999
 21
161.935
 31
0.0
  0
LINE
  5
9434
330
93D0
100
AcDbEntity
  8
1
  6
Continuous
100
AcDbLine
 10
270.0366399999999
 20
161.935
 30
0.0
 11
270.0366399999999
 21
150.9349999999998
 31
0.0
  0
LINE
  5
9435
330
93D0
100
AcDbEntity
  8
4
  6
CENTER
100
AcDbLine
 10
284.0366399999999
 20
168.8378919999999
 30
0.0
 11
284.0366399999999
 21
37.355
 31
0.0
  0
LINE
  5
9436
330
93D0
100
AcDbEntity
  8
1
  6
Continuous
100
AcDbLine
 10
298.0366399999999
 20
44.9352
 30
0.0
 11
270.0366399999999
 21
44.9352
 31
0.0
  0
LINE
  5
9437
330
93D0
100
AcDbEntity
  8
1
  6
Continuous
100
AcDbLine
 10
295.5366399999999
 20
115.935
 30
0.0
 11
295.5366399999999
 21
55.9352
 31
0.0
  0
LINE
  5
9438
330
93D0
100
AcDbEntity
  8
1
  6
Continuous
100
AcDbLine
 10
272.5366399999999
 20
115.935
 30
0.0
 11
272.5366399999999
 21
55.9352
 31
0.0
  0
LINE
  5
9439
330
93D0
100
AcDbEntity
  8
5
  6
PHANTOM
100
AcDbLine
 10
314.4276399999998
 20
122.3999999999999
 30
0.0
 11
286.1426399999999
 21
150.6839999999999
 31
0.0
  0
LINE
  5
943A
330
93D0
100
AcDbEntity
  8
1
  6
Continuous
100
AcDbLine
 10
295.5366399999999
 20
55.9352
 30
0.0
 11
272.5366399999999
 21
55.9352
 31
0.0
  0
LINE
  5
943B
330
93D0
100
AcDbEntity
  8
1
  6
Continuous
100
AcDbLine
 10
295.5366399999999
 20
81.43519999999998
 30
0.0
 11
272.5366399999999
 21
81.43519999999998
 31
0.0
  0
LINE
  5
943C
330
93D0
100
AcDbEntity
  8
1
  6
Continuous
100
AcDbLine
 10
274.5366399999999
 20
59.0042
 30
0.0
 11
293.5366399999999
 21
59.0042
 31
0.0
  0
LINE
  5
943D
330
93D0
100
AcDbEntity
  8
5
  6
PHANTOM
100
AcDbLine
 10
250.7876399999999
 20
157.755
 30
0.0
 11
243.7166399999999
 21
150.6839999999999
 31
0.0
  0
LINE
  5
943E
330
93D0
100
AcDbEntity
  8
5
  6
PHANTOM
100
AcDbLine
 10
325.03364
 20
76.4377
 30
0.0
 11
321.4986399999999
 21
72.90219999999997
 31
0.0
  0
LINE
  5
943F
330
93D0
100
AcDbEntity
  8
5
  6
PHANTOM
100
AcDbLine
 10
243.7166399999999
 20
143.613
 30
0.0
 11
314.4276399999998
 21
72.90219999999997
 31
0.0
  0
LINE
  5
9440
330
93D0
100
AcDbEntity
  8
5
  6
PHANTOM
100
AcDbLine
 10
257.8586399999999
 20
157.755
 30
0.0
 11
268.46564
 21
147.1479999999999
 31
0.0
  0
LINE
  5
9441
330
93D0
100
AcDbEntity
  8
5
  6
PHANTOM
100
AcDbLine
 10
325.03364
 20
90.5798
 30
0.0
 11
325.03364
 21
76.4377
 31
0.0
  0
LINE
  5
9442
330
93D0
100
AcDbEntity
  8
4
  6
CENTER
100
AcDbLine
 10
306.7066399999998
 20
146.0099999999999
 30
0.0
 11
301.70664
 21
146.0099999999999
 31
0.0
  0
LINE
  5
9443
330
93D0
100
AcDbEntity
  8
4
  6
CENTER
100
AcDbLine
 10
304.2066399999999
 20
148.5099999999999
 30
0.0
 11
304.2066399999999
 21
143.51
 31
0.0
  0
LINE
  5
9444
330
93D0
100
AcDbEntity
  8
5
  6
PHANTOM
100
AcDbLine
 10
279.0716399999999
 20
150.6839999999999
 30
0.0
 11
275.5366399999999
 21
147.1479999999999
 31
0.0
  0
LINE
  5
9445
330
93D0
100
AcDbEntity
  8
5
  6
PHANTOM
100
AcDbLine
 10
310.89164
 20
104.722
 30
0.0
 11
325.03364
 21
90.5798
 31
0.0
  0
LINE
  5
9446
330
93D0
100
AcDbEntity
  8
5
  6
PHANTOM
100
AcDbLine
 10
314.4276399999998
 20
115.3289999999998
 30
0.0
 11
310.89164
 21
111.7929999999999
 31
0.0
  0
LINE
  5
9447
330
93D0
100
AcDbEntity
  8
4
  6
CENTER
100
AcDbLine
 10
240.5366399999998
 20
128.435
 30
0.0
 11
240.5366399999998
 21
123.435
 31
0.0
  0
LINE
  5
9448
330
93D0
100
AcDbEntity
  8
1
  6
Continuous
100
AcDbLine
 10
270.0366399999999
 20
115.935
 30
0.0
 11
270.0366399999999
 21
44.9352
 31
0.0
  0
LINE
  5
9449
330
93D0
100
AcDbEntity
  8
1
  6
Continuous
100
AcDbLine
 10
298.0366399999999
 20
115.935
 30
0.0
 11
298.0366399999999
 21
44.9352
 31
0.0
  0
LINE
  5
944A
330
93D0
100
AcDbEntity
  8
1
  6
Continuous
100
AcDbLine
 10
283.3726399999998
 20
124.9349999999999
 30
0.0
 11
285.30464
 21
124.9349999999999
 31
0.0
  0
LINE
  5
944B
330
93D0
100
AcDbEntity
  8
1
  6
Continuous
100
AcDbLine
 10
279.1136399999999
 20
133.4729999999999
 30
0.0
 11
281.57664
 21
135.935
 31
0.0
  0
LINE
  5
944C
330
93D0
100
AcDbEntity
  8
1
  6
Continuous
100
AcDbLine
 10
286.7186399999998
 20
125.5209999999999
 30
0.0
 11
288.0346399999999
 21
126.8359999999999
 31
0.0
  0
LINE
  5
944D
330
93D0
100
AcDbEntity
  8
1
  6
Continuous
100
AcDbLine
 10
281.57664
 20
135.935
 30
0.0
 11
284.25764
 21
135.935
 31
0.0
  0
LINE
  5
944E
330
93D0
100
AcDbEntity
  8
1
  6
Continuous
100
AcDbLine
 10
240.5366399999998
 20
135.935
 30
0.0
 11
255.53664
 21
135.935
 31
0.0
  0
LINE
  5
944F
330
93D0
100
AcDbEntity
  8
1
  6
Continuous
100
AcDbLine
 10
260.5366399999999
 20
145.935
 30
0.0
 11
260.5366399999999
 21
140.935
 31
0.0
  0
LINE
  5
9450
330
93D0
100
AcDbEntity
  8
1
  6
Continuous
100
AcDbLine
 10
305.53664
 20
150.9349999999998
 30
0.0
 11
265.5366399999999
 21
150.9349999999998
 31
0.0
  0
LINE
  5
9451
330
93D0
100
AcDbEntity
  8
1
  6
Continuous
100
AcDbLine
 10
310.5366399999998
 20
145.935
 30
0.0
 11
310.5366399999998
 21
140.935
 31
0.0
  0
LINE
  5
9452
330
93D0
100
AcDbEntity
  8
1
  6
Continuous
100
AcDbLine
 10
315.5366399999999
 20
135.935
 30
0.0
 11
335.5366399999998
 21
135.935
 31
0.0
  0
LINE
  5
9453
330
93D0
100
AcDbEntity
  8
1
  6
Continuous
100
AcDbLine
 10
335.5366399999998
 20
135.935
 30
0.0
 11
345.5366399999999
 21
125.9349999999999
 31
0.0
  0
LINE
  5
9454
330
93D0
100
AcDbEntity
  8
1
  6
Continuous
100
AcDbLine
 10
345.5366399999999
 20
125.9349999999999
 30
0.0
 11
345.5366399999999
 21
120.935
 31
0.0
  0
LINE
  5
9455
330
93D0
100
AcDbEntity
  8
1
  6
Continuous
100
AcDbLine
 10
240.5366399999998
 20
115.935
 30
0.0
 11
340.5366399999999
 21
115.935
 31
0.0
  0
LINE
  5
9456
330
93D0
100
AcDbEntity
  8
1
  6
Continuous
100
AcDbLine
 10
235.5366399999998
 20
130.935
 30
0.0
 11
235.5366399999998
 21
120.935
 31
0.0
  0
LINE
  5
9457
330
93D0
100
AcDbEntity
  8
1
  6
Continuous
100
AcDbLine
 10
295.5366399999999
 20
98.9352
 30
0.0
 11
272.5366399999999
 21
98.9352
 31
0.0
  0
LINE
  5
9458
330
93D0
100
AcDbEntity
  8
1
  6
Continuous
100
AcDbLine
 10
293.5366399999999
 20
100.9349999999999
 30
0.0
 11
274.5366399999999
 21
100.9349999999999
 31
0.0
  0
LINE
  5
9459
330
93D0
100
AcDbEntity
  8
1
  6
Continuous
100
AcDbLine
 10
293.5366399999999
 20
115.935
 30
0.0
 11
293.5366399999999
 21
100.9349999999999
 31
0.0
  0
LINE
  5
945A
330
93D0
100
AcDbEntity
  8
1
  6
Continuous
100
AcDbLine
 10
274.5366399999999
 20
115.935
 30
0.0
 11
274.5366399999999
 21
100.9349999999999
 31
0.0
  0
LINE
  5
945B
330
93D0
100
AcDbEntity
  8
1
  6
Continuous
100
AcDbLine
 10
276.2076399999999
 20
125.2639999999999
 30
0.0
 11
276.7146399999999
 21
125.5
 31
0.0
  0
LINE
  5
945C
330
93D0
100
AcDbEntity
  8
1
  6
Continuous
100
AcDbLine
 10
276.7146399999999
 20
125.5
 30
0.0
 11
277.5936399999998
 21
125.5149999999999
 31
0.0
  0
LINE
  5
945D
330
93D0
100
AcDbEntity
  8
1
  6
Continuous
100
AcDbLine
 10
276.7146399999999
 20
126.371
 30
0.0
 11
277.5936399999998
 21
126.355
 31
0.0
  0
LINE
  5
945E
330
93D0
100
AcDbEntity
  8
1
  6
Continuous
100
AcDbLine
 10
276.2076399999999
 20
126.607
 30
0.0
 11
276.7146399999999
 21
126.371
 31
0.0
  0
LINE
  5
945F
330
93D0
100
AcDbEntity
  8
1
  6
Continuous
100
AcDbLine
 10
274.86464
 20
126.607
 30
0.0
 11
275.1016399999999
 21
127.1139999999999
 31
0.0
  0
LINE
  5
9460
330
93D0
100
AcDbEntity
  8
1
  6
Continuous
100
AcDbLine
 10
275.10064
 20
127.1139999999999
 30
0.0
 11
275.11664
 21
127.993
 31
0.0
  0
LINE
  5
9461
330
93D0
100
AcDbEntity
  8
1
  6
Continuous
100
AcDbLine
 10
275.9716399999999
 20
127.1139999999999
 30
0.0
 11
275.95664
 21
127.993
 31
0.0
  0
LINE
  5
9462
330
93D0
100
AcDbEntity
  8
1
  6
Continuous
100
AcDbLine
 10
276.20864
 20
126.607
 30
0.0
 11
275.9716399999999
 21
127.1139999999999
 31
0.0
  0
LINE
  5
9463
330
93D0
100
AcDbEntity
  8
1
  6
Continuous
100
AcDbLine
 10
274.86464
 20
125.2639999999999
 30
0.0
 11
274.3586399999999
 21
125.5
 31
0.0
  0
LINE
  5
9464
330
93D0
100
AcDbEntity
  8
1
  6
Continuous
100
AcDbLine
 10
274.3586399999999
 20
125.5
 30
0.0
 11
273.4786399999999
 21
125.5149999999999
 31
0.0
  0
LINE
  5
9465
330
93D0
100
AcDbEntity
  8
1
  6
Continuous
100
AcDbLine
 10
274.35764
 20
126.371
 30
0.0
 11
273.4786399999999
 21
126.355
 31
0.0
  0
LINE
  5
9466
330
93D0
100
AcDbEntity
  8
1
  6
Continuous
100
AcDbLine
 10
274.86464
 20
126.607
 30
0.0
 11
274.3586399999999
 21
126.371
 31
0.0
  0
LINE
  5
9467
330
93D0
100
AcDbEntity
  8
1
  6
Continuous
100
AcDbLine
 10
276.2076399999999
 20
125.2639999999999
 30
0.0
 11
275.9716399999999
 21
124.757
 31
0.0
  0
LINE
  5
9468
330
93D0
100
AcDbEntity
  8
1
  6
Continuous
100
AcDbLine
 10
275.9716399999999
 20
124.757
 30
0.0
 11
275.95664
 21
123.8779999999999
 31
0.0
  0
LINE
  5
9469
330
93D0
100
AcDbEntity
  8
1
  6
Continuous
100
AcDbLine
 10
275.10064
 20
124.757
 30
0.0
 11
275.11664
 21
123.8779999999999
 31
0.0
  0
LINE
  5
946A
330
93D0
100
AcDbEntity
  8
1
  6
Continuous
100
AcDbLine
 10
274.86464
 20
125.2639999999999
 30
0.0
 11
275.1016399999999
 21
124.757
 31
0.0
  0
LINE
  5
946B
330
93D0
100
AcDbEntity
  8
4
  6
CENTER
100
AcDbLine
 10
275.5366399999999
 20
131.435
 30
0.0
 11
275.5366399999999
 21
120.435
 31
0.0
  0
LINE
  5
946C
330
93D0
100
AcDbEntity
  8
1
  6
Continuous
100
AcDbLine
 10
293.2076399999999
 20
125.2639999999999
 30
0.0
 11
293.7146399999999
 21
125.5
 31
0.0
  0
LINE
  5
946D
330
93D0
100
AcDbEntity
  8
1
  6
Continuous
100
AcDbLine
 10
293.7146399999999
 20
125.5
 30
0.0
 11
294.5936399999999
 21
125.5149999999999
 31
0.0
  0
LINE
  5
946E
330
93D0
100
AcDbEntity
  8
1
  6
Continuous
100
AcDbLine
 10
293.7146399999999
 20
126.371
 30
0.0
 11
294.5936399999999
 21
126.355
 31
0.0
  0
LINE
  5
946F
330
93D0
100
AcDbEntity
  8
1
  6
Continuous
100
AcDbLine
 10
293.2076399999999
 20
126.607
 30
0.0
 11
293.7146399999999
 21
126.371
 31
0.0
  0
LINE
  5
9470
330
93D0
100
AcDbEntity
  8
1
  6
Continuous
100
AcDbLine
 10
291.86464
 20
126.607
 30
0.0
 11
292.1006399999999
 21
127.1139999999999
 31
0.0
  0
LINE
  5
9471
330
93D0
100
AcDbEntity
  8
1
  6
Continuous
100
AcDbLine
 10
292.1016399999999
 20
127.1139999999999
 30
0.0
 11
292.11664
 21
127.993
 31
0.0
  0
LINE
  5
9472
330
93D0
100
AcDbEntity
  8
1
  6
Continuous
100
AcDbLine
 10
292.9716399999999
 20
127.1139999999999
 30
0.0
 11
292.95664
 21
127.993
 31
0.0
  0
LINE
  5
9473
330
93D0
100
AcDbEntity
  8
1
  6
Continuous
100
AcDbLine
 10
293.2076399999999
 20
126.607
 30
0.0
 11
292.9716399999999
 21
127.1139999999999
 31
0.0
  0
LINE
  5
9474
330
93D0
100
AcDbEntity
  8
1
  6
Continuous
100
AcDbLine
 10
291.86464
 20
125.2639999999999
 30
0.0
 11
291.3586399999999
 21
125.5
 31
0.0
  0
LINE
  5
9475
330
93D0
100
AcDbEntity
  8
1
  6
Continuous
100
AcDbLine
 10
291.3586399999999
 20
125.5
 30
0.0
 11
290.4786399999998
 21
125.5149999999999
 31
0.0
  0
LINE
  5
9476
330
93D0
100
AcDbEntity
  8
1
  6
Continuous
100
AcDbLine
 10
291.35764
 20
126.371
 30
0.0
 11
290.4786399999998
 21
126.355
 31
0.0
  0
LINE
  5
9477
330
93D0
100
AcDbEntity
  8
1
  6
Continuous
100
AcDbLine
 10
291.86464
 20
126.607
 30
0.0
 11
291.3586399999999
 21
126.371
 31
0.0
  0
LINE
  5
9478
330
93D0
100
AcDbEntity
  8
1
  6
Continuous
100
AcDbLine
 10
293.2076399999999
 20
125.2639999999999
 30
0.0
 11
292.9716399999999
 21
124.757
 31
0.0
  0
LINE
  5
9479
330
93D0
100
AcDbEntity
  8
1
  6
Continuous
100
AcDbLine
 10
292.9716399999999
 20
124.757
 30
0.0
 11
292.95664
 21
123.8779999999999
 31
0.0
  0
LINE
  5
947A
330
93D0
100
AcDbEntity
  8
1
  6
Continuous
100
AcDbLine
 10
292.1006399999999
 20
124.757
 30
0.0
 11
292.11664
 21
123.8779999999999
 31
0.0
  0
LINE
  5
947B
330
93D0
100
AcDbEntity
  8
1
  6
Continuous
100
AcDbLine
 10
291.86464
 20
125.2639999999999
 30
0.0
 11
292.1016399999999
 21
124.757
 31
0.0
  0
LINE
  5
947C
330
93D0
100
AcDbEntity
  8
4
  6
CENTER
100
AcDbLine
 10
292.5366399999999
 20
131.435
 30
0.0
 11
292.5366399999999
 21
120.435
 31
0.0
  0
LINE
  5
947D
330
93D0
100
AcDbEntity
  8
1
  6
Continuous
100
AcDbLine
 10
156.2896399999999
 20
115.935
 30
0.0
 11
158.58964
 21
115.935
 31
0.0
  0
LINE
  5
947E
330
93D0
100
AcDbEntity
  8
1
  6
Continuous
100
AcDbLine
 10
158.58964
 20
150.9349999999998
 30
0.0
 11
158.58964
 21
115.935
 31
0.0
  0
LINE
  5
947F
330
93D0
100
AcDbEntity
  8
1
  6
Continuous
100
AcDbLine
 10
142.2896399999999
 20
245.284
 30
0.0
 11
142.2896399999999
 21
219.2839999999999
 31
0.0
  0
LINE
  5
9480
330
93D0
100
AcDbEntity
  8
1
  6
Continuous
100
AcDbLine
 10
144.2896399999999
 20
246.2839999999999
 30
0.0
 11
144.2896399999999
 21
218.284
 31
0.0
  0
LINE
  5
9481
330
93D0
100
AcDbEntity
  8
1
  6
Continuous
100
AcDbLine
 10
143.2896399999999
 20
246.2839999999999
 30
0.0
 11
143.2896399999999
 21
218.284
 31
0.0
  0
LINE
  5
9482
330
93D0
100
AcDbEntity
  8
4
  6
CENTER
100
AcDbLine
 10
134.94564
 20
232.2839999999999
 30
0.0
 11
171.6336399999998
 21
232.2839999999999
 31
0.0
  0
LINE
  5
9483
330
93D0
100
AcDbEntity
  8
1
  6
Continuous
100
AcDbLine
 10
143.2896399999999
 20
218.284
 30
0.0
 11
144.2896399999999
 21
218.284
 31
0.0
  0
LINE
  5
9484
330
93D0
100
AcDbEntity
  8
1
  6
Continuous
100
AcDbLine
 10
143.2896399999999
 20
246.2839999999999
 30
0.0
 11
144.2896399999999
 21
246.2839999999999
 31
0.0
  0
LINE
  5
9485
330
93D0
100
AcDbEntity
  8
1
  6
Continuous
100
AcDbLine
 10
142.2896399999999
 20
219.2839999999999
 30
0.0
 11
143.2896399999999
 21
218.284
 31
0.0
  0
LINE
  5
9486
330
93D0
100
AcDbEntity
  8
1
  6
Continuous
100
AcDbLine
 10
143.2896399999999
 20
246.2839999999999
 30
0.0
 11
142.2896399999999
 21
245.284
 31
0.0
  0
LINE
  5
9487
330
93D0
100
AcDbEntity
  8
1
  6
Continuous
100
AcDbLine
 10
144.2896399999999
 20
243.784
 30
0.0
 11
156.2896399999999
 21
243.784
 31
0.0
  0
LINE
  5
9488
330
93D0
100
AcDbEntity
  8
1
  6
Continuous
100
AcDbLine
 10
144.2896399999999
 20
220.784
 30
0.0
 11
156.2896399999999
 21
220.784
 31
0.0
  0
LINE
  5
9489
330
93D0
100
AcDbEntity
  8
1
  6
Continuous
100
AcDbLine
 10
156.2896399999999
 20
293.7839999999998
 30
0.0
 11
158.58964
 21
293.7839999999998
 31
0.0
  0
LINE
  5
948A
330
93D0
100
AcDbEntity
  8
1
  6
Continuous
100
AcDbLine
 10
156.2896399999999
 20
183.7839999999999
 30
0.0
 11
158.58964
 21
183.7839999999999
 31
0.0
  0
LINE
  5
948B
330
93D0
100
AcDbEntity
  8
1
  6
Continuous
100
AcDbLine
 10
158.58964
 20
293.7839999999998
 30
0.0
 11
158.58964
 21
183.7839999999999
 31
0.0
  0
LINE
  5
948C
330
93D0
100
AcDbEntity
  8
1
  6
Continuous
100
AcDbLine
 10
167.2896399999999
 20
242.0339999999999
 30
0.0
 11
167.2896399999999
 21
222.534
 31
0.0
  0
LINE
  5
948D
330
93D0
100
AcDbEntity
  8
1
  6
Continuous
100
AcDbLine
 10
156.2896399999999
 20
150.9349999999998
 30
0.0
 11
156.2896399999999
 21
98.9352
 31
0.0
  0
LINE
  5
948E
330
93D0
100
AcDbEntity
  8
1
  6
Continuous
100
AcDbLine
 10
159.38964
 20
130.435
 30
0.0
 11
159.38964
 21
121.435
 31
0.0
  0
LINE
  5
948F
330
93D0
100
AcDbEntity
  8
1
  6
Continuous
100
AcDbLine
 10
158.58964
 20
130.435
 30
0.0
 11
159.38964
 21
130.435
 31
0.0
  0
LINE
  5
9490
330
93D0
100
AcDbEntity
  8
1
  6
Continuous
100
AcDbLine
 10
158.58964
 20
121.435
 30
0.0
 11
159.38964
 21
121.435
 31
0.0
  0
LINE
  5
9491
330
93D0
100
AcDbEntity
  8
1
  6
Continuous
100
AcDbLine
 10
160.3896399999999
 20
129.735
 30
0.0
 11
160.3896399999999
 21
122.135
 31
0.0
  0
LINE
  5
9492
330
93D0
100
AcDbEntity
  8
1
  6
Continuous
100
AcDbLine
 10
159.38964
 20
129.735
 30
0.0
 11
160.3896399999999
 21
129.735
 31
0.0
  0
LINE
  5
9493
330
93D0
100
AcDbEntity
  8
1
  6
Continuous
100
AcDbLine
 10
159.38964
 20
122.135
 30
0.0
 11
160.3896399999999
 21
122.135
 31
0.0
  0
LINE
  5
9494
330
93D0
100
AcDbEntity
  8
1
  6
Continuous
100
AcDbLine
 10
159.38964
 20
126.151
 30
0.0
 11
160.3896399999999
 21
126.4189999999999
 31
0.0
  0
LINE
  5
9495
330
93D0
100
AcDbEntity
  8
1
  6
Continuous
100
AcDbLine
 10
159.38964
 20
125.451
 30
0.0
 11
160.3896399999999
 21
125.719
 31
0.0
  0
LINE
  5
9496
330
93D0
100
AcDbEntity
  8
1
  6
Continuous
100
AcDbLine
 10
161.5086399999999
 20
122.5329999999999
 30
0.0
 11
160.3896399999999
 21
122.435
 31
0.0
  0
LINE
  5
9497
330
93D0
100
AcDbEntity
  8
1
  6
Continuous
100
AcDbLine
 10
161.5086399999999
 20
129.3379999999999
 30
0.0
 11
160.3896399999999
 21
129.435
 31
0.0
  0
LINE
  5
9498
330
93D0
100
AcDbEntity
  8
4
  6
CENTER
100
AcDbLine
 10
152.8706399999999
 20
146.0099999999999
 30
0.0
 11
161.7926399999998
 21
146.0099999999999
 31
0.0
  0
LINE
  5
9499
330
93D0
100
AcDbEntity
  8
1
  6
Continuous
100
AcDbLine
 10
156.2896399999999
 20
293.7839999999998
 30
0.0
 11
156.2896399999999
 21
183.7839999999999
 31
0.0
  0
LINE
  5
949A
330
93D0
100
AcDbEntity
  8
4
  6
CENTER
100
AcDbLine
 10
153.8706399999998
 20
240.7839999999999
 30
0.0
 11
165.6386399999998
 21
240.7839999999999
 31
0.0
  0
LINE
  5
949B
330
93D0
100
AcDbEntity
  8
1
  6
Continuous
100
AcDbLine
 10
159.38964
 20
245.284
 30
0.0
 11
159.38964
 21
236.2839999999999
 31
0.0
  0
LINE
  5
949C
330
93D0
100
AcDbEntity
  8
1
  6
Continuous
100
AcDbLine
 10
158.58964
 20
245.284
 30
0.0
 11
159.38964
 21
245.284
 31
0.0
  0
LINE
  5
949D
330
93D0
100
AcDbEntity
  8
1
  6
Continuous
100
AcDbLine
 10
158.58964
 20
236.2839999999999
 30
0.0
 11
159.38964
 21
236.2839999999999
 31
0.0
  0
LINE
  5
949E
330
93D0
100
AcDbEntity
  8
1
  6
Continuous
100
AcDbLine
 10
160.3896399999999
 20
244.584
 30
0.0
 11
160.3896399999999
 21
236.9839999999999
 31
0.0
  0
LINE
  5
949F
330
93D0
100
AcDbEntity
  8
1
  6
Continuous
100
AcDbLine
 10
159.38964
 20
244.584
 30
0.0
 11
160.3896399999999
 21
244.584
 31
0.0
  0
LINE
  5
94A0
330
93D0
100
AcDbEntity
  8
1
  6
Continuous
100
AcDbLine
 10
159.38964
 20
236.9839999999999
 30
0.0
 11
160.3896399999999
 21
236.9839999999999
 31
0.0
  0
LINE
  5
94A1
330
93D0
100
AcDbEntity
  8
1
  6
Continuous
100
AcDbLine
 10
159.38964
 20
241.0
 30
0.0
 11
160.3896399999999
 21
241.2679999999999
 31
0.0
  0
LINE
  5
94A2
330
93D0
100
AcDbEntity
  8
1
  6
Continuous
100
AcDbLine
 10
159.38964
 20
240.3
 30
0.0
 11
160.3896399999999
 21
240.5679999999999
 31
0.0
  0
LINE
  5
94A3
330
93D0
100
AcDbEntity
  8
1
  6
Continuous
100
AcDbLine
 10
161.5086399999999
 20
237.382
 30
0.0
 11
160.3896399999999
 21
237.284
 31
0.0
  0
LINE
  5
94A4
330
93D0
100
AcDbEntity
  8
1
  6
Continuous
100
AcDbLine
 10
161.5086399999999
 20
244.1859999999998
 30
0.0
 11
160.3896399999999
 21
244.2839999999999
 31
0.0
  0
LINE
  5
94A5
330
93D0
100
AcDbEntity
  8
4
  6
CENTER
100
AcDbLine
 10
154.36864
 20
223.7839999999999
 30
0.0
 11
165.8046399999998
 21
223.7839999999999
 31
0.0
  0
LINE
  5
94A6
330
93D0
100
AcDbEntity
  8
1
  6
Continuous
100
AcDbLine
 10
159.38964
 20
228.2839999999999
 30
0.0
 11
159.38964
 21
219.2839999999999
 31
0.0
  0
LINE
  5
94A7
330
93D0
100
AcDbEntity
  8
1
  6
Continuous
100
AcDbLine
 10
158.58964
 20
228.2839999999999
 30
0.0
 11
159.38964
 21
228.2839999999999
 31
0.0
  0
LINE
  5
94A8
330
93D0
100
AcDbEntity
  8
1
  6
Continuous
100
AcDbLine
 10
158.58964
 20
219.2839999999999
 30
0.0
 11
159.38964
 21
219.2839999999999
 31
0.0
  0
LINE
  5
94A9
330
93D0
100
AcDbEntity
  8
1
  6
Continuous
100
AcDbLine
 10
160.3896399999999
 20
227.584
 30
0.0
 11
160.3896399999999
 21
219.984
 31
0.0
  0
LINE
  5
94AA
330
93D0
100
AcDbEntity
  8
1
  6
Continuous
100
AcDbLine
 10
159.38964
 20
227.584
 30
0.0
 11
160.3896399999999
 21
227.584
 31
0.0
  0
LINE
  5
94AB
330
93D0
100
AcDbEntity
  8
1
  6
Continuous
100
AcDbLine
 10
159.38964
 20
219.984
 30
0.0
 11
160.3896399999999
 21
219.984
 31
0.0
  0
LINE
  5
94AC
330
93D0
100
AcDbEntity
  8
1
  6
Continuous
100
AcDbLine
 10
159.38964
 20
224.0
 30
0.0
 11
160.3896399999999
 21
224.268
 31
0.0
  0
LINE
  5
94AD
330
93D0
100
AcDbEntity
  8
1
  6
Continuous
100
AcDbLine
 10
159.38964
 20
223.3
 30
0.0
 11
160.3896399999999
 21
223.5679999999999
 31
0.0
  0
LINE
  5
94AE
330
93D0
100
AcDbEntity
  8
1
  6
Continuous
100
AcDbLine
 10
161.5086399999999
 20
220.3819999999999
 30
0.0
 11
160.3896399999999
 21
220.284
 31
0.0
  0
LINE
  5
94AF
330
93D0
100
AcDbEntity
  8
1
  6
Continuous
100
AcDbLine
 10
161.5086399999999
 20
227.1859999999998
 30
0.0
 11
160.3896399999999
 21
227.2839999999999
 31
0.0
  0
LINE
  5
94B0
330
93D0
100
AcDbEntity
  8
4
  6
CENTER
100
AcDbLine
 10
300.8251
 20
125.9349999999999
 30
0.0
 11
267.095393
 21
125.9349999999999
 31
0.0
  0
LINE
  5
94B1
330
93D0
100
AcDbEntity
  8
4
  6
CENTER
100
AcDbLine
 10
187.70264
 20
232.2839999999999
 30
0.0
 11
198.9666399999999
 21
232.2839999999999
 31
0.0
  0
LINE
  5
94B2
330
93D0
100
AcDbEntity
  8
1
  6
Continuous
100
AcDbLine
 10
195.0256399999999
 20
236.084
 30
0.0
 11
195.0256399999999
 21
228.4839999999999
 31
0.0
  0
LINE
  5
94B3
330
93D0
100
AcDbEntity
  8
1
  6
Continuous
100
AcDbLine
 10
194.0256399999999
 20
236.084
 30
0.0
 11
195.0256399999999
 21
236.084
 31
0.0
  0
LINE
  5
94B4
330
93D0
100
AcDbEntity
  8
1
  6
Continuous
100
AcDbLine
 10
194.0256399999999
 20
228.4839999999999
 30
0.0
 11
195.0256399999999
 21
228.4839999999999
 31
0.0
  0
LINE
  5
94B5
330
93D0
100
AcDbEntity
  8
1
  6
Continuous
100
AcDbLine
 10
194.0256399999999
 20
232.5
 30
0.0
 11
195.0256399999999
 21
232.7679999999999
 31
0.0
  0
LINE
  5
94B6
330
93D0
100
AcDbEntity
  8
1
  6
Continuous
100
AcDbLine
 10
194.0256399999999
 20
231.8
 30
0.0
 11
195.0256399999999
 21
232.0679999999999
 31
0.0
  0
LINE
  5
94B7
330
93D0
100
AcDbEntity
  8
1
  6
Continuous
100
AcDbLine
 10
196.1456399999999
 20
228.882
 30
0.0
 11
195.0256399999999
 21
228.784
 31
0.0
  0
LINE
  5
94B8
330
93D0
100
AcDbEntity
  8
1
  6
Continuous
100
AcDbLine
 10
196.1456399999999
 20
235.6859999999998
 30
0.0
 11
195.0256399999999
 21
235.7839999999999
 31
0.0
  0
LINE
  5
94B9
330
93D0
100
AcDbEntity
  8
1
  6
Continuous
100
AcDbLine
 10
144.2896399999999
 20
159.435
 30
0.0
 11
148.28964
 21
158.935
 31
0.0
  0
LINE
  5
94BA
330
93D0
100
AcDbEntity
  8
1
  6
Continuous
100
AcDbLine
 10
148.28964
 20
158.935
 30
0.0
 11
148.28964
 21
152.9349999999998
 31
0.0
  0
LINE
  5
94BB
330
93D0
100
AcDbEntity
  8
1
  6
Continuous
100
AcDbLine
 10
144.2896399999999
 20
152.435
 30
0.0
 11
148.28964
 21
152.9349999999998
 31
0.0
  0
LINE
  5
94BC
330
93D0
100
AcDbEntity
  8
1
  6
Continuous
100
AcDbLine
 10
35.04234
 20
146.8849999999999
 30
0.0
 11
35.04234
 21
138.685
 31
0.0
  0
LINE
  5
94BD
330
93D0
100
AcDbEntity
  8
1
  6
Continuous
100
AcDbLine
 10
20.04233999999998
 20
146.8849999999999
 30
0.0
 11
20.04233999999998
 21
138.685
 31
0.0
  0
LINE
  5
94BE
330
93D0
100
AcDbEntity
  8
1
  6
Continuous
100
AcDbLine
 10
21.04233999999999
 20
147.8849999999999
 30
0.0
 11
34.04234000000001
 21
147.8849999999999
 31
0.0
  0
LINE
  5
94BF
330
93D0
100
AcDbEntity
  8
1
  6
Continuous
100
AcDbLine
 10
21.04233999999999
 20
137.685
 30
0.0
 11
34.04234000000001
 21
137.685
 31
0.0
  0
LINE
  5
94C0
330
93D0
100
AcDbEntity
  8
1
  6
Continuous
100
AcDbLine
 10
25.37584
 20
140.09
 30
0.0
 11
25.37584
 21
141.745
 31
0.0
  0
LINE
  5
94C1
330
93D0
100
AcDbEntity
  8
1
  6
Continuous
100
AcDbLine
 10
22.77553999999998
 20
141.186
 30
0.0
 11
22.77553999999998
 21
144.3829999999999
 31
0.0
  0
LINE
  5
94C2
330
93D0
100
AcDbEntity
  8
1
  6
Continuous
100
AcDbLine
 10
23.64284
 20
144.923
 30
0.0
 11
23.64284
 21
140.6479999999999
 31
0.0
  0
LINE
  5
94C3
330
93D0
100
AcDbEntity
  8
1
  6
Continuous
100
AcDbLine
 10
24.50844
 20
145.035
 30
0.0
 11
24.50844
 21
140.533
 31
0.0
  0
LINE
  5
94C4
330
93D0
100
AcDbEntity
  8
1
  6
Continuous
100
AcDbLine
 10
21.90824
 20
145.162
 30
0.0
 11
21.90824
 21
141.425
 31
0.0
  0
LINE
  5
94C5
330
93D0
100
AcDbEntity
  8
1
  6
Continuous
100
AcDbLine
 10
25.37584
 20
143.8249999999999
 30
0.0
 11
25.37584
 21
145.4789999999998
 31
0.0
  0
LINE
  5
94C6
330
93D0
100
AcDbEntity
  8
1
  6
Continuous
100
AcDbLine
 10
29.70893999999999
 20
140.338
 30
0.0
 11
29.70893999999999
 21
142.785
 31
0.0
  0
LINE
  5
94C7
330
93D0
100
AcDbEntity
  8
1
  6
Continuous
100
AcDbLine
 10
31.87464
 20
142.785
 30
0.0
 11
31.87464
 21
140.7059999999999
 31
0.0
  0
LINE
  5
94C8
330
93D0
100
AcDbEntity
  8
1
  6
Continuous
100
AcDbLine
 10
27.10864
 20
142.785
 30
0.0
 11
26.24134
 21
142.785
 31
0.0
  0
LINE
  5
94C9
330
93D0
100
AcDbEntity
  8
1
  6
Continuous
100
AcDbLine
 10
29.70893999999999
 20
142.785
 30
0.0
 11
29.27433999999999
 21
142.785
 31
0.0
  0
LINE
  5
94CA
330
93D0
100
AcDbEntity
  8
1
  6
Continuous
100
AcDbLine
 10
34.97444
 20
142.785
 30
0.0
 11
33.18354
 21
142.785
 31
0.0
  0
LINE
  5
94CB
330
93D0
100
AcDbEntity
  8
1
  6
Continuous
100
AcDbLine
 10
32.74893999999999
 20
141.1629999999999
 30
0.0
 11
33.72894
 21
144.815
 31
0.0
  0
LINE
  5
94CC
330
93D0
100
AcDbEntity
  8
1
  6
Continuous
100
AcDbLine
 10
26.24134
 20
145.735
 30
0.0
 11
26.24134
 21
139.833
 31
0.0
  0
LINE
  5
94CD
330
93D0
100
AcDbEntity
  8
1
  6
Continuous
100
AcDbLine
 10
27.10864
 20
145.8079999999999
 30
0.0
 11
27.10864
 21
139.761
 31
0.0
  0
LINE
  5
94CE
330
93D0
100
AcDbEntity
  8
1
  6
Continuous
100
AcDbLine
 10
27.97604
 20
145.8079999999999
 30
0.0
 11
27.97604
 21
139.761
 31
0.0
  0
LINE
  5
94CF
330
93D0
100
AcDbEntity
  8
1
  6
Continuous
100
AcDbLine
 10
28.84154
 20
145.6369999999998
 30
0.0
 11
28.84154
 21
139.9319999999999
 31
0.0
  0
LINE
  5
94D0
330
93D0
100
AcDbEntity
  8
1
  6
Continuous
100
AcDbLine
 10
30.57453999999999
 20
145.6329999999999
 30
0.0
 11
30.57453999999999
 21
140.2079999999999
 31
0.0
  0
LINE
  5
94D1
330
93D0
100
AcDbEntity
  8
1
  6
Continuous
100
AcDbLine
 10
29.70893999999999
 20
143.8249999999999
 30
0.0
 11
29.70893999999999
 21
145.2309999999999
 31
0.0
  0
LINE
  5
94D2
330
93D0
100
AcDbEntity
  8
1
  6
Continuous
100
AcDbLine
 10
31.44184
 20
145.225
 30
0.0
 11
31.44184
 21
143.2179999999999
 31
0.0
  0
LINE
  5
94D3
330
93D0
100
AcDbEntity
  8
1
  6
Continuous
100
AcDbLine
 10
32.30734
 20
143.2179999999999
 30
0.0
 11
32.30734
 21
145.0689999999999
 31
0.0
  0
LINE
  5
94D4
330
93D0
100
AcDbEntity
  8
1
  6
Continuous
100
AcDbLine
 10
139.2896399999999
 20
147.8849999999999
 30
0.0
 11
142.2896399999999
 21
147.8849999999999
 31
0.0
  0
LINE
  5
94D5
330
93D0
100
AcDbEntity
  8
1
  6
Continuous
100
AcDbLine
 10
139.2896399999999
 20
147.8849999999999
 30
0.0
 11
139.2896399999999
 21
138.735
 31
0.0
  0
LINE
  5
94D6
330
93D0
100
AcDbEntity
  8
1
  6
Continuous
100
AcDbLine
 10
139.2896399999999
 20
138.735
 30
0.0
 11
142.2896399999999
 21
138.1049999999999
 31
0.0
  0
LINE
  5
94D7
330
93D0
100
AcDbEntity
  8
5
  6
PHANTOM
100
AcDbLine
 10
142.2896399999999
 20
128.034
 30
0.0
 11
91.88264
 21
85.7371
 31
0.0
  0
LINE
  5
94D8
330
93D0
100
AcDbEntity
  8
5
  6
PHANTOM
100
AcDbLine
 10
142.2896399999999
 20
118.896
 30
0.0
 11
124.6486399999999
 21
104.0939999999998
 31
0.0
  0
LINE
  5
94D9
330
93D0
100
AcDbEntity
  8
5
  6
PHANTOM
100
AcDbLine
 10
138.9306399999999
 20
121.299
 30
0.0
 11
111.4296399999999
 21
98.22310000000001
 31
0.0
  0
LINE
  5
94DA
330
93D0
100
AcDbEntity
  8
5
  6
PHANTOM
100
AcDbLine
 10
94.77464000000001
 20
82.28990000000001
 30
0.0
 11
91.88264
 21
85.7371
 31
0.0
  0
LINE
  5
94DB
330
93D0
100
AcDbEntity
  8
5
  6
PHANTOM
100
AcDbLine
 10
110.86164
 20
95.78839999999999
 30
0.0
 11
94.77464000000001
 21
82.28990000000001
 31
0.0
  0
LINE
  5
94DC
330
93D0
100
AcDbEntity
  8
5
  6
PHANTOM
100
AcDbLine
 10
122.7536399999999
 20
81.61660000000003
 30
0.0
 11
111.18364
 21
95.4054
 31
0.0
  0
LINE
  5
94DD
330
93D0
100
AcDbEntity
  8
5
  6
PHANTOM
100
AcDbLine
 10
119.4756399999999
 20
85.52339999999999
 30
0.0
 11
104.41164
 21
72.88330000000001
 31
0.0
  0
LINE
  5
94DE
330
93D0
100
AcDbEntity
  8
5
  6
PHANTOM
100
AcDbLine
 10
120.7096399999998
 20
103.3989999999999
 30
0.0
 11
112.71564
 21
96.691
 31
0.0
  0
LINE
  5
94DF
330
93D0
100
AcDbEntity
  8
5
  6
PHANTOM
100
AcDbLine
 10
164.3366399999998
 20
120.425
 30
0.0
 11
156.2896399999999
 21
130.0149999999999
 31
0.0
  0
LINE
  5
94E0
330
93D0
100
AcDbEntity
  8
5
  6
PHANTOM
100
AcDbLine
 10
164.3366399999998
 20
120.425
 30
0.0
 11
160.8896399999999
 21
117.5329999999999
 31
0.0
  0
LINE
  5
94E1
330
93D0
100
AcDbEntity
  8
5
  6
PHANTOM
100
AcDbLine
 10
160.8896399999999
 20
117.5329999999999
 30
0.0
 11
157.1106399999998
 21
119.8539999999999
 31
0.0
  0
LINE
  5
94E2
330
93D0
100
AcDbEntity
  8
5
  6
PHANTOM
100
AcDbLine
 10
122.7536399999999
 20
81.61660000000003
 30
0.0
 11
108.6346399999999
 21
69.7693
 31
0.0
  0
LINE
  5
94E3
330
93D0
100
AcDbEntity
  8
1
  6
Continuous
100
AcDbLine
 10
162.2896399999999
 20
135.835
 30
0.0
 11
158.58964
 21
135.835
 31
0.0
  0
LINE
  5
94E4
330
93D0
100
AcDbEntity
  8
1
  6
Continuous
100
AcDbLine
 10
162.2896399999999
 20
135.835
 30
0.0
 11
162.2896399999999
 21
131.335
 31
0.0
  0
LINE
  5
94E5
330
93D0
100
AcDbEntity
  8
1
  6
Continuous
100
AcDbLine
 10
162.2896399999999
 20
131.335
 30
0.0
 11
159.38964
 21
130.369
 31
0.0
  0
LINE
  5
94E6
330
93D0
100
AcDbEntity
  8
1
  6
Continuous
100
AcDbLine
 10
156.2896399999999
 20
135.935
 30
0.0
 11
158.58964
 21
135.935
 31
0.0
  0
LINE
  5
94E7
330
93D0
100
AcDbEntity
  8
1
  6
Continuous
100
AcDbLine
 10
156.2896399999999
 20
208.7839999999999
 30
0.0
 11
158.58964
 21
208.7839999999999
 31
0.0
  0
LINE
  5
94E8
330
93D0
100
AcDbEntity
  8
1
  6
Continuous
100
AcDbLine
 10
156.2896399999999
 20
258.7839999999999
 30
0.0
 11
158.58964
 21
258.7839999999999
 31
0.0
  0
LINE
  5
94E9
330
93D0
100
AcDbEntity
  8
1
  6
Continuous
100
AcDbLine
 10
290.4746399999999
 20
129.935
 30
0.0
 11
289.2866399999999
 21
129.935
 31
0.0
  0
LINE
  5
94EA
330
93D0
100
AcDbEntity
  8
1
  6
Continuous
100
AcDbLine
 10
289.2866399999999
 20
131.935
 30
0.0
 11
286.4526399999999
 21
131.935
 31
0.0
  0
LINE
  5
94EB
330
93D0
100
AcDbEntity
  8
1
  6
Continuous
100
AcDbLine
 10
285.5366399999999
 20
135.835
 30
0.0
 11
282.5366399999999
 21
135.835
 31
0.0
  0
LINE
  5
94EC
330
93D0
100
AcDbEntity
  8
1
  6
Continuous
100
AcDbLine
 10
289.2866399999999
 20
131.935
 30
0.0
 11
289.2866399999999
 21
129.048
 31
0.0
  0
LINE
  5
94ED
330
93D0
100
AcDbEntity
  8
1
  6
Continuous
100
AcDbLine
 10
278.7866399999999
 20
131.935
 30
0.0
 11
278.7866399999999
 21
131.0749999999998
 31
0.0
  0
LINE
  5
94EE
330
93D0
100
AcDbEntity
  8
1
  6
Continuous
100
AcDbLine
 10
281.5366399999998
 20
134.835
 30
0.0
 11
281.5366399999998
 21
126.1429999999998
 31
0.0
  0
LINE
  5
94EF
330
93D0
100
AcDbEntity
  8
1
  6
Continuous
100
AcDbLine
 10
286.5366399999999
 20
134.835
 30
0.0
 11
286.5366399999999
 21
125.36
 31
0.0
  0
LINE
  5
94F0
330
93D0
100
AcDbEntity
  8
1
  6
Continuous
100
AcDbLine
 10
285.5366399999999
 20
129.335
 30
0.0
 11
282.5366399999999
 21
129.335
 31
0.0
  0
LINE
  5
94F1
330
93D0
100
AcDbEntity
  8
1
  6
Continuous
100
AcDbLine
 10
281.6196399999999
 20
131.935
 30
0.0
 11
278.7866399999999
 21
131.935
 31
0.0
  0
LINE
  5
94F2
330
93D0
100
AcDbEntity
  8
1
  6
Continuous
100
AcDbLine
 10
285.5366399999999
 20
131.335
 30
0.0
 11
282.5366399999999
 21
131.335
 31
0.0
  0
LINE
  5
94F3
330
93D0
100
AcDbEntity
  8
1
  6
Continuous
100
AcDbLine
 10
194.0256399999999
 20
236.878
 30
0.0
 11
194.0256399999999
 21
227.6899999999999
 31
0.0
  0
LINE
  5
94F4
330
93D0
100
AcDbEntity
  8
1
  6
Continuous
100
AcDbLine
 10
189.5256399999999
 20
238.084
 30
0.0
 11
189.5256399999999
 21
226.4839999999999
 31
0.0
  0
LINE
  5
94F5
330
93D0
100
AcDbEntity
  8
4
  6
CENTER
100
AcDbLine
 10
187.70264
 20
50.9352
 30
0.0
 11
198.9666399999999
 21
50.9352
 31
0.0
  0
LINE
  5
94F6
330
93D0
100
AcDbEntity
  8
1
  6
Continuous
100
AcDbLine
 10
195.0256399999999
 20
54.7352
 30
0.0
 11
195.0256399999999
 21
47.13519999999999
 31
0.0
  0
LINE
  5
94F7
330
93D0
100
AcDbEntity
  8
1
  6
Continuous
100
AcDbLine
 10
194.0256399999999
 20
47.13519999999999
 30
0.0
 11
195.0256399999999
 21
47.13519999999999
 31
0.0
  0
LINE
  5
94F8
330
93D0
100
AcDbEntity
  8
1
  6
Continuous
100
AcDbLine
 10
194.0256399999999
 20
51.1512
 30
0.0
 11
195.0256399999999
 21
51.4191
 31
0.0
  0
LINE
  5
94F9
330
93D0
100
AcDbEntity
  8
1
  6
Continuous
100
AcDbLine
 10
194.0256399999999
 20
50.4512
 30
0.0
 11
195.0256399999999
 21
50.71909999999999
 31
0.0
  0
LINE
  5
94FA
330
93D0
100
AcDbEntity
  8
1
  6
Continuous
100
AcDbLine
 10
196.1456399999999
 20
47.5334
 30
0.0
 11
195.0256399999999
 21
47.4354
 31
0.0
  0
LINE
  5
94FB
330
93D0
100
AcDbEntity
  8
1
  6
Continuous
100
AcDbLine
 10
196.1456399999999
 20
54.33749999999999
 30
0.0
 11
195.0256399999999
 21
54.4355
 31
0.0
  0
LINE
  5
94FC
330
93D0
100
AcDbEntity
  8
1
  6
Continuous
100
AcDbLine
 10
189.5256399999999
 20
55.7352
 30
0.0
 11
189.5256399999999
 21
46.1352
 31
0.0
  0
LINE
  5
94FD
330
93D0
100
AcDbEntity
  8
1
  6
Continuous
100
AcDbLine
 10
194.0256399999999
 20
54.7352
 30
0.0
 11
194.0256399999999
 21
47.13519999999999
 31
0.0
  0
LINE
  5
94FE
330
93D0
100
AcDbEntity
  8
1
  6
Continuous
100
AcDbLine
 10
194.0256399999999
 20
54.7352
 30
0.0
 11
195.0256399999999
 21
54.7352
 31
0.0
  0
LINE
  5
94FF
330
93D0
100
AcDbEntity
  8
1
  6
Continuous
100
AcDbLine
 10
274.28664
 20
77.43519999999998
 30
0.0
 11
274.28664
 21
62.031
 31
0.0
  0
LINE
  5
9500
330
93D0
100
AcDbEntity
  8
1
  6
Continuous
100
AcDbLine
 10
293.7866399999998
 20
77.43519999999998
 30
0.0
 11
293.7866399999998
 21
62.031
 31
0.0
  0
LINE
  5
9501
330
93D0
100
AcDbEntity
  8
4
  6
CENTER
100
AcDbLine
 10
187.70264
 20
155.935
 30
0.0
 11
198.9666399999999
 21
155.935
 31
0.0
  0
LINE
  5
9502
330
93D0
100
AcDbEntity
  8
1
  6
Continuous
100
AcDbLine
 10
195.0256399999999
 20
159.735
 30
0.0
 11
195.0256399999999
 21
152.1349999999999
 31
0.0
  0
LINE
  5
9503
330
93D0
100
AcDbEntity
  8
1
  6
Continuous
100
AcDbLine
 10
194.0256399999999
 20
159.735
 30
0.0
 11
195.0256399999999
 21
159.735
 31
0.0
  0
LINE
  5
9504
330
93D0
100
AcDbEntity
  8
1
  6
Continuous
100
AcDbLine
 10
194.0256399999999
 20
152.1349999999999
 30
0.0
 11
195.0256399999999
 21
152.1349999999999
 31
0.0
  0
LINE
  5
9505
330
93D0
100
AcDbEntity
  8
1
  6
Continuous
100
AcDbLine
 10
194.0256399999999
 20
156.151
 30
0.0
 11
195.0256399999999
 21
156.4189999999999
 31
0.0
  0
LINE
  5
9506
330
93D0
100
AcDbEntity
  8
1
  6
Continuous
100
AcDbLine
 10
194.0256399999999
 20
155.451
 30
0.0
 11
195.0256399999999
 21
155.719
 31
0.0
  0
LINE
  5
9507
330
93D0
100
AcDbEntity
  8
1
  6
Continuous
100
AcDbLine
 10
196.1456399999999
 20
152.5329999999998
 30
0.0
 11
195.0256399999999
 21
152.435
 31
0.0
  0
LINE
  5
9508
330
93D0
100
AcDbEntity
  8
1
  6
Continuous
100
AcDbLine
 10
196.1456399999999
 20
159.3379999999999
 30
0.0
 11
195.0256399999999
 21
159.435
 31
0.0
  0
LINE
  5
9509
330
93D0
100
AcDbEntity
  8
1
  6
Continuous
100
AcDbLine
 10
194.0256399999999
 20
159.735
 30
0.0
 11
194.0256399999999
 21
152.1349999999999
 31
0.0
  0
LINE
  5
950A
330
93D0
100
AcDbEntity
  8
1
  6
Continuous
100
AcDbLine
 10
189.5256399999999
 20
160.735
 30
0.0
 11
189.5256399999999
 21
151.135
 31
0.0
  0
LINE
  5
950B
330
93D0
100
AcDbEntity
  8
1
  6
Continuous
100
AcDbLine
 10
284.7076399999999
 20
50.2636
 30
0.0
 11
285.2146399999999
 21
50.4998
 31
0.0
  0
LINE
  5
950C
330
93D0
100
AcDbEntity
  8
1
  6
Continuous
100
AcDbLine
 10
285.2146399999999
 20
50.4998
 30
0.0
 11
286.0936399999999
 21
50.5152
 31
0.0
  0
LINE
  5
950D
330
93D0
100
AcDbEntity
  8
1
  6
Continuous
100
AcDbLine
 10
285.2146399999999
 20
51.3705
 30
0.0
 11
286.0936399999999
 21
51.3552
 31
0.0
  0
LINE
  5
950E
330
93D0
100
AcDbEntity
  8
1
  6
Continuous
100
AcDbLine
 10
284.7076399999999
 20
51.6068
 30
0.0
 11
285.2146399999999
 21
51.3705
 31
0.0
  0
LINE
  5
950F
330
93D0
100
AcDbEntity
  8
1
  6
Continuous
100
AcDbLine
 10
283.36464
 20
51.6068
 30
0.0
 11
283.6016399999999
 21
52.1135
 31
0.0
  0
LINE
  5
9510
330
93D0
100
AcDbEntity
  8
1
  6
Continuous
100
AcDbLine
 10
283.60064
 20
52.1135
 30
0.0
 11
283.61664
 21
52.9928
 31
0.0
  0
LINE
  5
9511
330
93D0
100
AcDbEntity
  8
1
  6
Continuous
100
AcDbLine
 10
284.4716399999999
 20
52.1135
 30
0.0
 11
284.45664
 21
52.9928
 31
0.0
  0
LINE
  5
9512
330
93D0
100
AcDbEntity
  8
1
  6
Continuous
100
AcDbLine
 10
284.7076399999999
 20
51.6068
 30
0.0
 11
284.4716399999999
 21
52.1135
 31
0.0
  0
LINE
  5
9513
330
93D0
100
AcDbEntity
  8
1
  6
Continuous
100
AcDbLine
 10
283.36464
 20
50.2636
 30
0.0
 11
282.85764
 21
50.4998
 31
0.0
  0
LINE
  5
9514
330
93D0
100
AcDbEntity
  8
1
  6
Continuous
100
AcDbLine
 10
282.8586399999998
 20
50.4998
 30
0.0
 11
281.9786399999999
 21
50.5152
 31
0.0
  0
LINE
  5
9515
330
93D0
100
AcDbEntity
  8
1
  6
Continuous
100
AcDbLine
 10
282.8586399999998
 20
51.3705
 30
0.0
 11
281.9786399999999
 21
51.3552
 31
0.0
  0
LINE
  5
9516
330
93D0
100
AcDbEntity
  8
1
  6
Continuous
100
AcDbLine
 10
283.36464
 20
51.6068
 30
0.0
 11
282.85764
 21
51.3705
 31
0.0
  0
LINE
  5
9517
330
93D0
100
AcDbEntity
  8
1
  6
Continuous
100
AcDbLine
 10
284.7076399999999
 20
50.2636
 30
0.0
 11
284.4716399999999
 21
49.7569
 31
0.0
  0
LINE
  5
9518
330
93D0
100
AcDbEntity
  8
1
  6
Continuous
100
AcDbLine
 10
284.4716399999999
 20
49.7568
 30
0.0
 11
284.45664
 21
48.8776
 31
0.0
  0
LINE
  5
9519
330
93D0
100
AcDbEntity
  8
1
  6
Continuous
100
AcDbLine
 10
283.6016399999999
 20
49.7568
 30
0.0
 11
283.61664
 21
48.8776
 31
0.0
  0
LINE
  5
951A
330
93D0
100
AcDbEntity
  8
1
  6
Continuous
100
AcDbLine
 10
283.36464
 20
50.2636
 30
0.0
 11
283.6016399999999
 21
49.7569
 31
0.0
  0
LINE
  5
951B
330
93D0
100
AcDbEntity
  8
4
  6
CENTER
100
AcDbLine
 10
277.1226399999998
 20
50.9352
 30
0.0
 11
291.1826399999998
 21
50.9352
 31
0.0
  0
LINE
  5
951C
330
93D0
100
AcDbEntity
  8
1
  6
Continuous
100
AcDbLine
 10
283.0366399999999
 20
55.7352
 30
0.0
 11
285.03664
 21
55.7352
 31
0.0
  0
LINE
  5
951D
330
93D0
100
AcDbEntity
  8
1
  6
Continuous
100
AcDbLine
 10
283.0366399999999
 20
46.1352
 30
0.0
 11
285.03664
 21
46.1352
 31
0.0
  0
LINE
  5
951E
330
93D0
100
AcDbEntity
  8
1
  6
Continuous
100
AcDbLine
 10
284.7076399999999
 20
155.264
 30
0.0
 11
285.2146399999999
 21
155.4999999999998
 31
0.0
  0
LINE
  5
951F
330
93D0
100
AcDbEntity
  8
1
  6
Continuous
100
AcDbLine
 10
285.2146399999999
 20
155.4999999999998
 30
0.0
 11
286.0936399999999
 21
155.5149999999999
 31
0.0
  0
LINE
  5
9520
330
93D0
100
AcDbEntity
  8
1
  6
Continuous
100
AcDbLine
 10
285.2146399999999
 20
156.371
 30
0.0
 11
286.0936399999999
 21
156.355
 31
0.0
  0
LINE
  5
9521
330
93D0
100
AcDbEntity
  8
1
  6
Continuous
100
AcDbLine
 10
284.7076399999999
 20
156.607
 30
0.0
 11
285.2146399999999
 21
156.371
 31
0.0
  0
LINE
  5
9522
330
93D0
100
AcDbEntity
  8
1
  6
Continuous
100
AcDbLine
 10
283.36464
 20
156.607
 30
0.0
 11
283.60064
 21
157.1139999999998
 31
0.0
  0
LINE
  5
9523
330
93D0
100
AcDbEntity
  8
1
  6
Continuous
100
AcDbLine
 10
283.6016399999999
 20
157.1139999999998
 30
0.0
 11
283.61664
 21
157.993
 31
0.0
  0
LINE
  5
9524
330
93D0
100
AcDbEntity
  8
1
  6
Continuous
100
AcDbLine
 10
284.4716399999999
 20
157.1139999999998
 30
0.0
 11
284.45664
 21
157.993
 31
0.0
  0
LINE
  5
9525
330
93D0
100
AcDbEntity
  8
1
  6
Continuous
100
AcDbLine
 10
284.7076399999999
 20
156.607
 30
0.0
 11
284.4716399999999
 21
157.1139999999998
 31
0.0
  0
LINE
  5
9526
330
93D0
100
AcDbEntity
  8
1
  6
Continuous
100
AcDbLine
 10
283.36464
 20
155.264
 30
0.0
 11
282.8586399999998
 21
155.4999999999998
 31
0.0
  0
LINE
  5
9527
330
93D0
100
AcDbEntity
  8
1
  6
Continuous
100
AcDbLine
 10
282.8586399999998
 20
155.4999999999998
 30
0.0
 11
281.9786399999999
 21
155.5149999999999
 31
0.0
  0
LINE
  5
9528
330
93D0
100
AcDbEntity
  8
1
  6
Continuous
100
AcDbLine
 10
282.85764
 20
156.371
 30
0.0
 11
281.9786399999999
 21
156.355
 31
0.0
  0
LINE
  5
9529
330
93D0
100
AcDbEntity
  8
1
  6
Continuous
100
AcDbLine
 10
283.36464
 20
156.607
 30
0.0
 11
282.85764
 21
156.371
 31
0.0
  0
LINE
  5
952A
330
93D0
100
AcDbEntity
  8
1
  6
Continuous
100
AcDbLine
 10
284.7076399999999
 20
155.264
 30
0.0
 11
284.4716399999999
 21
154.757
 31
0.0
  0
LINE
  5
952B
330
93D0
100
AcDbEntity
  8
1
  6
Continuous
100
AcDbLine
 10
284.4716399999999
 20
154.757
 30
0.0
 11
284.45664
 21
153.8779999999999
 31
0.0
  0
LINE
  5
952C
330
93D0
100
AcDbEntity
  8
1
  6
Continuous
100
AcDbLine
 10
283.60064
 20
154.757
 30
0.0
 11
283.61664
 21
153.8779999999999
 31
0.0
  0
LINE
  5
952D
330
93D0
100
AcDbEntity
  8
1
  6
Continuous
100
AcDbLine
 10
283.36464
 20
155.264
 30
0.0
 11
283.6016399999999
 21
154.757
 31
0.0
  0
LINE
  5
952E
330
93D0
100
AcDbEntity
  8
4
  6
CENTER
100
AcDbLine
 10
277.1226399999998
 20
155.935
 30
0.0
 11
291.1826399999998
 21
155.935
 31
0.0
  0
LINE
  5
952F
330
93D0
100
AcDbEntity
  8
1
  6
Continuous
100
AcDbLine
 10
283.0366399999999
 20
160.735
 30
0.0
 11
285.03664
 21
160.735
 31
0.0
  0
LINE
  5
9530
330
93D0
100
AcDbEntity
  8
1
  6
Continuous
100
AcDbLine
 10
283.0366399999999
 20
151.135
 30
0.0
 11
285.03664
 21
151.135
 31
0.0
  0
LINE
  5
9531
330
93D0
100
AcDbEntity
  8
1
  6
Continuous
100
AcDbLine
 10
162.2896399999999
 20
234.784
 30
0.0
 11
162.2896399999999
 21
229.7839999999999
 31
0.0
  0
LINE
  5
9532
330
93D0
100
AcDbEntity
  8
1
  6
Continuous
100
AcDbLine
 10
158.58964
 20
229.7839999999999
 30
0.0
 11
162.2896399999999
 21
229.7839999999999
 31
0.0
  0
LINE
  5
9533
330
93D0
100
AcDbEntity
  8
1
  6
Continuous
100
AcDbLine
 10
158.58964
 20
234.784
 30
0.0
 11
162.2896399999999
 21
234.784
 31
0.0
  0
LINE
  5
9534
330
93D0
100
AcDbEntity
  8
1
  6
Continuous
100
AcDbLine
 10
139.2896399999999
 20
239.7839999999999
 30
0.0
 11
139.2896399999999
 21
224.784
 31
0.0
  0
LINE
  5
9535
330
93D0
100
AcDbEntity
  8
1
  6
Continuous
100
AcDbLine
 10
139.2896399999999
 20
224.784
 30
0.0
 11
142.2896399999999
 21
224.784
 31
0.0
  0
LINE
  5
9536
330
93D0
100
AcDbEntity
  8
1
  6
Continuous
100
AcDbLine
 10
139.2896399999999
 20
239.7839999999999
 30
0.0
 11
142.2896399999999
 21
239.7839999999999
 31
0.0
  0
ARC
  5
9537
330
93D0
100
AcDbEntity
  8
1
  6
Continuous
100
AcDbCircle
 10
27.54234
 20
150.1759999999999
 30
0.0
 40
10.47109999999998
100
AcDbArc
 50
254.742
 51
254.794
  0
CIRCLE
  5
9538
330
93D0
100
AcDbEntity
  8
1
  6
Continuous
100
AcDbCircle
 10
27.54234
 20
68.43519999999999
 30
0.0
 40
7.65
  0
CIRCLE
  5
9539
330
93D0
100
AcDbEntity
  8
1
  6
Continuous
100
AcDbCircle
 10
146.7896399999998
 20
125.9349999999999
 30
0.0
 40
1.8
  0
CIRCLE
  5
953A
330
93D0
100
AcDbEntity
  8
1
  6
Continuous
100
AcDbCircle
 10
146.7896399999998
 20
125.9349999999999
 30
0.0
 40
1.5
  0
ARC
  5
953B
330
93D0
100
AcDbEntity
  8
1
  6
Continuous
100
AcDbCircle
 10
146.7896399999998
 20
125.9349999999999
 30
0.0
 40
70.0
100
AcDbArc
 50
270.0
 51
284.477
  0
ARC
  5
953C
330
93D0
100
AcDbEntity
  8
1
  6
Continuous
100
AcDbCircle
 10
163.2896399999999
 20
77.43519999999998
 30
0.0
 40
4.0
100
AcDbArc
 50
0.0
 51
90.0
  0
ARC
  5
953D
330
93D0
100
AcDbEntity
  8
1
  6
Continuous
100
AcDbCircle
 10
163.2896399999999
 20
62.031
 30
0.0
 40
4.0
100
AcDbArc
 50
284.477
 51
0.0
  0
ARC
  5
953E
330
93D0
100
AcDbEntity
  8
5
  6
PHANTOM
100
AcDbCircle
 10
247.25264
 20
147.1479999999999
 30
0.0
 40
5.0
100
AcDbArc
 50
135.0
 51
225.0
  0
ARC
  5
953F
330
93D0
100
AcDbEntity
  8
5
  6
PHANTOM
100
AcDbCircle
 10
254.32364
 20
154.2189999999999
 30
0.0
 40
5.0
100
AcDbArc
 50
45.0
 51
135.0
  0
ARC
  5
9540
330
93D0
100
AcDbEntity
  8
5
  6
PHANTOM
100
AcDbCircle
 10
317.9626399999999
 20
76.4377
 30
0.0
 40
5.0
100
AcDbArc
 50
225.0
 51
315.0
  0
CIRCLE
  5
9541
330
93D0
100
AcDbEntity
  8
1
  6
Continuous
100
AcDbCircle
 10
304.2066399999999
 20
146.0099999999999
 30
0.0
 40
1.5
  0
ARC
  5
9542
330
93D0
100
AcDbEntity
  8
5
  6
PHANTOM
100
AcDbCircle
 10
282.60764
 20
147.1479999999999
 30
0.0
 40
5.0
100
AcDbArc
 50
45.0
 51
135.0
  0
ARC
  5
9543
330
93D0
100
AcDbEntity
  8
5
  6
PHANTOM
100
AcDbCircle
 10
310.89164
 20
118.8639999999999
 30
0.0
 40
5.0
100
AcDbArc
 50
315.0
 51
45.0
  0
ARC
  5
9544
330
93D0
100
AcDbEntity
  8
5
  6
PHANTOM
100
AcDbCircle
 10
314.4276399999998
 20
108.2579999999999
 30
0.0
 40
5.0
100
AcDbArc
 50
135.0
 51
225.0
  0
ARC
  5
9545
330
93D0
100
AcDbEntity
  8
5
  6
PHANTOM
100
AcDbCircle
 10
272.0006399999999
 20
150.6839999999999
 30
0.0
 40
5.0
100
AcDbArc
 50
225.0
 51
315.0
  0
CIRCLE
  5
9546
330
93D0
100
AcDbEntity
  8
1
  6
Continuous
100
AcDbCircle
 10
240.5366399999998
 20
125.9349999999999
 30
0.0
 40
1.5
  0
ARC
  5
9547
330
93D0
100
AcDbEntity
  8
1
  6
Continuous
100
AcDbCircle
 10
275.5366399999999
 20
125.9349999999999
 30
0.0
 40
5.9
100
AcDbArc
 50
7.272139999999999
 51
50.81210000000001
  0
ARC
  5
9548
330
93D0
100
AcDbEntity
  8
1
  6
Continuous
100
AcDbCircle
 10
288.74164
 20
126.129
 30
0.0
 40
1.0
100
AcDbArc
 50
126.335
 51
135.0
  0
ARC
  5
9549
330
93D0
100
AcDbEntity
  8
1
  6
Continuous
100
AcDbCircle
 10
285.30464
 20
126.9349999999999
 30
0.0
 40
2.0
100
AcDbArc
 50
270.0
 51
315.0
  0
ARC
  5
954A
330
93D0
100
AcDbEntity
  8
1
  6
Continuous
100
AcDbCircle
 10
283.3726399999998
 20
126.9349999999999
 30
0.0
 40
2.0
100
AcDbArc
 50
187.2719999999999
 51
270.0
  0
ARC
  5
954B
330
93D0
100
AcDbEntity
  8
1
  6
Continuous
100
AcDbCircle
 10
280.5286399999999
 20
132.0579999999999
 30
0.0
 40
2.0
100
AcDbArc
 50
135.0
 51
230.812
  0
ARC
  5
954C
330
93D0
100
AcDbEntity
  8
1
  6
Continuous
100
AcDbCircle
 10
287.5576399999999
 20
137.9559999999999
 30
0.0
 40
2.799999999999998
100
AcDbArc
 50
45.0
 51
180.0
  0
ARC
  5
954D
330
93D0
100
AcDbEntity
  8
1
  6
Continuous
100
AcDbCircle
 10
275.5366399999999
 20
125.9349999999999
 30
0.0
 40
19.8
100
AcDbArc
 50
11.01849999999999
 51
45.0
  0
ARC
  5
954E
330
93D0
100
AcDbEntity
  8
1
  6
Continuous
100
AcDbCircle
 10
240.5366399999998
 20
130.935
 30
0.0
 40
5.0
100
AcDbArc
 50
90.0
 51
180.0
  0
ARC
  5
954F
330
93D0
100
AcDbEntity
  8
1
  6
Continuous
100
AcDbCircle
 10
255.53664
 20
140.935
 30
0.0
 40
5.0
100
AcDbArc
 50
270.0
 51
0.0
  0
ARC
  5
9550
330
93D0
100
AcDbEntity
  8
1
  6
Continuous
100
AcDbCircle
 10
265.5366399999999
 20
145.935
 30
0.0
 40
5.0
100
AcDbArc
 50
90.0
 51
180.0
  0
ARC
  5
9551
330
93D0
100
AcDbEntity
  8
1
  6
Continuous
100
AcDbCircle
 10
305.53664
 20
145.935
 30
0.0
 40
5.0
100
AcDbArc
 50
0.0
 51
90.0
  0
ARC
  5
9552
330
93D0
100
AcDbEntity
  8
1
  6
Continuous
100
AcDbCircle
 10
315.5366399999999
 20
140.935
 30
0.0
 40
5.0
100
AcDbArc
 50
180.0
 51
270.0
  0
ARC
  5
9553
330
93D0
100
AcDbEntity
  8
1
  6
Continuous
100
AcDbCircle
 10
340.5366399999999
 20
120.935
 30
0.0
 40
5.0
100
AcDbArc
 50
270.0
 51
0.0
  0
ARC
  5
9554
330
93D0
100
AcDbEntity
  8
1
  6
Continuous
100
AcDbCircle
 10
240.5366399999998
 20
120.935
 30
0.0
 40
5.0
100
AcDbArc
 50
180.0
 51
270.0
  0
ARC
  5
9555
330
93D0
100
AcDbEntity
  8
1
  6
Continuous
100
AcDbCircle
 10
275.5366399999999
 20
125.9349999999999
 30
0.0
 40
2.1
100
AcDbArc
 50
348.463
 51
11.537
  0
ARC
  5
9556
330
93D0
100
AcDbEntity
  8
1
  6
Continuous
100
AcDbCircle
 10
275.5366399999999
 20
125.9349999999999
 30
0.0
 40
2.1
100
AcDbArc
 50
78.46299999999998
 51
101.537
  0
ARC
  5
9557
330
93D0
100
AcDbEntity
  8
1
  6
Continuous
100
AcDbCircle
 10
275.5366399999999
 20
125.9349999999999
 30
0.0
 40
2.1
100
AcDbArc
 50
168.463
 51
191.5369999999998
  0
ARC
  5
9558
330
93D0
100
AcDbEntity
  8
1
  6
Continuous
100
AcDbCircle
 10
275.5366399999999
 20
125.9349999999999
 30
0.0
 40
2.1
100
AcDbArc
 50
258.4629999999999
 51
281.5369999999999
  0
CIRCLE
  5
9559
330
93D0
100
AcDbEntity
  8
1
  6
Continuous
100
AcDbCircle
 10
275.5366399999999
 20
125.9349999999999
 30
0.0
 40
3.5
  0
CIRCLE
  5
955A
330
93D0
100
AcDbEntity
  8
1
  6
Continuous
100
AcDbCircle
 10
275.5366399999999
 20
125.9349999999999
 30
0.0
 40
3.799999999999998
  0
CIRCLE
  5
955B
330
93D0
100
AcDbEntity
  8
1
  6
Continuous
100
AcDbCircle
 10
275.5366399999999
 20
125.9349999999999
 30
0.0
 40
4.5
  0
ARC
  5
955C
330
93D0
100
AcDbEntity
  8
1
  6
Continuous
100
AcDbCircle
 10
292.5366399999999
 20
125.9349999999999
 30
0.0
 40
2.1
100
AcDbArc
 50
348.463
 51
11.537
  0
ARC
  5
955D
330
93D0
100
AcDbEntity
  8
1
  6
Continuous
100
AcDbCircle
 10
292.5366399999999
 20
125.9349999999999
 30
0.0
 40
2.1
100
AcDbArc
 50
78.46299999999998
 51
101.537
  0
ARC
  5
955E
330
93D0
100
AcDbEntity
  8
1
  6
Continuous
100
AcDbCircle
 10
292.5366399999999
 20
125.9349999999999
 30
0.0
 40
2.1
100
AcDbArc
 50
168.463
 51
191.5369999999998
  0
ARC
  5
955F
330
93D0
100
AcDbEntity
  8
1
  6
Continuous
100
AcDbCircle
 10
292.5366399999999
 20
125.9349999999999
 30
0.0
 40
2.1
100
AcDbArc
 50
258.4629999999999
 51
281.5369999999999
  0
CIRCLE
  5
9560
330
93D0
100
AcDbEntity
  8
1
  6
Continuous
100
AcDbCircle
 10
292.5366399999999
 20
125.9349999999999
 30
0.0
 40
3.5
  0
CIRCLE
  5
9561
330
93D0
100
AcDbEntity
  8
1
  6
Continuous
100
AcDbCircle
 10
292.5366399999999
 20
125.9349999999999
 30
0.0
 40
3.799999999999998
  0
CIRCLE
  5
9562
330
93D0
100
AcDbEntity
  8
1
  6
Continuous
100
AcDbCircle
 10
292.5366399999999
 20
125.9349999999999
 30
0.0
 40
4.5
  0
ARC
  5
9563
330
93D0
100
AcDbEntity
  8
1
  6
Continuous
100
AcDbCircle
 10
161.39564
 20
128.042
 30
0.0
 40
1.3
100
AcDbArc
 50
15.8808
 51
84.99990000000002
  0
ARC
  5
9564
330
93D0
100
AcDbEntity
  8
1
  6
Continuous
100
AcDbCircle
 10
153.9896399999998
 20
125.9349999999999
 30
0.0
 40
9.0
100
AcDbArc
 50
344.1190000000001
 51
15.8808
  0
ARC
  5
9565
330
93D0
100
AcDbEntity
  8
1
  6
Continuous
100
AcDbCircle
 10
161.39564
 20
123.8279999999999
 30
0.0
 40
1.3
100
AcDbArc
 50
275.0
 51
344.1190000000001
  0
ARC
  5
9566
330
93D0
100
AcDbEntity
  8
1
  6
Continuous
100
AcDbCircle
 10
161.39564
 20
242.891
 30
0.0
 40
1.3
100
AcDbArc
 50
15.8808
 51
84.99990000000002
  0
ARC
  5
9567
330
93D0
100
AcDbEntity
  8
1
  6
Continuous
100
AcDbCircle
 10
153.9896399999998
 20
240.7839999999999
 30
0.0
 40
9.0
100
AcDbArc
 50
344.1190000000001
 51
15.8808
  0
ARC
  5
9568
330
93D0
100
AcDbEntity
  8
1
  6
Continuous
100
AcDbCircle
 10
161.39564
 20
238.6769999999999
 30
0.0
 40
1.3
100
AcDbArc
 50
275.0
 51
344.1190000000001
  0
ARC
  5
9569
330
93D0
100
AcDbEntity
  8
1
  6
Continuous
100
AcDbCircle
 10
161.39564
 20
225.8909999999999
 30
0.0
 40
1.3
100
AcDbArc
 50
15.8808
 51
84.99990000000002
  0
ARC
  5
956A
330
93D0
100
AcDbEntity
  8
1
  6
Continuous
100
AcDbCircle
 10
153.9896399999998
 20
223.7839999999999
 30
0.0
 40
9.0
100
AcDbArc
 50
344.1190000000001
 51
15.8808
  0
ARC
  5
956B
330
93D0
100
AcDbEntity
  8
1
  6
Continuous
100
AcDbCircle
 10
161.39564
 20
221.6769999999999
 30
0.0
 40
1.3
100
AcDbArc
 50
275.0
 51
344.1190000000001
  0
ARC
  5
956C
330
93D0
100
AcDbEntity
  8
1
  6
Continuous
100
AcDbCircle
 10
196.0316399999999
 20
234.391
 30
0.0
 40
1.3
100
AcDbArc
 50
15.8808
 51
84.99990000000002
  0
ARC
  5
956D
330
93D0
100
AcDbEntity
  8
1
  6
Continuous
100
AcDbCircle
 10
188.62564
 20
232.2839999999999
 30
0.0
 40
9.0
100
AcDbArc
 50
344.1190000000001
 51
15.8808
  0
ARC
  5
956E
330
93D0
100
AcDbEntity
  8
1
  6
Continuous
100
AcDbCircle
 10
196.0316399999999
 20
230.1769999999999
 30
0.0
 40
1.3
100
AcDbArc
 50
275.0
 51
344.1190000000001
  0
ARC
  5
956F
330
93D0
100
AcDbEntity
  8
1
  6
Continuous
100
AcDbCircle
 10
21.04233999999999
 20
146.8849999999999
 30
0.0
 40
1.0
100
AcDbArc
 50
90.0
 51
180.0
  0
ARC
  5
9570
330
93D0
100
AcDbEntity
  8
1
  6
Continuous
100
AcDbCircle
 10
34.04234000000001
 20
146.8849999999999
 30
0.0
 40
1.0
100
AcDbArc
 50
0.0
 51
90.0
  0
ARC
  5
9571
330
93D0
100
AcDbEntity
  8
1
  6
Continuous
100
AcDbCircle
 10
34.04234000000001
 20
138.685
 30
0.0
 40
1.0
100
AcDbArc
 50
270.0
 51
0.0
  0
ARC
  5
9572
330
93D0
100
AcDbEntity
  8
1
  6
Continuous
100
AcDbCircle
 10
21.04233999999999
 20
138.685
 30
0.0
 40
1.0
100
AcDbArc
 50
180.0
 51
270.0
  0
ARC
  5
9573
330
93D0
100
AcDbEntity
  8
1
  6
Continuous
100
AcDbCircle
 10
27.54144
 20
135.505
 30
0.0
 40
11.17909999999998
100
AcDbArc
 50
54.46200000000001
 51
125.538
  0
ARC
  5
9574
330
93D0
100
AcDbEntity
  8
1
  6
Continuous
100
AcDbCircle
 10
27.54144
 20
135.505
 30
0.0
 40
10.3124
100
AcDbArc
 50
102.729
 51
103.268
  0
ARC
  5
9575
330
93D0
100
AcDbEntity
  8
1
  6
Continuous
100
AcDbCircle
 10
27.54144
 20
135.505
 30
0.0
 40
10.3124
100
AcDbArc
 50
103.268
 51
105.258
  0
ARC
  5
9576
330
93D0
100
AcDbEntity
  8
1
  6
Continuous
100
AcDbCircle
 10
24.94304
 20
145.035
 30
0.0
 40
0.433489
100
AcDbArc
 50
105.258
 51
180.0
  0
ARC
  5
9577
330
93D0
100
AcDbEntity
  8
1
  6
Continuous
100
AcDbCircle
 10
24.94304
 20
140.533
 30
0.0
 40
0.433489
100
AcDbArc
 50
180.0
 51
254.742
  0
ARC
  5
9578
330
93D0
100
AcDbEntity
  8
1
  6
Continuous
100
AcDbCircle
 10
27.54144
 20
150.0629999999999
 30
0.0
 40
10.3124
100
AcDbArc
 50
254.742
 51
254.794
  0
ARC
  5
9579
330
93D0
100
AcDbEntity
  8
1
  6
Continuous
100
AcDbCircle
 10
27.54144
 20
150.0629999999999
 30
0.0
 40
10.3124
100
AcDbArc
 50
254.794
 51
257.2709999999998
  0
ARC
  5
957A
330
93D0
100
AcDbEntity
  8
1
  6
Continuous
100
AcDbCircle
 10
22.34274
 20
142.785
 30
0.0
 40
2.233239999999999
100
AcDbArc
 50
125.531
 51
234.4619999999999
  0
ARC
  5
957B
330
93D0
100
AcDbEntity
  8
1
  6
Continuous
100
AcDbCircle
 10
23.20834
 20
141.186
 30
0.0
 40
0.433489
100
AcDbArc
 50
180.0
 51
243.9859999999999
  0
ARC
  5
957C
330
93D0
100
AcDbEntity
  8
1
  6
Continuous
100
AcDbCircle
 10
23.55493999999999
 20
140.6479999999999
 30
0.0
 40
0.086733
100
AcDbArc
 50
247.0559999999999
 51
0.0
  0
ARC
  5
957D
330
93D0
100
AcDbEntity
  8
1
  6
Continuous
100
AcDbCircle
 10
27.54144
 20
150.0629999999999
 30
0.0
 40
10.3124
100
AcDbArc
 50
243.9859999999999
 51
247.0559999999999
  0
ARC
  5
957E
330
93D0
100
AcDbEntity
  8
1
  6
Continuous
100
AcDbCircle
 10
27.54144
 20
150.0629999999999
 30
0.0
 40
10.3124
100
AcDbArc
 50
243.9859999999999
 51
244.772
  0
ARC
  5
957F
330
93D0
100
AcDbEntity
  8
1
  6
Continuous
100
AcDbCircle
 10
23.20834
 20
144.3829999999999
 30
0.0
 40
0.433489
100
AcDbArc
 50
116.0139999999999
 51
180.0
  0
ARC
  5
9580
330
93D0
100
AcDbEntity
  8
1
  6
Continuous
100
AcDbCircle
 10
23.55493999999999
 20
144.923
 30
0.0
 40
0.086733
100
AcDbArc
 50
0.0
 51
112.9439999999999
  0
ARC
  5
9581
330
93D0
100
AcDbEntity
  8
1
  6
Continuous
100
AcDbCircle
 10
27.54144
 20
135.505
 30
0.0
 40
10.3124
100
AcDbArc
 50
112.9439999999999
 51
116.0139999999999
  0
ARC
  5
9582
330
93D0
100
AcDbEntity
  8
1
  6
Continuous
100
AcDbCircle
 10
29.27433999999999
 20
145.2309999999999
 30
0.0
 40
0.433489
100
AcDbArc
 50
0.0
 51
79.896
  0
ARC
  5
9583
330
93D0
100
AcDbEntity
  8
1
  6
Continuous
100
AcDbCircle
 10
27.54144
 20
135.505
 30
0.0
 40
10.3124
100
AcDbArc
 50
79.896
 51
82.20699999999999
  0
ARC
  5
9584
330
93D0
100
AcDbEntity
  8
1
  6
Continuous
100
AcDbCircle
 10
28.92774000000001
 20
145.6369999999998
 30
0.0
 40
0.086733
100
AcDbArc
 50
82.20699999999999
 51
180.0
  0
ARC
  5
9585
330
93D0
100
AcDbEntity
  8
1
  6
Continuous
100
AcDbCircle
 10
29.27433999999999
 20
140.338
 30
0.0
 40
0.433489
100
AcDbArc
 50
280.104
 51
0.0
  0
ARC
  5
9586
330
93D0
100
AcDbEntity
  8
1
  6
Continuous
100
AcDbCircle
 10
28.92774000000001
 20
139.9319999999999
 30
0.0
 40
0.086733
100
AcDbArc
 50
180.0
 51
277.793
  0
ARC
  5
9587
330
93D0
100
AcDbEntity
  8
1
  6
Continuous
100
AcDbCircle
 10
27.54144
 20
150.0629999999999
 30
0.0
 40
10.3124
100
AcDbArc
 50
277.793
 51
280.104
  0
ARC
  5
9588
330
93D0
100
AcDbEntity
  8
1
  6
Continuous
100
AcDbCircle
 10
31.87464
 20
143.2179999999999
 30
0.0
 40
0.433489
100
AcDbArc
 50
180.0
 51
0.0
  0
ARC
  5
9589
330
93D0
100
AcDbEntity
  8
1
  6
Continuous
100
AcDbCircle
 10
32.74194
 20
142.785
 30
0.0
 40
2.23342
100
AcDbArc
 50
305.5470000000001
 51
54.46200000000001
  0
ARC
  5
958A
330
93D0
100
AcDbEntity
  8
1
  6
Continuous
100
AcDbCircle
 10
27.54144
 20
150.0629999999999
 30
0.0
 40
11.17909999999998
100
AcDbArc
 50
234.4619999999999
 51
305.5379999999999
  0
ARC
  5
958B
330
93D0
100
AcDbEntity
  8
1
  6
Continuous
100
AcDbCircle
 10
25.28783999999999
 20
140.09
 30
0.0
 40
0.086733
100
AcDbArc
 50
257.2709999999998
 51
0.0
  0
ARC
  5
958C
330
93D0
100
AcDbEntity
  8
1
  6
Continuous
100
AcDbCircle
 10
25.28783999999999
 20
145.4789999999998
 30
0.0
 40
0.086733
100
AcDbArc
 50
0.0
 51
102.729
  0
ARC
  5
958D
330
93D0
100
AcDbEntity
  8
1
  6
Continuous
100
AcDbCircle
 10
144.2786399999999
 20
142.785
 30
0.0
 40
4.988839999999997
100
AcDbArc
 50
180.0
 51
246.506
  0
ARC
  5
958E
330
93D0
100
AcDbEntity
  8
5
  6
PHANTOM
100
AcDbCircle
 10
114.0006399999998
 20
95.1589
 30
0.0
 40
2.0
100
AcDbArc
 50
130.0
 51
220.0
  0
ARC
  5
958F
330
93D0
100
AcDbEntity
  8
5
  6
PHANTOM
100
AcDbCircle
 10
122.0776399999998
 20
107.1579999999999
 30
0.0
 40
4.0
100
AcDbArc
 50
220.0
 51
310.0
  0
ARC
  5
9590
330
93D0
100
AcDbEntity
  8
5
  6
PHANTOM
100
AcDbCircle
 10
141.5016399999998
 20
118.235
 30
0.0
 40
4.0
100
AcDbArc
 50
78.64669999999998
 51
130.0
  0
ARC
  5
9591
330
93D0
100
AcDbEntity
  8
5
  6
PHANTOM
100
AcDbCircle
 10
112.71564
 20
96.691
 30
0.0
 40
2.0
100
AcDbArc
 50
130.0
 51
220.0
  0
ARC
  5
9592
330
93D0
100
AcDbEntity
  8
5
  6
PHANTOM
100
AcDbCircle
 10
146.7896399999998
 20
125.9349999999999
 30
0.0
 40
67.9
100
AcDbArc
 50
220.0
 51
235.8109999999999
  0
ARC
  5
9593
330
93D0
100
AcDbEntity
  8
5
  6
PHANTOM
100
AcDbCircle
 10
155.53964
 20
117.2979999999999
 30
0.0
 40
3.0
100
AcDbArc
 50
58.4349
 51
73.55339999999998
  0
ARC
  5
9594
330
93D0
100
AcDbEntity
  8
1
  6
Continuous
100
AcDbCircle
 10
285.5366399999999
 20
134.835
 30
0.0
 40
1.0
100
AcDbArc
 50
0.0
 51
90.0
  0
ARC
  5
9595
330
93D0
100
AcDbEntity
  8
1
  6
Continuous
100
AcDbCircle
 10
285.5366399999999
 20
130.335
 30
0.0
 40
1.0
100
AcDbArc
 50
270.0
 51
0.0
  0
ARC
  5
9596
330
93D0
100
AcDbEntity
  8
1
  6
Continuous
100
AcDbCircle
 10
282.5366399999999
 20
130.335
 30
0.0
 40
1.0
100
AcDbArc
 50
180.0
 51
270.0
  0
ARC
  5
9597
330
93D0
100
AcDbEntity
  8
1
  6
Continuous
100
AcDbCircle
 10
282.5366399999999
 20
134.835
 30
0.0
 40
1.0
100
AcDbArc
 50
90.0
 51
180.0
  0
ARC
  5
9598
330
93D0
100
AcDbEntity
  8
1
  6
Continuous
100
AcDbCircle
 10
282.5366399999999
 20
132.335
 30
0.0
 40
1.0
100
AcDbArc
 50
180.0
 51
270.0
  0
ARC
  5
9599
330
93D0
100
AcDbEntity
  8
1
  6
Continuous
100
AcDbCircle
 10
285.5366399999999
 20
132.335
 30
0.0
 40
1.0
100
AcDbArc
 50
270.0
 51
0.0
  0
ARC
  5
959A
330
93D0
100
AcDbEntity
  8
1
  6
Continuous
100
AcDbCircle
 10
189.5256399999999
 20
46.73519999999999
 30
0.0
 40
9.0
100
AcDbArc
 50
60.0
 51
90.0
  0
ARC
  5
959B
330
93D0
100
AcDbEntity
  8
1
  6
Continuous
100
AcDbCircle
 10
196.0316399999999
 20
53.0422
 30
0.0
 40
1.3
100
AcDbArc
 50
15.8808
 51
84.99990000000002
  0
ARC
  5
959C
330
93D0
100
AcDbEntity
  8
1
  6
Continuous
100
AcDbCircle
 10
188.62564
 20
50.9352
 30
0.0
 40
9.0
100
AcDbArc
 50
344.1190000000001
 51
15.8808
  0
ARC
  5
959D
330
93D0
100
AcDbEntity
  8
1
  6
Continuous
100
AcDbCircle
 10
196.0316399999999
 20
48.8282
 30
0.0
 40
1.3
100
AcDbArc
 50
275.0
 51
344.1190000000001
  0
ARC
  5
959E
330
93D0
100
AcDbEntity
  8
1
  6
Continuous
100
AcDbCircle
 10
189.5256399999999
 20
55.13519999999999
 30
0.0
 40
9.0
100
AcDbArc
 50
270.0
 51
300.0
  0
ARC
  5
959F
330
93D0
100
AcDbEntity
  8
1
  6
Continuous
100
AcDbCircle
 10
268.8396399999999
 20
77.43519999999998
 30
0.0
 40
5.44643
100
AcDbArc
 50
0.0
 51
47.2588
  0
ARC
  5
95A0
330
93D0
100
AcDbEntity
  8
1
  6
Continuous
100
AcDbCircle
 10
299.2326399999999
 20
77.43519999999998
 30
0.0
 40
5.44643
100
AcDbArc
 50
132.741
 51
180.0
  0
ARC
  5
95A1
330
93D0
100
AcDbEntity
  8
1
  6
Continuous
100
AcDbCircle
 10
305.27864
 20
62.031
 30
0.0
 40
11.4917
100
AcDbArc
 50
180.0
 51
212.0359999999998
  0
ARC
  5
95A2
330
93D0
100
AcDbEntity
  8
1
  6
Continuous
100
AcDbCircle
 10
262.79464
 20
62.031
 30
0.0
 40
11.4917
100
AcDbArc
 50
327.964
 51
0.0
  0
ARC
  5
95A3
330
93D0
100
AcDbEntity
  8
1
  6
Continuous
100
AcDbCircle
 10
196.0316399999999
 20
158.042
 30
0.0
 40
1.3
100
AcDbArc
 50
15.8808
 51
84.99990000000002
  0
ARC
  5
95A4
330
93D0
100
AcDbEntity
  8
1
  6
Continuous
100
AcDbCircle
 10
188.62564
 20
155.935
 30
0.0
 40
9.0
100
AcDbArc
 50
344.1190000000001
 51
15.8808
  0
ARC
  5
95A5
330
93D0
100
AcDbEntity
  8
1
  6
Continuous
100
AcDbCircle
 10
196.0316399999999
 20
153.828
 30
0.0
 40
1.3
100
AcDbArc
 50
275.0
 51
344.1190000000001
  0
ARC
  5
95A6
330
93D0
100
AcDbEntity
  8
1
  6
Continuous
100
AcDbCircle
 10
189.5256399999999
 20
151.735
 30
0.0
 40
9.0
100
AcDbArc
 50
60.0
 51
90.0
  0
ARC
  5
95A7
330
93D0
100
AcDbEntity
  8
1
  6
Continuous
100
AcDbCircle
 10
189.5256399999999
 20
160.135
 30
0.0
 40
9.0
100
AcDbArc
 50
270.0
 51
300.0
  0
ARC
  5
95A8
330
93D0
100
AcDbEntity
  8
1
  6
Continuous
100
AcDbCircle
 10
189.5256399999999
 20
229.084
 30
0.0
 40
9.0
100
AcDbArc
 50
60.0
 51
90.0
  0
ARC
  5
95A9
330
93D0
100
AcDbEntity
  8
1
  6
Continuous
100
AcDbCircle
 10
189.5256399999999
 20
235.484
 30
0.0
 40
9.0
100
AcDbArc
 50
270.0
 51
300.0
  0
ARC
  5
95AA
330
93D0
100
AcDbEntity
  8
1
  6
Continuous
100
AcDbCircle
 10
284.0366399999999
 20
50.9352
 30
0.0
 40
2.1
100
AcDbArc
 50
348.463
 51
11.537
  0
ARC
  5
95AB
330
93D0
100
AcDbEntity
  8
1
  6
Continuous
100
AcDbCircle
 10
284.0366399999999
 20
50.9352
 30
0.0
 40
2.1
100
AcDbArc
 50
78.46299999999998
 51
101.537
  0
ARC
  5
95AC
330
93D0
100
AcDbEntity
  8
1
  6
Continuous
100
AcDbCircle
 10
284.0366399999999
 20
50.9352
 30
0.0
 40
2.1
100
AcDbArc
 50
168.463
 51
191.5369999999998
  0
ARC
  5
95AD
330
93D0
100
AcDbEntity
  8
1
  6
Continuous
100
AcDbCircle
 10
284.0366399999999
 20
50.9352
 30
0.0
 40
2.1
100
AcDbArc
 50
258.4629999999999
 51
281.5369999999999
  0
CIRCLE
  5
95AE
330
93D0
100
AcDbEntity
  8
1
  6
Continuous
100
AcDbCircle
 10
284.0366399999999
 20
50.9352
 30
0.0
 40
3.5
  0
CIRCLE
  5
95AF
330
93D0
100
AcDbEntity
  8
1
  6
Continuous
100
AcDbCircle
 10
284.0366399999999
 20
50.9352
 30
0.0
 40
3.799999999999998
  0
ARC
  5
95B0
330
93D0
100
AcDbEntity
  8
1
  6
Continuous
100
AcDbCircle
 10
283.0366399999999
 20
50.9352
 30
0.0
 40
3.59423
100
AcDbArc
 50
94.16050000000002
 51
265.8399999999999
  0
ARC
  5
95B1
330
93D0
100
AcDbEntity
  8
1
  6
Continuous
100
AcDbCircle
 10
285.03664
 20
50.9352
 30
0.0
 40
3.59423
100
AcDbArc
 50
274.16
 51
85.83960000000002
  0
ARC
  5
95B2
330
93D0
100
AcDbEntity
  8
1
  6
Continuous
100
AcDbCircle
 10
283.0366399999999
 20
50.9352
 30
0.0
 40
4.799999999999998
100
AcDbArc
 50
90.0
 51
270.0
  0
ARC
  5
95B3
330
93D0
100
AcDbEntity
  8
1
  6
Continuous
100
AcDbCircle
 10
285.03664
 20
50.9352
 30
0.0
 40
4.799999999999998
100
AcDbArc
 50
270.0
 51
90.0
  0
ARC
  5
95B4
330
93D0
100
AcDbEntity
  8
1
  6
Continuous
100
AcDbCircle
 10
284.0366399999999
 20
155.935
 30
0.0
 40
2.1
100
AcDbArc
 50
348.463
 51
11.537
  0
ARC
  5
95B5
330
93D0
100
AcDbEntity
  8
1
  6
Continuous
100
AcDbCircle
 10
284.0366399999999
 20
155.935
 30
0.0
 40
2.1
100
AcDbArc
 50
78.46299999999998
 51
101.537
  0
ARC
  5
95B6
330
93D0
100
AcDbEntity
  8
1
  6
Continuous
100
AcDbCircle
 10
284.0366399999999
 20
155.935
 30
0.0
 40
2.1
100
AcDbArc
 50
168.463
 51
191.5369999999998
  0
ARC
  5
95B7
330
93D0
100
AcDbEntity
  8
1
  6
Continuous
100
AcDbCircle
 10
284.0366399999999
 20
155.935
 30
0.0
 40
2.1
100
AcDbArc
 50
258.4629999999999
 51
281.5369999999999
  0
CIRCLE
  5
95B8
330
93D0
100
AcDbEntity
  8
1
  6
Continuous
100
AcDbCircle
 10
284.0366399999999
 20
155.935
 30
0.0
 40
3.5
  0
CIRCLE
  5
95B9
330
93D0
100
AcDbEntity
  8
1
  6
Continuous
100
AcDbCircle
 10
284.0366399999999
 20
155.935
 30
0.0
 40
3.799999999999998
  0
ARC
  5
95BA
330
93D0
100
AcDbEntity
  8
1
  6
Continuous
100
AcDbCircle
 10
283.0366399999999
 20
155.935
 30
0.0
 40
3.59423
100
AcDbArc
 50
94.16050000000002
 51
265.8399999999999
  0
ARC
  5
95BB
330
93D0
100
AcDbEntity
  8
1
  6
Continuous
100
AcDbCircle
 10
285.03664
 20
155.935
 30
0.0
 40
3.59423
100
AcDbArc
 50
274.16
 51
85.83960000000002
  0
ARC
  5
95BC
330
93D0
100
AcDbEntity
  8
1
  6
Continuous
100
AcDbCircle
 10
283.0366399999999
 20
155.935
 30
0.0
 40
4.799999999999998
100
AcDbArc
 50
90.0
 51
270.0
  0
ARC
  5
95BD
330
93D0
100
AcDbEntity
  8
1
  6
Continuous
100
AcDbCircle
 10
285.03664
 20
155.935
 30
0.0
 40
4.799999999999998
100
AcDbArc
 50
270.0
 51
90.0
  0
LINE
  5
95BE
330
93D0
100
AcDbEntity
  8
1
  6
Continuous
100
AcDbLine
 10
162.805653
 20
242.594498
 30
0.0
 11
167.2896399999999
 21
242.0339999999999
 31
0.0
  0
LINE
  5
95BF
330
93D0
100
AcDbEntity
  8
1
  6
Continuous
100
AcDbLine
 10
167.2896399999999
 20
222.534
 30
0.0
 11
162.805653
 21
221.9735019999999
 31
0.0
  0
LINE
  5
95C0
330
93D0
100
AcDbEntity
  8
1
  6
Continuous
100
AcDbLine
 10
284.7576399999999
 20
137.9559999999999
 30
0.0
 11
284.7576399999999
 21
136.4349999999998
 31
0.0
  0
ARC
  5
95C1
330
93D0
100
AcDbEntity
  8
1
  6
Continuous
100
AcDbCircle
 10
284.25764
 20
136.4349999999998
 30
0.0
 40
0.5
100
AcDbArc
 50
270.0
 51
0.0
  0
LINE
  5
95C2
330
93D0
100
AcDbEntity
  8
4
  6
CENTER
100
AcDbLine
 10
238.0366399999998
 20
125.9349999999999
 30
0.0
 11
243.03664
 21
125.9349999999999
 31
0.0
  0
CIRCLE
  5
95C3
330
93D0
100
AcDbEntity
  8
5
  6
PHANTOM
100
AcDbCircle
 10
310.00456
 20
119.857417
 30
0.0
 40
1.5
  0
LINE
  5
95C4
330
93D0
100
AcDbEntity
  8
4
  6
CENTER
100
AcDbLine
 10
311.772327
 20
118.08965
 30
0.0
 11
308.2367929999999
 21
121.6251839999999
 31
0.0
  0
LINE
  5
95C5
330
93D0
100
AcDbEntity
  8
4
  6
CENTER
100
AcDbLine
 10
311.772327
 20
121.6251839999999
 30
0.0
 11
308.2367929999999
 21
118.08965
 31
0.0
  0
LINE
  5
95C6
330
93D0
100
AcDbEntity
  8
4
  6
CENTER
100
AcDbLine
 10
249.0201349999999
 20
152.4515039999998
 30
0.0
 11
252.555669
 21
148.9159699999999
 31
0.0
  0
CIRCLE
  5
95C7
330
93D0
100
AcDbEntity
  8
5
  6
PHANTOM
100
AcDbCircle
 10
250.787902
 20
150.683737
 30
0.0
 40
1.5
  0
LINE
  5
95C8
330
93D0
100
AcDbEntity
  8
4
  6
CENTER
100
AcDbLine
 10
252.555669
 20
152.4515039999998
 30
0.0
 11
249.0201349999999
 21
148.9159699999999
 31
0.0
  0
LINE
  5
95C9
330
93D0
100
AcDbEntity
  8
4
  6
CENTER
100
AcDbLine
 10
20.62834
 20
155.935
 30
0.0
 11
34.68833999999999
 21
155.935
 31
0.0
  0
LINE
  5
95CA
330
93D0
100
AcDbEntity
  8
4
  6
CENTER
100
AcDbLine
 10
44.3308
 20
125.9349999999999
 30
0.0
 11
10.60109299999999
 21
125.9349999999999
 31
0.0
  0
LINE
  5
95CB
330
93D0
100
AcDbEntity
  8
4
  6
CENTER
100
AcDbLine
 10
20.62834
 20
50.9352
 30
0.0
 11
34.68833999999999
 21
50.9352
 31
0.0
  0
LINE
  5
95CC
330
93D0
100
AcDbEntity
  8
1
  6
Continuous
100
AcDbLine
 10
59.04234
 20
235.3839939999998
 30
0.0
 11
61.39535799999999
 21
233.0380819999998
 31
0.0
  0
LINE
  5
95CD
330
93D0
100
AcDbEntity
  8
1
  6
Continuous
100
AcDbLine
 10
58.04234000000001
 20
229.183994
 30
0.0
 11
61.38443399999999
 21
232.319341
 31
0.0
  0
LINE
  5
95CE
330
93D0
100
AcDbEntity
  8
1
  6
Continuous
100
AcDbLine
 10
58.042376
 20
229.184
 30
0.0
 11
61.38446999999999
 21
232.319347
 31
0.0
  0
LINE
  5
95CF
330
93D0
100
AcDbEntity
  8
1
  6
Continuous
100
AcDbLine
 10
59.042376
 20
235.3839999999999
 30
0.0
 11
61.395394
 21
233.0380879999999
 31
0.0
  0
LINE
  5
95D0
330
93D0
100
AcDbEntity
  8
1
  6
Continuous
100
AcDbLine
 10
38.04234000000001
 20
232.9839939999998
 30
0.0
 11
61.44961
 21
232.9839939999998
 31
0.0
  0
LINE
  5
95D1
330
93D0
100
AcDbEntity
  8
1
  6
Continuous
100
AcDbLine
 10
38.04234000000001
 20
231.783994
 30
0.0
 11
60.813786
 21
231.783994
 31
0.0
  0
LINE
  5
95D2
330
93D0
100
AcDbEntity
  8
1
  6
Continuous
100
AcDbLine
 10
38.042376
 20
231.7839999999999
 30
0.0
 11
60.813822
 21
231.7839999999999
 31
0.0
  0
LINE
  5
95D3
330
93D0
100
AcDbEntity
  8
1
  6
Continuous
100
AcDbLine
 10
38.042376
 20
232.984
 30
0.0
 11
61.44964599999998
 21
232.984
 31
0.0
  0
LINE
  5
95D4
330
93D0
100
AcDbEntity
  8
4
  6
CENTER
100
AcDbLine
 10
11.796827
 20
232.283994
 30
0.0
 11
62.83124799999999
 21
232.283994
 31
0.0
  0
LINE
  5
95D5
330
93D0
100
AcDbEntity
  8
4
  6
CENTER
100
AcDbLine
 10
11.79686299999998
 20
232.2839999999999
 30
0.0
 11
62.83128399999998
 21
232.2839999999999
 31
0.0
  0
LINE
  5
95D6
330
93D0
100
AcDbEntity
  8
1
  6
Continuous
100
AcDbLine
 10
25.07567299999999
 20
220.683994
 30
0.0
 11
34.54234
 21
227.783994
 31
0.0
  0
LINE
  5
95D7
330
93D0
100
AcDbEntity
  8
1
  6
Continuous
100
AcDbLine
 10
34.54234
 20
229.0339939999999
 30
0.0
 11
24.475673
 21
221.483994
 31
0.0
  0
ARC
  5
95D8
330
93D0
100
AcDbEntity
  8
1
  6
Continuous
100
AcDbCircle
 10
24.50018899999999
 20
227.6184049999999
 30
0.0
 40
2.004309
100
AcDbArc
 50
270.0
 51
324.4619999999998
  0
ARC
  5
95D9
330
93D0
100
AcDbEntity
  8
1
  6
Continuous
100
AcDbCircle
 10
24.500225
 20
227.61841
 30
0.0
 40
2.004309
100
AcDbArc
 50
270.0
 51
324.4619999999998
  0
LINE
  5
95DA
330
93D0
100
AcDbEntity
  8
1
  6
Continuous
100
AcDbLine
 10
34.54237599999999
 20
229.034
 30
0.0
 11
24.475709
 21
221.484
 31
0.0
  0
LINE
  5
95DB
330
93D0
100
AcDbEntity
  8
1
  6
Continuous
100
AcDbLine
 10
25.075709
 20
220.684
 30
0.0
 11
34.54237599999999
 21
227.7839999999999
 31
0.0
  0
LINE
  5
95DC
330
93D0
100
AcDbEntity
  8
1
  6
Continuous
100
AcDbLine
 10
13.878239
 20
227.280145
 30
0.0
 11
17.948607
 21
221.1745939999999
 31
0.0
  0
LINE
  5
95DD
330
93D0
100
AcDbEntity
  8
1
  6
Continuous
100
AcDbLine
 10
18.780657
 20
221.7292939999999
 30
0.0
 11
14.71028999999998
 21
227.834845
 31
0.0
  0
LINE
  5
95DE
330
93D0
100
AcDbEntity
  8
1
  6
Continuous
100
AcDbLine
 10
18.78069299999999
 20
221.7293
 30
0.0
 11
14.710326
 21
227.8348509999999
 31
0.0
  0
LINE
  5
95DF
330
93D0
100
AcDbEntity
  8
1
  6
Continuous
100
AcDbLine
 10
13.878275
 20
227.2801509999999
 30
0.0
 11
17.948643
 21
221.1746
 31
0.0
  0
LINE
  5
95E0
330
93D0
100
AcDbEntity
  8
1
  6
Continuous
100
AcDbLine
 10
19.612707
 20
220.283994
 30
0.0
 11
23.875673
 21
220.283994
 31
0.0
  0
LINE
  5
95E1
330
93D0
100
AcDbEntity
  8
1
  6
Continuous
100
AcDbLine
 10
23.875673
 20
221.283994
 30
0.0
 11
19.612707
 21
221.283994
 31
0.0
  0
LINE
  5
95E2
330
93D0
100
AcDbEntity
  8
1
  6
Continuous
100
AcDbLine
 10
23.875709
 20
221.2839999999999
 30
0.0
 11
19.61274299999999
 21
221.2839999999999
 31
0.0
  0
LINE
  5
95E3
330
93D0
100
AcDbEntity
  8
1
  6
Continuous
100
AcDbLine
 10
19.61274299999999
 20
220.284
 30
0.0
 11
23.875709
 21
220.284
 31
0.0
  0
ARC
  5
95E4
330
93D0
100
AcDbEntity
  8
1
  6
Continuous
100
AcDbCircle
 10
19.612707
 20
222.283994
 30
0.0
 40
1.0
100
AcDbArc
 50
213.690068
 51
270.0
  0
ARC
  5
95E5
330
93D0
100
AcDbEntity
  8
1
  6
Continuous
100
AcDbCircle
 10
19.61274299999999
 20
222.284
 30
0.0
 40
1.0
100
AcDbArc
 50
213.690068
 51
270.0
  0
ARC
  5
95E6
330
93D0
100
AcDbEntity
  8
1
  6
Continuous
100
AcDbCircle
 10
19.612707
 20
222.283994
 30
0.0
 40
2.0
100
AcDbArc
 50
213.690068
 51
270.0
  0
ARC
  5
95E7
330
93D0
100
AcDbEntity
  8
1
  6
Continuous
100
AcDbCircle
 10
19.61274299999999
 20
222.284
 30
0.0
 40
2.0
100
AcDbArc
 50
213.690068
 51
270.0
  0
ARC
  5
95E8
330
93D0
100
AcDbEntity
  8
1
  6
Continuous
100
AcDbCircle
 10
23.875673
 20
222.283994
 30
0.0
 40
2.0
100
AcDbArc
 50
270.0
 51
306.8698979999999
  0
ARC
  5
95E9
330
93D0
100
AcDbEntity
  8
1
  6
Continuous
100
AcDbCircle
 10
23.875673
 20
222.283994
 30
0.0
 40
1.0
100
AcDbArc
 50
270.0
 51
306.8698979999999
  0
ARC
  5
95EA
330
93D0
100
AcDbEntity
  8
1
  6
Continuous
100
AcDbCircle
 10
23.875709
 20
222.284
 30
0.0
 40
1.0
100
AcDbArc
 50
270.0
 51
306.8698979999999
  0
ARC
  5
95EB
330
93D0
100
AcDbEntity
  8
1
  6
Continuous
100
AcDbCircle
 10
23.875709
 20
222.284
 30
0.0
 40
2.0
100
AcDbArc
 50
270.0
 51
306.8698979999999
  0
LINE
  5
95EC
330
93D0
100
AcDbEntity
  8
1
  6
Continuous
100
AcDbLine
 10
25.07567299999999
 20
243.883994
 30
0.0
 11
34.54234
 21
236.783994
 31
0.0
  0
LINE
  5
95ED
330
93D0
100
AcDbEntity
  8
1
  6
Continuous
100
AcDbLine
 10
24.475673
 20
243.0839939999999
 30
0.0
 11
34.54234
 21
235.5339939999999
 31
0.0
  0
LINE
  5
95EE
330
93D0
100
AcDbEntity
  8
1
  6
Continuous
100
AcDbLine
 10
24.475709
 20
243.0839999999999
 30
0.0
 11
34.54237599999999
 21
235.5339999999999
 31
0.0
  0
LINE
  5
95EF
330
93D0
100
AcDbEntity
  8
1
  6
Continuous
100
AcDbLine
 10
25.075709
 20
243.8839999999999
 30
0.0
 11
34.54237599999999
 21
236.784
 31
0.0
  0
LINE
  5
95F0
330
93D0
100
AcDbEntity
  8
1
  6
Continuous
100
AcDbLine
 10
13.878239
 20
237.287843
 30
0.0
 11
17.948607
 21
243.393394
 31
0.0
  0
LINE
  5
95F1
330
93D0
100
AcDbEntity
  8
1
  6
Continuous
100
AcDbLine
 10
13.878275
 20
237.287849
 30
0.0
 11
17.948643
 21
243.3934
 31
0.0
  0
LINE
  5
95F2
330
93D0
100
AcDbEntity
  8
1
  6
Continuous
100
AcDbLine
 10
13.54233999999999
 20
236.1784429999999
 30
0.0
 11
13.54233999999999
 21
228.389545
 31
0.0
  0
LINE
  5
95F3
330
93D0
100
AcDbEntity
  8
1
  6
Continuous
100
AcDbLine
 10
13.542376
 20
236.178449
 30
0.0
 11
13.542376
 21
228.3895509999999
 31
0.0
  0
ARC
  5
95F4
330
93D0
100
AcDbEntity
  8
1
  6
Continuous
100
AcDbCircle
 10
15.54234
 20
228.389545
 30
0.0
 40
2.0
100
AcDbArc
 50
180.0
 51
213.690068
  0
ARC
  5
95F5
330
93D0
100
AcDbEntity
  8
1
  6
Continuous
100
AcDbCircle
 10
15.542376
 20
228.3895509999999
 30
0.0
 40
2.0
100
AcDbArc
 50
180.0
 51
213.690068
  0
ARC
  5
95F6
330
93D0
100
AcDbEntity
  8
1
  6
Continuous
100
AcDbCircle
 10
15.54234
 20
236.1784429999999
 30
0.0
 40
2.0
100
AcDbArc
 50
146.3099319999998
 51
180.0
  0
ARC
  5
95F7
330
93D0
100
AcDbEntity
  8
1
  6
Continuous
100
AcDbCircle
 10
15.542376
 20
236.178449
 30
0.0
 40
2.0
100
AcDbArc
 50
146.3099319999998
 51
180.0
  0
ARC
  5
95F8
330
93D0
100
AcDbEntity
  8
1
  6
Continuous
100
AcDbCircle
 10
24.111784
 20
236.172775
 30
0.0
 40
0.388957
100
AcDbArc
 50
270.0
 51
90.0
  0
ARC
  5
95F9
330
93D0
100
AcDbEntity
  8
1
  6
Continuous
100
AcDbCircle
 10
31.033593
 20
232.283994
 30
0.0
 40
10.032628
100
AcDbArc
 50
144.462
 51
215.5377
  0
ARC
  5
95FA
330
93D0
100
AcDbEntity
  8
1
  6
Continuous
100
AcDbCircle
 10
17.968363
 20
232.283994
 30
0.0
 40
10.032628
100
AcDbArc
 50
324.4619999999998
 51
35.53799999999999
  0
ARC
  5
95FB
330
93D0
100
AcDbEntity
  8
1
  6
Continuous
100
AcDbCircle
 10
17.96839899999999
 20
232.2839999999999
 30
0.0
 40
10.032628
100
AcDbArc
 50
324.4619999999998
 51
35.53799999999999
  0
ARC
  5
95FC
330
93D0
100
AcDbEntity
  8
1
  6
Continuous
100
AcDbCircle
 10
24.11182
 20
236.172781
 30
0.0
 40
0.388957
100
AcDbArc
 50
270.0
 51
90.0
  0
ARC
  5
95FD
330
93D0
100
AcDbEntity
  8
1
  6
Continuous
100
AcDbCircle
 10
31.033629
 20
232.2839999999999
 30
0.0
 40
10.032628
100
AcDbArc
 50
144.462
 51
215.5377
  0
ARC
  5
95FE
330
93D0
100
AcDbEntity
  8
1
  6
Continuous
100
AcDbCircle
 10
19.04233999999998
 20
235.783994
 30
0.0
 40
0.5
100
AcDbArc
 50
0.0
 51
90.0
  0
ARC
  5
95FF
330
93D0
100
AcDbEntity
  8
1
  6
Continuous
100
AcDbCircle
 10
16.04233999999999
 20
235.783994
 30
0.0
 40
0.5
100
AcDbArc
 50
90.0
 51
180.0
  0
LINE
  5
9600
330
93D0
100
AcDbEntity
  8
1
  6
Continuous
100
AcDbLine
 10
14.54234
 20
228.389545
 30
0.0
 11
14.54234
 21
236.1784429999999
 31
0.0
  0
LINE
  5
9601
330
93D0
100
AcDbEntity
  8
1
  6
Continuous
100
AcDbLine
 10
14.542376
 20
228.3895509999999
 30
0.0
 11
14.542376
 21
236.178449
 31
0.0
  0
ARC
  5
9602
330
93D0
100
AcDbEntity
  8
1
  6
Continuous
100
AcDbCircle
 10
16.042376
 20
235.7839999999999
 30
0.0
 40
0.5
100
AcDbArc
 50
90.0
 51
180.0
  0
ARC
  5
9603
330
93D0
100
AcDbEntity
  8
1
  6
Continuous
100
AcDbCircle
 10
19.042376
 20
235.7839999999999
 30
0.0
 40
0.5
100
AcDbArc
 50
0.0
 51
90.0
  0
LINE
  5
9604
330
93D0
100
AcDbEntity
  8
1
  6
Continuous
100
AcDbLine
 10
15.54234
 20
235.783994
 30
0.0
 11
15.54234
 21
228.783994
 31
0.0
  0
LINE
  5
9605
330
93D0
100
AcDbEntity
  8
1
  6
Continuous
100
AcDbLine
 10
19.54233999999998
 20
235.783994
 30
0.0
 11
19.54233999999998
 21
228.783994
 31
0.0
  0
LINE
  5
9606
330
93D0
100
AcDbEntity
  8
1
  6
Continuous
100
AcDbLine
 10
19.542376
 20
235.7839999999999
 30
0.0
 11
19.542376
 21
228.784
 31
0.0
  0
LINE
  5
9607
330
93D0
100
AcDbEntity
  8
1
  6
Continuous
100
AcDbLine
 10
15.542376
 20
235.7839999999999
 30
0.0
 11
15.542376
 21
228.784
 31
0.0
  0
LINE
  5
9608
330
93D0
100
AcDbEntity
  8
1
  6
Continuous
100
AcDbLine
 10
16.04233999999999
 20
228.283994
 30
0.0
 11
19.04233999999998
 21
228.283994
 31
0.0
  0
LINE
  5
9609
330
93D0
100
AcDbEntity
  8
1
  6
Continuous
100
AcDbLine
 10
16.042376
 20
228.2839999999999
 30
0.0
 11
19.042376
 21
228.2839999999999
 31
0.0
  0
ARC
  5
960A
330
93D0
100
AcDbEntity
  8
1
  6
Continuous
100
AcDbCircle
 10
16.04233999999999
 20
228.783994
 30
0.0
 40
0.5
100
AcDbArc
 50
180.0
 51
270.0
  0
ARC
  5
960B
330
93D0
100
AcDbEntity
  8
1
  6
Continuous
100
AcDbCircle
 10
15.54234
 20
228.389545
 30
0.0
 40
1.0
100
AcDbArc
 50
180.0
 51
213.690068
  0
ARC
  5
960C
330
93D0
100
AcDbEntity
  8
1
  6
Continuous
100
AcDbCircle
 10
15.542376
 20
228.3895509999999
 30
0.0
 40
1.0
100
AcDbArc
 50
180.0
 51
213.690068
  0
ARC
  5
960D
330
93D0
100
AcDbEntity
  8
1
  6
Continuous
100
AcDbCircle
 10
16.042376
 20
228.784
 30
0.0
 40
0.5
100
AcDbArc
 50
180.0
 51
270.0
  0
ARC
  5
960E
330
93D0
100
AcDbEntity
  8
1
  6
Continuous
100
AcDbCircle
 10
19.04233999999998
 20
228.783994
 30
0.0
 40
0.5
100
AcDbArc
 50
270.0
 51
0.0
  0
ARC
  5
960F
330
93D0
100
AcDbEntity
  8
1
  6
Continuous
100
AcDbCircle
 10
19.042376
 20
228.784
 30
0.0
 40
0.5
100
AcDbArc
 50
270.0
 51
0.0
  0
LINE
  5
9610
330
93D0
100
AcDbEntity
  8
1
  6
Continuous
100
AcDbLine
 10
26.919032
 20
230.3403929999999
 30
0.0
 11
25.43330599999999
 21
230.3403929999999
 31
0.0
  0
LINE
  5
9611
330
93D0
100
AcDbEntity
  8
1
  6
Continuous
100
AcDbLine
 10
22.480801
 20
229.562006
 30
0.0
 11
26.521155
 21
229.562006
 31
0.0
  0
LINE
  5
9612
330
93D0
100
AcDbEntity
  8
1
  6
Continuous
100
AcDbLine
 10
22.58185
 20
228.785197
 30
0.0
 11
26.418527
 21
228.785197
 31
0.0
  0
LINE
  5
9613
330
93D0
100
AcDbEntity
  8
1
  6
Continuous
100
AcDbLine
 10
25.93538999999999
 20
228.0068089999998
 30
0.0
 11
23.066566
 21
228.0068089999998
 31
0.0
  0
LINE
  5
9614
330
93D0
100
AcDbEntity
  8
1
  6
Continuous
100
AcDbLine
 10
22.36712199999999
 20
227.2299999999999
 30
0.0
 11
25.72066299999999
 21
227.2299999999999
 31
0.0
  0
LINE
  5
9615
330
93D0
100
AcDbEntity
  8
1
  6
Continuous
100
AcDbLine
 10
26.919069
 20
230.340399
 30
0.0
 11
25.433343
 21
230.340399
 31
0.0
  0
LINE
  5
9616
330
93D0
100
AcDbEntity
  8
1
  6
Continuous
100
AcDbLine
 10
22.48083799999999
 20
229.5620109999999
 30
0.0
 11
26.521191
 21
229.5620109999999
 31
0.0
  0
LINE
  5
9617
330
93D0
100
AcDbEntity
  8
1
  6
Continuous
100
AcDbLine
 10
22.58188599999999
 20
228.7852019999998
 30
0.0
 11
26.41856399999999
 21
228.7852019999998
 31
0.0
  0
LINE
  5
9618
330
93D0
100
AcDbEntity
  8
1
  6
Continuous
100
AcDbLine
 10
25.935427
 20
228.0068149999999
 30
0.0
 11
23.066602
 21
228.0068149999999
 31
0.0
  0
LINE
  5
9619
330
93D0
100
AcDbEntity
  8
1
  6
Continuous
100
AcDbLine
 10
22.367158
 20
227.230006
 30
0.0
 11
25.720699
 21
227.230006
 31
0.0
  0
ARC
  5
961A
330
93D0
100
AcDbEntity
  8
1
  6
Continuous
100
AcDbCircle
 10
22.480801
 20
229.951989
 30
0.0
 40
0.388957
100
AcDbArc
 50
195.2574999999999
 51
270.0
  0
ARC
  5
961B
330
93D0
100
AcDbEntity
  8
1
  6
Continuous
100
AcDbCircle
 10
31.033593
 20
232.283994
 30
0.0
 40
9.254918999999999
100
AcDbArc
 50
193.2680999999999
 51
195.2574999999999
  0
ARC
  5
961C
330
93D0
100
AcDbEntity
  8
1
  6
Continuous
100
AcDbCircle
 10
31.033593
 20
232.283994
 30
0.0
 40
9.254918999999999
100
AcDbArc
 50
192.7289
 51
193.2680999999999
  0
ARC
  5
961D
330
93D0
100
AcDbEntity
  8
1
  6
Continuous
100
AcDbCircle
 10
22.08292399999999
 20
230.2630279999999
 30
0.0
 40
0.077791
100
AcDbArc
 50
90.0
 51
192.7289
  0
ARC
  5
961E
330
93D0
100
AcDbEntity
  8
1
  6
Continuous
100
AcDbCircle
 10
22.58185
 20
228.7078319999999
 30
0.0
 40
0.077791
100
AcDbArc
 50
90.0
 51
202.944
  0
ARC
  5
961F
330
93D0
100
AcDbEntity
  8
1
  6
Continuous
100
AcDbCircle
 10
31.033593
 20
232.283994
 30
0.0
 40
9.254918999999999
100
AcDbArc
 50
202.944
 51
206.0144
  0
ARC
  5
9620
330
93D0
100
AcDbEntity
  8
1
  6
Continuous
100
AcDbCircle
 10
23.066566
 20
228.396792
 30
0.0
 40
0.388957
100
AcDbArc
 50
206.0144
 51
270.0
  0
ARC
  5
9621
330
93D0
100
AcDbEntity
  8
1
  6
Continuous
100
AcDbCircle
 10
24.50018899999999
 20
227.6184049999999
 30
0.0
 40
2.004309
100
AcDbArc
 50
215.5377
 51
256.5374
  0
LINE
  5
9622
330
93D0
100
AcDbEntity
  8
1
  6
Continuous
100
AcDbLine
 10
23.56707099999999
 20
230.3403929999999
 30
0.0
 11
22.08292399999999
 21
230.3403929999999
 31
0.0
  0
ARC
  5
9623
330
93D0
100
AcDbEntity
  8
1
  6
Continuous
100
AcDbCircle
 10
22.48083799999999
 20
229.951995
 30
0.0
 40
0.388957
100
AcDbArc
 50
195.2574999999999
 51
270.0
  0
ARC
  5
9624
330
93D0
100
AcDbEntity
  8
1
  6
Continuous
100
AcDbCircle
 10
31.033629
 20
232.2839999999999
 30
0.0
 40
9.254918999999999
100
AcDbArc
 50
193.2680999999999
 51
195.2574999999999
  0
ARC
  5
9625
330
93D0
100
AcDbEntity
  8
1
  6
Continuous
100
AcDbCircle
 10
31.033629
 20
232.2839999999999
 30
0.0
 40
9.254918999999999
100
AcDbArc
 50
192.7289
 51
193.2680999999999
  0
ARC
  5
9626
330
93D0
100
AcDbEntity
  8
1
  6
Continuous
100
AcDbCircle
 10
22.08296
 20
230.2630339999998
 30
0.0
 40
0.077791
100
AcDbArc
 50
90.0
 51
192.7289
  0
ARC
  5
9627
330
93D0
100
AcDbEntity
  8
1
  6
Continuous
100
AcDbCircle
 10
22.58188599999999
 20
228.707837
 30
0.0
 40
0.077791
100
AcDbArc
 50
90.0
 51
202.944
  0
ARC
  5
9628
330
93D0
100
AcDbEntity
  8
1
  6
Continuous
100
AcDbCircle
 10
31.033629
 20
232.2839999999999
 30
0.0
 40
9.254918999999999
100
AcDbArc
 50
202.944
 51
206.0144
  0
ARC
  5
9629
330
93D0
100
AcDbEntity
  8
1
  6
Continuous
100
AcDbCircle
 10
23.066602
 20
228.3967979999999
 30
0.0
 40
0.388957
100
AcDbArc
 50
206.0144
 51
270.0
  0
LINE
  5
962A
330
93D0
100
AcDbEntity
  8
1
  6
Continuous
100
AcDbLine
 10
23.567107
 20
230.340399
 30
0.0
 11
22.08296
 21
230.340399
 31
0.0
  0
ARC
  5
962B
330
93D0
100
AcDbEntity
  8
1
  6
Continuous
100
AcDbCircle
 10
24.500225
 20
227.61841
 30
0.0
 40
2.004309
100
AcDbArc
 50
215.5377
 51
256.5374
  0
ARC
  5
962C
330
93D0
100
AcDbEntity
  8
1
  6
Continuous
100
AcDbCircle
 10
17.968363
 20
232.283994
 30
0.0
 40
9.254918999999999
100
AcDbArc
 50
333.9859999999998
 51
337.0559999999999
  0
ARC
  5
962D
330
93D0
100
AcDbEntity
  8
1
  6
Continuous
100
AcDbCircle
 10
26.418527
 20
228.7078319999999
 30
0.0
 40
0.077791
100
AcDbArc
 50
337.0559999999999
 51
90.0
  0
ARC
  5
962E
330
93D0
100
AcDbEntity
  8
1
  6
Continuous
100
AcDbCircle
 10
26.919032
 20
230.2630279999999
 30
0.0
 40
0.077791
100
AcDbArc
 50
347.2709999999998
 51
90.0
  0
ARC
  5
962F
330
93D0
100
AcDbEntity
  8
1
  6
Continuous
100
AcDbCircle
 10
17.968363
 20
232.283994
 30
0.0
 40
9.254918999999999
100
AcDbArc
 50
344.794
 51
347.2709999999998
  0
ARC
  5
9630
330
93D0
100
AcDbEntity
  8
1
  6
Continuous
100
AcDbCircle
 10
17.968363
 20
232.283994
 30
0.0
 40
9.254918999999999
100
AcDbArc
 50
344.7419999999998
 51
344.794
  0
ARC
  5
9631
330
93D0
100
AcDbEntity
  8
1
  6
Continuous
100
AcDbCircle
 10
26.521155
 20
229.951989
 30
0.0
 40
0.388957
100
AcDbArc
 50
270.0
 51
344.7419999999998
  0
ARC
  5
9632
330
93D0
100
AcDbEntity
  8
1
  6
Continuous
100
AcDbCircle
 10
25.93538999999999
 20
228.396792
 30
0.0
 40
0.388957
100
AcDbArc
 50
270.0
 51
333.9859999999998
  0
ARC
  5
9633
330
93D0
100
AcDbEntity
  8
1
  6
Continuous
100
AcDbCircle
 10
17.96839899999999
 20
232.2839999999999
 30
0.0
 40
9.254918999999999
100
AcDbArc
 50
333.9859999999998
 51
337.0559999999999
  0
ARC
  5
9634
330
93D0
100
AcDbEntity
  8
1
  6
Continuous
100
AcDbCircle
 10
26.41856399999999
 20
228.707837
 30
0.0
 40
0.077791
100
AcDbArc
 50
337.0559999999999
 51
90.0
  0
ARC
  5
9635
330
93D0
100
AcDbEntity
  8
1
  6
Continuous
100
AcDbCircle
 10
26.919069
 20
230.2630339999998
 30
0.0
 40
0.077791
100
AcDbArc
 50
347.2709999999998
 51
90.0
  0
ARC
  5
9636
330
93D0
100
AcDbEntity
  8
1
  6
Continuous
100
AcDbCircle
 10
17.96839899999999
 20
232.2839999999999
 30
0.0
 40
9.254918999999999
100
AcDbArc
 50
344.794
 51
347.2709999999998
  0
ARC
  5
9637
330
93D0
100
AcDbEntity
  8
1
  6
Continuous
100
AcDbCircle
 10
17.96839899999999
 20
232.2839999999999
 30
0.0
 40
9.254918999999999
100
AcDbArc
 50
344.7419999999998
 51
344.794
  0
ARC
  5
9638
330
93D0
100
AcDbEntity
  8
1
  6
Continuous
100
AcDbCircle
 10
26.521191
 20
229.951995
 30
0.0
 40
0.388957
100
AcDbArc
 50
270.0
 51
344.7419999999998
  0
ARC
  5
9639
330
93D0
100
AcDbEntity
  8
1
  6
Continuous
100
AcDbCircle
 10
25.935427
 20
228.3967979999999
 30
0.0
 40
0.388957
100
AcDbArc
 50
270.0
 51
333.9859999999998
  0
LINE
  5
963A
330
93D0
100
AcDbEntity
  8
1
  6
Continuous
100
AcDbLine
 10
21.787673
 20
231.89559
 30
0.0
 11
27.21428299999999
 21
231.89559
 31
0.0
  0
LINE
  5
963B
330
93D0
100
AcDbEntity
  8
1
  6
Continuous
100
AcDbLine
 10
21.852407
 20
231.118781
 30
0.0
 11
27.149549
 21
231.118781
 31
0.0
  0
LINE
  5
963C
330
93D0
100
AcDbEntity
  8
1
  6
Continuous
100
AcDbLine
 10
21.94398199999999
 20
235.0059829999999
 30
0.0
 11
26.81324699999999
 21
235.0059829999999
 31
0.0
  0
LINE
  5
963D
330
93D0
100
AcDbEntity
  8
1
  6
Continuous
100
AcDbLine
 10
26.69640999999999
 20
234.229174
 30
0.0
 11
24.50018899999999
 21
234.229174
 31
0.0
  0
LINE
  5
963E
330
93D0
100
AcDbEntity
  8
1
  6
Continuous
100
AcDbLine
 10
21.940824
 20
233.4507859999999
 30
0.0
 11
27.061132
 21
233.4507859999999
 31
0.0
  0
LINE
  5
963F
330
93D0
100
AcDbEntity
  8
1
  6
Continuous
100
AcDbLine
 10
21.787673
 20
232.673978
 30
0.0
 11
27.21428299999999
 21
232.673978
 31
0.0
  0
LINE
  5
9640
330
93D0
100
AcDbEntity
  8
1
  6
Continuous
100
AcDbLine
 10
21.78770899999999
 20
231.8955959999999
 30
0.0
 11
27.214319
 21
231.8955959999999
 31
0.0
  0
LINE
  5
9641
330
93D0
100
AcDbEntity
  8
1
  6
Continuous
100
AcDbLine
 10
21.85244399999999
 20
231.1187869999999
 30
0.0
 11
27.14958499999999
 21
231.1187869999999
 31
0.0
  0
LINE
  5
9642
330
93D0
100
AcDbEntity
  8
1
  6
Continuous
100
AcDbLine
 10
21.944019
 20
235.005989
 30
0.0
 11
26.81328399999999
 21
235.005989
 31
0.0
  0
LINE
  5
9643
330
93D0
100
AcDbEntity
  8
1
  6
Continuous
100
AcDbLine
 10
26.69644699999999
 20
234.2291799999999
 30
0.0
 11
24.500225
 21
234.2291799999999
 31
0.0
  0
LINE
  5
9644
330
93D0
100
AcDbEntity
  8
1
  6
Continuous
100
AcDbLine
 10
21.94086099999999
 20
233.4507919999999
 30
0.0
 11
27.061168
 21
233.4507919999999
 31
0.0
  0
LINE
  5
9645
330
93D0
100
AcDbEntity
  8
1
  6
Continuous
100
AcDbLine
 10
21.78770899999999
 20
232.673983
 30
0.0
 11
27.214319
 21
232.673983
 31
0.0
  0
LINE
  5
9646
330
93D0
100
AcDbEntity
  8
1
  6
Continuous
100
AcDbLine
 10
24.50018899999999
 20
231.89559
 30
0.0
 11
24.50018899999999
 21
231.118781
 31
0.0
  0
ARC
  5
9647
330
93D0
100
AcDbEntity
  8
1
  6
Continuous
100
AcDbCircle
 10
21.940824
 20
233.5297299999998
 30
0.0
 40
0.077791
100
AcDbArc
 50
172.2069999999999
 51
270.0
  0
ARC
  5
9648
330
93D0
100
AcDbEntity
  8
1
  6
Continuous
100
AcDbCircle
 10
31.033593
 20
232.283994
 30
0.0
 40
9.254918999999999
100
AcDbArc
 50
169.896
 51
172.2069999999999
  0
ARC
  5
9649
330
93D0
100
AcDbEntity
  8
1
  6
Continuous
100
AcDbCircle
 10
22.305546
 20
233.8407699999999
 30
0.0
 40
0.388957
100
AcDbArc
 50
90.0
 51
169.896
  0
LINE
  5
964A
330
93D0
100
AcDbEntity
  8
1
  6
Continuous
100
AcDbLine
 10
22.310282
 20
235.784371
 30
0.0
 11
24.111784
 21
235.784371
 31
0.0
  0
LINE
  5
964B
330
93D0
100
AcDbEntity
  8
1
  6
Continuous
100
AcDbLine
 10
24.50018899999999
 20
234.229174
 30
0.0
 11
24.50018899999999
 21
233.8407699999999
 31
0.0
  0
LINE
  5
964C
330
93D0
100
AcDbEntity
  8
1
  6
Continuous
100
AcDbLine
 10
23.56707099999999
 20
234.229174
 30
0.0
 11
22.305546
 21
234.229174
 31
0.0
  0
LINE
  5
964D
330
93D0
100
AcDbEntity
  8
1
  6
Continuous
100
AcDbLine
 10
24.500225
 20
231.8955959999999
 30
0.0
 11
24.500225
 21
231.1187869999999
 31
0.0
  0
ARC
  5
964E
330
93D0
100
AcDbEntity
  8
1
  6
Continuous
100
AcDbCircle
 10
21.94086099999999
 20
233.5297359999999
 30
0.0
 40
0.077791
100
AcDbArc
 50
172.2069999999999
 51
270.0
  0
ARC
  5
964F
330
93D0
100
AcDbEntity
  8
1
  6
Continuous
100
AcDbCircle
 10
31.033629
 20
232.2839999999999
 30
0.0
 40
9.254918999999999
100
AcDbArc
 50
169.896
 51
172.2069999999999
  0
ARC
  5
9650
330
93D0
100
AcDbEntity
  8
1
  6
Continuous
100
AcDbCircle
 10
22.305582
 20
233.840775
 30
0.0
 40
0.388957
100
AcDbArc
 50
90.0
 51
169.896
  0
LINE
  5
9651
330
93D0
100
AcDbEntity
  8
1
  6
Continuous
100
AcDbLine
 10
22.310319
 20
235.7843759999999
 30
0.0
 11
24.11182
 21
235.7843759999999
 31
0.0
  0
LINE
  5
9652
330
93D0
100
AcDbEntity
  8
1
  6
Continuous
100
AcDbLine
 10
24.500225
 20
234.2291799999999
 30
0.0
 11
24.500225
 21
233.840775
 31
0.0
  0
LINE
  5
9653
330
93D0
100
AcDbEntity
  8
1
  6
Continuous
100
AcDbLine
 10
23.567107
 20
234.2291799999999
 30
0.0
 11
22.305582
 21
234.2291799999999
 31
0.0
  0
ARC
  5
9654
330
93D0
100
AcDbEntity
  8
1
  6
Continuous
100
AcDbCircle
 10
17.968363
 20
232.283994
 30
0.0
 40
9.254918999999999
100
AcDbArc
 50
7.792999999999999
 51
10.10399999999999
  0
ARC
  5
9655
330
93D0
100
AcDbEntity
  8
1
  6
Continuous
100
AcDbCircle
 10
27.061132
 20
233.5297299999998
 30
0.0
 40
0.077791
100
AcDbArc
 50
270.0
 51
7.792999999999999
  0
ARC
  5
9656
330
93D0
100
AcDbEntity
  8
1
  6
Continuous
100
AcDbCircle
 10
26.69640999999999
 20
233.8407699999999
 30
0.0
 40
0.388957
100
AcDbArc
 50
10.10399999999999
 51
90.0
  0
ARC
  5
9657
330
93D0
100
AcDbEntity
  8
1
  6
Continuous
100
AcDbCircle
 10
17.96839899999999
 20
232.2839999999999
 30
0.0
 40
9.254918999999999
100
AcDbArc
 50
7.792999999999999
 51
10.10399999999999
  0
ARC
  5
9658
330
93D0
100
AcDbEntity
  8
1
  6
Continuous
100
AcDbCircle
 10
27.061168
 20
233.5297359999999
 30
0.0
 40
0.077791
100
AcDbArc
 50
270.0
 51
7.792999999999999
  0
ARC
  5
9659
330
93D0
100
AcDbEntity
  8
1
  6
Continuous
100
AcDbCircle
 10
26.69644699999999
 20
233.840775
 30
0.0
 40
0.388957
100
AcDbArc
 50
10.10399999999999
 51
90.0
  0
LINE
  5
965A
330
93D0
100
AcDbEntity
  8
1
  6
Continuous
100
AcDbLine
 10
19.612707
 20
244.283994
 30
0.0
 11
23.875673
 21
244.283994
 31
0.0
  0
LINE
  5
965B
330
93D0
100
AcDbEntity
  8
1
  6
Continuous
100
AcDbLine
 10
19.612707
 20
243.283994
 30
0.0
 11
23.875673
 21
243.283994
 31
0.0
  0
LINE
  5
965C
330
93D0
100
AcDbEntity
  8
1
  6
Continuous
100
AcDbLine
 10
19.61274299999999
 20
243.284
 30
0.0
 11
23.875709
 21
243.284
 31
0.0
  0
LINE
  5
965D
330
93D0
100
AcDbEntity
  8
1
  6
Continuous
100
AcDbLine
 10
19.61274299999999
 20
244.2839999999999
 30
0.0
 11
23.875709
 21
244.2839999999999
 31
0.0
  0
LINE
  5
965E
330
93D0
100
AcDbEntity
  8
1
  6
Continuous
100
AcDbLine
 10
18.780657
 20
242.838694
 30
0.0
 11
14.71028999999998
 21
236.733143
 31
0.0
  0
LINE
  5
965F
330
93D0
100
AcDbEntity
  8
1
  6
Continuous
100
AcDbLine
 10
18.78069299999999
 20
242.8386999999999
 30
0.0
 11
14.710326
 21
236.733149
 31
0.0
  0
LINE
  5
9660
330
93D0
100
AcDbEntity
  8
1
  6
Continuous
100
AcDbLine
 10
16.04233999999999
 20
236.283994
 30
0.0
 11
19.04233999999998
 21
236.283994
 31
0.0
  0
LINE
  5
9661
330
93D0
100
AcDbEntity
  8
1
  6
Continuous
100
AcDbLine
 10
16.042376
 20
236.2839999999999
 30
0.0
 11
19.042376
 21
236.2839999999999
 31
0.0
  0
LINE
  5
9662
330
93D0
100
AcDbEntity
  8
1
  6
Continuous
100
AcDbLine
 10
14.37527799999998
 20
238.0555299999998
 30
0.0
 11
14.41090199999998
 21
238.0868379999999
 31
0.0
  0
ARC
  5
9663
330
93D0
100
AcDbEntity
  8
1
  6
Continuous
100
AcDbCircle
 10
15.54234
 20
236.1784429999999
 30
0.0
 40
1.0
100
AcDbArc
 50
146.3099319999998
 51
180.0
  0
ARC
  5
9664
330
93D0
100
AcDbEntity
  8
1
  6
Continuous
100
AcDbCircle
 10
15.542376
 20
236.178449
 30
0.0
 40
1.0
100
AcDbArc
 50
146.3099319999998
 51
180.0
  0
LINE
  5
9665
330
93D0
100
AcDbEntity
  8
1
  6
Continuous
100
AcDbLine
 10
14.375314
 20
238.0555359999999
 30
0.0
 11
14.41093799999998
 21
238.0868439999999
 31
0.0
  0
ARC
  5
9666
330
93D0
100
AcDbEntity
  8
1
  6
Continuous
100
AcDbCircle
 10
19.612707
 20
242.283994
 30
0.0
 40
1.0
100
AcDbArc
 50
90.0
 51
146.3099319999998
  0
ARC
  5
9667
330
93D0
100
AcDbEntity
  8
1
  6
Continuous
100
AcDbCircle
 10
19.61274299999999
 20
242.2839999999999
 30
0.0
 40
1.0
100
AcDbArc
 50
90.0
 51
146.3099319999998
  0
ARC
  5
9668
330
93D0
100
AcDbEntity
  8
1
  6
Continuous
100
AcDbCircle
 10
19.612707
 20
242.283994
 30
0.0
 40
2.0
100
AcDbArc
 50
90.0
 51
146.3099319999998
  0
ARC
  5
9669
330
93D0
100
AcDbEntity
  8
1
  6
Continuous
100
AcDbCircle
 10
19.61274299999999
 20
242.2839999999999
 30
0.0
 40
2.0
100
AcDbArc
 50
90.0
 51
146.3099319999998
  0
LINE
  5
966A
330
93D0
100
AcDbEntity
  8
1
  6
Continuous
100
AcDbLine
 10
25.955916
 20
236.9574779999999
 30
0.0
 11
22.678161
 21
237.836914
 31
0.0
  0
LINE
  5
966B
330
93D0
100
AcDbEntity
  8
1
  6
Continuous
100
AcDbLine
 10
24.50018899999999
 20
236.172775
 30
0.0
 11
26.36642399999999
 21
236.172775
 31
0.0
  0
LINE
  5
966C
330
93D0
100
AcDbEntity
  8
1
  6
Continuous
100
AcDbLine
 10
24.500225
 20
236.172781
 30
0.0
 11
26.366461
 21
236.172781
 31
0.0
  0
LINE
  5
966D
330
93D0
100
AcDbEntity
  8
1
  6
Continuous
100
AcDbLine
 10
25.95595199999999
 20
236.9574839999999
 30
0.0
 11
22.67819799999999
 21
237.8369199999999
 31
0.0
  0
ARC
  5
966E
330
93D0
100
AcDbEntity
  8
1
  6
Continuous
100
AcDbCircle
 10
24.50018899999999
 20
236.9511629999998
 30
0.0
 40
2.004309
100
AcDbArc
 50
62.24999999999999
 51
144.462
  0
LINE
  5
966F
330
93D0
100
AcDbEntity
  8
1
  6
Continuous
100
AcDbLine
 10
24.50018899999999
 20
238.954761
 30
0.0
 11
24.50018899999999
 21
237.347462
 31
0.0
  0
LINE
  5
9670
330
93D0
100
AcDbEntity
  8
1
  6
Continuous
100
AcDbLine
 10
24.111784
 20
236.5627579999999
 30
0.0
 11
22.450803
 21
236.5627579999999
 31
0.0
  0
LINE
  5
9671
330
93D0
100
AcDbEntity
  8
1
  6
Continuous
100
AcDbLine
 10
24.500225
 20
238.954767
 30
0.0
 11
24.500225
 21
237.3474669999999
 31
0.0
  0
LINE
  5
9672
330
93D0
100
AcDbEntity
  8
1
  6
Continuous
100
AcDbLine
 10
24.11182
 20
236.562764
 30
0.0
 11
22.450839
 21
236.562764
 31
0.0
  0
ARC
  5
9673
330
93D0
100
AcDbEntity
  8
1
  6
Continuous
100
AcDbCircle
 10
24.500225
 20
236.9511689999999
 30
0.0
 40
2.004309
100
AcDbArc
 50
62.24999999999999
 51
144.462
  0
ARC
  5
9674
330
93D0
100
AcDbEntity
  8
1
  6
Continuous
100
AcDbCircle
 10
24.50018899999999
 20
236.9511629999998
 30
0.0
 40
2.004309
100
AcDbArc
 50
35.53799999999999
 51
45.69899999999999
  0
ARC
  5
9675
330
93D0
100
AcDbEntity
  8
1
  6
Continuous
100
AcDbCircle
 10
24.500225
 20
236.9511689999999
 30
0.0
 40
2.004309
100
AcDbArc
 50
35.53799999999999
 51
45.69899999999999
  0
ARC
  5
9676
330
93D0
100
AcDbEntity
  8
1
  6
Continuous
100
AcDbCircle
 10
23.875673
 20
242.283994
 30
0.0
 40
2.0
100
AcDbArc
 50
53.130102
 51
90.0
  0
ARC
  5
9677
330
93D0
100
AcDbEntity
  8
1
  6
Continuous
100
AcDbCircle
 10
23.875673
 20
242.283994
 30
0.0
 40
1.0
100
AcDbArc
 50
53.130102
 51
90.0
  0
ARC
  5
9678
330
93D0
100
AcDbEntity
  8
1
  6
Continuous
100
AcDbCircle
 10
23.875709
 20
242.2839999999999
 30
0.0
 40
1.0
100
AcDbArc
 50
53.130102
 51
90.0
  0
ARC
  5
9679
330
93D0
100
AcDbEntity
  8
1
  6
Continuous
100
AcDbCircle
 10
23.875709
 20
242.2839999999999
 30
0.0
 40
2.0
100
AcDbArc
 50
53.130102
 51
90.0
  0
LINE
  5
967A
330
93D0
100
AcDbEntity
  8
1
  6
Continuous
100
AcDbLine
 10
41.54234
 20
229.183994
 30
0.0
 11
58.04234000000001
 21
229.183994
 31
0.0
  0
LINE
  5
967B
330
93D0
100
AcDbEntity
  8
1
  6
Continuous
100
AcDbLine
 10
41.54234
 20
235.3839939999998
 30
0.0
 11
59.04234
 21
235.3839939999998
 31
0.0
  0
LINE
  5
967C
330
93D0
100
AcDbEntity
  8
1
  6
Continuous
100
AcDbLine
 10
41.542376
 20
235.3839999999999
 30
0.0
 11
59.042376
 21
235.3839999999999
 31
0.0
  0
LINE
  5
967D
330
93D0
100
AcDbEntity
  8
1
  6
Continuous
100
AcDbLine
 10
41.542376
 20
229.184
 30
0.0
 11
58.042376
 21
229.184
 31
0.0
  0
LINE
  5
967E
330
93D0
100
AcDbEntity
  8
1
  6
Continuous
100
AcDbLine
 10
41.54234
 20
236.4839939999999
 30
0.0
 11
41.54234
 21
235.3839939999998
 31
0.0
  0
LINE
  5
967F
330
93D0
100
AcDbEntity
  8
1
  6
Continuous
100
AcDbLine
 10
41.542376
 20
236.484
 30
0.0
 11
41.542376
 21
235.3839999999999
 31
0.0
  0
LINE
  5
9680
330
93D0
100
AcDbEntity
  8
1
  6
Continuous
100
AcDbLine
 10
34.54234
 20
227.783994
 30
0.0
 11
41.24234
 21
227.783994
 31
0.0
  0
LINE
  5
9681
330
93D0
100
AcDbEntity
  8
1
  6
Continuous
100
AcDbLine
 10
34.54237599999999
 20
227.7839999999999
 30
0.0
 11
41.24237599999999
 21
227.7839999999999
 31
0.0
  0
LINE
  5
9682
330
93D0
100
AcDbEntity
  8
1
  6
Continuous
100
AcDbLine
 10
34.54234
 20
229.0339939999999
 30
0.0
 11
34.54234
 21
235.5339939999999
 31
0.0
  0
LINE
  5
9683
330
93D0
100
AcDbEntity
  8
1
  6
Continuous
100
AcDbLine
 10
34.54237599999999
 20
229.034
 30
0.0
 11
34.54237599999999
 21
235.5339999999999
 31
0.0
  0
LINE
  5
9684
330
93D0
100
AcDbEntity
  8
1
  6
Continuous
100
AcDbLine
 10
41.54234
 20
229.183994
 30
0.0
 11
41.54234
 21
228.0839939999999
 31
0.0
  0
ARC
  5
9685
330
93D0
100
AcDbEntity
  8
1
  6
Continuous
100
AcDbCircle
 10
41.24234
 20
228.0839939999999
 30
0.0
 40
0.3
100
AcDbArc
 50
270.0
 51
0.0
  0
ARC
  5
9686
330
93D0
100
AcDbEntity
  8
1
  6
Continuous
100
AcDbCircle
 10
41.24237599999999
 20
228.0839999999999
 30
0.0
 40
0.3
100
AcDbArc
 50
270.0
 51
0.0
  0
LINE
  5
9687
330
93D0
100
AcDbEntity
  8
1
  6
Continuous
100
AcDbLine
 10
41.542376
 20
229.184
 30
0.0
 11
41.542376
 21
228.0839999999999
 31
0.0
  0
LINE
  5
9688
330
93D0
100
AcDbEntity
  8
1
  6
Continuous
100
AcDbLine
 10
38.04234000000001
 20
232.9839939999998
 30
0.0
 11
38.04234000000001
 21
231.783994
 31
0.0
  0
LINE
  5
9689
330
93D0
100
AcDbEntity
  8
1
  6
Continuous
100
AcDbLine
 10
38.042376
 20
232.984
 30
0.0
 11
38.042376
 21
231.7839999999999
 31
0.0
  0
LINE
  5
968A
330
93D0
100
AcDbEntity
  8
1
  6
Continuous
100
AcDbLine
 10
34.54234
 20
236.783994
 30
0.0
 11
41.24234
 21
236.783994
 31
0.0
  0
LINE
  5
968B
330
93D0
100
AcDbEntity
  8
1
  6
Continuous
100
AcDbLine
 10
34.54237599999999
 20
236.784
 30
0.0
 11
41.24237599999999
 21
236.784
 31
0.0
  0
ARC
  5
968C
330
93D0
100
AcDbEntity
  8
1
  6
Continuous
100
AcDbCircle
 10
41.24234
 20
236.4839939999999
 30
0.0
 40
0.3
100
AcDbArc
 50
0.0
 51
90.0
  0
ARC
  5
968D
330
93D0
100
AcDbEntity
  8
1
  6
Continuous
100
AcDbCircle
 10
41.24237599999999
 20
236.484
 30
0.0
 40
0.3
100
AcDbArc
 50
0.0
 51
90.0
  0
ARC
  5
968E
330
93D0
100
AcDbEntity
  8
1
  6
Continuous
100
AcDbCircle
 10
61.04234
 20
232.6839939999999
 30
0.0
 40
0.5
100
AcDbArc
 50
313.1718549999998
 51
45.08664600000001
  0
ARC
  5
968F
330
93D0
100
AcDbEntity
  8
1
  6
Continuous
100
AcDbCircle
 10
61.04237600000001
 20
232.684
 30
0.0
 40
0.5
100
AcDbArc
 50
313.1718549999998
 51
45.08664600000001
  0
ENDSEC
  0
SECTION
  2
OBJECTS
  0
DICTIONARY
  5
93BE
330
0
100
AcDbDictionary
281
     1
  3
ACAD_CIP_PREVIOUS_PRODUCT_INFO
350
96F5
  3
ACAD_COLOR
350
96D7
  3
ACAD_DETAILVIEWSTYLE
350
96F0
  3
ACAD_GROUP
350
93BF
  3
ACAD_LAYOUT
350
93CB
  3
ACAD_MATERIAL
350
96A5
  3
ACAD_MLEADERSTYLE
350
96EC
  3
ACAD_MLINESTYLE
350
93C8
  3
ACAD_PLOTSETTINGS
350
93CA
  3
ACAD_PLOTSTYLENAME
350
96A3
  3
ACAD_SCALELIST
350
96DA
  3
ACAD_SECTIONVIEWSTYLE
350
96EE
  3
ACAD_TABLESTYLE
350
96D8
  3
ACAD_VISUALSTYLE
350
96BE
  3
ACDB_RECOMPOSE_DATA
350
9713
  3
AcDbVariableDictionary
350
9706
  3
DWGPROPS
350
9714
  0
DICTIONARY
  5
96F6
330
93C2
100
AcDbDictionary
280
     1
281
     1
  3
ADSK_XREC_LAYER_RECONCILED
360
96F7
  0
DICTIONARY
  5
96F8
330
93D8
100
AcDbDictionary
280
     1
281
     1
  3
ADSK_XREC_LAYER_RECONCILED
360
96F9
  0
DICTIONARY
  5
96FA
330
93D9
100
AcDbDictionary
280
     1
281
     1
  3
ADSK_XREC_LAYER_RECONCILED
360
96FB
  0
DICTIONARY
  5
96FC
330
93DA
100
AcDbDictionary
280
     1
281
     1
  3
ADSK_XREC_LAYER_RECONCILED
360
96FD
  0
DICTIONARY
  5
96FE
330
93DB
100
AcDbDictionary
280
     1
281
     1
  3
ADSK_XREC_LAYER_RECONCILED
360
96FF
  0
DICTIONARY
  5
9700
330
93DC
100
AcDbDictionary
280
     1
281
     1
  3
ADSK_XREC_LAYER_RECONCILED
360
9701
  0
DICTIONARY
  5
9702
330
93DD
100
AcDbDictionary
280
     1
281
     1
  3
ADSK_XREC_LAYER_RECONCILED
360
9703
  0
DICTIONARY
  5
9704
330
93DE
100
AcDbDictionary
280
     1
281
     1
  3
ADSK_XREC_LAYER_RECONCILED
360
9705
  0
DICTIONARY
  5
969E
330
93D0
100
AcDbDictionary
281
     1
  3
ACAD_LAYOUTSELFREF
350
969F
  0
DICTIONARY
  5
969C
330
93CC
100
AcDbDictionary
281
     1
  3
ACAD_LAYOUTSELFREF
350
969D
  0
XRECORD
  5
96F5
102
{ACAD_REACTORS
330
93BE
102
}
330
93BE
100
AcDbXrecord
280
     1
300
ACDLT
300
2014
300
ACDLT_F_S
  0
DICTIONARY
  5
96D7
102
{ACAD_REACTORS
330
93BE
102
}
330
93BE
100
AcDbDictionary
281
     1
  0
DICTIONARY
  5
96F0
102
{ACAD_REACTORS
330
93BE
102
}
330
93BE
100
AcDbDictionary
281
     1
  3
Imperial24
350
96F1
  0
DICTIONARY
  5
93BF
102
{ACAD_REACTORS
330
93BE
102
}
330
93BE
100
AcDbDictionary
281
     1
  0
DICTIONARY
  5
93CB
102
{ACAD_REACTORS
330
93BE
102
}
330
93BE
100
AcDbDictionary
281
     1
  3
Model
350
96F2
  3
レイアウト1
350
96F3
  0
DICTIONARY
  5
96A5
102
{ACAD_REACTORS
330
93BE
102
}
330
93BE
100
AcDbDictionary
281
     1
  3
ByBlock
350
96AE
  3
ByLayer
350
96A6
  3
Global
350
96B6
  0
DICTIONARY
  5
96EC
102
{ACAD_REACTORS
330
93BE
102
}
330
93BE
100
AcDbDictionary
281
     1
  3
Standard
350
96ED
  0
DICTIONARY
  5
93C8
102
{ACAD_REACTORS
330
93BE
102
}
330
93BE
100
AcDbDictionary
281
     1
  3
STANDARD
350
93C9
  0
DICTIONARY
  5
93CA
102
{ACAD_REACTORS
330
93BE
102
}
330
93BE
100
AcDbDictionary
281
     1
  0
ACDBDICTIONARYWDFLT
  5
96A3
102
{ACAD_REACTORS
330
93BE
102
}
330
93BE
100
AcDbDictionary
281
     1
  3
Normal
350
96A4
100
AcDbDictionaryWithDefault
340
96A4
  0
DICTIONARY
  5
96DA
102
{ACAD_REACTORS
330
93BE
102
}
330
93BE
100
AcDbDictionary
281
     1
  3
A0
350
96DB
  3
A1
350
96DC
  3
A2
350
96DD
  3
A3
350
96DE
  3
A4
350
96DF
  3
A5
350
96E0
  3
A6
350
96E1
  3
A7
350
96E2
  3
A8
350
96E3
  3
A9
350
96E4
  3
B0
350
96E5
  3
B1
350
96E6
  3
B2
350
96E7
  3
B3
350
96E8
  3
B4
350
96E9
  3
B5
350
96EA
  3
B6
350
96EB
  0
DICTIONARY
  5
96EE
102
{ACAD_REACTORS
330
93BE
102
}
330
93BE
100
AcDbDictionary
281
     1
  3
Imperial24
350
96EF
  0
DICTIONARY
  5
96D8
102
{ACAD_REACTORS
330
93BE
102
}
330
93BE
100
AcDbDictionary
281
     1
  3
Standard
350
96D9
  0
DICTIONARY
  5
96BE
102
{ACAD_REACTORS
330
93BE
102
}
330
93BE
100
AcDbDictionary
281
     1
  3
2dWireframe
350
96C4
  3
Basic
350
96C3
  3
Brighten
350
96CA
  3
ColorChange
350
96CE
  3
Conceptual
350
96C7
  3
Dim
350
96C9
  3
EdgeColorOff
350
96D6
  3
Facepattern
350
96CD
  3
Flat
350
96BF
  3
FlatWithEdges
350
96C0
  3
Gouraud
350
96C1
  3
GouraudWithEdges
350
96C2
  3
Hidden
350
96C6
  3
JitterOff
350
96D4
  3
Linepattern
350
96CC
  3
OverhangOff
350
96D5
  3
Realistic
350
96C8
  3
Shaded
350
96D3
  3
Shaded with edges
350
96D2
  3
Shades of Gray
350
96CF
  3
Sketchy
350
96D0
  3
Thicken
350
96CB
  3
Wireframe
350
96C5
  3
X-Ray
350
96D1
  0
XRECORD
  5
9713
102
{ACAD_REACTORS
330
93BE
102
}
330
93BE
100
AcDbXrecord
280
     1
 90
        1
330
96D9
  0
DICTIONARY
  5
9706
102
{ACAD_REACTORS
330
93BE
102
}
330
93BE
100
AcDbDictionary
281
     1
  3
CANNOSCALE
350
970B
  3
CMLEADERSTYLE
350
9708
  3
CTABLESTYLE
350
9707
  3
CVIEWDETAILSTYLE
350
9709
  3
CVIEWSECTIONSTYLE
350
970A
  3
DIMASSOC
350
970E
  3
INDEXCTL
350
970D
  3
SORTENTS
350
970C
  3
XCLIPFRAME
350
970F
  0
XRECORD
  5
9714
102
{ACAD_REACTORS
330
93BE
102
}
330
93BE
100
AcDbXrecord
280
     1
  1
DWGPROPS COOKIE
  2

  3

  4

  6

  7

  8
Yoshitsune
  9

300
=
301
=
302
=
303
=
304
=
305
=
306
=
307
=
308
=
309
=
 40
0.000015
 41
2451298.562525348
 42
2457192.640366539
  1

 90
        0
  0
XRECORD
  5
96F7
102
{ACAD_REACTORS
330
96F6
102
}
330
96F6
100
AcDbXrecord
280
     1
290
     1
  0
XRECORD
  5
96F9
102
{ACAD_REACTORS
330
96F8
102
}
330
96F8
100
AcDbXrecord
280
     1
290
     1
  0
XRECORD
  5
96FB
102
{ACAD_REACTORS
330
96FA
102
}
330
96FA
100
AcDbXrecord
280
     1
290
     1
  0
XRECORD
  5
96FD
102
{ACAD_REACTORS
330
96FC
102
}
330
96FC
100
AcDbXrecord
280
     1
290
     1
  0
XRECORD
  5
96FF
102
{ACAD_REACTORS
330
96FE
102
}
330
96FE
100
AcDbXrecord
280
     1
290
     1
  0
XRECORD
  5
9701
102
{ACAD_REACTORS
330
9700
102
}
330
9700
100
AcDbXrecord
280
     1
290
     1
  0
XRECORD
  5
9703
102
{ACAD_REACTORS
330
9702
102
}
330
9702
100
AcDbXrecord
280
     1
290
     1
  0
XRECORD
  5
9705
102
{ACAD_REACTORS
330
9704
102
}
330
9704
100
AcDbXrecord
280
     1
290
     1
  0
XRECORD
  5
969F
102
{ACAD_REACTORS
330
969E
102
}
330
969E
100
AcDbXrecord
280
     1
340
93D0
  0
XRECORD
  5
969D
102
{ACAD_REACTORS
330
969C
102
}
330
969C
100
AcDbXrecord
280
     1
340
93CC
  0
ACDBDETAILVIEWSTYLE
  5
96F1
102
{ACAD_XDICTIONARY
360
974C
102
}
102
{ACAD_REACTORS
330
96F0
102
}
330
96F0
100
AcDbModelDocViewStyle
 70
     0
  3
Imperial24
290
     0
100
AcDbDetailViewStyle
 70
     0
 71
     0
 90
        3
 71
     1
340
93C3
 40
0.24
340
0
 40
0.24
300

 40
0.36
280
     3
 71
     2
340
93C7
 90
       25
 71
     3
340
93C3
 40
0.24
 90
        1
 40
0.75
 90
        1
300
%<\AcVar ViewType \f "%tc1">% %<\AcVar ViewDetailId>%\PSCALE %<\AcVar ViewScale \f "%sn">%
 71
     4
340
93C7
 90
       25
340
93C7
 90
       25
280
     0
  0
LAYOUT
  5
96F2
102
{ACAD_XDICTIONARY
360
974E
102
}
102
{ACAD_REACTORS
330
93CB
102
}
330
93CB
100
AcDbPlotSettings
  1

  2
Canon LBP9100C
  4

  6

 40
0.0
 41
0.0
 42
0.0
 43
0.0
 44
0.0
 45
0.0
 46
0.0
 47
0.0
 48
0.0
 49
0.0
140
0.0
141
0.0
142
1.0
143
1.0
 70
  1712
 72
     0
 73
     0
 74
     0
  7

 75
     0
147
1.0
148
0.0
149
0.0
100
AcDbLayout
  1
Model
 70
     1
 71
     0
 10
0.0
 20
0.0
 11
12.0
 21
9.0
 12
0.0
 22
0.0
 32
0.0
 14
0.0
 24
0.0
 34
0.0
 15
0.0
 25
0.0
 35
0.0
146
0.0
 13
0.0
 23
0.0
 33
0.0
 16
1.0
 26
0.0
 36
0.0
 17
0.0
 27
1.0
 37
0.0
 76
     0
330
93D0
331
969B
  0
LAYOUT
  5
96F3
102
{ACAD_XDICTIONARY
360
9750
102
}
102
{ACAD_REACTORS
330
93CB
102
}
330
93CB
100
AcDbPlotSettings
  1

  2
Canon LBP9100C
  4

  6

 40
0.0
 41
0.0
 42
0.0
 43
0.0
 44
0.0
 45
0.0
 46
0.0
 47
0.0
 48
0.0
 49
0.0
140
0.0
141
0.0
142
1.0
143
1.0
 70
   688
 72
     0
 73
     0
 74
     5
  7

 75
    16
147
1.0
148
0.0
149
0.0
100
AcDbLayout
  1
レイアウト1
 70
     0
 71
     1
 10
0.0
 20
0.0
 11
420.0
 21
297.0
 12
0.0
 22
0.0
 32
0.0
 14
1.000000000000000E+20
 24
1.000000000000000E+20
 34
1.000000000000000E+20
 15
-1.000000000000000E+20
 25
-1.000000000000000E+20
 35
-1.000000000000000E+20
146
0.0
 13
0.0
 23
0.0
 33
0.0
 16
1.0
 26
0.0
 36
0.0
 17
0.0
 27
1.0
 37
0.0
 76
     0
330
93CC
  0
MATERIAL
  5
96AE
102
{ACAD_XDICTIONARY
360
96AF
102
}
102
{ACAD_REACTORS
330
96A5
102
}
330
96A5
100
AcDbMaterial
  1
ByBlock
 72
     0
 43
0.0208333333333333
 43
0.0
 43
0.0
 43
0.0
 43
0.0
 43
0.0208333333333333
 43
0.0
 43
0.0
 43
0.0
 43
0.0
 43
1.0
 43
0.0
 43
0.0
 43
0.0
 43
0.0
 43
1.0
 77
     0
 47
0.0208333333333333
 47
0.0
 47
0.0
 47
0.0
 47
0.0
 47
0.0208333333333333
 47
0.0
 47
0.0
 47
0.0
 47
0.0
 47
1.0
 47
0.0
 47
0.0
 47
0.0
 47
0.0
 47
1.0
171
     0
 49
0.0208333333333333
 49
0.0
 49
0.0
 49
0.0
 49
0.0
 49
0.0208333333333333
 49
0.0
 49
0.0
 49
0.0
 49
0.0
 49
1.0
 49
0.0
 49
0.0
 49
0.0
 49
0.0
 49
1.0
175
     0
142
0.0208333333333333
142
0.0
142
0.0
142
0.0
142
0.0
142
0.0208333333333333
142
0.0
142
0.0
142
0.0
142
0.0
142
1.0
142
0.0
142
0.0
142
0.0
142
0.0
142
1.0
179
     0
144
0.0208333333333333
144
0.0
144
0.0
144
0.0
144
0.0
144
0.0208333333333333
144
0.0
144
0.0
144
0.0
144
0.0
144
1.0
144
0.0
144
0.0
144
0.0
144
0.0
144
1.0
147
0.0208333333333333
147
0.0
147
0.0
147
0.0
147
0.0
147
0.0208333333333333
147
0.0
147
0.0
147
0.0
147
0.0
147
1.0
147
0.0
147
0.0
147
0.0
147
0.0
147
1.0
  0
MATERIAL
  5
96A6
102
{ACAD_XDICTIONARY
360
96A7
102
}
102
{ACAD_REACTORS
330
96A5
102
}
330
96A5
100
AcDbMaterial
  1
ByLayer
 72
     0
 43
0.0208333333333333
 43
0.0
 43
0.0
 43
0.0
 43
0.0
 43
0.0208333333333333
 43
0.0
 43
0.0
 43
0.0
 43
0.0
 43
1.0
 43
0.0
 43
0.0
 43
0.0
 43
0.0
 43
1.0
 77
     0
 47
0.0208333333333333
 47
0.0
 47
0.0
 47
0.0
 47
0.0
 47
0.0208333333333333
 47
0.0
 47
0.0
 47
0.0
 47
0.0
 47
1.0
 47
0.0
 47
0.0
 47
0.0
 47
0.0
 47
1.0
171
     0
 49
0.0208333333333333
 49
0.0
 49
0.0
 49
0.0
 49
0.0
 49
0.0208333333333333
 49
0.0
 49
0.0
 49
0.0
 49
0.0
 49
1.0
 49
0.0
 49
0.0
 49
0.0
 49
0.0
 49
1.0
175
     0
142
0.0208333333333333
142
0.0
142
0.0
142
0.0
142
0.0
142
0.0208333333333333
142
0.0
142
0.0
142
0.0
142
0.0
142
1.0
142
0.0
142
0.0
142
0.0
142
0.0
142
1.0
179
     0
144
0.0208333333333333
144
0.0
144
0.0
144
0.0
144
0.0
144
0.0208333333333333
144
0.0
144
0.0
144
0.0
144
0.0
144
1.0
144
0.0
144
0.0
144
0.0
144
0.0
144
1.0
147
0.0208333333333333
147
0.0
147
0.0
147
0.0
147
0.0
147
0.0208333333333333
147
0.0
147
0.0
147
0.0
147
0.0
147
1.0
147
0.0
147
0.0
147
0.0
147
0.0
147
1.0
  0
MATERIAL
  5
96B6
102
{ACAD_XDICTIONARY
360
96B7
102
}
102
{ACAD_REACTORS
330
96A5
102
}
330
96A5
100
AcDbMaterial
  1
Global
 72
     0
 43
0.0208333333333333
 43
0.0
 43
0.0
 43
0.0
 43
0.0
 43
0.0208333333333333
 43
0.0
 43
0.0
 43
0.0
 43
0.0
 43
1.0
 43
0.0
 43
0.0
 43
0.0
 43
0.0
 43
1.0
 77
     0
 47
0.0208333333333333
 47
0.0
 47
0.0
 47
0.0
 47
0.0
 47
0.0208333333333333
 47
0.0
 47
0.0
 47
0.0
 47
0.0
 47
1.0
 47
0.0
 47
0.0
 47
0.0
 47
0.0
 47
1.0
171
     0
 49
0.0208333333333333
 49
0.0
 49
0.0
 49
0.0
 49
0.0
 49
0.0208333333333333
 49
0.0
 49
0.0
 49
0.0
 49
0.0
 49
1.0
 49
0.0
 49
0.0
 49
0.0
 49
0.0
 49
1.0
175
     0
142
0.0208333333333333
142
0.0
142
0.0
142
0.0
142
0.0
142
0.0208333333333333
142
0.0
142
0.0
142
0.0
142
0.0
142
1.0
142
0.0
142
0.0
142
0.0
142
0.0
142
1.0
179
     0
144
0.0208333333333333
144
0.0
144
0.0
144
0.0
144
0.0
144
0.0208333333333333
144
0.0
144
0.0
144
0.0
144
0.0
144
1.0
144
0.0
144
0.0
144
0.0
144
0.0
144
1.0
147
0.0208333333333333
147
0.0
147
0.0
147
0.0
147
0.0
147
0.0208333333333333
147
0.0
147
0.0
147
0.0
147
0.0
147
1.0
147
0.0
147
0.0
147
0.0
147
0.0
147
1.0
  0
MLEADERSTYLE
  5
96ED
102
{ACAD_REACTORS
330
96EC
102
}
330
96EC
100
AcDbMLeaderStyle
170
     2
171
     1
172
     0
 90
        2
 40
0.0
 41
0.0
173
     1
 91
-1056964608
340
93C5
 92
       -2
290
     1
 42
0.09
291
     1
 43
0.36
  3
Standard
 44
0.18
300

342
93C3
174
     1
178
     6
175
     1
176
     0
 93
-1056964608
 45
0.18
292
     0
297
     0
 46
0.18
 94
-1056964608
 47
1.0
 49
1.0
140
1.0
293
     1
141
0.0
294
     1
177
     0
142
1.0
295
     0
296
     0
143
0.125
1001
ACAD_MLEADERVER
1070
     2
  0
MLINESTYLE
  5
93C9
102
{ACAD_REACTORS
330
93C8
102
}
330
93C8
100
AcDbMlineStyle
  2
STANDARD
 70
     0
  3

 62
   256
 51
90.0
 52
90.0
 71
     2
 49
0.5
 62
   256
  6
BYLAYER
 49
-0.5
 62
   256
  6
BYLAYER
  0
ACDBPLACEHOLDER
  5
96A4
102
{ACAD_REACTORS
330
96A3
102
}
330
96A3
  0
SCALE
  5
96DB
102
{ACAD_REACTORS
330
96DA
102
}
330
96DA
100
AcDbScale
 70
     0
300
1:1
140
1.0
141
1.0
290
     1
  0
SCALE
  5
96DC
102
{ACAD_REACTORS
330
96DA
102
}
330
96DA
100
AcDbScale
 70
     0
300
1/128" = 1'-0"
140
0.0078125
141
12.0
290
     0
  0
SCALE
  5
96DD
102
{ACAD_REACTORS
330
96DA
102
}
330
96DA
100
AcDbScale
 70
     0
300
1/64" = 1'-0"
140
0.015625
141
12.0
290
     0
  0
SCALE
  5
96DE
102
{ACAD_REACTORS
330
96DA
102
}
330
96DA
100
AcDbScale
 70
     0
300
1/32" = 1'-0"
140
0.03125
141
12.0
290
     0
  0
SCALE
  5
96DF
102
{ACAD_REACTORS
330
96DA
102
}
330
96DA
100
AcDbScale
 70
     0
300
1/16" = 1'-0"
140
0.0625
141
12.0
290
     0
  0
SCALE
  5
96E0
102
{ACAD_REACTORS
330
96DA
102
}
330
96DA
100
AcDbScale
 70
     0
300
3/32" = 1'-0"
140
0.09375
141
12.0
290
     0
  0
SCALE
  5
96E1
102
{ACAD_REACTORS
330
96DA
102
}
330
96DA
100
AcDbScale
 70
     0
300
1/8" = 1'-0"
140
0.125
141
12.0
290
     0
  0
SCALE
  5
96E2
102
{ACAD_REACTORS
330
96DA
102
}
330
96DA
100
AcDbScale
 70
     0
300
3/16" = 1'-0"
140
0.1875
141
12.0
290
     0
  0
SCALE
  5
96E3
102
{ACAD_REACTORS
330
96DA
102
}
330
96DA
100
AcDbScale
 70
     0
300
1/4" = 1'-0"
140
0.25
141
12.0
290
     0
  0
SCALE
  5
96E4
102
{ACAD_REACTORS
330
96DA
102
}
330
96DA
100
AcDbScale
 70
     0
300
3/8" = 1'-0"
140
0.375
141
12.0
290
     0
  0
SCALE
  5
96E5
102
{ACAD_REACTORS
330
96DA
102
}
330
96DA
100
AcDbScale
 70
     0
300
1/2" = 1'-0"
140
0.5
141
12.0
290
     0
  0
SCALE
  5
96E6
102
{ACAD_REACTORS
330
96DA
102
}
330
96DA
100
AcDbScale
 70
     0
300
3/4" = 1'-0"
140
0.75
141
12.0
290
     0
  0
SCALE
  5
96E7
102
{ACAD_REACTORS
330
96DA
102
}
330
96DA
100
AcDbScale
 70
     0
300
1" = 1'-0"
140
1.0
141
12.0
290
     0
  0
SCALE
  5
96E8
102
{ACAD_REACTORS
330
96DA
102
}
330
96DA
100
AcDbScale
 70
     0
300
1-1/2" = 1'-0"
140
1.5
141
12.0
290
     0
  0
SCALE
  5
96E9
102
{ACAD_REACTORS
330
96DA
102
}
330
96DA
100
AcDbScale
 70
     0
300
3" = 1'-0"
140
3.0
141
12.0
290
     0
  0
SCALE
  5
96EA
102
{ACAD_REACTORS
330
96DA
102
}
330
96DA
100
AcDbScale
 70
     0
300
6" = 1'-0"
140
6.0
141
12.0
290
     0
  0
SCALE
  5
96EB
102
{ACAD_REACTORS
330
96DA
102
}
330
96DA
100
AcDbScale
 70
     0
300
1'-0" = 1'-0"
140
12.0
141
12.0
290
     0
  0
ACDBSECTIONVIEWSTYLE
  5
96EF
102
{ACAD_XDICTIONARY
360
974A
102
}
102
{ACAD_REACTORS
330
96EE
102
}
330
96EE
100
AcDbModelDocViewStyle
 70
     0
  3
Imperial24
290
     0
100
AcDbSectionViewStyle
 70
     0
 71
     0
 90
       78
 71
     1
340
93C3
 40
0.24
340
0
340
0
 40
0.24
300
I, O, Q, S, X, Z
 40
0.48
 90
        3
 40
0.18
 90
        1
 71
     2
340
93C7
 90
       25
340
93C7
 90
       50
 40
0.24
 40
0.0
 40
0.24
 71
     3
340
93C3
 40
0.24
 90
        1
 40
0.75
 90
        1
300
%<\AcVar ViewType \f "%tc1">% %<\AcVar ViewSectionStartId>%-%<\AcVar ViewSectionEndId>%\PSCALE %<\AcVar ViewScale \f "%sn">%
 71
     4
300
ANSI31
 40
1.0
 90
        0
290
     0
290
     0
 90
        6
 40
0.0
 40
1.570796326794896
 40
0.2617993877991494
 40
1.308996938995747
 40
-0.2617993877991494
 40
1.832595714594046
  0
TABLESTYLE
  5
96D9
102
{ACAD_XDICTIONARY
360
9711
102
}
102
{ACAD_REACTORS
330
96D8
102
}
330
96D8
100
AcDbTableStyle
  3
Standard
 70
     0
 71
     0
 40
0.06
 41
0.06
280
     0
281
     0
  7
STANDARD
140
0.18
170
     2
 62
     0
 63
     7
283
     0
274
    -2
284
     1
 64
     0
275
    -2
285
     1
 65
     0
276
    -2
286
     1
 66
     0
277
    -2
287
     1
 67
     0
278
    -2
288
     1
 68
     0
279
    -2
289
     1
 69
     0
  7
STANDARD
140
0.25
170
     5
 62
     0
 63
     7
283
     0
274
    -2
284
     1
 64
     0
275
    -2
285
     1
 65
     0
276
    -2
286
     1
 66
     0
277
    -2
287
     1
 67
     0
278
    -2
288
     1
 68
     0
279
    -2
289
     1
 69
     0
  7
STANDARD
140
0.18
170
     5
 62
     0
 63
     7
283
     0
274
    -2
284
     1
 64
     0
275
    -2
285
     1
 65
     0
276
    -2
286
     1
 66
     0
277
    -2
287
     1
 67
     0
278
    -2
288
     1
 68
     0
279
    -2
289
     1
 69
     0
  0
VISUALSTYLE
  5
96C4
102
{ACAD_XDICTIONARY
360
9722
102
}
102
{ACAD_REACTORS
330
96BE
102
}
330
96BE
100
AcDbVisualStyle
  2
2dWireframe
 70
     4
 71
     0
 72
     2
 73
     0
 90
        0
 40
-0.6
 41
-30.0
 62
     5
 63
     7
 74
     1
 91
        4
 64
     7
 65
   257
 75
     1
175
     1
 42
1.0
 92
        0
 66
   257
 43
1.0
 76
     1
 77
     6
 78
     2
 67
     7
 79
     5
170
     0
171
     0
290
     0
174
     0
 93
        1
 44
0.0
173
     0
291
     0
 45
0.0
1001
ACAD
1000
AcDbSavedByObjectVersion
1070
     0
  0
VISUALSTYLE
  5
96C3
102
{ACAD_XDICTIONARY
360
9720
102
}
102
{ACAD_REACTORS
330
96BE
102
}
330
96BE
100
AcDbVisualStyle
  2
Basic
 70
     7
 71
     1
 72
     0
 73
     1
 90
        0
 40
-0.6
 41
-30.0
 62
     5
 63
     7
 74
     0
 91
        4
 64
     7
 65
   257
 75
     1
175
     1
 42
1.0
 92
        8
 66
     7
 43
1.0
 76
     1
 77
     6
 78
     2
 67
     7
 79
     5
170
     0
171
     0
290
     0
174
     0
 93
        1
 44
0.0
173
     0
291
     1
 45
0.0
1001
ACAD
1000
AcDbSavedByObjectVersion
1070
     0
  0
VISUALSTYLE
  5
96CA
102
{ACAD_XDICTIONARY
360
972E
102
}
102
{ACAD_REACTORS
330
96BE
102
}
330
96BE
100
AcDbVisualStyle
  2
Brighten
 70
    12
 71
     2
 72
     2
 73
     0
 90
        0
 40
-0.6
 41
-30.0
 62
     5
 63
     7
 74
     1
 91
        4
 64
     7
 65
   257
 75
     1
175
     1
 42
1.0
 92
        8
 66
     7
 43
1.0
 76
     1
 77
     6
 78
     2
 67
     7
 79
     5
170
     0
171
     0
290
     0
174
     0
 93
        1
 44
50.0
173
     0
291
     1
 45
0.0
1001
ACAD
1000
AcDbSavedByObjectVersion
1070
     0
  0
VISUALSTYLE
  5
96CE
102
{ACAD_XDICTIONARY
360
9736
102
}
102
{ACAD_REACTORS
330
96BE
102
}
330
96BE
100
AcDbVisualStyle
  2
ColorChange
 70
    16
 71
     2
 72
     2
 73
     3
 90
        0
 40
-0.6
 41
-30.0
 62
     5
 63
     8
 74
     1
 91
        4
 64
     7
 65
   257
 75
     1
175
     1
 42
1.0
 92
        8
 66
     8
 43
1.0
 76
     1
 77
     6
 78
     2
 67
     7
 79
     5
170
     0
171
     0
290
     0
174
     0
 93
        1
 44
0.0
173
     0
291
     1
 45
0.0
1001
ACAD
1000
AcDbSavedByObjectVersion
1070
     0
  0
VISUALSTYLE
  5
96C7
102
{ACAD_XDICTIONARY
360
9728
102
}
102
{ACAD_REACTORS
330
96BE
102
}
330
96BE
100
AcDbVisualStyle
  2
Conceptual
 70
     9
 71
     3
 72
     2
 73
     0
 90
        0
 40
-0.6
 41
-30.0
 62
     5
 63
     7
 74
     2
 91
        2
 64
     7
 65
   257
 75
     1
175
     1
 42
179.0
 92
        8
 66
     7
 43
1.0
 76
     1
 77
     6
 78
     2
 67
     7
 79
     3
170
     0
171
     0
290
     0
174
     0
 93
        1
 44
0.0
173
     0
291
     0
 45
0.0
1001
ACAD
1000
AcDbSavedByObjectVersion
1070
     0
  0
VISUALSTYLE
  5
96C9
102
{ACAD_XDICTIONARY
360
972C
102
}
102
{ACAD_REACTORS
330
96BE
102
}
330
96BE
100
AcDbVisualStyle
  2
Dim
 70
    11
 71
     2
 72
     2
 73
     0
 90
        0
 40
-0.6
 41
-30.0
 62
     5
 63
     7
 74
     1
 91
        4
 64
     7
 65
   257
 75
     1
175
     1
 42
1.0
 92
        8
 66
     7
 43
1.0
 76
     1
 77
     6
 78
     2
 67
     7
 79
     5
170
     0
171
     0
290
     0
174
     0
 93
        1
 44
-50.0
173
     0
291
     1
 45
0.0
1001
ACAD
1000
AcDbSavedByObjectVersion
1070
     0
  0
VISUALSTYLE
  5
96D6
102
{ACAD_XDICTIONARY
360
9746
102
}
102
{ACAD_REACTORS
330
96BE
102
}
330
96BE
100
AcDbVisualStyle
  2
EdgeColorOff
 70
    22
 71
     2
 72
     2
 73
     0
 90
        0
 40
-0.6
 41
-30.0
 62
     5
 63
     7
 74
     1
 91
        4
 64
     7
 65
   257
 75
     1
175
     1
 42
1.0
 92
        8
 66
     7
 43
1.0
 76
     1
 77
     6
 78
     2
 67
     7
 79
     5
170
     0
171
     0
290
     0
174
     0
 93
        1
 44
0.0
173
     0
291
     1
 45
0.0
1001
ACAD
1000
AcDbSavedByObjectVersion
1070
     0
  0
VISUALSTYLE
  5
96CD
102
{ACAD_XDICTIONARY
360
9734
102
}
102
{ACAD_REACTORS
330
96BE
102
}
330
96BE
100
AcDbVisualStyle
  2
Facepattern
 70
    15
 71
     2
 72
     2
 73
     0
 90
        0
 40
-0.6
 41
-30.0
 62
     5
 63
     7
 74
     1
 91
        4
 64
     7
 65
   257
 75
     1
175
     1
 42
1.0
 92
        8
 66
     7
 43
1.0
 76
     1
 77
     6
 78
     2
 67
     7
 79
     5
170
     0
171
     0
290
     0
174
     0
 93
        1
 44
0.0
173
     0
291
     1
 45
0.0
1001
ACAD
1000
AcDbSavedByObjectVersion
1070
     0
  0
VISUALSTYLE
  5
96BF
102
{ACAD_XDICTIONARY
360
9718
102
}
102
{ACAD_REACTORS
330
96BE
102
}
330
96BE
100
AcDbVisualStyle
  2
Flat
 70
     0
 71
     2
 72
     1
 73
     1
 90
        2
 40
-0.6
 41
30.0
 62
     5
 63
     7
 74
     0
 91
        0
 64
     7
 65
   257
 75
     1
175
     1
 42
1.0
 92
        8
 66
     7
 43
1.0
 76
     1
 77
     6
 78
     2
 67
     7
 79
     5
170
     0
171
     0
290
     0
174
     0
 93
       13
 44
0.0
173
     0
291
     1
 45
0.0
1001
ACAD
1000
AcDbSavedByObjectVersion
1070
     0
  0
VISUALSTYLE
  5
96C0
102
{ACAD_XDICTIONARY
360
971A
102
}
102
{ACAD_REACTORS
330
96BE
102
}
330
96BE
100
AcDbVisualStyle
  2
FlatWithEdges
 70
     1
 71
     2
 72
     1
 73
     1
 90
        2
 40
-0.6
 41
30.0
 62
     5
 63
     7
 74
     1
 91
        0
 64
     7
 65
   257
 75
     1
175
     1
 42
1.0
 92
        0
 66
   257
 43
1.0
 76
     1
 77
     6
 78
     2
 67
     7
 79
     5
170
     0
171
     0
290
     0
174
     0
 93
       13
 44
0.0
173
     0
291
     1
 45
0.0
1001
ACAD
1000
AcDbSavedByObjectVersion
1070
     0
  0
VISUALSTYLE
  5
96C1
102
{ACAD_XDICTIONARY
360
971C
102
}
102
{ACAD_REACTORS
330
96BE
102
}
330
96BE
100
AcDbVisualStyle
  2
Gouraud
 70
     2
 71
     2
 72
     2
 73
     1
 90
        2
 40
-0.6
 41
30.0
 62
     5
 63
     7
 74
     0
 91
        0
 64
     7
 65
   257
 75
     1
175
     1
 42
1.0
 92
        0
 66
     7
 43
1.0
 76
     1
 77
     6
 78
     2
 67
     7
 79
     5
170
     0
171
     0
290
     0
174
     0
 93
       13
 44
0.0
173
     0
291
     1
 45
0.0
1001
ACAD
1000
AcDbSavedByObjectVersion
1070
     0
  0
VISUALSTYLE
  5
96C2
102
{ACAD_XDICTIONARY
360
971E
102
}
102
{ACAD_REACTORS
330
96BE
102
}
330
96BE
100
AcDbVisualStyle
  2
GouraudWithEdges
 70
     3
 71
     2
 72
     2
 73
     1
 90
        2
 40
-0.6
 41
30.0
 62
     5
 63
     7
 74
     1
 91
        0
 64
     7
 65
   257
 75
     1
175
     1
 42
1.0
 92
        0
 66
   257
 43
1.0
 76
     1
 77
     6
 78
     2
 67
     7
 79
     5
170
     0
171
     0
290
     0
174
     0
 93
       13
 44
0.0
173
     0
291
     1
 45
0.0
1001
ACAD
1000
AcDbSavedByObjectVersion
1070
     0
  0
VISUALSTYLE
  5
96C6
102
{ACAD_XDICTIONARY
360
9726
102
}
102
{ACAD_REACTORS
330
96BE
102
}
330
96BE
100
AcDbVisualStyle
  2
Hidden
 70
     6
 71
     1
 72
     2
 73
     2
 90
        0
 40
-0.6
 41
-30.0
 62
     5
 63
     7
 74
     2
 91
        2
 64
     7
 65
   257
 75
     2
175
     1
 42
40.0
 92
        0
 66
   257
 43
1.0
 76
     1
 77
     6
 78
     2
 67
     7
 79
     3
170
     0
171
     0
290
     0
174
     0
 93
        1
 44
0.0
173
     0
291
     0
 45
0.0
1001
ACAD
1000
AcDbSavedByObjectVersion
1070
     0
  0
VISUALSTYLE
  5
96D4
102
{ACAD_XDICTIONARY
360
9742
102
}
102
{ACAD_REACTORS
330
96BE
102
}
330
96BE
100
AcDbVisualStyle
  2
JitterOff
 70
    20
 71
     2
 72
     2
 73
     0
 90
        0
 40
-0.6
 41
-30.0
 62
     5
 63
     7
 74
     1
 91
        4
 64
     7
 65
   257
 75
     1
175
     1
 42
1.0
 92
       10
 66
     7
 43
1.0
 76
     1
 77
     6
 78
     2
 67
     7
 79
     5
170
     0
171
     0
290
     0
174
     0
 93
        1
 44
0.0
173
     0
291
     1
 45
0.0
1001
ACAD
1000
AcDbSavedByObjectVersion
1070
     0
  0
VISUALSTYLE
  5
96CC
102
{ACAD_XDICTIONARY
360
9732
102
}
102
{ACAD_REACTORS
330
96BE
102
}
330
96BE
100
AcDbVisualStyle
  2
Linepattern
 70
    14
 71
     2
 72
     2
 73
     0
 90
        0
 40
-0.6
 41
-30.0
 62
     5
 63
     7
 74
     1
 91
        4
 64
     7
 65
   257
 75
     7
175
     7
 42
1.0
 92
        8
 66
     7
 43
1.0
 76
     1
 77
     6
 78
     2
 67
     7
 79
     5
170
     0
171
     0
290
     0
174
     0
 93
        1
 44
0.0
173
     0
291
     1
 45
0.0
1001
ACAD
1000
AcDbSavedByObjectVersion
1070
     0
  0
VISUALSTYLE
  5
96D5
102
{ACAD_XDICTIONARY
360
9744
102
}
102
{ACAD_REACTORS
330
96BE
102
}
330
96BE
100
AcDbVisualStyle
  2
OverhangOff
 70
    21
 71
     2
 72
     2
 73
     0
 90
        0
 40
-0.6
 41
-30.0
 62
     5
 63
     7
 74
     1
 91
        4
 64
     7
 65
   257
 75
     1
175
     1
 42
1.0
 92
        9
 66
     7
 43
1.0
 76
     1
 77
     6
 78
     2
 67
     7
 79
     5
170
     0
171
     0
290
     0
174
     0
 93
        1
 44
0.0
173
     0
291
     1
 45
0.0
1001
ACAD
1000
AcDbSavedByObjectVersion
1070
     0
  0
VISUALSTYLE
  5
96C8
102
{ACAD_XDICTIONARY
360
972A
102
}
102
{ACAD_REACTORS
330
96BE
102
}
330
96BE
100
AcDbVisualStyle
  2
Realistic
 70
     8
 71
     2
 72
     3
 73
     0
 90
        2
 40
-0.6
 41
30.0
 62
     5
 63
     7
 74
     0
 91
        0
 64
     7
 65
   257
 75
     1
175
     1
 42
1.0
 92
        8
 66
   257
 43
1.0
 76
     1
 77
     6
 78
     2
 67
     7
 79
     3
170
     0
171
     0
290
     0
174
     0
 93
       13
 44
0.0
173
     0
291
     0
 45
0.0
1001
ACAD
1000
AcDbSavedByObjectVersion
1070
     0
  0
VISUALSTYLE
  5
96D3
102
{ACAD_XDICTIONARY
360
9740
102
}
102
{ACAD_REACTORS
330
96BE
102
}
330
96BE
100
AcDbVisualStyle
  2
Shaded
 70
    27
 71
     2
 72
     2
 73
     1
 90
        2
 40
-0.6
 41
30.0
 62
     5
 63
     7
 74
     0
 91
        4
 64
     7
 65
   257
 75
     1
175
     1
 42
1.0
 92
        8
 66
   257
 43
1.0
 76
     1
 77
     6
 78
     2
 67
     8
 79
     3
170
     0
171
     0
290
     0
174
     0
 93
        5
 44
0.0
173
     0
291
     0
 45
0.0
1001
ACAD
1000
AcDbSavedByObjectVersion
1070
     0
  0
VISUALSTYLE
  5
96D2
102
{ACAD_XDICTIONARY
360
973E
102
}
102
{ACAD_REACTORS
330
96BE
102
}
330
96BE
100
AcDbVisualStyle
  2
Shaded with edges
 70
    26
 71
     2
 72
     2
 73
     1
 90
        2
 40
-0.6
 41
30.0
 62
     5
 63
     7
 74
     1
 91
       10
 64
     7
 65
   257
 75
     2
175
     1
 42
1.0
 92
        8
 66
   257
 43
1.0
 76
     1
 77
     6
 78
     2
 67
     7
 79
     3
170
     0
171
     0
290
     0
174
     0
 93
        5
 44
0.0
173
     0
291
     0
 45
0.0
1001
ACAD
1000
AcDbSavedByObjectVersion
1070
     0
  0
VISUALSTYLE
  5
96CF
102
{ACAD_XDICTIONARY
360
9738
102
}
102
{ACAD_REACTORS
330
96BE
102
}
330
96BE
100
AcDbVisualStyle
  2
Shades of Gray
 70
    23
 71
     2
 72
     2
 73
     3
 90
        0
 40
-0.6
 41
-30.0
 62
     5
 63
     7
 74
     2
 91
        2
 64
     7
 65
     7
 75
     1
175
     1
 42
40.0
 92
        8
 66
     7
 43
1.0
 76
     1
 77
     6
 78
     2
 67
     7
 79
     3
170
     0
171
     0
290
     0
174
     0
 93
        1
 44
0.0
173
     0
291
     0
 45
0.0
1001
ACAD
1000
AcDbSavedByObjectVersion
1070
     0
  0
VISUALSTYLE
  5
96D0
102
{ACAD_XDICTIONARY
360
973A
102
}
102
{ACAD_REACTORS
330
96BE
102
}
330
96BE
100
AcDbVisualStyle
  2
Sketchy
 70
    24
 71
     1
 72
     2
 73
     2
 90
        0
 40
-0.6
 41
-30.0
 62
     5
 63
     7
 74
     2
 91
        2
 64
     7
 65
     7
 75
     1
175
     1
 42
40.0
 92
       11
 66
     7
 43
1.0
 76
     1
 77
     6
 78
     2
 67
     7
 79
     6
170
     0
171
     0
290
     0
174
     0
 93
        1
 44
0.0
173
     0
291
     0
 45
0.0
1001
ACAD
1000
AcDbSavedByObjectVersion
1070
     0
  0
VISUALSTYLE
  5
96CB
102
{ACAD_XDICTIONARY
360
9730
102
}
102
{ACAD_REACTORS
330
96BE
102
}
330
96BE
100
AcDbVisualStyle
  2
Thicken
 70
    13
 71
     2
 72
     2
 73
     0
 90
        0
 40
-0.6
 41
-30.0
 62
     5
 63
     7
 74
     1
 91
        4
 64
     7
 65
   257
 75
     1
175
     1
 42
1.0
 92
       12
 66
     7
 43
1.0
 76
     1
 77
     6
 78
     2
 67
     7
 79
     5
170
     0
171
     0
290
     0
174
     0
 93
        1
 44
0.0
173
     0
291
     1
 45
0.0
1001
ACAD
1000
AcDbSavedByObjectVersion
1070
     0
  0
VISUALSTYLE
  5
96C5
102
{ACAD_XDICTIONARY
360
9724
102
}
102
{ACAD_REACTORS
330
96BE
102
}
330
96BE
100
AcDbVisualStyle
  2
Wireframe
 70
     5
 71
     0
 72
     2
 73
     0
 90
        0
 40
-0.6
 41
-30.0
 62
     5
 63
     7
 74
     1
 91
        4
 64
     7
 65
   257
 75
     1
175
     1
 42
1.0
 92
        0
 66
   257
 43
1.0
 76
     1
 77
     6
 78
     2
 67
     7
 79
     3
170
     0
171
     0
290
     0
174
     0
 93
        1
 44
0.0
173
     0
291
     0
 45
0.0
1001
ACAD
1000
AcDbSavedByObjectVersion
1070
     0
  0
VISUALSTYLE
  5
96D1
102
{ACAD_XDICTIONARY
360
973C
102
}
102
{ACAD_REACTORS
330
96BE
102
}
330
96BE
100
AcDbVisualStyle
  2
X-Ray
 70
    25
 71
     2
 72
     2
 73
     1
 90
        1
 40
0.5
 41
-30.0
 62
     5
 63
     7
 74
     1
 91
        0
 64
     7
 65
   257
 75
     1
175
     1
 42
1.0
 92
        8
 66
     7
 43
1.0
 76
     1
 77
     6
 78
     2
 67
     7
 79
     3
170
     0
171
     0
290
     0
174
     0
 93
       13
 44
0.0
173
     0
291
     0
 45
0.0
1001
ACAD
1000
AcDbSavedByObjectVersion
1070
     0
  0
DICTIONARYVAR
  5
970B
102
{ACAD_REACTORS
330
9706
102
}
330
9706
100
DictionaryVariables
280
     0
  1
1:1
  0
DICTIONARYVAR
  5
9708
102
{ACAD_REACTORS
330
9706
102
}
330
9706
100
DictionaryVariables
280
     0
  1
STANDARD
  0
DICTIONARYVAR
  5
9707
102
{ACAD_REACTORS
330
9706
102
}
330
9706
100
DictionaryVariables
280
     0
  1
STANDARD
  0
DICTIONARYVAR
  5
9709
102
{ACAD_REACTORS
330
9706
102
}
330
9706
100
DictionaryVariables
280
     0
  1
Imperial24
  0
DICTIONARYVAR
  5
970A
102
{ACAD_REACTORS
330
9706
102
}
330
9706
100
DictionaryVariables
280
     0
  1
Imperial24
  0
DICTIONARYVAR
  5
970E
102
{ACAD_REACTORS
330
9706
102
}
330
9706
100
DictionaryVariables
280
     0
  1
1
  0
DICTIONARYVAR
  5
970D
102
{ACAD_REACTORS
330
9706
102
}
330
9706
100
DictionaryVariables
280
     0
  1
0
  0
DICTIONARYVAR
  5
970C
102
{ACAD_REACTORS
330
9706
102
}
330
9706
100
DictionaryVariables
280
     0
  1
127
  0
DICTIONARYVAR
  5
970F
102
{ACAD_REACTORS
330
9706
102
}
330
9706
100
DictionaryVariables
280
     0
  1
2
  0
DICTIONARY
  5
974C
330
96F1
100
AcDbDictionary
280
     1
281
     1
  3
ACAD_XREC_ROUNDTRIP
360
974D
  0
DICTIONARY
  5
974E
330
96F2
100
AcDbDictionary
280
     1
281
     1
  3
ACAD_XREC_ROUNDTRIP
360
974F
  0
DICTIONARY
  5
9750
330
96F3
100
AcDbDictionary
280
     1
281
     1
  3
ACAD_XREC_ROUNDTRIP
360
9751
  0
DICTIONARY
  5
96AF
330
96AE
100
AcDbDictionary
280
     1
281
     1
  3
ACAD_XREC_ROUNDTRIP
360
9716
  3
BUMPTILE
360
96B1
  3
DIFFUSETILE
360
96B0
  3
OPACITYTILE
360
96B4
  3
REFLECTIONTILE
360
96B3
  3
REFRACTIONTILE
360
96B5
  3
SPECULARTILE
360
96B2
  0
DICTIONARY
  5
96A7
330
96A6
100
AcDbDictionary
280
     1
281
     1
  3
ACAD_XREC_ROUNDTRIP
360
9715
  3
BUMPTILE
360
96A9
  3
DIFFUSETILE
360
96A8
  3
OPACITYTILE
360
96AC
  3
REFLECTIONTILE
360
96AB
  3
REFRACTIONTILE
360
96AD
  3
SPECULARTILE
360
96AA
  0
DICTIONARY
  5
96B7
330
96B6
100
AcDbDictionary
280
     1
281
     1
  3
ACAD_XREC_ROUNDTRIP
360
9717
  3
BUMPTILE
360
96B9
  3
DIFFUSETILE
360
96B8
  3
OPACITYTILE
360
96BC
  3
REFLECTIONTILE
360
96BB
  3
REFRACTIONTILE
360
96BD
  3
SPECULARTILE
360
96BA
  0
DICTIONARY
  5
974A
330
96EF
100
AcDbDictionary
280
     1
281
     1
  3
ACAD_XREC_ROUNDTRIP
360
974B
  0
DICTIONARY
  5
9711
330
96D9
100
AcDbDictionary
280
     1
281
     1
  3
ACAD_ROUNDTRIP_2008_TABLESTYLE_CELLSTYLEMAP
360
9712
  3
ACAD_XREC_ROUNDTRIP
360
9748
  0
DICTIONARY
  5
9722
330
96C4
100
AcDbDictionary
280
     1
281
     1
  3
ACAD_XREC_ROUNDTRIP
360
9723
  0
DICTIONARY
  5
9720
330
96C3
100
AcDbDictionary
280
     1
281
     1
  3
ACAD_XREC_ROUNDTRIP
360
9721
  0
DICTIONARY
  5
972E
330
96CA
100
AcDbDictionary
280
     1
281
     1
  3
ACAD_XREC_ROUNDTRIP
360
972F
  0
DICTIONARY
  5
9736
330
96CE
100
AcDbDictionary
280
     1
281
     1
  3
ACAD_XREC_ROUNDTRIP
360
9737
  0
DICTIONARY
  5
9728
330
96C7
100
AcDbDictionary
280
     1
281
     1
  3
ACAD_XREC_ROUNDTRIP
360
9729
  0
DICTIONARY
  5
972C
330
96C9
100
AcDbDictionary
280
     1
281
     1
  3
ACAD_XREC_ROUNDTRIP
360
972D
  0
DICTIONARY
  5
9746
330
96D6
100
AcDbDictionary
280
     1
281
     1
  3
ACAD_XREC_ROUNDTRIP
360
9747
  0
DICTIONARY
  5
9734
330
96CD
100
AcDbDictionary
280
     1
281
     1
  3
ACAD_XREC_ROUNDTRIP
360
9735
  0
DICTIONARY
  5
9718
330
96BF
100
AcDbDictionary
280
     1
281
     1
  3
ACAD_XREC_ROUNDTRIP
360
9719
  0
DICTIONARY
  5
971A
330
96C0
100
AcDbDictionary
280
     1
281
     1
  3
ACAD_XREC_ROUNDTRIP
360
971B
  0
DICTIONARY
  5
971C
330
96C1
100
AcDbDictionary
280
     1
281
     1
  3
ACAD_XREC_ROUNDTRIP
360
971D
  0
DICTIONARY
  5
971E
330
96C2
100
AcDbDictionary
280
     1
281
     1
  3
ACAD_XREC_ROUNDTRIP
360
971F
  0
DICTIONARY
  5
9726
330
96C6
100
AcDbDictionary
280
     1
281
     1
  3
ACAD_XREC_ROUNDTRIP
360
9727
  0
DICTIONARY
  5
9742
330
96D4
100
AcDbDictionary
280
     1
281
     1
  3
ACAD_XREC_ROUNDTRIP
360
9743
  0
DICTIONARY
  5
9732
330
96CC
100
AcDbDictionary
280
     1
281
     1
  3
ACAD_XREC_ROUNDTRIP
360
9733
  0
DICTIONARY
  5
9744
330
96D5
100
AcDbDictionary
280
     1
281
     1
  3
ACAD_XREC_ROUNDTRIP
360
9745
  0
DICTIONARY
  5
972A
330
96C8
100
AcDbDictionary
280
     1
281
     1
  3
ACAD_XREC_ROUNDTRIP
360
972B
  0
DICTIONARY
  5
9740
330
96D3
100
AcDbDictionary
280
     1
281
     1
  3
ACAD_XREC_ROUNDTRIP
360
9741
  0
DICTIONARY
  5
973E
330
96D2
100
AcDbDictionary
280
     1
281
     1
  3
ACAD_XREC_ROUNDTRIP
360
973F
  0
DICTIONARY
  5
9738
330
96CF
100
AcDbDictionary
280
     1
281
     1
  3
ACAD_XREC_ROUNDTRIP
360
9739
  0
DICTIONARY
  5
973A
330
96D0
100
AcDbDictionary
280
     1
281
     1
  3
ACAD_XREC_ROUNDTRIP
360
973B
  0
DICTIONARY
  5
9730
330
96CB
100
AcDbDictionary
280
     1
281
     1
  3
ACAD_XREC_ROUNDTRIP
360
9731
  0
DICTIONARY
  5
9724
330
96C5
100
AcDbDictionary
280
     1
281
     1
  3
ACAD_XREC_ROUNDTRIP
360
9725
  0
DICTIONARY
  5
973C
330
96D1
100
AcDbDictionary
280
     1
281
     1
  3
ACAD_XREC_ROUNDTRIP
360
973D
  0
XRECORD
  5
974D
102
{ACAD_REACTORS
330
974C
102
}
330
974C
100
AcDbXrecord
280
     1
102
DISPLAYNAME
  1
Imperial24
102
FLAGS
 90
        0
  0
XRECORD
  5
974F
102
{ACAD_REACTORS
330
974E
102
}
330
974E
100
AcDbXrecord
280
     1
102
SHADEPLOT
 70
     0
102
SHADEPLOTRESLEVEL
 70
     2
102
SHADEPLOTCUSTOMDPI
 70
   300
  0
XRECORD
  5
9751
102
{ACAD_REACTORS
330
9750
102
}
330
9750
100
AcDbXrecord
280
     1
102
SHADEPLOT
 70
     0
102
SHADEPLOTRESLEVEL
 70
     2
102
SHADEPLOTCUSTOMDPI
 70
   300
  0
XRECORD
  5
9716
102
{ACAD_REACTORS
330
96AF
102
}
330
96AF
100
AcDbXrecord
280
     1
102
MATERIAL
148
0.0
149
0.0
149
0.0
 93
        0
 94
      127
282
     0
 72
     0
 77
     0
171
     0
175
     0
179
     0
273
     0
  0
XRECORD
  5
96B1
102
{ACAD_REACTORS
330
96AF
102
}
330
96AF
100
AcDbXrecord
280
     1
270
     1
271
     1
  0
XRECORD
  5
96B0
102
{ACAD_REACTORS
330
96AF
102
}
330
96AF
100
AcDbXrecord
280
     1
270
     1
271
     1
  0
XRECORD
  5
96B4
102
{ACAD_REACTORS
330
96AF
102
}
330
96AF
100
AcDbXrecord
280
     1
270
     1
271
     1
  0
XRECORD
  5
96B3
102
{ACAD_REACTORS
330
96AF
102
}
330
96AF
100
AcDbXrecord
280
     1
270
     1
271
     1
  0
XRECORD
  5
96B5
102
{ACAD_REACTORS
330
96AF
102
}
330
96AF
100
AcDbXrecord
280
     1
270
     1
271
     1
  0
XRECORD
  5
96B2
102
{ACAD_REACTORS
330
96AF
102
}
330
96AF
100
AcDbXrecord
280
     1
270
     1
271
     1
  0
XRECORD
  5
9715
102
{ACAD_REACTORS
330
96A7
102
}
330
96A7
100
AcDbXrecord
280
     1
102
MATERIAL
148
0.0
149
0.0
149
0.0
 93
        0
 94
      127
282
     0
 72
     0
 77
     0
171
     0
175
     0
179
     0
273
     0
  0
XRECORD
  5
96A9
102
{ACAD_REACTORS
330
96A7
102
}
330
96A7
100
AcDbXrecord
280
     1
270
     1
271
     1
  0
XRECORD
  5
96A8
102
{ACAD_REACTORS
330
96A7
102
}
330
96A7
100
AcDbXrecord
280
     1
270
     1
271
     1
  0
XRECORD
  5
96AC
102
{ACAD_REACTORS
330
96A7
102
}
330
96A7
100
AcDbXrecord
280
     1
270
     1
271
     1
  0
XRECORD
  5
96AB
102
{ACAD_REACTORS
330
96A7
102
}
330
96A7
100
AcDbXrecord
280
     1
270
     1
271
     1
  0
XRECORD
  5
96AD
102
{ACAD_REACTORS
330
96A7
102
}
330
96A7
100
AcDbXrecord
280
     1
270
     1
271
     1
  0
XRECORD
  5
96AA
102
{ACAD_REACTORS
330
96A7
102
}
330
96A7
100
AcDbXrecord
280
     1
270
     1
271
     1
  0
XRECORD
  5
9717
102
{ACAD_REACTORS
330
96B7
102
}
330
96B7
100
AcDbXrecord
280
     1
102
MATERIAL
148
0.0
149
0.0
149
0.0
 93
        0
 94
      127
282
     0
 72
     0
 77
     0
171
     0
175
     0
179
     0
273
     0
  0
XRECORD
  5
96B9
102
{ACAD_REACTORS
330
96B7
102
}
330
96B7
100
AcDbXrecord
280
     1
270
     1
271
     1
  0
XRECORD
  5
96B8
102
{ACAD_REACTORS
330
96B7
102
}
330
96B7
100
AcDbXrecord
280
     1
270
     1
271
     1
  0
XRECORD
  5
96BC
102
{ACAD_REACTORS
330
96B7
102
}
330
96B7
100
AcDbXrecord
280
     1
270
     1
271
     1
  0
XRECORD
  5
96BB
102
{ACAD_REACTORS
330
96B7
102
}
330
96B7
100
AcDbXrecord
280
     1
270
     1
271
     1
  0
XRECORD
  5
96BD
102
{ACAD_REACTORS
330
96B7
102
}
330
96B7
100
AcDbXrecord
280
     1
270
     1
271
     1
  0
XRECORD
  5
96BA
102
{ACAD_REACTORS
330
96B7
102
}
330
96B7
100
AcDbXrecord
280
     1
270
     1
271
     1
  0
XRECORD
  5
974B
102
{ACAD_REACTORS
330
974A
102
}
330
974A
100
AcDbXrecord
280
     1
102
DISPLAYNAME
  1
Imperial24
102
FLAGS
 90
        0
  0
CELLSTYLEMAP
  5
9712
102
{ACAD_REACTORS
330
9711
102
}
330
9711
100
AcDbCellStyleMap
 90
        3
300
CELLSTYLE
  1
TABLEFORMAT_BEGIN
 90
        5
170
     1
 91
        0
 92
    32768
 62
   257
 93
        1
300
CONTENTFORMAT
  1
CONTENTFORMAT_BEGIN
 90
        0
 91
        0
 92
      512
 93
        0
300

 40
0.0
140
1.0
 94
        5
 62
     0
340
93C3
144
0.25
309
CONTENTFORMAT_END
171
     0
 94
        0
309
TABLEFORMAT_END
  1
CELLSTYLE_BEGIN
 90
        1
 91
        1
300
_TITLE
309
CELLSTYLE_END
300
CELLSTYLE
  1
TABLEFORMAT_BEGIN
 90
        5
170
     1
 91
        0
 92
        0
 62
   257
 93
        1
300
CONTENTFORMAT
  1
CONTENTFORMAT_BEGIN
 90
        0
 91
        0
 92
      512
 93
        0
300

 40
0.0
140
1.0
 94
        5
 62
     0
340
93C3
144
0.18
309
CONTENTFORMAT_END
171
     0
 94
        0
309
TABLEFORMAT_END
  1
CELLSTYLE_BEGIN
 90
        2
 91
        1
300
_HEADER
309
CELLSTYLE_END
300
CELLSTYLE
  1
TABLEFORMAT_BEGIN
 90
        5
170
     1
 91
        0
 92
        0
 62
   257
 93
        1
300
CONTENTFORMAT
  1
CONTENTFORMAT_BEGIN
 90
        0
 91
        0
 92
      512
 93
        0
300

 40
0.0
140
1.0
 94
        2
 62
     0
340
93C3
144
0.18
309
CONTENTFORMAT_END
171
     0
 94
        0
309
TABLEFORMAT_END
  1
CELLSTYLE_BEGIN
 90
        3
 91
        2
300
_DATA
309
CELLSTYLE_END
  0
XRECORD
  5
9748
102
{ACAD_REACTORS
330
9711
102
}
330
9711
100
AcDbXrecord
280
     1
102
ACAD_ROUNDTRIP_PRE2007_TABLESTYLE
 90
      512
 91
        0
  1

 92
      512
 93
        0
  2

 94
      512
 95
        0
  3

  0
XRECORD
  5
9723
102
{ACAD_REACTORS
330
9722
102
}
330
9722
100
AcDbXrecord
280
     1
102
RTVSPost2010Prop28
280
     1
102
RTVSPost2010PropOp28
 70
     1
102
RTVSPost2010Prop29
280
     1
102
RTVSPost2010PropOp29
 70
     1
102
RTVSPost2010Prop30
280
     0
102
RTVSPost2010PropOp30
 70
     1
102
RTVSPost2010Prop31
280
     0
102
RTVSPost2010PropOp31
 70
     1
102
RTVSPost2010Prop32
280
     0
102
RTVSPost2010PropOp32
 70
     1
102
RTVSPost2010Prop33
280
     0
102
RTVSPost2010PropOp33
 70
     1
102
RTVSPost2010Prop34
280
     0
102
RTVSPost2010PropOp34
 70
     1
102
RTVSPost2010Prop35
280
     0
102
RTVSPost2010PropOp35
 70
     1
102
RTVSPost2010Prop36
280
     0
102
RTVSPost2010PropOp36
 70
     1
102
RTVSPost2010Prop37
 90
       50
102
RTVSPost2010PropOp37
 70
     1
102
RTVSPost2010Prop38
140
0.0
102
RTVSPost2010PropOp38
 70
     1
102
RTVSPost2010Prop39
140
1.0
102
RTVSPost2010PropOp39
 70
     1
102
RTVSPost2010Prop40
 90
        0
102
RTVSPost2010PropOp40
 70
     1
102
RTVSPost2010Prop41ColorIndex
 90
       18
102
RTVSPost2010Prop41ColorRGB
 90
        0
102
RTVSPost2010PropOp41
 70
     1
102
RTVSPost2010Prop42
 90
       50
102
RTVSPost2010PropOp42
 70
     1
102
RTVSPost2010Prop43
 90
        3
102
RTVSPost2010PropOp43
 70
     1
102
RTVSPost2010Prop44ColorIndex
 90
        5
102
RTVSPost2010Prop44ColorRGB
 90
      255
102
RTVSPost2010PropOp44
 70
     1
102
RTVSPost2010Prop45
280
     0
102
RTVSPost2010PropOp45
 70
     1
102
RTVSPost2010Prop46
 90
       50
102
RTVSPost2010PropOp46
 70
     1
102
RTVSPost2010Prop47
 90
       50
102
RTVSPost2010PropOp47
 70
     1
102
RTVSPost2010Prop48
 90
       50
102
RTVSPost2010PropOp48
 70
     1
102
RTVSPost2010Prop49
280
     0
102
RTVSPost2010PropOp49
 70
     1
102
RTVSPost2010Prop50
 90
       50
102
RTVSPost2010PropOp50
 70
     1
102
RTVSPost2010Prop51ColorIndex
 90
      256
102
RTVSPost2010Prop51ColorRGB
 90
-16777216
102
RTVSPost2010PropOp51
 70
     0
102
RTVSPost2010Prop52
140
1.0
102
RTVSPost2010PropOp52
 70
     0
102
RTVSPost2010Prop53
 90
        2
102
RTVSPost2010PropOp53
 70
     1
102
RTVSPost2010Prop54
  1
strokes_ogs.tif
102
RTVSPost2010PropOp54
 70
     1
102
RTVSPost2010Prop55
280
     0
102
RTVSPost2010PropOp55
 70
     1
102
RTVSPost2010Prop56
140
1.0
102
RTVSPost2010PropOp56
 70
     1
102
RTVSPost2010Prop57
140
1.0
102
RTVSPost2010PropOp57
 70
     1
102
RTVSPropertyOp0
 70
     1
102
RTVSPropertyOp1
 70
     1
102
RTVSPropertyOp2
 70
     1
102
RTVSPropertyOp3
 70
     1
102
RTVSPropertyOp4
 70
     1
102
RTVSPropertyOp5
 70
     1
102
RTVSPropertyOp6
 70
     1
102
RTVSPropertyOp7
 70
     1
102
RTVSPropertyOp8
 70
     1
102
RTVSPropertyOp9
 70
     1
102
RTVSPropertyOp10
 70
     1
102
RTVSPropertyOp11
 70
     1
102
RTVSPropertyOp12
 70
     1
102
RTVSPropertyOp13
 70
     1
102
RTVSPropertyOp14
 70
     1
102
RTVSPropertyOp15
 70
     1
102
RTVSPropertyOp16
 70
     1
102
RTVSPropertyOp17
 70
     1
102
RTVSPropertyOp18
 70
     1
102
RTVSPropertyOp19
 70
     1
102
RTVSPropertyOp20
 70
     1
102
RTVSPropertyOp21
 70
     1
102
RTVSPropertyOp22
 70
     1
102
RTVSPropertyOp23
 70
     1
102
RTVSPropertyOp24
 70
     1
102
RTVSPropertyOp25
 70
     1
102
RTVSPropertyOp26
 70
     1
102
RTVSPropertyOp27
 70
     1
102
RTVSPropertyOp28
 70
     1
102
RTVSPropertyOp29
 70
     1
102
RTVSPropertyOp30
 70
     1
102
RTVSPropertyOp31
 70
     1
102
RTVSPropertyOp32
 70
     1
102
RTVSPropertyOp33
 70
     1
102
RTVSPropertyOp34
 70
     1
102
RTVSPropertyOp35
 70
     1
102
RTVSPropertyOp36
 70
     1
102
RTVSPropertyOp37
 70
     1
102
RTVSPropertyOp38
 70
     1
102
RTVSPropertyOp39
 70
     1
102
RTVSPropertyOp40
 70
     1
102
RTVSPropertyOp41
 70
     1
102
RTVSPropertyOp42
 70
     1
102
RTVSPropertyOp43
 70
     1
102
RTVSPropertyOp44
 70
     1
102
RTVSPropertyOp45
 70
     1
102
RTVSPropertyOp46
 70
     1
102
RTVSPropertyOp47
 70
     1
102
RTVSPropertyOp48
 70
     1
102
RTVSPropertyOp49
 70
     1
102
RTVSPropertyOp50
 70
     1
102
RTVSPropertyOp51
 70
     0
102
RTVSPropertyOp52
 70
     0
102
RTVSPropertyOp53
 70
     1
102
RTVSPropertyOp54
 70
     1
102
RTVSPropertyOp55
 70
     1
102
RTVSPropertyOp56
 70
     1
102
RTVSPropertyOp57
 70
     1
102
RTVSPropertyOp58
 70
     1
102
RTVSPropertyOp59
 70
     1
102
RTVSPropertyOp60
 70
     1
102
RTVSPropertyOp61
 70
     1
102
RTVSPropertyOp62
 70
     1
  0
XRECORD
  5
9721
102
{ACAD_REACTORS
330
9720
102
}
330
9720
100
AcDbXrecord
280
     1
102
RTVSPost2010Prop28
280
     0
102
RTVSPost2010PropOp28
 70
     1
102
RTVSPost2010Prop29
280
     1
102
RTVSPost2010PropOp29
 70
     1
102
RTVSPost2010Prop30
280
     1
102
RTVSPost2010PropOp30
 70
     1
102
RTVSPost2010Prop31
280
     0
102
RTVSPost2010PropOp31
 70
     1
102
RTVSPost2010Prop32
280
     0
102
RTVSPost2010PropOp32
 70
     1
102
RTVSPost2010Prop33
280
     0
102
RTVSPost2010PropOp33
 70
     1
102
RTVSPost2010Prop34
280
     0
102
RTVSPost2010PropOp34
 70
     1
102
RTVSPost2010Prop35
280
     0
102
RTVSPost2010PropOp35
 70
     1
102
RTVSPost2010Prop36
280
     0
102
RTVSPost2010PropOp36
 70
     1
102
RTVSPost2010Prop37
 90
       50
102
RTVSPost2010PropOp37
 70
     1
102
RTVSPost2010Prop38
140
0.0
102
RTVSPost2010PropOp38
 70
     1
102
RTVSPost2010Prop39
140
1.0
102
RTVSPost2010PropOp39
 70
     1
102
RTVSPost2010Prop40
 90
        0
102
RTVSPost2010PropOp40
 70
     1
102
RTVSPost2010Prop41ColorIndex
 90
       18
102
RTVSPost2010Prop41ColorRGB
 90
        0
102
RTVSPost2010PropOp41
 70
     1
102
RTVSPost2010Prop42
 90
       50
102
RTVSPost2010PropOp42
 70
     1
102
RTVSPost2010Prop43
 90
        3
102
RTVSPost2010PropOp43
 70
     1
102
RTVSPost2010Prop44ColorIndex
 90
        5
102
RTVSPost2010Prop44ColorRGB
 90
      255
102
RTVSPost2010PropOp44
 70
     1
102
RTVSPost2010Prop45
280
     0
102
RTVSPost2010PropOp45
 70
     1
102
RTVSPost2010Prop46
 90
       50
102
RTVSPost2010PropOp46
 70
     1
102
RTVSPost2010Prop47
 90
       50
102
RTVSPost2010PropOp47
 70
     1
102
RTVSPost2010Prop48
 90
       50
102
RTVSPost2010PropOp48
 70
     1
102
RTVSPost2010Prop49
280
     0
102
RTVSPost2010PropOp49
 70
     1
102
RTVSPost2010Prop50
 90
       50
102
RTVSPost2010PropOp50
 70
     1
102
RTVSPost2010Prop51ColorIndex
 90
      256
102
RTVSPost2010Prop51ColorRGB
 90
-16777216
102
RTVSPost2010PropOp51
 70
     0
102
RTVSPost2010Prop52
140
1.0
102
RTVSPost2010PropOp52
 70
     0
102
RTVSPost2010Prop53
 90
        2
102
RTVSPost2010PropOp53
 70
     1
102
RTVSPost2010Prop54
  1
strokes_ogs.tif
102
RTVSPost2010PropOp54
 70
     1
102
RTVSPost2010Prop55
280
     0
102
RTVSPost2010PropOp55
 70
     1
102
RTVSPost2010Prop56
140
1.0
102
RTVSPost2010PropOp56
 70
     1
102
RTVSPost2010Prop57
140
1.0
102
RTVSPost2010PropOp57
 70
     1
102
RTVSPropertyOp0
 70
     1
102
RTVSPropertyOp1
 70
     1
102
RTVSPropertyOp2
 70
     1
102
RTVSPropertyOp3
 70
     1
102
RTVSPropertyOp4
 70
     1
102
RTVSPropertyOp5
 70
     1
102
RTVSPropertyOp6
 70
     1
102
RTVSPropertyOp7
 70
     1
102
RTVSPropertyOp8
 70
     1
102
RTVSPropertyOp9
 70
     1
102
RTVSPropertyOp10
 70
     1
102
RTVSPropertyOp11
 70
     1
102
RTVSPropertyOp12
 70
     1
102
RTVSPropertyOp13
 70
     1
102
RTVSPropertyOp14
 70
     1
102
RTVSPropertyOp15
 70
     1
102
RTVSPropertyOp16
 70
     1
102
RTVSPropertyOp17
 70
     1
102
RTVSPropertyOp18
 70
     1
102
RTVSPropertyOp19
 70
     1
102
RTVSPropertyOp20
 70
     1
102
RTVSPropertyOp21
 70
     1
102
RTVSPropertyOp22
 70
     1
102
RTVSPropertyOp23
 70
     1
102
RTVSPropertyOp24
 70
     1
102
RTVSPropertyOp25
 70
     1
102
RTVSPropertyOp26
 70
     1
102
RTVSPropertyOp27
 70
     1
102
RTVSPropertyOp28
 70
     1
102
RTVSPropertyOp29
 70
     1
102
RTVSPropertyOp30
 70
     1
102
RTVSPropertyOp31
 70
     1
102
RTVSPropertyOp32
 70
     1
102
RTVSPropertyOp33
 70
     1
102
RTVSPropertyOp34
 70
     1
102
RTVSPropertyOp35
 70
     1
102
RTVSPropertyOp36
 70
     1
102
RTVSPropertyOp37
 70
     1
102
RTVSPropertyOp38
 70
     1
102
RTVSPropertyOp39
 70
     1
102
RTVSPropertyOp40
 70
     1
102
RTVSPropertyOp41
 70
     1
102
RTVSPropertyOp42
 70
     1
102
RTVSPropertyOp43
 70
     1
102
RTVSPropertyOp44
 70
     1
102
RTVSPropertyOp45
 70
     1
102
RTVSPropertyOp46
 70
     1
102
RTVSPropertyOp47
 70
     1
102
RTVSPropertyOp48
 70
     1
102
RTVSPropertyOp49
 70
     1
102
RTVSPropertyOp50
 70
     1
102
RTVSPropertyOp51
 70
     0
102
RTVSPropertyOp52
 70
     0
102
RTVSPropertyOp53
 70
     1
102
RTVSPropertyOp54
 70
     1
102
RTVSPropertyOp55
 70
     1
102
RTVSPropertyOp56
 70
     1
102
RTVSPropertyOp57
 70
     1
102
RTVSPropertyOp58
 70
     1
102
RTVSPropertyOp59
 70
     1
102
RTVSPropertyOp60
 70
     1
102
RTVSPropertyOp61
 70
     1
102
RTVSPropertyOp62
 70
     1
  0
XRECORD
  5
972F
102
{ACAD_REACTORS
330
972E
102
}
330
972E
100
AcDbXrecord
280
     1
102
RTVSPost2010Prop28
280
     0
102
RTVSPost2010PropOp28
 70
     1
102
RTVSPost2010Prop29
280
     1
102
RTVSPost2010PropOp29
 70
     1
102
RTVSPost2010Prop30
280
     1
102
RTVSPost2010PropOp30
 70
     1
102
RTVSPost2010Prop31
280
     0
102
RTVSPost2010PropOp31
 70
     1
102
RTVSPost2010Prop32
280
     0
102
RTVSPost2010PropOp32
 70
     1
102
RTVSPost2010Prop33
280
     0
102
RTVSPost2010PropOp33
 70
     1
102
RTVSPost2010Prop34
280
     0
102
RTVSPost2010PropOp34
 70
     1
102
RTVSPost2010Prop35
280
     0
102
RTVSPost2010PropOp35
 70
     1
102
RTVSPost2010Prop36
280
     0
102
RTVSPost2010PropOp36
 70
     1
102
RTVSPost2010Prop37
 90
       50
102
RTVSPost2010PropOp37
 70
     1
102
RTVSPost2010Prop38
140
0.0
102
RTVSPost2010PropOp38
 70
     1
102
RTVSPost2010Prop39
140
1.0
102
RTVSPost2010PropOp39
 70
     1
102
RTVSPost2010Prop40
 90
        0
102
RTVSPost2010PropOp40
 70
     1
102
RTVSPost2010Prop41ColorIndex
 90
       18
102
RTVSPost2010Prop41ColorRGB
 90
        0
102
RTVSPost2010PropOp41
 70
     1
102
RTVSPost2010Prop42
 90
       50
102
RTVSPost2010PropOp42
 70
     1
102
RTVSPost2010Prop43
 90
        3
102
RTVSPost2010PropOp43
 70
     1
102
RTVSPost2010Prop44ColorIndex
 90
        5
102
RTVSPost2010Prop44ColorRGB
 90
      255
102
RTVSPost2010PropOp44
 70
     1
102
RTVSPost2010Prop45
280
     0
102
RTVSPost2010PropOp45
 70
     1
102
RTVSPost2010Prop46
 90
       50
102
RTVSPost2010PropOp46
 70
     1
102
RTVSPost2010Prop47
 90
       50
102
RTVSPost2010PropOp47
 70
     1
102
RTVSPost2010Prop48
 90
       50
102
RTVSPost2010PropOp48
 70
     1
102
RTVSPost2010Prop49
280
     0
102
RTVSPost2010PropOp49
 70
     1
102
RTVSPost2010Prop50
 90
       50
102
RTVSPost2010PropOp50
 70
     1
102
RTVSPost2010Prop51ColorIndex
 90
      256
102
RTVSPost2010Prop51ColorRGB
 90
-16777216
102
RTVSPost2010PropOp51
 70
     0
102
RTVSPost2010Prop52
140
1.0
102
RTVSPost2010PropOp52
 70
     0
102
RTVSPost2010Prop53
 90
        2
102
RTVSPost2010PropOp53
 70
     1
102
RTVSPost2010Prop54
  1
strokes_ogs.tif
102
RTVSPost2010PropOp54
 70
     1
102
RTVSPost2010Prop55
280
     0
102
RTVSPost2010PropOp55
 70
     1
102
RTVSPost2010Prop56
140
1.0
102
RTVSPost2010PropOp56
 70
     1
102
RTVSPost2010Prop57
140
1.0
102
RTVSPost2010PropOp57
 70
     1
102
RTVSPropertyOp0
 70
     1
102
RTVSPropertyOp1
 70
     1
102
RTVSPropertyOp2
 70
     1
102
RTVSPropertyOp3
 70
     1
102
RTVSPropertyOp4
 70
     1
102
RTVSPropertyOp5
 70
     1
102
RTVSPropertyOp6
 70
     1
102
RTVSPropertyOp7
 70
     1
102
RTVSPropertyOp8
 70
     1
102
RTVSPropertyOp9
 70
     1
102
RTVSPropertyOp10
 70
     1
102
RTVSPropertyOp11
 70
     1
102
RTVSPropertyOp12
 70
     1
102
RTVSPropertyOp13
 70
     1
102
RTVSPropertyOp14
 70
     1
102
RTVSPropertyOp15
 70
     1
102
RTVSPropertyOp16
 70
     1
102
RTVSPropertyOp17
 70
     1
102
RTVSPropertyOp18
 70
     1
102
RTVSPropertyOp19
 70
     1
102
RTVSPropertyOp20
 70
     1
102
RTVSPropertyOp21
 70
     1
102
RTVSPropertyOp22
 70
     1
102
RTVSPropertyOp23
 70
     1
102
RTVSPropertyOp24
 70
     1
102
RTVSPropertyOp25
 70
     1
102
RTVSPropertyOp26
 70
     1
102
RTVSPropertyOp27
 70
     1
102
RTVSPropertyOp28
 70
     1
102
RTVSPropertyOp29
 70
     1
102
RTVSPropertyOp30
 70
     1
102
RTVSPropertyOp31
 70
     1
102
RTVSPropertyOp32
 70
     1
102
RTVSPropertyOp33
 70
     1
102
RTVSPropertyOp34
 70
     1
102
RTVSPropertyOp35
 70
     1
102
RTVSPropertyOp36
 70
     1
102
RTVSPropertyOp37
 70
     1
102
RTVSPropertyOp38
 70
     1
102
RTVSPropertyOp39
 70
     1
102
RTVSPropertyOp40
 70
     1
102
RTVSPropertyOp41
 70
     1
102
RTVSPropertyOp42
 70
     1
102
RTVSPropertyOp43
 70
     1
102
RTVSPropertyOp44
 70
     1
102
RTVSPropertyOp45
 70
     1
102
RTVSPropertyOp46
 70
     1
102
RTVSPropertyOp47
 70
     1
102
RTVSPropertyOp48
 70
     1
102
RTVSPropertyOp49
 70
     1
102
RTVSPropertyOp50
 70
     1
102
RTVSPropertyOp51
 70
     0
102
RTVSPropertyOp52
 70
     0
102
RTVSPropertyOp53
 70
     1
102
RTVSPropertyOp54
 70
     1
102
RTVSPropertyOp55
 70
     1
102
RTVSPropertyOp56
 70
     1
102
RTVSPropertyOp57
 70
     1
102
RTVSPropertyOp58
 70
     1
102
RTVSPropertyOp59
 70
     1
102
RTVSPropertyOp60
 70
     1
102
RTVSPropertyOp61
 70
     1
102
RTVSPropertyOp62
 70
     1
  0
XRECORD
  5
9737
102
{ACAD_REACTORS
330
9736
102
}
330
9736
100
AcDbXrecord
280
     1
102
RTVSPost2010Prop28
280
     0
102
RTVSPost2010PropOp28
 70
     1
102
RTVSPost2010Prop29
280
     1
102
RTVSPost2010PropOp29
 70
     1
102
RTVSPost2010Prop30
280
     1
102
RTVSPost2010PropOp30
 70
     1
102
RTVSPost2010Prop31
280
     0
102
RTVSPost2010PropOp31
 70
     1
102
RTVSPost2010Prop32
280
     0
102
RTVSPost2010PropOp32
 70
     1
102
RTVSPost2010Prop33
280
     0
102
RTVSPost2010PropOp33
 70
     1
102
RTVSPost2010Prop34
280
     0
102
RTVSPost2010PropOp34
 70
     1
102
RTVSPost2010Prop35
280
     0
102
RTVSPost2010PropOp35
 70
     1
102
RTVSPost2010Prop36
280
     0
102
RTVSPost2010PropOp36
 70
     1
102
RTVSPost2010Prop37
 90
       50
102
RTVSPost2010PropOp37
 70
     1
102
RTVSPost2010Prop38
140
0.0
102
RTVSPost2010PropOp38
 70
     1
102
RTVSPost2010Prop39
140
1.0
102
RTVSPost2010PropOp39
 70
     1
102
RTVSPost2010Prop40
 90
        0
102
RTVSPost2010PropOp40
 70
     1
102
RTVSPost2010Prop41ColorIndex
 90
       18
102
RTVSPost2010Prop41ColorRGB
 90
        0
102
RTVSPost2010PropOp41
 70
     1
102
RTVSPost2010Prop42
 90
       50
102
RTVSPost2010PropOp42
 70
     1
102
RTVSPost2010Prop43
 90
        3
102
RTVSPost2010PropOp43
 70
     1
102
RTVSPost2010Prop44ColorIndex
 90
        5
102
RTVSPost2010Prop44ColorRGB
 90
      255
102
RTVSPost2010PropOp44
 70
     1
102
RTVSPost2010Prop45
280
     0
102
RTVSPost2010PropOp45
 70
     1
102
RTVSPost2010Prop46
 90
       50
102
RTVSPost2010PropOp46
 70
     1
102
RTVSPost2010Prop47
 90
       50
102
RTVSPost2010PropOp47
 70
     1
102
RTVSPost2010Prop48
 90
       50
102
RTVSPost2010PropOp48
 70
     1
102
RTVSPost2010Prop49
280
     0
102
RTVSPost2010PropOp49
 70
     1
102
RTVSPost2010Prop50
 90
       50
102
RTVSPost2010PropOp50
 70
     1
102
RTVSPost2010Prop51ColorIndex
 90
      256
102
RTVSPost2010Prop51ColorRGB
 90
-16777216
102
RTVSPost2010PropOp51
 70
     0
102
RTVSPost2010Prop52
140
1.0
102
RTVSPost2010PropOp52
 70
     0
102
RTVSPost2010Prop53
 90
        2
102
RTVSPost2010PropOp53
 70
     1
102
RTVSPost2010Prop54
  1
strokes_ogs.tif
102
RTVSPost2010PropOp54
 70
     1
102
RTVSPost2010Prop55
280
     0
102
RTVSPost2010PropOp55
 70
     1
102
RTVSPost2010Prop56
140
1.0
102
RTVSPost2010PropOp56
 70
     1
102
RTVSPost2010Prop57
140
1.0
102
RTVSPost2010PropOp57
 70
     1
102
RTVSPropertyOp0
 70
     1
102
RTVSPropertyOp1
 70
     1
102
RTVSPropertyOp2
 70
     1
102
RTVSPropertyOp3
 70
     1
102
RTVSPropertyOp4
 70
     1
102
RTVSPropertyOp5
 70
     1
102
RTVSPropertyOp6
 70
     1
102
RTVSPropertyOp7
 70
     1
102
RTVSPropertyOp8
 70
     1
102
RTVSPropertyOp9
 70
     1
102
RTVSPropertyOp10
 70
     1
102
RTVSPropertyOp11
 70
     1
102
RTVSPropertyOp12
 70
     1
102
RTVSPropertyOp13
 70
     1
102
RTVSPropertyOp14
 70
     1
102
RTVSPropertyOp15
 70
     1
102
RTVSPropertyOp16
 70
     1
102
RTVSPropertyOp17
 70
     1
102
RTVSPropertyOp18
 70
     1
102
RTVSPropertyOp19
 70
     1
102
RTVSPropertyOp20
 70
     1
102
RTVSPropertyOp21
 70
     1
102
RTVSPropertyOp22
 70
     1
102
RTVSPropertyOp23
 70
     1
102
RTVSPropertyOp24
 70
     1
102
RTVSPropertyOp25
 70
     1
102
RTVSPropertyOp26
 70
     1
102
RTVSPropertyOp27
 70
     1
102
RTVSPropertyOp28
 70
     1
102
RTVSPropertyOp29
 70
     1
102
RTVSPropertyOp30
 70
     1
102
RTVSPropertyOp31
 70
     1
102
RTVSPropertyOp32
 70
     1
102
RTVSPropertyOp33
 70
     1
102
RTVSPropertyOp34
 70
     1
102
RTVSPropertyOp35
 70
     1
102
RTVSPropertyOp36
 70
     1
102
RTVSPropertyOp37
 70
     1
102
RTVSPropertyOp38
 70
     1
102
RTVSPropertyOp39
 70
     1
102
RTVSPropertyOp40
 70
     1
102
RTVSPropertyOp41
 70
     1
102
RTVSPropertyOp42
 70
     1
102
RTVSPropertyOp43
 70
     1
102
RTVSPropertyOp44
 70
     1
102
RTVSPropertyOp45
 70
     1
102
RTVSPropertyOp46
 70
     1
102
RTVSPropertyOp47
 70
     1
102
RTVSPropertyOp48
 70
     1
102
RTVSPropertyOp49
 70
     1
102
RTVSPropertyOp50
 70
     1
102
RTVSPropertyOp51
 70
     0
102
RTVSPropertyOp52
 70
     0
102
RTVSPropertyOp53
 70
     1
102
RTVSPropertyOp54
 70
     1
102
RTVSPropertyOp55
 70
     1
102
RTVSPropertyOp56
 70
     1
102
RTVSPropertyOp57
 70
     1
102
RTVSPropertyOp58
 70
     1
102
RTVSPropertyOp59
 70
     1
102
RTVSPropertyOp60
 70
     1
102
RTVSPropertyOp61
 70
     1
102
RTVSPropertyOp62
 70
     1
  0
XRECORD
  5
9729
102
{ACAD_REACTORS
330
9728
102
}
330
9728
100
AcDbXrecord
280
     1
102
RTVSPost2010Prop28
280
     0
102
RTVSPost2010PropOp28
 70
     1
102
RTVSPost2010Prop29
280
     1
102
RTVSPost2010PropOp29
 70
     1
102
RTVSPost2010Prop30
280
     1
102
RTVSPost2010PropOp30
 70
     1
102
RTVSPost2010Prop31
280
     0
102
RTVSPost2010PropOp31
 70
     1
102
RTVSPost2010Prop32
280
     0
102
RTVSPost2010PropOp32
 70
     1
102
RTVSPost2010Prop33
280
     0
102
RTVSPost2010PropOp33
 70
     1
102
RTVSPost2010Prop34
280
     0
102
RTVSPost2010PropOp34
 70
     1
102
RTVSPost2010Prop35
280
     0
102
RTVSPost2010PropOp35
 70
     1
102
RTVSPost2010Prop36
280
     0
102
RTVSPost2010PropOp36
 70
     1
102
RTVSPost2010Prop37
 90
       50
102
RTVSPost2010PropOp37
 70
     1
102
RTVSPost2010Prop38
140
0.0
102
RTVSPost2010PropOp38
 70
     1
102
RTVSPost2010Prop39
140
1.0
102
RTVSPost2010PropOp39
 70
     1
102
RTVSPost2010Prop40
 90
        0
102
RTVSPost2010PropOp40
 70
     1
102
RTVSPost2010Prop41ColorIndex
 90
       18
102
RTVSPost2010Prop41ColorRGB
 90
        0
102
RTVSPost2010PropOp41
 70
     1
102
RTVSPost2010Prop42
 90
       50
102
RTVSPost2010PropOp42
 70
     1
102
RTVSPost2010Prop43
 90
        3
102
RTVSPost2010PropOp43
 70
     1
102
RTVSPost2010Prop44ColorIndex
 90
        5
102
RTVSPost2010Prop44ColorRGB
 90
      255
102
RTVSPost2010PropOp44
 70
     1
102
RTVSPost2010Prop45
280
     0
102
RTVSPost2010PropOp45
 70
     1
102
RTVSPost2010Prop46
 90
       50
102
RTVSPost2010PropOp46
 70
     1
102
RTVSPost2010Prop47
 90
       50
102
RTVSPost2010PropOp47
 70
     1
102
RTVSPost2010Prop48
 90
       50
102
RTVSPost2010PropOp48
 70
     1
102
RTVSPost2010Prop49
280
     0
102
RTVSPost2010PropOp49
 70
     1
102
RTVSPost2010Prop50
 90
       50
102
RTVSPost2010PropOp50
 70
     1
102
RTVSPost2010Prop51ColorIndex
 90
      256
102
RTVSPost2010Prop51ColorRGB
 90
-16777216
102
RTVSPost2010PropOp51
 70
     0
102
RTVSPost2010Prop52
140
1.0
102
RTVSPost2010PropOp52
 70
     0
102
RTVSPost2010Prop53
 90
        2
102
RTVSPost2010PropOp53
 70
     1
102
RTVSPost2010Prop54
  1
strokes_ogs.tif
102
RTVSPost2010PropOp54
 70
     1
102
RTVSPost2010Prop55
280
     0
102
RTVSPost2010PropOp55
 70
     1
102
RTVSPost2010Prop56
140
1.0
102
RTVSPost2010PropOp56
 70
     1
102
RTVSPost2010Prop57
140
1.0
102
RTVSPost2010PropOp57
 70
     1
102
RTVSPropertyOp0
 70
     1
102
RTVSPropertyOp1
 70
     1
102
RTVSPropertyOp2
 70
     1
102
RTVSPropertyOp3
 70
     1
102
RTVSPropertyOp4
 70
     1
102
RTVSPropertyOp5
 70
     1
102
RTVSPropertyOp6
 70
     1
102
RTVSPropertyOp7
 70
     1
102
RTVSPropertyOp8
 70
     1
102
RTVSPropertyOp9
 70
     1
102
RTVSPropertyOp10
 70
     1
102
RTVSPropertyOp11
 70
     1
102
RTVSPropertyOp12
 70
     1
102
RTVSPropertyOp13
 70
     1
102
RTVSPropertyOp14
 70
     1
102
RTVSPropertyOp15
 70
     1
102
RTVSPropertyOp16
 70
     1
102
RTVSPropertyOp17
 70
     1
102
RTVSPropertyOp18
 70
     1
102
RTVSPropertyOp19
 70
     1
102
RTVSPropertyOp20
 70
     1
102
RTVSPropertyOp21
 70
     1
102
RTVSPropertyOp22
 70
     1
102
RTVSPropertyOp23
 70
     1
102
RTVSPropertyOp24
 70
     1
102
RTVSPropertyOp25
 70
     1
102
RTVSPropertyOp26
 70
     1
102
RTVSPropertyOp27
 70
     1
102
RTVSPropertyOp28
 70
     1
102
RTVSPropertyOp29
 70
     1
102
RTVSPropertyOp30
 70
     1
102
RTVSPropertyOp31
 70
     1
102
RTVSPropertyOp32
 70
     1
102
RTVSPropertyOp33
 70
     1
102
RTVSPropertyOp34
 70
     1
102
RTVSPropertyOp35
 70
     1
102
RTVSPropertyOp36
 70
     1
102
RTVSPropertyOp37
 70
     1
102
RTVSPropertyOp38
 70
     1
102
RTVSPropertyOp39
 70
     1
102
RTVSPropertyOp40
 70
     1
102
RTVSPropertyOp41
 70
     1
102
RTVSPropertyOp42
 70
     1
102
RTVSPropertyOp43
 70
     1
102
RTVSPropertyOp44
 70
     1
102
RTVSPropertyOp45
 70
     1
102
RTVSPropertyOp46
 70
     1
102
RTVSPropertyOp47
 70
     1
102
RTVSPropertyOp48
 70
     1
102
RTVSPropertyOp49
 70
     1
102
RTVSPropertyOp50
 70
     1
102
RTVSPropertyOp51
 70
     0
102
RTVSPropertyOp52
 70
     0
102
RTVSPropertyOp53
 70
     1
102
RTVSPropertyOp54
 70
     1
102
RTVSPropertyOp55
 70
     1
102
RTVSPropertyOp56
 70
     1
102
RTVSPropertyOp57
 70
     1
102
RTVSPropertyOp58
 70
     1
102
RTVSPropertyOp59
 70
     1
102
RTVSPropertyOp60
 70
     1
102
RTVSPropertyOp61
 70
     1
102
RTVSPropertyOp62
 70
     1
  0
XRECORD
  5
972D
102
{ACAD_REACTORS
330
972C
102
}
330
972C
100
AcDbXrecord
280
     1
102
RTVSPost2010Prop28
280
     0
102
RTVSPost2010PropOp28
 70
     1
102
RTVSPost2010Prop29
280
     1
102
RTVSPost2010PropOp29
 70
     1
102
RTVSPost2010Prop30
280
     1
102
RTVSPost2010PropOp30
 70
     1
102
RTVSPost2010Prop31
280
     0
102
RTVSPost2010PropOp31
 70
     1
102
RTVSPost2010Prop32
280
     0
102
RTVSPost2010PropOp32
 70
     1
102
RTVSPost2010Prop33
280
     0
102
RTVSPost2010PropOp33
 70
     1
102
RTVSPost2010Prop34
280
     0
102
RTVSPost2010PropOp34
 70
     1
102
RTVSPost2010Prop35
280
     0
102
RTVSPost2010PropOp35
 70
     1
102
RTVSPost2010Prop36
280
     0
102
RTVSPost2010PropOp36
 70
     1
102
RTVSPost2010Prop37
 90
       50
102
RTVSPost2010PropOp37
 70
     1
102
RTVSPost2010Prop38
140
0.0
102
RTVSPost2010PropOp38
 70
     1
102
RTVSPost2010Prop39
140
1.0
102
RTVSPost2010PropOp39
 70
     1
102
RTVSPost2010Prop40
 90
        0
102
RTVSPost2010PropOp40
 70
     1
102
RTVSPost2010Prop41ColorIndex
 90
       18
102
RTVSPost2010Prop41ColorRGB
 90
        0
102
RTVSPost2010PropOp41
 70
     1
102
RTVSPost2010Prop42
 90
       50
102
RTVSPost2010PropOp42
 70
     1
102
RTVSPost2010Prop43
 90
        3
102
RTVSPost2010PropOp43
 70
     1
102
RTVSPost2010Prop44ColorIndex
 90
        5
102
RTVSPost2010Prop44ColorRGB
 90
      255
102
RTVSPost2010PropOp44
 70
     1
102
RTVSPost2010Prop45
280
     0
102
RTVSPost2010PropOp45
 70
     1
102
RTVSPost2010Prop46
 90
       50
102
RTVSPost2010PropOp46
 70
     1
102
RTVSPost2010Prop47
 90
       50
102
RTVSPost2010PropOp47
 70
     1
102
RTVSPost2010Prop48
 90
       50
102
RTVSPost2010PropOp48
 70
     1
102
RTVSPost2010Prop49
280
     0
102
RTVSPost2010PropOp49
 70
     1
102
RTVSPost2010Prop50
 90
       50
102
RTVSPost2010PropOp50
 70
     1
102
RTVSPost2010Prop51ColorIndex
 90
      256
102
RTVSPost2010Prop51ColorRGB
 90
-16777216
102
RTVSPost2010PropOp51
 70
     0
102
RTVSPost2010Prop52
140
1.0
102
RTVSPost2010PropOp52
 70
     0
102
RTVSPost2010Prop53
 90
        2
102
RTVSPost2010PropOp53
 70
     1
102
RTVSPost2010Prop54
  1
strokes_ogs.tif
102
RTVSPost2010PropOp54
 70
     1
102
RTVSPost2010Prop55
280
     0
102
RTVSPost2010PropOp55
 70
     1
102
RTVSPost2010Prop56
140
1.0
102
RTVSPost2010PropOp56
 70
     1
102
RTVSPost2010Prop57
140
1.0
102
RTVSPost2010PropOp57
 70
     1
102
RTVSPropertyOp0
 70
     1
102
RTVSPropertyOp1
 70
     1
102
RTVSPropertyOp2
 70
     1
102
RTVSPropertyOp3
 70
     1
102
RTVSPropertyOp4
 70
     1
102
RTVSPropertyOp5
 70
     1
102
RTVSPropertyOp6
 70
     1
102
RTVSPropertyOp7
 70
     1
102
RTVSPropertyOp8
 70
     1
102
RTVSPropertyOp9
 70
     1
102
RTVSPropertyOp10
 70
     1
102
RTVSPropertyOp11
 70
     1
102
RTVSPropertyOp12
 70
     1
102
RTVSPropertyOp13
 70
     1
102
RTVSPropertyOp14
 70
     1
102
RTVSPropertyOp15
 70
     1
102
RTVSPropertyOp16
 70
     1
102
RTVSPropertyOp17
 70
     1
102
RTVSPropertyOp18
 70
     1
102
RTVSPropertyOp19
 70
     1
102
RTVSPropertyOp20
 70
     1
102
RTVSPropertyOp21
 70
     1
102
RTVSPropertyOp22
 70
     1
102
RTVSPropertyOp23
 70
     1
102
RTVSPropertyOp24
 70
     1
102
RTVSPropertyOp25
 70
     1
102
RTVSPropertyOp26
 70
     1
102
RTVSPropertyOp27
 70
     1
102
RTVSPropertyOp28
 70
     1
102
RTVSPropertyOp29
 70
     1
102
RTVSPropertyOp30
 70
     1
102
RTVSPropertyOp31
 70
     1
102
RTVSPropertyOp32
 70
     1
102
RTVSPropertyOp33
 70
     1
102
RTVSPropertyOp34
 70
     1
102
RTVSPropertyOp35
 70
     1
102
RTVSPropertyOp36
 70
     1
102
RTVSPropertyOp37
 70
     1
102
RTVSPropertyOp38
 70
     1
102
RTVSPropertyOp39
 70
     1
102
RTVSPropertyOp40
 70
     1
102
RTVSPropertyOp41
 70
     1
102
RTVSPropertyOp42
 70
     1
102
RTVSPropertyOp43
 70
     1
102
RTVSPropertyOp44
 70
     1
102
RTVSPropertyOp45
 70
     1
102
RTVSPropertyOp46
 70
     1
102
RTVSPropertyOp47
 70
     1
102
RTVSPropertyOp48
 70
     1
102
RTVSPropertyOp49
 70
     1
102
RTVSPropertyOp50
 70
     1
102
RTVSPropertyOp51
 70
     0
102
RTVSPropertyOp52
 70
     0
102
RTVSPropertyOp53
 70
     1
102
RTVSPropertyOp54
 70
     1
102
RTVSPropertyOp55
 70
     1
102
RTVSPropertyOp56
 70
     1
102
RTVSPropertyOp57
 70
     1
102
RTVSPropertyOp58
 70
     1
102
RTVSPropertyOp59
 70
     1
102
RTVSPropertyOp60
 70
     1
102
RTVSPropertyOp61
 70
     1
102
RTVSPropertyOp62
 70
     1
  0
XRECORD
  5
9747
102
{ACAD_REACTORS
330
9746
102
}
330
9746
100
AcDbXrecord
280
     1
102
RTVSPost2010Prop28
280
     0
102
RTVSPost2010PropOp28
 70
     1
102
RTVSPost2010Prop29
280
     1
102
RTVSPost2010PropOp29
 70
     1
102
RTVSPost2010Prop30
280
     1
102
RTVSPost2010PropOp30
 70
     1
102
RTVSPost2010Prop31
280
     0
102
RTVSPost2010PropOp31
 70
     1
102
RTVSPost2010Prop32
280
     0
102
RTVSPost2010PropOp32
 70
     1
102
RTVSPost2010Prop33
280
     0
102
RTVSPost2010PropOp33
 70
     1
102
RTVSPost2010Prop34
280
     0
102
RTVSPost2010PropOp34
 70
     1
102
RTVSPost2010Prop35
280
     0
102
RTVSPost2010PropOp35
 70
     1
102
RTVSPost2010Prop36
280
     0
102
RTVSPost2010PropOp36
 70
     1
102
RTVSPost2010Prop37
 90
       50
102
RTVSPost2010PropOp37
 70
     0
102
RTVSPost2010Prop38
140
0.0
102
RTVSPost2010PropOp38
 70
     0
102
RTVSPost2010Prop39
140
1.0
102
RTVSPost2010PropOp39
 70
     0
102
RTVSPost2010Prop40
 90
        0
102
RTVSPost2010PropOp40
 70
     0
102
RTVSPost2010Prop41ColorIndex
 90
       18
102
RTVSPost2010Prop41ColorRGB
 90
        0
102
RTVSPost2010PropOp41
 70
     0
102
RTVSPost2010Prop42
 90
       50
102
RTVSPost2010PropOp42
 70
     0
102
RTVSPost2010Prop43
 90
        3
102
RTVSPost2010PropOp43
 70
     0
102
RTVSPost2010Prop44ColorIndex
 90
        5
102
RTVSPost2010Prop44ColorRGB
 90
      255
102
RTVSPost2010PropOp44
 70
     0
102
RTVSPost2010Prop45
280
     0
102
RTVSPost2010PropOp45
 70
     1
102
RTVSPost2010Prop46
 90
       50
102
RTVSPost2010PropOp46
 70
     0
102
RTVSPost2010Prop47
 90
       50
102
RTVSPost2010PropOp47
 70
     0
102
RTVSPost2010Prop48
 90
       50
102
RTVSPost2010PropOp48
 70
     0
102
RTVSPost2010Prop49
280
     0
102
RTVSPost2010PropOp49
 70
     1
102
RTVSPost2010Prop50
 90
       50
102
RTVSPost2010PropOp50
 70
     0
102
RTVSPost2010Prop51ColorIndex
 90
      256
102
RTVSPost2010Prop51ColorRGB
 90
-16777216
102
RTVSPost2010PropOp51
 70
     0
102
RTVSPost2010Prop52
140
1.0
102
RTVSPost2010PropOp52
 70
     0
102
RTVSPost2010Prop53
 90
        2
102
RTVSPost2010PropOp53
 70
     0
102
RTVSPost2010Prop54
  1
strokes_ogs.tif
102
RTVSPost2010PropOp54
 70
     0
102
RTVSPost2010Prop55
280
     0
102
RTVSPost2010PropOp55
 70
     1
102
RTVSPost2010Prop56
140
1.0
102
RTVSPost2010PropOp56
 70
     0
102
RTVSPost2010Prop57
140
1.0
102
RTVSPost2010PropOp57
 70
     0
102
RTVSPropertyOp0
 70
     0
102
RTVSPropertyOp1
 70
     0
102
RTVSPropertyOp2
 70
     0
102
RTVSPropertyOp3
 70
     0
102
RTVSPropertyOp4
 70
     0
102
RTVSPropertyOp5
 70
     0
102
RTVSPropertyOp6
 70
     0
102
RTVSPropertyOp7
 70
     0
102
RTVSPropertyOp8
 70
     0
102
RTVSPropertyOp9
 70
     0
102
RTVSPropertyOp10
 70
     0
102
RTVSPropertyOp11
 70
     0
102
RTVSPropertyOp12
 70
     0
102
RTVSPropertyOp13
 70
     0
102
RTVSPropertyOp14
 70
     2
102
RTVSPropertyOp15
 70
     0
102
RTVSPropertyOp16
 70
     0
102
RTVSPropertyOp17
 70
     0
102
RTVSPropertyOp18
 70
     0
102
RTVSPropertyOp19
 70
     0
102
RTVSPropertyOp20
 70
     0
102
RTVSPropertyOp21
 70
     0
102
RTVSPropertyOp22
 70
     0
102
RTVSPropertyOp23
 70
     0
102
RTVSPropertyOp24
 70
     0
102
RTVSPropertyOp25
 70
     0
102
RTVSPropertyOp26
 70
     0
102
RTVSPropertyOp27
 70
     0
102
RTVSPropertyOp28
 70
     1
102
RTVSPropertyOp29
 70
     1
102
RTVSPropertyOp30
 70
     1
102
RTVSPropertyOp31
 70
     1
102
RTVSPropertyOp32
 70
     1
102
RTVSPropertyOp33
 70
     1
102
RTVSPropertyOp34
 70
     1
102
RTVSPropertyOp35
 70
     1
102
RTVSPropertyOp36
 70
     1
102
RTVSPropertyOp37
 70
     0
102
RTVSPropertyOp38
 70
     0
102
RTVSPropertyOp39
 70
     0
102
RTVSPropertyOp40
 70
     0
102
RTVSPropertyOp41
 70
     0
102
RTVSPropertyOp42
 70
     0
102
RTVSPropertyOp43
 70
     0
102
RTVSPropertyOp44
 70
     0
102
RTVSPropertyOp45
 70
     1
102
RTVSPropertyOp46
 70
     0
102
RTVSPropertyOp47
 70
     0
102
RTVSPropertyOp48
 70
     0
102
RTVSPropertyOp49
 70
     1
102
RTVSPropertyOp50
 70
     0
102
RTVSPropertyOp51
 70
     0
102
RTVSPropertyOp52
 70
     0
102
RTVSPropertyOp53
 70
     0
102
RTVSPropertyOp54
 70
     0
102
RTVSPropertyOp55
 70
     1
102
RTVSPropertyOp56
 70
     0
102
RTVSPropertyOp57
 70
     0
102
RTVSPropertyOp58
 70
     0
102
RTVSPropertyOp59
 70
     0
102
RTVSPropertyOp60
 70
     0
102
RTVSPropertyOp61
 70
     0
102
RTVSPropertyOp62
 70
     0
  0
XRECORD
  5
9735
102
{ACAD_REACTORS
330
9734
102
}
330
9734
100
AcDbXrecord
280
     1
102
RTVSPost2010Prop28
280
     0
102
RTVSPost2010PropOp28
 70
     1
102
RTVSPost2010Prop29
280
     1
102
RTVSPost2010PropOp29
 70
     1
102
RTVSPost2010Prop30
280
     1
102
RTVSPost2010PropOp30
 70
     1
102
RTVSPost2010Prop31
280
     0
102
RTVSPost2010PropOp31
 70
     1
102
RTVSPost2010Prop32
280
     0
102
RTVSPost2010PropOp32
 70
     1
102
RTVSPost2010Prop33
280
     0
102
RTVSPost2010PropOp33
 70
     1
102
RTVSPost2010Prop34
280
     0
102
RTVSPost2010PropOp34
 70
     1
102
RTVSPost2010Prop35
280
     0
102
RTVSPost2010PropOp35
 70
     1
102
RTVSPost2010Prop36
280
     0
102
RTVSPost2010PropOp36
 70
     1
102
RTVSPost2010Prop37
 90
       50
102
RTVSPost2010PropOp37
 70
     1
102
RTVSPost2010Prop38
140
0.0
102
RTVSPost2010PropOp38
 70
     1
102
RTVSPost2010Prop39
140
1.0
102
RTVSPost2010PropOp39
 70
     1
102
RTVSPost2010Prop40
 90
        0
102
RTVSPost2010PropOp40
 70
     1
102
RTVSPost2010Prop41ColorIndex
 90
       18
102
RTVSPost2010Prop41ColorRGB
 90
        0
102
RTVSPost2010PropOp41
 70
     1
102
RTVSPost2010Prop42
 90
       50
102
RTVSPost2010PropOp42
 70
     1
102
RTVSPost2010Prop43
 90
        3
102
RTVSPost2010PropOp43
 70
     1
102
RTVSPost2010Prop44ColorIndex
 90
        5
102
RTVSPost2010Prop44ColorRGB
 90
      255
102
RTVSPost2010PropOp44
 70
     1
102
RTVSPost2010Prop45
280
     0
102
RTVSPost2010PropOp45
 70
     1
102
RTVSPost2010Prop46
 90
       50
102
RTVSPost2010PropOp46
 70
     1
102
RTVSPost2010Prop47
 90
       50
102
RTVSPost2010PropOp47
 70
     1
102
RTVSPost2010Prop48
 90
       50
102
RTVSPost2010PropOp48
 70
     1
102
RTVSPost2010Prop49
280
     0
102
RTVSPost2010PropOp49
 70
     1
102
RTVSPost2010Prop50
 90
       50
102
RTVSPost2010PropOp50
 70
     1
102
RTVSPost2010Prop51ColorIndex
 90
      256
102
RTVSPost2010Prop51ColorRGB
 90
-16777216
102
RTVSPost2010PropOp51
 70
     0
102
RTVSPost2010Prop52
140
1.0
102
RTVSPost2010PropOp52
 70
     0
102
RTVSPost2010Prop53
 90
        2
102
RTVSPost2010PropOp53
 70
     1
102
RTVSPost2010Prop54
  1
strokes_ogs.tif
102
RTVSPost2010PropOp54
 70
     1
102
RTVSPost2010Prop55
280
     0
102
RTVSPost2010PropOp55
 70
     1
102
RTVSPost2010Prop56
140
1.0
102
RTVSPost2010PropOp56
 70
     1
102
RTVSPost2010Prop57
140
1.0
102
RTVSPost2010PropOp57
 70
     1
102
RTVSPropertyOp0
 70
     1
102
RTVSPropertyOp1
 70
     1
102
RTVSPropertyOp2
 70
     1
102
RTVSPropertyOp3
 70
     1
102
RTVSPropertyOp4
 70
     1
102
RTVSPropertyOp5
 70
     1
102
RTVSPropertyOp6
 70
     1
102
RTVSPropertyOp7
 70
     1
102
RTVSPropertyOp8
 70
     1
102
RTVSPropertyOp9
 70
     1
102
RTVSPropertyOp10
 70
     1
102
RTVSPropertyOp11
 70
     1
102
RTVSPropertyOp12
 70
     1
102
RTVSPropertyOp13
 70
     1
102
RTVSPropertyOp14
 70
     1
102
RTVSPropertyOp15
 70
     1
102
RTVSPropertyOp16
 70
     1
102
RTVSPropertyOp17
 70
     1
102
RTVSPropertyOp18
 70
     1
102
RTVSPropertyOp19
 70
     1
102
RTVSPropertyOp20
 70
     1
102
RTVSPropertyOp21
 70
     1
102
RTVSPropertyOp22
 70
     1
102
RTVSPropertyOp23
 70
     1
102
RTVSPropertyOp24
 70
     1
102
RTVSPropertyOp25
 70
     1
102
RTVSPropertyOp26
 70
     1
102
RTVSPropertyOp27
 70
     1
102
RTVSPropertyOp28
 70
     1
102
RTVSPropertyOp29
 70
     1
102
RTVSPropertyOp30
 70
     1
102
RTVSPropertyOp31
 70
     1
102
RTVSPropertyOp32
 70
     1
102
RTVSPropertyOp33
 70
     1
102
RTVSPropertyOp34
 70
     1
102
RTVSPropertyOp35
 70
     1
102
RTVSPropertyOp36
 70
     1
102
RTVSPropertyOp37
 70
     1
102
RTVSPropertyOp38
 70
     1
102
RTVSPropertyOp39
 70
     1
102
RTVSPropertyOp40
 70
     1
102
RTVSPropertyOp41
 70
     1
102
RTVSPropertyOp42
 70
     1
102
RTVSPropertyOp43
 70
     1
102
RTVSPropertyOp44
 70
     1
102
RTVSPropertyOp45
 70
     1
102
RTVSPropertyOp46
 70
     1
102
RTVSPropertyOp47
 70
     1
102
RTVSPropertyOp48
 70
     1
102
RTVSPropertyOp49
 70
     1
102
RTVSPropertyOp50
 70
     1
102
RTVSPropertyOp51
 70
     0
102
RTVSPropertyOp52
 70
     0
102
RTVSPropertyOp53
 70
     1
102
RTVSPropertyOp54
 70
     1
102
RTVSPropertyOp55
 70
     1
102
RTVSPropertyOp56
 70
     1
102
RTVSPropertyOp57
 70
     1
102
RTVSPropertyOp58
 70
     1
102
RTVSPropertyOp59
 70
     1
102
RTVSPropertyOp60
 70
     1
102
RTVSPropertyOp61
 70
     1
102
RTVSPropertyOp62
 70
     1
  0
XRECORD
  5
9719
102
{ACAD_REACTORS
330
9718
102
}
330
9718
100
AcDbXrecord
280
     1
102
RTVSPost2010Prop28
280
     0
102
RTVSPost2010PropOp28
 70
     1
102
RTVSPost2010Prop29
280
     1
102
RTVSPost2010PropOp29
 70
     1
102
RTVSPost2010Prop30
280
     1
102
RTVSPost2010PropOp30
 70
     1
102
RTVSPost2010Prop31
280
     0
102
RTVSPost2010PropOp31
 70
     1
102
RTVSPost2010Prop32
280
     0
102
RTVSPost2010PropOp32
 70
     1
102
RTVSPost2010Prop33
280
     0
102
RTVSPost2010PropOp33
 70
     1
102
RTVSPost2010Prop34
280
     0
102
RTVSPost2010PropOp34
 70
     1
102
RTVSPost2010Prop35
280
     0
102
RTVSPost2010PropOp35
 70
     1
102
RTVSPost2010Prop36
280
     0
102
RTVSPost2010PropOp36
 70
     1
102
RTVSPost2010Prop37
 90
       50
102
RTVSPost2010PropOp37
 70
     1
102
RTVSPost2010Prop38
140
0.0
102
RTVSPost2010PropOp38
 70
     1
102
RTVSPost2010Prop39
140
1.0
102
RTVSPost2010PropOp39
 70
     1
102
RTVSPost2010Prop40
 90
        0
102
RTVSPost2010PropOp40
 70
     1
102
RTVSPost2010Prop41ColorIndex
 90
       18
102
RTVSPost2010Prop41ColorRGB
 90
        0
102
RTVSPost2010PropOp41
 70
     1
102
RTVSPost2010Prop42
 90
       50
102
RTVSPost2010PropOp42
 70
     1
102
RTVSPost2010Prop43
 90
        3
102
RTVSPost2010PropOp43
 70
     1
102
RTVSPost2010Prop44ColorIndex
 90
        5
102
RTVSPost2010Prop44ColorRGB
 90
      255
102
RTVSPost2010PropOp44
 70
     1
102
RTVSPost2010Prop45
280
     0
102
RTVSPost2010PropOp45
 70
     1
102
RTVSPost2010Prop46
 90
       50
102
RTVSPost2010PropOp46
 70
     1
102
RTVSPost2010Prop47
 90
       50
102
RTVSPost2010PropOp47
 70
     1
102
RTVSPost2010Prop48
 90
       50
102
RTVSPost2010PropOp48
 70
     1
102
RTVSPost2010Prop49
280
     0
102
RTVSPost2010PropOp49
 70
     1
102
RTVSPost2010Prop50
 90
       50
102
RTVSPost2010PropOp50
 70
     1
102
RTVSPost2010Prop51ColorIndex
 90
      256
102
RTVSPost2010Prop51ColorRGB
 90
-16777216
102
RTVSPost2010PropOp51
 70
     0
102
RTVSPost2010Prop52
140
1.0
102
RTVSPost2010PropOp52
 70
     0
102
RTVSPost2010Prop53
 90
        2
102
RTVSPost2010PropOp53
 70
     1
102
RTVSPost2010Prop54
  1
strokes_ogs.tif
102
RTVSPost2010PropOp54
 70
     1
102
RTVSPost2010Prop55
280
     0
102
RTVSPost2010PropOp55
 70
     1
102
RTVSPost2010Prop56
140
1.0
102
RTVSPost2010PropOp56
 70
     1
102
RTVSPost2010Prop57
140
1.0
102
RTVSPost2010PropOp57
 70
     1
102
RTVSPropertyOp0
 70
     1
102
RTVSPropertyOp1
 70
     1
102
RTVSPropertyOp2
 70
     1
102
RTVSPropertyOp3
 70
     1
102
RTVSPropertyOp4
 70
     1
102
RTVSPropertyOp5
 70
     1
102
RTVSPropertyOp6
 70
     1
102
RTVSPropertyOp7
 70
     1
102
RTVSPropertyOp8
 70
     1
102
RTVSPropertyOp9
 70
     1
102
RTVSPropertyOp10
 70
     1
102
RTVSPropertyOp11
 70
     1
102
RTVSPropertyOp12
 70
     1
102
RTVSPropertyOp13
 70
     1
102
RTVSPropertyOp14
 70
     1
102
RTVSPropertyOp15
 70
     1
102
RTVSPropertyOp16
 70
     1
102
RTVSPropertyOp17
 70
     1
102
RTVSPropertyOp18
 70
     1
102
RTVSPropertyOp19
 70
     1
102
RTVSPropertyOp20
 70
     1
102
RTVSPropertyOp21
 70
     1
102
RTVSPropertyOp22
 70
     1
102
RTVSPropertyOp23
 70
     1
102
RTVSPropertyOp24
 70
     1
102
RTVSPropertyOp25
 70
     1
102
RTVSPropertyOp26
 70
     1
102
RTVSPropertyOp27
 70
     1
102
RTVSPropertyOp28
 70
     1
102
RTVSPropertyOp29
 70
     1
102
RTVSPropertyOp30
 70
     1
102
RTVSPropertyOp31
 70
     1
102
RTVSPropertyOp32
 70
     1
102
RTVSPropertyOp33
 70
     1
102
RTVSPropertyOp34
 70
     1
102
RTVSPropertyOp35
 70
     1
102
RTVSPropertyOp36
 70
     1
102
RTVSPropertyOp37
 70
     1
102
RTVSPropertyOp38
 70
     1
102
RTVSPropertyOp39
 70
     1
102
RTVSPropertyOp40
 70
     1
102
RTVSPropertyOp41
 70
     1
102
RTVSPropertyOp42
 70
     1
102
RTVSPropertyOp43
 70
     1
102
RTVSPropertyOp44
 70
     1
102
RTVSPropertyOp45
 70
     1
102
RTVSPropertyOp46
 70
     1
102
RTVSPropertyOp47
 70
     1
102
RTVSPropertyOp48
 70
     1
102
RTVSPropertyOp49
 70
     1
102
RTVSPropertyOp50
 70
     1
102
RTVSPropertyOp51
 70
     0
102
RTVSPropertyOp52
 70
     0
102
RTVSPropertyOp53
 70
     1
102
RTVSPropertyOp54
 70
     1
102
RTVSPropertyOp55
 70
     1
102
RTVSPropertyOp56
 70
     1
102
RTVSPropertyOp57
 70
     1
102
RTVSPropertyOp58
 70
     1
102
RTVSPropertyOp59
 70
     1
102
RTVSPropertyOp60
 70
     1
102
RTVSPropertyOp61
 70
     1
102
RTVSPropertyOp62
 70
     1
  0
XRECORD
  5
971B
102
{ACAD_REACTORS
330
971A
102
}
330
971A
100
AcDbXrecord
280
     1
102
RTVSPost2010Prop28
280
     0
102
RTVSPost2010PropOp28
 70
     1
102
RTVSPost2010Prop29
280
     1
102
RTVSPost2010PropOp29
 70
     1
102
RTVSPost2010Prop30
280
     1
102
RTVSPost2010PropOp30
 70
     1
102
RTVSPost2010Prop31
280
     0
102
RTVSPost2010PropOp31
 70
     1
102
RTVSPost2010Prop32
280
     0
102
RTVSPost2010PropOp32
 70
     1
102
RTVSPost2010Prop33
280
     0
102
RTVSPost2010PropOp33
 70
     1
102
RTVSPost2010Prop34
280
     0
102
RTVSPost2010PropOp34
 70
     1
102
RTVSPost2010Prop35
280
     0
102
RTVSPost2010PropOp35
 70
     1
102
RTVSPost2010Prop36
280
     0
102
RTVSPost2010PropOp36
 70
     1
102
RTVSPost2010Prop37
 90
       50
102
RTVSPost2010PropOp37
 70
     1
102
RTVSPost2010Prop38
140
0.0
102
RTVSPost2010PropOp38
 70
     1
102
RTVSPost2010Prop39
140
1.0
102
RTVSPost2010PropOp39
 70
     1
102
RTVSPost2010Prop40
 90
        0
102
RTVSPost2010PropOp40
 70
     1
102
RTVSPost2010Prop41ColorIndex
 90
       18
102
RTVSPost2010Prop41ColorRGB
 90
        0
102
RTVSPost2010PropOp41
 70
     1
102
RTVSPost2010Prop42
 90
       50
102
RTVSPost2010PropOp42
 70
     1
102
RTVSPost2010Prop43
 90
        3
102
RTVSPost2010PropOp43
 70
     1
102
RTVSPost2010Prop44ColorIndex
 90
        5
102
RTVSPost2010Prop44ColorRGB
 90
      255
102
RTVSPost2010PropOp44
 70
     1
102
RTVSPost2010Prop45
280
     0
102
RTVSPost2010PropOp45
 70
     1
102
RTVSPost2010Prop46
 90
       50
102
RTVSPost2010PropOp46
 70
     1
102
RTVSPost2010Prop47
 90
       50
102
RTVSPost2010PropOp47
 70
     1
102
RTVSPost2010Prop48
 90
       50
102
RTVSPost2010PropOp48
 70
     1
102
RTVSPost2010Prop49
280
     0
102
RTVSPost2010PropOp49
 70
     1
102
RTVSPost2010Prop50
 90
       50
102
RTVSPost2010PropOp50
 70
     1
102
RTVSPost2010Prop51ColorIndex
 90
      256
102
RTVSPost2010Prop51ColorRGB
 90
-16777216
102
RTVSPost2010PropOp51
 70
     0
102
RTVSPost2010Prop52
140
1.0
102
RTVSPost2010PropOp52
 70
     0
102
RTVSPost2010Prop53
 90
        2
102
RTVSPost2010PropOp53
 70
     1
102
RTVSPost2010Prop54
  1
strokes_ogs.tif
102
RTVSPost2010PropOp54
 70
     1
102
RTVSPost2010Prop55
280
     0
102
RTVSPost2010PropOp55
 70
     1
102
RTVSPost2010Prop56
140
1.0
102
RTVSPost2010PropOp56
 70
     1
102
RTVSPost2010Prop57
140
1.0
102
RTVSPost2010PropOp57
 70
     1
102
RTVSPropertyOp0
 70
     1
102
RTVSPropertyOp1
 70
     1
102
RTVSPropertyOp2
 70
     1
102
RTVSPropertyOp3
 70
     1
102
RTVSPropertyOp4
 70
     1
102
RTVSPropertyOp5
 70
     1
102
RTVSPropertyOp6
 70
     1
102
RTVSPropertyOp7
 70
     1
102
RTVSPropertyOp8
 70
     1
102
RTVSPropertyOp9
 70
     1
102
RTVSPropertyOp10
 70
     1
102
RTVSPropertyOp11
 70
     1
102
RTVSPropertyOp12
 70
     1
102
RTVSPropertyOp13
 70
     1
102
RTVSPropertyOp14
 70
     1
102
RTVSPropertyOp15
 70
     1
102
RTVSPropertyOp16
 70
     1
102
RTVSPropertyOp17
 70
     1
102
RTVSPropertyOp18
 70
     1
102
RTVSPropertyOp19
 70
     1
102
RTVSPropertyOp20
 70
     1
102
RTVSPropertyOp21
 70
     1
102
RTVSPropertyOp22
 70
     1
102
RTVSPropertyOp23
 70
     1
102
RTVSPropertyOp24
 70
     1
102
RTVSPropertyOp25
 70
     1
102
RTVSPropertyOp26
 70
     1
102
RTVSPropertyOp27
 70
     1
102
RTVSPropertyOp28
 70
     1
102
RTVSPropertyOp29
 70
     1
102
RTVSPropertyOp30
 70
     1
102
RTVSPropertyOp31
 70
     1
102
RTVSPropertyOp32
 70
     1
102
RTVSPropertyOp33
 70
     1
102
RTVSPropertyOp34
 70
     1
102
RTVSPropertyOp35
 70
     1
102
RTVSPropertyOp36
 70
     1
102
RTVSPropertyOp37
 70
     1
102
RTVSPropertyOp38
 70
     1
102
RTVSPropertyOp39
 70
     1
102
RTVSPropertyOp40
 70
     1
102
RTVSPropertyOp41
 70
     1
102
RTVSPropertyOp42
 70
     1
102
RTVSPropertyOp43
 70
     1
102
RTVSPropertyOp44
 70
     1
102
RTVSPropertyOp45
 70
     1
102
RTVSPropertyOp46
 70
     1
102
RTVSPropertyOp47
 70
     1
102
RTVSPropertyOp48
 70
     1
102
RTVSPropertyOp49
 70
     1
102
RTVSPropertyOp50
 70
     1
102
RTVSPropertyOp51
 70
     0
102
RTVSPropertyOp52
 70
     0
102
RTVSPropertyOp53
 70
     1
102
RTVSPropertyOp54
 70
     1
102
RTVSPropertyOp55
 70
     1
102
RTVSPropertyOp56
 70
     1
102
RTVSPropertyOp57
 70
     1
102
RTVSPropertyOp58
 70
     1
102
RTVSPropertyOp59
 70
     1
102
RTVSPropertyOp60
 70
     1
102
RTVSPropertyOp61
 70
     1
102
RTVSPropertyOp62
 70
     1
  0
XRECORD
  5
971D
102
{ACAD_REACTORS
330
971C
102
}
330
971C
100
AcDbXrecord
280
     1
102
RTVSPost2010Prop28
280
     0
102
RTVSPost2010PropOp28
 70
     1
102
RTVSPost2010Prop29
280
     1
102
RTVSPost2010PropOp29
 70
     1
102
RTVSPost2010Prop30
280
     1
102
RTVSPost2010PropOp30
 70
     1
102
RTVSPost2010Prop31
280
     0
102
RTVSPost2010PropOp31
 70
     1
102
RTVSPost2010Prop32
280
     0
102
RTVSPost2010PropOp32
 70
     1
102
RTVSPost2010Prop33
280
     0
102
RTVSPost2010PropOp33
 70
     1
102
RTVSPost2010Prop34
280
     0
102
RTVSPost2010PropOp34
 70
     1
102
RTVSPost2010Prop35
280
     0
102
RTVSPost2010PropOp35
 70
     1
102
RTVSPost2010Prop36
280
     0
102
RTVSPost2010PropOp36
 70
     1
102
RTVSPost2010Prop37
 90
       50
102
RTVSPost2010PropOp37
 70
     1
102
RTVSPost2010Prop38
140
0.0
102
RTVSPost2010PropOp38
 70
     1
102
RTVSPost2010Prop39
140
1.0
102
RTVSPost2010PropOp39
 70
     1
102
RTVSPost2010Prop40
 90
        0
102
RTVSPost2010PropOp40
 70
     1
102
RTVSPost2010Prop41ColorIndex
 90
       18
102
RTVSPost2010Prop41ColorRGB
 90
        0
102
RTVSPost2010PropOp41
 70
     1
102
RTVSPost2010Prop42
 90
       50
102
RTVSPost2010PropOp42
 70
     1
102
RTVSPost2010Prop43
 90
        3
102
RTVSPost2010PropOp43
 70
     1
102
RTVSPost2010Prop44ColorIndex
 90
        5
102
RTVSPost2010Prop44ColorRGB
 90
      255
102
RTVSPost2010PropOp44
 70
     1
102
RTVSPost2010Prop45
280
     0
102
RTVSPost2010PropOp45
 70
     1
102
RTVSPost2010Prop46
 90
       50
102
RTVSPost2010PropOp46
 70
     1
102
RTVSPost2010Prop47
 90
       50
102
RTVSPost2010PropOp47
 70
     1
102
RTVSPost2010Prop48
 90
       50
102
RTVSPost2010PropOp48
 70
     1
102
RTVSPost2010Prop49
280
     0
102
RTVSPost2010PropOp49
 70
     1
102
RTVSPost2010Prop50
 90
       50
102
RTVSPost2010PropOp50
 70
     1
102
RTVSPost2010Prop51ColorIndex
 90
      256
102
RTVSPost2010Prop51ColorRGB
 90
-16777216
102
RTVSPost2010PropOp51
 70
     0
102
RTVSPost2010Prop52
140
1.0
102
RTVSPost2010PropOp52
 70
     0
102
RTVSPost2010Prop53
 90
        2
102
RTVSPost2010PropOp53
 70
     1
102
RTVSPost2010Prop54
  1
strokes_ogs.tif
102
RTVSPost2010PropOp54
 70
     1
102
RTVSPost2010Prop55
280
     0
102
RTVSPost2010PropOp55
 70
     1
102
RTVSPost2010Prop56
140
1.0
102
RTVSPost2010PropOp56
 70
     1
102
RTVSPost2010Prop57
140
1.0
102
RTVSPost2010PropOp57
 70
     1
102
RTVSPropertyOp0
 70
     1
102
RTVSPropertyOp1
 70
     1
102
RTVSPropertyOp2
 70
     1
102
RTVSPropertyOp3
 70
     1
102
RTVSPropertyOp4
 70
     1
102
RTVSPropertyOp5
 70
     1
102
RTVSPropertyOp6
 70
     1
102
RTVSPropertyOp7
 70
     1
102
RTVSPropertyOp8
 70
     1
102
RTVSPropertyOp9
 70
     1
102
RTVSPropertyOp10
 70
     1
102
RTVSPropertyOp11
 70
     1
102
RTVSPropertyOp12
 70
     1
102
RTVSPropertyOp13
 70
     1
102
RTVSPropertyOp14
 70
     1
102
RTVSPropertyOp15
 70
     1
102
RTVSPropertyOp16
 70
     1
102
RTVSPropertyOp17
 70
     1
102
RTVSPropertyOp18
 70
     1
102
RTVSPropertyOp19
 70
     1
102
RTVSPropertyOp20
 70
     1
102
RTVSPropertyOp21
 70
     1
102
RTVSPropertyOp22
 70
     1
102
RTVSPropertyOp23
 70
     1
102
RTVSPropertyOp24
 70
     1
102
RTVSPropertyOp25
 70
     1
102
RTVSPropertyOp26
 70
     1
102
RTVSPropertyOp27
 70
     1
102
RTVSPropertyOp28
 70
     1
102
RTVSPropertyOp29
 70
     1
102
RTVSPropertyOp30
 70
     1
102
RTVSPropertyOp31
 70
     1
102
RTVSPropertyOp32
 70
     1
102
RTVSPropertyOp33
 70
     1
102
RTVSPropertyOp34
 70
     1
102
RTVSPropertyOp35
 70
     1
102
RTVSPropertyOp36
 70
     1
102
RTVSPropertyOp37
 70
     1
102
RTVSPropertyOp38
 70
     1
102
RTVSPropertyOp39
 70
     1
102
RTVSPropertyOp40
 70
     1
102
RTVSPropertyOp41
 70
     1
102
RTVSPropertyOp42
 70
     1
102
RTVSPropertyOp43
 70
     1
102
RTVSPropertyOp44
 70
     1
102
RTVSPropertyOp45
 70
     1
102
RTVSPropertyOp46
 70
     1
102
RTVSPropertyOp47
 70
     1
102
RTVSPropertyOp48
 70
     1
102
RTVSPropertyOp49
 70
     1
102
RTVSPropertyOp50
 70
     1
102
RTVSPropertyOp51
 70
     0
102
RTVSPropertyOp52
 70
     0
102
RTVSPropertyOp53
 70
     1
102
RTVSPropertyOp54
 70
     1
102
RTVSPropertyOp55
 70
     1
102
RTVSPropertyOp56
 70
     1
102
RTVSPropertyOp57
 70
     1
102
RTVSPropertyOp58
 70
     1
102
RTVSPropertyOp59
 70
     1
102
RTVSPropertyOp60
 70
     1
102
RTVSPropertyOp61
 70
     1
102
RTVSPropertyOp62
 70
     1
  0
XRECORD
  5
971F
102
{ACAD_REACTORS
330
971E
102
}
330
971E
100
AcDbXrecord
280
     1
102
RTVSPost2010Prop28
280
     0
102
RTVSPost2010PropOp28
 70
     1
102
RTVSPost2010Prop29
280
     1
102
RTVSPost2010PropOp29
 70
     1
102
RTVSPost2010Prop30
280
     1
102
RTVSPost2010PropOp30
 70
     1
102
RTVSPost2010Prop31
280
     0
102
RTVSPost2010PropOp31
 70
     1
102
RTVSPost2010Prop32
280
     0
102
RTVSPost2010PropOp32
 70
     1
102
RTVSPost2010Prop33
280
     0
102
RTVSPost2010PropOp33
 70
     1
102
RTVSPost2010Prop34
280
     0
102
RTVSPost2010PropOp34
 70
     1
102
RTVSPost2010Prop35
280
     0
102
RTVSPost2010PropOp35
 70
     1
102
RTVSPost2010Prop36
280
     0
102
RTVSPost2010PropOp36
 70
     1
102
RTVSPost2010Prop37
 90
       50
102
RTVSPost2010PropOp37
 70
     1
102
RTVSPost2010Prop38
140
0.0
102
RTVSPost2010PropOp38
 70
     1
102
RTVSPost2010Prop39
140
1.0
102
RTVSPost2010PropOp39
 70
     1
102
RTVSPost2010Prop40
 90
        0
102
RTVSPost2010PropOp40
 70
     1
102
RTVSPost2010Prop41ColorIndex
 90
       18
102
RTVSPost2010Prop41ColorRGB
 90
        0
102
RTVSPost2010PropOp41
 70
     1
102
RTVSPost2010Prop42
 90
       50
102
RTVSPost2010PropOp42
 70
     1
102
RTVSPost2010Prop43
 90
        3
102
RTVSPost2010PropOp43
 70
     1
102
RTVSPost2010Prop44ColorIndex
 90
        5
102
RTVSPost2010Prop44ColorRGB
 90
      255
102
RTVSPost2010PropOp44
 70
     1
102
RTVSPost2010Prop45
280
     0
102
RTVSPost2010PropOp45
 70
     1
102
RTVSPost2010Prop46
 90
       50
102
RTVSPost2010PropOp46
 70
     1
102
RTVSPost2010Prop47
 90
       50
102
RTVSPost2010PropOp47
 70
     1
102
RTVSPost2010Prop48
 90
       50
102
RTVSPost2010PropOp48
 70
     1
102
RTVSPost2010Prop49
280
     0
102
RTVSPost2010PropOp49
 70
     1
102
RTVSPost2010Prop50
 90
       50
102
RTVSPost2010PropOp50
 70
     1
102
RTVSPost2010Prop51ColorIndex
 90
      256
102
RTVSPost2010Prop51ColorRGB
 90
-16777216
102
RTVSPost2010PropOp51
 70
     0
102
RTVSPost2010Prop52
140
1.0
102
RTVSPost2010PropOp52
 70
     0
102
RTVSPost2010Prop53
 90
        2
102
RTVSPost2010PropOp53
 70
     1
102
RTVSPost2010Prop54
  1
strokes_ogs.tif
102
RTVSPost2010PropOp54
 70
     1
102
RTVSPost2010Prop55
280
     0
102
RTVSPost2010PropOp55
 70
     1
102
RTVSPost2010Prop56
140
1.0
102
RTVSPost2010PropOp56
 70
     1
102
RTVSPost2010Prop57
140
1.0
102
RTVSPost2010PropOp57
 70
     1
102
RTVSPropertyOp0
 70
     1
102
RTVSPropertyOp1
 70
     1
102
RTVSPropertyOp2
 70
     1
102
RTVSPropertyOp3
 70
     1
102
RTVSPropertyOp4
 70
     1
102
RTVSPropertyOp5
 70
     1
102
RTVSPropertyOp6
 70
     1
102
RTVSPropertyOp7
 70
     1
102
RTVSPropertyOp8
 70
     1
102
RTVSPropertyOp9
 70
     1
102
RTVSPropertyOp10
 70
     1
102
RTVSPropertyOp11
 70
     1
102
RTVSPropertyOp12
 70
     1
102
RTVSPropertyOp13
 70
     1
102
RTVSPropertyOp14
 70
     1
102
RTVSPropertyOp15
 70
     1
102
RTVSPropertyOp16
 70
     1
102
RTVSPropertyOp17
 70
     1
102
RTVSPropertyOp18
 70
     1
102
RTVSPropertyOp19
 70
     1
102
RTVSPropertyOp20
 70
     1
102
RTVSPropertyOp21
 70
     1
102
RTVSPropertyOp22
 70
     1
102
RTVSPropertyOp23
 70
     1
102
RTVSPropertyOp24
 70
     1
102
RTVSPropertyOp25
 70
     1
102
RTVSPropertyOp26
 70
     1
102
RTVSPropertyOp27
 70
     1
102
RTVSPropertyOp28
 70
     1
102
RTVSPropertyOp29
 70
     1
102
RTVSPropertyOp30
 70
     1
102
RTVSPropertyOp31
 70
     1
102
RTVSPropertyOp32
 70
     1
102
RTVSPropertyOp33
 70
     1
102
RTVSPropertyOp34
 70
     1
102
RTVSPropertyOp35
 70
     1
102
RTVSPropertyOp36
 70
     1
102
RTVSPropertyOp37
 70
     1
102
RTVSPropertyOp38
 70
     1
102
RTVSPropertyOp39
 70
     1
102
RTVSPropertyOp40
 70
     1
102
RTVSPropertyOp41
 70
     1
102
RTVSPropertyOp42
 70
     1
102
RTVSPropertyOp43
 70
     1
102
RTVSPropertyOp44
 70
     1
102
RTVSPropertyOp45
 70
     1
102
RTVSPropertyOp46
 70
     1
102
RTVSPropertyOp47
 70
     1
102
RTVSPropertyOp48
 70
     1
102
RTVSPropertyOp49
 70
     1
102
RTVSPropertyOp50
 70
     1
102
RTVSPropertyOp51
 70
     0
102
RTVSPropertyOp52
 70
     0
102
RTVSPropertyOp53
 70
     1
102
RTVSPropertyOp54
 70
     1
102
RTVSPropertyOp55
 70
     1
102
RTVSPropertyOp56
 70
     1
102
RTVSPropertyOp57
 70
     1
102
RTVSPropertyOp58
 70
     1
102
RTVSPropertyOp59
 70
     1
102
RTVSPropertyOp60
 70
     1
102
RTVSPropertyOp61
 70
     1
102
RTVSPropertyOp62
 70
     1
  0
XRECORD
  5
9727
102
{ACAD_REACTORS
330
9726
102
}
330
9726
100
AcDbXrecord
280
     1
102
RTVSPost2010Prop28
280
     0
102
RTVSPost2010PropOp28
 70
     1
102
RTVSPost2010Prop29
280
     1
102
RTVSPost2010PropOp29
 70
     1
102
RTVSPost2010Prop30
280
     1
102
RTVSPost2010PropOp30
 70
     1
102
RTVSPost2010Prop31
280
     0
102
RTVSPost2010PropOp31
 70
     1
102
RTVSPost2010Prop32
280
     0
102
RTVSPost2010PropOp32
 70
     1
102
RTVSPost2010Prop33
280
     0
102
RTVSPost2010PropOp33
 70
     1
102
RTVSPost2010Prop34
280
     0
102
RTVSPost2010PropOp34
 70
     1
102
RTVSPost2010Prop35
280
     0
102
RTVSPost2010PropOp35
 70
     1
102
RTVSPost2010Prop36
280
     0
102
RTVSPost2010PropOp36
 70
     1
102
RTVSPost2010Prop37
 90
       50
102
RTVSPost2010PropOp37
 70
     1
102
RTVSPost2010Prop38
140
0.0
102
RTVSPost2010PropOp38
 70
     1
102
RTVSPost2010Prop39
140
1.0
102
RTVSPost2010PropOp39
 70
     1
102
RTVSPost2010Prop40
 90
        0
102
RTVSPost2010PropOp40
 70
     1
102
RTVSPost2010Prop41ColorIndex
 90
       18
102
RTVSPost2010Prop41ColorRGB
 90
        0
102
RTVSPost2010PropOp41
 70
     1
102
RTVSPost2010Prop42
 90
       50
102
RTVSPost2010PropOp42
 70
     1
102
RTVSPost2010Prop43
 90
        3
102
RTVSPost2010PropOp43
 70
     1
102
RTVSPost2010Prop44ColorIndex
 90
        5
102
RTVSPost2010Prop44ColorRGB
 90
      255
102
RTVSPost2010PropOp44
 70
     1
102
RTVSPost2010Prop45
280
     0
102
RTVSPost2010PropOp45
 70
     1
102
RTVSPost2010Prop46
 90
       50
102
RTVSPost2010PropOp46
 70
     1
102
RTVSPost2010Prop47
 90
       50
102
RTVSPost2010PropOp47
 70
     1
102
RTVSPost2010Prop48
 90
       50
102
RTVSPost2010PropOp48
 70
     1
102
RTVSPost2010Prop49
280
     0
102
RTVSPost2010PropOp49
 70
     1
102
RTVSPost2010Prop50
 90
       50
102
RTVSPost2010PropOp50
 70
     1
102
RTVSPost2010Prop51ColorIndex
 90
      256
102
RTVSPost2010Prop51ColorRGB
 90
-16777216
102
RTVSPost2010PropOp51
 70
     0
102
RTVSPost2010Prop52
140
1.0
102
RTVSPost2010PropOp52
 70
     0
102
RTVSPost2010Prop53
 90
        2
102
RTVSPost2010PropOp53
 70
     1
102
RTVSPost2010Prop54
  1
strokes_ogs.tif
102
RTVSPost2010PropOp54
 70
     1
102
RTVSPost2010Prop55
280
     0
102
RTVSPost2010PropOp55
 70
     1
102
RTVSPost2010Prop56
140
1.0
102
RTVSPost2010PropOp56
 70
     1
102
RTVSPost2010Prop57
140
1.0
102
RTVSPost2010PropOp57
 70
     1
102
RTVSPropertyOp0
 70
     1
102
RTVSPropertyOp1
 70
     1
102
RTVSPropertyOp2
 70
     1
102
RTVSPropertyOp3
 70
     1
102
RTVSPropertyOp4
 70
     1
102
RTVSPropertyOp5
 70
     1
102
RTVSPropertyOp6
 70
     1
102
RTVSPropertyOp7
 70
     1
102
RTVSPropertyOp8
 70
     1
102
RTVSPropertyOp9
 70
     1
102
RTVSPropertyOp10
 70
     1
102
RTVSPropertyOp11
 70
     1
102
RTVSPropertyOp12
 70
     1
102
RTVSPropertyOp13
 70
     1
102
RTVSPropertyOp14
 70
     1
102
RTVSPropertyOp15
 70
     1
102
RTVSPropertyOp16
 70
     1
102
RTVSPropertyOp17
 70
     1
102
RTVSPropertyOp18
 70
     1
102
RTVSPropertyOp19
 70
     1
102
RTVSPropertyOp20
 70
     1
102
RTVSPropertyOp21
 70
     1
102
RTVSPropertyOp22
 70
     1
102
RTVSPropertyOp23
 70
     1
102
RTVSPropertyOp24
 70
     1
102
RTVSPropertyOp25
 70
     1
102
RTVSPropertyOp26
 70
     1
102
RTVSPropertyOp27
 70
     1
102
RTVSPropertyOp28
 70
     1
102
RTVSPropertyOp29
 70
     1
102
RTVSPropertyOp30
 70
     1
102
RTVSPropertyOp31
 70
     1
102
RTVSPropertyOp32
 70
     1
102
RTVSPropertyOp33
 70
     1
102
RTVSPropertyOp34
 70
     1
102
RTVSPropertyOp35
 70
     1
102
RTVSPropertyOp36
 70
     1
102
RTVSPropertyOp37
 70
     1
102
RTVSPropertyOp38
 70
     1
102
RTVSPropertyOp39
 70
     1
102
RTVSPropertyOp40
 70
     1
102
RTVSPropertyOp41
 70
     1
102
RTVSPropertyOp42
 70
     1
102
RTVSPropertyOp43
 70
     1
102
RTVSPropertyOp44
 70
     1
102
RTVSPropertyOp45
 70
     1
102
RTVSPropertyOp46
 70
     1
102
RTVSPropertyOp47
 70
     1
102
RTVSPropertyOp48
 70
     1
102
RTVSPropertyOp49
 70
     1
102
RTVSPropertyOp50
 70
     1
102
RTVSPropertyOp51
 70
     0
102
RTVSPropertyOp52
 70
     0
102
RTVSPropertyOp53
 70
     1
102
RTVSPropertyOp54
 70
     1
102
RTVSPropertyOp55
 70
     1
102
RTVSPropertyOp56
 70
     1
102
RTVSPropertyOp57
 70
     1
102
RTVSPropertyOp58
 70
     1
102
RTVSPropertyOp59
 70
     1
102
RTVSPropertyOp60
 70
     1
102
RTVSPropertyOp61
 70
     1
102
RTVSPropertyOp62
 70
     1
  0
XRECORD
  5
9743
102
{ACAD_REACTORS
330
9742
102
}
330
9742
100
AcDbXrecord
280
     1
102
RTVSPost2010Prop28
280
     0
102
RTVSPost2010PropOp28
 70
     1
102
RTVSPost2010Prop29
280
     1
102
RTVSPost2010PropOp29
 70
     1
102
RTVSPost2010Prop30
280
     1
102
RTVSPost2010PropOp30
 70
     1
102
RTVSPost2010Prop31
280
     0
102
RTVSPost2010PropOp31
 70
     1
102
RTVSPost2010Prop32
280
     0
102
RTVSPost2010PropOp32
 70
     1
102
RTVSPost2010Prop33
280
     0
102
RTVSPost2010PropOp33
 70
     1
102
RTVSPost2010Prop34
280
     0
102
RTVSPost2010PropOp34
 70
     1
102
RTVSPost2010Prop35
280
     0
102
RTVSPost2010PropOp35
 70
     1
102
RTVSPost2010Prop36
280
     0
102
RTVSPost2010PropOp36
 70
     1
102
RTVSPost2010Prop37
 90
       50
102
RTVSPost2010PropOp37
 70
     0
102
RTVSPost2010Prop38
140
0.0
102
RTVSPost2010PropOp38
 70
     0
102
RTVSPost2010Prop39
140
1.0
102
RTVSPost2010PropOp39
 70
     0
102
RTVSPost2010Prop40
 90
        0
102
RTVSPost2010PropOp40
 70
     0
102
RTVSPost2010Prop41ColorIndex
 90
       18
102
RTVSPost2010Prop41ColorRGB
 90
        0
102
RTVSPost2010PropOp41
 70
     0
102
RTVSPost2010Prop42
 90
       50
102
RTVSPost2010PropOp42
 70
     0
102
RTVSPost2010Prop43
 90
        3
102
RTVSPost2010PropOp43
 70
     0
102
RTVSPost2010Prop44ColorIndex
 90
        5
102
RTVSPost2010Prop44ColorRGB
 90
      255
102
RTVSPost2010PropOp44
 70
     0
102
RTVSPost2010Prop45
280
     0
102
RTVSPost2010PropOp45
 70
     1
102
RTVSPost2010Prop46
 90
       50
102
RTVSPost2010PropOp46
 70
     0
102
RTVSPost2010Prop47
 90
       50
102
RTVSPost2010PropOp47
 70
     0
102
RTVSPost2010Prop48
 90
       50
102
RTVSPost2010PropOp48
 70
     0
102
RTVSPost2010Prop49
280
     0
102
RTVSPost2010PropOp49
 70
     1
102
RTVSPost2010Prop50
 90
       50
102
RTVSPost2010PropOp50
 70
     0
102
RTVSPost2010Prop51ColorIndex
 90
      256
102
RTVSPost2010Prop51ColorRGB
 90
-16777216
102
RTVSPost2010PropOp51
 70
     0
102
RTVSPost2010Prop52
140
1.0
102
RTVSPost2010PropOp52
 70
     0
102
RTVSPost2010Prop53
 90
        2
102
RTVSPost2010PropOp53
 70
     0
102
RTVSPost2010Prop54
  1
strokes_ogs.tif
102
RTVSPost2010PropOp54
 70
     0
102
RTVSPost2010Prop55
280
     0
102
RTVSPost2010PropOp55
 70
     1
102
RTVSPost2010Prop56
140
1.0
102
RTVSPost2010PropOp56
 70
     0
102
RTVSPost2010Prop57
140
1.0
102
RTVSPost2010PropOp57
 70
     0
102
RTVSPropertyOp0
 70
     0
102
RTVSPropertyOp1
 70
     0
102
RTVSPropertyOp2
 70
     0
102
RTVSPropertyOp3
 70
     0
102
RTVSPropertyOp4
 70
     0
102
RTVSPropertyOp5
 70
     0
102
RTVSPropertyOp6
 70
     0
102
RTVSPropertyOp7
 70
     0
102
RTVSPropertyOp8
 70
     0
102
RTVSPropertyOp9
 70
     0
102
RTVSPropertyOp10
 70
     0
102
RTVSPropertyOp11
 70
     0
102
RTVSPropertyOp12
 70
     0
102
RTVSPropertyOp13
 70
     0
102
RTVSPropertyOp14
 70
     2
102
RTVSPropertyOp15
 70
     0
102
RTVSPropertyOp16
 70
     0
102
RTVSPropertyOp17
 70
     0
102
RTVSPropertyOp18
 70
     0
102
RTVSPropertyOp19
 70
     0
102
RTVSPropertyOp20
 70
     0
102
RTVSPropertyOp21
 70
     0
102
RTVSPropertyOp22
 70
     0
102
RTVSPropertyOp23
 70
     0
102
RTVSPropertyOp24
 70
     0
102
RTVSPropertyOp25
 70
     0
102
RTVSPropertyOp26
 70
     0
102
RTVSPropertyOp27
 70
     0
102
RTVSPropertyOp28
 70
     1
102
RTVSPropertyOp29
 70
     1
102
RTVSPropertyOp30
 70
     1
102
RTVSPropertyOp31
 70
     1
102
RTVSPropertyOp32
 70
     1
102
RTVSPropertyOp33
 70
     1
102
RTVSPropertyOp34
 70
     1
102
RTVSPropertyOp35
 70
     1
102
RTVSPropertyOp36
 70
     1
102
RTVSPropertyOp37
 70
     0
102
RTVSPropertyOp38
 70
     0
102
RTVSPropertyOp39
 70
     0
102
RTVSPropertyOp40
 70
     0
102
RTVSPropertyOp41
 70
     0
102
RTVSPropertyOp42
 70
     0
102
RTVSPropertyOp43
 70
     0
102
RTVSPropertyOp44
 70
     0
102
RTVSPropertyOp45
 70
     1
102
RTVSPropertyOp46
 70
     0
102
RTVSPropertyOp47
 70
     0
102
RTVSPropertyOp48
 70
     0
102
RTVSPropertyOp49
 70
     1
102
RTVSPropertyOp50
 70
     0
102
RTVSPropertyOp51
 70
     0
102
RTVSPropertyOp52
 70
     0
102
RTVSPropertyOp53
 70
     0
102
RTVSPropertyOp54
 70
     0
102
RTVSPropertyOp55
 70
     1
102
RTVSPropertyOp56
 70
     0
102
RTVSPropertyOp57
 70
     0
102
RTVSPropertyOp58
 70
     0
102
RTVSPropertyOp59
 70
     0
102
RTVSPropertyOp60
 70
     0
102
RTVSPropertyOp61
 70
     0
102
RTVSPropertyOp62
 70
     0
  0
XRECORD
  5
9733
102
{ACAD_REACTORS
330
9732
102
}
330
9732
100
AcDbXrecord
280
     1
102
RTVSPost2010Prop28
280
     0
102
RTVSPost2010PropOp28
 70
     1
102
RTVSPost2010Prop29
280
     1
102
RTVSPost2010PropOp29
 70
     1
102
RTVSPost2010Prop30
280
     1
102
RTVSPost2010PropOp30
 70
     1
102
RTVSPost2010Prop31
280
     0
102
RTVSPost2010PropOp31
 70
     1
102
RTVSPost2010Prop32
280
     0
102
RTVSPost2010PropOp32
 70
     1
102
RTVSPost2010Prop33
280
     0
102
RTVSPost2010PropOp33
 70
     1
102
RTVSPost2010Prop34
280
     0
102
RTVSPost2010PropOp34
 70
     1
102
RTVSPost2010Prop35
280
     0
102
RTVSPost2010PropOp35
 70
     1
102
RTVSPost2010Prop36
280
     0
102
RTVSPost2010PropOp36
 70
     1
102
RTVSPost2010Prop37
 90
       50
102
RTVSPost2010PropOp37
 70
     1
102
RTVSPost2010Prop38
140
0.0
102
RTVSPost2010PropOp38
 70
     1
102
RTVSPost2010Prop39
140
1.0
102
RTVSPost2010PropOp39
 70
     1
102
RTVSPost2010Prop40
 90
        0
102
RTVSPost2010PropOp40
 70
     1
102
RTVSPost2010Prop41ColorIndex
 90
       18
102
RTVSPost2010Prop41ColorRGB
 90
        0
102
RTVSPost2010PropOp41
 70
     1
102
RTVSPost2010Prop42
 90
       50
102
RTVSPost2010PropOp42
 70
     1
102
RTVSPost2010Prop43
 90
        3
102
RTVSPost2010PropOp43
 70
     1
102
RTVSPost2010Prop44ColorIndex
 90
        5
102
RTVSPost2010Prop44ColorRGB
 90
      255
102
RTVSPost2010PropOp44
 70
     1
102
RTVSPost2010Prop45
280
     0
102
RTVSPost2010PropOp45
 70
     1
102
RTVSPost2010Prop46
 90
       50
102
RTVSPost2010PropOp46
 70
     1
102
RTVSPost2010Prop47
 90
       50
102
RTVSPost2010PropOp47
 70
     1
102
RTVSPost2010Prop48
 90
       50
102
RTVSPost2010PropOp48
 70
     1
102
RTVSPost2010Prop49
280
     0
102
RTVSPost2010PropOp49
 70
     1
102
RTVSPost2010Prop50
 90
       50
102
RTVSPost2010PropOp50
 70
     1
102
RTVSPost2010Prop51ColorIndex
 90
      256
102
RTVSPost2010Prop51ColorRGB
 90
-16777216
102
RTVSPost2010PropOp51
 70
     0
102
RTVSPost2010Prop52
140
1.0
102
RTVSPost2010PropOp52
 70
     0
102
RTVSPost2010Prop53
 90
        2
102
RTVSPost2010PropOp53
 70
     1
102
RTVSPost2010Prop54
  1
strokes_ogs.tif
102
RTVSPost2010PropOp54
 70
     1
102
RTVSPost2010Prop55
280
     0
102
RTVSPost2010PropOp55
 70
     1
102
RTVSPost2010Prop56
140
1.0
102
RTVSPost2010PropOp56
 70
     1
102
RTVSPost2010Prop57
140
1.0
102
RTVSPost2010PropOp57
 70
     1
102
RTVSPropertyOp0
 70
     1
102
RTVSPropertyOp1
 70
     1
102
RTVSPropertyOp2
 70
     1
102
RTVSPropertyOp3
 70
     1
102
RTVSPropertyOp4
 70
     1
102
RTVSPropertyOp5
 70
     1
102
RTVSPropertyOp6
 70
     1
102
RTVSPropertyOp7
 70
     1
102
RTVSPropertyOp8
 70
     1
102
RTVSPropertyOp9
 70
     1
102
RTVSPropertyOp10
 70
     1
102
RTVSPropertyOp11
 70
     1
102
RTVSPropertyOp12
 70
     1
102
RTVSPropertyOp13
 70
     1
102
RTVSPropertyOp14
 70
     1
102
RTVSPropertyOp15
 70
     1
102
RTVSPropertyOp16
 70
     1
102
RTVSPropertyOp17
 70
     1
102
RTVSPropertyOp18
 70
     1
102
RTVSPropertyOp19
 70
     1
102
RTVSPropertyOp20
 70
     1
102
RTVSPropertyOp21
 70
     1
102
RTVSPropertyOp22
 70
     1
102
RTVSPropertyOp23
 70
     1
102
RTVSPropertyOp24
 70
     1
102
RTVSPropertyOp25
 70
     1
102
RTVSPropertyOp26
 70
     1
102
RTVSPropertyOp27
 70
     1
102
RTVSPropertyOp28
 70
     1
102
RTVSPropertyOp29
 70
     1
102
RTVSPropertyOp30
 70
     1
102
RTVSPropertyOp31
 70
     1
102
RTVSPropertyOp32
 70
     1
102
RTVSPropertyOp33
 70
     1
102
RTVSPropertyOp34
 70
     1
102
RTVSPropertyOp35
 70
     1
102
RTVSPropertyOp36
 70
     1
102
RTVSPropertyOp37
 70
     1
102
RTVSPropertyOp38
 70
     1
102
RTVSPropertyOp39
 70
     1
102
RTVSPropertyOp40
 70
     1
102
RTVSPropertyOp41
 70
     1
102
RTVSPropertyOp42
 70
     1
102
RTVSPropertyOp43
 70
     1
102
RTVSPropertyOp44
 70
     1
102
RTVSPropertyOp45
 70
     1
102
RTVSPropertyOp46
 70
     1
102
RTVSPropertyOp47
 70
     1
102
RTVSPropertyOp48
 70
     1
102
RTVSPropertyOp49
 70
     1
102
RTVSPropertyOp50
 70
     1
102
RTVSPropertyOp51
 70
     0
102
RTVSPropertyOp52
 70
     0
102
RTVSPropertyOp53
 70
     1
102
RTVSPropertyOp54
 70
     1
102
RTVSPropertyOp55
 70
     1
102
RTVSPropertyOp56
 70
     1
102
RTVSPropertyOp57
 70
     1
102
RTVSPropertyOp58
 70
     1
102
RTVSPropertyOp59
 70
     1
102
RTVSPropertyOp60
 70
     1
102
RTVSPropertyOp61
 70
     1
102
RTVSPropertyOp62
 70
     1
  0
XRECORD
  5
9745
102
{ACAD_REACTORS
330
9744
102
}
330
9744
100
AcDbXrecord
280
     1
102
RTVSPost2010Prop28
280
     0
102
RTVSPost2010PropOp28
 70
     1
102
RTVSPost2010Prop29
280
     1
102
RTVSPost2010PropOp29
 70
     1
102
RTVSPost2010Prop30
280
     1
102
RTVSPost2010PropOp30
 70
     1
102
RTVSPost2010Prop31
280
     0
102
RTVSPost2010PropOp31
 70
     1
102
RTVSPost2010Prop32
280
     0
102
RTVSPost2010PropOp32
 70
     1
102
RTVSPost2010Prop33
280
     0
102
RTVSPost2010PropOp33
 70
     1
102
RTVSPost2010Prop34
280
     0
102
RTVSPost2010PropOp34
 70
     1
102
RTVSPost2010Prop35
280
     0
102
RTVSPost2010PropOp35
 70
     1
102
RTVSPost2010Prop36
280
     0
102
RTVSPost2010PropOp36
 70
     1
102
RTVSPost2010Prop37
 90
       50
102
RTVSPost2010PropOp37
 70
     0
102
RTVSPost2010Prop38
140
0.0
102
RTVSPost2010PropOp38
 70
     0
102
RTVSPost2010Prop39
140
1.0
102
RTVSPost2010PropOp39
 70
     0
102
RTVSPost2010Prop40
 90
        0
102
RTVSPost2010PropOp40
 70
     0
102
RTVSPost2010Prop41ColorIndex
 90
       18
102
RTVSPost2010Prop41ColorRGB
 90
        0
102
RTVSPost2010PropOp41
 70
     0
102
RTVSPost2010Prop42
 90
       50
102
RTVSPost2010PropOp42
 70
     0
102
RTVSPost2010Prop43
 90
        3
102
RTVSPost2010PropOp43
 70
     0
102
RTVSPost2010Prop44ColorIndex
 90
        5
102
RTVSPost2010Prop44ColorRGB
 90
      255
102
RTVSPost2010PropOp44
 70
     0
102
RTVSPost2010Prop45
280
     0
102
RTVSPost2010PropOp45
 70
     1
102
RTVSPost2010Prop46
 90
       50
102
RTVSPost2010PropOp46
 70
     0
102
RTVSPost2010Prop47
 90
       50
102
RTVSPost2010PropOp47
 70
     0
102
RTVSPost2010Prop48
 90
       50
102
RTVSPost2010PropOp48
 70
     0
102
RTVSPost2010Prop49
280
     0
102
RTVSPost2010PropOp49
 70
     1
102
RTVSPost2010Prop50
 90
       50
102
RTVSPost2010PropOp50
 70
     0
102
RTVSPost2010Prop51ColorIndex
 90
      256
102
RTVSPost2010Prop51ColorRGB
 90
-16777216
102
RTVSPost2010PropOp51
 70
     0
102
RTVSPost2010Prop52
140
1.0
102
RTVSPost2010PropOp52
 70
     0
102
RTVSPost2010Prop53
 90
        2
102
RTVSPost2010PropOp53
 70
     0
102
RTVSPost2010Prop54
  1
strokes_ogs.tif
102
RTVSPost2010PropOp54
 70
     0
102
RTVSPost2010Prop55
280
     0
102
RTVSPost2010PropOp55
 70
     1
102
RTVSPost2010Prop56
140
1.0
102
RTVSPost2010PropOp56
 70
     0
102
RTVSPost2010Prop57
140
1.0
102
RTVSPost2010PropOp57
 70
     0
102
RTVSPropertyOp0
 70
     0
102
RTVSPropertyOp1
 70
     0
102
RTVSPropertyOp2
 70
     0
102
RTVSPropertyOp3
 70
     0
102
RTVSPropertyOp4
 70
     0
102
RTVSPropertyOp5
 70
     0
102
RTVSPropertyOp6
 70
     0
102
RTVSPropertyOp7
 70
     0
102
RTVSPropertyOp8
 70
     0
102
RTVSPropertyOp9
 70
     0
102
RTVSPropertyOp10
 70
     0
102
RTVSPropertyOp11
 70
     0
102
RTVSPropertyOp12
 70
     0
102
RTVSPropertyOp13
 70
     0
102
RTVSPropertyOp14
 70
     2
102
RTVSPropertyOp15
 70
     0
102
RTVSPropertyOp16
 70
     0
102
RTVSPropertyOp17
 70
     0
102
RTVSPropertyOp18
 70
     0
102
RTVSPropertyOp19
 70
     0
102
RTVSPropertyOp20
 70
     0
102
RTVSPropertyOp21
 70
     0
102
RTVSPropertyOp22
 70
     0
102
RTVSPropertyOp23
 70
     0
102
RTVSPropertyOp24
 70
     0
102
RTVSPropertyOp25
 70
     0
102
RTVSPropertyOp26
 70
     0
102
RTVSPropertyOp27
 70
     0
102
RTVSPropertyOp28
 70
     1
102
RTVSPropertyOp29
 70
     1
102
RTVSPropertyOp30
 70
     1
102
RTVSPropertyOp31
 70
     1
102
RTVSPropertyOp32
 70
     1
102
RTVSPropertyOp33
 70
     1
102
RTVSPropertyOp34
 70
     1
102
RTVSPropertyOp35
 70
     1
102
RTVSPropertyOp36
 70
     1
102
RTVSPropertyOp37
 70
     0
102
RTVSPropertyOp38
 70
     0
102
RTVSPropertyOp39
 70
     0
102
RTVSPropertyOp40
 70
     0
102
RTVSPropertyOp41
 70
     0
102
RTVSPropertyOp42
 70
     0
102
RTVSPropertyOp43
 70
     0
102
RTVSPropertyOp44
 70
     0
102
RTVSPropertyOp45
 70
     1
102
RTVSPropertyOp46
 70
     0
102
RTVSPropertyOp47
 70
     0
102
RTVSPropertyOp48
 70
     0
102
RTVSPropertyOp49
 70
     1
102
RTVSPropertyOp50
 70
     0
102
RTVSPropertyOp51
 70
     0
102
RTVSPropertyOp52
 70
     0
102
RTVSPropertyOp53
 70
     0
102
RTVSPropertyOp54
 70
     0
102
RTVSPropertyOp55
 70
     1
102
RTVSPropertyOp56
 70
     0
102
RTVSPropertyOp57
 70
     0
102
RTVSPropertyOp58
 70
     0
102
RTVSPropertyOp59
 70
     0
102
RTVSPropertyOp60
 70
     0
102
RTVSPropertyOp61
 70
     0
102
RTVSPropertyOp62
 70
     0
  0
XRECORD
  5
972B
102
{ACAD_REACTORS
330
972A
102
}
330
972A
100
AcDbXrecord
280
     1
102
RTVSPost2010Prop28
280
     0
102
RTVSPost2010PropOp28
 70
     1
102
RTVSPost2010Prop29
280
     1
102
RTVSPost2010PropOp29
 70
     1
102
RTVSPost2010Prop30
280
     1
102
RTVSPost2010PropOp30
 70
     1
102
RTVSPost2010Prop31
280
     0
102
RTVSPost2010PropOp31
 70
     1
102
RTVSPost2010Prop32
280
     0
102
RTVSPost2010PropOp32
 70
     1
102
RTVSPost2010Prop33
280
     0
102
RTVSPost2010PropOp33
 70
     1
102
RTVSPost2010Prop34
280
     0
102
RTVSPost2010PropOp34
 70
     1
102
RTVSPost2010Prop35
280
     0
102
RTVSPost2010PropOp35
 70
     1
102
RTVSPost2010Prop36
280
     0
102
RTVSPost2010PropOp36
 70
     1
102
RTVSPost2010Prop37
 90
       50
102
RTVSPost2010PropOp37
 70
     1
102
RTVSPost2010Prop38
140
0.0
102
RTVSPost2010PropOp38
 70
     1
102
RTVSPost2010Prop39
140
1.0
102
RTVSPost2010PropOp39
 70
     1
102
RTVSPost2010Prop40
 90
        0
102
RTVSPost2010PropOp40
 70
     1
102
RTVSPost2010Prop41ColorIndex
 90
       18
102
RTVSPost2010Prop41ColorRGB
 90
        0
102
RTVSPost2010PropOp41
 70
     1
102
RTVSPost2010Prop42
 90
       50
102
RTVSPost2010PropOp42
 70
     1
102
RTVSPost2010Prop43
 90
        3
102
RTVSPost2010PropOp43
 70
     1
102
RTVSPost2010Prop44ColorIndex
 90
        5
102
RTVSPost2010Prop44ColorRGB
 90
      255
102
RTVSPost2010PropOp44
 70
     1
102
RTVSPost2010Prop45
280
     0
102
RTVSPost2010PropOp45
 70
     1
102
RTVSPost2010Prop46
 90
       50
102
RTVSPost2010PropOp46
 70
     1
102
RTVSPost2010Prop47
 90
       50
102
RTVSPost2010PropOp47
 70
     1
102
RTVSPost2010Prop48
 90
       50
102
RTVSPost2010PropOp48
 70
     1
102
RTVSPost2010Prop49
280
     0
102
RTVSPost2010PropOp49
 70
     1
102
RTVSPost2010Prop50
 90
       50
102
RTVSPost2010PropOp50
 70
     1
102
RTVSPost2010Prop51ColorIndex
 90
      256
102
RTVSPost2010Prop51ColorRGB
 90
-16777216
102
RTVSPost2010PropOp51
 70
     0
102
RTVSPost2010Prop52
140
1.0
102
RTVSPost2010PropOp52
 70
     0
102
RTVSPost2010Prop53
 90
        2
102
RTVSPost2010PropOp53
 70
     1
102
RTVSPost2010Prop54
  1
strokes_ogs.tif
102
RTVSPost2010PropOp54
 70
     1
102
RTVSPost2010Prop55
280
     0
102
RTVSPost2010PropOp55
 70
     1
102
RTVSPost2010Prop56
140
1.0
102
RTVSPost2010PropOp56
 70
     1
102
RTVSPost2010Prop57
140
1.0
102
RTVSPost2010PropOp57
 70
     1
102
RTVSPropertyOp0
 70
     1
102
RTVSPropertyOp1
 70
     1
102
RTVSPropertyOp2
 70
     1
102
RTVSPropertyOp3
 70
     1
102
RTVSPropertyOp4
 70
     1
102
RTVSPropertyOp5
 70
     1
102
RTVSPropertyOp6
 70
     1
102
RTVSPropertyOp7
 70
     1
102
RTVSPropertyOp8
 70
     1
102
RTVSPropertyOp9
 70
     1
102
RTVSPropertyOp10
 70
     1
102
RTVSPropertyOp11
 70
     1
102
RTVSPropertyOp12
 70
     1
102
RTVSPropertyOp13
 70
     1
102
RTVSPropertyOp14
 70
     1
102
RTVSPropertyOp15
 70
     1
102
RTVSPropertyOp16
 70
     1
102
RTVSPropertyOp17
 70
     1
102
RTVSPropertyOp18
 70
     1
102
RTVSPropertyOp19
 70
     1
102
RTVSPropertyOp20
 70
     1
102
RTVSPropertyOp21
 70
     1
102
RTVSPropertyOp22
 70
     1
102
RTVSPropertyOp23
 70
     1
102
RTVSPropertyOp24
 70
     1
102
RTVSPropertyOp25
 70
     1
102
RTVSPropertyOp26
 70
     1
102
RTVSPropertyOp27
 70
     1
102
RTVSPropertyOp28
 70
     1
102
RTVSPropertyOp29
 70
     1
102
RTVSPropertyOp30
 70
     1
102
RTVSPropertyOp31
 70
     1
102
RTVSPropertyOp32
 70
     1
102
RTVSPropertyOp33
 70
     1
102
RTVSPropertyOp34
 70
     1
102
RTVSPropertyOp35
 70
     1
102
RTVSPropertyOp36
 70
     1
102
RTVSPropertyOp37
 70
     1
102
RTVSPropertyOp38
 70
     1
102
RTVSPropertyOp39
 70
     1
102
RTVSPropertyOp40
 70
     1
102
RTVSPropertyOp41
 70
     1
102
RTVSPropertyOp42
 70
     1
102
RTVSPropertyOp43
 70
     1
102
RTVSPropertyOp44
 70
     1
102
RTVSPropertyOp45
 70
     1
102
RTVSPropertyOp46
 70
     1
102
RTVSPropertyOp47
 70
     1
102
RTVSPropertyOp48
 70
     1
102
RTVSPropertyOp49
 70
     1
102
RTVSPropertyOp50
 70
     1
102
RTVSPropertyOp51
 70
     0
102
RTVSPropertyOp52
 70
     0
102
RTVSPropertyOp53
 70
     1
102
RTVSPropertyOp54
 70
     1
102
RTVSPropertyOp55
 70
     1
102
RTVSPropertyOp56
 70
     1
102
RTVSPropertyOp57
 70
     1
102
RTVSPropertyOp58
 70
     1
102
RTVSPropertyOp59
 70
     1
102
RTVSPropertyOp60
 70
     1
102
RTVSPropertyOp61
 70
     1
102
RTVSPropertyOp62
 70
     1
  0
XRECORD
  5
9741
102
{ACAD_REACTORS
330
9740
102
}
330
9740
100
AcDbXrecord
280
     1
102
RTVSPost2010Prop28
280
     0
102
RTVSPost2010PropOp28
 70
     1
102
RTVSPost2010Prop29
280
     1
102
RTVSPost2010PropOp29
 70
     1
102
RTVSPost2010Prop30
280
     1
102
RTVSPost2010PropOp30
 70
     1
102
RTVSPost2010Prop31
280
     0
102
RTVSPost2010PropOp31
 70
     1
102
RTVSPost2010Prop32
280
     0
102
RTVSPost2010PropOp32
 70
     1
102
RTVSPost2010Prop33
280
     0
102
RTVSPost2010PropOp33
 70
     1
102
RTVSPost2010Prop34
280
     0
102
RTVSPost2010PropOp34
 70
     1
102
RTVSPost2010Prop35
280
     0
102
RTVSPost2010PropOp35
 70
     1
102
RTVSPost2010Prop36
280
     0
102
RTVSPost2010PropOp36
 70
     1
102
RTVSPost2010Prop37
 90
       50
102
RTVSPost2010PropOp37
 70
     1
102
RTVSPost2010Prop38
140
0.0
102
RTVSPost2010PropOp38
 70
     1
102
RTVSPost2010Prop39
140
1.0
102
RTVSPost2010PropOp39
 70
     1
102
RTVSPost2010Prop40
 90
        0
102
RTVSPost2010PropOp40
 70
     1
102
RTVSPost2010Prop41ColorIndex
 90
       18
102
RTVSPost2010Prop41ColorRGB
 90
        0
102
RTVSPost2010PropOp41
 70
     1
102
RTVSPost2010Prop42
 90
       50
102
RTVSPost2010PropOp42
 70
     1
102
RTVSPost2010Prop43
 90
        3
102
RTVSPost2010PropOp43
 70
     1
102
RTVSPost2010Prop44ColorIndex
 90
        5
102
RTVSPost2010Prop44ColorRGB
 90
      255
102
RTVSPost2010PropOp44
 70
     1
102
RTVSPost2010Prop45
280
     0
102
RTVSPost2010PropOp45
 70
     1
102
RTVSPost2010Prop46
 90
       50
102
RTVSPost2010PropOp46
 70
     1
102
RTVSPost2010Prop47
 90
       50
102
RTVSPost2010PropOp47
 70
     1
102
RTVSPost2010Prop48
 90
       50
102
RTVSPost2010PropOp48
 70
     1
102
RTVSPost2010Prop49
280
     0
102
RTVSPost2010PropOp49
 70
     1
102
RTVSPost2010Prop50
 90
       50
102
RTVSPost2010PropOp50
 70
     1
102
RTVSPost2010Prop51ColorIndex
 90
      256
102
RTVSPost2010Prop51ColorRGB
 90
-16777216
102
RTVSPost2010PropOp51
 70
     0
102
RTVSPost2010Prop52
140
1.0
102
RTVSPost2010PropOp52
 70
     0
102
RTVSPost2010Prop53
 90
        2
102
RTVSPost2010PropOp53
 70
     1
102
RTVSPost2010Prop54
  1
strokes_ogs.tif
102
RTVSPost2010PropOp54
 70
     1
102
RTVSPost2010Prop55
280
     0
102
RTVSPost2010PropOp55
 70
     1
102
RTVSPost2010Prop56
140
1.0
102
RTVSPost2010PropOp56
 70
     1
102
RTVSPost2010Prop57
140
1.0
102
RTVSPost2010PropOp57
 70
     1
102
RTVSPropertyOp0
 70
     1
102
RTVSPropertyOp1
 70
     1
102
RTVSPropertyOp2
 70
     1
102
RTVSPropertyOp3
 70
     1
102
RTVSPropertyOp4
 70
     1
102
RTVSPropertyOp5
 70
     1
102
RTVSPropertyOp6
 70
     1
102
RTVSPropertyOp7
 70
     1
102
RTVSPropertyOp8
 70
     1
102
RTVSPropertyOp9
 70
     1
102
RTVSPropertyOp10
 70
     1
102
RTVSPropertyOp11
 70
     1
102
RTVSPropertyOp12
 70
     1
102
RTVSPropertyOp13
 70
     1
102
RTVSPropertyOp14
 70
     1
102
RTVSPropertyOp15
 70
     1
102
RTVSPropertyOp16
 70
     1
102
RTVSPropertyOp17
 70
     1
102
RTVSPropertyOp18
 70
     1
102
RTVSPropertyOp19
 70
     1
102
RTVSPropertyOp20
 70
     1
102
RTVSPropertyOp21
 70
     1
102
RTVSPropertyOp22
 70
     1
102
RTVSPropertyOp23
 70
     1
102
RTVSPropertyOp24
 70
     1
102
RTVSPropertyOp25
 70
     1
102
RTVSPropertyOp26
 70
     1
102
RTVSPropertyOp27
 70
     1
102
RTVSPropertyOp28
 70
     1
102
RTVSPropertyOp29
 70
     1
102
RTVSPropertyOp30
 70
     1
102
RTVSPropertyOp31
 70
     1
102
RTVSPropertyOp32
 70
     1
102
RTVSPropertyOp33
 70
     1
102
RTVSPropertyOp34
 70
     1
102
RTVSPropertyOp35
 70
     1
102
RTVSPropertyOp36
 70
     1
102
RTVSPropertyOp37
 70
     1
102
RTVSPropertyOp38
 70
     1
102
RTVSPropertyOp39
 70
     1
102
RTVSPropertyOp40
 70
     1
102
RTVSPropertyOp41
 70
     1
102
RTVSPropertyOp42
 70
     1
102
RTVSPropertyOp43
 70
     1
102
RTVSPropertyOp44
 70
     1
102
RTVSPropertyOp45
 70
     1
102
RTVSPropertyOp46
 70
     1
102
RTVSPropertyOp47
 70
     1
102
RTVSPropertyOp48
 70
     1
102
RTVSPropertyOp49
 70
     1
102
RTVSPropertyOp50
 70
     1
102
RTVSPropertyOp51
 70
     0
102
RTVSPropertyOp52
 70
     0
102
RTVSPropertyOp53
 70
     1
102
RTVSPropertyOp54
 70
     1
102
RTVSPropertyOp55
 70
     1
102
RTVSPropertyOp56
 70
     1
102
RTVSPropertyOp57
 70
     1
102
RTVSPropertyOp58
 70
     1
102
RTVSPropertyOp59
 70
     1
102
RTVSPropertyOp60
 70
     1
102
RTVSPropertyOp61
 70
     1
102
RTVSPropertyOp62
 70
     1
  0
XRECORD
  5
973F
102
{ACAD_REACTORS
330
973E
102
}
330
973E
100
AcDbXrecord
280
     1
102
RTVSPost2010Prop28
280
     0
102
RTVSPost2010PropOp28
 70
     1
102
RTVSPost2010Prop29
280
     1
102
RTVSPost2010PropOp29
 70
     1
102
RTVSPost2010Prop30
280
     1
102
RTVSPost2010PropOp30
 70
     1
102
RTVSPost2010Prop31
280
     0
102
RTVSPost2010PropOp31
 70
     1
102
RTVSPost2010Prop32
280
     0
102
RTVSPost2010PropOp32
 70
     1
102
RTVSPost2010Prop33
280
     0
102
RTVSPost2010PropOp33
 70
     1
102
RTVSPost2010Prop34
280
     0
102
RTVSPost2010PropOp34
 70
     1
102
RTVSPost2010Prop35
280
     0
102
RTVSPost2010PropOp35
 70
     1
102
RTVSPost2010Prop36
280
     0
102
RTVSPost2010PropOp36
 70
     1
102
RTVSPost2010Prop37
 90
       50
102
RTVSPost2010PropOp37
 70
     1
102
RTVSPost2010Prop38
140
0.0
102
RTVSPost2010PropOp38
 70
     1
102
RTVSPost2010Prop39
140
1.0
102
RTVSPost2010PropOp39
 70
     1
102
RTVSPost2010Prop40
 90
        0
102
RTVSPost2010PropOp40
 70
     1
102
RTVSPost2010Prop41ColorIndex
 90
       18
102
RTVSPost2010Prop41ColorRGB
 90
        0
102
RTVSPost2010PropOp41
 70
     1
102
RTVSPost2010Prop42
 90
       50
102
RTVSPost2010PropOp42
 70
     1
102
RTVSPost2010Prop43
 90
        3
102
RTVSPost2010PropOp43
 70
     1
102
RTVSPost2010Prop44ColorIndex
 90
        5
102
RTVSPost2010Prop44ColorRGB
 90
      255
102
RTVSPost2010PropOp44
 70
     1
102
RTVSPost2010Prop45
280
     0
102
RTVSPost2010PropOp45
 70
     1
102
RTVSPost2010Prop46
 90
       50
102
RTVSPost2010PropOp46
 70
     1
102
RTVSPost2010Prop47
 90
       50
102
RTVSPost2010PropOp47
 70
     1
102
RTVSPost2010Prop48
 90
       50
102
RTVSPost2010PropOp48
 70
     1
102
RTVSPost2010Prop49
280
     0
102
RTVSPost2010PropOp49
 70
     1
102
RTVSPost2010Prop50
 90
       50
102
RTVSPost2010PropOp50
 70
     1
102
RTVSPost2010Prop51ColorIndex
 90
      256
102
RTVSPost2010Prop51ColorRGB
 90
-16777216
102
RTVSPost2010PropOp51
 70
     0
102
RTVSPost2010Prop52
140
1.0
102
RTVSPost2010PropOp52
 70
     0
102
RTVSPost2010Prop53
 90
        2
102
RTVSPost2010PropOp53
 70
     1
102
RTVSPost2010Prop54
  1
strokes_ogs.tif
102
RTVSPost2010PropOp54
 70
     1
102
RTVSPost2010Prop55
280
     0
102
RTVSPost2010PropOp55
 70
     1
102
RTVSPost2010Prop56
140
1.0
102
RTVSPost2010PropOp56
 70
     1
102
RTVSPost2010Prop57
140
1.0
102
RTVSPost2010PropOp57
 70
     1
102
RTVSPropertyOp0
 70
     1
102
RTVSPropertyOp1
 70
     1
102
RTVSPropertyOp2
 70
     1
102
RTVSPropertyOp3
 70
     1
102
RTVSPropertyOp4
 70
     1
102
RTVSPropertyOp5
 70
     1
102
RTVSPropertyOp6
 70
     1
102
RTVSPropertyOp7
 70
     1
102
RTVSPropertyOp8
 70
     1
102
RTVSPropertyOp9
 70
     1
102
RTVSPropertyOp10
 70
     1
102
RTVSPropertyOp11
 70
     1
102
RTVSPropertyOp12
 70
     1
102
RTVSPropertyOp13
 70
     1
102
RTVSPropertyOp14
 70
     1
102
RTVSPropertyOp15
 70
     1
102
RTVSPropertyOp16
 70
     1
102
RTVSPropertyOp17
 70
     1
102
RTVSPropertyOp18
 70
     1
102
RTVSPropertyOp19
 70
     1
102
RTVSPropertyOp20
 70
     1
102
RTVSPropertyOp21
 70
     1
102
RTVSPropertyOp22
 70
     1
102
RTVSPropertyOp23
 70
     1
102
RTVSPropertyOp24
 70
     1
102
RTVSPropertyOp25
 70
     1
102
RTVSPropertyOp26
 70
     1
102
RTVSPropertyOp27
 70
     1
102
RTVSPropertyOp28
 70
     1
102
RTVSPropertyOp29
 70
     1
102
RTVSPropertyOp30
 70
     1
102
RTVSPropertyOp31
 70
     1
102
RTVSPropertyOp32
 70
     1
102
RTVSPropertyOp33
 70
     1
102
RTVSPropertyOp34
 70
     1
102
RTVSPropertyOp35
 70
     1
102
RTVSPropertyOp36
 70
     1
102
RTVSPropertyOp37
 70
     1
102
RTVSPropertyOp38
 70
     1
102
RTVSPropertyOp39
 70
     1
102
RTVSPropertyOp40
 70
     1
102
RTVSPropertyOp41
 70
     1
102
RTVSPropertyOp42
 70
     1
102
RTVSPropertyOp43
 70
     1
102
RTVSPropertyOp44
 70
     1
102
RTVSPropertyOp45
 70
     1
102
RTVSPropertyOp46
 70
     1
102
RTVSPropertyOp47
 70
     1
102
RTVSPropertyOp48
 70
     1
102
RTVSPropertyOp49
 70
     1
102
RTVSPropertyOp50
 70
     1
102
RTVSPropertyOp51
 70
     0
102
RTVSPropertyOp52
 70
     0
102
RTVSPropertyOp53
 70
     1
102
RTVSPropertyOp54
 70
     1
102
RTVSPropertyOp55
 70
     1
102
RTVSPropertyOp56
 70
     1
102
RTVSPropertyOp57
 70
     1
102
RTVSPropertyOp58
 70
     1
102
RTVSPropertyOp59
 70
     1
102
RTVSPropertyOp60
 70
     1
102
RTVSPropertyOp61
 70
     1
102
RTVSPropertyOp62
 70
     1
  0
XRECORD
  5
9739
102
{ACAD_REACTORS
330
9738
102
}
330
9738
100
AcDbXrecord
280
     1
102
RTVSPost2010Prop28
280
     0
102
RTVSPost2010PropOp28
 70
     1
102
RTVSPost2010Prop29
280
     1
102
RTVSPost2010PropOp29
 70
     1
102
RTVSPost2010Prop30
280
     1
102
RTVSPost2010PropOp30
 70
     1
102
RTVSPost2010Prop31
280
     0
102
RTVSPost2010PropOp31
 70
     1
102
RTVSPost2010Prop32
280
     0
102
RTVSPost2010PropOp32
 70
     1
102
RTVSPost2010Prop33
280
     0
102
RTVSPost2010PropOp33
 70
     1
102
RTVSPost2010Prop34
280
     0
102
RTVSPost2010PropOp34
 70
     1
102
RTVSPost2010Prop35
280
     0
102
RTVSPost2010PropOp35
 70
     1
102
RTVSPost2010Prop36
280
     0
102
RTVSPost2010PropOp36
 70
     1
102
RTVSPost2010Prop37
 90
       50
102
RTVSPost2010PropOp37
 70
     1
102
RTVSPost2010Prop38
140
0.0
102
RTVSPost2010PropOp38
 70
     1
102
RTVSPost2010Prop39
140
1.0
102
RTVSPost2010PropOp39
 70
     1
102
RTVSPost2010Prop40
 90
        0
102
RTVSPost2010PropOp40
 70
     1
102
RTVSPost2010Prop41ColorIndex
 90
       18
102
RTVSPost2010Prop41ColorRGB
 90
        0
102
RTVSPost2010PropOp41
 70
     1
102
RTVSPost2010Prop42
 90
       50
102
RTVSPost2010PropOp42
 70
     1
102
RTVSPost2010Prop43
 90
        3
102
RTVSPost2010PropOp43
 70
     1
102
RTVSPost2010Prop44ColorIndex
 90
        5
102
RTVSPost2010Prop44ColorRGB
 90
      255
102
RTVSPost2010PropOp44
 70
     1
102
RTVSPost2010Prop45
280
     0
102
RTVSPost2010PropOp45
 70
     1
102
RTVSPost2010Prop46
 90
       50
102
RTVSPost2010PropOp46
 70
     1
102
RTVSPost2010Prop47
 90
       50
102
RTVSPost2010PropOp47
 70
     1
102
RTVSPost2010Prop48
 90
       50
102
RTVSPost2010PropOp48
 70
     1
102
RTVSPost2010Prop49
280
     0
102
RTVSPost2010PropOp49
 70
     1
102
RTVSPost2010Prop50
 90
       50
102
RTVSPost2010PropOp50
 70
     1
102
RTVSPost2010Prop51ColorIndex
 90
      256
102
RTVSPost2010Prop51ColorRGB
 90
-16777216
102
RTVSPost2010PropOp51
 70
     0
102
RTVSPost2010Prop52
140
1.0
102
RTVSPost2010PropOp52
 70
     0
102
RTVSPost2010Prop53
 90
        2
102
RTVSPost2010PropOp53
 70
     1
102
RTVSPost2010Prop54
  1
strokes_ogs.tif
102
RTVSPost2010PropOp54
 70
     1
102
RTVSPost2010Prop55
280
     0
102
RTVSPost2010PropOp55
 70
     1
102
RTVSPost2010Prop56
140
1.0
102
RTVSPost2010PropOp56
 70
     1
102
RTVSPost2010Prop57
140
1.0
102
RTVSPost2010PropOp57
 70
     1
102
RTVSPropertyOp0
 70
     1
102
RTVSPropertyOp1
 70
     1
102
RTVSPropertyOp2
 70
     1
102
RTVSPropertyOp3
 70
     1
102
RTVSPropertyOp4
 70
     1
102
RTVSPropertyOp5
 70
     1
102
RTVSPropertyOp6
 70
     1
102
RTVSPropertyOp7
 70
     1
102
RTVSPropertyOp8
 70
     1
102
RTVSPropertyOp9
 70
     1
102
RTVSPropertyOp10
 70
     1
102
RTVSPropertyOp11
 70
     1
102
RTVSPropertyOp12
 70
     1
102
RTVSPropertyOp13
 70
     1
102
RTVSPropertyOp14
 70
     1
102
RTVSPropertyOp15
 70
     1
102
RTVSPropertyOp16
 70
     1
102
RTVSPropertyOp17
 70
     1
102
RTVSPropertyOp18
 70
     1
102
RTVSPropertyOp19
 70
     1
102
RTVSPropertyOp20
 70
     1
102
RTVSPropertyOp21
 70
     1
102
RTVSPropertyOp22
 70
     1
102
RTVSPropertyOp23
 70
     1
102
RTVSPropertyOp24
 70
     1
102
RTVSPropertyOp25
 70
     1
102
RTVSPropertyOp26
 70
     1
102
RTVSPropertyOp27
 70
     1
102
RTVSPropertyOp28
 70
     1
102
RTVSPropertyOp29
 70
     1
102
RTVSPropertyOp30
 70
     1
102
RTVSPropertyOp31
 70
     1
102
RTVSPropertyOp32
 70
     1
102
RTVSPropertyOp33
 70
     1
102
RTVSPropertyOp34
 70
     1
102
RTVSPropertyOp35
 70
     1
102
RTVSPropertyOp36
 70
     1
102
RTVSPropertyOp37
 70
     1
102
RTVSPropertyOp38
 70
     1
102
RTVSPropertyOp39
 70
     1
102
RTVSPropertyOp40
 70
     1
102
RTVSPropertyOp41
 70
     1
102
RTVSPropertyOp42
 70
     1
102
RTVSPropertyOp43
 70
     1
102
RTVSPropertyOp44
 70
     1
102
RTVSPropertyOp45
 70
     1
102
RTVSPropertyOp46
 70
     1
102
RTVSPropertyOp47
 70
     1
102
RTVSPropertyOp48
 70
     1
102
RTVSPropertyOp49
 70
     1
102
RTVSPropertyOp50
 70
     1
102
RTVSPropertyOp51
 70
     0
102
RTVSPropertyOp52
 70
     0
102
RTVSPropertyOp53
 70
     1
102
RTVSPropertyOp54
 70
     1
102
RTVSPropertyOp55
 70
     1
102
RTVSPropertyOp56
 70
     1
102
RTVSPropertyOp57
 70
     1
102
RTVSPropertyOp58
 70
     1
102
RTVSPropertyOp59
 70
     1
102
RTVSPropertyOp60
 70
     1
102
RTVSPropertyOp61
 70
     1
102
RTVSPropertyOp62
 70
     1
  0
XRECORD
  5
973B
102
{ACAD_REACTORS
330
973A
102
}
330
973A
100
AcDbXrecord
280
     1
102
RTVSPost2010Prop28
280
     0
102
RTVSPost2010PropOp28
 70
     1
102
RTVSPost2010Prop29
280
     1
102
RTVSPost2010PropOp29
 70
     1
102
RTVSPost2010Prop30
280
     1
102
RTVSPost2010PropOp30
 70
     1
102
RTVSPost2010Prop31
280
     0
102
RTVSPost2010PropOp31
 70
     1
102
RTVSPost2010Prop32
280
     0
102
RTVSPost2010PropOp32
 70
     1
102
RTVSPost2010Prop33
280
     0
102
RTVSPost2010PropOp33
 70
     1
102
RTVSPost2010Prop34
280
     0
102
RTVSPost2010PropOp34
 70
     1
102
RTVSPost2010Prop35
280
     0
102
RTVSPost2010PropOp35
 70
     1
102
RTVSPost2010Prop36
280
     0
102
RTVSPost2010PropOp36
 70
     1
102
RTVSPost2010Prop37
 90
       50
102
RTVSPost2010PropOp37
 70
     1
102
RTVSPost2010Prop38
140
0.0
102
RTVSPost2010PropOp38
 70
     1
102
RTVSPost2010Prop39
140
1.0
102
RTVSPost2010PropOp39
 70
     1
102
RTVSPost2010Prop40
 90
        0
102
RTVSPost2010PropOp40
 70
     1
102
RTVSPost2010Prop41ColorIndex
 90
       18
102
RTVSPost2010Prop41ColorRGB
 90
        0
102
RTVSPost2010PropOp41
 70
     1
102
RTVSPost2010Prop42
 90
       50
102
RTVSPost2010PropOp42
 70
     1
102
RTVSPost2010Prop43
 90
        3
102
RTVSPost2010PropOp43
 70
     1
102
RTVSPost2010Prop44ColorIndex
 90
        5
102
RTVSPost2010Prop44ColorRGB
 90
      255
102
RTVSPost2010PropOp44
 70
     1
102
RTVSPost2010Prop45
280
     0
102
RTVSPost2010PropOp45
 70
     1
102
RTVSPost2010Prop46
 90
       50
102
RTVSPost2010PropOp46
 70
     1
102
RTVSPost2010Prop47
 90
       50
102
RTVSPost2010PropOp47
 70
     1
102
RTVSPost2010Prop48
 90
       50
102
RTVSPost2010PropOp48
 70
     1
102
RTVSPost2010Prop49
280
     0
102
RTVSPost2010PropOp49
 70
     1
102
RTVSPost2010Prop50
 90
       50
102
RTVSPost2010PropOp50
 70
     1
102
RTVSPost2010Prop51ColorIndex
 90
      256
102
RTVSPost2010Prop51ColorRGB
 90
-16777216
102
RTVSPost2010PropOp51
 70
     0
102
RTVSPost2010Prop52
140
1.0
102
RTVSPost2010PropOp52
 70
     0
102
RTVSPost2010Prop53
 90
        2
102
RTVSPost2010PropOp53
 70
     1
102
RTVSPost2010Prop54
  1
strokes_ogs.tif
102
RTVSPost2010PropOp54
 70
     1
102
RTVSPost2010Prop55
280
     0
102
RTVSPost2010PropOp55
 70
     1
102
RTVSPost2010Prop56
140
1.0
102
RTVSPost2010PropOp56
 70
     1
102
RTVSPost2010Prop57
140
1.0
102
RTVSPost2010PropOp57
 70
     1
102
RTVSPropertyOp0
 70
     1
102
RTVSPropertyOp1
 70
     1
102
RTVSPropertyOp2
 70
     1
102
RTVSPropertyOp3
 70
     1
102
RTVSPropertyOp4
 70
     1
102
RTVSPropertyOp5
 70
     1
102
RTVSPropertyOp6
 70
     1
102
RTVSPropertyOp7
 70
     1
102
RTVSPropertyOp8
 70
     1
102
RTVSPropertyOp9
 70
     1
102
RTVSPropertyOp10
 70
     1
102
RTVSPropertyOp11
 70
     1
102
RTVSPropertyOp12
 70
     1
102
RTVSPropertyOp13
 70
     1
102
RTVSPropertyOp14
 70
     1
102
RTVSPropertyOp15
 70
     1
102
RTVSPropertyOp16
 70
     1
102
RTVSPropertyOp17
 70
     1
102
RTVSPropertyOp18
 70
     1
102
RTVSPropertyOp19
 70
     1
102
RTVSPropertyOp20
 70
     1
102
RTVSPropertyOp21
 70
     1
102
RTVSPropertyOp22
 70
     1
102
RTVSPropertyOp23
 70
     1
102
RTVSPropertyOp24
 70
     1
102
RTVSPropertyOp25
 70
     1
102
RTVSPropertyOp26
 70
     1
102
RTVSPropertyOp27
 70
     1
102
RTVSPropertyOp28
 70
     1
102
RTVSPropertyOp29
 70
     1
102
RTVSPropertyOp30
 70
     1
102
RTVSPropertyOp31
 70
     1
102
RTVSPropertyOp32
 70
     1
102
RTVSPropertyOp33
 70
     1
102
RTVSPropertyOp34
 70
     1
102
RTVSPropertyOp35
 70
     1
102
RTVSPropertyOp36
 70
     1
102
RTVSPropertyOp37
 70
     1
102
RTVSPropertyOp38
 70
     1
102
RTVSPropertyOp39
 70
     1
102
RTVSPropertyOp40
 70
     1
102
RTVSPropertyOp41
 70
     1
102
RTVSPropertyOp42
 70
     1
102
RTVSPropertyOp43
 70
     1
102
RTVSPropertyOp44
 70
     1
102
RTVSPropertyOp45
 70
     1
102
RTVSPropertyOp46
 70
     1
102
RTVSPropertyOp47
 70
     1
102
RTVSPropertyOp48
 70
     1
102
RTVSPropertyOp49
 70
     1
102
RTVSPropertyOp50
 70
     1
102
RTVSPropertyOp51
 70
     0
102
RTVSPropertyOp52
 70
     0
102
RTVSPropertyOp53
 70
     1
102
RTVSPropertyOp54
 70
     1
102
RTVSPropertyOp55
 70
     1
102
RTVSPropertyOp56
 70
     1
102
RTVSPropertyOp57
 70
     1
102
RTVSPropertyOp58
 70
     1
102
RTVSPropertyOp59
 70
     1
102
RTVSPropertyOp60
 70
     1
102
RTVSPropertyOp61
 70
     1
102
RTVSPropertyOp62
 70
     1
  0
XRECORD
  5
9731
102
{ACAD_REACTORS
330
9730
102
}
330
9730
100
AcDbXrecord
280
     1
102
RTVSPost2010Prop28
280
     0
102
RTVSPost2010PropOp28
 70
     1
102
RTVSPost2010Prop29
280
     1
102
RTVSPost2010PropOp29
 70
     1
102
RTVSPost2010Prop30
280
     1
102
RTVSPost2010PropOp30
 70
     1
102
RTVSPost2010Prop31
280
     0
102
RTVSPost2010PropOp31
 70
     1
102
RTVSPost2010Prop32
280
     0
102
RTVSPost2010PropOp32
 70
     1
102
RTVSPost2010Prop33
280
     0
102
RTVSPost2010PropOp33
 70
     1
102
RTVSPost2010Prop34
280
     0
102
RTVSPost2010PropOp34
 70
     1
102
RTVSPost2010Prop35
280
     0
102
RTVSPost2010PropOp35
 70
     1
102
RTVSPost2010Prop36
280
     0
102
RTVSPost2010PropOp36
 70
     1
102
RTVSPost2010Prop37
 90
       50
102
RTVSPost2010PropOp37
 70
     1
102
RTVSPost2010Prop38
140
0.0
102
RTVSPost2010PropOp38
 70
     1
102
RTVSPost2010Prop39
140
1.0
102
RTVSPost2010PropOp39
 70
     1
102
RTVSPost2010Prop40
 90
        0
102
RTVSPost2010PropOp40
 70
     1
102
RTVSPost2010Prop41ColorIndex
 90
       18
102
RTVSPost2010Prop41ColorRGB
 90
        0
102
RTVSPost2010PropOp41
 70
     1
102
RTVSPost2010Prop42
 90
       50
102
RTVSPost2010PropOp42
 70
     1
102
RTVSPost2010Prop43
 90
        3
102
RTVSPost2010PropOp43
 70
     1
102
RTVSPost2010Prop44ColorIndex
 90
        5
102
RTVSPost2010Prop44ColorRGB
 90
      255
102
RTVSPost2010PropOp44
 70
     1
102
RTVSPost2010Prop45
280
     0
102
RTVSPost2010PropOp45
 70
     1
102
RTVSPost2010Prop46
 90
       50
102
RTVSPost2010PropOp46
 70
     1
102
RTVSPost2010Prop47
 90
       50
102
RTVSPost2010PropOp47
 70
     1
102
RTVSPost2010Prop48
 90
       50
102
RTVSPost2010PropOp48
 70
     1
102
RTVSPost2010Prop49
280
     0
102
RTVSPost2010PropOp49
 70
     1
102
RTVSPost2010Prop50
 90
       50
102
RTVSPost2010PropOp50
 70
     1
102
RTVSPost2010Prop51ColorIndex
 90
      256
102
RTVSPost2010Prop51ColorRGB
 90
-16777216
102
RTVSPost2010PropOp51
 70
     0
102
RTVSPost2010Prop52
140
1.0
102
RTVSPost2010PropOp52
 70
     0
102
RTVSPost2010Prop53
 90
        2
102
RTVSPost2010PropOp53
 70
     1
102
RTVSPost2010Prop54
  1
strokes_ogs.tif
102
RTVSPost2010PropOp54
 70
     1
102
RTVSPost2010Prop55
280
     0
102
RTVSPost2010PropOp55
 70
     1
102
RTVSPost2010Prop56
140
1.0
102
RTVSPost2010PropOp56
 70
     1
102
RTVSPost2010Prop57
140
1.0
102
RTVSPost2010PropOp57
 70
     1
102
RTVSPropertyOp0
 70
     1
102
RTVSPropertyOp1
 70
     1
102
RTVSPropertyOp2
 70
     1
102
RTVSPropertyOp3
 70
     1
102
RTVSPropertyOp4
 70
     1
102
RTVSPropertyOp5
 70
     1
102
RTVSPropertyOp6
 70
     1
102
RTVSPropertyOp7
 70
     1
102
RTVSPropertyOp8
 70
     1
102
RTVSPropertyOp9
 70
     1
102
RTVSPropertyOp10
 70
     1
102
RTVSPropertyOp11
 70
     1
102
RTVSPropertyOp12
 70
     1
102
RTVSPropertyOp13
 70
     1
102
RTVSPropertyOp14
 70
     1
102
RTVSPropertyOp15
 70
     1
102
RTVSPropertyOp16
 70
     1
102
RTVSPropertyOp17
 70
     1
102
RTVSPropertyOp18
 70
     1
102
RTVSPropertyOp19
 70
     1
102
RTVSPropertyOp20
 70
     1
102
RTVSPropertyOp21
 70
     1
102
RTVSPropertyOp22
 70
     1
102
RTVSPropertyOp23
 70
     1
102
RTVSPropertyOp24
 70
     1
102
RTVSPropertyOp25
 70
     1
102
RTVSPropertyOp26
 70
     1
102
RTVSPropertyOp27
 70
     1
102
RTVSPropertyOp28
 70
     1
102
RTVSPropertyOp29
 70
     1
102
RTVSPropertyOp30
 70
     1
102
RTVSPropertyOp31
 70
     1
102
RTVSPropertyOp32
 70
     1
102
RTVSPropertyOp33
 70
     1
102
RTVSPropertyOp34
 70
     1
102
RTVSPropertyOp35
 70
     1
102
RTVSPropertyOp36
 70
     1
102
RTVSPropertyOp37
 70
     1
102
RTVSPropertyOp38
 70
     1
102
RTVSPropertyOp39
 70
     1
102
RTVSPropertyOp40
 70
     1
102
RTVSPropertyOp41
 70
     1
102
RTVSPropertyOp42
 70
     1
102
RTVSPropertyOp43
 70
     1
102
RTVSPropertyOp44
 70
     1
102
RTVSPropertyOp45
 70
     1
102
RTVSPropertyOp46
 70
     1
102
RTVSPropertyOp47
 70
     1
102
RTVSPropertyOp48
 70
     1
102
RTVSPropertyOp49
 70
     1
102
RTVSPropertyOp50
 70
     1
102
RTVSPropertyOp51
 70
     0
102
RTVSPropertyOp52
 70
     0
102
RTVSPropertyOp53
 70
     1
102
RTVSPropertyOp54
 70
     1
102
RTVSPropertyOp55
 70
     1
102
RTVSPropertyOp56
 70
     1
102
RTVSPropertyOp57
 70
     1
102
RTVSPropertyOp58
 70
     1
102
RTVSPropertyOp59
 70
     1
102
RTVSPropertyOp60
 70
     1
102
RTVSPropertyOp61
 70
     1
102
RTVSPropertyOp62
 70
     1
  0
XRECORD
  5
9725
102
{ACAD_REACTORS
330
9724
102
}
330
9724
100
AcDbXrecord
280
     1
102
RTVSPost2010Prop28
280
     0
102
RTVSPost2010PropOp28
 70
     1
102
RTVSPost2010Prop29
280
     1
102
RTVSPost2010PropOp29
 70
     1
102
RTVSPost2010Prop30
280
     1
102
RTVSPost2010PropOp30
 70
     1
102
RTVSPost2010Prop31
280
     0
102
RTVSPost2010PropOp31
 70
     1
102
RTVSPost2010Prop32
280
     0
102
RTVSPost2010PropOp32
 70
     1
102
RTVSPost2010Prop33
280
     0
102
RTVSPost2010PropOp33
 70
     1
102
RTVSPost2010Prop34
280
     0
102
RTVSPost2010PropOp34
 70
     1
102
RTVSPost2010Prop35
280
     0
102
RTVSPost2010PropOp35
 70
     1
102
RTVSPost2010Prop36
280
     0
102
RTVSPost2010PropOp36
 70
     1
102
RTVSPost2010Prop37
 90
       50
102
RTVSPost2010PropOp37
 70
     1
102
RTVSPost2010Prop38
140
0.0
102
RTVSPost2010PropOp38
 70
     1
102
RTVSPost2010Prop39
140
1.0
102
RTVSPost2010PropOp39
 70
     1
102
RTVSPost2010Prop40
 90
        0
102
RTVSPost2010PropOp40
 70
     1
102
RTVSPost2010Prop41ColorIndex
 90
       18
102
RTVSPost2010Prop41ColorRGB
 90
        0
102
RTVSPost2010PropOp41
 70
     1
102
RTVSPost2010Prop42
 90
       50
102
RTVSPost2010PropOp42
 70
     1
102
RTVSPost2010Prop43
 90
        3
102
RTVSPost2010PropOp43
 70
     1
102
RTVSPost2010Prop44ColorIndex
 90
        5
102
RTVSPost2010Prop44ColorRGB
 90
      255
102
RTVSPost2010PropOp44
 70
     1
102
RTVSPost2010Prop45
280
     0
102
RTVSPost2010PropOp45
 70
     1
102
RTVSPost2010Prop46
 90
       50
102
RTVSPost2010PropOp46
 70
     1
102
RTVSPost2010Prop47
 90
       50
102
RTVSPost2010PropOp47
 70
     1
102
RTVSPost2010Prop48
 90
       50
102
RTVSPost2010PropOp48
 70
     1
102
RTVSPost2010Prop49
280
     0
102
RTVSPost2010PropOp49
 70
     1
102
RTVSPost2010Prop50
 90
       50
102
RTVSPost2010PropOp50
 70
     1
102
RTVSPost2010Prop51ColorIndex
 90
      256
102
RTVSPost2010Prop51ColorRGB
 90
-16777216
102
RTVSPost2010PropOp51
 70
     0
102
RTVSPost2010Prop52
140
1.0
102
RTVSPost2010PropOp52
 70
     0
102
RTVSPost2010Prop53
 90
        2
102
RTVSPost2010PropOp53
 70
     1
102
RTVSPost2010Prop54
  1
strokes_ogs.tif
102
RTVSPost2010PropOp54
 70
     1
102
RTVSPost2010Prop55
280
     0
102
RTVSPost2010PropOp55
 70
     1
102
RTVSPost2010Prop56
140
1.0
102
RTVSPost2010PropOp56
 70
     1
102
RTVSPost2010Prop57
140
1.0
102
RTVSPost2010PropOp57
 70
     1
102
RTVSPropertyOp0
 70
     1
102
RTVSPropertyOp1
 70
     1
102
RTVSPropertyOp2
 70
     1
102
RTVSPropertyOp3
 70
     1
102
RTVSPropertyOp4
 70
     1
102
RTVSPropertyOp5
 70
     1
102
RTVSPropertyOp6
 70
     1
102
RTVSPropertyOp7
 70
     1
102
RTVSPropertyOp8
 70
     1
102
RTVSPropertyOp9
 70
     1
102
RTVSPropertyOp10
 70
     1
102
RTVSPropertyOp11
 70
     1
102
RTVSPropertyOp12
 70
     1
102
RTVSPropertyOp13
 70
     1
102
RTVSPropertyOp14
 70
     1
102
RTVSPropertyOp15
 70
     1
102
RTVSPropertyOp16
 70
     1
102
RTVSPropertyOp17
 70
     1
102
RTVSPropertyOp18
 70
     1
102
RTVSPropertyOp19
 70
     1
102
RTVSPropertyOp20
 70
     1
102
RTVSPropertyOp21
 70
     1
102
RTVSPropertyOp22
 70
     1
102
RTVSPropertyOp23
 70
     1
102
RTVSPropertyOp24
 70
     1
102
RTVSPropertyOp25
 70
     1
102
RTVSPropertyOp26
 70
     1
102
RTVSPropertyOp27
 70
     1
102
RTVSPropertyOp28
 70
     1
102
RTVSPropertyOp29
 70
     1
102
RTVSPropertyOp30
 70
     1
102
RTVSPropertyOp31
 70
     1
102
RTVSPropertyOp32
 70
     1
102
RTVSPropertyOp33
 70
     1
102
RTVSPropertyOp34
 70
     1
102
RTVSPropertyOp35
 70
     1
102
RTVSPropertyOp36
 70
     1
102
RTVSPropertyOp37
 70
     1
102
RTVSPropertyOp38
 70
     1
102
RTVSPropertyOp39
 70
     1
102
RTVSPropertyOp40
 70
     1
102
RTVSPropertyOp41
 70
     1
102
RTVSPropertyOp42
 70
     1
102
RTVSPropertyOp43
 70
     1
102
RTVSPropertyOp44
 70
     1
102
RTVSPropertyOp45
 70
     1
102
RTVSPropertyOp46
 70
     1
102
RTVSPropertyOp47
 70
     1
102
RTVSPropertyOp48
 70
     1
102
RTVSPropertyOp49
 70
     1
102
RTVSPropertyOp50
 70
     1
102
RTVSPropertyOp51
 70
     0
102
RTVSPropertyOp52
 70
     0
102
RTVSPropertyOp53
 70
     1
102
RTVSPropertyOp54
 70
     1
102
RTVSPropertyOp55
 70
     1
102
RTVSPropertyOp56
 70
     1
102
RTVSPropertyOp57
 70
     1
102
RTVSPropertyOp58
 70
     1
102
RTVSPropertyOp59
 70
     1
102
RTVSPropertyOp60
 70
     1
102
RTVSPropertyOp61
 70
     1
102
RTVSPropertyOp62
 70
     1
  0
XRECORD
  5
973D
102
{ACAD_REACTORS
330
973C
102
}
330
973C
100
AcDbXrecord
280
     1
102
RTVSPost2010Prop28
280
     0
102
RTVSPost2010PropOp28
 70
     1
102
RTVSPost2010Prop29
280
     1
102
RTVSPost2010PropOp29
 70
     1
102
RTVSPost2010Prop30
280
     1
102
RTVSPost2010PropOp30
 70
     1
102
RTVSPost2010Prop31
280
     0
102
RTVSPost2010PropOp31
 70
     1
102
RTVSPost2010Prop32
280
     0
102
RTVSPost2010PropOp32
 70
     1
102
RTVSPost2010Prop33
280
     0
102
RTVSPost2010PropOp33
 70
     1
102
RTVSPost2010Prop34
280
     0
102
RTVSPost2010PropOp34
 70
     1
102
RTVSPost2010Prop35
280
     0
102
RTVSPost2010PropOp35
 70
     1
102
RTVSPost2010Prop36
280
     0
102
RTVSPost2010PropOp36
 70
     1
102
RTVSPost2010Prop37
 90
       50
102
RTVSPost2010PropOp37
 70
     1
102
RTVSPost2010Prop38
140
0.0
102
RTVSPost2010PropOp38
 70
     1
102
RTVSPost2010Prop39
140
1.0
102
RTVSPost2010PropOp39
 70
     1
102
RTVSPost2010Prop40
 90
        0
102
RTVSPost2010PropOp40
 70
     1
102
RTVSPost2010Prop41ColorIndex
 90
       18
102
RTVSPost2010Prop41ColorRGB
 90
        0
102
RTVSPost2010PropOp41
 70
     1
102
RTVSPost2010Prop42
 90
       50
102
RTVSPost2010PropOp42
 70
     1
102
RTVSPost2010Prop43
 90
        3
102
RTVSPost2010PropOp43
 70
     1
102
RTVSPost2010Prop44ColorIndex
 90
        5
102
RTVSPost2010Prop44ColorRGB
 90
      255
102
RTVSPost2010PropOp44
 70
     1
102
RTVSPost2010Prop45
280
     0
102
RTVSPost2010PropOp45
 70
     1
102
RTVSPost2010Prop46
 90
       50
102
RTVSPost2010PropOp46
 70
     1
102
RTVSPost2010Prop47
 90
       50
102
RTVSPost2010PropOp47
 70
     1
102
RTVSPost2010Prop48
 90
       50
102
RTVSPost2010PropOp48
 70
     1
102
RTVSPost2010Prop49
280
     0
102
RTVSPost2010PropOp49
 70
     1
102
RTVSPost2010Prop50
 90
       50
102
RTVSPost2010PropOp50
 70
     1
102
RTVSPost2010Prop51ColorIndex
 90
      256
102
RTVSPost2010Prop51ColorRGB
 90
-16777216
102
RTVSPost2010PropOp51
 70
     0
102
RTVSPost2010Prop52
140
1.0
102
RTVSPost2010PropOp52
 70
     0
102
RTVSPost2010Prop53
 90
        2
102
RTVSPost2010PropOp53
 70
     1
102
RTVSPost2010Prop54
  1
strokes_ogs.tif
102
RTVSPost2010PropOp54
 70
     1
102
RTVSPost2010Prop55
280
     0
102
RTVSPost2010PropOp55
 70
     1
102
RTVSPost2010Prop56
140
1.0
102
RTVSPost2010PropOp56
 70
     1
102
RTVSPost2010Prop57
140
1.0
102
RTVSPost2010PropOp57
 70
     1
102
RTVSPropertyOp0
 70
     1
102
RTVSPropertyOp1
 70
     1
102
RTVSPropertyOp2
 70
     1
102
RTVSPropertyOp3
 70
     1
102
RTVSPropertyOp4
 70
     1
102
RTVSPropertyOp5
 70
     1
102
RTVSPropertyOp6
 70
     1
102
RTVSPropertyOp7
 70
     1
102
RTVSPropertyOp8
 70
     1
102
RTVSPropertyOp9
 70
     1
102
RTVSPropertyOp10
 70
     1
102
RTVSPropertyOp11
 70
     1
102
RTVSPropertyOp12
 70
     1
102
RTVSPropertyOp13
 70
     1
102
RTVSPropertyOp14
 70
     1
102
RTVSPropertyOp15
 70
     1
102
RTVSPropertyOp16
 70
     1
102
RTVSPropertyOp17
 70
     1
102
RTVSPropertyOp18
 70
     1
102
RTVSPropertyOp19
 70
     1
102
RTVSPropertyOp20
 70
     1
102
RTVSPropertyOp21
 70
     1
102
RTVSPropertyOp22
 70
     1
102
RTVSPropertyOp23
 70
     1
102
RTVSPropertyOp24
 70
     1
102
RTVSPropertyOp25
 70
     1
102
RTVSPropertyOp26
 70
     1
102
RTVSPropertyOp27
 70
     1
102
RTVSPropertyOp28
 70
     1
102
RTVSPropertyOp29
 70
     1
102
RTVSPropertyOp30
 70
     1
102
RTVSPropertyOp31
 70
     1
102
RTVSPropertyOp32
 70
     1
102
RTVSPropertyOp33
 70
     1
102
RTVSPropertyOp34
 70
     1
102
RTVSPropertyOp35
 70
     1
102
RTVSPropertyOp36
 70
     1
102
RTVSPropertyOp37
 70
     1
102
RTVSPropertyOp38
 70
     1
102
RTVSPropertyOp39
 70
     1
102
RTVSPropertyOp40
 70
     1
102
RTVSPropertyOp41
 70
     1
102
RTVSPropertyOp42
 70
     1
102
RTVSPropertyOp43
 70
     1
102
RTVSPropertyOp44
 70
     1
102
RTVSPropertyOp45
 70
     1
102
RTVSPropertyOp46
 70
     1
102
RTVSPropertyOp47
 70
     1
102
RTVSPropertyOp48
 70
     1
102
RTVSPropertyOp49
 70
     1
102
RTVSPropertyOp50
 70
     1
102
RTVSPropertyOp51
 70
     0
102
RTVSPropertyOp52
 70
     0
102
RTVSPropertyOp53
 70
     1
102
RTVSPropertyOp54
 70
     1
102
RTVSPropertyOp55
 70
     1
102
RTVSPropertyOp56
 70
     1
102
RTVSPropertyOp57
 70
     1
102
RTVSPropertyOp58
 70
     1
102
RTVSPropertyOp59
 70
     1
102
RTVSPropertyOp60
 70
     1
102
RTVSPropertyOp61
 70
     1
102
RTVSPropertyOp62
 70
     1
  0
ENDSEC
  0
EOF
