  0
SECTION
  2
HEADER
  9
$ACADVER
  1
AC1015
  9
$ACADMAINTVER
 70
    20
  9
$DWGCODEPAGE
  3
ANSI_932
  9
$INSBASE
 10
0.0
 20
0.0
 30
0.0
  9
$EXTMIN
 10
7.480007999999998
 20
9.999999999999998
 30
0.0
  9
$EXTMAX
 10
388.849735
 20
270.620816
 30
0.0
  9
$LIMMIN
 10
0.0
 20
0.0
  9
$LIMMAX
 10
396.0
 20
273.0
  9
$ORTHOMODE
 70
     1
  9
$REGENMODE
 70
     1
  9
$FILLMODE
 70
     1
  9
$QTEXTMODE
 70
     0
  9
$MIRRTEXT
 70
     1
  9
$LTSCALE
 40
20.0
  9
$ATTMODE
 70
     1
  9
$TEXTSIZE
 40
5.0
  9
$TRACEWID
 40
1.0
  9
$TEXTSTYLE
  7
STANDARD
  9
$CLAYER
  8
0
  9
$CELTYPE
  6
BYLAYER
  9
$CECOLOR
 62
   256
  9
$CELTSCALE
 40
1.0
  9
$DISPSILH
 70
     0
  9
$DIMSCALE
 40
1.0
  9
$DIMASZ
 40
3.0
  9
$DIMEXO
 40
1.0
  9
$DIMDLI
 40
1.0
  9
$DIMRND
 40
0.0
  9
$DIMDLE
 40
0.0
  9
$DIMEXE
 40
1.0
  9
$DIMTP
 40
0.0
  9
$DIMTM
 40
0.0
  9
$DIMTXT
 40
3.2
  9
$DIMCEN
 40
0.0
  9
$DIMTSZ
 40
0.0
  9
$DIMTOL
 70
     0
  9
$DIMLIM
 70
     0
  9
$DIMTIH
 70
     0
  9
$DIMTOH
 70
     0
  9
$DIMSE1
 70
     0
  9
$DIMSE2
 70
     0
  9
$DIMTAD
 70
     1
  9
$DIMZIN
 70
     9
  9
$DIMBLK
  1

  9
$DIMASO
 70
     1
  9
$DIMSHO
 70
     1
  9
$DIMPOST
  1

  9
$DIMAPOST
  1

  9
$DIMALT
 70
     0
  9
$DIMALTD
 70
     2
  9
$DIMALTF
 40
25.4
  9
$DIMLFAC
 40
1.0
  9
$DIMTOFL
 70
     1
  9
$DIMTVP
 40
0.0
  9
$DIMTIX
 70
     0
  9
$DIMSOXD
 70
     0
  9
$DIMSAH
 70
     1
  9
$DIMBLK1
  1

  9
$DIMBLK2
  1

  9
$DIMSTYLE
  2
STANDARD
  9
$DIMCLRD
 70
   256
  9
$DIMCLRE
 70
   256
  9
$DIMCLRT
 70
   256
  9
$DIMTFAC
 40
1.0
  9
$DIMGAP
 40
1.0
  9
$DIMJUST
 70
     0
  9
$DIMSD1
 70
     0
  9
$DIMSD2
 70
     0
  9
$DIMTOLJ
 70
     1
  9
$DIMTZIN
 70
     0
  9
$DIMALTZ
 70
     0
  9
$DIMALTTZ
 70
     0
  9
$DIMUPT
 70
     0
  9
$DIMDEC
 70
     4
  9
$DIMTDEC
 70
     4
  9
$DIMALTU
 70
     2
  9
$DIMALTTD
 70
     2
  9
$DIMTXSTY
  7
STANDARD
  9
$DIMAUNIT
 70
     0
  9
$DIMADEC
 70
     0
  9
$DIMALTRND
 40
0.0
  9
$DIMAZIN
 70
     0
  9
$DIMDSEP
 70
    46
  9
$DIMATFIT
 70
     3
  9
$DIMFRAC
 70
     0
  9
$DIMLDRBLK
  1

  9
$DIMLUNIT
 70
     2
  9
$DIMLWD
 70
    -2
  9
$DIMLWE
 70
    -2
  9
$DIMTMOVE
 70
     0
  9
$LUNITS
 70
     2
  9
$LUPREC
 70
     4
  9
$SKETCHINC
 40
1.0
  9
$FILLETRAD
 40
1.0
  9
$AUNITS
 70
     0
  9
$AUPREC
 70
     2
  9
$MENU
  1
.
  9
$ELEVATION
 40
0.0
  9
$PELEVATION
 40
0.0
  9
$THICKNESS
 40
0.0
  9
$LIMCHECK
 70
     0
  9
$CHAMFERA
 40
10.0
  9
$CHAMFERB
 40
10.0
  9
$CHAMFERC
 40
0.0
  9
$CHAMFERD
 40
0.0
  9
$SKPOLY
 70
     0
  9
$TDCREATE
 40
2450737.703928588
  9
$TDUCREATE
 40
2450737.328928588
  9
$TDUPDATE
 40
2457192.640416458
  9
$TDUUPDATE
 40
2457192.265416459
  9
$TDINDWG
 40
0.0000152662
  9
$TDUSRTIMER
 40
0.0000149653
  9
$USRTIMER
 70
     1
  9
$ANGBASE
 50
0.0
  9
$ANGDIR
 70
     0
  9
$PDMODE
 70
     0
  9
$PDSIZE
 40
0.0
  9
$PLINEWID
 40
0.0
  9
$SPLFRAME
 70
     0
  9
$SPLINETYPE
 70
     6
  9
$SPLINESEGS
 70
     8
  9
$HANDSEED
  5
A7DE
  9
$SURFTAB1
 70
     6
  9
$SURFTAB2
 70
     6
  9
$SURFTYPE
 70
     6
  9
$SURFU
 70
     6
  9
$SURFV
 70
     6
  9
$UCSBASE
  2

  9
$UCSNAME
  2

  9
$UCSORG
 10
0.0
 20
0.0
 30
0.0
  9
$UCSXDIR
 10
1.0
 20
0.0
 30
0.0
  9
$UCSYDIR
 10
0.0
 20
1.0
 30
0.0
  9
$UCSORTHOREF
  2

  9
$UCSORTHOVIEW
 70
     0
  9
$UCSORGTOP
 10
0.0
 20
0.0
 30
0.0
  9
$UCSORGBOTTOM
 10
0.0
 20
0.0
 30
0.0
  9
$UCSORGLEFT
 10
0.0
 20
0.0
 30
0.0
  9
$UCSORGRIGHT
 10
0.0
 20
0.0
 30
0.0
  9
$UCSORGFRONT
 10
0.0
 20
0.0
 30
0.0
  9
$UCSORGBACK
 10
0.0
 20
0.0
 30
0.0
  9
$PUCSBASE
  2

  9
$PUCSNAME
  2

  9
$PUCSORG
 10
0.0
 20
0.0
 30
0.0
  9
$PUCSXDIR
 10
1.0
 20
0.0
 30
0.0
  9
$PUCSYDIR
 10
0.0
 20
1.0
 30
0.0
  9
$PUCSORTHOREF
  2

  9
$PUCSORTHOVIEW
 70
     0
  9
$PUCSORGTOP
 10
0.0
 20
0.0
 30
0.0
  9
$PUCSORGBOTTOM
 10
0.0
 20
0.0
 30
0.0
  9
$PUCSORGLEFT
 10
0.0
 20
0.0
 30
0.0
  9
$PUCSORGRIGHT
 10
0.0
 20
0.0
 30
0.0
  9
$PUCSORGFRONT
 10
0.0
 20
0.0
 30
0.0
  9
$PUCSORGBACK
 10
0.0
 20
0.0
 30
0.0
  9
$USERI1
 70
     0
  9
$USERI2
 70
     0
  9
$USERI3
 70
     0
  9
$USERI4
 70
     0
  9
$USERI5
 70
     0
  9
$USERR1
 40
0.0
  9
$USERR2
 40
0.0
  9
$USERR3
 40
0.0
  9
$USERR4
 40
0.0
  9
$USERR5
 40
0.0
  9
$WORLDVIEW
 70
     1
  9
$SHADEDGE
 70
     3
  9
$SHADEDIF
 70
    70
  9
$TILEMODE
 70
     1
  9
$MAXACTVP
 70
    16
  9
$PINSBASE
 10
0.0
 20
0.0
 30
0.0
  9
$PLIMCHECK
 70
     0
  9
$PEXTMIN
 10
1.000000000000000E+20
 20
1.000000000000000E+20
 30
1.000000000000000E+20
  9
$PEXTMAX
 10
-1.000000000000000E+20
 20
-1.000000000000000E+20
 30
-1.000000000000000E+20
  9
$PLIMMIN
 10
0.0
 20
0.0
  9
$PLIMMAX
 10
420.0
 20
297.0
  9
$UNITMODE
 70
     0
  9
$VISRETAIN
 70
     0
  9
$PLINEGEN
 70
     0
  9
$PSLTSCALE
 70
     0
  9
$TREEDEPTH
 70
  3020
  9
$CMLSTYLE
  2
STANDARD
  9
$CMLJUST
 70
     0
  9
$CMLSCALE
 40
1.0
  9
$PROXYGRAPHICS
 70
     1
  9
$MEASUREMENT
 70
     0
  9
$CELWEIGHT
370
    -1
  9
$ENDCAPS
280
     0
  9
$JOINSTYLE
280
     0
  9
$LWDISPLAY
290
     0
  9
$INSUNITS
 70
     0
  9
$HYPERLINKBASE
  1

  9
$STYLESHEET
  1

  9
$XEDIT
290
     1
  9
$CEPSNTYPE
380
     0
  9
$PSTYLEMODE
290
     1
  9
$FINGERPRINTGUID
  2
{C692083D-CD19-46FD-9FF0-79F2D6737798}
  9
$VERSIONGUID
  2
{4536281C-ED92-4BC4-BCAF-D8B8C557E5CC}
  9
$EXTNAMES
290
     1
  9
$PSVPSCALE
 40
0.0
  9
$OLESTARTUP
290
     0
  0
ENDSEC
  0
SECTION
  2
CLASSES
  0
CLASS
  1
ACDBDICTIONARYWDFLT
  2
AcDbDictionaryWithDefault
  3
ObjectDBX Classes
 90
        0
280
     0
281
     0
  0
CLASS
  1
ACDBPLACEHOLDER
  2
AcDbPlaceHolder
  3
ObjectDBX Classes
 90
        0
280
     0
281
     0
  0
CLASS
  1
LAYOUT
  2
AcDbLayout
  3
ObjectDBX Classes
 90
        0
280
     0
281
     0
  0
CLASS
  1
DICTIONARYVAR
  2
AcDbDictionaryVar
  3
ObjectDBX Classes
 90
        0
280
     0
281
     0
  0
CLASS
  1
MATERIAL
  2
AcDbMaterial
  3
ObjectDBX Classes
 90
     1153
280
     0
281
     0
  0
CLASS
  1
VISUALSTYLE
  2
AcDbVisualStyle
  3
ObjectDBX Classes
 90
     4095
280
     0
281
     0
  0
CLASS
  1
TABLESTYLE
  2
AcDbTableStyle
  3
ObjectDBX Classes
 90
     4095
280
     0
281
     0
  0
CLASS
  1
SCALE
  2
AcDbScale
  3
ObjectDBX Classes
 90
     1153
280
     0
281
     0
  0
CLASS
  1
MLEADERSTYLE
  2
AcDbMLeaderStyle
  3
ACDB_MLEADERSTYLE_CLASS
 90
     4095
280
     0
281
     0
  0
CLASS
  1
ACDBSECTIONVIEWSTYLE
  2
AcDbSectionViewStyle
  3
ObjectDBX Classes
 90
     1025
280
     0
281
     0
  0
CLASS
  1
ACDBDETAILVIEWSTYLE
  2
AcDbDetailViewStyle
  3
ObjectDBX Classes
 90
     1025
280
     0
281
     0
  0
CLASS
  1
CELLSTYLEMAP
  2
AcDbCellStyleMap
  3
ObjectDBX Classes
 90
     1152
280
     0
281
     0
  0
ENDSEC
  0
SECTION
  2
TABLES
  0
TABLE
  2
VPORT
  5
A537
330
0
100
AcDbSymbolTable
 70
     1
  0
VPORT
  5
A727
330
A537
100
AcDbSymbolTableRecord
100
AcDbViewportTableRecord
  2
*ACTIVE
 70
     0
 10
0.0
 20
0.0
 11
1.0
 21
1.0
 12
277.0956345381386
 22
140.311569853932
 13
0.0
 23
0.0
 14
10.0
 24
10.0
 15
10.0
 25
10.0
 16
0.0
 26
0.0
 36
1.0
 17
0.0
 27
0.0
 37
0.0
 40
263.5598428337146
 41
1.899603698811096
 42
50.0
 43
0.0
 44
0.0
 50
0.0
 51
0.0
 71
     0
 72
   100
 73
     1
 74
     0
 75
     0
 76
     0
 77
     0
 78
     0
281
     0
 65
     1
110
0.0
120
0.0
130
0.0
111
1.0
121
0.0
131
0.0
112
0.0
122
1.0
132
0.0
 79
     0
146
0.0
1001
ACAD_NAV_VCDISPLAY
1070
     3
  0
ENDTAB
  0
TABLE
  2
LTYPE
  5
A534
330
0
100
AcDbSymbolTable
 70
     4
  0
LTYPE
  5
A542
330
A534
100
AcDbSymbolTableRecord
100
AcDbLinetypeTableRecord
  2
BYBLOCK
 70
     0
  3

 72
    65
 73
     0
 40
0.0
  0
LTYPE
  5
A543
330
A534
100
AcDbSymbolTableRecord
100
AcDbLinetypeTableRecord
  2
BYLAYER
 70
     0
  3

 72
    65
 73
     0
 40
0.0
  0
LTYPE
  5
A544
330
A534
100
AcDbSymbolTableRecord
100
AcDbLinetypeTableRecord
  2
CONTINUOUS
 70
     0
  3
Solid line
 72
    65
 73
     0
 40
0.0
  0
LTYPE
  5
A552
330
A534
100
AcDbSymbolTableRecord
100
AcDbLinetypeTableRecord
  2
DASHED
 70
     0
  3
__ __ __ __ __ __ __ __ __ __ __ __ __ __ __ __
 72
    65
 73
     2
 40
0.75
 49
0.5
 74
     0
 49
-0.25
 74
     0
  0
LTYPE
  5
A553
330
A534
100
AcDbSymbolTableRecord
100
AcDbLinetypeTableRecord
  2
CENTER
 70
     0
  3
____ _ ____ _ ____ _ ____ _ ____ _ ____ _ ____ 
 72
    65
 73
     4
 40
2.0
 49
1.25
 74
     0
 49
-0.25
 74
     0
 49
0.25
 74
     0
 49
-0.25
 74
     0
  0
LTYPE
  5
A554
330
A534
100
AcDbSymbolTableRecord
100
AcDbLinetypeTableRecord
  2
PHANTOM
 70
     0
  3
______  __  __  ______  __  __  ______  __  __ 
 72
    65
 73
     6
 40
2.5
 49
1.25
 74
     0
 49
-0.25
 74
     0
 49
0.25
 74
     0
 49
-0.25
 74
     0
 49
0.25
 74
     0
 49
-0.25
 74
     0
  0
ENDTAB
  0
TABLE
  2
LAYER
  5
A531
330
0
100
AcDbSymbolTable
 70
     8
  0
LAYER
  5
A53F
102
{ACAD_XDICTIONARY
360
A782
102
}
330
A531
100
AcDbSymbolTableRecord
100
AcDbLayerTableRecord
  2
0
 70
     0
 62
     7
  6
CONTINUOUS
370
    -3
390
A730
  0
LAYER
  5
A555
102
{ACAD_XDICTIONARY
360
A784
102
}
330
A531
100
AcDbSymbolTableRecord
100
AcDbLayerTableRecord
  2
4
 70
     0
 62
     1
  6
CENTER
370
    -3
390
A730
  0
LAYER
  5
A556
102
{ACAD_XDICTIONARY
360
A786
102
}
330
A531
100
AcDbSymbolTableRecord
100
AcDbLayerTableRecord
  2
5
 70
     0
 62
     6
  6
PHANTOM
370
    -3
390
A730
  0
LAYER
  5
A557
102
{ACAD_XDICTIONARY
360
A788
102
}
330
A531
100
AcDbSymbolTableRecord
100
AcDbLayerTableRecord
  2
1
 70
     0
 62
     7
  6
CONTINUOUS
370
    -3
390
A730
  0
LAYER
  5
A558
102
{ACAD_XDICTIONARY
360
A78A
102
}
330
A531
100
AcDbSymbolTableRecord
100
AcDbLayerTableRecord
  2
2
 70
     0
 62
     4
  6
CONTINUOUS
370
    -3
390
A730
  0
LAYER
  5
A559
102
{ACAD_XDICTIONARY
360
A78C
102
}
330
A531
100
AcDbSymbolTableRecord
100
AcDbLayerTableRecord
  2
3
 70
     0
 62
     2
  6
DASHED
370
    -3
390
A730
  0
LAYER
  5
A55A
102
{ACAD_XDICTIONARY
360
A78E
102
}
330
A531
100
AcDbSymbolTableRecord
100
AcDbLayerTableRecord
  2
6
 70
     0
 62
     5
  6
CONTINUOUS
370
    -3
390
A730
  0
LAYER
  5
A55B
102
{ACAD_XDICTIONARY
360
A790
102
}
330
A531
100
AcDbSymbolTableRecord
100
AcDbLayerTableRecord
  2
7
 70
     0
 62
     3
  6
CONTINUOUS
370
    -3
390
A730
  0
ENDTAB
  0
TABLE
  2
STYLE
  5
A532
330
0
100
AcDbSymbolTable
 70
     1
  0
STYLE
  5
A540
330
A532
100
AcDbSymbolTableRecord
100
AcDbTextStyleTableRecord
  2
STANDARD
 70
     0
 40
0.0
 41
1.0
 50
0.0
 71
     0
 42
5.0
  3
txt
  4

  0
ENDTAB
  0
TABLE
  2
VIEW
  5
A535
330
0
100
AcDbSymbolTable
 70
     1
  0
VIEW
  5
A55C
330
A535
100
AcDbSymbolTableRecord
100
AcDbViewTableRecord
  2
0
 70
     0
 40
281.617424
 10
269.123606
 20
140.808712
 41
538.247211
 11
0.0
 21
0.0
 31
1.0
 12
0.0
 22
0.0
 32
0.0
 42
50.0
 43
0.0
 44
0.0
 50
0.0
 71
     0
281
     0
 72
     0
  0
ENDTAB
  0
TABLE
  2
UCS
  5
A536
330
0
100
AcDbSymbolTable
 70
     0
  0
ENDTAB
  0
TABLE
  2
APPID
  5
A538
330
0
100
AcDbSymbolTable
 70
     3
  0
APPID
  5
A541
330
A538
100
AcDbSymbolTableRecord
100
AcDbRegAppTableRecord
  2
ACAD
 70
     0
  0
APPID
  5
A79C
330
A538
100
AcDbSymbolTableRecord
100
AcDbRegAppTableRecord
  2
ACAD_NAV_VCDISPLAY
 70
     0
  0
APPID
  5
A7D5
330
A538
100
AcDbSymbolTableRecord
100
AcDbRegAppTableRecord
  2
ACAD_MLEADERVER
 70
     0
  0
ENDTAB
  0
TABLE
  2
DIMSTYLE
  5
A539
330
0
100
AcDbSymbolTable
 70
     1
100
AcDbDimStyleTable
 71
     0
  0
DIMSTYLE
105
A55E
330
A539
100
AcDbSymbolTableRecord
100
AcDbDimStyleTableRecord
  2
STANDARD
 70
     0
 41
3.0
 42
1.0
 43
1.0
 44
1.0
 73
     0
 74
     0
 77
     1
 78
     9
140
3.2
141
0.0
147
1.0
172
     1
173
     1
176
   256
177
   256
178
   256
284
     9
285
     9
286
     9
340
A540
  0
ENDTAB
  0
TABLE
  2
BLOCK_RECORD
  5
A530
330
0
100
AcDbSymbolTable
 70
     0
  0
BLOCK_RECORD
  5
A54D
102
{ACAD_XDICTIONARY
360
A72A
102
}
330
A530
100
AcDbSymbolTableRecord
100
AcDbBlockTableRecord
  2
*MODEL_SPACE
340
A77E
  0
BLOCK_RECORD
  5
A549
102
{ACAD_XDICTIONARY
360
A728
102
}
330
A530
100
AcDbSymbolTableRecord
100
AcDbBlockTableRecord
  2
*PAPER_SPACE
340
A77F
  0
ENDTAB
  0
ENDSEC
  0
SECTION
  2
BLOCKS
  0
BLOCK
  5
A54E
330
A54D
100
AcDbEntity
  8
0
100
AcDbBlockBegin
  2
*MODEL_SPACE
 70
     0
 10
0.0
 20
0.0
 30
0.0
  3
*MODEL_SPACE
  1

  0
ENDBLK
  5
A54F
330
A54D
100
AcDbEntity
  8
0
100
AcDbBlockEnd
  0
BLOCK
  5
A54A
330
A549
100
AcDbEntity
 67
     1
  8
0
100
AcDbBlockBegin
  2
*PAPER_SPACE
 70
     0
 10
0.0
 20
0.0
 30
0.0
  3
*PAPER_SPACE
  1

  0
ENDBLK
  5
A54B
330
A549
100
AcDbEntity
 67
     1
  8
0
100
AcDbBlockEnd
  0
ENDSEC
  0
SECTION
  2
ENTITIES
  0
LINE
  5
A566
330
A54D
100
AcDbEntity
  8
1
  6
Continuous
100
AcDbLine
 10
21.245286
 20
186.4448659999999
 30
0.0
 11
21.245286
 21
106.4448659999999
 31
0.0
  0
LINE
  5
A567
330
A54D
100
AcDbEntity
  8
1
  6
Continuous
100
AcDbLine
 10
22.445286
 20
186.4448659999999
 30
0.0
 11
22.445286
 21
171.4448659999999
 31
0.0
  0
LINE
  5
A568
330
A54D
100
AcDbEntity
  8
1
  6
Continuous
100
AcDbLine
 10
21.245286
 20
186.4448659999999
 30
0.0
 11
23.64528599999999
 21
186.4448659999999
 31
0.0
  0
LINE
  5
A569
330
A54D
100
AcDbEntity
  8
1
  6
Continuous
100
AcDbLine
 10
21.245286
 20
106.4448659999999
 30
0.0
 11
23.64528599999999
 21
106.4448659999999
 31
0.0
  0
LINE
  5
A56A
330
A54D
100
AcDbEntity
  8
1
  6
Continuous
100
AcDbLine
 10
36.245286
 20
168.944866
 30
0.0
 11
36.245286
 21
123.9448659999999
 31
0.0
  0
LINE
  5
A56B
330
A54D
100
AcDbEntity
  8
1
  6
Continuous
100
AcDbLine
 10
21.245286
 20
171.4448659999999
 30
0.0
 11
33.745286
 21
171.4448659999999
 31
0.0
  0
LINE
  5
A56C
330
A54D
100
AcDbEntity
  8
1
  6
Continuous
100
AcDbLine
 10
21.245286
 20
121.4448659999999
 30
0.0
 11
33.745286
 21
121.4448659999999
 31
0.0
  0
ARC
  5
A56D
330
A54D
100
AcDbEntity
  8
1
  6
Continuous
100
AcDbCircle
 10
33.745286
 20
168.944866
 30
0.0
 40
2.5
100
AcDbArc
 50
0.0
 51
90.0
  0
ARC
  5
A56E
330
A54D
100
AcDbEntity
  8
1
  6
Continuous
100
AcDbCircle
 10
33.745286
 20
123.9448659999999
 30
0.0
 40
2.5
100
AcDbArc
 50
270.0
 51
0.0
  0
LINE
  5
A56F
330
A54D
100
AcDbEntity
  8
1
  6
Continuous
100
AcDbLine
 10
22.445286
 20
121.4448659999999
 30
0.0
 11
22.445286
 21
106.4448659999999
 31
0.0
  0
LINE
  5
A570
330
A54D
100
AcDbEntity
  8
1
  6
Continuous
100
AcDbLine
 10
21.245286
 20
156.094866
 30
0.0
 11
32.94528599999999
 21
156.094866
 31
0.0
  0
LINE
  5
A571
330
A54D
100
AcDbEntity
  8
1
  6
Continuous
100
AcDbLine
 10
21.245286
 20
136.7948659999999
 30
0.0
 11
32.94528599999999
 21
136.7948659999999
 31
0.0
  0
LINE
  5
A572
330
A54D
100
AcDbEntity
  8
1
  6
Continuous
100
AcDbLine
 10
22.445286
 20
156.094866
 30
0.0
 11
22.445286
 21
136.7948659999999
 31
0.0
  0
LINE
  5
A573
330
A54D
100
AcDbEntity
  8
1
  6
Continuous
100
AcDbLine
 10
259.722773
 20
168.944866
 30
0.0
 11
259.722773
 21
123.9448659999999
 31
0.0
  0
LINE
  5
A574
330
A54D
100
AcDbEntity
  8
1
  6
Continuous
100
AcDbLine
 10
274.722773
 20
186.4448659999999
 30
0.0
 11
274.722773
 21
106.4448659999999
 31
0.0
  0
LINE
  5
A575
330
A54D
100
AcDbEntity
  8
1
  6
Continuous
100
AcDbLine
 10
273.5227729999999
 20
121.4448659999999
 30
0.0
 11
273.5227729999999
 21
106.4448659999999
 31
0.0
  0
ARC
  5
A576
330
A54D
100
AcDbEntity
  8
1
  6
Continuous
100
AcDbCircle
 10
262.222773
 20
123.9448659999999
 30
0.0
 40
2.5
100
AcDbArc
 50
180.0
 51
270.0
  0
LINE
  5
A577
330
A54D
100
AcDbEntity
  8
1
  6
Continuous
100
AcDbLine
 10
274.722773
 20
106.4448659999999
 30
0.0
 11
272.322773
 21
106.4448659999999
 31
0.0
  0
LINE
  5
A578
330
A54D
100
AcDbEntity
  8
1
  6
Continuous
100
AcDbLine
 10
274.722773
 20
121.4448659999999
 30
0.0
 11
262.222773
 21
121.4448659999999
 31
0.0
  0
LINE
  5
A579
330
A54D
100
AcDbEntity
  8
4
  6
CENTER
100
AcDbLine
 10
285.020866
 20
146.4448659999999
 30
0.0
 11
227.306772
 21
146.4448659999999
 31
0.0
  0
LINE
  5
A57A
330
A54D
100
AcDbEntity
  8
1
  6
Continuous
100
AcDbLine
 10
274.722773
 20
171.4448659999999
 30
0.0
 11
262.222773
 21
171.4448659999999
 31
0.0
  0
LINE
  5
A57B
330
A54D
100
AcDbEntity
  8
1
  6
Continuous
100
AcDbLine
 10
273.5227729999999
 20
186.4448659999999
 30
0.0
 11
273.5227729999999
 21
171.4448659999999
 31
0.0
  0
LINE
  5
A57C
330
A54D
100
AcDbEntity
  8
1
  6
Continuous
100
AcDbLine
 10
274.722773
 20
186.4448659999999
 30
0.0
 11
272.322773
 21
186.4448659999999
 31
0.0
  0
ARC
  5
A57D
330
A54D
100
AcDbEntity
  8
1
  6
Continuous
100
AcDbCircle
 10
262.222773
 20
168.944866
 30
0.0
 40
2.5
100
AcDbArc
 50
90.0
 51
180.0
  0
LINE
  5
A57E
330
A54D
100
AcDbEntity
  8
4
  6
CENTER
100
AcDbLine
 10
267.222773
 20
168.6948659999998
 30
0.0
 11
267.222773
 21
160.1948659999998
 31
0.0
  0
LINE
  5
A57F
330
A54D
100
AcDbEntity
  8
4
  6
CENTER
100
AcDbLine
 10
271.472773
 20
164.4448659999999
 30
0.0
 11
262.972773
 21
164.4448659999999
 31
0.0
  0
LINE
  5
A580
330
A54D
100
AcDbEntity
  8
4
  6
CENTER
100
AcDbLine
 10
271.472773
 20
128.444866
 30
0.0
 11
262.972773
 21
128.444866
 31
0.0
  0
CIRCLE
  5
A581
330
A54D
100
AcDbEntity
  8
1
  6
Continuous
100
AcDbCircle
 10
267.222773
 20
128.444866
 30
0.0
 40
2.25
  0
CIRCLE
  5
A582
330
A54D
100
AcDbEntity
  8
1
  6
Continuous
100
AcDbCircle
 10
267.222773
 20
164.4448659999999
 30
0.0
 40
2.25
  0
LINE
  5
A583
330
A54D
100
AcDbEntity
  8
4
  6
CENTER
100
AcDbLine
 10
267.222773
 20
132.694866
 30
0.0
 11
267.222773
 21
124.194866
 31
0.0
  0
LINE
  5
A584
330
A54D
100
AcDbEntity
  8
4
  6
CENTER
100
AcDbLine
 10
186.5152959999998
 20
146.4448659999999
 30
0.0
 11
102.0152959999999
 21
146.4448659999999
 31
0.0
  0
LINE
  5
A585
330
A54D
100
AcDbEntity
  8
4
  6
CENTER
100
AcDbLine
 10
151.2152959999999
 20
108.644866
 30
0.0
 11
151.2152959999999
 21
118.2448659999999
 31
0.0
  0
LINE
  5
A586
330
A54D
100
AcDbEntity
  8
1
  6
Continuous
100
AcDbLine
 10
174.215296
 20
186.4448659999999
 30
0.0
 11
128.2152959999999
 21
186.4448659999999
 31
0.0
  0
LINE
  5
A587
330
A54D
100
AcDbEntity
  8
1
  6
Continuous
100
AcDbLine
 10
174.215296
 20
106.4448659999999
 30
0.0
 11
128.2152959999999
 21
106.4448659999999
 31
0.0
  0
LINE
  5
A588
330
A54D
100
AcDbEntity
  8
4
  6
CENTER
100
AcDbLine
 10
172.7152959999999
 20
179.444866
 30
0.0
 11
161.715296
 21
179.444866
 31
0.0
  0
LINE
  5
A589
330
A54D
100
AcDbEntity
  8
4
  6
CENTER
100
AcDbLine
 10
172.7152959999999
 20
113.4448659999999
 30
0.0
 11
161.715296
 21
113.4448659999999
 31
0.0
  0
CIRCLE
  5
A58A
330
A54D
100
AcDbEntity
  8
1
  6
Continuous
100
AcDbCircle
 10
151.2152959999999
 20
179.444866
 30
0.0
 40
2.799999999999998
  0
CIRCLE
  5
A58B
330
A54D
100
AcDbEntity
  8
1
  6
Continuous
100
AcDbCircle
 10
151.2152959999999
 20
113.4448659999999
 30
0.0
 40
2.799999999999998
  0
LINE
  5
A58C
330
A54D
100
AcDbEntity
  8
4
  6
CENTER
100
AcDbLine
 10
135.2152959999999
 20
107.9448659999999
 30
0.0
 11
135.2152959999999
 21
118.9448659999999
 31
0.0
  0
LINE
  5
A58D
330
A54D
100
AcDbEntity
  8
4
  6
CENTER
100
AcDbLine
 10
167.215296
 20
107.9448659999999
 30
0.0
 11
167.215296
 21
118.9448659999999
 31
0.0
  0
CIRCLE
  5
A58E
330
A54D
100
AcDbEntity
  8
1
  6
Continuous
100
AcDbCircle
 10
135.2152959999999
 20
113.4448659999999
 30
0.0
 40
3.5
  0
CIRCLE
  5
A58F
330
A54D
100
AcDbEntity
  8
1
  6
Continuous
100
AcDbCircle
 10
167.215296
 20
113.4448659999999
 30
0.0
 40
3.5
  0
CIRCLE
  5
A590
330
A54D
100
AcDbEntity
  8
1
  6
Continuous
100
AcDbCircle
 10
167.215296
 20
179.444866
 30
0.0
 40
3.5
  0
CIRCLE
  5
A591
330
A54D
100
AcDbEntity
  8
1
  6
Continuous
100
AcDbCircle
 10
135.2152959999999
 20
179.444866
 30
0.0
 40
3.5
  0
LINE
  5
A592
330
A54D
100
AcDbEntity
  8
4
  6
CENTER
100
AcDbLine
 10
167.215296
 20
173.9448659999999
 30
0.0
 11
167.215296
 21
184.944866
 31
0.0
  0
LINE
  5
A593
330
A54D
100
AcDbEntity
  8
4
  6
CENTER
100
AcDbLine
 10
135.2152959999999
 20
173.9448659999999
 30
0.0
 11
135.2152959999999
 21
184.944866
 31
0.0
  0
LINE
  5
A594
330
A54D
100
AcDbEntity
  8
4
  6
CENTER
100
AcDbLine
 10
140.7152959999999
 20
179.444866
 30
0.0
 11
129.715296
 21
179.444866
 31
0.0
  0
LINE
  5
A595
330
A54D
100
AcDbEntity
  8
4
  6
CENTER
100
AcDbLine
 10
156.015296
 20
179.444866
 30
0.0
 11
146.4152959999998
 21
179.444866
 31
0.0
  0
LINE
  5
A596
330
A54D
100
AcDbEntity
  8
4
  6
CENTER
100
AcDbLine
 10
140.7152959999999
 20
113.4448659999999
 30
0.0
 11
129.715296
 21
113.4448659999999
 31
0.0
  0
LINE
  5
A597
330
A54D
100
AcDbEntity
  8
4
  6
CENTER
100
AcDbLine
 10
156.015296
 20
113.4448659999999
 30
0.0
 11
146.4152959999998
 21
113.4448659999999
 31
0.0
  0
LINE
  5
A598
330
A54D
100
AcDbEntity
  8
4
  6
CENTER
100
AcDbLine
 10
151.2152959999999
 20
174.6448659999998
 30
0.0
 11
151.2152959999999
 21
184.244866
 31
0.0
  0
LINE
  5
A599
330
A54D
100
AcDbEntity
  8
1
  6
Continuous
100
AcDbLine
 10
180.2152959999999
 20
171.4448659999999
 30
0.0
 11
181.4152959999999
 21
171.4448659999999
 31
0.0
  0
LINE
  5
A59A
330
A54D
100
AcDbEntity
  8
1
  6
Continuous
100
AcDbLine
 10
180.2152959999999
 20
121.4448659999999
 30
0.0
 11
181.4152959999999
 21
121.4448659999999
 31
0.0
  0
ARC
  5
A59B
330
A54D
100
AcDbEntity
  8
1
  6
Continuous
100
AcDbCircle
 10
-340.2847039999999
 20
146.4448659999999
 30
0.0
 40
500.0
100
AcDbArc
 50
356.9404629999998
 51
3.059536999999998
  0
LINE
  5
A59C
330
A54D
100
AcDbEntity
  8
1
  6
Continuous
100
AcDbLine
 10
149.923
 20
176.444866
 30
0.0
 11
155.507591
 21
176.444866
 31
0.0
  0
LINE
  5
A59D
330
A54D
100
AcDbEntity
  8
1
  6
Continuous
100
AcDbLine
 10
149.923
 20
116.4448659999999
 30
0.0
 11
155.507591
 21
116.4448659999999
 31
0.0
  0
LINE
  5
A59E
330
A54D
100
AcDbEntity
  8
4
  6
CENTER
100
AcDbLine
 10
152.715296
 20
191.4448659999999
 30
0.0
 11
152.715296
 21
101.444866
 31
0.0
  0
LINE
  5
A59F
330
A54D
100
AcDbEntity
  8
1
  6
Continuous
100
AcDbLine
 10
157.2152959999999
 20
175.9999829999999
 30
0.0
 11
157.2152959999999
 21
116.889748
 31
0.0
  0
LINE
  5
A5A0
330
A54D
100
AcDbEntity
  8
1
  6
Continuous
100
AcDbLine
 10
148.215296
 20
175.9999829999999
 30
0.0
 11
148.215296
 21
116.889748
 31
0.0
  0
ARC
  5
A5A1
330
A54D
100
AcDbEntity
  8
1
  6
Continuous
100
AcDbCircle
 10
645.715296
 20
146.4448659999999
 30
0.0
 40
500.0
100
AcDbArc
 50
176.9404629999999
 51
183.059537
  0
LINE
  5
A5A2
330
A54D
100
AcDbEntity
  8
1
  6
Continuous
100
AcDbLine
 10
241.681179
 20
176.444866
 30
0.0
 11
242.7227729999999
 21
176.444866
 31
0.0
  0
LINE
  5
A5A3
330
A54D
100
AcDbEntity
  8
1
  6
Continuous
100
AcDbLine
 10
233.7227729999999
 20
161.4448659999998
 30
0.0
 11
233.7227729999999
 21
131.4448659999999
 31
0.0
  0
LINE
  5
A5A4
330
A54D
100
AcDbEntity
  8
1
  6
Continuous
100
AcDbLine
 10
245.722773
 20
173.4448659999999
 30
0.0
 11
245.722773
 21
172.966584
 31
0.0
  0
LINE
  5
A5A5
330
A54D
100
AcDbEntity
  8
1
  6
Continuous
100
AcDbLine
 10
241.222773
 20
161.4448659999998
 30
0.0
 11
241.222773
 21
156.444866
 31
0.0
  0
ARC
  5
A5A6
330
A54D
100
AcDbEntity
  8
1
  6
Continuous
100
AcDbCircle
 10
255.2227729999999
 20
161.4448659999998
 30
0.0
 40
14.0
100
AcDbArc
 50
137.3320749999998
 51
180.0
  0
ARC
  5
A5A7
330
A54D
100
AcDbEntity
  8
1
  6
Continuous
100
AcDbCircle
 10
253.722773
 20
161.4448659999998
 30
0.0
 40
20.0
100
AcDbArc
 50
135.099128
 51
180.0
  0
ARC
  5
A5A8
330
A54D
100
AcDbEntity
  8
1
  6
Continuous
100
AcDbCircle
 10
241.681179
 20
173.4448659999999
 30
0.0
 40
3.0
100
AcDbArc
 50
90.0
 51
135.099128
  0
ARC
  5
A5A9
330
A54D
100
AcDbEntity
  8
1
  6
Continuous
100
AcDbCircle
 10
242.7227729999999
 20
173.4448659999999
 30
0.0
 40
3.0
100
AcDbArc
 50
0.0
 51
90.0
  0
ARC
  5
A5AA
330
A54D
100
AcDbEntity
  8
1
  6
Continuous
100
AcDbCircle
 10
242.7227729999999
 20
172.966584
 30
0.0
 40
3.0
100
AcDbArc
 50
317.3320749999998
 51
0.0
  0
ARC
  5
A5AB
330
A54D
100
AcDbEntity
  8
1
  6
Continuous
100
AcDbCircle
 10
241.681179
 20
119.4448659999999
 30
0.0
 40
3.0
100
AcDbArc
 50
224.9008719999999
 51
270.0
  0
ARC
  5
A5AC
330
A54D
100
AcDbEntity
  8
1
  6
Continuous
100
AcDbCircle
 10
253.722773
 20
131.4448659999999
 30
0.0
 40
20.0
100
AcDbArc
 50
180.0
 51
224.9008719999999
  0
ARC
  5
A5AD
330
A54D
100
AcDbEntity
  8
1
  6
Continuous
100
AcDbCircle
 10
242.7227729999999
 20
119.9231469999999
 30
0.0
 40
3.0
100
AcDbArc
 50
0.0
 51
42.667925
  0
ARC
  5
A5AE
330
A54D
100
AcDbEntity
  8
1
  6
Continuous
100
AcDbCircle
 10
255.2227729999999
 20
131.4448659999999
 30
0.0
 40
14.0
100
AcDbArc
 50
180.0
 51
222.667925
  0
LINE
  5
A5AF
330
A54D
100
AcDbEntity
  8
1
  6
Continuous
100
AcDbLine
 10
245.722773
 20
119.4448659999999
 30
0.0
 11
245.722773
 21
119.9231469999999
 31
0.0
  0
ARC
  5
A5B0
330
A54D
100
AcDbEntity
  8
1
  6
Continuous
100
AcDbCircle
 10
242.7227729999999
 20
119.4448659999999
 30
0.0
 40
3.0
100
AcDbArc
 50
270.0
 51
0.0
  0
LINE
  5
A5B1
330
A54D
100
AcDbEntity
  8
1
  6
Continuous
100
AcDbLine
 10
241.681179
 20
116.4448659999999
 30
0.0
 11
242.7227729999999
 21
116.4448659999999
 31
0.0
  0
LINE
  5
A5B2
330
A54D
100
AcDbEntity
  8
1
  6
Continuous
100
AcDbLine
 10
257.722773
 20
153.4448659999999
 30
0.0
 11
257.722773
 21
139.4448659999999
 31
0.0
  0
LINE
  5
A5B3
330
A54D
100
AcDbEntity
  8
1
  6
Continuous
100
AcDbLine
 10
244.2227729999999
 20
153.4448659999999
 30
0.0
 11
257.722773
 21
153.4448659999999
 31
0.0
  0
LINE
  5
A5B4
330
A54D
100
AcDbEntity
  8
1
  6
Continuous
100
AcDbLine
 10
244.2227729999999
 20
139.4448659999999
 30
0.0
 11
257.722773
 21
139.4448659999999
 31
0.0
  0
LINE
  5
A5B5
330
A54D
100
AcDbEntity
  8
1
  6
Continuous
100
AcDbLine
 10
257.722773
 20
152.444866
 30
0.0
 11
259.722773
 21
152.444866
 31
0.0
  0
LINE
  5
A5B6
330
A54D
100
AcDbEntity
  8
1
  6
Continuous
100
AcDbLine
 10
257.722773
 20
140.4448659999999
 30
0.0
 11
259.722773
 21
140.4448659999999
 31
0.0
  0
LINE
  5
A5B7
330
A54D
100
AcDbEntity
  8
1
  6
Continuous
100
AcDbLine
 10
241.222773
 20
136.4448659999999
 30
0.0
 11
241.222773
 21
131.4448659999999
 31
0.0
  0
ARC
  5
A5B8
330
A54D
100
AcDbEntity
  8
1
  6
Continuous
100
AcDbCircle
 10
244.2227729999999
 20
156.444866
 30
0.0
 40
3.0
100
AcDbArc
 50
180.0
 51
270.0
  0
ARC
  5
A5B9
330
A54D
100
AcDbEntity
  8
1
  6
Continuous
100
AcDbCircle
 10
244.2227729999999
 20
136.4448659999999
 30
0.0
 40
3.0
100
AcDbArc
 50
90.0
 51
180.0
  0
LINE
  5
A5BA
330
A54D
100
AcDbEntity
  8
1
  6
Continuous
100
AcDbLine
 10
159.715296
 20
77.37121999999998
 30
0.0
 11
159.715296
 21
70.78543299999998
 31
0.0
  0
LINE
  5
A5BB
330
A54D
100
AcDbEntity
  8
1
  6
Continuous
100
AcDbLine
 10
145.7152959999999
 20
77.37121999999998
 30
0.0
 11
145.7152959999999
 21
70.78543299999998
 31
0.0
  0
LINE
  5
A5BC
330
A54D
100
AcDbEntity
  8
1
  6
Continuous
100
AcDbLine
 10
148.129509
 20
79.785433
 30
0.0
 11
157.301082
 21
79.785433
 31
0.0
  0
LINE
  5
A5BD
330
A54D
100
AcDbEntity
  8
1
  6
Continuous
100
AcDbLine
 10
146.0081889999998
 20
78.078327
 30
0.0
 11
147.422402
 21
79.49254
 31
0.0
  0
LINE
  5
A5BE
330
A54D
100
AcDbEntity
  8
1
  6
Continuous
100
AcDbLine
 10
158.0081889999999
 20
79.49254
 30
0.0
 11
159.422402
 21
78.078327
 31
0.0
  0
ARC
  5
A5BF
330
A54D
100
AcDbEntity
  8
1
  6
Continuous
100
AcDbCircle
 10
146.7152959999999
 20
77.37121999999998
 30
0.0
 40
1.0
100
AcDbArc
 50
135.0
 51
180.0
  0
ARC
  5
A5C0
330
A54D
100
AcDbEntity
  8
1
  6
Continuous
100
AcDbCircle
 10
148.129509
 20
78.785433
 30
0.0
 40
1.0
100
AcDbArc
 50
90.0
 51
135.0
  0
ARC
  5
A5C1
330
A54D
100
AcDbEntity
  8
1
  6
Continuous
100
AcDbCircle
 10
157.301082
 20
78.785433
 30
0.0
 40
1.0
100
AcDbArc
 50
45.0
 51
90.0
  0
ARC
  5
A5C2
330
A54D
100
AcDbEntity
  8
1
  6
Continuous
100
AcDbCircle
 10
158.715296
 20
77.37121999999998
 30
0.0
 40
1.0
100
AcDbArc
 50
0.0
 51
45.0
  0
LINE
  5
A5C3
330
A54D
100
AcDbEntity
  8
4
  6
CENTER
100
AcDbLine
 10
152.715296
 20
83.78440399999998
 30
0.0
 11
152.715296
 21
24.705644
 31
0.0
  0
LINE
  5
A5C4
330
A54D
100
AcDbEntity
  8
1
  6
Continuous
100
AcDbLine
 10
145.7152959999999
 20
70.78543299999998
 30
0.0
 11
145.7152959999999
 21
53.785433
 31
0.0
  0
LINE
  5
A5C5
330
A54D
100
AcDbEntity
  8
1
  6
Continuous
100
AcDbLine
 10
159.715296
 20
70.78543299999998
 30
0.0
 11
159.715296
 21
53.785433
 31
0.0
  0
LINE
  5
A5C6
330
A54D
100
AcDbEntity
  8
1
  6
Continuous
100
AcDbLine
 10
159.715296
 20
53.785433
 30
0.0
 11
145.7152959999999
 21
53.785433
 31
0.0
  0
LINE
  5
A5C7
330
A54D
100
AcDbEntity
  8
1
  6
Continuous
100
AcDbLine
 10
158.715296
 20
53.785433
 30
0.0
 11
158.715296
 21
51.78543300000001
 31
0.0
  0
LINE
  5
A5C8
330
A54D
100
AcDbEntity
  8
1
  6
Continuous
100
AcDbLine
 10
146.7152959999999
 20
53.785433
 30
0.0
 11
146.7152959999999
 21
51.78543300000001
 31
0.0
  0
ARC
  5
A5C9
330
A54D
100
AcDbEntity
  8
1
  6
Continuous
100
AcDbCircle
 10
149.923
 20
172.9448659999999
 30
0.0
 40
3.5
100
AcDbArc
 50
90.0
 51
176.9404629999999
  0
ARC
  5
A5CA
330
A54D
100
AcDbEntity
  8
1
  6
Continuous
100
AcDbCircle
 10
155.507591
 20
172.9448659999999
 30
0.0
 40
3.5
100
AcDbArc
 50
3.059536999999998
 51
90.0
  0
ARC
  5
A5CB
330
A54D
100
AcDbEntity
  8
1
  6
Continuous
100
AcDbCircle
 10
155.507591
 20
119.9448659999999
 30
0.0
 40
3.5
100
AcDbArc
 50
270.0
 51
356.9404629999998
  0
ARC
  5
A5CC
330
A54D
100
AcDbEntity
  8
1
  6
Continuous
100
AcDbCircle
 10
149.923
 20
119.9448659999999
 30
0.0
 40
3.5
100
AcDbArc
 50
183.059537
 51
270.0
  0
LINE
  5
A5CD
330
A54D
100
AcDbEntity
  8
1
  6
Continuous
100
AcDbLine
 10
120.9652959999999
 20
51.78543300000001
 30
0.0
 11
122.1652959999999
 21
51.78543300000001
 31
0.0
  0
LINE
  5
A5CE
330
A54D
100
AcDbEntity
  8
1
  6
Continuous
100
AcDbLine
 10
122.1652959999999
 20
36.78543299999999
 30
0.0
 11
180.2652959999998
 21
36.78543299999999
 31
0.0
  0
LINE
  5
A5CF
330
A54D
100
AcDbEntity
  8
1
  6
Continuous
100
AcDbLine
 10
180.2652959999998
 20
51.78543300000001
 30
0.0
 11
180.2652959999998
 21
36.78543299999999
 31
0.0
  0
LINE
  5
A5D0
330
A54D
100
AcDbEntity
  8
1
  6
Continuous
100
AcDbLine
 10
122.1652959999999
 20
51.78543300000001
 30
0.0
 11
122.1652959999999
 21
36.78543299999999
 31
0.0
  0
LINE
  5
A5D1
330
A54D
100
AcDbEntity
  8
1
  6
Continuous
100
AcDbLine
 10
181.5652959999999
 20
51.78543300000001
 30
0.0
 11
181.5652959999999
 21
37.985433
 31
0.0
  0
LINE
  5
A5D2
330
A54D
100
AcDbEntity
  8
1
  6
Continuous
100
AcDbLine
 10
120.9652959999999
 20
51.78543300000001
 30
0.0
 11
120.9652959999999
 21
37.985433
 31
0.0
  0
LINE
  5
A5D3
330
A54D
100
AcDbEntity
  8
1
  6
Continuous
100
AcDbLine
 10
122.1652959999999
 20
37.985433
 30
0.0
 11
180.2652959999998
 21
37.985433
 31
0.0
  0
ARC
  5
A5D4
330
A54D
100
AcDbEntity
  8
1
  6
Continuous
100
AcDbCircle
 10
122.1652959999999
 20
37.985433
 30
0.0
 40
1.199999999999999
100
AcDbArc
 50
180.0
 51
270.0
  0
ARC
  5
A5D5
330
A54D
100
AcDbEntity
  8
1
  6
Continuous
100
AcDbCircle
 10
180.187027
 20
38.17439199999999
 30
0.0
 40
1.391162
100
AcDbArc
 50
273.225256
 51
352.193524
  0
LINE
  5
A5D6
330
A54D
100
AcDbEntity
  8
1
  6
Continuous
100
AcDbLine
 10
180.2652959999998
 20
51.78543300000001
 30
0.0
 11
181.5652959999999
 21
51.78543300000001
 31
0.0
  0
LINE
  5
A5D7
330
A54D
100
AcDbEntity
  8
1
  6
Continuous
100
AcDbLine
 10
106.9652959999999
 20
137.9448659999999
 30
0.0
 11
106.9652959999999
 21
154.9448659999999
 31
0.0
  0
LINE
  5
A5D8
330
A54D
100
AcDbEntity
  8
1
  6
Continuous
100
AcDbLine
 10
120.9652959999999
 20
155.9448659999999
 30
0.0
 11
107.9652959999999
 21
155.9448659999999
 31
0.0
  0
LINE
  5
A5D9
330
A54D
100
AcDbEntity
  8
1
  6
Continuous
100
AcDbLine
 10
120.9652959999999
 20
136.9448659999999
 30
0.0
 11
107.9652959999999
 21
136.9448659999999
 31
0.0
  0
ARC
  5
A5DA
330
A54D
100
AcDbEntity
  8
1
  6
Continuous
100
AcDbCircle
 10
107.9652959999999
 20
154.9448659999999
 30
0.0
 40
1.0
100
AcDbArc
 50
90.0
 51
180.0
  0
ARC
  5
A5DB
330
A54D
100
AcDbEntity
  8
1
  6
Continuous
100
AcDbCircle
 10
107.9652959999999
 20
137.9448659999999
 30
0.0
 40
1.0
100
AcDbArc
 50
180.0
 51
270.0
  0
LINE
  5
A5DC
330
A54D
100
AcDbEntity
  8
1
  6
Continuous
100
AcDbLine
 10
62.245286
 20
131.4448659999999
 30
0.0
 11
62.245286
 21
161.4448659999998
 31
0.0
  0
ARC
  5
A5DD
330
A54D
100
AcDbEntity
  8
1
  6
Continuous
100
AcDbCircle
 10
51.745286
 20
156.444866
 30
0.0
 40
3.0
100
AcDbArc
 50
270.0
 51
0.0
  0
ARC
  5
A5DE
330
A54D
100
AcDbEntity
  8
1
  6
Continuous
100
AcDbCircle
 10
54.28688000000001
 20
173.4448659999999
 30
0.0
 40
3.0
100
AcDbArc
 50
44.900872
 51
90.0
  0
ARC
  5
A5DF
330
A54D
100
AcDbEntity
  8
1
  6
Continuous
100
AcDbCircle
 10
40.74528599999999
 20
161.4448659999998
 30
0.0
 40
14.0
100
AcDbArc
 50
0.0
 51
42.667925
  0
ARC
  5
A5E0
330
A54D
100
AcDbEntity
  8
1
  6
Continuous
100
AcDbCircle
 10
42.245286
 20
161.4448659999998
 30
0.0
 40
20.0
100
AcDbArc
 50
0.0
 51
44.900872
  0
LINE
  5
A5E1
330
A54D
100
AcDbEntity
  8
1
  6
Continuous
100
AcDbLine
 10
54.745286
 20
156.444866
 30
0.0
 11
54.745286
 21
161.4448659999998
 31
0.0
  0
ARC
  5
A5E2
330
A54D
100
AcDbEntity
  8
1
  6
Continuous
100
AcDbCircle
 10
53.245286
 20
172.966584
 30
0.0
 40
3.0
100
AcDbArc
 50
180.0
 51
222.667925
  0
LINE
  5
A5E3
330
A54D
100
AcDbEntity
  8
1
  6
Continuous
100
AcDbLine
 10
54.28688000000001
 20
176.444866
 30
0.0
 11
53.245286
 21
176.444866
 31
0.0
  0
ARC
  5
A5E4
330
A54D
100
AcDbEntity
  8
1
  6
Continuous
100
AcDbCircle
 10
53.245286
 20
173.4448659999999
 30
0.0
 40
3.0
100
AcDbArc
 50
90.0
 51
180.0
  0
LINE
  5
A5E5
330
A54D
100
AcDbEntity
  8
1
  6
Continuous
100
AcDbLine
 10
50.245286
 20
173.4448659999999
 30
0.0
 11
50.245286
 21
172.966584
 31
0.0
  0
ARC
  5
A5E6
330
A54D
100
AcDbEntity
  8
1
  6
Continuous
100
AcDbCircle
 10
54.28688000000001
 20
119.4448659999999
 30
0.0
 40
3.0
100
AcDbArc
 50
270.0
 51
315.0991279999999
  0
ARC
  5
A5E7
330
A54D
100
AcDbEntity
  8
1
  6
Continuous
100
AcDbCircle
 10
40.74528599999999
 20
131.4448659999999
 30
0.0
 40
14.0
100
AcDbArc
 50
317.3320749999998
 51
0.0
  0
ARC
  5
A5E8
330
A54D
100
AcDbEntity
  8
1
  6
Continuous
100
AcDbCircle
 10
51.745286
 20
136.4448659999999
 30
0.0
 40
3.0
100
AcDbArc
 50
0.0
 51
90.0
  0
ARC
  5
A5E9
330
A54D
100
AcDbEntity
  8
1
  6
Continuous
100
AcDbCircle
 10
42.245286
 20
131.4448659999999
 30
0.0
 40
20.0
100
AcDbArc
 50
315.0991279999999
 51
0.0
  0
LINE
  5
A5EA
330
A54D
100
AcDbEntity
  8
1
  6
Continuous
100
AcDbLine
 10
54.745286
 20
131.4448659999999
 30
0.0
 11
54.745286
 21
136.4448659999999
 31
0.0
  0
ARC
  5
A5EB
330
A54D
100
AcDbEntity
  8
1
  6
Continuous
100
AcDbCircle
 10
53.245286
 20
119.9231469999999
 30
0.0
 40
3.0
100
AcDbArc
 50
137.3320749999998
 51
180.0
  0
LINE
  5
A5EC
330
A54D
100
AcDbEntity
  8
1
  6
Continuous
100
AcDbLine
 10
50.245286
 20
119.4448659999999
 30
0.0
 11
50.245286
 21
119.9231469999999
 31
0.0
  0
ARC
  5
A5ED
330
A54D
100
AcDbEntity
  8
1
  6
Continuous
100
AcDbCircle
 10
53.245286
 20
119.4448659999999
 30
0.0
 40
3.0
100
AcDbArc
 50
180.0
 51
270.0
  0
LINE
  5
A5EE
330
A54D
100
AcDbEntity
  8
1
  6
Continuous
100
AcDbLine
 10
54.28688000000001
 20
116.4448659999999
 30
0.0
 11
53.245286
 21
116.4448659999999
 31
0.0
  0
LINE
  5
A5EF
330
A54D
100
AcDbEntity
  8
4
  6
CENTER
100
AcDbLine
 10
68.89980899999999
 20
146.4448659999999
 30
0.0
 11
7.480007999999998
 21
146.4448659999999
 31
0.0
  0
LINE
  5
A5F0
330
A54D
100
AcDbEntity
  8
1
  6
Continuous
100
AcDbLine
 10
51.745286
 20
153.4448659999999
 30
0.0
 11
38.245286
 21
153.4448659999999
 31
0.0
  0
LINE
  5
A5F1
330
A54D
100
AcDbEntity
  8
1
  6
Continuous
100
AcDbLine
 10
51.745286
 20
139.4448659999999
 30
0.0
 11
38.245286
 21
139.4448659999999
 31
0.0
  0
LINE
  5
A5F2
330
A54D
100
AcDbEntity
  8
1
  6
Continuous
100
AcDbLine
 10
38.245286
 20
139.4448659999999
 30
0.0
 11
38.245286
 21
153.4448659999999
 31
0.0
  0
LINE
  5
A5F3
330
A54D
100
AcDbEntity
  8
1
  6
Continuous
100
AcDbLine
 10
38.245286
 20
152.444866
 30
0.0
 11
36.245286
 21
152.444866
 31
0.0
  0
LINE
  5
A5F4
330
A54D
100
AcDbEntity
  8
1
  6
Continuous
100
AcDbLine
 10
38.245286
 20
140.4448659999999
 30
0.0
 11
36.245286
 21
140.4448659999999
 31
0.0
  0
LINE
  5
A5F5
330
A54D
100
AcDbEntity
  8
1
  6
Continuous
100
AcDbLine
 10
122.1652959999999
 20
51.78543300000001
 30
0.0
 11
180.2652959999998
 21
51.78543300000001
 31
0.0
  0
LINE
  5
A5F6
330
A54D
100
AcDbEntity
  8
1
  6
Continuous
100
AcDbLine
 10
108.2152959999999
 20
47.78543299999999
 30
0.0
 11
120.9652959999999
 21
47.78543299999999
 31
0.0
  0
ARC
  5
A5F7
330
A54D
100
AcDbEntity
  8
1
  6
Continuous
100
AcDbCircle
 10
118.215296
 20
47.78543299999999
 30
0.0
 40
10.0
100
AcDbArc
 50
180.0
 51
258.5216589999999
  0
LINE
  5
A5F8
330
A54D
100
AcDbEntity
  8
1
  6
Continuous
100
AcDbLine
 10
120.9652959999999
 20
37.985433
 30
0.0
 11
116.225321
 21
37.985433
 31
0.0
  0
LINE
  5
A5F9
330
A54D
100
AcDbEntity
  8
1
  6
Continuous
100
AcDbLine
 10
340.0717349999998
 20
145.7228659999999
 30
0.0
 11
340.677735
 21
146.005866
 31
0.0
  0
LINE
  5
A5FA
330
A54D
100
AcDbEntity
  8
1
  6
Continuous
100
AcDbLine
 10
340.677735
 20
146.005866
 30
0.0
 11
341.763735
 21
146.0248659999998
 31
0.0
  0
LINE
  5
A5FB
330
A54D
100
AcDbEntity
  8
1
  6
Continuous
100
AcDbLine
 10
340.677735
 20
146.8838659999998
 30
0.0
 11
341.763735
 21
146.8648659999998
 31
0.0
  0
LINE
  5
A5FC
330
A54D
100
AcDbEntity
  8
1
  6
Continuous
100
AcDbLine
 10
340.0717349999998
 20
147.1668659999999
 30
0.0
 11
340.677735
 21
146.8838659999998
 31
0.0
  0
LINE
  5
A5FD
330
A54D
100
AcDbEntity
  8
1
  6
Continuous
100
AcDbLine
 10
339.7887349999999
 20
147.7728659999999
 30
0.0
 11
339.769735
 21
148.8588659999998
 31
0.0
  0
LINE
  5
A5FE
330
A54D
100
AcDbEntity
  8
1
  6
Continuous
100
AcDbLine
 10
340.0717349999998
 20
147.1668659999999
 30
0.0
 11
339.7887349999999
 21
147.7728659999999
 31
0.0
  0
LINE
  5
A5FF
330
A54D
100
AcDbEntity
  8
1
  6
Continuous
100
AcDbLine
 10
338.6287349999999
 20
147.1668659999999
 30
0.0
 11
338.9107349999998
 21
147.7728659999999
 31
0.0
  0
LINE
  5
A600
330
A54D
100
AcDbEntity
  8
1
  6
Continuous
100
AcDbLine
 10
338.9107349999998
 20
147.7728659999999
 30
0.0
 11
338.929735
 21
148.8588659999998
 31
0.0
  0
LINE
  5
A601
330
A54D
100
AcDbEntity
  8
1
  6
Continuous
100
AcDbLine
 10
338.0217349999999
 20
146.8838659999998
 30
0.0
 11
336.935735
 21
146.8648659999998
 31
0.0
  0
LINE
  5
A602
330
A54D
100
AcDbEntity
  8
1
  6
Continuous
100
AcDbLine
 10
338.6287349999999
 20
147.1668659999999
 30
0.0
 11
338.0217349999999
 21
146.8838659999998
 31
0.0
  0
LINE
  5
A603
330
A54D
100
AcDbEntity
  8
1
  6
Continuous
100
AcDbLine
 10
338.6287349999999
 20
145.7228659999999
 30
0.0
 11
338.0217349999999
 21
146.005866
 31
0.0
  0
LINE
  5
A604
330
A54D
100
AcDbEntity
  8
1
  6
Continuous
100
AcDbLine
 10
338.0217349999999
 20
146.005866
 30
0.0
 11
336.935735
 21
146.0248659999998
 31
0.0
  0
LINE
  5
A605
330
A54D
100
AcDbEntity
  8
1
  6
Continuous
100
AcDbLine
 10
338.9107349999998
 20
145.1168659999999
 30
0.0
 11
338.929735
 21
144.030866
 31
0.0
  0
LINE
  5
A606
330
A54D
100
AcDbEntity
  8
1
  6
Continuous
100
AcDbLine
 10
338.6287349999999
 20
145.7228659999999
 30
0.0
 11
338.9107349999998
 21
145.1168659999999
 31
0.0
  0
LINE
  5
A607
330
A54D
100
AcDbEntity
  8
1
  6
Continuous
100
AcDbLine
 10
340.0717349999998
 20
145.7228659999999
 30
0.0
 11
339.7887349999999
 21
145.1168659999999
 31
0.0
  0
LINE
  5
A608
330
A54D
100
AcDbEntity
  8
1
  6
Continuous
100
AcDbLine
 10
339.7887349999999
 20
145.1168659999999
 30
0.0
 11
339.769735
 21
144.030866
 31
0.0
  0
LINE
  5
A609
330
A54D
100
AcDbEntity
  8
4
  6
CENTER
100
AcDbLine
 10
305.549735
 20
146.4448659999999
 30
0.0
 11
388.849735
 21
146.4448659999999
 31
0.0
  0
LINE
  5
A60A
330
A54D
100
AcDbEntity
  8
4
  6
CENTER
100
AcDbLine
 10
339.349735
 20
155.256029
 30
0.0
 11
339.349735
 21
136.898255
 31
0.0
  0
ARC
  5
A60B
330
A54D
100
AcDbEntity
  8
1
  6
Continuous
100
AcDbCircle
 10
339.349735
 20
146.4448659999999
 30
0.0
 40
2.45
100
AcDbArc
 50
350.129
 51
9.870889999999999
  0
ARC
  5
A60C
330
A54D
100
AcDbEntity
  8
1
  6
Continuous
100
AcDbCircle
 10
339.349735
 20
146.4448659999999
 30
0.0
 40
2.45
100
AcDbArc
 50
80.12909999999996
 51
99.87090000000002
  0
ARC
  5
A60D
330
A54D
100
AcDbEntity
  8
1
  6
Continuous
100
AcDbCircle
 10
339.349735
 20
146.4448659999999
 30
0.0
 40
2.45
100
AcDbArc
 50
170.129
 51
189.871
  0
ARC
  5
A60E
330
A54D
100
AcDbEntity
  8
1
  6
Continuous
100
AcDbCircle
 10
339.349735
 20
146.4448659999999
 30
0.0
 40
2.45
100
AcDbArc
 50
260.129
 51
279.8709999999999
  0
CIRCLE
  5
A60F
330
A54D
100
AcDbEntity
  8
1
  6
Continuous
100
AcDbCircle
 10
339.349735
 20
146.4448659999999
 30
0.0
 40
4.5
  0
LINE
  5
A610
330
A54D
100
AcDbEntity
  8
1
  6
Continuous
100
AcDbLine
 10
23.64528599999999
 20
186.4448659999999
 30
0.0
 11
23.64528599999999
 21
171.4448659999999
 31
0.0
  0
LINE
  5
A611
330
A54D
100
AcDbEntity
  8
1
  6
Continuous
100
AcDbLine
 10
23.64528599999999
 20
121.4448659999999
 30
0.0
 11
23.64528599999999
 21
106.4448659999999
 31
0.0
  0
LINE
  5
A612
330
A54D
100
AcDbEntity
  8
1
  6
Continuous
100
AcDbLine
 10
272.322773
 20
186.4448659999999
 30
0.0
 11
272.322773
 21
171.4448659999999
 31
0.0
  0
LINE
  5
A613
330
A54D
100
AcDbEntity
  8
1
  6
Continuous
100
AcDbLine
 10
272.322773
 20
121.4448659999999
 30
0.0
 11
272.322773
 21
106.4448659999999
 31
0.0
  0
LINE
  5
A614
330
A54D
100
AcDbEntity
  8
1
  6
Continuous
100
AcDbLine
 10
122.215296
 20
39.18543300000001
 30
0.0
 11
180.2152959999999
 21
39.18543300000001
 31
0.0
  0
LINE
  5
A615
330
A54D
100
AcDbEntity
  8
4
  6
CENTER
100
AcDbLine
 10
28.04520399999999
 20
179.444866
 30
0.0
 11
17.04520399999999
 21
179.444866
 31
0.0
  0
LINE
  5
A616
330
A54D
100
AcDbEntity
  8
4
  6
CENTER
100
AcDbLine
 10
28.04520399999999
 20
113.4448659999999
 30
0.0
 11
17.04520399999999
 21
113.4448659999999
 31
0.0
  0
LINE
  5
A617
330
A54D
100
AcDbEntity
  8
1
  6
Continuous
100
AcDbLine
 10
24.84528599999999
 20
182.9448659999999
 30
0.0
 11
24.84528599999999
 21
175.9448659999999
 31
0.0
  0
LINE
  5
A618
330
A54D
100
AcDbEntity
  8
1
  6
Continuous
100
AcDbLine
 10
24.84528599999999
 20
182.9448659999999
 30
0.0
 11
23.64528599999999
 21
182.9448659999999
 31
0.0
  0
LINE
  5
A619
330
A54D
100
AcDbEntity
  8
1
  6
Continuous
100
AcDbLine
 10
24.84528599999999
 20
175.9448659999999
 30
0.0
 11
23.64528599999999
 21
175.9448659999999
 31
0.0
  0
LINE
  5
A61A
330
A54D
100
AcDbEntity
  8
1
  6
Continuous
100
AcDbLine
 10
24.84528599999999
 20
109.9448659999999
 30
0.0
 11
24.84528599999999
 21
116.944866
 31
0.0
  0
LINE
  5
A61B
330
A54D
100
AcDbEntity
  8
1
  6
Continuous
100
AcDbLine
 10
24.84528599999999
 20
116.944866
 30
0.0
 11
23.64528599999999
 21
116.944866
 31
0.0
  0
LINE
  5
A61C
330
A54D
100
AcDbEntity
  8
1
  6
Continuous
100
AcDbLine
 10
24.84528599999999
 20
109.9448659999999
 30
0.0
 11
23.64528599999999
 21
109.9448659999999
 31
0.0
  0
LINE
  5
A61D
330
A54D
100
AcDbEntity
  8
1
  6
Continuous
100
AcDbLine
 10
271.122773
 20
182.9448659999999
 30
0.0
 11
271.122773
 21
175.9448659999999
 31
0.0
  0
LINE
  5
A61E
330
A54D
100
AcDbEntity
  8
1
  6
Continuous
100
AcDbLine
 10
271.122773
 20
175.9448659999999
 30
0.0
 11
272.322773
 21
175.9448659999999
 31
0.0
  0
LINE
  5
A61F
330
A54D
100
AcDbEntity
  8
1
  6
Continuous
100
AcDbLine
 10
271.122773
 20
182.9448659999999
 30
0.0
 11
272.322773
 21
182.9448659999999
 31
0.0
  0
LINE
  5
A620
330
A54D
100
AcDbEntity
  8
4
  6
CENTER
100
AcDbLine
 10
267.9228549999999
 20
179.444866
 30
0.0
 11
278.9228549999999
 21
179.444866
 31
0.0
  0
LINE
  5
A621
330
A54D
100
AcDbEntity
  8
1
  6
Continuous
100
AcDbLine
 10
271.122773
 20
109.9448659999999
 30
0.0
 11
271.122773
 21
116.944866
 31
0.0
  0
LINE
  5
A622
330
A54D
100
AcDbEntity
  8
1
  6
Continuous
100
AcDbLine
 10
271.122773
 20
109.9448659999999
 30
0.0
 11
272.322773
 21
109.9448659999999
 31
0.0
  0
LINE
  5
A623
330
A54D
100
AcDbEntity
  8
4
  6
CENTER
100
AcDbLine
 10
267.9228549999999
 20
113.4448659999999
 30
0.0
 11
278.9228549999999
 21
113.4448659999999
 31
0.0
  0
LINE
  5
A624
330
A54D
100
AcDbEntity
  8
1
  6
Continuous
100
AcDbLine
 10
271.122773
 20
116.944866
 30
0.0
 11
272.322773
 21
116.944866
 31
0.0
  0
ARC
  5
A625
330
A54D
100
AcDbEntity
  8
1
  6
Continuous
100
AcDbCircle
 10
157.301082
 20
216.212917
 30
0.0
 40
1.0
100
AcDbArc
 50
270.0
 51
315.0
  0
ARC
  5
A626
330
A54D
100
AcDbEntity
  8
1
  6
Continuous
100
AcDbCircle
 10
148.129509
 20
216.212917
 30
0.0
 40
1.0
100
AcDbArc
 50
225.0
 51
270.0
  0
LINE
  5
A627
330
A54D
100
AcDbEntity
  8
4
  6
CENTER
100
AcDbLine
 10
152.715296
 20
205.212917
 30
0.0
 11
152.715296
 21
270.620816
 31
0.0
  0
LINE
  5
A628
330
A54D
100
AcDbEntity
  8
1
  6
Continuous
100
AcDbLine
 10
122.215296
 20
255.8129169999999
 30
0.0
 11
180.2152959999999
 21
255.8129169999999
 31
0.0
  0
LINE
  5
A629
330
A54D
100
AcDbEntity
  8
1
  6
Continuous
100
AcDbLine
 10
122.1652959999999
 20
243.212917
 30
0.0
 11
181.5652959999999
 21
243.212917
 31
0.0
  0
LINE
  5
A62A
330
A54D
100
AcDbEntity
  8
1
  6
Continuous
100
AcDbLine
 10
122.1652959999999
 20
257.012917
 30
0.0
 11
180.2652959999998
 21
257.012917
 31
0.0
  0
LINE
  5
A62B
330
A54D
100
AcDbEntity
  8
1
  6
Continuous
100
AcDbLine
 10
122.1652959999999
 20
258.2129169999999
 30
0.0
 11
180.2652959999998
 21
258.2129169999999
 31
0.0
  0
LINE
  5
A62C
330
A54D
100
AcDbEntity
  8
1
  6
Continuous
100
AcDbLine
 10
120.9652959999999
 20
257.012917
 30
0.0
 11
116.225321
 21
257.012917
 31
0.0
  0
LINE
  5
A62D
330
A54D
100
AcDbEntity
  8
1
  6
Continuous
100
AcDbLine
 10
108.2152959999999
 20
247.212917
 30
0.0
 11
120.9652959999999
 21
247.212917
 31
0.0
  0
ARC
  5
A62E
330
A54D
100
AcDbEntity
  8
1
  6
Continuous
100
AcDbCircle
 10
118.215296
 20
247.212917
 30
0.0
 40
10.0
100
AcDbArc
 50
101.478341
 51
180.0
  0
LINE
  5
A62F
330
A54D
100
AcDbEntity
  8
1
  6
Continuous
100
AcDbLine
 10
120.9652959999999
 20
243.212917
 30
0.0
 11
120.9652959999999
 21
257.012917
 31
0.0
  0
LINE
  5
A630
330
A54D
100
AcDbEntity
  8
1
  6
Continuous
100
AcDbLine
 10
122.1652959999999
 20
243.212917
 30
0.0
 11
122.1652959999999
 21
258.2129169999999
 31
0.0
  0
ARC
  5
A631
330
A54D
100
AcDbEntity
  8
1
  6
Continuous
100
AcDbCircle
 10
122.1652959999999
 20
257.012917
 30
0.0
 40
1.199999999999999
100
AcDbArc
 50
90.0
 51
180.0
  0
LINE
  5
A632
330
A54D
100
AcDbEntity
  8
1
  6
Continuous
100
AcDbLine
 10
120.9652959999999
 20
243.212917
 30
0.0
 11
122.1652959999999
 21
243.212917
 31
0.0
  0
LINE
  5
A633
330
A54D
100
AcDbEntity
  8
1
  6
Continuous
100
AcDbLine
 10
158.715296
 20
241.212917
 30
0.0
 11
158.715296
 21
243.212917
 31
0.0
  0
LINE
  5
A634
330
A54D
100
AcDbEntity
  8
1
  6
Continuous
100
AcDbLine
 10
146.7152959999999
 20
241.212917
 30
0.0
 11
146.7152959999999
 21
243.212917
 31
0.0
  0
LINE
  5
A635
330
A54D
100
AcDbEntity
  8
1
  6
Continuous
100
AcDbLine
 10
159.715296
 20
241.212917
 30
0.0
 11
145.7152959999999
 21
241.212917
 31
0.0
  0
LINE
  5
A636
330
A54D
100
AcDbEntity
  8
1
  6
Continuous
100
AcDbLine
 10
145.7152959999999
 20
224.212917
 30
0.0
 11
145.7152959999999
 21
241.212917
 31
0.0
  0
LINE
  5
A637
330
A54D
100
AcDbEntity
  8
1
  6
Continuous
100
AcDbLine
 10
146.0081889999998
 20
216.920024
 30
0.0
 11
147.422402
 21
215.50581
 31
0.0
  0
LINE
  5
A638
330
A54D
100
AcDbEntity
  8
1
  6
Continuous
100
AcDbLine
 10
145.7152959999999
 20
217.627131
 30
0.0
 11
145.7152959999999
 21
224.212917
 31
0.0
  0
ARC
  5
A639
330
A54D
100
AcDbEntity
  8
1
  6
Continuous
100
AcDbCircle
 10
146.7152959999999
 20
217.627131
 30
0.0
 40
1.0
100
AcDbArc
 50
180.0
 51
225.0
  0
LINE
  5
A63A
330
A54D
100
AcDbEntity
  8
1
  6
Continuous
100
AcDbLine
 10
159.715296
 20
224.212917
 30
0.0
 11
159.715296
 21
241.212917
 31
0.0
  0
LINE
  5
A63B
330
A54D
100
AcDbEntity
  8
1
  6
Continuous
100
AcDbLine
 10
159.715296
 20
217.627131
 30
0.0
 11
159.715296
 21
224.212917
 31
0.0
  0
LINE
  5
A63C
330
A54D
100
AcDbEntity
  8
1
  6
Continuous
100
AcDbLine
 10
158.0081889999999
 20
215.50581
 30
0.0
 11
159.422402
 21
216.920024
 31
0.0
  0
ARC
  5
A63D
330
A54D
100
AcDbEntity
  8
1
  6
Continuous
100
AcDbCircle
 10
158.715296
 20
217.627131
 30
0.0
 40
1.0
100
AcDbArc
 50
315.0
 51
0.0
  0
LINE
  5
A63E
330
A54D
100
AcDbEntity
  8
1
  6
Continuous
100
AcDbLine
 10
181.5652959999999
 20
243.212917
 30
0.0
 11
181.5652959999999
 21
257.012917
 31
0.0
  0
LINE
  5
A63F
330
A54D
100
AcDbEntity
  8
1
  6
Continuous
100
AcDbLine
 10
180.2652959999998
 20
243.212917
 30
0.0
 11
180.2652959999998
 21
258.2129169999999
 31
0.0
  0
ARC
  5
A640
330
A54D
100
AcDbEntity
  8
1
  6
Continuous
100
AcDbCircle
 10
180.187027
 20
256.823959
 30
0.0
 40
1.391162
100
AcDbArc
 50
7.806475999999998
 51
86.77474399999999
  0
LINE
  5
A641
330
A54D
100
AcDbEntity
  8
1
  6
Continuous
100
AcDbLine
 10
180.2652959999998
 20
243.212917
 30
0.0
 11
181.465296
 21
243.212917
 31
0.0
  0
LINE
  5
A642
330
A54D
100
AcDbEntity
  8
1
  6
Continuous
100
AcDbLine
 10
148.129509
 20
215.212917
 30
0.0
 11
157.301082
 21
215.212917
 31
0.0
  0
LINE
  5
A643
330
A54D
100
AcDbEntity
  8
4
  6
CENTER
100
AcDbLine
 10
324.849735
 20
173.9448659999999
 30
0.0
 11
324.849735
 21
184.944866
 31
0.0
  0
CIRCLE
  5
A644
330
A54D
100
AcDbEntity
  8
1
  6
Continuous
100
AcDbCircle
 10
324.849735
 20
179.444866
 30
0.0
 40
3.5
  0
LINE
  5
A645
330
A54D
100
AcDbEntity
  8
4
  6
CENTER
100
AcDbLine
 10
340.849735
 20
174.6448659999998
 30
0.0
 11
340.849735
 21
184.244866
 31
0.0
  0
CIRCLE
  5
A646
330
A54D
100
AcDbEntity
  8
1
  6
Continuous
100
AcDbCircle
 10
340.849735
 20
179.444866
 30
0.0
 40
2.799999999999998
  0
LINE
  5
A647
330
A54D
100
AcDbEntity
  8
4
  6
CENTER
100
AcDbLine
 10
356.849735
 20
173.9448659999999
 30
0.0
 11
356.849735
 21
184.944866
 31
0.0
  0
CIRCLE
  5
A648
330
A54D
100
AcDbEntity
  8
1
  6
Continuous
100
AcDbCircle
 10
356.849735
 20
179.444866
 30
0.0
 40
3.5
  0
LINE
  5
A649
330
A54D
100
AcDbEntity
  8
4
  6
CENTER
100
AcDbLine
 10
351.349735
 20
113.4448659999999
 30
0.0
 11
362.349735
 21
113.4448659999999
 31
0.0
  0
CIRCLE
  5
A64A
330
A54D
100
AcDbEntity
  8
1
  6
Continuous
100
AcDbCircle
 10
356.849735
 20
113.4448659999999
 30
0.0
 40
3.5
  0
LINE
  5
A64B
330
A54D
100
AcDbEntity
  8
4
  6
CENTER
100
AcDbLine
 10
356.849735
 20
107.9448659999999
 30
0.0
 11
356.849735
 21
118.9448659999999
 31
0.0
  0
CIRCLE
  5
A64C
330
A54D
100
AcDbEntity
  8
1
  6
Continuous
100
AcDbCircle
 10
340.849735
 20
113.4448659999999
 30
0.0
 40
2.799999999999998
  0
LINE
  5
A64D
330
A54D
100
AcDbEntity
  8
4
  6
CENTER
100
AcDbLine
 10
340.849735
 20
108.644866
 30
0.0
 11
340.849735
 21
118.2448659999999
 31
0.0
  0
LINE
  5
A64E
330
A54D
100
AcDbEntity
  8
4
  6
CENTER
100
AcDbLine
 10
336.049735
 20
113.4448659999999
 30
0.0
 11
345.649735
 21
113.4448659999999
 31
0.0
  0
CIRCLE
  5
A64F
330
A54D
100
AcDbEntity
  8
1
  6
Continuous
100
AcDbCircle
 10
324.849735
 20
113.4448659999999
 30
0.0
 40
3.5
  0
LINE
  5
A650
330
A54D
100
AcDbEntity
  8
4
  6
CENTER
100
AcDbLine
 10
324.849735
 20
107.9448659999999
 30
0.0
 11
324.849735
 21
118.9448659999999
 31
0.0
  0
LINE
  5
A651
330
A54D
100
AcDbEntity
  8
4
  6
CENTER
100
AcDbLine
 10
319.349735
 20
113.4448659999999
 30
0.0
 11
330.349735
 21
113.4448659999999
 31
0.0
  0
LINE
  5
A652
330
A54D
100
AcDbEntity
  8
4
  6
CENTER
100
AcDbLine
 10
351.349735
 20
179.444866
 30
0.0
 11
362.349735
 21
179.444866
 31
0.0
  0
LINE
  5
A653
330
A54D
100
AcDbEntity
  8
4
  6
CENTER
100
AcDbLine
 10
336.049735
 20
179.444866
 30
0.0
 11
345.649735
 21
179.444866
 31
0.0
  0
LINE
  5
A654
330
A54D
100
AcDbEntity
  8
4
  6
CENTER
100
AcDbLine
 10
319.349735
 20
179.444866
 30
0.0
 11
330.349735
 21
179.444866
 31
0.0
  0
ARC
  5
A655
330
A54D
100
AcDbEntity
  8
1
  6
Continuous
100
AcDbCircle
 10
155.4932959999999
 20
261.834917
 30
0.0
 40
1.6
100
AcDbArc
 50
5.0
 51
74.506
  0
ARC
  5
A656
330
A54D
100
AcDbEntity
  8
1
  6
Continuous
100
AcDbCircle
 10
152.715296
 20
251.8129169999999
 30
0.0
 40
12.0
100
AcDbArc
 50
74.506
 51
105.4939999999999
  0
LINE
  5
A657
330
A54D
100
AcDbEntity
  8
1
  6
Continuous
100
AcDbLine
 10
148.343296
 20
261.9739169999999
 30
0.0
 11
148.215296
 21
260.512917
 31
0.0
  0
ARC
  5
A658
330
A54D
100
AcDbEntity
  8
1
  6
Continuous
100
AcDbCircle
 10
149.937296
 20
261.834917
 30
0.0
 40
1.6
100
AcDbArc
 50
105.4939999999999
 51
174.9999
  0
LINE
  5
A659
330
A54D
100
AcDbEntity
  8
1
  6
Continuous
100
AcDbLine
 10
157.087296
 20
261.9739169999999
 30
0.0
 11
157.2152959999999
 21
260.512917
 31
0.0
  0
LINE
  5
A65A
330
A54D
100
AcDbEntity
  8
1
  6
Continuous
100
AcDbLine
 10
120.9652959999999
 20
171.4448659999999
 30
0.0
 11
146.340687
 21
171.4448659999999
 31
0.0
  0
LINE
  5
A65B
330
A54D
100
AcDbEntity
  8
1
  6
Continuous
100
AcDbLine
 10
159.089904
 20
171.4448659999999
 30
0.0
 11
181.465296
 21
171.4448659999999
 31
0.0
  0
LINE
  5
A65C
330
A54D
100
AcDbEntity
  8
1
  6
Continuous
100
AcDbLine
 10
120.9652959999999
 20
121.4448659999999
 30
0.0
 11
146.340687
 21
121.4448659999999
 31
0.0
  0
LINE
  5
A65D
330
A54D
100
AcDbEntity
  8
1
  6
Continuous
100
AcDbLine
 10
159.089904
 20
121.4448659999999
 30
0.0
 11
181.465296
 21
121.4448659999999
 31
0.0
  0
LINE
  5
A65E
330
A54D
100
AcDbEntity
  8
1
  6
Continuous
100
AcDbLine
 10
32.94528599999999
 20
156.094866
 30
0.0
 11
32.94528599999999
 21
136.7948659999999
 31
0.0
  0
LINE
  5
A65F
330
A54D
100
AcDbEntity
  8
1
  6
Continuous
100
AcDbLine
 10
157.3152959999999
 20
260.512917
 30
0.0
 11
148.115296
 21
260.512917
 31
0.0
  0
LINE
  5
A660
330
A54D
100
AcDbEntity
  8
1
  6
Continuous
100
AcDbLine
 10
152.8912959999999
 20
260.512917
 30
0.0
 11
153.2392959999999
 21
259.212917
 31
0.0
  0
LINE
  5
A661
330
A54D
100
AcDbEntity
  8
1
  6
Continuous
100
AcDbLine
 10
152.1912959999999
 20
260.512917
 30
0.0
 11
152.539296
 21
259.212917
 31
0.0
  0
LINE
  5
A662
330
A54D
100
AcDbEntity
  8
1
  6
Continuous
100
AcDbLine
 10
157.3152959999999
 20
260.512917
 30
0.0
 11
157.3152959999999
 21
259.212917
 31
0.0
  0
LINE
  5
A663
330
A54D
100
AcDbEntity
  8
1
  6
Continuous
100
AcDbLine
 10
148.115296
 20
260.512917
 30
0.0
 11
148.115296
 21
259.212917
 31
0.0
  0
LINE
  5
A664
330
A54D
100
AcDbEntity
  8
1
  6
Continuous
100
AcDbLine
 10
158.715296
 20
259.212917
 30
0.0
 11
146.7152959999999
 21
259.212917
 31
0.0
  0
LINE
  5
A665
330
A54D
100
AcDbEntity
  8
1
  6
Continuous
100
AcDbLine
 10
146.7152959999999
 20
259.212917
 30
0.0
 11
146.7152959999999
 21
258.2129169999999
 31
0.0
  0
LINE
  5
A666
330
A54D
100
AcDbEntity
  8
1
  6
Continuous
100
AcDbLine
 10
158.715296
 20
259.212917
 30
0.0
 11
158.715296
 21
258.2129169999999
 31
0.0
  0
LINE
  5
A667
330
A54D
100
AcDbEntity
  8
1
  6
Continuous
100
AcDbLine
 10
158.715296
 20
35.78543299999999
 30
0.0
 11
146.7152959999999
 21
35.78543299999999
 31
0.0
  0
LINE
  5
A668
330
A54D
100
AcDbEntity
  8
1
  6
Continuous
100
AcDbLine
 10
153.2392959999999
 20
34.485433
 30
0.0
 11
152.8912959999999
 21
35.78543299999999
 31
0.0
  0
LINE
  5
A669
330
A54D
100
AcDbEntity
  8
1
  6
Continuous
100
AcDbLine
 10
157.3152959999999
 20
34.485433
 30
0.0
 11
148.115296
 21
34.485433
 31
0.0
  0
ARC
  5
A66A
330
A54D
100
AcDbEntity
  8
1
  6
Continuous
100
AcDbCircle
 10
152.715296
 20
43.185433
 30
0.0
 40
12.0
100
AcDbArc
 50
254.5059999999998
 51
285.494
  0
LINE
  5
A66B
330
A54D
100
AcDbEntity
  8
1
  6
Continuous
100
AcDbLine
 10
146.7152959999999
 20
35.78543299999999
 30
0.0
 11
146.7152959999999
 21
36.78543299999999
 31
0.0
  0
LINE
  5
A66C
330
A54D
100
AcDbEntity
  8
1
  6
Continuous
100
AcDbLine
 10
148.115296
 20
34.485433
 30
0.0
 11
148.115296
 21
35.78543299999999
 31
0.0
  0
LINE
  5
A66D
330
A54D
100
AcDbEntity
  8
1
  6
Continuous
100
AcDbLine
 10
148.343296
 20
33.024433
 30
0.0
 11
148.215296
 21
34.485433
 31
0.0
  0
ARC
  5
A66E
330
A54D
100
AcDbEntity
  8
1
  6
Continuous
100
AcDbCircle
 10
149.937296
 20
33.16343299999999
 30
0.0
 40
1.6
100
AcDbArc
 50
185.0001
 51
254.5059999999998
  0
LINE
  5
A66F
330
A54D
100
AcDbEntity
  8
1
  6
Continuous
100
AcDbLine
 10
158.715296
 20
35.78543299999999
 30
0.0
 11
158.715296
 21
36.78543299999999
 31
0.0
  0
LINE
  5
A670
330
A54D
100
AcDbEntity
  8
1
  6
Continuous
100
AcDbLine
 10
157.3152959999999
 20
34.485433
 30
0.0
 11
157.3152959999999
 21
35.78543299999999
 31
0.0
  0
LINE
  5
A671
330
A54D
100
AcDbEntity
  8
1
  6
Continuous
100
AcDbLine
 10
152.539296
 20
34.485433
 30
0.0
 11
152.1912959999999
 21
35.78543299999999
 31
0.0
  0
ARC
  5
A672
330
A54D
100
AcDbEntity
  8
1
  6
Continuous
100
AcDbCircle
 10
155.4932959999999
 20
33.16343299999999
 30
0.0
 40
1.6
100
AcDbArc
 50
285.494
 51
355.0
  0
LINE
  5
A673
330
A54D
100
AcDbEntity
  8
1
  6
Continuous
100
AcDbLine
 10
157.087296
 20
33.024433
 30
0.0
 11
157.2152959999999
 21
34.485433
 31
0.0
  0
LINE
  5
A674
330
A54D
100
AcDbEntity
  8
1
  6
Continuous
100
AcDbLine
 10
20.245286
 20
152.444866
 30
0.0
 11
20.245286
 21
140.4448659999999
 31
0.0
  0
LINE
  5
A675
330
A54D
100
AcDbEntity
  8
1
  6
Continuous
100
AcDbLine
 10
18.945286
 20
145.9208659999999
 30
0.0
 11
20.245286
 21
146.2688659999998
 31
0.0
  0
LINE
  5
A676
330
A54D
100
AcDbEntity
  8
1
  6
Continuous
100
AcDbLine
 10
18.945286
 20
141.8448659999999
 30
0.0
 11
18.945286
 21
151.0448659999999
 31
0.0
  0
ARC
  5
A677
330
A54D
100
AcDbEntity
  8
1
  6
Continuous
100
AcDbCircle
 10
27.645286
 20
146.4448659999999
 30
0.0
 40
12.0
100
AcDbArc
 50
164.5059999999998
 51
195.494
  0
LINE
  5
A678
330
A54D
100
AcDbEntity
  8
1
  6
Continuous
100
AcDbLine
 10
20.245286
 20
140.4448659999999
 30
0.0
 11
21.245286
 21
140.4448659999999
 31
0.0
  0
LINE
  5
A679
330
A54D
100
AcDbEntity
  8
1
  6
Continuous
100
AcDbLine
 10
18.945286
 20
141.8448659999999
 30
0.0
 11
20.245286
 21
141.8448659999999
 31
0.0
  0
LINE
  5
A67A
330
A54D
100
AcDbEntity
  8
1
  6
Continuous
100
AcDbLine
 10
17.48428599999999
 20
142.0728659999998
 30
0.0
 11
18.945286
 21
141.944866
 31
0.0
  0
ARC
  5
A67B
330
A54D
100
AcDbEntity
  8
1
  6
Continuous
100
AcDbCircle
 10
17.623286
 20
143.666866
 30
0.0
 40
1.6
100
AcDbArc
 50
195.494
 51
264.9999
  0
LINE
  5
A67C
330
A54D
100
AcDbEntity
  8
1
  6
Continuous
100
AcDbLine
 10
20.245286
 20
152.444866
 30
0.0
 11
21.245286
 21
152.444866
 31
0.0
  0
LINE
  5
A67D
330
A54D
100
AcDbEntity
  8
1
  6
Continuous
100
AcDbLine
 10
18.945286
 20
151.0448659999999
 30
0.0
 11
20.245286
 21
151.0448659999999
 31
0.0
  0
LINE
  5
A67E
330
A54D
100
AcDbEntity
  8
1
  6
Continuous
100
AcDbLine
 10
18.945286
 20
146.6208659999998
 30
0.0
 11
20.245286
 21
146.9688659999999
 31
0.0
  0
ARC
  5
A67F
330
A54D
100
AcDbEntity
  8
1
  6
Continuous
100
AcDbCircle
 10
17.623286
 20
149.2228659999998
 30
0.0
 40
1.6
100
AcDbArc
 50
95.0
 51
164.5059999999998
  0
LINE
  5
A680
330
A54D
100
AcDbEntity
  8
1
  6
Continuous
100
AcDbLine
 10
17.48428599999999
 20
150.816866
 30
0.0
 11
18.945286
 21
150.9448659999998
 31
0.0
  0
ARC
  5
A681
330
A54D
100
AcDbEntity
  8
1
  6
Continuous
100
AcDbCircle
 10
268.322773
 20
146.4448659999999
 30
0.0
 40
12.0
100
AcDbArc
 50
344.5059999999998
 51
15.494
  0
LINE
  5
A682
330
A54D
100
AcDbEntity
  8
1
  6
Continuous
100
AcDbLine
 10
277.0227729999999
 20
151.0448659999999
 30
0.0
 11
277.0227729999999
 21
141.8448659999999
 31
0.0
  0
LINE
  5
A683
330
A54D
100
AcDbEntity
  8
1
  6
Continuous
100
AcDbLine
 10
275.722773
 20
152.444866
 30
0.0
 11
275.722773
 21
140.4448659999999
 31
0.0
  0
LINE
  5
A684
330
A54D
100
AcDbEntity
  8
1
  6
Continuous
100
AcDbLine
 10
277.0227729999999
 20
146.2688659999998
 30
0.0
 11
275.722773
 21
145.9208659999999
 31
0.0
  0
LINE
  5
A685
330
A54D
100
AcDbEntity
  8
1
  6
Continuous
100
AcDbLine
 10
277.0227729999999
 20
141.8448659999999
 30
0.0
 11
275.722773
 21
141.8448659999999
 31
0.0
  0
LINE
  5
A686
330
A54D
100
AcDbEntity
  8
1
  6
Continuous
100
AcDbLine
 10
277.0227729999999
 20
146.9688659999999
 30
0.0
 11
275.722773
 21
146.6208659999998
 31
0.0
  0
ARC
  5
A687
330
A54D
100
AcDbEntity
  8
1
  6
Continuous
100
AcDbCircle
 10
278.3447729999999
 20
143.666866
 30
0.0
 40
1.6
100
AcDbArc
 50
275.0000999999999
 51
344.5059999999998
  0
LINE
  5
A688
330
A54D
100
AcDbEntity
  8
1
  6
Continuous
100
AcDbLine
 10
278.483773
 20
142.0728659999998
 30
0.0
 11
277.0227729999999
 21
141.944866
 31
0.0
  0
LINE
  5
A689
330
A54D
100
AcDbEntity
  8
1
  6
Continuous
100
AcDbLine
 10
275.722773
 20
140.4448659999999
 30
0.0
 11
274.722773
 21
140.4448659999999
 31
0.0
  0
LINE
  5
A68A
330
A54D
100
AcDbEntity
  8
1
  6
Continuous
100
AcDbLine
 10
277.0227729999999
 20
151.0448659999999
 30
0.0
 11
275.722773
 21
151.0448659999999
 31
0.0
  0
LINE
  5
A68B
330
A54D
100
AcDbEntity
  8
1
  6
Continuous
100
AcDbLine
 10
278.483773
 20
150.816866
 30
0.0
 11
277.0227729999999
 21
150.9448659999998
 31
0.0
  0
ARC
  5
A68C
330
A54D
100
AcDbEntity
  8
1
  6
Continuous
100
AcDbCircle
 10
278.3447729999999
 20
149.2228659999998
 30
0.0
 40
1.6
100
AcDbArc
 50
15.494
 51
85.0
  0
LINE
  5
A68D
330
A54D
100
AcDbEntity
  8
1
  6
Continuous
100
AcDbLine
 10
275.722773
 20
152.444866
 30
0.0
 11
274.722773
 21
152.444866
 31
0.0
  0
TEXT
  5
A68E
330
A54D
100
AcDbEntity
  8
7
  6
Continuous
100
AcDbText
 10
10.0
 20
26.0
 30
0.0
 40
3.0
  1
CODE No.3269
100
AcDbText
  0
TEXT
  5
A68F
330
A54D
100
AcDbEntity
  8
7
  6
Continuous
100
AcDbText
 10
10.0
 20
18.0
 30
0.0
 40
3.0
  1
TYPE No.THA-299-1
100
AcDbText
  0
TEXT
  5
A690
330
A54D
100
AcDbEntity
  8
1
  6
Continuous
100
AcDbText
 10
10.0
 20
10.0
 30
0.0
 40
1.399999999999999
  1
LAYER
100
AcDbText
  0
TEXT
  5
A691
330
A54D
100
AcDbEntity
  8
5
  6
PHANTOM
100
AcDbText
 10
25.97951099999999
 20
10.04873699999998
 30
0.0
 40
1.399999999999999
  1
5
100
AcDbText
  0
TEXT
  5
A692
330
A54D
100
AcDbEntity
  8
6
  6
Continuous
100
AcDbText
 10
27.979511
 20
10.04873699999998
 30
0.0
 40
1.399999999999999
  1
6
100
AcDbText
  0
TEXT
  5
A693
330
A54D
100
AcDbEntity
  8
2
  6
Continuous
100
AcDbText
 10
19.97951099999999
 20
10.04873699999998
 30
0.0
 40
1.399999999999999
  1
2
100
AcDbText
  0
TEXT
  5
A694
330
A54D
100
AcDbEntity
  8
3
  6
DASHED
100
AcDbText
 10
21.979511
 20
10.04873699999998
 30
0.0
 40
1.399999999999999
  1
3
100
AcDbText
  0
TEXT
  5
A695
330
A54D
100
AcDbEntity
  8
4
  6
CENTER
100
AcDbText
 10
23.97951099999999
 20
10.04873699999998
 30
0.0
 40
1.399999999999999
  1
4
100
AcDbText
  0
TEXT
  5
A696
330
A54D
100
AcDbEntity
  8
7
  6
Continuous
100
AcDbText
 10
29.97951099999999
 20
10.04873699999998
 30
0.0
 40
1.399999999999999
  1
7
100
AcDbText
  0
TEXT
  5
A697
330
A54D
100
AcDbEntity
  8
1
  6
Continuous
100
AcDbText
 10
17.97951099999998
 20
10.04873699999998
 30
0.0
 40
1.399999999999999
  1
1
100
AcDbText
  0
ARC
  5
A698
330
A54D
100
AcDbEntity
  8
5
  6
PHANTOM
100
AcDbCircle
 10
129.2152959999999
 20
47.78543299999999
 30
0.0
 40
10.0
100
AcDbArc
 50
180.0
 51
214.411509
  0
ARC
  5
A699
330
A54D
100
AcDbEntity
  8
5
  6
PHANTOM
100
AcDbCircle
 10
129.2152959999999
 20
247.212917
 30
0.0
 40
10.0
100
AcDbArc
 50
145.5884909999998
 51
180.0
  0
CIRCLE
  5
A69A
330
A54D
100
AcDbEntity
  8
1
  6
Continuous
100
AcDbCircle
 10
339.349735
 20
146.4448659999999
 30
0.0
 40
4.599999999999997
  0
CIRCLE
  5
A69B
330
A54D
100
AcDbEntity
  8
3
  6
DASHED
100
AcDbCircle
 10
340.849735
 20
179.444866
 30
0.0
 40
4.0
  0
CIRCLE
  5
A69C
330
A54D
100
AcDbEntity
  8
3
  6
DASHED
100
AcDbCircle
 10
340.849735
 20
113.4448659999999
 30
0.0
 40
4.0
  0
ARC
  5
A69D
330
A54D
100
AcDbEntity
  8
5
  6
PHANTOM
100
AcDbCircle
 10
435.4884789999998
 20
550.286824
 30
0.0
 40
500.0
100
AcDbArc
 50
231.940463
 51
238.059537
  0
LINE
  5
A69E
330
A54D
100
AcDbEntity
  8
5
  6
PHANTOM
100
AcDbLine
 10
125.9240659999999
 20
159.710801
 30
0.0
 11
174.344337
 21
125.806562
 31
0.0
  0
LINE
  5
A69F
330
A54D
100
AcDbEntity
  8
5
  6
PHANTOM
100
AcDbLine
 10
131.086254
 20
167.0831689999999
 30
0.0
 11
179.506525
 21
133.178931
 31
0.0
  0
LINE
  5
A6A0
330
A54D
100
AcDbEntity
  8
4
  6
CENTER
100
AcDbLine
 10
124.044974
 20
166.5200409999999
 30
0.0
 11
181.385617
 21
126.36969
 31
0.0
  0
ARC
  5
A6A1
330
A54D
100
AcDbEntity
  8
5
  6
PHANTOM
100
AcDbCircle
 10
-130.0578879999999
 20
-257.3970919999998
 30
0.0
 40
500.0
100
AcDbArc
 50
51.940463
 51
58.059537
  0
ARC
  5
A6A2
330
A54D
100
AcDbEntity
  8
5
  6
PHANTOM
100
AcDbCircle
 10
129.4061719999999
 20
159.357327
 30
0.0
 40
3.5
100
AcDbArc
 50
145.0
 51
231.940463
  0
ARC
  5
A6A3
330
A54D
100
AcDbEntity
  8
5
  6
PHANTOM
100
AcDbCircle
 10
132.609361
 20
163.931956
 30
0.0
 40
3.5
100
AcDbArc
 50
58.059537
 51
145.0
  0
LINE
  5
A6A4
330
A54D
100
AcDbEntity
  8
5
  6
PHANTOM
100
AcDbLine
 10
126.539139
 20
161.364844
 30
0.0
 11
129.742329
 21
165.9394729999999
 31
0.0
  0
ARC
  5
A6A5
330
A54D
100
AcDbEntity
  8
5
  6
PHANTOM
100
AcDbCircle
 10
172.82123
 20
128.957776
 30
0.0
 40
3.5
100
AcDbArc
 50
238.059537
 51
325.0
  0
ARC
  5
A6A6
330
A54D
100
AcDbEntity
  8
5
  6
PHANTOM
100
AcDbCircle
 10
176.0244189999999
 20
133.532404
 30
0.0
 40
3.5
100
AcDbArc
 50
325.0
 51
51.940463
  0
LINE
  5
A6A7
330
A54D
100
AcDbEntity
  8
5
  6
PHANTOM
100
AcDbLine
 10
175.688262
 20
126.950258
 30
0.0
 11
178.8914519999999
 21
131.524887
 31
0.0
  0
LINE
  5
A6A8
330
A54D
100
AcDbEntity
  8
5
  6
PHANTOM
100
AcDbLine
 10
179.506525
 20
159.710801
 30
0.0
 11
131.086254
 21
125.806562
 31
0.0
  0
ARC
  5
A6A9
330
A54D
100
AcDbEntity
  8
5
  6
PHANTOM
100
AcDbCircle
 10
-130.0578879999999
 20
550.286824
 30
0.0
 40
500.0
100
AcDbArc
 50
301.9404629999999
 51
308.0595369999999
  0
ARC
  5
A6AA
330
A54D
100
AcDbEntity
  8
5
  6
PHANTOM
100
AcDbCircle
 10
435.4884789999998
 20
-257.3970919999998
 30
0.0
 40
500.0
100
AcDbArc
 50
121.9404629999998
 51
128.059537
  0
LINE
  5
A6AB
330
A54D
100
AcDbEntity
  8
5
  6
PHANTOM
100
AcDbLine
 10
174.344337
 20
167.0831689999999
 30
0.0
 11
125.9240659999999
 21
133.178931
 31
0.0
  0
LINE
  5
A6AC
330
A54D
100
AcDbEntity
  8
4
  6
CENTER
100
AcDbLine
 10
181.385617
 20
166.5200409999999
 30
0.0
 11
124.044974
 21
126.36969
 31
0.0
  0
ARC
  5
A6AD
330
A54D
100
AcDbEntity
  8
5
  6
PHANTOM
100
AcDbCircle
 10
176.0244189999999
 20
159.357327
 30
0.0
 40
3.5
100
AcDbArc
 50
308.0595369999999
 51
35.0
  0
ARC
  5
A6AE
330
A54D
100
AcDbEntity
  8
5
  6
PHANTOM
100
AcDbCircle
 10
172.82123
 20
163.931956
 30
0.0
 40
3.5
100
AcDbArc
 50
35.0
 51
121.9404629999998
  0
LINE
  5
A6AF
330
A54D
100
AcDbEntity
  8
5
  6
PHANTOM
100
AcDbLine
 10
178.8914519999999
 20
161.364844
 30
0.0
 11
175.688262
 21
165.9394729999999
 31
0.0
  0
ARC
  5
A6B0
330
A54D
100
AcDbEntity
  8
5
  6
PHANTOM
100
AcDbCircle
 10
129.4061719999999
 20
133.532404
 30
0.0
 40
3.5
100
AcDbArc
 50
128.059537
 51
214.9999999999999
  0
ARC
  5
A6B1
330
A54D
100
AcDbEntity
  8
5
  6
PHANTOM
100
AcDbCircle
 10
132.609361
 20
128.957776
 30
0.0
 40
3.5
100
AcDbArc
 50
214.9999999999999
 51
301.9404629999999
  0
LINE
  5
A6B2
330
A54D
100
AcDbEntity
  8
5
  6
PHANTOM
100
AcDbLine
 10
129.742329
 20
126.950258
 30
0.0
 11
126.539139
 21
131.524887
 31
0.0
  0
ARC
  5
A6B3
330
A54D
100
AcDbEntity
  8
1
  6
Continuous
100
AcDbCircle
 10
253.722773
 20
161.4448659999998
 30
0.0
 40
18.0
100
AcDbArc
 50
135.099128
 51
180.0
  0
LINE
  5
A6B4
330
A54D
100
AcDbEntity
  8
1
  6
Continuous
100
AcDbLine
 10
235.7227729999999
 20
161.4448659999998
 30
0.0
 11
235.7227729999999
 21
131.4448659999999
 31
0.0
  0
ARC
  5
A6B5
330
A54D
100
AcDbEntity
  8
1
  6
Continuous
100
AcDbCircle
 10
253.722773
 20
131.4448659999999
 30
0.0
 40
18.0
100
AcDbArc
 50
180.0
 51
224.9008719999999
  0
ARC
  5
A6B6
330
A54D
100
AcDbEntity
  8
1
  6
Continuous
100
AcDbCircle
 10
253.722773
 20
161.4448659999998
 30
0.0
 40
16.0
100
AcDbArc
 50
135.099128
 51
180.0
  0
LINE
  5
A6B7
330
A54D
100
AcDbEntity
  8
1
  6
Continuous
100
AcDbLine
 10
237.7227729999999
 20
161.4448659999998
 30
0.0
 11
237.7227729999999
 21
131.4448659999999
 31
0.0
  0
ARC
  5
A6B8
330
A54D
100
AcDbEntity
  8
1
  6
Continuous
100
AcDbCircle
 10
253.722773
 20
131.4448659999999
 30
0.0
 40
16.0
100
AcDbArc
 50
180.0
 51
224.9008719999999
  0
LINE
  5
A6B9
330
A54D
100
AcDbEntity
  8
1
  6
Continuous
100
AcDbLine
 10
241.394346
 20
153.6164389999999
 30
0.0
 11
239.9801319999999
 21
152.202225
 31
0.0
  0
LINE
  5
A6BA
330
A54D
100
AcDbEntity
  8
1
  6
Continuous
100
AcDbLine
 10
241.394346
 20
139.2732929999999
 30
0.0
 11
239.9801319999999
 21
140.687506
 31
0.0
  0
LINE
  5
A6BB
330
A54D
100
AcDbEntity
  8
1
  6
Continuous
100
AcDbLine
 10
58.245286
 20
161.4448659999998
 30
0.0
 11
58.245286
 21
131.4448659999999
 31
0.0
  0
LINE
  5
A6BC
330
A54D
100
AcDbEntity
  8
1
  6
Continuous
100
AcDbLine
 10
60.245286
 20
161.4448659999998
 30
0.0
 11
60.245286
 21
131.4448659999999
 31
0.0
  0
ARC
  5
A6BD
330
A54D
100
AcDbEntity
  8
1
  6
Continuous
100
AcDbCircle
 10
42.245286
 20
131.4448659999999
 30
0.0
 40
18.0
100
AcDbArc
 50
315.0991279999999
 51
0.0
  0
ARC
  5
A6BE
330
A54D
100
AcDbEntity
  8
1
  6
Continuous
100
AcDbCircle
 10
42.245286
 20
131.4448659999999
 30
0.0
 40
16.0
100
AcDbArc
 50
315.0991279999999
 51
0.0
  0
LINE
  5
A6BF
330
A54D
100
AcDbEntity
  8
1
  6
Continuous
100
AcDbLine
 10
54.573713
 20
139.2732929999999
 30
0.0
 11
55.987926
 21
140.687506
 31
0.0
  0
LINE
  5
A6C0
330
A54D
100
AcDbEntity
  8
1
  6
Continuous
100
AcDbLine
 10
54.573713
 20
153.6164389999999
 30
0.0
 11
55.987926
 21
152.202225
 31
0.0
  0
ARC
  5
A6C1
330
A54D
100
AcDbEntity
  8
1
  6
Continuous
100
AcDbCircle
 10
42.245286
 20
161.4448659999998
 30
0.0
 40
16.0
100
AcDbArc
 50
0.0
 51
44.900872
  0
ARC
  5
A6C2
330
A54D
100
AcDbEntity
  8
1
  6
Continuous
100
AcDbCircle
 10
42.245286
 20
161.4448659999998
 30
0.0
 40
18.0
100
AcDbArc
 50
0.0
 51
44.900872
  0
LINE
  5
A6C3
330
A54D
100
AcDbEntity
  8
4
  6
CENTER
100
AcDbLine
 10
184.9796649999999
 20
164.4448659999999
 30
0.0
 11
176.4796649999999
 21
164.4448659999999
 31
0.0
  0
LINE
  5
A6C4
330
A54D
100
AcDbEntity
  8
4
  6
CENTER
100
AcDbLine
 10
184.9796649999999
 20
128.444866
 30
0.0
 11
176.4796649999999
 21
128.444866
 31
0.0
  0
LINE
  5
A6C5
330
A54D
100
AcDbEntity
  8
4
  6
CENTER
100
AcDbLine
 10
135.2152959999999
 20
249.946811
 30
0.0
 11
135.2152959999999
 21
260.9468109999999
 31
0.0
  0
LINE
  5
A6C6
330
A54D
100
AcDbEntity
  8
4
  6
CENTER
100
AcDbLine
 10
151.2152959999999
 20
250.6468109999999
 30
0.0
 11
151.2152959999999
 21
260.2468109999999
 31
0.0
  0
LINE
  5
A6C7
330
A54D
100
AcDbEntity
  8
4
  6
CENTER
100
AcDbLine
 10
167.215296
 20
249.946811
 30
0.0
 11
167.215296
 21
260.9468109999999
 31
0.0
  0
LINE
  5
A6C8
330
A54D
100
AcDbEntity
  8
4
  6
CENTER
100
AcDbLine
 10
167.215296
 20
31.643182
 30
0.0
 11
167.215296
 21
42.643182
 31
0.0
  0
LINE
  5
A6C9
330
A54D
100
AcDbEntity
  8
4
  6
CENTER
100
AcDbLine
 10
151.2152959999999
 20
32.343182
 30
0.0
 11
151.2152959999999
 21
41.943182
 31
0.0
  0
LINE
  5
A6CA
330
A54D
100
AcDbEntity
  8
4
  6
CENTER
100
AcDbLine
 10
135.2152959999999
 20
31.643182
 30
0.0
 11
135.2152959999999
 21
42.643182
 31
0.0
  0
LINE
  5
A6CB
330
A54D
100
AcDbEntity
  8
1
  6
Continuous
100
AcDbLine
 10
122.215296
 20
180.444866
 30
0.0
 11
122.215296
 21
112.4448659999999
 31
0.0
  0
LINE
  5
A6CC
330
A54D
100
AcDbEntity
  8
1
  6
Continuous
100
AcDbLine
 10
180.2152959999999
 20
180.444866
 30
0.0
 11
180.2152959999999
 21
112.4448659999999
 31
0.0
  0
ARC
  5
A6CD
330
A54D
100
AcDbEntity
  8
1
  6
Continuous
100
AcDbCircle
 10
128.2152959999999
 20
180.444866
 30
0.0
 40
6.0
100
AcDbArc
 50
90.0
 51
180.0
  0
ARC
  5
A6CE
330
A54D
100
AcDbEntity
  8
1
  6
Continuous
100
AcDbCircle
 10
128.2152959999999
 20
112.4448659999999
 30
0.0
 40
6.0
100
AcDbArc
 50
180.0
 51
270.0
  0
ARC
  5
A6CF
330
A54D
100
AcDbEntity
  8
1
  6
Continuous
100
AcDbCircle
 10
174.215296
 20
112.4448659999999
 30
0.0
 40
6.0
100
AcDbArc
 50
270.0
 51
0.0
  0
ARC
  5
A6D0
330
A54D
100
AcDbEntity
  8
1
  6
Continuous
100
AcDbCircle
 10
174.215296
 20
180.444866
 30
0.0
 40
6.0
100
AcDbArc
 50
0.0
 51
90.0
  0
LINE
  5
A6D1
330
A54D
100
AcDbEntity
  8
1
  6
Continuous
100
AcDbLine
 10
122.1652959999999
 20
171.4448659999999
 30
0.0
 11
122.1652959999999
 21
121.4448659999999
 31
0.0
  0
LINE
  5
A6D2
330
A54D
100
AcDbEntity
  8
1
  6
Continuous
100
AcDbLine
 10
180.2652959999998
 20
171.4448659999999
 30
0.0
 11
180.2652959999998
 21
121.4448659999999
 31
0.0
  0
LINE
  5
A6D3
330
A54D
100
AcDbEntity
  8
1
  6
Continuous
100
AcDbLine
 10
181.465296
 20
171.4448659999999
 30
0.0
 11
181.465296
 21
121.4448659999999
 31
0.0
  0
LINE
  5
A6D4
330
A54D
100
AcDbEntity
  8
1
  6
Continuous
100
AcDbLine
 10
120.9652959999999
 20
171.4448659999999
 30
0.0
 11
120.9652959999999
 21
121.4448659999999
 31
0.0
  0
LINE
  5
A6D5
330
A54D
100
AcDbEntity
  8
1
  6
Continuous
100
AcDbLine
 10
317.849735
 20
106.4448659999999
 30
0.0
 11
363.849735
 21
106.4448659999999
 31
0.0
  0
ARC
  5
A6D6
330
A54D
100
AcDbEntity
  8
1
  6
Continuous
100
AcDbCircle
 10
317.849735
 20
112.4448659999999
 30
0.0
 40
6.0
100
AcDbArc
 50
180.0
 51
270.0
  0
LINE
  5
A6D7
330
A54D
100
AcDbEntity
  8
1
  6
Continuous
100
AcDbLine
 10
311.849735
 20
112.4448659999999
 30
0.0
 11
311.849735
 21
121.4448659999999
 31
0.0
  0
LINE
  5
A6D8
330
A54D
100
AcDbEntity
  8
1
  6
Continuous
100
AcDbLine
 10
310.5997349999999
 20
121.4448659999999
 30
0.0
 11
310.5997349999999
 21
171.4448659999999
 31
0.0
  0
LINE
  5
A6D9
330
A54D
100
AcDbEntity
  8
1
  6
Continuous
100
AcDbLine
 10
311.849735
 20
121.4448659999999
 30
0.0
 11
310.5997349999999
 21
121.4448659999999
 31
0.0
  0
LINE
  5
A6DA
330
A54D
100
AcDbEntity
  8
1
  6
Continuous
100
AcDbLine
 10
311.849735
 20
171.4448659999999
 30
0.0
 11
310.5997349999999
 21
171.4448659999999
 31
0.0
  0
LINE
  5
A6DB
330
A54D
100
AcDbEntity
  8
1
  6
Continuous
100
AcDbLine
 10
317.849735
 20
186.4448659999999
 30
0.0
 11
363.849735
 21
186.4448659999999
 31
0.0
  0
ARC
  5
A6DC
330
A54D
100
AcDbEntity
  8
1
  6
Continuous
100
AcDbCircle
 10
317.849735
 20
180.444866
 30
0.0
 40
6.0
100
AcDbArc
 50
90.0
 51
180.0
  0
ARC
  5
A6DD
330
A54D
100
AcDbEntity
  8
1
  6
Continuous
100
AcDbCircle
 10
363.849735
 20
180.444866
 30
0.0
 40
6.0
100
AcDbArc
 50
0.0
 51
90.0
  0
LINE
  5
A6DE
330
A54D
100
AcDbEntity
  8
1
  6
Continuous
100
AcDbLine
 10
369.849735
 20
112.4448659999999
 30
0.0
 11
369.849735
 21
121.4448659999999
 31
0.0
  0
LINE
  5
A6DF
330
A54D
100
AcDbEntity
  8
1
  6
Continuous
100
AcDbLine
 10
371.0997349999999
 20
121.4448659999999
 30
0.0
 11
371.0997349999999
 21
171.4448659999999
 31
0.0
  0
LINE
  5
A6E0
330
A54D
100
AcDbEntity
  8
1
  6
Continuous
100
AcDbLine
 10
371.0997349999999
 20
171.4448659999999
 30
0.0
 11
369.849735
 21
171.4448659999999
 31
0.0
  0
LINE
  5
A6E1
330
A54D
100
AcDbEntity
  8
1
  6
Continuous
100
AcDbLine
 10
371.0997349999999
 20
121.4448659999999
 30
0.0
 11
369.849735
 21
121.4448659999999
 31
0.0
  0
ARC
  5
A6E2
330
A54D
100
AcDbEntity
  8
1
  6
Continuous
100
AcDbCircle
 10
363.849735
 20
112.4448659999999
 30
0.0
 40
6.0
100
AcDbArc
 50
270.0
 51
0.0
  0
LINE
  5
A6E3
330
A54D
100
AcDbEntity
  8
1
  6
Continuous
100
AcDbLine
 10
385.099735
 20
154.9448659999999
 30
0.0
 11
385.099735
 21
137.9448659999999
 31
0.0
  0
ARC
  5
A6E4
330
A54D
100
AcDbEntity
  8
1
  6
Continuous
100
AcDbCircle
 10
384.099735
 20
137.9448659999999
 30
0.0
 40
1.0
100
AcDbArc
 50
270.0
 51
0.0
  0
LINE
  5
A6E5
330
A54D
100
AcDbEntity
  8
1
  6
Continuous
100
AcDbLine
 10
371.0997349999999
 20
136.9448659999999
 30
0.0
 11
384.099735
 21
136.9448659999999
 31
0.0
  0
ARC
  5
A6E6
330
A54D
100
AcDbEntity
  8
1
  6
Continuous
100
AcDbCircle
 10
384.099735
 20
154.9448659999999
 30
0.0
 40
1.0
100
AcDbArc
 50
0.0
 51
90.0
  0
LINE
  5
A6E7
330
A54D
100
AcDbEntity
  8
1
  6
Continuous
100
AcDbLine
 10
371.0997349999999
 20
155.9448659999999
 30
0.0
 11
384.099735
 21
155.9448659999999
 31
0.0
  0
LINE
  5
A6E8
330
A54D
100
AcDbEntity
  8
1
  6
Continuous
100
AcDbLine
 10
122.215296
 20
243.212917
 30
0.0
 11
122.215296
 21
257.012917
 31
0.0
  0
LINE
  5
A6E9
330
A54D
100
AcDbEntity
  8
1
  6
Continuous
100
AcDbLine
 10
180.2152959999999
 20
243.212917
 30
0.0
 11
180.2152959999999
 21
257.012917
 31
0.0
  0
LINE
  5
A6EA
330
A54D
100
AcDbEntity
  8
1
  6
Continuous
100
AcDbLine
 10
122.215296
 20
51.78543300000001
 30
0.0
 11
122.215296
 21
37.985433
 31
0.0
  0
LINE
  5
A6EB
330
A54D
100
AcDbEntity
  8
1
  6
Continuous
100
AcDbLine
 10
180.2152959999999
 20
51.78543300000001
 30
0.0
 11
180.2152959999999
 21
37.985433
 31
0.0
  0
LINE
  5
A6EC
330
A54D
100
AcDbEntity
  8
1
  6
Continuous
100
AcDbLine
 10
32.245286
 20
155.0948659999999
 30
0.0
 11
32.245286
 21
137.7948659999999
 31
0.0
  0
ARC
  5
A6ED
330
A54D
100
AcDbEntity
  8
1
  6
Continuous
100
AcDbCircle
 10
31.245286
 20
155.0948659999999
 30
0.0
 40
1.0
100
AcDbArc
 50
0.0
 51
90.0
  0
ARC
  5
A6EE
330
A54D
100
AcDbEntity
  8
1
  6
Continuous
100
AcDbCircle
 10
31.245286
 20
137.7948659999999
 30
0.0
 40
1.0
100
AcDbArc
 50
270.0
 51
0.0
  0
LINE
  5
A6EF
330
A54D
100
AcDbEntity
  8
4
  6
CENTER
100
AcDbLine
 10
315.823152
 20
164.4448659999999
 30
0.0
 11
307.323152
 21
164.4448659999999
 31
0.0
  0
LINE
  5
A6F0
330
A54D
100
AcDbEntity
  8
4
  6
CENTER
100
AcDbLine
 10
315.823152
 20
128.444866
 30
0.0
 11
307.323152
 21
128.444866
 31
0.0
  0
LINE
  5
A6F1
330
A54D
100
AcDbEntity
  8
1
  6
Continuous
100
AcDbLine
 10
148.7152959999999
 20
67.78543299999999
 30
0.0
 11
156.715296
 21
67.78543299999999
 31
0.0
  0
LINE
  5
A6F2
330
A54D
100
AcDbEntity
  8
1
  6
Continuous
100
AcDbLine
 10
150.829736
 20
69.923443
 30
0.0
 11
154.578036
 21
69.923443
 31
0.0
  0
LINE
  5
A6F3
330
A54D
100
AcDbEntity
  8
1
  6
Continuous
100
AcDbLine
 10
150.978326
 20
73.014193
 30
0.0
 11
154.540906
 21
73.014193
 31
0.0
  0
LINE
  5
A6F4
330
A54D
100
AcDbEntity
  8
1
  6
Continuous
100
AcDbLine
 10
148.215296
 20
79.785433
 30
0.0
 11
149.1206459999999
 21
73.014193
 31
0.0
  0
LINE
  5
A6F5
330
A54D
100
AcDbEntity
  8
1
  6
Continuous
100
AcDbLine
 10
145.7152959999999
 20
74.10025299999998
 30
0.0
 11
146.616106
 21
70.94698299999997
 31
0.0
  0
LINE
  5
A6F6
330
A54D
100
AcDbEntity
  8
1
  6
Continuous
100
AcDbLine
 10
145.7152959999999
 20
75.78543299999998
 30
0.0
 11
146.616106
 21
72.632163
 31
0.0
  0
LINE
  5
A6F7
330
A54D
100
AcDbEntity
  8
1
  6
Continuous
100
AcDbLine
 10
159.715296
 20
75.78543299999998
 30
0.0
 11
158.8144859999999
 21
72.632163
 31
0.0
  0
LINE
  5
A6F8
330
A54D
100
AcDbEntity
  8
1
  6
Continuous
100
AcDbLine
 10
159.715296
 20
74.10025299999998
 30
0.0
 11
158.8144859999999
 21
70.94698299999997
 31
0.0
  0
LINE
  5
A6F9
330
A54D
100
AcDbEntity
  8
1
  6
Continuous
100
AcDbLine
 10
157.2152959999999
 20
79.785433
 30
0.0
 11
156.309946
 21
73.014193
 31
0.0
  0
LINE
  5
A6FA
330
A54D
100
AcDbEntity
  8
1
  6
Continuous
100
AcDbLine
 10
148.7152959999999
 20
67.78543299999999
 30
0.0
 11
147.388886
 21
69.34133299999999
 31
0.0
  0
LINE
  5
A6FB
330
A54D
100
AcDbEntity
  8
1
  6
Continuous
100
AcDbLine
 10
156.715296
 20
67.78543299999999
 30
0.0
 11
158.041706
 21
69.34133299999999
 31
0.0
  0
ARC
  5
A6FC
330
A54D
100
AcDbEntity
  8
1
  6
Continuous
100
AcDbCircle
 10
155.3782359999999
 20
71.61197299999997
 30
0.0
 40
3.5
100
AcDbArc
 50
319.552
 51
349.0469999999998
  0
ARC
  5
A6FD
330
A54D
100
AcDbEntity
  8
1
  6
Continuous
100
AcDbCircle
 10
150.1206459999998
 20
72.01419300000002
 30
0.0
 40
1.0
100
AcDbArc
 50
90.0
 51
180.0
  0
ARC
  5
A6FE
330
A54D
100
AcDbEntity
  8
1
  6
Continuous
100
AcDbCircle
 10
155.309946
 20
72.01419300000002
 30
0.0
 40
1.0
100
AcDbArc
 50
0.0
 51
90.0
  0
ARC
  5
A6FF
330
A54D
100
AcDbEntity
  8
1
  6
Continuous
100
AcDbCircle
 10
155.309946
 20
70.92344300000002
 30
0.0
 40
1.0
100
AcDbArc
 50
270.0
 51
0.0
  0
ARC
  5
A700
330
A54D
100
AcDbEntity
  8
1
  6
Continuous
100
AcDbCircle
 10
150.1206459999998
 20
70.92344300000002
 30
0.0
 40
1.0
100
AcDbArc
 50
180.0
 51
270.0
  0
ARC
  5
A701
330
A54D
100
AcDbEntity
  8
1
  6
Continuous
100
AcDbCircle
 10
150.0523559999998
 20
71.61197299999997
 30
0.0
 40
3.5
100
AcDbArc
 50
190.953
 51
220.4479999999998
  0
LINE
  5
A702
330
A54D
100
AcDbEntity
  8
1
  6
Continuous
100
AcDbLine
 10
148.7152959999999
 20
227.2129169999999
 30
0.0
 11
156.715296
 21
227.2129169999999
 31
0.0
  0
LINE
  5
A703
330
A54D
100
AcDbEntity
  8
1
  6
Continuous
100
AcDbLine
 10
150.829736
 20
225.0749069999999
 30
0.0
 11
154.578036
 21
225.0749069999999
 31
0.0
  0
LINE
  5
A704
330
A54D
100
AcDbEntity
  8
1
  6
Continuous
100
AcDbLine
 10
150.978326
 20
221.9841569999999
 30
0.0
 11
154.540906
 21
221.9841569999999
 31
0.0
  0
LINE
  5
A705
330
A54D
100
AcDbEntity
  8
1
  6
Continuous
100
AcDbLine
 10
157.2152959999999
 20
215.212917
 30
0.0
 11
156.309946
 21
221.9841569999999
 31
0.0
  0
ARC
  5
A706
330
A54D
100
AcDbEntity
  8
1
  6
Continuous
100
AcDbCircle
 10
155.309946
 20
222.984157
 30
0.0
 40
1.0
100
AcDbArc
 50
270.0
 51
0.0
  0
ARC
  5
A707
330
A54D
100
AcDbEntity
  8
1
  6
Continuous
100
AcDbCircle
 10
155.309946
 20
224.074907
 30
0.0
 40
1.0
100
AcDbArc
 50
0.0
 51
90.0
  0
LINE
  5
A708
330
A54D
100
AcDbEntity
  8
1
  6
Continuous
100
AcDbLine
 10
156.715296
 20
227.2129169999999
 30
0.0
 11
158.041706
 21
225.6570169999999
 31
0.0
  0
LINE
  5
A709
330
A54D
100
AcDbEntity
  8
1
  6
Continuous
100
AcDbLine
 10
148.215296
 20
215.212917
 30
0.0
 11
149.1206459999999
 21
221.9841569999999
 31
0.0
  0
LINE
  5
A70A
330
A54D
100
AcDbEntity
  8
1
  6
Continuous
100
AcDbLine
 10
148.7152959999999
 20
227.2129169999999
 30
0.0
 11
147.388886
 21
225.6570169999999
 31
0.0
  0
ARC
  5
A70B
330
A54D
100
AcDbEntity
  8
1
  6
Continuous
100
AcDbCircle
 10
150.0523559999998
 20
223.386377
 30
0.0
 40
3.5
100
AcDbArc
 50
139.5519999999999
 51
169.0469999999999
  0
LINE
  5
A70C
330
A54D
100
AcDbEntity
  8
1
  6
Continuous
100
AcDbLine
 10
145.7152959999999
 20
219.212917
 30
0.0
 11
146.616106
 21
222.366187
 31
0.0
  0
LINE
  5
A70D
330
A54D
100
AcDbEntity
  8
1
  6
Continuous
100
AcDbLine
 10
145.7152959999999
 20
220.898097
 30
0.0
 11
146.616106
 21
224.0513669999999
 31
0.0
  0
ARC
  5
A70E
330
A54D
100
AcDbEntity
  8
1
  6
Continuous
100
AcDbCircle
 10
150.1206459999998
 20
222.984157
 30
0.0
 40
1.0
100
AcDbArc
 50
180.0
 51
270.0
  0
ARC
  5
A70F
330
A54D
100
AcDbEntity
  8
1
  6
Continuous
100
AcDbCircle
 10
150.1206459999998
 20
224.074907
 30
0.0
 40
1.0
100
AcDbArc
 50
90.0
 51
180.0
  0
ARC
  5
A710
330
A54D
100
AcDbEntity
  8
1
  6
Continuous
100
AcDbCircle
 10
155.3782359999999
 20
223.386377
 30
0.0
 40
3.5
100
AcDbArc
 50
10.95299999999999
 51
40.448
  0
LINE
  5
A711
330
A54D
100
AcDbEntity
  8
1
  6
Continuous
100
AcDbLine
 10
159.715296
 20
220.898097
 30
0.0
 11
158.8144859999999
 21
224.0513669999999
 31
0.0
  0
LINE
  5
A712
330
A54D
100
AcDbEntity
  8
1
  6
Continuous
100
AcDbLine
 10
159.715296
 20
219.212917
 30
0.0
 11
158.8144859999999
 21
222.366187
 31
0.0
  0
ARC
  5
A713
330
A54D
100
AcDbEntity
  8
5
  6
PHANTOM
100
AcDbCircle
 10
118.9652959999999
 20
154.9448659999999
 30
0.0
 40
1.0
100
AcDbArc
 50
90.0
 51
180.0
  0
LINE
  5
A714
330
A54D
100
AcDbEntity
  8
5
  6
PHANTOM
100
AcDbLine
 10
117.965296
 20
137.9448659999999
 30
0.0
 11
117.965296
 21
154.9448659999999
 31
0.0
  0
ARC
  5
A715
330
A54D
100
AcDbEntity
  8
5
  6
PHANTOM
100
AcDbCircle
 10
118.9652959999999
 20
137.9448659999999
 30
0.0
 40
1.0
100
AcDbArc
 50
180.0
 51
270.0
  0
CIRCLE
  5
A716
330
A54D
100
AcDbEntity
  8
1
  6
Continuous
100
AcDbCircle
 10
339.349735
 20
146.4448659999999
 30
0.0
 40
6.0
  0
ARC
  5
A717
330
A54D
100
AcDbEntity
  8
5
  6
PHANTOM
100
AcDbCircle
 10
373.0997349999999
 20
154.9448659999999
 30
0.0
 40
1.0
100
AcDbArc
 50
0.0
 51
90.0
  0
LINE
  5
A718
330
A54D
100
AcDbEntity
  8
5
  6
PHANTOM
100
AcDbLine
 10
374.099735
 20
154.9448659999999
 30
0.0
 11
374.099735
 21
137.9448659999999
 31
0.0
  0
ARC
  5
A719
330
A54D
100
AcDbEntity
  8
5
  6
PHANTOM
100
AcDbCircle
 10
373.0997349999999
 20
137.9448659999999
 30
0.0
 40
1.0
100
AcDbArc
 50
270.0
 51
0.0
  0
LINE
  5
A71A
330
A54D
100
AcDbEntity
  8
1
  6
Continuous
100
AcDbLine
 10
369.849735
 20
171.4448659999999
 30
0.0
 11
369.849735
 21
180.444866
 31
0.0
  0
LINE
  5
A71B
330
A54D
100
AcDbEntity
  8
1
  6
Continuous
100
AcDbLine
 10
311.849735
 20
171.4448659999999
 30
0.0
 11
311.849735
 21
180.444866
 31
0.0
  0
ENDSEC
  0
SECTION
  2
OBJECTS
  0
DICTIONARY
  5
A53B
330
0
100
AcDbDictionary
281
     1
  3
ACAD_CIP_PREVIOUS_PRODUCT_INFO
350
A781
  3
ACAD_COLOR
350
A763
  3
ACAD_DETAILVIEWSTYLE
350
A77C
  3
ACAD_GROUP
350
A53C
  3
ACAD_LAYOUT
350
A548
  3
ACAD_MATERIAL
350
A731
  3
ACAD_MLEADERSTYLE
350
A778
  3
ACAD_MLINESTYLE
350
A545
  3
ACAD_PLOTSETTINGS
350
A547
  3
ACAD_PLOTSTYLENAME
350
A72F
  3
ACAD_SCALELIST
350
A766
  3
ACAD_SECTIONVIEWSTYLE
350
A77A
  3
ACAD_TABLESTYLE
350
A764
  3
ACAD_VISUALSTYLE
350
A74A
  3
ACDB_RECOMPOSE_DATA
350
A79F
  3
AcDbVariableDictionary
350
A792
  3
DWGPROPS
350
A7A0
  0
DICTIONARY
  5
A782
330
A53F
100
AcDbDictionary
280
     1
281
     1
  3
ADSK_XREC_LAYER_RECONCILED
360
A783
  0
DICTIONARY
  5
A784
330
A555
100
AcDbDictionary
280
     1
281
     1
  3
ADSK_XREC_LAYER_RECONCILED
360
A785
  0
DICTIONARY
  5
A786
330
A556
100
AcDbDictionary
280
     1
281
     1
  3
ADSK_XREC_LAYER_RECONCILED
360
A787
  0
DICTIONARY
  5
A788
330
A557
100
AcDbDictionary
280
     1
281
     1
  3
ADSK_XREC_LAYER_RECONCILED
360
A789
  0
DICTIONARY
  5
A78A
330
A558
100
AcDbDictionary
280
     1
281
     1
  3
ADSK_XREC_LAYER_RECONCILED
360
A78B
  0
DICTIONARY
  5
A78C
330
A559
100
AcDbDictionary
280
     1
281
     1
  3
ADSK_XREC_LAYER_RECONCILED
360
A78D
  0
DICTIONARY
  5
A78E
330
A55A
100
AcDbDictionary
280
     1
281
     1
  3
ADSK_XREC_LAYER_RECONCILED
360
A78F
  0
DICTIONARY
  5
A790
330
A55B
100
AcDbDictionary
280
     1
281
     1
  3
ADSK_XREC_LAYER_RECONCILED
360
A791
  0
DICTIONARY
  5
A72A
330
A54D
100
AcDbDictionary
281
     1
  3
ACAD_LAYOUTSELFREF
350
A72B
  0
DICTIONARY
  5
A728
330
A549
100
AcDbDictionary
281
     1
  3
ACAD_LAYOUTSELFREF
350
A729
  0
XRECORD
  5
A781
102
{ACAD_REACTORS
330
A53B
102
}
330
A53B
100
AcDbXrecord
280
     1
300
ACDLT
300
2014
300
ACDLT_F_S
  0
DICTIONARY
  5
A763
102
{ACAD_REACTORS
330
A53B
102
}
330
A53B
100
AcDbDictionary
281
     1
  0
DICTIONARY
  5
A77C
102
{ACAD_REACTORS
330
A53B
102
}
330
A53B
100
AcDbDictionary
281
     1
  3
Imperial24
350
A77D
  0
DICTIONARY
  5
A53C
102
{ACAD_REACTORS
330
A53B
102
}
330
A53B
100
AcDbDictionary
281
     1
  0
DICTIONARY
  5
A548
102
{ACAD_REACTORS
330
A53B
102
}
330
A53B
100
AcDbDictionary
281
     1
  3
Model
350
A77E
  3
レイアウト1
350
A77F
  0
DICTIONARY
  5
A731
102
{ACAD_REACTORS
330
A53B
102
}
330
A53B
100
AcDbDictionary
281
     1
  3
ByBlock
350
A73A
  3
ByLayer
350
A732
  3
Global
350
A742
  0
DICTIONARY
  5
A778
102
{ACAD_REACTORS
330
A53B
102
}
330
A53B
100
AcDbDictionary
281
     1
  3
Standard
350
A779
  0
DICTIONARY
  5
A545
102
{ACAD_REACTORS
330
A53B
102
}
330
A53B
100
AcDbDictionary
281
     1
  3
STANDARD
350
A546
  0
DICTIONARY
  5
A547
102
{ACAD_REACTORS
330
A53B
102
}
330
A53B
100
AcDbDictionary
281
     1
  0
ACDBDICTIONARYWDFLT
  5
A72F
102
{ACAD_REACTORS
330
A53B
102
}
330
A53B
100
AcDbDictionary
281
     1
  3
Normal
350
A730
100
AcDbDictionaryWithDefault
340
A730
  0
DICTIONARY
  5
A766
102
{ACAD_REACTORS
330
A53B
102
}
330
A53B
100
AcDbDictionary
281
     1
  3
A0
350
A767
  3
A1
350
A768
  3
A2
350
A769
  3
A3
350
A76A
  3
A4
350
A76B
  3
A5
350
A76C
  3
A6
350
A76D
  3
A7
350
A76E
  3
A8
350
A76F
  3
A9
350
A770
  3
B0
350
A771
  3
B1
350
A772
  3
B2
350
A773
  3
B3
350
A774
  3
B4
350
A775
  3
B5
350
A776
  3
B6
350
A777
  0
DICTIONARY
  5
A77A
102
{ACAD_REACTORS
330
A53B
102
}
330
A53B
100
AcDbDictionary
281
     1
  3
Imperial24
350
A77B
  0
DICTIONARY
  5
A764
102
{ACAD_REACTORS
330
A53B
102
}
330
A53B
100
AcDbDictionary
281
     1
  3
Standard
350
A765
  0
DICTIONARY
  5
A74A
102
{ACAD_REACTORS
330
A53B
102
}
330
A53B
100
AcDbDictionary
281
     1
  3
2dWireframe
350
A750
  3
Basic
350
A74F
  3
Brighten
350
A756
  3
ColorChange
350
A75A
  3
Conceptual
350
A753
  3
Dim
350
A755
  3
EdgeColorOff
350
A762
  3
Facepattern
350
A759
  3
Flat
350
A74B
  3
FlatWithEdges
350
A74C
  3
Gouraud
350
A74D
  3
GouraudWithEdges
350
A74E
  3
Hidden
350
A752
  3
JitterOff
350
A760
  3
Linepattern
350
A758
  3
OverhangOff
350
A761
  3
Realistic
350
A754
  3
Shaded
350
A75F
  3
Shaded with edges
350
A75E
  3
Shades of Gray
350
A75B
  3
Sketchy
350
A75C
  3
Thicken
350
A757
  3
Wireframe
350
A751
  3
X-Ray
350
A75D
  0
XRECORD
  5
A79F
102
{ACAD_REACTORS
330
A53B
102
}
330
A53B
100
AcDbXrecord
280
     1
 90
        1
330
A765
  0
DICTIONARY
  5
A792
102
{ACAD_REACTORS
330
A53B
102
}
330
A53B
100
AcDbDictionary
281
     1
  3
CANNOSCALE
350
A797
  3
CMLEADERSTYLE
350
A794
  3
CTABLESTYLE
350
A793
  3
CVIEWDETAILSTYLE
350
A795
  3
CVIEWSECTIONSTYLE
350
A796
  3
DIMASSOC
350
A79A
  3
INDEXCTL
350
A799
  3
SORTENTS
350
A798
  3
XCLIPFRAME
350
A79B
  0
XRECORD
  5
A7A0
102
{ACAD_REACTORS
330
A53B
102
}
330
A53B
100
AcDbXrecord
280
     1
  1
DWGPROPS COOKIE
  2

  3

  4

  6

  7

  8
Yoshitsune
  9

300
=
301
=
302
=
303
=
304
=
305
=
306
=
307
=
308
=
309
=
 40
0.0000145949074074
 41
2450737.703928588
 42
2457192.640416458
  1

 90
        0
  0
XRECORD
  5
A783
102
{ACAD_REACTORS
330
A782
102
}
330
A782
100
AcDbXrecord
280
     1
290
     1
  0
XRECORD
  5
A785
102
{ACAD_REACTORS
330
A784
102
}
330
A784
100
AcDbXrecord
280
     1
290
     1
  0
XRECORD
  5
A787
102
{ACAD_REACTORS
330
A786
102
}
330
A786
100
AcDbXrecord
280
     1
290
     1
  0
XRECORD
  5
A789
102
{ACAD_REACTORS
330
A788
102
}
330
A788
100
AcDbXrecord
280
     1
290
     1
  0
XRECORD
  5
A78B
102
{ACAD_REACTORS
330
A78A
102
}
330
A78A
100
AcDbXrecord
280
     1
290
     1
  0
XRECORD
  5
A78D
102
{ACAD_REACTORS
330
A78C
102
}
330
A78C
100
AcDbXrecord
280
     1
290
     1
  0
XRECORD
  5
A78F
102
{ACAD_REACTORS
330
A78E
102
}
330
A78E
100
AcDbXrecord
280
     1
290
     1
  0
XRECORD
  5
A791
102
{ACAD_REACTORS
330
A790
102
}
330
A790
100
AcDbXrecord
280
     1
290
     1
  0
XRECORD
  5
A72B
102
{ACAD_REACTORS
330
A72A
102
}
330
A72A
100
AcDbXrecord
280
     1
340
A54D
  0
XRECORD
  5
A729
102
{ACAD_REACTORS
330
A728
102
}
330
A728
100
AcDbXrecord
280
     1
340
A549
  0
ACDBDETAILVIEWSTYLE
  5
A77D
102
{ACAD_XDICTIONARY
360
A7D8
102
}
102
{ACAD_REACTORS
330
A77C
102
}
330
A77C
100
AcDbModelDocViewStyle
 70
     0
  3
Imperial24
290
     0
100
AcDbDetailViewStyle
 70
     0
 71
     0
 90
        3
 71
     1
340
A540
 40
0.24
340
0
 40
0.24
300

 40
0.36
280
     3
 71
     2
340
A544
 90
       25
 71
     3
340
A540
 40
0.24
 90
        1
 40
0.75
 90
        1
300
%<\AcVar ViewType \f "%tc1">% %<\AcVar ViewDetailId>%\PSCALE %<\AcVar ViewScale \f "%sn">%
 71
     4
340
A544
 90
       25
340
A544
 90
       25
280
     0
  0
LAYOUT
  5
A77E
102
{ACAD_XDICTIONARY
360
A7DA
102
}
102
{ACAD_REACTORS
330
A548
102
}
330
A548
100
AcDbPlotSettings
  1

  2
Canon LBP9100C
  4

  6

 40
0.0
 41
0.0
 42
0.0
 43
0.0
 44
0.0
 45
0.0
 46
0.0
 47
0.0
 48
0.0
 49
0.0
140
0.0
141
0.0
142
1.0
143
1.0
 70
  1712
 72
     0
 73
     0
 74
     0
  7

 75
     0
147
1.0
148
0.0
149
0.0
100
AcDbLayout
  1
Model
 70
     1
 71
     0
 10
0.0
 20
0.0
 11
12.0
 21
9.0
 12
0.0
 22
0.0
 32
0.0
 14
0.0
 24
0.0
 34
0.0
 15
0.0
 25
0.0
 35
0.0
146
0.0
 13
0.0
 23
0.0
 33
0.0
 16
1.0
 26
0.0
 36
0.0
 17
0.0
 27
1.0
 37
0.0
 76
     0
330
A54D
331
A727
  0
LAYOUT
  5
A77F
102
{ACAD_XDICTIONARY
360
A7DC
102
}
102
{ACAD_REACTORS
330
A548
102
}
330
A548
100
AcDbPlotSettings
  1

  2
Canon LBP9100C
  4

  6

 40
0.0
 41
0.0
 42
0.0
 43
0.0
 44
0.0
 45
0.0
 46
0.0
 47
0.0
 48
0.0
 49
0.0
140
0.0
141
0.0
142
1.0
143
1.0
 70
   688
 72
     0
 73
     0
 74
     5
  7

 75
    16
147
1.0
148
0.0
149
0.0
100
AcDbLayout
  1
レイアウト1
 70
     0
 71
     1
 10
0.0
 20
0.0
 11
420.0
 21
297.0
 12
0.0
 22
0.0
 32
0.0
 14
1.000000000000000E+20
 24
1.000000000000000E+20
 34
1.000000000000000E+20
 15
-1.000000000000000E+20
 25
-1.000000000000000E+20
 35
-1.000000000000000E+20
146
0.0
 13
0.0
 23
0.0
 33
0.0
 16
1.0
 26
0.0
 36
0.0
 17
0.0
 27
1.0
 37
0.0
 76
     0
330
A549
  0
MATERIAL
  5
A73A
102
{ACAD_XDICTIONARY
360
A73B
102
}
102
{ACAD_REACTORS
330
A731
102
}
330
A731
100
AcDbMaterial
  1
ByBlock
 72
     0
 43
0.0208333333333333
 43
0.0
 43
0.0
 43
0.0
 43
0.0
 43
0.0208333333333333
 43
0.0
 43
0.0
 43
0.0
 43
0.0
 43
1.0
 43
0.0
 43
0.0
 43
0.0
 43
0.0
 43
1.0
 77
     0
 47
0.0208333333333333
 47
0.0
 47
0.0
 47
0.0
 47
0.0
 47
0.0208333333333333
 47
0.0
 47
0.0
 47
0.0
 47
0.0
 47
1.0
 47
0.0
 47
0.0
 47
0.0
 47
0.0
 47
1.0
171
     0
 49
0.0208333333333333
 49
0.0
 49
0.0
 49
0.0
 49
0.0
 49
0.0208333333333333
 49
0.0
 49
0.0
 49
0.0
 49
0.0
 49
1.0
 49
0.0
 49
0.0
 49
0.0
 49
0.0
 49
1.0
175
     0
142
0.0208333333333333
142
0.0
142
0.0
142
0.0
142
0.0
142
0.0208333333333333
142
0.0
142
0.0
142
0.0
142
0.0
142
1.0
142
0.0
142
0.0
142
0.0
142
0.0
142
1.0
179
     0
144
0.0208333333333333
144
0.0
144
0.0
144
0.0
144
0.0
144
0.0208333333333333
144
0.0
144
0.0
144
0.0
144
0.0
144
1.0
144
0.0
144
0.0
144
0.0
144
0.0
144
1.0
147
0.0208333333333333
147
0.0
147
0.0
147
0.0
147
0.0
147
0.0208333333333333
147
0.0
147
0.0
147
0.0
147
0.0
147
1.0
147
0.0
147
0.0
147
0.0
147
0.0
147
1.0
  0
MATERIAL
  5
A732
102
{ACAD_XDICTIONARY
360
A733
102
}
102
{ACAD_REACTORS
330
A731
102
}
330
A731
100
AcDbMaterial
  1
ByLayer
 72
     0
 43
0.0208333333333333
 43
0.0
 43
0.0
 43
0.0
 43
0.0
 43
0.0208333333333333
 43
0.0
 43
0.0
 43
0.0
 43
0.0
 43
1.0
 43
0.0
 43
0.0
 43
0.0
 43
0.0
 43
1.0
 77
     0
 47
0.0208333333333333
 47
0.0
 47
0.0
 47
0.0
 47
0.0
 47
0.0208333333333333
 47
0.0
 47
0.0
 47
0.0
 47
0.0
 47
1.0
 47
0.0
 47
0.0
 47
0.0
 47
0.0
 47
1.0
171
     0
 49
0.0208333333333333
 49
0.0
 49
0.0
 49
0.0
 49
0.0
 49
0.0208333333333333
 49
0.0
 49
0.0
 49
0.0
 49
0.0
 49
1.0
 49
0.0
 49
0.0
 49
0.0
 49
0.0
 49
1.0
175
     0
142
0.0208333333333333
142
0.0
142
0.0
142
0.0
142
0.0
142
0.0208333333333333
142
0.0
142
0.0
142
0.0
142
0.0
142
1.0
142
0.0
142
0.0
142
0.0
142
0.0
142
1.0
179
     0
144
0.0208333333333333
144
0.0
144
0.0
144
0.0
144
0.0
144
0.0208333333333333
144
0.0
144
0.0
144
0.0
144
0.0
144
1.0
144
0.0
144
0.0
144
0.0
144
0.0
144
1.0
147
0.0208333333333333
147
0.0
147
0.0
147
0.0
147
0.0
147
0.0208333333333333
147
0.0
147
0.0
147
0.0
147
0.0
147
1.0
147
0.0
147
0.0
147
0.0
147
0.0
147
1.0
  0
MATERIAL
  5
A742
102
{ACAD_XDICTIONARY
360
A743
102
}
102
{ACAD_REACTORS
330
A731
102
}
330
A731
100
AcDbMaterial
  1
Global
 72
     0
 43
0.0208333333333333
 43
0.0
 43
0.0
 43
0.0
 43
0.0
 43
0.0208333333333333
 43
0.0
 43
0.0
 43
0.0
 43
0.0
 43
1.0
 43
0.0
 43
0.0
 43
0.0
 43
0.0
 43
1.0
 77
     0
 47
0.0208333333333333
 47
0.0
 47
0.0
 47
0.0
 47
0.0
 47
0.0208333333333333
 47
0.0
 47
0.0
 47
0.0
 47
0.0
 47
1.0
 47
0.0
 47
0.0
 47
0.0
 47
0.0
 47
1.0
171
     0
 49
0.0208333333333333
 49
0.0
 49
0.0
 49
0.0
 49
0.0
 49
0.0208333333333333
 49
0.0
 49
0.0
 49
0.0
 49
0.0
 49
1.0
 49
0.0
 49
0.0
 49
0.0
 49
0.0
 49
1.0
175
     0
142
0.0208333333333333
142
0.0
142
0.0
142
0.0
142
0.0
142
0.0208333333333333
142
0.0
142
0.0
142
0.0
142
0.0
142
1.0
142
0.0
142
0.0
142
0.0
142
0.0
142
1.0
179
     0
144
0.0208333333333333
144
0.0
144
0.0
144
0.0
144
0.0
144
0.0208333333333333
144
0.0
144
0.0
144
0.0
144
0.0
144
1.0
144
0.0
144
0.0
144
0.0
144
0.0
144
1.0
147
0.0208333333333333
147
0.0
147
0.0
147
0.0
147
0.0
147
0.0208333333333333
147
0.0
147
0.0
147
0.0
147
0.0
147
1.0
147
0.0
147
0.0
147
0.0
147
0.0
147
1.0
  0
MLEADERSTYLE
  5
A779
102
{ACAD_REACTORS
330
A778
102
}
330
A778
100
AcDbMLeaderStyle
170
     2
171
     1
172
     0
 90
        2
 40
0.0
 41
0.0
173
     1
 91
-1056964608
340
A542
 92
       -2
290
     1
 42
0.09
291
     1
 43
0.36
  3
Standard
 44
0.18
300

342
A540
174
     1
178
     6
175
     1
176
     0
 93
-1056964608
 45
0.18
292
     0
297
     0
 46
0.18
 94
-1056964608
 47
1.0
 49
1.0
140
1.0
293
     1
141
0.0
294
     1
177
     0
142
1.0
295
     0
296
     0
143
0.125
1001
ACAD_MLEADERVER
1070
     2
  0
MLINESTYLE
  5
A546
102
{ACAD_REACTORS
330
A545
102
}
330
A545
100
AcDbMlineStyle
  2
STANDARD
 70
     0
  3

 62
   256
 51
90.0
 52
90.0
 71
     2
 49
0.5
 62
   256
  6
BYLAYER
 49
-0.5
 62
   256
  6
BYLAYER
  0
ACDBPLACEHOLDER
  5
A730
102
{ACAD_REACTORS
330
A72F
102
}
330
A72F
  0
SCALE
  5
A767
102
{ACAD_REACTORS
330
A766
102
}
330
A766
100
AcDbScale
 70
     0
300
1:1
140
1.0
141
1.0
290
     1
  0
SCALE
  5
A768
102
{ACAD_REACTORS
330
A766
102
}
330
A766
100
AcDbScale
 70
     0
300
1/128" = 1'-0"
140
0.0078125
141
12.0
290
     0
  0
SCALE
  5
A769
102
{ACAD_REACTORS
330
A766
102
}
330
A766
100
AcDbScale
 70
     0
300
1/64" = 1'-0"
140
0.015625
141
12.0
290
     0
  0
SCALE
  5
A76A
102
{ACAD_REACTORS
330
A766
102
}
330
A766
100
AcDbScale
 70
     0
300
1/32" = 1'-0"
140
0.03125
141
12.0
290
     0
  0
SCALE
  5
A76B
102
{ACAD_REACTORS
330
A766
102
}
330
A766
100
AcDbScale
 70
     0
300
1/16" = 1'-0"
140
0.0625
141
12.0
290
     0
  0
SCALE
  5
A76C
102
{ACAD_REACTORS
330
A766
102
}
330
A766
100
AcDbScale
 70
     0
300
3/32" = 1'-0"
140
0.09375
141
12.0
290
     0
  0
SCALE
  5
A76D
102
{ACAD_REACTORS
330
A766
102
}
330
A766
100
AcDbScale
 70
     0
300
1/8" = 1'-0"
140
0.125
141
12.0
290
     0
  0
SCALE
  5
A76E
102
{ACAD_REACTORS
330
A766
102
}
330
A766
100
AcDbScale
 70
     0
300
3/16" = 1'-0"
140
0.1875
141
12.0
290
     0
  0
SCALE
  5
A76F
102
{ACAD_REACTORS
330
A766
102
}
330
A766
100
AcDbScale
 70
     0
300
1/4" = 1'-0"
140
0.25
141
12.0
290
     0
  0
SCALE
  5
A770
102
{ACAD_REACTORS
330
A766
102
}
330
A766
100
AcDbScale
 70
     0
300
3/8" = 1'-0"
140
0.375
141
12.0
290
     0
  0
SCALE
  5
A771
102
{ACAD_REACTORS
330
A766
102
}
330
A766
100
AcDbScale
 70
     0
300
1/2" = 1'-0"
140
0.5
141
12.0
290
     0
  0
SCALE
  5
A772
102
{ACAD_REACTORS
330
A766
102
}
330
A766
100
AcDbScale
 70
     0
300
3/4" = 1'-0"
140
0.75
141
12.0
290
     0
  0
SCALE
  5
A773
102
{ACAD_REACTORS
330
A766
102
}
330
A766
100
AcDbScale
 70
     0
300
1" = 1'-0"
140
1.0
141
12.0
290
     0
  0
SCALE
  5
A774
102
{ACAD_REACTORS
330
A766
102
}
330
A766
100
AcDbScale
 70
     0
300
1-1/2" = 1'-0"
140
1.5
141
12.0
290
     0
  0
SCALE
  5
A775
102
{ACAD_REACTORS
330
A766
102
}
330
A766
100
AcDbScale
 70
     0
300
3" = 1'-0"
140
3.0
141
12.0
290
     0
  0
SCALE
  5
A776
102
{ACAD_REACTORS
330
A766
102
}
330
A766
100
AcDbScale
 70
     0
300
6" = 1'-0"
140
6.0
141
12.0
290
     0
  0
SCALE
  5
A777
102
{ACAD_REACTORS
330
A766
102
}
330
A766
100
AcDbScale
 70
     0
300
1'-0" = 1'-0"
140
12.0
141
12.0
290
     0
  0
ACDBSECTIONVIEWSTYLE
  5
A77B
102
{ACAD_XDICTIONARY
360
A7D6
102
}
102
{ACAD_REACTORS
330
A77A
102
}
330
A77A
100
AcDbModelDocViewStyle
 70
     0
  3
Imperial24
290
     0
100
AcDbSectionViewStyle
 70
     0
 71
     0
 90
       78
 71
     1
340
A540
 40
0.24
340
0
340
0
 40
0.24
300
I, O, Q, S, X, Z
 40
0.48
 90
        3
 40
0.18
 90
        1
 71
     2
340
A544
 90
       25
340
A544
 90
       50
 40
0.24
 40
0.0
 40
0.24
 71
     3
340
A540
 40
0.24
 90
        1
 40
0.75
 90
        1
300
%<\AcVar ViewType \f "%tc1">% %<\AcVar ViewSectionStartId>%-%<\AcVar ViewSectionEndId>%\PSCALE %<\AcVar ViewScale \f "%sn">%
 71
     4
300
ANSI31
 40
1.0
 90
        0
290
     0
290
     0
 90
        6
 40
0.0
 40
1.570796326794896
 40
0.2617993877991494
 40
1.308996938995747
 40
-0.2617993877991494
 40
1.832595714594046
  0
TABLESTYLE
  5
A765
102
{ACAD_XDICTIONARY
360
A79D
102
}
102
{ACAD_REACTORS
330
A764
102
}
330
A764
100
AcDbTableStyle
  3
Standard
 70
     0
 71
     0
 40
0.06
 41
0.06
280
     0
281
     0
  7
STANDARD
140
0.18
170
     2
 62
     0
 63
     7
283
     0
274
    -2
284
     1
 64
     0
275
    -2
285
     1
 65
     0
276
    -2
286
     1
 66
     0
277
    -2
287
     1
 67
     0
278
    -2
288
     1
 68
     0
279
    -2
289
     1
 69
     0
  7
STANDARD
140
0.25
170
     5
 62
     0
 63
     7
283
     0
274
    -2
284
     1
 64
     0
275
    -2
285
     1
 65
     0
276
    -2
286
     1
 66
     0
277
    -2
287
     1
 67
     0
278
    -2
288
     1
 68
     0
279
    -2
289
     1
 69
     0
  7
STANDARD
140
0.18
170
     5
 62
     0
 63
     7
283
     0
274
    -2
284
     1
 64
     0
275
    -2
285
     1
 65
     0
276
    -2
286
     1
 66
     0
277
    -2
287
     1
 67
     0
278
    -2
288
     1
 68
     0
279
    -2
289
     1
 69
     0
  0
VISUALSTYLE
  5
A750
102
{ACAD_XDICTIONARY
360
A7AE
102
}
102
{ACAD_REACTORS
330
A74A
102
}
330
A74A
100
AcDbVisualStyle
  2
2dWireframe
 70
     4
 71
     0
 72
     2
 73
     0
 90
        0
 40
-0.6
 41
-30.0
 62
     5
 63
     7
 74
     1
 91
        4
 64
     7
 65
   257
 75
     1
175
     1
 42
1.0
 92
        0
 66
   257
 43
1.0
 76
     1
 77
     6
 78
     2
 67
     7
 79
     5
170
     0
171
     0
290
     0
174
     0
 93
        1
 44
0.0
173
     0
291
     0
 45
0.0
1001
ACAD
1000
AcDbSavedByObjectVersion
1070
     0
  0
VISUALSTYLE
  5
A74F
102
{ACAD_XDICTIONARY
360
A7AC
102
}
102
{ACAD_REACTORS
330
A74A
102
}
330
A74A
100
AcDbVisualStyle
  2
Basic
 70
     7
 71
     1
 72
     0
 73
     1
 90
        0
 40
-0.6
 41
-30.0
 62
     5
 63
     7
 74
     0
 91
        4
 64
     7
 65
   257
 75
     1
175
     1
 42
1.0
 92
        8
 66
     7
 43
1.0
 76
     1
 77
     6
 78
     2
 67
     7
 79
     5
170
     0
171
     0
290
     0
174
     0
 93
        1
 44
0.0
173
     0
291
     1
 45
0.0
1001
ACAD
1000
AcDbSavedByObjectVersion
1070
     0
  0
VISUALSTYLE
  5
A756
102
{ACAD_XDICTIONARY
360
A7BA
102
}
102
{ACAD_REACTORS
330
A74A
102
}
330
A74A
100
AcDbVisualStyle
  2
Brighten
 70
    12
 71
     2
 72
     2
 73
     0
 90
        0
 40
-0.6
 41
-30.0
 62
     5
 63
     7
 74
     1
 91
        4
 64
     7
 65
   257
 75
     1
175
     1
 42
1.0
 92
        8
 66
     7
 43
1.0
 76
     1
 77
     6
 78
     2
 67
     7
 79
     5
170
     0
171
     0
290
     0
174
     0
 93
        1
 44
50.0
173
     0
291
     1
 45
0.0
1001
ACAD
1000
AcDbSavedByObjectVersion
1070
     0
  0
VISUALSTYLE
  5
A75A
102
{ACAD_XDICTIONARY
360
A7C2
102
}
102
{ACAD_REACTORS
330
A74A
102
}
330
A74A
100
AcDbVisualStyle
  2
ColorChange
 70
    16
 71
     2
 72
     2
 73
     3
 90
        0
 40
-0.6
 41
-30.0
 62
     5
 63
     8
 74
     1
 91
        4
 64
     7
 65
   257
 75
     1
175
     1
 42
1.0
 92
        8
 66
     8
 43
1.0
 76
     1
 77
     6
 78
     2
 67
     7
 79
     5
170
     0
171
     0
290
     0
174
     0
 93
        1
 44
0.0
173
     0
291
     1
 45
0.0
1001
ACAD
1000
AcDbSavedByObjectVersion
1070
     0
  0
VISUALSTYLE
  5
A753
102
{ACAD_XDICTIONARY
360
A7B4
102
}
102
{ACAD_REACTORS
330
A74A
102
}
330
A74A
100
AcDbVisualStyle
  2
Conceptual
 70
     9
 71
     3
 72
     2
 73
     0
 90
        0
 40
-0.6
 41
-30.0
 62
     5
 63
     7
 74
     2
 91
        2
 64
     7
 65
   257
 75
     1
175
     1
 42
179.0
 92
        8
 66
     7
 43
1.0
 76
     1
 77
     6
 78
     2
 67
     7
 79
     3
170
     0
171
     0
290
     0
174
     0
 93
        1
 44
0.0
173
     0
291
     0
 45
0.0
1001
ACAD
1000
AcDbSavedByObjectVersion
1070
     0
  0
VISUALSTYLE
  5
A755
102
{ACAD_XDICTIONARY
360
A7B8
102
}
102
{ACAD_REACTORS
330
A74A
102
}
330
A74A
100
AcDbVisualStyle
  2
Dim
 70
    11
 71
     2
 72
     2
 73
     0
 90
        0
 40
-0.6
 41
-30.0
 62
     5
 63
     7
 74
     1
 91
        4
 64
     7
 65
   257
 75
     1
175
     1
 42
1.0
 92
        8
 66
     7
 43
1.0
 76
     1
 77
     6
 78
     2
 67
     7
 79
     5
170
     0
171
     0
290
     0
174
     0
 93
        1
 44
-50.0
173
     0
291
     1
 45
0.0
1001
ACAD
1000
AcDbSavedByObjectVersion
1070
     0
  0
VISUALSTYLE
  5
A762
102
{ACAD_XDICTIONARY
360
A7D2
102
}
102
{ACAD_REACTORS
330
A74A
102
}
330
A74A
100
AcDbVisualStyle
  2
EdgeColorOff
 70
    22
 71
     2
 72
     2
 73
     0
 90
        0
 40
-0.6
 41
-30.0
 62
     5
 63
     7
 74
     1
 91
        4
 64
     7
 65
   257
 75
     1
175
     1
 42
1.0
 92
        8
 66
     7
 43
1.0
 76
     1
 77
     6
 78
     2
 67
     7
 79
     5
170
     0
171
     0
290
     0
174
     0
 93
        1
 44
0.0
173
     0
291
     1
 45
0.0
1001
ACAD
1000
AcDbSavedByObjectVersion
1070
     0
  0
VISUALSTYLE
  5
A759
102
{ACAD_XDICTIONARY
360
A7C0
102
}
102
{ACAD_REACTORS
330
A74A
102
}
330
A74A
100
AcDbVisualStyle
  2
Facepattern
 70
    15
 71
     2
 72
     2
 73
     0
 90
        0
 40
-0.6
 41
-30.0
 62
     5
 63
     7
 74
     1
 91
        4
 64
     7
 65
   257
 75
     1
175
     1
 42
1.0
 92
        8
 66
     7
 43
1.0
 76
     1
 77
     6
 78
     2
 67
     7
 79
     5
170
     0
171
     0
290
     0
174
     0
 93
        1
 44
0.0
173
     0
291
     1
 45
0.0
1001
ACAD
1000
AcDbSavedByObjectVersion
1070
     0
  0
VISUALSTYLE
  5
A74B
102
{ACAD_XDICTIONARY
360
A7A4
102
}
102
{ACAD_REACTORS
330
A74A
102
}
330
A74A
100
AcDbVisualStyle
  2
Flat
 70
     0
 71
     2
 72
     1
 73
     1
 90
        2
 40
-0.6
 41
30.0
 62
     5
 63
     7
 74
     0
 91
        0
 64
     7
 65
   257
 75
     1
175
     1
 42
1.0
 92
        8
 66
     7
 43
1.0
 76
     1
 77
     6
 78
     2
 67
     7
 79
     5
170
     0
171
     0
290
     0
174
     0
 93
       13
 44
0.0
173
     0
291
     1
 45
0.0
1001
ACAD
1000
AcDbSavedByObjectVersion
1070
     0
  0
VISUALSTYLE
  5
A74C
102
{ACAD_XDICTIONARY
360
A7A6
102
}
102
{ACAD_REACTORS
330
A74A
102
}
330
A74A
100
AcDbVisualStyle
  2
FlatWithEdges
 70
     1
 71
     2
 72
     1
 73
     1
 90
        2
 40
-0.6
 41
30.0
 62
     5
 63
     7
 74
     1
 91
        0
 64
     7
 65
   257
 75
     1
175
     1
 42
1.0
 92
        0
 66
   257
 43
1.0
 76
     1
 77
     6
 78
     2
 67
     7
 79
     5
170
     0
171
     0
290
     0
174
     0
 93
       13
 44
0.0
173
     0
291
     1
 45
0.0
1001
ACAD
1000
AcDbSavedByObjectVersion
1070
     0
  0
VISUALSTYLE
  5
A74D
102
{ACAD_XDICTIONARY
360
A7A8
102
}
102
{ACAD_REACTORS
330
A74A
102
}
330
A74A
100
AcDbVisualStyle
  2
Gouraud
 70
     2
 71
     2
 72
     2
 73
     1
 90
        2
 40
-0.6
 41
30.0
 62
     5
 63
     7
 74
     0
 91
        0
 64
     7
 65
   257
 75
     1
175
     1
 42
1.0
 92
        0
 66
     7
 43
1.0
 76
     1
 77
     6
 78
     2
 67
     7
 79
     5
170
     0
171
     0
290
     0
174
     0
 93
       13
 44
0.0
173
     0
291
     1
 45
0.0
1001
ACAD
1000
AcDbSavedByObjectVersion
1070
     0
  0
VISUALSTYLE
  5
A74E
102
{ACAD_XDICTIONARY
360
A7AA
102
}
102
{ACAD_REACTORS
330
A74A
102
}
330
A74A
100
AcDbVisualStyle
  2
GouraudWithEdges
 70
     3
 71
     2
 72
     2
 73
     1
 90
        2
 40
-0.6
 41
30.0
 62
     5
 63
     7
 74
     1
 91
        0
 64
     7
 65
   257
 75
     1
175
     1
 42
1.0
 92
        0
 66
   257
 43
1.0
 76
     1
 77
     6
 78
     2
 67
     7
 79
     5
170
     0
171
     0
290
     0
174
     0
 93
       13
 44
0.0
173
     0
291
     1
 45
0.0
1001
ACAD
1000
AcDbSavedByObjectVersion
1070
     0
  0
VISUALSTYLE
  5
A752
102
{ACAD_XDICTIONARY
360
A7B2
102
}
102
{ACAD_REACTORS
330
A74A
102
}
330
A74A
100
AcDbVisualStyle
  2
Hidden
 70
     6
 71
     1
 72
     2
 73
     2
 90
        0
 40
-0.6
 41
-30.0
 62
     5
 63
     7
 74
     2
 91
        2
 64
     7
 65
   257
 75
     2
175
     1
 42
40.0
 92
        0
 66
   257
 43
1.0
 76
     1
 77
     6
 78
     2
 67
     7
 79
     3
170
     0
171
     0
290
     0
174
     0
 93
        1
 44
0.0
173
     0
291
     0
 45
0.0
1001
ACAD
1000
AcDbSavedByObjectVersion
1070
     0
  0
VISUALSTYLE
  5
A760
102
{ACAD_XDICTIONARY
360
A7CE
102
}
102
{ACAD_REACTORS
330
A74A
102
}
330
A74A
100
AcDbVisualStyle
  2
JitterOff
 70
    20
 71
     2
 72
     2
 73
     0
 90
        0
 40
-0.6
 41
-30.0
 62
     5
 63
     7
 74
     1
 91
        4
 64
     7
 65
   257
 75
     1
175
     1
 42
1.0
 92
       10
 66
     7
 43
1.0
 76
     1
 77
     6
 78
     2
 67
     7
 79
     5
170
     0
171
     0
290
     0
174
     0
 93
        1
 44
0.0
173
     0
291
     1
 45
0.0
1001
ACAD
1000
AcDbSavedByObjectVersion
1070
     0
  0
VISUALSTYLE
  5
A758
102
{ACAD_XDICTIONARY
360
A7BE
102
}
102
{ACAD_REACTORS
330
A74A
102
}
330
A74A
100
AcDbVisualStyle
  2
Linepattern
 70
    14
 71
     2
 72
     2
 73
     0
 90
        0
 40
-0.6
 41
-30.0
 62
     5
 63
     7
 74
     1
 91
        4
 64
     7
 65
   257
 75
     7
175
     7
 42
1.0
 92
        8
 66
     7
 43
1.0
 76
     1
 77
     6
 78
     2
 67
     7
 79
     5
170
     0
171
     0
290
     0
174
     0
 93
        1
 44
0.0
173
     0
291
     1
 45
0.0
1001
ACAD
1000
AcDbSavedByObjectVersion
1070
     0
  0
VISUALSTYLE
  5
A761
102
{ACAD_XDICTIONARY
360
A7D0
102
}
102
{ACAD_REACTORS
330
A74A
102
}
330
A74A
100
AcDbVisualStyle
  2
OverhangOff
 70
    21
 71
     2
 72
     2
 73
     0
 90
        0
 40
-0.6
 41
-30.0
 62
     5
 63
     7
 74
     1
 91
        4
 64
     7
 65
   257
 75
     1
175
     1
 42
1.0
 92
        9
 66
     7
 43
1.0
 76
     1
 77
     6
 78
     2
 67
     7
 79
     5
170
     0
171
     0
290
     0
174
     0
 93
        1
 44
0.0
173
     0
291
     1
 45
0.0
1001
ACAD
1000
AcDbSavedByObjectVersion
1070
     0
  0
VISUALSTYLE
  5
A754
102
{ACAD_XDICTIONARY
360
A7B6
102
}
102
{ACAD_REACTORS
330
A74A
102
}
330
A74A
100
AcDbVisualStyle
  2
Realistic
 70
     8
 71
     2
 72
     3
 73
     0
 90
        2
 40
-0.6
 41
30.0
 62
     5
 63
     7
 74
     0
 91
        0
 64
     7
 65
   257
 75
     1
175
     1
 42
1.0
 92
        8
 66
   257
 43
1.0
 76
     1
 77
     6
 78
     2
 67
     7
 79
     3
170
     0
171
     0
290
     0
174
     0
 93
       13
 44
0.0
173
     0
291
     0
 45
0.0
1001
ACAD
1000
AcDbSavedByObjectVersion
1070
     0
  0
VISUALSTYLE
  5
A75F
102
{ACAD_XDICTIONARY
360
A7CC
102
}
102
{ACAD_REACTORS
330
A74A
102
}
330
A74A
100
AcDbVisualStyle
  2
Shaded
 70
    27
 71
     2
 72
     2
 73
     1
 90
        2
 40
-0.6
 41
30.0
 62
     5
 63
     7
 74
     0
 91
        4
 64
     7
 65
   257
 75
     1
175
     1
 42
1.0
 92
        8
 66
   257
 43
1.0
 76
     1
 77
     6
 78
     2
 67
     8
 79
     3
170
     0
171
     0
290
     0
174
     0
 93
        5
 44
0.0
173
     0
291
     0
 45
0.0
1001
ACAD
1000
AcDbSavedByObjectVersion
1070
     0
  0
VISUALSTYLE
  5
A75E
102
{ACAD_XDICTIONARY
360
A7CA
102
}
102
{ACAD_REACTORS
330
A74A
102
}
330
A74A
100
AcDbVisualStyle
  2
Shaded with edges
 70
    26
 71
     2
 72
     2
 73
     1
 90
        2
 40
-0.6
 41
30.0
 62
     5
 63
     7
 74
     1
 91
       10
 64
     7
 65
   257
 75
     2
175
     1
 42
1.0
 92
        8
 66
   257
 43
1.0
 76
     1
 77
     6
 78
     2
 67
     7
 79
     3
170
     0
171
     0
290
     0
174
     0
 93
        5
 44
0.0
173
     0
291
     0
 45
0.0
1001
ACAD
1000
AcDbSavedByObjectVersion
1070
     0
  0
VISUALSTYLE
  5
A75B
102
{ACAD_XDICTIONARY
360
A7C4
102
}
102
{ACAD_REACTORS
330
A74A
102
}
330
A74A
100
AcDbVisualStyle
  2
Shades of Gray
 70
    23
 71
     2
 72
     2
 73
     3
 90
        0
 40
-0.6
 41
-30.0
 62
     5
 63
     7
 74
     2
 91
        2
 64
     7
 65
     7
 75
     1
175
     1
 42
40.0
 92
        8
 66
     7
 43
1.0
 76
     1
 77
     6
 78
     2
 67
     7
 79
     3
170
     0
171
     0
290
     0
174
     0
 93
        1
 44
0.0
173
     0
291
     0
 45
0.0
1001
ACAD
1000
AcDbSavedByObjectVersion
1070
     0
  0
VISUALSTYLE
  5
A75C
102
{ACAD_XDICTIONARY
360
A7C6
102
}
102
{ACAD_REACTORS
330
A74A
102
}
330
A74A
100
AcDbVisualStyle
  2
Sketchy
 70
    24
 71
     1
 72
     2
 73
     2
 90
        0
 40
-0.6
 41
-30.0
 62
     5
 63
     7
 74
     2
 91
        2
 64
     7
 65
     7
 75
     1
175
     1
 42
40.0
 92
       11
 66
     7
 43
1.0
 76
     1
 77
     6
 78
     2
 67
     7
 79
     6
170
     0
171
     0
290
     0
174
     0
 93
        1
 44
0.0
173
     0
291
     0
 45
0.0
1001
ACAD
1000
AcDbSavedByObjectVersion
1070
     0
  0
VISUALSTYLE
  5
A757
102
{ACAD_XDICTIONARY
360
A7BC
102
}
102
{ACAD_REACTORS
330
A74A
102
}
330
A74A
100
AcDbVisualStyle
  2
Thicken
 70
    13
 71
     2
 72
     2
 73
     0
 90
        0
 40
-0.6
 41
-30.0
 62
     5
 63
     7
 74
     1
 91
        4
 64
     7
 65
   257
 75
     1
175
     1
 42
1.0
 92
       12
 66
     7
 43
1.0
 76
     1
 77
     6
 78
     2
 67
     7
 79
     5
170
     0
171
     0
290
     0
174
     0
 93
        1
 44
0.0
173
     0
291
     1
 45
0.0
1001
ACAD
1000
AcDbSavedByObjectVersion
1070
     0
  0
VISUALSTYLE
  5
A751
102
{ACAD_XDICTIONARY
360
A7B0
102
}
102
{ACAD_REACTORS
330
A74A
102
}
330
A74A
100
AcDbVisualStyle
  2
Wireframe
 70
     5
 71
     0
 72
     2
 73
     0
 90
        0
 40
-0.6
 41
-30.0
 62
     5
 63
     7
 74
     1
 91
        4
 64
     7
 65
   257
 75
     1
175
     1
 42
1.0
 92
        0
 66
   257
 43
1.0
 76
     1
 77
     6
 78
     2
 67
     7
 79
     3
170
     0
171
     0
290
     0
174
     0
 93
        1
 44
0.0
173
     0
291
     0
 45
0.0
1001
ACAD
1000
AcDbSavedByObjectVersion
1070
     0
  0
VISUALSTYLE
  5
A75D
102
{ACAD_XDICTIONARY
360
A7C8
102
}
102
{ACAD_REACTORS
330
A74A
102
}
330
A74A
100
AcDbVisualStyle
  2
X-Ray
 70
    25
 71
     2
 72
     2
 73
     1
 90
        1
 40
0.5
 41
-30.0
 62
     5
 63
     7
 74
     1
 91
        0
 64
     7
 65
   257
 75
     1
175
     1
 42
1.0
 92
        8
 66
     7
 43
1.0
 76
     1
 77
     6
 78
     2
 67
     7
 79
     3
170
     0
171
     0
290
     0
174
     0
 93
       13
 44
0.0
173
     0
291
     0
 45
0.0
1001
ACAD
1000
AcDbSavedByObjectVersion
1070
     0
  0
DICTIONARYVAR
  5
A797
102
{ACAD_REACTORS
330
A792
102
}
330
A792
100
DictionaryVariables
280
     0
  1
1:1
  0
DICTIONARYVAR
  5
A794
102
{ACAD_REACTORS
330
A792
102
}
330
A792
100
DictionaryVariables
280
     0
  1
STANDARD
  0
DICTIONARYVAR
  5
A793
102
{ACAD_REACTORS
330
A792
102
}
330
A792
100
DictionaryVariables
280
     0
  1
STANDARD
  0
DICTIONARYVAR
  5
A795
102
{ACAD_REACTORS
330
A792
102
}
330
A792
100
DictionaryVariables
280
     0
  1
Imperial24
  0
DICTIONARYVAR
  5
A796
102
{ACAD_REACTORS
330
A792
102
}
330
A792
100
DictionaryVariables
280
     0
  1
Imperial24
  0
DICTIONARYVAR
  5
A79A
102
{ACAD_REACTORS
330
A792
102
}
330
A792
100
DictionaryVariables
280
     0
  1
1
  0
DICTIONARYVAR
  5
A799
102
{ACAD_REACTORS
330
A792
102
}
330
A792
100
DictionaryVariables
280
     0
  1
0
  0
DICTIONARYVAR
  5
A798
102
{ACAD_REACTORS
330
A792
102
}
330
A792
100
DictionaryVariables
280
     0
  1
127
  0
DICTIONARYVAR
  5
A79B
102
{ACAD_REACTORS
330
A792
102
}
330
A792
100
DictionaryVariables
280
     0
  1
2
  0
DICTIONARY
  5
A7D8
330
A77D
100
AcDbDictionary
280
     1
281
     1
  3
ACAD_XREC_ROUNDTRIP
360
A7D9
  0
DICTIONARY
  5
A7DA
330
A77E
100
AcDbDictionary
280
     1
281
     1
  3
ACAD_XREC_ROUNDTRIP
360
A7DB
  0
DICTIONARY
  5
A7DC
330
A77F
100
AcDbDictionary
280
     1
281
     1
  3
ACAD_XREC_ROUNDTRIP
360
A7DD
  0
DICTIONARY
  5
A73B
330
A73A
100
AcDbDictionary
280
     1
281
     1
  3
ACAD_XREC_ROUNDTRIP
360
A7A2
  3
BUMPTILE
360
A73D
  3
DIFFUSETILE
360
A73C
  3
OPACITYTILE
360
A740
  3
REFLECTIONTILE
360
A73F
  3
REFRACTIONTILE
360
A741
  3
SPECULARTILE
360
A73E
  0
DICTIONARY
  5
A733
330
A732
100
AcDbDictionary
280
     1
281
     1
  3
ACAD_XREC_ROUNDTRIP
360
A7A1
  3
BUMPTILE
360
A735
  3
DIFFUSETILE
360
A734
  3
OPACITYTILE
360
A738
  3
REFLECTIONTILE
360
A737
  3
REFRACTIONTILE
360
A739
  3
SPECULARTILE
360
A736
  0
DICTIONARY
  5
A743
330
A742
100
AcDbDictionary
280
     1
281
     1
  3
ACAD_XREC_ROUNDTRIP
360
A7A3
  3
BUMPTILE
360
A745
  3
DIFFUSETILE
360
A744
  3
OPACITYTILE
360
A748
  3
REFLECTIONTILE
360
A747
  3
REFRACTIONTILE
360
A749
  3
SPECULARTILE
360
A746
  0
DICTIONARY
  5
A7D6
330
A77B
100
AcDbDictionary
280
     1
281
     1
  3
ACAD_XREC_ROUNDTRIP
360
A7D7
  0
DICTIONARY
  5
A79D
330
A765
100
AcDbDictionary
280
     1
281
     1
  3
ACAD_ROUNDTRIP_2008_TABLESTYLE_CELLSTYLEMAP
360
A79E
  3
ACAD_XREC_ROUNDTRIP
360
A7D4
  0
DICTIONARY
  5
A7AE
330
A750
100
AcDbDictionary
280
     1
281
     1
  3
ACAD_XREC_ROUNDTRIP
360
A7AF
  0
DICTIONARY
  5
A7AC
330
A74F
100
AcDbDictionary
280
     1
281
     1
  3
ACAD_XREC_ROUNDTRIP
360
A7AD
  0
DICTIONARY
  5
A7BA
330
A756
100
AcDbDictionary
280
     1
281
     1
  3
ACAD_XREC_ROUNDTRIP
360
A7BB
  0
DICTIONARY
  5
A7C2
330
A75A
100
AcDbDictionary
280
     1
281
     1
  3
ACAD_XREC_ROUNDTRIP
360
A7C3
  0
DICTIONARY
  5
A7B4
330
A753
100
AcDbDictionary
280
     1
281
     1
  3
ACAD_XREC_ROUNDTRIP
360
A7B5
  0
DICTIONARY
  5
A7B8
330
A755
100
AcDbDictionary
280
     1
281
     1
  3
ACAD_XREC_ROUNDTRIP
360
A7B9
  0
DICTIONARY
  5
A7D2
330
A762
100
AcDbDictionary
280
     1
281
     1
  3
ACAD_XREC_ROUNDTRIP
360
A7D3
  0
DICTIONARY
  5
A7C0
330
A759
100
AcDbDictionary
280
     1
281
     1
  3
ACAD_XREC_ROUNDTRIP
360
A7C1
  0
DICTIONARY
  5
A7A4
330
A74B
100
AcDbDictionary
280
     1
281
     1
  3
ACAD_XREC_ROUNDTRIP
360
A7A5
  0
DICTIONARY
  5
A7A6
330
A74C
100
AcDbDictionary
280
     1
281
     1
  3
ACAD_XREC_ROUNDTRIP
360
A7A7
  0
DICTIONARY
  5
A7A8
330
A74D
100
AcDbDictionary
280
     1
281
     1
  3
ACAD_XREC_ROUNDTRIP
360
A7A9
  0
DICTIONARY
  5
A7AA
330
A74E
100
AcDbDictionary
280
     1
281
     1
  3
ACAD_XREC_ROUNDTRIP
360
A7AB
  0
DICTIONARY
  5
A7B2
330
A752
100
AcDbDictionary
280
     1
281
     1
  3
ACAD_XREC_ROUNDTRIP
360
A7B3
  0
DICTIONARY
  5
A7CE
330
A760
100
AcDbDictionary
280
     1
281
     1
  3
ACAD_XREC_ROUNDTRIP
360
A7CF
  0
DICTIONARY
  5
A7BE
330
A758
100
AcDbDictionary
280
     1
281
     1
  3
ACAD_XREC_ROUNDTRIP
360
A7BF
  0
DICTIONARY
  5
A7D0
330
A761
100
AcDbDictionary
280
     1
281
     1
  3
ACAD_XREC_ROUNDTRIP
360
A7D1
  0
DICTIONARY
  5
A7B6
330
A754
100
AcDbDictionary
280
     1
281
     1
  3
ACAD_XREC_ROUNDTRIP
360
A7B7
  0
DICTIONARY
  5
A7CC
330
A75F
100
AcDbDictionary
280
     1
281
     1
  3
ACAD_XREC_ROUNDTRIP
360
A7CD
  0
DICTIONARY
  5
A7CA
330
A75E
100
AcDbDictionary
280
     1
281
     1
  3
ACAD_XREC_ROUNDTRIP
360
A7CB
  0
DICTIONARY
  5
A7C4
330
A75B
100
AcDbDictionary
280
     1
281
     1
  3
ACAD_XREC_ROUNDTRIP
360
A7C5
  0
DICTIONARY
  5
A7C6
330
A75C
100
AcDbDictionary
280
     1
281
     1
  3
ACAD_XREC_ROUNDTRIP
360
A7C7
  0
DICTIONARY
  5
A7BC
330
A757
100
AcDbDictionary
280
     1
281
     1
  3
ACAD_XREC_ROUNDTRIP
360
A7BD
  0
DICTIONARY
  5
A7B0
330
A751
100
AcDbDictionary
280
     1
281
     1
  3
ACAD_XREC_ROUNDTRIP
360
A7B1
  0
DICTIONARY
  5
A7C8
330
A75D
100
AcDbDictionary
280
     1
281
     1
  3
ACAD_XREC_ROUNDTRIP
360
A7C9
  0
XRECORD
  5
A7D9
102
{ACAD_REACTORS
330
A7D8
102
}
330
A7D8
100
AcDbXrecord
280
     1
102
DISPLAYNAME
  1
Imperial24
102
FLAGS
 90
        0
  0
XRECORD
  5
A7DB
102
{ACAD_REACTORS
330
A7DA
102
}
330
A7DA
100
AcDbXrecord
280
     1
102
SHADEPLOT
 70
     0
102
SHADEPLOTRESLEVEL
 70
     2
102
SHADEPLOTCUSTOMDPI
 70
   300
  0
XRECORD
  5
A7DD
102
{ACAD_REACTORS
330
A7DC
102
}
330
A7DC
100
AcDbXrecord
280
     1
102
SHADEPLOT
 70
     0
102
SHADEPLOTRESLEVEL
 70
     2
102
SHADEPLOTCUSTOMDPI
 70
   300
  0
XRECORD
  5
A7A2
102
{ACAD_REACTORS
330
A73B
102
}
330
A73B
100
AcDbXrecord
280
     1
102
MATERIAL
148
0.0
149
0.0
149
0.0
 93
        0
 94
      127
282
     0
 72
     0
 77
     0
171
     0
175
     0
179
     0
273
     0
  0
XRECORD
  5
A73D
102
{ACAD_REACTORS
330
A73B
102
}
330
A73B
100
AcDbXrecord
280
     1
270
     1
271
     1
  0
XRECORD
  5
A73C
102
{ACAD_REACTORS
330
A73B
102
}
330
A73B
100
AcDbXrecord
280
     1
270
     1
271
     1
  0
XRECORD
  5
A740
102
{ACAD_REACTORS
330
A73B
102
}
330
A73B
100
AcDbXrecord
280
     1
270
     1
271
     1
  0
XRECORD
  5
A73F
102
{ACAD_REACTORS
330
A73B
102
}
330
A73B
100
AcDbXrecord
280
     1
270
     1
271
     1
  0
XRECORD
  5
A741
102
{ACAD_REACTORS
330
A73B
102
}
330
A73B
100
AcDbXrecord
280
     1
270
     1
271
     1
  0
XRECORD
  5
A73E
102
{ACAD_REACTORS
330
A73B
102
}
330
A73B
100
AcDbXrecord
280
     1
270
     1
271
     1
  0
XRECORD
  5
A7A1
102
{ACAD_REACTORS
330
A733
102
}
330
A733
100
AcDbXrecord
280
     1
102
MATERIAL
148
0.0
149
0.0
149
0.0
 93
        0
 94
      127
282
     0
 72
     0
 77
     0
171
     0
175
     0
179
     0
273
     0
  0
XRECORD
  5
A735
102
{ACAD_REACTORS
330
A733
102
}
330
A733
100
AcDbXrecord
280
     1
270
     1
271
     1
  0
XRECORD
  5
A734
102
{ACAD_REACTORS
330
A733
102
}
330
A733
100
AcDbXrecord
280
     1
270
     1
271
     1
  0
XRECORD
  5
A738
102
{ACAD_REACTORS
330
A733
102
}
330
A733
100
AcDbXrecord
280
     1
270
     1
271
     1
  0
XRECORD
  5
A737
102
{ACAD_REACTORS
330
A733
102
}
330
A733
100
AcDbXrecord
280
     1
270
     1
271
     1
  0
XRECORD
  5
A739
102
{ACAD_REACTORS
330
A733
102
}
330
A733
100
AcDbXrecord
280
     1
270
     1
271
     1
  0
XRECORD
  5
A736
102
{ACAD_REACTORS
330
A733
102
}
330
A733
100
AcDbXrecord
280
     1
270
     1
271
     1
  0
XRECORD
  5
A7A3
102
{ACAD_REACTORS
330
A743
102
}
330
A743
100
AcDbXrecord
280
     1
102
MATERIAL
148
0.0
149
0.0
149
0.0
 93
        0
 94
      127
282
     0
 72
     0
 77
     0
171
     0
175
     0
179
     0
273
     0
  0
XRECORD
  5
A745
102
{ACAD_REACTORS
330
A743
102
}
330
A743
100
AcDbXrecord
280
     1
270
     1
271
     1
  0
XRECORD
  5
A744
102
{ACAD_REACTORS
330
A743
102
}
330
A743
100
AcDbXrecord
280
     1
270
     1
271
     1
  0
XRECORD
  5
A748
102
{ACAD_REACTORS
330
A743
102
}
330
A743
100
AcDbXrecord
280
     1
270
     1
271
     1
  0
XRECORD
  5
A747
102
{ACAD_REACTORS
330
A743
102
}
330
A743
100
AcDbXrecord
280
     1
270
     1
271
     1
  0
XRECORD
  5
A749
102
{ACAD_REACTORS
330
A743
102
}
330
A743
100
AcDbXrecord
280
     1
270
     1
271
     1
  0
XRECORD
  5
A746
102
{ACAD_REACTORS
330
A743
102
}
330
A743
100
AcDbXrecord
280
     1
270
     1
271
     1
  0
XRECORD
  5
A7D7
102
{ACAD_REACTORS
330
A7D6
102
}
330
A7D6
100
AcDbXrecord
280
     1
102
DISPLAYNAME
  1
Imperial24
102
FLAGS
 90
        0
  0
CELLSTYLEMAP
  5
A79E
102
{ACAD_REACTORS
330
A79D
102
}
330
A79D
100
AcDbCellStyleMap
 90
        3
300
CELLSTYLE
  1
TABLEFORMAT_BEGIN
 90
        5
170
     1
 91
        0
 92
    32768
 62
   257
 93
        1
300
CONTENTFORMAT
  1
CONTENTFORMAT_BEGIN
 90
        0
 91
        0
 92
      512
 93
        0
300

 40
0.0
140
1.0
 94
        5
 62
     0
340
A540
144
0.25
309
CONTENTFORMAT_END
171
     0
 94
        0
309
TABLEFORMAT_END
  1
CELLSTYLE_BEGIN
 90
        1
 91
        1
300
_TITLE
309
CELLSTYLE_END
300
CELLSTYLE
  1
TABLEFORMAT_BEGIN
 90
        5
170
     1
 91
        0
 92
        0
 62
   257
 93
        1
300
CONTENTFORMAT
  1
CONTENTFORMAT_BEGIN
 90
        0
 91
        0
 92
      512
 93
        0
300

 40
0.0
140
1.0
 94
        5
 62
     0
340
A540
144
0.18
309
CONTENTFORMAT_END
171
     0
 94
        0
309
TABLEFORMAT_END
  1
CELLSTYLE_BEGIN
 90
        2
 91
        1
300
_HEADER
309
CELLSTYLE_END
300
CELLSTYLE
  1
TABLEFORMAT_BEGIN
 90
        5
170
     1
 91
        0
 92
        0
 62
   257
 93
        1
300
CONTENTFORMAT
  1
CONTENTFORMAT_BEGIN
 90
        0
 91
        0
 92
      512
 93
        0
300

 40
0.0
140
1.0
 94
        2
 62
     0
340
A540
144
0.18
309
CONTENTFORMAT_END
171
     0
 94
        0
309
TABLEFORMAT_END
  1
CELLSTYLE_BEGIN
 90
        3
 91
        2
300
_DATA
309
CELLSTYLE_END
  0
XRECORD
  5
A7D4
102
{ACAD_REACTORS
330
A79D
102
}
330
A79D
100
AcDbXrecord
280
     1
102
ACAD_ROUNDTRIP_PRE2007_TABLESTYLE
 90
      512
 91
        0
  1

 92
      512
 93
        0
  2

 94
      512
 95
        0
  3

  0
XRECORD
  5
A7AF
102
{ACAD_REACTORS
330
A7AE
102
}
330
A7AE
100
AcDbXrecord
280
     1
102
RTVSPost2010Prop28
280
     1
102
RTVSPost2010PropOp28
 70
     1
102
RTVSPost2010Prop29
280
     1
102
RTVSPost2010PropOp29
 70
     1
102
RTVSPost2010Prop30
280
     0
102
RTVSPost2010PropOp30
 70
     1
102
RTVSPost2010Prop31
280
     0
102
RTVSPost2010PropOp31
 70
     1
102
RTVSPost2010Prop32
280
     0
102
RTVSPost2010PropOp32
 70
     1
102
RTVSPost2010Prop33
280
     0
102
RTVSPost2010PropOp33
 70
     1
102
RTVSPost2010Prop34
280
     0
102
RTVSPost2010PropOp34
 70
     1
102
RTVSPost2010Prop35
280
     0
102
RTVSPost2010PropOp35
 70
     1
102
RTVSPost2010Prop36
280
     0
102
RTVSPost2010PropOp36
 70
     1
102
RTVSPost2010Prop37
 90
       50
102
RTVSPost2010PropOp37
 70
     1
102
RTVSPost2010Prop38
140
0.0
102
RTVSPost2010PropOp38
 70
     1
102
RTVSPost2010Prop39
140
1.0
102
RTVSPost2010PropOp39
 70
     1
102
RTVSPost2010Prop40
 90
        0
102
RTVSPost2010PropOp40
 70
     1
102
RTVSPost2010Prop41ColorIndex
 90
       18
102
RTVSPost2010Prop41ColorRGB
 90
        0
102
RTVSPost2010PropOp41
 70
     1
102
RTVSPost2010Prop42
 90
       50
102
RTVSPost2010PropOp42
 70
     1
102
RTVSPost2010Prop43
 90
        3
102
RTVSPost2010PropOp43
 70
     1
102
RTVSPost2010Prop44ColorIndex
 90
        5
102
RTVSPost2010Prop44ColorRGB
 90
      255
102
RTVSPost2010PropOp44
 70
     1
102
RTVSPost2010Prop45
280
     0
102
RTVSPost2010PropOp45
 70
     1
102
RTVSPost2010Prop46
 90
       50
102
RTVSPost2010PropOp46
 70
     1
102
RTVSPost2010Prop47
 90
       50
102
RTVSPost2010PropOp47
 70
     1
102
RTVSPost2010Prop48
 90
       50
102
RTVSPost2010PropOp48
 70
     1
102
RTVSPost2010Prop49
280
     0
102
RTVSPost2010PropOp49
 70
     1
102
RTVSPost2010Prop50
 90
       50
102
RTVSPost2010PropOp50
 70
     1
102
RTVSPost2010Prop51ColorIndex
 90
      256
102
RTVSPost2010Prop51ColorRGB
 90
-16777216
102
RTVSPost2010PropOp51
 70
     0
102
RTVSPost2010Prop52
140
1.0
102
RTVSPost2010PropOp52
 70
     0
102
RTVSPost2010Prop53
 90
        2
102
RTVSPost2010PropOp53
 70
     1
102
RTVSPost2010Prop54
  1
strokes_ogs.tif
102
RTVSPost2010PropOp54
 70
     1
102
RTVSPost2010Prop55
280
     0
102
RTVSPost2010PropOp55
 70
     1
102
RTVSPost2010Prop56
140
1.0
102
RTVSPost2010PropOp56
 70
     1
102
RTVSPost2010Prop57
140
1.0
102
RTVSPost2010PropOp57
 70
     1
102
RTVSPropertyOp0
 70
     1
102
RTVSPropertyOp1
 70
     1
102
RTVSPropertyOp2
 70
     1
102
RTVSPropertyOp3
 70
     1
102
RTVSPropertyOp4
 70
     1
102
RTVSPropertyOp5
 70
     1
102
RTVSPropertyOp6
 70
     1
102
RTVSPropertyOp7
 70
     1
102
RTVSPropertyOp8
 70
     1
102
RTVSPropertyOp9
 70
     1
102
RTVSPropertyOp10
 70
     1
102
RTVSPropertyOp11
 70
     1
102
RTVSPropertyOp12
 70
     1
102
RTVSPropertyOp13
 70
     1
102
RTVSPropertyOp14
 70
     1
102
RTVSPropertyOp15
 70
     1
102
RTVSPropertyOp16
 70
     1
102
RTVSPropertyOp17
 70
     1
102
RTVSPropertyOp18
 70
     1
102
RTVSPropertyOp19
 70
     1
102
RTVSPropertyOp20
 70
     1
102
RTVSPropertyOp21
 70
     1
102
RTVSPropertyOp22
 70
     1
102
RTVSPropertyOp23
 70
     1
102
RTVSPropertyOp24
 70
     1
102
RTVSPropertyOp25
 70
     1
102
RTVSPropertyOp26
 70
     1
102
RTVSPropertyOp27
 70
     1
102
RTVSPropertyOp28
 70
     1
102
RTVSPropertyOp29
 70
     1
102
RTVSPropertyOp30
 70
     1
102
RTVSPropertyOp31
 70
     1
102
RTVSPropertyOp32
 70
     1
102
RTVSPropertyOp33
 70
     1
102
RTVSPropertyOp34
 70
     1
102
RTVSPropertyOp35
 70
     1
102
RTVSPropertyOp36
 70
     1
102
RTVSPropertyOp37
 70
     1
102
RTVSPropertyOp38
 70
     1
102
RTVSPropertyOp39
 70
     1
102
RTVSPropertyOp40
 70
     1
102
RTVSPropertyOp41
 70
     1
102
RTVSPropertyOp42
 70
     1
102
RTVSPropertyOp43
 70
     1
102
RTVSPropertyOp44
 70
     1
102
RTVSPropertyOp45
 70
     1
102
RTVSPropertyOp46
 70
     1
102
RTVSPropertyOp47
 70
     1
102
RTVSPropertyOp48
 70
     1
102
RTVSPropertyOp49
 70
     1
102
RTVSPropertyOp50
 70
     1
102
RTVSPropertyOp51
 70
     0
102
RTVSPropertyOp52
 70
     0
102
RTVSPropertyOp53
 70
     1
102
RTVSPropertyOp54
 70
     1
102
RTVSPropertyOp55
 70
     1
102
RTVSPropertyOp56
 70
     1
102
RTVSPropertyOp57
 70
     1
102
RTVSPropertyOp58
 70
     1
102
RTVSPropertyOp59
 70
     1
102
RTVSPropertyOp60
 70
     1
102
RTVSPropertyOp61
 70
     1
102
RTVSPropertyOp62
 70
     1
  0
XRECORD
  5
A7AD
102
{ACAD_REACTORS
330
A7AC
102
}
330
A7AC
100
AcDbXrecord
280
     1
102
RTVSPost2010Prop28
280
     0
102
RTVSPost2010PropOp28
 70
     1
102
RTVSPost2010Prop29
280
     1
102
RTVSPost2010PropOp29
 70
     1
102
RTVSPost2010Prop30
280
     1
102
RTVSPost2010PropOp30
 70
     1
102
RTVSPost2010Prop31
280
     0
102
RTVSPost2010PropOp31
 70
     1
102
RTVSPost2010Prop32
280
     0
102
RTVSPost2010PropOp32
 70
     1
102
RTVSPost2010Prop33
280
     0
102
RTVSPost2010PropOp33
 70
     1
102
RTVSPost2010Prop34
280
     0
102
RTVSPost2010PropOp34
 70
     1
102
RTVSPost2010Prop35
280
     0
102
RTVSPost2010PropOp35
 70
     1
102
RTVSPost2010Prop36
280
     0
102
RTVSPost2010PropOp36
 70
     1
102
RTVSPost2010Prop37
 90
       50
102
RTVSPost2010PropOp37
 70
     1
102
RTVSPost2010Prop38
140
0.0
102
RTVSPost2010PropOp38
 70
     1
102
RTVSPost2010Prop39
140
1.0
102
RTVSPost2010PropOp39
 70
     1
102
RTVSPost2010Prop40
 90
        0
102
RTVSPost2010PropOp40
 70
     1
102
RTVSPost2010Prop41ColorIndex
 90
       18
102
RTVSPost2010Prop41ColorRGB
 90
        0
102
RTVSPost2010PropOp41
 70
     1
102
RTVSPost2010Prop42
 90
       50
102
RTVSPost2010PropOp42
 70
     1
102
RTVSPost2010Prop43
 90
        3
102
RTVSPost2010PropOp43
 70
     1
102
RTVSPost2010Prop44ColorIndex
 90
        5
102
RTVSPost2010Prop44ColorRGB
 90
      255
102
RTVSPost2010PropOp44
 70
     1
102
RTVSPost2010Prop45
280
     0
102
RTVSPost2010PropOp45
 70
     1
102
RTVSPost2010Prop46
 90
       50
102
RTVSPost2010PropOp46
 70
     1
102
RTVSPost2010Prop47
 90
       50
102
RTVSPost2010PropOp47
 70
     1
102
RTVSPost2010Prop48
 90
       50
102
RTVSPost2010PropOp48
 70
     1
102
RTVSPost2010Prop49
280
     0
102
RTVSPost2010PropOp49
 70
     1
102
RTVSPost2010Prop50
 90
       50
102
RTVSPost2010PropOp50
 70
     1
102
RTVSPost2010Prop51ColorIndex
 90
      256
102
RTVSPost2010Prop51ColorRGB
 90
-16777216
102
RTVSPost2010PropOp51
 70
     0
102
RTVSPost2010Prop52
140
1.0
102
RTVSPost2010PropOp52
 70
     0
102
RTVSPost2010Prop53
 90
        2
102
RTVSPost2010PropOp53
 70
     1
102
RTVSPost2010Prop54
  1
strokes_ogs.tif
102
RTVSPost2010PropOp54
 70
     1
102
RTVSPost2010Prop55
280
     0
102
RTVSPost2010PropOp55
 70
     1
102
RTVSPost2010Prop56
140
1.0
102
RTVSPost2010PropOp56
 70
     1
102
RTVSPost2010Prop57
140
1.0
102
RTVSPost2010PropOp57
 70
     1
102
RTVSPropertyOp0
 70
     1
102
RTVSPropertyOp1
 70
     1
102
RTVSPropertyOp2
 70
     1
102
RTVSPropertyOp3
 70
     1
102
RTVSPropertyOp4
 70
     1
102
RTVSPropertyOp5
 70
     1
102
RTVSPropertyOp6
 70
     1
102
RTVSPropertyOp7
 70
     1
102
RTVSPropertyOp8
 70
     1
102
RTVSPropertyOp9
 70
     1
102
RTVSPropertyOp10
 70
     1
102
RTVSPropertyOp11
 70
     1
102
RTVSPropertyOp12
 70
     1
102
RTVSPropertyOp13
 70
     1
102
RTVSPropertyOp14
 70
     1
102
RTVSPropertyOp15
 70
     1
102
RTVSPropertyOp16
 70
     1
102
RTVSPropertyOp17
 70
     1
102
RTVSPropertyOp18
 70
     1
102
RTVSPropertyOp19
 70
     1
102
RTVSPropertyOp20
 70
     1
102
RTVSPropertyOp21
 70
     1
102
RTVSPropertyOp22
 70
     1
102
RTVSPropertyOp23
 70
     1
102
RTVSPropertyOp24
 70
     1
102
RTVSPropertyOp25
 70
     1
102
RTVSPropertyOp26
 70
     1
102
RTVSPropertyOp27
 70
     1
102
RTVSPropertyOp28
 70
     1
102
RTVSPropertyOp29
 70
     1
102
RTVSPropertyOp30
 70
     1
102
RTVSPropertyOp31
 70
     1
102
RTVSPropertyOp32
 70
     1
102
RTVSPropertyOp33
 70
     1
102
RTVSPropertyOp34
 70
     1
102
RTVSPropertyOp35
 70
     1
102
RTVSPropertyOp36
 70
     1
102
RTVSPropertyOp37
 70
     1
102
RTVSPropertyOp38
 70
     1
102
RTVSPropertyOp39
 70
     1
102
RTVSPropertyOp40
 70
     1
102
RTVSPropertyOp41
 70
     1
102
RTVSPropertyOp42
 70
     1
102
RTVSPropertyOp43
 70
     1
102
RTVSPropertyOp44
 70
     1
102
RTVSPropertyOp45
 70
     1
102
RTVSPropertyOp46
 70
     1
102
RTVSPropertyOp47
 70
     1
102
RTVSPropertyOp48
 70
     1
102
RTVSPropertyOp49
 70
     1
102
RTVSPropertyOp50
 70
     1
102
RTVSPropertyOp51
 70
     0
102
RTVSPropertyOp52
 70
     0
102
RTVSPropertyOp53
 70
     1
102
RTVSPropertyOp54
 70
     1
102
RTVSPropertyOp55
 70
     1
102
RTVSPropertyOp56
 70
     1
102
RTVSPropertyOp57
 70
     1
102
RTVSPropertyOp58
 70
     1
102
RTVSPropertyOp59
 70
     1
102
RTVSPropertyOp60
 70
     1
102
RTVSPropertyOp61
 70
     1
102
RTVSPropertyOp62
 70
     1
  0
XRECORD
  5
A7BB
102
{ACAD_REACTORS
330
A7BA
102
}
330
A7BA
100
AcDbXrecord
280
     1
102
RTVSPost2010Prop28
280
     0
102
RTVSPost2010PropOp28
 70
     1
102
RTVSPost2010Prop29
280
     1
102
RTVSPost2010PropOp29
 70
     1
102
RTVSPost2010Prop30
280
     1
102
RTVSPost2010PropOp30
 70
     1
102
RTVSPost2010Prop31
280
     0
102
RTVSPost2010PropOp31
 70
     1
102
RTVSPost2010Prop32
280
     0
102
RTVSPost2010PropOp32
 70
     1
102
RTVSPost2010Prop33
280
     0
102
RTVSPost2010PropOp33
 70
     1
102
RTVSPost2010Prop34
280
     0
102
RTVSPost2010PropOp34
 70
     1
102
RTVSPost2010Prop35
280
     0
102
RTVSPost2010PropOp35
 70
     1
102
RTVSPost2010Prop36
280
     0
102
RTVSPost2010PropOp36
 70
     1
102
RTVSPost2010Prop37
 90
       50
102
RTVSPost2010PropOp37
 70
     1
102
RTVSPost2010Prop38
140
0.0
102
RTVSPost2010PropOp38
 70
     1
102
RTVSPost2010Prop39
140
1.0
102
RTVSPost2010PropOp39
 70
     1
102
RTVSPost2010Prop40
 90
        0
102
RTVSPost2010PropOp40
 70
     1
102
RTVSPost2010Prop41ColorIndex
 90
       18
102
RTVSPost2010Prop41ColorRGB
 90
        0
102
RTVSPost2010PropOp41
 70
     1
102
RTVSPost2010Prop42
 90
       50
102
RTVSPost2010PropOp42
 70
     1
102
RTVSPost2010Prop43
 90
        3
102
RTVSPost2010PropOp43
 70
     1
102
RTVSPost2010Prop44ColorIndex
 90
        5
102
RTVSPost2010Prop44ColorRGB
 90
      255
102
RTVSPost2010PropOp44
 70
     1
102
RTVSPost2010Prop45
280
     0
102
RTVSPost2010PropOp45
 70
     1
102
RTVSPost2010Prop46
 90
       50
102
RTVSPost2010PropOp46
 70
     1
102
RTVSPost2010Prop47
 90
       50
102
RTVSPost2010PropOp47
 70
     1
102
RTVSPost2010Prop48
 90
       50
102
RTVSPost2010PropOp48
 70
     1
102
RTVSPost2010Prop49
280
     0
102
RTVSPost2010PropOp49
 70
     1
102
RTVSPost2010Prop50
 90
       50
102
RTVSPost2010PropOp50
 70
     1
102
RTVSPost2010Prop51ColorIndex
 90
      256
102
RTVSPost2010Prop51ColorRGB
 90
-16777216
102
RTVSPost2010PropOp51
 70
     0
102
RTVSPost2010Prop52
140
1.0
102
RTVSPost2010PropOp52
 70
     0
102
RTVSPost2010Prop53
 90
        2
102
RTVSPost2010PropOp53
 70
     1
102
RTVSPost2010Prop54
  1
strokes_ogs.tif
102
RTVSPost2010PropOp54
 70
     1
102
RTVSPost2010Prop55
280
     0
102
RTVSPost2010PropOp55
 70
     1
102
RTVSPost2010Prop56
140
1.0
102
RTVSPost2010PropOp56
 70
     1
102
RTVSPost2010Prop57
140
1.0
102
RTVSPost2010PropOp57
 70
     1
102
RTVSPropertyOp0
 70
     1
102
RTVSPropertyOp1
 70
     1
102
RTVSPropertyOp2
 70
     1
102
RTVSPropertyOp3
 70
     1
102
RTVSPropertyOp4
 70
     1
102
RTVSPropertyOp5
 70
     1
102
RTVSPropertyOp6
 70
     1
102
RTVSPropertyOp7
 70
     1
102
RTVSPropertyOp8
 70
     1
102
RTVSPropertyOp9
 70
     1
102
RTVSPropertyOp10
 70
     1
102
RTVSPropertyOp11
 70
     1
102
RTVSPropertyOp12
 70
     1
102
RTVSPropertyOp13
 70
     1
102
RTVSPropertyOp14
 70
     1
102
RTVSPropertyOp15
 70
     1
102
RTVSPropertyOp16
 70
     1
102
RTVSPropertyOp17
 70
     1
102
RTVSPropertyOp18
 70
     1
102
RTVSPropertyOp19
 70
     1
102
RTVSPropertyOp20
 70
     1
102
RTVSPropertyOp21
 70
     1
102
RTVSPropertyOp22
 70
     1
102
RTVSPropertyOp23
 70
     1
102
RTVSPropertyOp24
 70
     1
102
RTVSPropertyOp25
 70
     1
102
RTVSPropertyOp26
 70
     1
102
RTVSPropertyOp27
 70
     1
102
RTVSPropertyOp28
 70
     1
102
RTVSPropertyOp29
 70
     1
102
RTVSPropertyOp30
 70
     1
102
RTVSPropertyOp31
 70
     1
102
RTVSPropertyOp32
 70
     1
102
RTVSPropertyOp33
 70
     1
102
RTVSPropertyOp34
 70
     1
102
RTVSPropertyOp35
 70
     1
102
RTVSPropertyOp36
 70
     1
102
RTVSPropertyOp37
 70
     1
102
RTVSPropertyOp38
 70
     1
102
RTVSPropertyOp39
 70
     1
102
RTVSPropertyOp40
 70
     1
102
RTVSPropertyOp41
 70
     1
102
RTVSPropertyOp42
 70
     1
102
RTVSPropertyOp43
 70
     1
102
RTVSPropertyOp44
 70
     1
102
RTVSPropertyOp45
 70
     1
102
RTVSPropertyOp46
 70
     1
102
RTVSPropertyOp47
 70
     1
102
RTVSPropertyOp48
 70
     1
102
RTVSPropertyOp49
 70
     1
102
RTVSPropertyOp50
 70
     1
102
RTVSPropertyOp51
 70
     0
102
RTVSPropertyOp52
 70
     0
102
RTVSPropertyOp53
 70
     1
102
RTVSPropertyOp54
 70
     1
102
RTVSPropertyOp55
 70
     1
102
RTVSPropertyOp56
 70
     1
102
RTVSPropertyOp57
 70
     1
102
RTVSPropertyOp58
 70
     1
102
RTVSPropertyOp59
 70
     1
102
RTVSPropertyOp60
 70
     1
102
RTVSPropertyOp61
 70
     1
102
RTVSPropertyOp62
 70
     1
  0
XRECORD
  5
A7C3
102
{ACAD_REACTORS
330
A7C2
102
}
330
A7C2
100
AcDbXrecord
280
     1
102
RTVSPost2010Prop28
280
     0
102
RTVSPost2010PropOp28
 70
     1
102
RTVSPost2010Prop29
280
     1
102
RTVSPost2010PropOp29
 70
     1
102
RTVSPost2010Prop30
280
     1
102
RTVSPost2010PropOp30
 70
     1
102
RTVSPost2010Prop31
280
     0
102
RTVSPost2010PropOp31
 70
     1
102
RTVSPost2010Prop32
280
     0
102
RTVSPost2010PropOp32
 70
     1
102
RTVSPost2010Prop33
280
     0
102
RTVSPost2010PropOp33
 70
     1
102
RTVSPost2010Prop34
280
     0
102
RTVSPost2010PropOp34
 70
     1
102
RTVSPost2010Prop35
280
     0
102
RTVSPost2010PropOp35
 70
     1
102
RTVSPost2010Prop36
280
     0
102
RTVSPost2010PropOp36
 70
     1
102
RTVSPost2010Prop37
 90
       50
102
RTVSPost2010PropOp37
 70
     1
102
RTVSPost2010Prop38
140
0.0
102
RTVSPost2010PropOp38
 70
     1
102
RTVSPost2010Prop39
140
1.0
102
RTVSPost2010PropOp39
 70
     1
102
RTVSPost2010Prop40
 90
        0
102
RTVSPost2010PropOp40
 70
     1
102
RTVSPost2010Prop41ColorIndex
 90
       18
102
RTVSPost2010Prop41ColorRGB
 90
        0
102
RTVSPost2010PropOp41
 70
     1
102
RTVSPost2010Prop42
 90
       50
102
RTVSPost2010PropOp42
 70
     1
102
RTVSPost2010Prop43
 90
        3
102
RTVSPost2010PropOp43
 70
     1
102
RTVSPost2010Prop44ColorIndex
 90
        5
102
RTVSPost2010Prop44ColorRGB
 90
      255
102
RTVSPost2010PropOp44
 70
     1
102
RTVSPost2010Prop45
280
     0
102
RTVSPost2010PropOp45
 70
     1
102
RTVSPost2010Prop46
 90
       50
102
RTVSPost2010PropOp46
 70
     1
102
RTVSPost2010Prop47
 90
       50
102
RTVSPost2010PropOp47
 70
     1
102
RTVSPost2010Prop48
 90
       50
102
RTVSPost2010PropOp48
 70
     1
102
RTVSPost2010Prop49
280
     0
102
RTVSPost2010PropOp49
 70
     1
102
RTVSPost2010Prop50
 90
       50
102
RTVSPost2010PropOp50
 70
     1
102
RTVSPost2010Prop51ColorIndex
 90
      256
102
RTVSPost2010Prop51ColorRGB
 90
-16777216
102
RTVSPost2010PropOp51
 70
     0
102
RTVSPost2010Prop52
140
1.0
102
RTVSPost2010PropOp52
 70
     0
102
RTVSPost2010Prop53
 90
        2
102
RTVSPost2010PropOp53
 70
     1
102
RTVSPost2010Prop54
  1
strokes_ogs.tif
102
RTVSPost2010PropOp54
 70
     1
102
RTVSPost2010Prop55
280
     0
102
RTVSPost2010PropOp55
 70
     1
102
RTVSPost2010Prop56
140
1.0
102
RTVSPost2010PropOp56
 70
     1
102
RTVSPost2010Prop57
140
1.0
102
RTVSPost2010PropOp57
 70
     1
102
RTVSPropertyOp0
 70
     1
102
RTVSPropertyOp1
 70
     1
102
RTVSPropertyOp2
 70
     1
102
RTVSPropertyOp3
 70
     1
102
RTVSPropertyOp4
 70
     1
102
RTVSPropertyOp5
 70
     1
102
RTVSPropertyOp6
 70
     1
102
RTVSPropertyOp7
 70
     1
102
RTVSPropertyOp8
 70
     1
102
RTVSPropertyOp9
 70
     1
102
RTVSPropertyOp10
 70
     1
102
RTVSPropertyOp11
 70
     1
102
RTVSPropertyOp12
 70
     1
102
RTVSPropertyOp13
 70
     1
102
RTVSPropertyOp14
 70
     1
102
RTVSPropertyOp15
 70
     1
102
RTVSPropertyOp16
 70
     1
102
RTVSPropertyOp17
 70
     1
102
RTVSPropertyOp18
 70
     1
102
RTVSPropertyOp19
 70
     1
102
RTVSPropertyOp20
 70
     1
102
RTVSPropertyOp21
 70
     1
102
RTVSPropertyOp22
 70
     1
102
RTVSPropertyOp23
 70
     1
102
RTVSPropertyOp24
 70
     1
102
RTVSPropertyOp25
 70
     1
102
RTVSPropertyOp26
 70
     1
102
RTVSPropertyOp27
 70
     1
102
RTVSPropertyOp28
 70
     1
102
RTVSPropertyOp29
 70
     1
102
RTVSPropertyOp30
 70
     1
102
RTVSPropertyOp31
 70
     1
102
RTVSPropertyOp32
 70
     1
102
RTVSPropertyOp33
 70
     1
102
RTVSPropertyOp34
 70
     1
102
RTVSPropertyOp35
 70
     1
102
RTVSPropertyOp36
 70
     1
102
RTVSPropertyOp37
 70
     1
102
RTVSPropertyOp38
 70
     1
102
RTVSPropertyOp39
 70
     1
102
RTVSPropertyOp40
 70
     1
102
RTVSPropertyOp41
 70
     1
102
RTVSPropertyOp42
 70
     1
102
RTVSPropertyOp43
 70
     1
102
RTVSPropertyOp44
 70
     1
102
RTVSPropertyOp45
 70
     1
102
RTVSPropertyOp46
 70
     1
102
RTVSPropertyOp47
 70
     1
102
RTVSPropertyOp48
 70
     1
102
RTVSPropertyOp49
 70
     1
102
RTVSPropertyOp50
 70
     1
102
RTVSPropertyOp51
 70
     0
102
RTVSPropertyOp52
 70
     0
102
RTVSPropertyOp53
 70
     1
102
RTVSPropertyOp54
 70
     1
102
RTVSPropertyOp55
 70
     1
102
RTVSPropertyOp56
 70
     1
102
RTVSPropertyOp57
 70
     1
102
RTVSPropertyOp58
 70
     1
102
RTVSPropertyOp59
 70
     1
102
RTVSPropertyOp60
 70
     1
102
RTVSPropertyOp61
 70
     1
102
RTVSPropertyOp62
 70
     1
  0
XRECORD
  5
A7B5
102
{ACAD_REACTORS
330
A7B4
102
}
330
A7B4
100
AcDbXrecord
280
     1
102
RTVSPost2010Prop28
280
     0
102
RTVSPost2010PropOp28
 70
     1
102
RTVSPost2010Prop29
280
     1
102
RTVSPost2010PropOp29
 70
     1
102
RTVSPost2010Prop30
280
     1
102
RTVSPost2010PropOp30
 70
     1
102
RTVSPost2010Prop31
280
     0
102
RTVSPost2010PropOp31
 70
     1
102
RTVSPost2010Prop32
280
     0
102
RTVSPost2010PropOp32
 70
     1
102
RTVSPost2010Prop33
280
     0
102
RTVSPost2010PropOp33
 70
     1
102
RTVSPost2010Prop34
280
     0
102
RTVSPost2010PropOp34
 70
     1
102
RTVSPost2010Prop35
280
     0
102
RTVSPost2010PropOp35
 70
     1
102
RTVSPost2010Prop36
280
     0
102
RTVSPost2010PropOp36
 70
     1
102
RTVSPost2010Prop37
 90
       50
102
RTVSPost2010PropOp37
 70
     1
102
RTVSPost2010Prop38
140
0.0
102
RTVSPost2010PropOp38
 70
     1
102
RTVSPost2010Prop39
140
1.0
102
RTVSPost2010PropOp39
 70
     1
102
RTVSPost2010Prop40
 90
        0
102
RTVSPost2010PropOp40
 70
     1
102
RTVSPost2010Prop41ColorIndex
 90
       18
102
RTVSPost2010Prop41ColorRGB
 90
        0
102
RTVSPost2010PropOp41
 70
     1
102
RTVSPost2010Prop42
 90
       50
102
RTVSPost2010PropOp42
 70
     1
102
RTVSPost2010Prop43
 90
        3
102
RTVSPost2010PropOp43
 70
     1
102
RTVSPost2010Prop44ColorIndex
 90
        5
102
RTVSPost2010Prop44ColorRGB
 90
      255
102
RTVSPost2010PropOp44
 70
     1
102
RTVSPost2010Prop45
280
     0
102
RTVSPost2010PropOp45
 70
     1
102
RTVSPost2010Prop46
 90
       50
102
RTVSPost2010PropOp46
 70
     1
102
RTVSPost2010Prop47
 90
       50
102
RTVSPost2010PropOp47
 70
     1
102
RTVSPost2010Prop48
 90
       50
102
RTVSPost2010PropOp48
 70
     1
102
RTVSPost2010Prop49
280
     0
102
RTVSPost2010PropOp49
 70
     1
102
RTVSPost2010Prop50
 90
       50
102
RTVSPost2010PropOp50
 70
     1
102
RTVSPost2010Prop51ColorIndex
 90
      256
102
RTVSPost2010Prop51ColorRGB
 90
-16777216
102
RTVSPost2010PropOp51
 70
     0
102
RTVSPost2010Prop52
140
1.0
102
RTVSPost2010PropOp52
 70
     0
102
RTVSPost2010Prop53
 90
        2
102
RTVSPost2010PropOp53
 70
     1
102
RTVSPost2010Prop54
  1
strokes_ogs.tif
102
RTVSPost2010PropOp54
 70
     1
102
RTVSPost2010Prop55
280
     0
102
RTVSPost2010PropOp55
 70
     1
102
RTVSPost2010Prop56
140
1.0
102
RTVSPost2010PropOp56
 70
     1
102
RTVSPost2010Prop57
140
1.0
102
RTVSPost2010PropOp57
 70
     1
102
RTVSPropertyOp0
 70
     1
102
RTVSPropertyOp1
 70
     1
102
RTVSPropertyOp2
 70
     1
102
RTVSPropertyOp3
 70
     1
102
RTVSPropertyOp4
 70
     1
102
RTVSPropertyOp5
 70
     1
102
RTVSPropertyOp6
 70
     1
102
RTVSPropertyOp7
 70
     1
102
RTVSPropertyOp8
 70
     1
102
RTVSPropertyOp9
 70
     1
102
RTVSPropertyOp10
 70
     1
102
RTVSPropertyOp11
 70
     1
102
RTVSPropertyOp12
 70
     1
102
RTVSPropertyOp13
 70
     1
102
RTVSPropertyOp14
 70
     1
102
RTVSPropertyOp15
 70
     1
102
RTVSPropertyOp16
 70
     1
102
RTVSPropertyOp17
 70
     1
102
RTVSPropertyOp18
 70
     1
102
RTVSPropertyOp19
 70
     1
102
RTVSPropertyOp20
 70
     1
102
RTVSPropertyOp21
 70
     1
102
RTVSPropertyOp22
 70
     1
102
RTVSPropertyOp23
 70
     1
102
RTVSPropertyOp24
 70
     1
102
RTVSPropertyOp25
 70
     1
102
RTVSPropertyOp26
 70
     1
102
RTVSPropertyOp27
 70
     1
102
RTVSPropertyOp28
 70
     1
102
RTVSPropertyOp29
 70
     1
102
RTVSPropertyOp30
 70
     1
102
RTVSPropertyOp31
 70
     1
102
RTVSPropertyOp32
 70
     1
102
RTVSPropertyOp33
 70
     1
102
RTVSPropertyOp34
 70
     1
102
RTVSPropertyOp35
 70
     1
102
RTVSPropertyOp36
 70
     1
102
RTVSPropertyOp37
 70
     1
102
RTVSPropertyOp38
 70
     1
102
RTVSPropertyOp39
 70
     1
102
RTVSPropertyOp40
 70
     1
102
RTVSPropertyOp41
 70
     1
102
RTVSPropertyOp42
 70
     1
102
RTVSPropertyOp43
 70
     1
102
RTVSPropertyOp44
 70
     1
102
RTVSPropertyOp45
 70
     1
102
RTVSPropertyOp46
 70
     1
102
RTVSPropertyOp47
 70
     1
102
RTVSPropertyOp48
 70
     1
102
RTVSPropertyOp49
 70
     1
102
RTVSPropertyOp50
 70
     1
102
RTVSPropertyOp51
 70
     0
102
RTVSPropertyOp52
 70
     0
102
RTVSPropertyOp53
 70
     1
102
RTVSPropertyOp54
 70
     1
102
RTVSPropertyOp55
 70
     1
102
RTVSPropertyOp56
 70
     1
102
RTVSPropertyOp57
 70
     1
102
RTVSPropertyOp58
 70
     1
102
RTVSPropertyOp59
 70
     1
102
RTVSPropertyOp60
 70
     1
102
RTVSPropertyOp61
 70
     1
102
RTVSPropertyOp62
 70
     1
  0
XRECORD
  5
A7B9
102
{ACAD_REACTORS
330
A7B8
102
}
330
A7B8
100
AcDbXrecord
280
     1
102
RTVSPost2010Prop28
280
     0
102
RTVSPost2010PropOp28
 70
     1
102
RTVSPost2010Prop29
280
     1
102
RTVSPost2010PropOp29
 70
     1
102
RTVSPost2010Prop30
280
     1
102
RTVSPost2010PropOp30
 70
     1
102
RTVSPost2010Prop31
280
     0
102
RTVSPost2010PropOp31
 70
     1
102
RTVSPost2010Prop32
280
     0
102
RTVSPost2010PropOp32
 70
     1
102
RTVSPost2010Prop33
280
     0
102
RTVSPost2010PropOp33
 70
     1
102
RTVSPost2010Prop34
280
     0
102
RTVSPost2010PropOp34
 70
     1
102
RTVSPost2010Prop35
280
     0
102
RTVSPost2010PropOp35
 70
     1
102
RTVSPost2010Prop36
280
     0
102
RTVSPost2010PropOp36
 70
     1
102
RTVSPost2010Prop37
 90
       50
102
RTVSPost2010PropOp37
 70
     1
102
RTVSPost2010Prop38
140
0.0
102
RTVSPost2010PropOp38
 70
     1
102
RTVSPost2010Prop39
140
1.0
102
RTVSPost2010PropOp39
 70
     1
102
RTVSPost2010Prop40
 90
        0
102
RTVSPost2010PropOp40
 70
     1
102
RTVSPost2010Prop41ColorIndex
 90
       18
102
RTVSPost2010Prop41ColorRGB
 90
        0
102
RTVSPost2010PropOp41
 70
     1
102
RTVSPost2010Prop42
 90
       50
102
RTVSPost2010PropOp42
 70
     1
102
RTVSPost2010Prop43
 90
        3
102
RTVSPost2010PropOp43
 70
     1
102
RTVSPost2010Prop44ColorIndex
 90
        5
102
RTVSPost2010Prop44ColorRGB
 90
      255
102
RTVSPost2010PropOp44
 70
     1
102
RTVSPost2010Prop45
280
     0
102
RTVSPost2010PropOp45
 70
     1
102
RTVSPost2010Prop46
 90
       50
102
RTVSPost2010PropOp46
 70
     1
102
RTVSPost2010Prop47
 90
       50
102
RTVSPost2010PropOp47
 70
     1
102
RTVSPost2010Prop48
 90
       50
102
RTVSPost2010PropOp48
 70
     1
102
RTVSPost2010Prop49
280
     0
102
RTVSPost2010PropOp49
 70
     1
102
RTVSPost2010Prop50
 90
       50
102
RTVSPost2010PropOp50
 70
     1
102
RTVSPost2010Prop51ColorIndex
 90
      256
102
RTVSPost2010Prop51ColorRGB
 90
-16777216
102
RTVSPost2010PropOp51
 70
     0
102
RTVSPost2010Prop52
140
1.0
102
RTVSPost2010PropOp52
 70
     0
102
RTVSPost2010Prop53
 90
        2
102
RTVSPost2010PropOp53
 70
     1
102
RTVSPost2010Prop54
  1
strokes_ogs.tif
102
RTVSPost2010PropOp54
 70
     1
102
RTVSPost2010Prop55
280
     0
102
RTVSPost2010PropOp55
 70
     1
102
RTVSPost2010Prop56
140
1.0
102
RTVSPost2010PropOp56
 70
     1
102
RTVSPost2010Prop57
140
1.0
102
RTVSPost2010PropOp57
 70
     1
102
RTVSPropertyOp0
 70
     1
102
RTVSPropertyOp1
 70
     1
102
RTVSPropertyOp2
 70
     1
102
RTVSPropertyOp3
 70
     1
102
RTVSPropertyOp4
 70
     1
102
RTVSPropertyOp5
 70
     1
102
RTVSPropertyOp6
 70
     1
102
RTVSPropertyOp7
 70
     1
102
RTVSPropertyOp8
 70
     1
102
RTVSPropertyOp9
 70
     1
102
RTVSPropertyOp10
 70
     1
102
RTVSPropertyOp11
 70
     1
102
RTVSPropertyOp12
 70
     1
102
RTVSPropertyOp13
 70
     1
102
RTVSPropertyOp14
 70
     1
102
RTVSPropertyOp15
 70
     1
102
RTVSPropertyOp16
 70
     1
102
RTVSPropertyOp17
 70
     1
102
RTVSPropertyOp18
 70
     1
102
RTVSPropertyOp19
 70
     1
102
RTVSPropertyOp20
 70
     1
102
RTVSPropertyOp21
 70
     1
102
RTVSPropertyOp22
 70
     1
102
RTVSPropertyOp23
 70
     1
102
RTVSPropertyOp24
 70
     1
102
RTVSPropertyOp25
 70
     1
102
RTVSPropertyOp26
 70
     1
102
RTVSPropertyOp27
 70
     1
102
RTVSPropertyOp28
 70
     1
102
RTVSPropertyOp29
 70
     1
102
RTVSPropertyOp30
 70
     1
102
RTVSPropertyOp31
 70
     1
102
RTVSPropertyOp32
 70
     1
102
RTVSPropertyOp33
 70
     1
102
RTVSPropertyOp34
 70
     1
102
RTVSPropertyOp35
 70
     1
102
RTVSPropertyOp36
 70
     1
102
RTVSPropertyOp37
 70
     1
102
RTVSPropertyOp38
 70
     1
102
RTVSPropertyOp39
 70
     1
102
RTVSPropertyOp40
 70
     1
102
RTVSPropertyOp41
 70
     1
102
RTVSPropertyOp42
 70
     1
102
RTVSPropertyOp43
 70
     1
102
RTVSPropertyOp44
 70
     1
102
RTVSPropertyOp45
 70
     1
102
RTVSPropertyOp46
 70
     1
102
RTVSPropertyOp47
 70
     1
102
RTVSPropertyOp48
 70
     1
102
RTVSPropertyOp49
 70
     1
102
RTVSPropertyOp50
 70
     1
102
RTVSPropertyOp51
 70
     0
102
RTVSPropertyOp52
 70
     0
102
RTVSPropertyOp53
 70
     1
102
RTVSPropertyOp54
 70
     1
102
RTVSPropertyOp55
 70
     1
102
RTVSPropertyOp56
 70
     1
102
RTVSPropertyOp57
 70
     1
102
RTVSPropertyOp58
 70
     1
102
RTVSPropertyOp59
 70
     1
102
RTVSPropertyOp60
 70
     1
102
RTVSPropertyOp61
 70
     1
102
RTVSPropertyOp62
 70
     1
  0
XRECORD
  5
A7D3
102
{ACAD_REACTORS
330
A7D2
102
}
330
A7D2
100
AcDbXrecord
280
     1
102
RTVSPost2010Prop28
280
     0
102
RTVSPost2010PropOp28
 70
     1
102
RTVSPost2010Prop29
280
     1
102
RTVSPost2010PropOp29
 70
     1
102
RTVSPost2010Prop30
280
     1
102
RTVSPost2010PropOp30
 70
     1
102
RTVSPost2010Prop31
280
     0
102
RTVSPost2010PropOp31
 70
     1
102
RTVSPost2010Prop32
280
     0
102
RTVSPost2010PropOp32
 70
     1
102
RTVSPost2010Prop33
280
     0
102
RTVSPost2010PropOp33
 70
     1
102
RTVSPost2010Prop34
280
     0
102
RTVSPost2010PropOp34
 70
     1
102
RTVSPost2010Prop35
280
     0
102
RTVSPost2010PropOp35
 70
     1
102
RTVSPost2010Prop36
280
     0
102
RTVSPost2010PropOp36
 70
     1
102
RTVSPost2010Prop37
 90
       50
102
RTVSPost2010PropOp37
 70
     0
102
RTVSPost2010Prop38
140
0.0
102
RTVSPost2010PropOp38
 70
     0
102
RTVSPost2010Prop39
140
1.0
102
RTVSPost2010PropOp39
 70
     0
102
RTVSPost2010Prop40
 90
        0
102
RTVSPost2010PropOp40
 70
     0
102
RTVSPost2010Prop41ColorIndex
 90
       18
102
RTVSPost2010Prop41ColorRGB
 90
        0
102
RTVSPost2010PropOp41
 70
     0
102
RTVSPost2010Prop42
 90
       50
102
RTVSPost2010PropOp42
 70
     0
102
RTVSPost2010Prop43
 90
        3
102
RTVSPost2010PropOp43
 70
     0
102
RTVSPost2010Prop44ColorIndex
 90
        5
102
RTVSPost2010Prop44ColorRGB
 90
      255
102
RTVSPost2010PropOp44
 70
     0
102
RTVSPost2010Prop45
280
     0
102
RTVSPost2010PropOp45
 70
     1
102
RTVSPost2010Prop46
 90
       50
102
RTVSPost2010PropOp46
 70
     0
102
RTVSPost2010Prop47
 90
       50
102
RTVSPost2010PropOp47
 70
     0
102
RTVSPost2010Prop48
 90
       50
102
RTVSPost2010PropOp48
 70
     0
102
RTVSPost2010Prop49
280
     0
102
RTVSPost2010PropOp49
 70
     1
102
RTVSPost2010Prop50
 90
       50
102
RTVSPost2010PropOp50
 70
     0
102
RTVSPost2010Prop51ColorIndex
 90
      256
102
RTVSPost2010Prop51ColorRGB
 90
-16777216
102
RTVSPost2010PropOp51
 70
     0
102
RTVSPost2010Prop52
140
1.0
102
RTVSPost2010PropOp52
 70
     0
102
RTVSPost2010Prop53
 90
        2
102
RTVSPost2010PropOp53
 70
     0
102
RTVSPost2010Prop54
  1
strokes_ogs.tif
102
RTVSPost2010PropOp54
 70
     0
102
RTVSPost2010Prop55
280
     0
102
RTVSPost2010PropOp55
 70
     1
102
RTVSPost2010Prop56
140
1.0
102
RTVSPost2010PropOp56
 70
     0
102
RTVSPost2010Prop57
140
1.0
102
RTVSPost2010PropOp57
 70
     0
102
RTVSPropertyOp0
 70
     0
102
RTVSPropertyOp1
 70
     0
102
RTVSPropertyOp2
 70
     0
102
RTVSPropertyOp3
 70
     0
102
RTVSPropertyOp4
 70
     0
102
RTVSPropertyOp5
 70
     0
102
RTVSPropertyOp6
 70
     0
102
RTVSPropertyOp7
 70
     0
102
RTVSPropertyOp8
 70
     0
102
RTVSPropertyOp9
 70
     0
102
RTVSPropertyOp10
 70
     0
102
RTVSPropertyOp11
 70
     0
102
RTVSPropertyOp12
 70
     0
102
RTVSPropertyOp13
 70
     0
102
RTVSPropertyOp14
 70
     2
102
RTVSPropertyOp15
 70
     0
102
RTVSPropertyOp16
 70
     0
102
RTVSPropertyOp17
 70
     0
102
RTVSPropertyOp18
 70
     0
102
RTVSPropertyOp19
 70
     0
102
RTVSPropertyOp20
 70
     0
102
RTVSPropertyOp21
 70
     0
102
RTVSPropertyOp22
 70
     0
102
RTVSPropertyOp23
 70
     0
102
RTVSPropertyOp24
 70
     0
102
RTVSPropertyOp25
 70
     0
102
RTVSPropertyOp26
 70
     0
102
RTVSPropertyOp27
 70
     0
102
RTVSPropertyOp28
 70
     1
102
RTVSPropertyOp29
 70
     1
102
RTVSPropertyOp30
 70
     1
102
RTVSPropertyOp31
 70
     1
102
RTVSPropertyOp32
 70
     1
102
RTVSPropertyOp33
 70
     1
102
RTVSPropertyOp34
 70
     1
102
RTVSPropertyOp35
 70
     1
102
RTVSPropertyOp36
 70
     1
102
RTVSPropertyOp37
 70
     0
102
RTVSPropertyOp38
 70
     0
102
RTVSPropertyOp39
 70
     0
102
RTVSPropertyOp40
 70
     0
102
RTVSPropertyOp41
 70
     0
102
RTVSPropertyOp42
 70
     0
102
RTVSPropertyOp43
 70
     0
102
RTVSPropertyOp44
 70
     0
102
RTVSPropertyOp45
 70
     1
102
RTVSPropertyOp46
 70
     0
102
RTVSPropertyOp47
 70
     0
102
RTVSPropertyOp48
 70
     0
102
RTVSPropertyOp49
 70
     1
102
RTVSPropertyOp50
 70
     0
102
RTVSPropertyOp51
 70
     0
102
RTVSPropertyOp52
 70
     0
102
RTVSPropertyOp53
 70
     0
102
RTVSPropertyOp54
 70
     0
102
RTVSPropertyOp55
 70
     1
102
RTVSPropertyOp56
 70
     0
102
RTVSPropertyOp57
 70
     0
102
RTVSPropertyOp58
 70
     0
102
RTVSPropertyOp59
 70
     0
102
RTVSPropertyOp60
 70
     0
102
RTVSPropertyOp61
 70
     0
102
RTVSPropertyOp62
 70
     0
  0
XRECORD
  5
A7C1
102
{ACAD_REACTORS
330
A7C0
102
}
330
A7C0
100
AcDbXrecord
280
     1
102
RTVSPost2010Prop28
280
     0
102
RTVSPost2010PropOp28
 70
     1
102
RTVSPost2010Prop29
280
     1
102
RTVSPost2010PropOp29
 70
     1
102
RTVSPost2010Prop30
280
     1
102
RTVSPost2010PropOp30
 70
     1
102
RTVSPost2010Prop31
280
     0
102
RTVSPost2010PropOp31
 70
     1
102
RTVSPost2010Prop32
280
     0
102
RTVSPost2010PropOp32
 70
     1
102
RTVSPost2010Prop33
280
     0
102
RTVSPost2010PropOp33
 70
     1
102
RTVSPost2010Prop34
280
     0
102
RTVSPost2010PropOp34
 70
     1
102
RTVSPost2010Prop35
280
     0
102
RTVSPost2010PropOp35
 70
     1
102
RTVSPost2010Prop36
280
     0
102
RTVSPost2010PropOp36
 70
     1
102
RTVSPost2010Prop37
 90
       50
102
RTVSPost2010PropOp37
 70
     1
102
RTVSPost2010Prop38
140
0.0
102
RTVSPost2010PropOp38
 70
     1
102
RTVSPost2010Prop39
140
1.0
102
RTVSPost2010PropOp39
 70
     1
102
RTVSPost2010Prop40
 90
        0
102
RTVSPost2010PropOp40
 70
     1
102
RTVSPost2010Prop41ColorIndex
 90
       18
102
RTVSPost2010Prop41ColorRGB
 90
        0
102
RTVSPost2010PropOp41
 70
     1
102
RTVSPost2010Prop42
 90
       50
102
RTVSPost2010PropOp42
 70
     1
102
RTVSPost2010Prop43
 90
        3
102
RTVSPost2010PropOp43
 70
     1
102
RTVSPost2010Prop44ColorIndex
 90
        5
102
RTVSPost2010Prop44ColorRGB
 90
      255
102
RTVSPost2010PropOp44
 70
     1
102
RTVSPost2010Prop45
280
     0
102
RTVSPost2010PropOp45
 70
     1
102
RTVSPost2010Prop46
 90
       50
102
RTVSPost2010PropOp46
 70
     1
102
RTVSPost2010Prop47
 90
       50
102
RTVSPost2010PropOp47
 70
     1
102
RTVSPost2010Prop48
 90
       50
102
RTVSPost2010PropOp48
 70
     1
102
RTVSPost2010Prop49
280
     0
102
RTVSPost2010PropOp49
 70
     1
102
RTVSPost2010Prop50
 90
       50
102
RTVSPost2010PropOp50
 70
     1
102
RTVSPost2010Prop51ColorIndex
 90
      256
102
RTVSPost2010Prop51ColorRGB
 90
-16777216
102
RTVSPost2010PropOp51
 70
     0
102
RTVSPost2010Prop52
140
1.0
102
RTVSPost2010PropOp52
 70
     0
102
RTVSPost2010Prop53
 90
        2
102
RTVSPost2010PropOp53
 70
     1
102
RTVSPost2010Prop54
  1
strokes_ogs.tif
102
RTVSPost2010PropOp54
 70
     1
102
RTVSPost2010Prop55
280
     0
102
RTVSPost2010PropOp55
 70
     1
102
RTVSPost2010Prop56
140
1.0
102
RTVSPost2010PropOp56
 70
     1
102
RTVSPost2010Prop57
140
1.0
102
RTVSPost2010PropOp57
 70
     1
102
RTVSPropertyOp0
 70
     1
102
RTVSPropertyOp1
 70
     1
102
RTVSPropertyOp2
 70
     1
102
RTVSPropertyOp3
 70
     1
102
RTVSPropertyOp4
 70
     1
102
RTVSPropertyOp5
 70
     1
102
RTVSPropertyOp6
 70
     1
102
RTVSPropertyOp7
 70
     1
102
RTVSPropertyOp8
 70
     1
102
RTVSPropertyOp9
 70
     1
102
RTVSPropertyOp10
 70
     1
102
RTVSPropertyOp11
 70
     1
102
RTVSPropertyOp12
 70
     1
102
RTVSPropertyOp13
 70
     1
102
RTVSPropertyOp14
 70
     1
102
RTVSPropertyOp15
 70
     1
102
RTVSPropertyOp16
 70
     1
102
RTVSPropertyOp17
 70
     1
102
RTVSPropertyOp18
 70
     1
102
RTVSPropertyOp19
 70
     1
102
RTVSPropertyOp20
 70
     1
102
RTVSPropertyOp21
 70
     1
102
RTVSPropertyOp22
 70
     1
102
RTVSPropertyOp23
 70
     1
102
RTVSPropertyOp24
 70
     1
102
RTVSPropertyOp25
 70
     1
102
RTVSPropertyOp26
 70
     1
102
RTVSPropertyOp27
 70
     1
102
RTVSPropertyOp28
 70
     1
102
RTVSPropertyOp29
 70
     1
102
RTVSPropertyOp30
 70
     1
102
RTVSPropertyOp31
 70
     1
102
RTVSPropertyOp32
 70
     1
102
RTVSPropertyOp33
 70
     1
102
RTVSPropertyOp34
 70
     1
102
RTVSPropertyOp35
 70
     1
102
RTVSPropertyOp36
 70
     1
102
RTVSPropertyOp37
 70
     1
102
RTVSPropertyOp38
 70
     1
102
RTVSPropertyOp39
 70
     1
102
RTVSPropertyOp40
 70
     1
102
RTVSPropertyOp41
 70
     1
102
RTVSPropertyOp42
 70
     1
102
RTVSPropertyOp43
 70
     1
102
RTVSPropertyOp44
 70
     1
102
RTVSPropertyOp45
 70
     1
102
RTVSPropertyOp46
 70
     1
102
RTVSPropertyOp47
 70
     1
102
RTVSPropertyOp48
 70
     1
102
RTVSPropertyOp49
 70
     1
102
RTVSPropertyOp50
 70
     1
102
RTVSPropertyOp51
 70
     0
102
RTVSPropertyOp52
 70
     0
102
RTVSPropertyOp53
 70
     1
102
RTVSPropertyOp54
 70
     1
102
RTVSPropertyOp55
 70
     1
102
RTVSPropertyOp56
 70
     1
102
RTVSPropertyOp57
 70
     1
102
RTVSPropertyOp58
 70
     1
102
RTVSPropertyOp59
 70
     1
102
RTVSPropertyOp60
 70
     1
102
RTVSPropertyOp61
 70
     1
102
RTVSPropertyOp62
 70
     1
  0
XRECORD
  5
A7A5
102
{ACAD_REACTORS
330
A7A4
102
}
330
A7A4
100
AcDbXrecord
280
     1
102
RTVSPost2010Prop28
280
     0
102
RTVSPost2010PropOp28
 70
     1
102
RTVSPost2010Prop29
280
     1
102
RTVSPost2010PropOp29
 70
     1
102
RTVSPost2010Prop30
280
     1
102
RTVSPost2010PropOp30
 70
     1
102
RTVSPost2010Prop31
280
     0
102
RTVSPost2010PropOp31
 70
     1
102
RTVSPost2010Prop32
280
     0
102
RTVSPost2010PropOp32
 70
     1
102
RTVSPost2010Prop33
280
     0
102
RTVSPost2010PropOp33
 70
     1
102
RTVSPost2010Prop34
280
     0
102
RTVSPost2010PropOp34
 70
     1
102
RTVSPost2010Prop35
280
     0
102
RTVSPost2010PropOp35
 70
     1
102
RTVSPost2010Prop36
280
     0
102
RTVSPost2010PropOp36
 70
     1
102
RTVSPost2010Prop37
 90
       50
102
RTVSPost2010PropOp37
 70
     1
102
RTVSPost2010Prop38
140
0.0
102
RTVSPost2010PropOp38
 70
     1
102
RTVSPost2010Prop39
140
1.0
102
RTVSPost2010PropOp39
 70
     1
102
RTVSPost2010Prop40
 90
        0
102
RTVSPost2010PropOp40
 70
     1
102
RTVSPost2010Prop41ColorIndex
 90
       18
102
RTVSPost2010Prop41ColorRGB
 90
        0
102
RTVSPost2010PropOp41
 70
     1
102
RTVSPost2010Prop42
 90
       50
102
RTVSPost2010PropOp42
 70
     1
102
RTVSPost2010Prop43
 90
        3
102
RTVSPost2010PropOp43
 70
     1
102
RTVSPost2010Prop44ColorIndex
 90
        5
102
RTVSPost2010Prop44ColorRGB
 90
      255
102
RTVSPost2010PropOp44
 70
     1
102
RTVSPost2010Prop45
280
     0
102
RTVSPost2010PropOp45
 70
     1
102
RTVSPost2010Prop46
 90
       50
102
RTVSPost2010PropOp46
 70
     1
102
RTVSPost2010Prop47
 90
       50
102
RTVSPost2010PropOp47
 70
     1
102
RTVSPost2010Prop48
 90
       50
102
RTVSPost2010PropOp48
 70
     1
102
RTVSPost2010Prop49
280
     0
102
RTVSPost2010PropOp49
 70
     1
102
RTVSPost2010Prop50
 90
       50
102
RTVSPost2010PropOp50
 70
     1
102
RTVSPost2010Prop51ColorIndex
 90
      256
102
RTVSPost2010Prop51ColorRGB
 90
-16777216
102
RTVSPost2010PropOp51
 70
     0
102
RTVSPost2010Prop52
140
1.0
102
RTVSPost2010PropOp52
 70
     0
102
RTVSPost2010Prop53
 90
        2
102
RTVSPost2010PropOp53
 70
     1
102
RTVSPost2010Prop54
  1
strokes_ogs.tif
102
RTVSPost2010PropOp54
 70
     1
102
RTVSPost2010Prop55
280
     0
102
RTVSPost2010PropOp55
 70
     1
102
RTVSPost2010Prop56
140
1.0
102
RTVSPost2010PropOp56
 70
     1
102
RTVSPost2010Prop57
140
1.0
102
RTVSPost2010PropOp57
 70
     1
102
RTVSPropertyOp0
 70
     1
102
RTVSPropertyOp1
 70
     1
102
RTVSPropertyOp2
 70
     1
102
RTVSPropertyOp3
 70
     1
102
RTVSPropertyOp4
 70
     1
102
RTVSPropertyOp5
 70
     1
102
RTVSPropertyOp6
 70
     1
102
RTVSPropertyOp7
 70
     1
102
RTVSPropertyOp8
 70
     1
102
RTVSPropertyOp9
 70
     1
102
RTVSPropertyOp10
 70
     1
102
RTVSPropertyOp11
 70
     1
102
RTVSPropertyOp12
 70
     1
102
RTVSPropertyOp13
 70
     1
102
RTVSPropertyOp14
 70
     1
102
RTVSPropertyOp15
 70
     1
102
RTVSPropertyOp16
 70
     1
102
RTVSPropertyOp17
 70
     1
102
RTVSPropertyOp18
 70
     1
102
RTVSPropertyOp19
 70
     1
102
RTVSPropertyOp20
 70
     1
102
RTVSPropertyOp21
 70
     1
102
RTVSPropertyOp22
 70
     1
102
RTVSPropertyOp23
 70
     1
102
RTVSPropertyOp24
 70
     1
102
RTVSPropertyOp25
 70
     1
102
RTVSPropertyOp26
 70
     1
102
RTVSPropertyOp27
 70
     1
102
RTVSPropertyOp28
 70
     1
102
RTVSPropertyOp29
 70
     1
102
RTVSPropertyOp30
 70
     1
102
RTVSPropertyOp31
 70
     1
102
RTVSPropertyOp32
 70
     1
102
RTVSPropertyOp33
 70
     1
102
RTVSPropertyOp34
 70
     1
102
RTVSPropertyOp35
 70
     1
102
RTVSPropertyOp36
 70
     1
102
RTVSPropertyOp37
 70
     1
102
RTVSPropertyOp38
 70
     1
102
RTVSPropertyOp39
 70
     1
102
RTVSPropertyOp40
 70
     1
102
RTVSPropertyOp41
 70
     1
102
RTVSPropertyOp42
 70
     1
102
RTVSPropertyOp43
 70
     1
102
RTVSPropertyOp44
 70
     1
102
RTVSPropertyOp45
 70
     1
102
RTVSPropertyOp46
 70
     1
102
RTVSPropertyOp47
 70
     1
102
RTVSPropertyOp48
 70
     1
102
RTVSPropertyOp49
 70
     1
102
RTVSPropertyOp50
 70
     1
102
RTVSPropertyOp51
 70
     0
102
RTVSPropertyOp52
 70
     0
102
RTVSPropertyOp53
 70
     1
102
RTVSPropertyOp54
 70
     1
102
RTVSPropertyOp55
 70
     1
102
RTVSPropertyOp56
 70
     1
102
RTVSPropertyOp57
 70
     1
102
RTVSPropertyOp58
 70
     1
102
RTVSPropertyOp59
 70
     1
102
RTVSPropertyOp60
 70
     1
102
RTVSPropertyOp61
 70
     1
102
RTVSPropertyOp62
 70
     1
  0
XRECORD
  5
A7A7
102
{ACAD_REACTORS
330
A7A6
102
}
330
A7A6
100
AcDbXrecord
280
     1
102
RTVSPost2010Prop28
280
     0
102
RTVSPost2010PropOp28
 70
     1
102
RTVSPost2010Prop29
280
     1
102
RTVSPost2010PropOp29
 70
     1
102
RTVSPost2010Prop30
280
     1
102
RTVSPost2010PropOp30
 70
     1
102
RTVSPost2010Prop31
280
     0
102
RTVSPost2010PropOp31
 70
     1
102
RTVSPost2010Prop32
280
     0
102
RTVSPost2010PropOp32
 70
     1
102
RTVSPost2010Prop33
280
     0
102
RTVSPost2010PropOp33
 70
     1
102
RTVSPost2010Prop34
280
     0
102
RTVSPost2010PropOp34
 70
     1
102
RTVSPost2010Prop35
280
     0
102
RTVSPost2010PropOp35
 70
     1
102
RTVSPost2010Prop36
280
     0
102
RTVSPost2010PropOp36
 70
     1
102
RTVSPost2010Prop37
 90
       50
102
RTVSPost2010PropOp37
 70
     1
102
RTVSPost2010Prop38
140
0.0
102
RTVSPost2010PropOp38
 70
     1
102
RTVSPost2010Prop39
140
1.0
102
RTVSPost2010PropOp39
 70
     1
102
RTVSPost2010Prop40
 90
        0
102
RTVSPost2010PropOp40
 70
     1
102
RTVSPost2010Prop41ColorIndex
 90
       18
102
RTVSPost2010Prop41ColorRGB
 90
        0
102
RTVSPost2010PropOp41
 70
     1
102
RTVSPost2010Prop42
 90
       50
102
RTVSPost2010PropOp42
 70
     1
102
RTVSPost2010Prop43
 90
        3
102
RTVSPost2010PropOp43
 70
     1
102
RTVSPost2010Prop44ColorIndex
 90
        5
102
RTVSPost2010Prop44ColorRGB
 90
      255
102
RTVSPost2010PropOp44
 70
     1
102
RTVSPost2010Prop45
280
     0
102
RTVSPost2010PropOp45
 70
     1
102
RTVSPost2010Prop46
 90
       50
102
RTVSPost2010PropOp46
 70
     1
102
RTVSPost2010Prop47
 90
       50
102
RTVSPost2010PropOp47
 70
     1
102
RTVSPost2010Prop48
 90
       50
102
RTVSPost2010PropOp48
 70
     1
102
RTVSPost2010Prop49
280
     0
102
RTVSPost2010PropOp49
 70
     1
102
RTVSPost2010Prop50
 90
       50
102
RTVSPost2010PropOp50
 70
     1
102
RTVSPost2010Prop51ColorIndex
 90
      256
102
RTVSPost2010Prop51ColorRGB
 90
-16777216
102
RTVSPost2010PropOp51
 70
     0
102
RTVSPost2010Prop52
140
1.0
102
RTVSPost2010PropOp52
 70
     0
102
RTVSPost2010Prop53
 90
        2
102
RTVSPost2010PropOp53
 70
     1
102
RTVSPost2010Prop54
  1
strokes_ogs.tif
102
RTVSPost2010PropOp54
 70
     1
102
RTVSPost2010Prop55
280
     0
102
RTVSPost2010PropOp55
 70
     1
102
RTVSPost2010Prop56
140
1.0
102
RTVSPost2010PropOp56
 70
     1
102
RTVSPost2010Prop57
140
1.0
102
RTVSPost2010PropOp57
 70
     1
102
RTVSPropertyOp0
 70
     1
102
RTVSPropertyOp1
 70
     1
102
RTVSPropertyOp2
 70
     1
102
RTVSPropertyOp3
 70
     1
102
RTVSPropertyOp4
 70
     1
102
RTVSPropertyOp5
 70
     1
102
RTVSPropertyOp6
 70
     1
102
RTVSPropertyOp7
 70
     1
102
RTVSPropertyOp8
 70
     1
102
RTVSPropertyOp9
 70
     1
102
RTVSPropertyOp10
 70
     1
102
RTVSPropertyOp11
 70
     1
102
RTVSPropertyOp12
 70
     1
102
RTVSPropertyOp13
 70
     1
102
RTVSPropertyOp14
 70
     1
102
RTVSPropertyOp15
 70
     1
102
RTVSPropertyOp16
 70
     1
102
RTVSPropertyOp17
 70
     1
102
RTVSPropertyOp18
 70
     1
102
RTVSPropertyOp19
 70
     1
102
RTVSPropertyOp20
 70
     1
102
RTVSPropertyOp21
 70
     1
102
RTVSPropertyOp22
 70
     1
102
RTVSPropertyOp23
 70
     1
102
RTVSPropertyOp24
 70
     1
102
RTVSPropertyOp25
 70
     1
102
RTVSPropertyOp26
 70
     1
102
RTVSPropertyOp27
 70
     1
102
RTVSPropertyOp28
 70
     1
102
RTVSPropertyOp29
 70
     1
102
RTVSPropertyOp30
 70
     1
102
RTVSPropertyOp31
 70
     1
102
RTVSPropertyOp32
 70
     1
102
RTVSPropertyOp33
 70
     1
102
RTVSPropertyOp34
 70
     1
102
RTVSPropertyOp35
 70
     1
102
RTVSPropertyOp36
 70
     1
102
RTVSPropertyOp37
 70
     1
102
RTVSPropertyOp38
 70
     1
102
RTVSPropertyOp39
 70
     1
102
RTVSPropertyOp40
 70
     1
102
RTVSPropertyOp41
 70
     1
102
RTVSPropertyOp42
 70
     1
102
RTVSPropertyOp43
 70
     1
102
RTVSPropertyOp44
 70
     1
102
RTVSPropertyOp45
 70
     1
102
RTVSPropertyOp46
 70
     1
102
RTVSPropertyOp47
 70
     1
102
RTVSPropertyOp48
 70
     1
102
RTVSPropertyOp49
 70
     1
102
RTVSPropertyOp50
 70
     1
102
RTVSPropertyOp51
 70
     0
102
RTVSPropertyOp52
 70
     0
102
RTVSPropertyOp53
 70
     1
102
RTVSPropertyOp54
 70
     1
102
RTVSPropertyOp55
 70
     1
102
RTVSPropertyOp56
 70
     1
102
RTVSPropertyOp57
 70
     1
102
RTVSPropertyOp58
 70
     1
102
RTVSPropertyOp59
 70
     1
102
RTVSPropertyOp60
 70
     1
102
RTVSPropertyOp61
 70
     1
102
RTVSPropertyOp62
 70
     1
  0
XRECORD
  5
A7A9
102
{ACAD_REACTORS
330
A7A8
102
}
330
A7A8
100
AcDbXrecord
280
     1
102
RTVSPost2010Prop28
280
     0
102
RTVSPost2010PropOp28
 70
     1
102
RTVSPost2010Prop29
280
     1
102
RTVSPost2010PropOp29
 70
     1
102
RTVSPost2010Prop30
280
     1
102
RTVSPost2010PropOp30
 70
     1
102
RTVSPost2010Prop31
280
     0
102
RTVSPost2010PropOp31
 70
     1
102
RTVSPost2010Prop32
280
     0
102
RTVSPost2010PropOp32
 70
     1
102
RTVSPost2010Prop33
280
     0
102
RTVSPost2010PropOp33
 70
     1
102
RTVSPost2010Prop34
280
     0
102
RTVSPost2010PropOp34
 70
     1
102
RTVSPost2010Prop35
280
     0
102
RTVSPost2010PropOp35
 70
     1
102
RTVSPost2010Prop36
280
     0
102
RTVSPost2010PropOp36
 70
     1
102
RTVSPost2010Prop37
 90
       50
102
RTVSPost2010PropOp37
 70
     1
102
RTVSPost2010Prop38
140
0.0
102
RTVSPost2010PropOp38
 70
     1
102
RTVSPost2010Prop39
140
1.0
102
RTVSPost2010PropOp39
 70
     1
102
RTVSPost2010Prop40
 90
        0
102
RTVSPost2010PropOp40
 70
     1
102
RTVSPost2010Prop41ColorIndex
 90
       18
102
RTVSPost2010Prop41ColorRGB
 90
        0
102
RTVSPost2010PropOp41
 70
     1
102
RTVSPost2010Prop42
 90
       50
102
RTVSPost2010PropOp42
 70
     1
102
RTVSPost2010Prop43
 90
        3
102
RTVSPost2010PropOp43
 70
     1
102
RTVSPost2010Prop44ColorIndex
 90
        5
102
RTVSPost2010Prop44ColorRGB
 90
      255
102
RTVSPost2010PropOp44
 70
     1
102
RTVSPost2010Prop45
280
     0
102
RTVSPost2010PropOp45
 70
     1
102
RTVSPost2010Prop46
 90
       50
102
RTVSPost2010PropOp46
 70
     1
102
RTVSPost2010Prop47
 90
       50
102
RTVSPost2010PropOp47
 70
     1
102
RTVSPost2010Prop48
 90
       50
102
RTVSPost2010PropOp48
 70
     1
102
RTVSPost2010Prop49
280
     0
102
RTVSPost2010PropOp49
 70
     1
102
RTVSPost2010Prop50
 90
       50
102
RTVSPost2010PropOp50
 70
     1
102
RTVSPost2010Prop51ColorIndex
 90
      256
102
RTVSPost2010Prop51ColorRGB
 90
-16777216
102
RTVSPost2010PropOp51
 70
     0
102
RTVSPost2010Prop52
140
1.0
102
RTVSPost2010PropOp52
 70
     0
102
RTVSPost2010Prop53
 90
        2
102
RTVSPost2010PropOp53
 70
     1
102
RTVSPost2010Prop54
  1
strokes_ogs.tif
102
RTVSPost2010PropOp54
 70
     1
102
RTVSPost2010Prop55
280
     0
102
RTVSPost2010PropOp55
 70
     1
102
RTVSPost2010Prop56
140
1.0
102
RTVSPost2010PropOp56
 70
     1
102
RTVSPost2010Prop57
140
1.0
102
RTVSPost2010PropOp57
 70
     1
102
RTVSPropertyOp0
 70
     1
102
RTVSPropertyOp1
 70
     1
102
RTVSPropertyOp2
 70
     1
102
RTVSPropertyOp3
 70
     1
102
RTVSPropertyOp4
 70
     1
102
RTVSPropertyOp5
 70
     1
102
RTVSPropertyOp6
 70
     1
102
RTVSPropertyOp7
 70
     1
102
RTVSPropertyOp8
 70
     1
102
RTVSPropertyOp9
 70
     1
102
RTVSPropertyOp10
 70
     1
102
RTVSPropertyOp11
 70
     1
102
RTVSPropertyOp12
 70
     1
102
RTVSPropertyOp13
 70
     1
102
RTVSPropertyOp14
 70
     1
102
RTVSPropertyOp15
 70
     1
102
RTVSPropertyOp16
 70
     1
102
RTVSPropertyOp17
 70
     1
102
RTVSPropertyOp18
 70
     1
102
RTVSPropertyOp19
 70
     1
102
RTVSPropertyOp20
 70
     1
102
RTVSPropertyOp21
 70
     1
102
RTVSPropertyOp22
 70
     1
102
RTVSPropertyOp23
 70
     1
102
RTVSPropertyOp24
 70
     1
102
RTVSPropertyOp25
 70
     1
102
RTVSPropertyOp26
 70
     1
102
RTVSPropertyOp27
 70
     1
102
RTVSPropertyOp28
 70
     1
102
RTVSPropertyOp29
 70
     1
102
RTVSPropertyOp30
 70
     1
102
RTVSPropertyOp31
 70
     1
102
RTVSPropertyOp32
 70
     1
102
RTVSPropertyOp33
 70
     1
102
RTVSPropertyOp34
 70
     1
102
RTVSPropertyOp35
 70
     1
102
RTVSPropertyOp36
 70
     1
102
RTVSPropertyOp37
 70
     1
102
RTVSPropertyOp38
 70
     1
102
RTVSPropertyOp39
 70
     1
102
RTVSPropertyOp40
 70
     1
102
RTVSPropertyOp41
 70
     1
102
RTVSPropertyOp42
 70
     1
102
RTVSPropertyOp43
 70
     1
102
RTVSPropertyOp44
 70
     1
102
RTVSPropertyOp45
 70
     1
102
RTVSPropertyOp46
 70
     1
102
RTVSPropertyOp47
 70
     1
102
RTVSPropertyOp48
 70
     1
102
RTVSPropertyOp49
 70
     1
102
RTVSPropertyOp50
 70
     1
102
RTVSPropertyOp51
 70
     0
102
RTVSPropertyOp52
 70
     0
102
RTVSPropertyOp53
 70
     1
102
RTVSPropertyOp54
 70
     1
102
RTVSPropertyOp55
 70
     1
102
RTVSPropertyOp56
 70
     1
102
RTVSPropertyOp57
 70
     1
102
RTVSPropertyOp58
 70
     1
102
RTVSPropertyOp59
 70
     1
102
RTVSPropertyOp60
 70
     1
102
RTVSPropertyOp61
 70
     1
102
RTVSPropertyOp62
 70
     1
  0
XRECORD
  5
A7AB
102
{ACAD_REACTORS
330
A7AA
102
}
330
A7AA
100
AcDbXrecord
280
     1
102
RTVSPost2010Prop28
280
     0
102
RTVSPost2010PropOp28
 70
     1
102
RTVSPost2010Prop29
280
     1
102
RTVSPost2010PropOp29
 70
     1
102
RTVSPost2010Prop30
280
     1
102
RTVSPost2010PropOp30
 70
     1
102
RTVSPost2010Prop31
280
     0
102
RTVSPost2010PropOp31
 70
     1
102
RTVSPost2010Prop32
280
     0
102
RTVSPost2010PropOp32
 70
     1
102
RTVSPost2010Prop33
280
     0
102
RTVSPost2010PropOp33
 70
     1
102
RTVSPost2010Prop34
280
     0
102
RTVSPost2010PropOp34
 70
     1
102
RTVSPost2010Prop35
280
     0
102
RTVSPost2010PropOp35
 70
     1
102
RTVSPost2010Prop36
280
     0
102
RTVSPost2010PropOp36
 70
     1
102
RTVSPost2010Prop37
 90
       50
102
RTVSPost2010PropOp37
 70
     1
102
RTVSPost2010Prop38
140
0.0
102
RTVSPost2010PropOp38
 70
     1
102
RTVSPost2010Prop39
140
1.0
102
RTVSPost2010PropOp39
 70
     1
102
RTVSPost2010Prop40
 90
        0
102
RTVSPost2010PropOp40
 70
     1
102
RTVSPost2010Prop41ColorIndex
 90
       18
102
RTVSPost2010Prop41ColorRGB
 90
        0
102
RTVSPost2010PropOp41
 70
     1
102
RTVSPost2010Prop42
 90
       50
102
RTVSPost2010PropOp42
 70
     1
102
RTVSPost2010Prop43
 90
        3
102
RTVSPost2010PropOp43
 70
     1
102
RTVSPost2010Prop44ColorIndex
 90
        5
102
RTVSPost2010Prop44ColorRGB
 90
      255
102
RTVSPost2010PropOp44
 70
     1
102
RTVSPost2010Prop45
280
     0
102
RTVSPost2010PropOp45
 70
     1
102
RTVSPost2010Prop46
 90
       50
102
RTVSPost2010PropOp46
 70
     1
102
RTVSPost2010Prop47
 90
       50
102
RTVSPost2010PropOp47
 70
     1
102
RTVSPost2010Prop48
 90
       50
102
RTVSPost2010PropOp48
 70
     1
102
RTVSPost2010Prop49
280
     0
102
RTVSPost2010PropOp49
 70
     1
102
RTVSPost2010Prop50
 90
       50
102
RTVSPost2010PropOp50
 70
     1
102
RTVSPost2010Prop51ColorIndex
 90
      256
102
RTVSPost2010Prop51ColorRGB
 90
-16777216
102
RTVSPost2010PropOp51
 70
     0
102
RTVSPost2010Prop52
140
1.0
102
RTVSPost2010PropOp52
 70
     0
102
RTVSPost2010Prop53
 90
        2
102
RTVSPost2010PropOp53
 70
     1
102
RTVSPost2010Prop54
  1
strokes_ogs.tif
102
RTVSPost2010PropOp54
 70
     1
102
RTVSPost2010Prop55
280
     0
102
RTVSPost2010PropOp55
 70
     1
102
RTVSPost2010Prop56
140
1.0
102
RTVSPost2010PropOp56
 70
     1
102
RTVSPost2010Prop57
140
1.0
102
RTVSPost2010PropOp57
 70
     1
102
RTVSPropertyOp0
 70
     1
102
RTVSPropertyOp1
 70
     1
102
RTVSPropertyOp2
 70
     1
102
RTVSPropertyOp3
 70
     1
102
RTVSPropertyOp4
 70
     1
102
RTVSPropertyOp5
 70
     1
102
RTVSPropertyOp6
 70
     1
102
RTVSPropertyOp7
 70
     1
102
RTVSPropertyOp8
 70
     1
102
RTVSPropertyOp9
 70
     1
102
RTVSPropertyOp10
 70
     1
102
RTVSPropertyOp11
 70
     1
102
RTVSPropertyOp12
 70
     1
102
RTVSPropertyOp13
 70
     1
102
RTVSPropertyOp14
 70
     1
102
RTVSPropertyOp15
 70
     1
102
RTVSPropertyOp16
 70
     1
102
RTVSPropertyOp17
 70
     1
102
RTVSPropertyOp18
 70
     1
102
RTVSPropertyOp19
 70
     1
102
RTVSPropertyOp20
 70
     1
102
RTVSPropertyOp21
 70
     1
102
RTVSPropertyOp22
 70
     1
102
RTVSPropertyOp23
 70
     1
102
RTVSPropertyOp24
 70
     1
102
RTVSPropertyOp25
 70
     1
102
RTVSPropertyOp26
 70
     1
102
RTVSPropertyOp27
 70
     1
102
RTVSPropertyOp28
 70
     1
102
RTVSPropertyOp29
 70
     1
102
RTVSPropertyOp30
 70
     1
102
RTVSPropertyOp31
 70
     1
102
RTVSPropertyOp32
 70
     1
102
RTVSPropertyOp33
 70
     1
102
RTVSPropertyOp34
 70
     1
102
RTVSPropertyOp35
 70
     1
102
RTVSPropertyOp36
 70
     1
102
RTVSPropertyOp37
 70
     1
102
RTVSPropertyOp38
 70
     1
102
RTVSPropertyOp39
 70
     1
102
RTVSPropertyOp40
 70
     1
102
RTVSPropertyOp41
 70
     1
102
RTVSPropertyOp42
 70
     1
102
RTVSPropertyOp43
 70
     1
102
RTVSPropertyOp44
 70
     1
102
RTVSPropertyOp45
 70
     1
102
RTVSPropertyOp46
 70
     1
102
RTVSPropertyOp47
 70
     1
102
RTVSPropertyOp48
 70
     1
102
RTVSPropertyOp49
 70
     1
102
RTVSPropertyOp50
 70
     1
102
RTVSPropertyOp51
 70
     0
102
RTVSPropertyOp52
 70
     0
102
RTVSPropertyOp53
 70
     1
102
RTVSPropertyOp54
 70
     1
102
RTVSPropertyOp55
 70
     1
102
RTVSPropertyOp56
 70
     1
102
RTVSPropertyOp57
 70
     1
102
RTVSPropertyOp58
 70
     1
102
RTVSPropertyOp59
 70
     1
102
RTVSPropertyOp60
 70
     1
102
RTVSPropertyOp61
 70
     1
102
RTVSPropertyOp62
 70
     1
  0
XRECORD
  5
A7B3
102
{ACAD_REACTORS
330
A7B2
102
}
330
A7B2
100
AcDbXrecord
280
     1
102
RTVSPost2010Prop28
280
     0
102
RTVSPost2010PropOp28
 70
     1
102
RTVSPost2010Prop29
280
     1
102
RTVSPost2010PropOp29
 70
     1
102
RTVSPost2010Prop30
280
     1
102
RTVSPost2010PropOp30
 70
     1
102
RTVSPost2010Prop31
280
     0
102
RTVSPost2010PropOp31
 70
     1
102
RTVSPost2010Prop32
280
     0
102
RTVSPost2010PropOp32
 70
     1
102
RTVSPost2010Prop33
280
     0
102
RTVSPost2010PropOp33
 70
     1
102
RTVSPost2010Prop34
280
     0
102
RTVSPost2010PropOp34
 70
     1
102
RTVSPost2010Prop35
280
     0
102
RTVSPost2010PropOp35
 70
     1
102
RTVSPost2010Prop36
280
     0
102
RTVSPost2010PropOp36
 70
     1
102
RTVSPost2010Prop37
 90
       50
102
RTVSPost2010PropOp37
 70
     1
102
RTVSPost2010Prop38
140
0.0
102
RTVSPost2010PropOp38
 70
     1
102
RTVSPost2010Prop39
140
1.0
102
RTVSPost2010PropOp39
 70
     1
102
RTVSPost2010Prop40
 90
        0
102
RTVSPost2010PropOp40
 70
     1
102
RTVSPost2010Prop41ColorIndex
 90
       18
102
RTVSPost2010Prop41ColorRGB
 90
        0
102
RTVSPost2010PropOp41
 70
     1
102
RTVSPost2010Prop42
 90
       50
102
RTVSPost2010PropOp42
 70
     1
102
RTVSPost2010Prop43
 90
        3
102
RTVSPost2010PropOp43
 70
     1
102
RTVSPost2010Prop44ColorIndex
 90
        5
102
RTVSPost2010Prop44ColorRGB
 90
      255
102
RTVSPost2010PropOp44
 70
     1
102
RTVSPost2010Prop45
280
     0
102
RTVSPost2010PropOp45
 70
     1
102
RTVSPost2010Prop46
 90
       50
102
RTVSPost2010PropOp46
 70
     1
102
RTVSPost2010Prop47
 90
       50
102
RTVSPost2010PropOp47
 70
     1
102
RTVSPost2010Prop48
 90
       50
102
RTVSPost2010PropOp48
 70
     1
102
RTVSPost2010Prop49
280
     0
102
RTVSPost2010PropOp49
 70
     1
102
RTVSPost2010Prop50
 90
       50
102
RTVSPost2010PropOp50
 70
     1
102
RTVSPost2010Prop51ColorIndex
 90
      256
102
RTVSPost2010Prop51ColorRGB
 90
-16777216
102
RTVSPost2010PropOp51
 70
     0
102
RTVSPost2010Prop52
140
1.0
102
RTVSPost2010PropOp52
 70
     0
102
RTVSPost2010Prop53
 90
        2
102
RTVSPost2010PropOp53
 70
     1
102
RTVSPost2010Prop54
  1
strokes_ogs.tif
102
RTVSPost2010PropOp54
 70
     1
102
RTVSPost2010Prop55
280
     0
102
RTVSPost2010PropOp55
 70
     1
102
RTVSPost2010Prop56
140
1.0
102
RTVSPost2010PropOp56
 70
     1
102
RTVSPost2010Prop57
140
1.0
102
RTVSPost2010PropOp57
 70
     1
102
RTVSPropertyOp0
 70
     1
102
RTVSPropertyOp1
 70
     1
102
RTVSPropertyOp2
 70
     1
102
RTVSPropertyOp3
 70
     1
102
RTVSPropertyOp4
 70
     1
102
RTVSPropertyOp5
 70
     1
102
RTVSPropertyOp6
 70
     1
102
RTVSPropertyOp7
 70
     1
102
RTVSPropertyOp8
 70
     1
102
RTVSPropertyOp9
 70
     1
102
RTVSPropertyOp10
 70
     1
102
RTVSPropertyOp11
 70
     1
102
RTVSPropertyOp12
 70
     1
102
RTVSPropertyOp13
 70
     1
102
RTVSPropertyOp14
 70
     1
102
RTVSPropertyOp15
 70
     1
102
RTVSPropertyOp16
 70
     1
102
RTVSPropertyOp17
 70
     1
102
RTVSPropertyOp18
 70
     1
102
RTVSPropertyOp19
 70
     1
102
RTVSPropertyOp20
 70
     1
102
RTVSPropertyOp21
 70
     1
102
RTVSPropertyOp22
 70
     1
102
RTVSPropertyOp23
 70
     1
102
RTVSPropertyOp24
 70
     1
102
RTVSPropertyOp25
 70
     1
102
RTVSPropertyOp26
 70
     1
102
RTVSPropertyOp27
 70
     1
102
RTVSPropertyOp28
 70
     1
102
RTVSPropertyOp29
 70
     1
102
RTVSPropertyOp30
 70
     1
102
RTVSPropertyOp31
 70
     1
102
RTVSPropertyOp32
 70
     1
102
RTVSPropertyOp33
 70
     1
102
RTVSPropertyOp34
 70
     1
102
RTVSPropertyOp35
 70
     1
102
RTVSPropertyOp36
 70
     1
102
RTVSPropertyOp37
 70
     1
102
RTVSPropertyOp38
 70
     1
102
RTVSPropertyOp39
 70
     1
102
RTVSPropertyOp40
 70
     1
102
RTVSPropertyOp41
 70
     1
102
RTVSPropertyOp42
 70
     1
102
RTVSPropertyOp43
 70
     1
102
RTVSPropertyOp44
 70
     1
102
RTVSPropertyOp45
 70
     1
102
RTVSPropertyOp46
 70
     1
102
RTVSPropertyOp47
 70
     1
102
RTVSPropertyOp48
 70
     1
102
RTVSPropertyOp49
 70
     1
102
RTVSPropertyOp50
 70
     1
102
RTVSPropertyOp51
 70
     0
102
RTVSPropertyOp52
 70
     0
102
RTVSPropertyOp53
 70
     1
102
RTVSPropertyOp54
 70
     1
102
RTVSPropertyOp55
 70
     1
102
RTVSPropertyOp56
 70
     1
102
RTVSPropertyOp57
 70
     1
102
RTVSPropertyOp58
 70
     1
102
RTVSPropertyOp59
 70
     1
102
RTVSPropertyOp60
 70
     1
102
RTVSPropertyOp61
 70
     1
102
RTVSPropertyOp62
 70
     1
  0
XRECORD
  5
A7CF
102
{ACAD_REACTORS
330
A7CE
102
}
330
A7CE
100
AcDbXrecord
280
     1
102
RTVSPost2010Prop28
280
     0
102
RTVSPost2010PropOp28
 70
     1
102
RTVSPost2010Prop29
280
     1
102
RTVSPost2010PropOp29
 70
     1
102
RTVSPost2010Prop30
280
     1
102
RTVSPost2010PropOp30
 70
     1
102
RTVSPost2010Prop31
280
     0
102
RTVSPost2010PropOp31
 70
     1
102
RTVSPost2010Prop32
280
     0
102
RTVSPost2010PropOp32
 70
     1
102
RTVSPost2010Prop33
280
     0
102
RTVSPost2010PropOp33
 70
     1
102
RTVSPost2010Prop34
280
     0
102
RTVSPost2010PropOp34
 70
     1
102
RTVSPost2010Prop35
280
     0
102
RTVSPost2010PropOp35
 70
     1
102
RTVSPost2010Prop36
280
     0
102
RTVSPost2010PropOp36
 70
     1
102
RTVSPost2010Prop37
 90
       50
102
RTVSPost2010PropOp37
 70
     0
102
RTVSPost2010Prop38
140
0.0
102
RTVSPost2010PropOp38
 70
     0
102
RTVSPost2010Prop39
140
1.0
102
RTVSPost2010PropOp39
 70
     0
102
RTVSPost2010Prop40
 90
        0
102
RTVSPost2010PropOp40
 70
     0
102
RTVSPost2010Prop41ColorIndex
 90
       18
102
RTVSPost2010Prop41ColorRGB
 90
        0
102
RTVSPost2010PropOp41
 70
     0
102
RTVSPost2010Prop42
 90
       50
102
RTVSPost2010PropOp42
 70
     0
102
RTVSPost2010Prop43
 90
        3
102
RTVSPost2010PropOp43
 70
     0
102
RTVSPost2010Prop44ColorIndex
 90
        5
102
RTVSPost2010Prop44ColorRGB
 90
      255
102
RTVSPost2010PropOp44
 70
     0
102
RTVSPost2010Prop45
280
     0
102
RTVSPost2010PropOp45
 70
     1
102
RTVSPost2010Prop46
 90
       50
102
RTVSPost2010PropOp46
 70
     0
102
RTVSPost2010Prop47
 90
       50
102
RTVSPost2010PropOp47
 70
     0
102
RTVSPost2010Prop48
 90
       50
102
RTVSPost2010PropOp48
 70
     0
102
RTVSPost2010Prop49
280
     0
102
RTVSPost2010PropOp49
 70
     1
102
RTVSPost2010Prop50
 90
       50
102
RTVSPost2010PropOp50
 70
     0
102
RTVSPost2010Prop51ColorIndex
 90
      256
102
RTVSPost2010Prop51ColorRGB
 90
-16777216
102
RTVSPost2010PropOp51
 70
     0
102
RTVSPost2010Prop52
140
1.0
102
RTVSPost2010PropOp52
 70
     0
102
RTVSPost2010Prop53
 90
        2
102
RTVSPost2010PropOp53
 70
     0
102
RTVSPost2010Prop54
  1
strokes_ogs.tif
102
RTVSPost2010PropOp54
 70
     0
102
RTVSPost2010Prop55
280
     0
102
RTVSPost2010PropOp55
 70
     1
102
RTVSPost2010Prop56
140
1.0
102
RTVSPost2010PropOp56
 70
     0
102
RTVSPost2010Prop57
140
1.0
102
RTVSPost2010PropOp57
 70
     0
102
RTVSPropertyOp0
 70
     0
102
RTVSPropertyOp1
 70
     0
102
RTVSPropertyOp2
 70
     0
102
RTVSPropertyOp3
 70
     0
102
RTVSPropertyOp4
 70
     0
102
RTVSPropertyOp5
 70
     0
102
RTVSPropertyOp6
 70
     0
102
RTVSPropertyOp7
 70
     0
102
RTVSPropertyOp8
 70
     0
102
RTVSPropertyOp9
 70
     0
102
RTVSPropertyOp10
 70
     0
102
RTVSPropertyOp11
 70
     0
102
RTVSPropertyOp12
 70
     0
102
RTVSPropertyOp13
 70
     0
102
RTVSPropertyOp14
 70
     2
102
RTVSPropertyOp15
 70
     0
102
RTVSPropertyOp16
 70
     0
102
RTVSPropertyOp17
 70
     0
102
RTVSPropertyOp18
 70
     0
102
RTVSPropertyOp19
 70
     0
102
RTVSPropertyOp20
 70
     0
102
RTVSPropertyOp21
 70
     0
102
RTVSPropertyOp22
 70
     0
102
RTVSPropertyOp23
 70
     0
102
RTVSPropertyOp24
 70
     0
102
RTVSPropertyOp25
 70
     0
102
RTVSPropertyOp26
 70
     0
102
RTVSPropertyOp27
 70
     0
102
RTVSPropertyOp28
 70
     1
102
RTVSPropertyOp29
 70
     1
102
RTVSPropertyOp30
 70
     1
102
RTVSPropertyOp31
 70
     1
102
RTVSPropertyOp32
 70
     1
102
RTVSPropertyOp33
 70
     1
102
RTVSPropertyOp34
 70
     1
102
RTVSPropertyOp35
 70
     1
102
RTVSPropertyOp36
 70
     1
102
RTVSPropertyOp37
 70
     0
102
RTVSPropertyOp38
 70
     0
102
RTVSPropertyOp39
 70
     0
102
RTVSPropertyOp40
 70
     0
102
RTVSPropertyOp41
 70
     0
102
RTVSPropertyOp42
 70
     0
102
RTVSPropertyOp43
 70
     0
102
RTVSPropertyOp44
 70
     0
102
RTVSPropertyOp45
 70
     1
102
RTVSPropertyOp46
 70
     0
102
RTVSPropertyOp47
 70
     0
102
RTVSPropertyOp48
 70
     0
102
RTVSPropertyOp49
 70
     1
102
RTVSPropertyOp50
 70
     0
102
RTVSPropertyOp51
 70
     0
102
RTVSPropertyOp52
 70
     0
102
RTVSPropertyOp53
 70
     0
102
RTVSPropertyOp54
 70
     0
102
RTVSPropertyOp55
 70
     1
102
RTVSPropertyOp56
 70
     0
102
RTVSPropertyOp57
 70
     0
102
RTVSPropertyOp58
 70
     0
102
RTVSPropertyOp59
 70
     0
102
RTVSPropertyOp60
 70
     0
102
RTVSPropertyOp61
 70
     0
102
RTVSPropertyOp62
 70
     0
  0
XRECORD
  5
A7BF
102
{ACAD_REACTORS
330
A7BE
102
}
330
A7BE
100
AcDbXrecord
280
     1
102
RTVSPost2010Prop28
280
     0
102
RTVSPost2010PropOp28
 70
     1
102
RTVSPost2010Prop29
280
     1
102
RTVSPost2010PropOp29
 70
     1
102
RTVSPost2010Prop30
280
     1
102
RTVSPost2010PropOp30
 70
     1
102
RTVSPost2010Prop31
280
     0
102
RTVSPost2010PropOp31
 70
     1
102
RTVSPost2010Prop32
280
     0
102
RTVSPost2010PropOp32
 70
     1
102
RTVSPost2010Prop33
280
     0
102
RTVSPost2010PropOp33
 70
     1
102
RTVSPost2010Prop34
280
     0
102
RTVSPost2010PropOp34
 70
     1
102
RTVSPost2010Prop35
280
     0
102
RTVSPost2010PropOp35
 70
     1
102
RTVSPost2010Prop36
280
     0
102
RTVSPost2010PropOp36
 70
     1
102
RTVSPost2010Prop37
 90
       50
102
RTVSPost2010PropOp37
 70
     1
102
RTVSPost2010Prop38
140
0.0
102
RTVSPost2010PropOp38
 70
     1
102
RTVSPost2010Prop39
140
1.0
102
RTVSPost2010PropOp39
 70
     1
102
RTVSPost2010Prop40
 90
        0
102
RTVSPost2010PropOp40
 70
     1
102
RTVSPost2010Prop41ColorIndex
 90
       18
102
RTVSPost2010Prop41ColorRGB
 90
        0
102
RTVSPost2010PropOp41
 70
     1
102
RTVSPost2010Prop42
 90
       50
102
RTVSPost2010PropOp42
 70
     1
102
RTVSPost2010Prop43
 90
        3
102
RTVSPost2010PropOp43
 70
     1
102
RTVSPost2010Prop44ColorIndex
 90
        5
102
RTVSPost2010Prop44ColorRGB
 90
      255
102
RTVSPost2010PropOp44
 70
     1
102
RTVSPost2010Prop45
280
     0
102
RTVSPost2010PropOp45
 70
     1
102
RTVSPost2010Prop46
 90
       50
102
RTVSPost2010PropOp46
 70
     1
102
RTVSPost2010Prop47
 90
       50
102
RTVSPost2010PropOp47
 70
     1
102
RTVSPost2010Prop48
 90
       50
102
RTVSPost2010PropOp48
 70
     1
102
RTVSPost2010Prop49
280
     0
102
RTVSPost2010PropOp49
 70
     1
102
RTVSPost2010Prop50
 90
       50
102
RTVSPost2010PropOp50
 70
     1
102
RTVSPost2010Prop51ColorIndex
 90
      256
102
RTVSPost2010Prop51ColorRGB
 90
-16777216
102
RTVSPost2010PropOp51
 70
     0
102
RTVSPost2010Prop52
140
1.0
102
RTVSPost2010PropOp52
 70
     0
102
RTVSPost2010Prop53
 90
        2
102
RTVSPost2010PropOp53
 70
     1
102
RTVSPost2010Prop54
  1
strokes_ogs.tif
102
RTVSPost2010PropOp54
 70
     1
102
RTVSPost2010Prop55
280
     0
102
RTVSPost2010PropOp55
 70
     1
102
RTVSPost2010Prop56
140
1.0
102
RTVSPost2010PropOp56
 70
     1
102
RTVSPost2010Prop57
140
1.0
102
RTVSPost2010PropOp57
 70
     1
102
RTVSPropertyOp0
 70
     1
102
RTVSPropertyOp1
 70
     1
102
RTVSPropertyOp2
 70
     1
102
RTVSPropertyOp3
 70
     1
102
RTVSPropertyOp4
 70
     1
102
RTVSPropertyOp5
 70
     1
102
RTVSPropertyOp6
 70
     1
102
RTVSPropertyOp7
 70
     1
102
RTVSPropertyOp8
 70
     1
102
RTVSPropertyOp9
 70
     1
102
RTVSPropertyOp10
 70
     1
102
RTVSPropertyOp11
 70
     1
102
RTVSPropertyOp12
 70
     1
102
RTVSPropertyOp13
 70
     1
102
RTVSPropertyOp14
 70
     1
102
RTVSPropertyOp15
 70
     1
102
RTVSPropertyOp16
 70
     1
102
RTVSPropertyOp17
 70
     1
102
RTVSPropertyOp18
 70
     1
102
RTVSPropertyOp19
 70
     1
102
RTVSPropertyOp20
 70
     1
102
RTVSPropertyOp21
 70
     1
102
RTVSPropertyOp22
 70
     1
102
RTVSPropertyOp23
 70
     1
102
RTVSPropertyOp24
 70
     1
102
RTVSPropertyOp25
 70
     1
102
RTVSPropertyOp26
 70
     1
102
RTVSPropertyOp27
 70
     1
102
RTVSPropertyOp28
 70
     1
102
RTVSPropertyOp29
 70
     1
102
RTVSPropertyOp30
 70
     1
102
RTVSPropertyOp31
 70
     1
102
RTVSPropertyOp32
 70
     1
102
RTVSPropertyOp33
 70
     1
102
RTVSPropertyOp34
 70
     1
102
RTVSPropertyOp35
 70
     1
102
RTVSPropertyOp36
 70
     1
102
RTVSPropertyOp37
 70
     1
102
RTVSPropertyOp38
 70
     1
102
RTVSPropertyOp39
 70
     1
102
RTVSPropertyOp40
 70
     1
102
RTVSPropertyOp41
 70
     1
102
RTVSPropertyOp42
 70
     1
102
RTVSPropertyOp43
 70
     1
102
RTVSPropertyOp44
 70
     1
102
RTVSPropertyOp45
 70
     1
102
RTVSPropertyOp46
 70
     1
102
RTVSPropertyOp47
 70
     1
102
RTVSPropertyOp48
 70
     1
102
RTVSPropertyOp49
 70
     1
102
RTVSPropertyOp50
 70
     1
102
RTVSPropertyOp51
 70
     0
102
RTVSPropertyOp52
 70
     0
102
RTVSPropertyOp53
 70
     1
102
RTVSPropertyOp54
 70
     1
102
RTVSPropertyOp55
 70
     1
102
RTVSPropertyOp56
 70
     1
102
RTVSPropertyOp57
 70
     1
102
RTVSPropertyOp58
 70
     1
102
RTVSPropertyOp59
 70
     1
102
RTVSPropertyOp60
 70
     1
102
RTVSPropertyOp61
 70
     1
102
RTVSPropertyOp62
 70
     1
  0
XRECORD
  5
A7D1
102
{ACAD_REACTORS
330
A7D0
102
}
330
A7D0
100
AcDbXrecord
280
     1
102
RTVSPost2010Prop28
280
     0
102
RTVSPost2010PropOp28
 70
     1
102
RTVSPost2010Prop29
280
     1
102
RTVSPost2010PropOp29
 70
     1
102
RTVSPost2010Prop30
280
     1
102
RTVSPost2010PropOp30
 70
     1
102
RTVSPost2010Prop31
280
     0
102
RTVSPost2010PropOp31
 70
     1
102
RTVSPost2010Prop32
280
     0
102
RTVSPost2010PropOp32
 70
     1
102
RTVSPost2010Prop33
280
     0
102
RTVSPost2010PropOp33
 70
     1
102
RTVSPost2010Prop34
280
     0
102
RTVSPost2010PropOp34
 70
     1
102
RTVSPost2010Prop35
280
     0
102
RTVSPost2010PropOp35
 70
     1
102
RTVSPost2010Prop36
280
     0
102
RTVSPost2010PropOp36
 70
     1
102
RTVSPost2010Prop37
 90
       50
102
RTVSPost2010PropOp37
 70
     0
102
RTVSPost2010Prop38
140
0.0
102
RTVSPost2010PropOp38
 70
     0
102
RTVSPost2010Prop39
140
1.0
102
RTVSPost2010PropOp39
 70
     0
102
RTVSPost2010Prop40
 90
        0
102
RTVSPost2010PropOp40
 70
     0
102
RTVSPost2010Prop41ColorIndex
 90
       18
102
RTVSPost2010Prop41ColorRGB
 90
        0
102
RTVSPost2010PropOp41
 70
     0
102
RTVSPost2010Prop42
 90
       50
102
RTVSPost2010PropOp42
 70
     0
102
RTVSPost2010Prop43
 90
        3
102
RTVSPost2010PropOp43
 70
     0
102
RTVSPost2010Prop44ColorIndex
 90
        5
102
RTVSPost2010Prop44ColorRGB
 90
      255
102
RTVSPost2010PropOp44
 70
     0
102
RTVSPost2010Prop45
280
     0
102
RTVSPost2010PropOp45
 70
     1
102
RTVSPost2010Prop46
 90
       50
102
RTVSPost2010PropOp46
 70
     0
102
RTVSPost2010Prop47
 90
       50
102
RTVSPost2010PropOp47
 70
     0
102
RTVSPost2010Prop48
 90
       50
102
RTVSPost2010PropOp48
 70
     0
102
RTVSPost2010Prop49
280
     0
102
RTVSPost2010PropOp49
 70
     1
102
RTVSPost2010Prop50
 90
       50
102
RTVSPost2010PropOp50
 70
     0
102
RTVSPost2010Prop51ColorIndex
 90
      256
102
RTVSPost2010Prop51ColorRGB
 90
-16777216
102
RTVSPost2010PropOp51
 70
     0
102
RTVSPost2010Prop52
140
1.0
102
RTVSPost2010PropOp52
 70
     0
102
RTVSPost2010Prop53
 90
        2
102
RTVSPost2010PropOp53
 70
     0
102
RTVSPost2010Prop54
  1
strokes_ogs.tif
102
RTVSPost2010PropOp54
 70
     0
102
RTVSPost2010Prop55
280
     0
102
RTVSPost2010PropOp55
 70
     1
102
RTVSPost2010Prop56
140
1.0
102
RTVSPost2010PropOp56
 70
     0
102
RTVSPost2010Prop57
140
1.0
102
RTVSPost2010PropOp57
 70
     0
102
RTVSPropertyOp0
 70
     0
102
RTVSPropertyOp1
 70
     0
102
RTVSPropertyOp2
 70
     0
102
RTVSPropertyOp3
 70
     0
102
RTVSPropertyOp4
 70
     0
102
RTVSPropertyOp5
 70
     0
102
RTVSPropertyOp6
 70
     0
102
RTVSPropertyOp7
 70
     0
102
RTVSPropertyOp8
 70
     0
102
RTVSPropertyOp9
 70
     0
102
RTVSPropertyOp10
 70
     0
102
RTVSPropertyOp11
 70
     0
102
RTVSPropertyOp12
 70
     0
102
RTVSPropertyOp13
 70
     0
102
RTVSPropertyOp14
 70
     2
102
RTVSPropertyOp15
 70
     0
102
RTVSPropertyOp16
 70
     0
102
RTVSPropertyOp17
 70
     0
102
RTVSPropertyOp18
 70
     0
102
RTVSPropertyOp19
 70
     0
102
RTVSPropertyOp20
 70
     0
102
RTVSPropertyOp21
 70
     0
102
RTVSPropertyOp22
 70
     0
102
RTVSPropertyOp23
 70
     0
102
RTVSPropertyOp24
 70
     0
102
RTVSPropertyOp25
 70
     0
102
RTVSPropertyOp26
 70
     0
102
RTVSPropertyOp27
 70
     0
102
RTVSPropertyOp28
 70
     1
102
RTVSPropertyOp29
 70
     1
102
RTVSPropertyOp30
 70
     1
102
RTVSPropertyOp31
 70
     1
102
RTVSPropertyOp32
 70
     1
102
RTVSPropertyOp33
 70
     1
102
RTVSPropertyOp34
 70
     1
102
RTVSPropertyOp35
 70
     1
102
RTVSPropertyOp36
 70
     1
102
RTVSPropertyOp37
 70
     0
102
RTVSPropertyOp38
 70
     0
102
RTVSPropertyOp39
 70
     0
102
RTVSPropertyOp40
 70
     0
102
RTVSPropertyOp41
 70
     0
102
RTVSPropertyOp42
 70
     0
102
RTVSPropertyOp43
 70
     0
102
RTVSPropertyOp44
 70
     0
102
RTVSPropertyOp45
 70
     1
102
RTVSPropertyOp46
 70
     0
102
RTVSPropertyOp47
 70
     0
102
RTVSPropertyOp48
 70
     0
102
RTVSPropertyOp49
 70
     1
102
RTVSPropertyOp50
 70
     0
102
RTVSPropertyOp51
 70
     0
102
RTVSPropertyOp52
 70
     0
102
RTVSPropertyOp53
 70
     0
102
RTVSPropertyOp54
 70
     0
102
RTVSPropertyOp55
 70
     1
102
RTVSPropertyOp56
 70
     0
102
RTVSPropertyOp57
 70
     0
102
RTVSPropertyOp58
 70
     0
102
RTVSPropertyOp59
 70
     0
102
RTVSPropertyOp60
 70
     0
102
RTVSPropertyOp61
 70
     0
102
RTVSPropertyOp62
 70
     0
  0
XRECORD
  5
A7B7
102
{ACAD_REACTORS
330
A7B6
102
}
330
A7B6
100
AcDbXrecord
280
     1
102
RTVSPost2010Prop28
280
     0
102
RTVSPost2010PropOp28
 70
     1
102
RTVSPost2010Prop29
280
     1
102
RTVSPost2010PropOp29
 70
     1
102
RTVSPost2010Prop30
280
     1
102
RTVSPost2010PropOp30
 70
     1
102
RTVSPost2010Prop31
280
     0
102
RTVSPost2010PropOp31
 70
     1
102
RTVSPost2010Prop32
280
     0
102
RTVSPost2010PropOp32
 70
     1
102
RTVSPost2010Prop33
280
     0
102
RTVSPost2010PropOp33
 70
     1
102
RTVSPost2010Prop34
280
     0
102
RTVSPost2010PropOp34
 70
     1
102
RTVSPost2010Prop35
280
     0
102
RTVSPost2010PropOp35
 70
     1
102
RTVSPost2010Prop36
280
     0
102
RTVSPost2010PropOp36
 70
     1
102
RTVSPost2010Prop37
 90
       50
102
RTVSPost2010PropOp37
 70
     1
102
RTVSPost2010Prop38
140
0.0
102
RTVSPost2010PropOp38
 70
     1
102
RTVSPost2010Prop39
140
1.0
102
RTVSPost2010PropOp39
 70
     1
102
RTVSPost2010Prop40
 90
        0
102
RTVSPost2010PropOp40
 70
     1
102
RTVSPost2010Prop41ColorIndex
 90
       18
102
RTVSPost2010Prop41ColorRGB
 90
        0
102
RTVSPost2010PropOp41
 70
     1
102
RTVSPost2010Prop42
 90
       50
102
RTVSPost2010PropOp42
 70
     1
102
RTVSPost2010Prop43
 90
        3
102
RTVSPost2010PropOp43
 70
     1
102
RTVSPost2010Prop44ColorIndex
 90
        5
102
RTVSPost2010Prop44ColorRGB
 90
      255
102
RTVSPost2010PropOp44
 70
     1
102
RTVSPost2010Prop45
280
     0
102
RTVSPost2010PropOp45
 70
     1
102
RTVSPost2010Prop46
 90
       50
102
RTVSPost2010PropOp46
 70
     1
102
RTVSPost2010Prop47
 90
       50
102
RTVSPost2010PropOp47
 70
     1
102
RTVSPost2010Prop48
 90
       50
102
RTVSPost2010PropOp48
 70
     1
102
RTVSPost2010Prop49
280
     0
102
RTVSPost2010PropOp49
 70
     1
102
RTVSPost2010Prop50
 90
       50
102
RTVSPost2010PropOp50
 70
     1
102
RTVSPost2010Prop51ColorIndex
 90
      256
102
RTVSPost2010Prop51ColorRGB
 90
-16777216
102
RTVSPost2010PropOp51
 70
     0
102
RTVSPost2010Prop52
140
1.0
102
RTVSPost2010PropOp52
 70
     0
102
RTVSPost2010Prop53
 90
        2
102
RTVSPost2010PropOp53
 70
     1
102
RTVSPost2010Prop54
  1
strokes_ogs.tif
102
RTVSPost2010PropOp54
 70
     1
102
RTVSPost2010Prop55
280
     0
102
RTVSPost2010PropOp55
 70
     1
102
RTVSPost2010Prop56
140
1.0
102
RTVSPost2010PropOp56
 70
     1
102
RTVSPost2010Prop57
140
1.0
102
RTVSPost2010PropOp57
 70
     1
102
RTVSPropertyOp0
 70
     1
102
RTVSPropertyOp1
 70
     1
102
RTVSPropertyOp2
 70
     1
102
RTVSPropertyOp3
 70
     1
102
RTVSPropertyOp4
 70
     1
102
RTVSPropertyOp5
 70
     1
102
RTVSPropertyOp6
 70
     1
102
RTVSPropertyOp7
 70
     1
102
RTVSPropertyOp8
 70
     1
102
RTVSPropertyOp9
 70
     1
102
RTVSPropertyOp10
 70
     1
102
RTVSPropertyOp11
 70
     1
102
RTVSPropertyOp12
 70
     1
102
RTVSPropertyOp13
 70
     1
102
RTVSPropertyOp14
 70
     1
102
RTVSPropertyOp15
 70
     1
102
RTVSPropertyOp16
 70
     1
102
RTVSPropertyOp17
 70
     1
102
RTVSPropertyOp18
 70
     1
102
RTVSPropertyOp19
 70
     1
102
RTVSPropertyOp20
 70
     1
102
RTVSPropertyOp21
 70
     1
102
RTVSPropertyOp22
 70
     1
102
RTVSPropertyOp23
 70
     1
102
RTVSPropertyOp24
 70
     1
102
RTVSPropertyOp25
 70
     1
102
RTVSPropertyOp26
 70
     1
102
RTVSPropertyOp27
 70
     1
102
RTVSPropertyOp28
 70
     1
102
RTVSPropertyOp29
 70
     1
102
RTVSPropertyOp30
 70
     1
102
RTVSPropertyOp31
 70
     1
102
RTVSPropertyOp32
 70
     1
102
RTVSPropertyOp33
 70
     1
102
RTVSPropertyOp34
 70
     1
102
RTVSPropertyOp35
 70
     1
102
RTVSPropertyOp36
 70
     1
102
RTVSPropertyOp37
 70
     1
102
RTVSPropertyOp38
 70
     1
102
RTVSPropertyOp39
 70
     1
102
RTVSPropertyOp40
 70
     1
102
RTVSPropertyOp41
 70
     1
102
RTVSPropertyOp42
 70
     1
102
RTVSPropertyOp43
 70
     1
102
RTVSPropertyOp44
 70
     1
102
RTVSPropertyOp45
 70
     1
102
RTVSPropertyOp46
 70
     1
102
RTVSPropertyOp47
 70
     1
102
RTVSPropertyOp48
 70
     1
102
RTVSPropertyOp49
 70
     1
102
RTVSPropertyOp50
 70
     1
102
RTVSPropertyOp51
 70
     0
102
RTVSPropertyOp52
 70
     0
102
RTVSPropertyOp53
 70
     1
102
RTVSPropertyOp54
 70
     1
102
RTVSPropertyOp55
 70
     1
102
RTVSPropertyOp56
 70
     1
102
RTVSPropertyOp57
 70
     1
102
RTVSPropertyOp58
 70
     1
102
RTVSPropertyOp59
 70
     1
102
RTVSPropertyOp60
 70
     1
102
RTVSPropertyOp61
 70
     1
102
RTVSPropertyOp62
 70
     1
  0
XRECORD
  5
A7CD
102
{ACAD_REACTORS
330
A7CC
102
}
330
A7CC
100
AcDbXrecord
280
     1
102
RTVSPost2010Prop28
280
     0
102
RTVSPost2010PropOp28
 70
     1
102
RTVSPost2010Prop29
280
     1
102
RTVSPost2010PropOp29
 70
     1
102
RTVSPost2010Prop30
280
     1
102
RTVSPost2010PropOp30
 70
     1
102
RTVSPost2010Prop31
280
     0
102
RTVSPost2010PropOp31
 70
     1
102
RTVSPost2010Prop32
280
     0
102
RTVSPost2010PropOp32
 70
     1
102
RTVSPost2010Prop33
280
     0
102
RTVSPost2010PropOp33
 70
     1
102
RTVSPost2010Prop34
280
     0
102
RTVSPost2010PropOp34
 70
     1
102
RTVSPost2010Prop35
280
     0
102
RTVSPost2010PropOp35
 70
     1
102
RTVSPost2010Prop36
280
     0
102
RTVSPost2010PropOp36
 70
     1
102
RTVSPost2010Prop37
 90
       50
102
RTVSPost2010PropOp37
 70
     1
102
RTVSPost2010Prop38
140
0.0
102
RTVSPost2010PropOp38
 70
     1
102
RTVSPost2010Prop39
140
1.0
102
RTVSPost2010PropOp39
 70
     1
102
RTVSPost2010Prop40
 90
        0
102
RTVSPost2010PropOp40
 70
     1
102
RTVSPost2010Prop41ColorIndex
 90
       18
102
RTVSPost2010Prop41ColorRGB
 90
        0
102
RTVSPost2010PropOp41
 70
     1
102
RTVSPost2010Prop42
 90
       50
102
RTVSPost2010PropOp42
 70
     1
102
RTVSPost2010Prop43
 90
        3
102
RTVSPost2010PropOp43
 70
     1
102
RTVSPost2010Prop44ColorIndex
 90
        5
102
RTVSPost2010Prop44ColorRGB
 90
      255
102
RTVSPost2010PropOp44
 70
     1
102
RTVSPost2010Prop45
280
     0
102
RTVSPost2010PropOp45
 70
     1
102
RTVSPost2010Prop46
 90
       50
102
RTVSPost2010PropOp46
 70
     1
102
RTVSPost2010Prop47
 90
       50
102
RTVSPost2010PropOp47
 70
     1
102
RTVSPost2010Prop48
 90
       50
102
RTVSPost2010PropOp48
 70
     1
102
RTVSPost2010Prop49
280
     0
102
RTVSPost2010PropOp49
 70
     1
102
RTVSPost2010Prop50
 90
       50
102
RTVSPost2010PropOp50
 70
     1
102
RTVSPost2010Prop51ColorIndex
 90
      256
102
RTVSPost2010Prop51ColorRGB
 90
-16777216
102
RTVSPost2010PropOp51
 70
     0
102
RTVSPost2010Prop52
140
1.0
102
RTVSPost2010PropOp52
 70
     0
102
RTVSPost2010Prop53
 90
        2
102
RTVSPost2010PropOp53
 70
     1
102
RTVSPost2010Prop54
  1
strokes_ogs.tif
102
RTVSPost2010PropOp54
 70
     1
102
RTVSPost2010Prop55
280
     0
102
RTVSPost2010PropOp55
 70
     1
102
RTVSPost2010Prop56
140
1.0
102
RTVSPost2010PropOp56
 70
     1
102
RTVSPost2010Prop57
140
1.0
102
RTVSPost2010PropOp57
 70
     1
102
RTVSPropertyOp0
 70
     1
102
RTVSPropertyOp1
 70
     1
102
RTVSPropertyOp2
 70
     1
102
RTVSPropertyOp3
 70
     1
102
RTVSPropertyOp4
 70
     1
102
RTVSPropertyOp5
 70
     1
102
RTVSPropertyOp6
 70
     1
102
RTVSPropertyOp7
 70
     1
102
RTVSPropertyOp8
 70
     1
102
RTVSPropertyOp9
 70
     1
102
RTVSPropertyOp10
 70
     1
102
RTVSPropertyOp11
 70
     1
102
RTVSPropertyOp12
 70
     1
102
RTVSPropertyOp13
 70
     1
102
RTVSPropertyOp14
 70
     1
102
RTVSPropertyOp15
 70
     1
102
RTVSPropertyOp16
 70
     1
102
RTVSPropertyOp17
 70
     1
102
RTVSPropertyOp18
 70
     1
102
RTVSPropertyOp19
 70
     1
102
RTVSPropertyOp20
 70
     1
102
RTVSPropertyOp21
 70
     1
102
RTVSPropertyOp22
 70
     1
102
RTVSPropertyOp23
 70
     1
102
RTVSPropertyOp24
 70
     1
102
RTVSPropertyOp25
 70
     1
102
RTVSPropertyOp26
 70
     1
102
RTVSPropertyOp27
 70
     1
102
RTVSPropertyOp28
 70
     1
102
RTVSPropertyOp29
 70
     1
102
RTVSPropertyOp30
 70
     1
102
RTVSPropertyOp31
 70
     1
102
RTVSPropertyOp32
 70
     1
102
RTVSPropertyOp33
 70
     1
102
RTVSPropertyOp34
 70
     1
102
RTVSPropertyOp35
 70
     1
102
RTVSPropertyOp36
 70
     1
102
RTVSPropertyOp37
 70
     1
102
RTVSPropertyOp38
 70
     1
102
RTVSPropertyOp39
 70
     1
102
RTVSPropertyOp40
 70
     1
102
RTVSPropertyOp41
 70
     1
102
RTVSPropertyOp42
 70
     1
102
RTVSPropertyOp43
 70
     1
102
RTVSPropertyOp44
 70
     1
102
RTVSPropertyOp45
 70
     1
102
RTVSPropertyOp46
 70
     1
102
RTVSPropertyOp47
 70
     1
102
RTVSPropertyOp48
 70
     1
102
RTVSPropertyOp49
 70
     1
102
RTVSPropertyOp50
 70
     1
102
RTVSPropertyOp51
 70
     0
102
RTVSPropertyOp52
 70
     0
102
RTVSPropertyOp53
 70
     1
102
RTVSPropertyOp54
 70
     1
102
RTVSPropertyOp55
 70
     1
102
RTVSPropertyOp56
 70
     1
102
RTVSPropertyOp57
 70
     1
102
RTVSPropertyOp58
 70
     1
102
RTVSPropertyOp59
 70
     1
102
RTVSPropertyOp60
 70
     1
102
RTVSPropertyOp61
 70
     1
102
RTVSPropertyOp62
 70
     1
  0
XRECORD
  5
A7CB
102
{ACAD_REACTORS
330
A7CA
102
}
330
A7CA
100
AcDbXrecord
280
     1
102
RTVSPost2010Prop28
280
     0
102
RTVSPost2010PropOp28
 70
     1
102
RTVSPost2010Prop29
280
     1
102
RTVSPost2010PropOp29
 70
     1
102
RTVSPost2010Prop30
280
     1
102
RTVSPost2010PropOp30
 70
     1
102
RTVSPost2010Prop31
280
     0
102
RTVSPost2010PropOp31
 70
     1
102
RTVSPost2010Prop32
280
     0
102
RTVSPost2010PropOp32
 70
     1
102
RTVSPost2010Prop33
280
     0
102
RTVSPost2010PropOp33
 70
     1
102
RTVSPost2010Prop34
280
     0
102
RTVSPost2010PropOp34
 70
     1
102
RTVSPost2010Prop35
280
     0
102
RTVSPost2010PropOp35
 70
     1
102
RTVSPost2010Prop36
280
     0
102
RTVSPost2010PropOp36
 70
     1
102
RTVSPost2010Prop37
 90
       50
102
RTVSPost2010PropOp37
 70
     1
102
RTVSPost2010Prop38
140
0.0
102
RTVSPost2010PropOp38
 70
     1
102
RTVSPost2010Prop39
140
1.0
102
RTVSPost2010PropOp39
 70
     1
102
RTVSPost2010Prop40
 90
        0
102
RTVSPost2010PropOp40
 70
     1
102
RTVSPost2010Prop41ColorIndex
 90
       18
102
RTVSPost2010Prop41ColorRGB
 90
        0
102
RTVSPost2010PropOp41
 70
     1
102
RTVSPost2010Prop42
 90
       50
102
RTVSPost2010PropOp42
 70
     1
102
RTVSPost2010Prop43
 90
        3
102
RTVSPost2010PropOp43
 70
     1
102
RTVSPost2010Prop44ColorIndex
 90
        5
102
RTVSPost2010Prop44ColorRGB
 90
      255
102
RTVSPost2010PropOp44
 70
     1
102
RTVSPost2010Prop45
280
     0
102
RTVSPost2010PropOp45
 70
     1
102
RTVSPost2010Prop46
 90
       50
102
RTVSPost2010PropOp46
 70
     1
102
RTVSPost2010Prop47
 90
       50
102
RTVSPost2010PropOp47
 70
     1
102
RTVSPost2010Prop48
 90
       50
102
RTVSPost2010PropOp48
 70
     1
102
RTVSPost2010Prop49
280
     0
102
RTVSPost2010PropOp49
 70
     1
102
RTVSPost2010Prop50
 90
       50
102
RTVSPost2010PropOp50
 70
     1
102
RTVSPost2010Prop51ColorIndex
 90
      256
102
RTVSPost2010Prop51ColorRGB
 90
-16777216
102
RTVSPost2010PropOp51
 70
     0
102
RTVSPost2010Prop52
140
1.0
102
RTVSPost2010PropOp52
 70
     0
102
RTVSPost2010Prop53
 90
        2
102
RTVSPost2010PropOp53
 70
     1
102
RTVSPost2010Prop54
  1
strokes_ogs.tif
102
RTVSPost2010PropOp54
 70
     1
102
RTVSPost2010Prop55
280
     0
102
RTVSPost2010PropOp55
 70
     1
102
RTVSPost2010Prop56
140
1.0
102
RTVSPost2010PropOp56
 70
     1
102
RTVSPost2010Prop57
140
1.0
102
RTVSPost2010PropOp57
 70
     1
102
RTVSPropertyOp0
 70
     1
102
RTVSPropertyOp1
 70
     1
102
RTVSPropertyOp2
 70
     1
102
RTVSPropertyOp3
 70
     1
102
RTVSPropertyOp4
 70
     1
102
RTVSPropertyOp5
 70
     1
102
RTVSPropertyOp6
 70
     1
102
RTVSPropertyOp7
 70
     1
102
RTVSPropertyOp8
 70
     1
102
RTVSPropertyOp9
 70
     1
102
RTVSPropertyOp10
 70
     1
102
RTVSPropertyOp11
 70
     1
102
RTVSPropertyOp12
 70
     1
102
RTVSPropertyOp13
 70
     1
102
RTVSPropertyOp14
 70
     1
102
RTVSPropertyOp15
 70
     1
102
RTVSPropertyOp16
 70
     1
102
RTVSPropertyOp17
 70
     1
102
RTVSPropertyOp18
 70
     1
102
RTVSPropertyOp19
 70
     1
102
RTVSPropertyOp20
 70
     1
102
RTVSPropertyOp21
 70
     1
102
RTVSPropertyOp22
 70
     1
102
RTVSPropertyOp23
 70
     1
102
RTVSPropertyOp24
 70
     1
102
RTVSPropertyOp25
 70
     1
102
RTVSPropertyOp26
 70
     1
102
RTVSPropertyOp27
 70
     1
102
RTVSPropertyOp28
 70
     1
102
RTVSPropertyOp29
 70
     1
102
RTVSPropertyOp30
 70
     1
102
RTVSPropertyOp31
 70
     1
102
RTVSPropertyOp32
 70
     1
102
RTVSPropertyOp33
 70
     1
102
RTVSPropertyOp34
 70
     1
102
RTVSPropertyOp35
 70
     1
102
RTVSPropertyOp36
 70
     1
102
RTVSPropertyOp37
 70
     1
102
RTVSPropertyOp38
 70
     1
102
RTVSPropertyOp39
 70
     1
102
RTVSPropertyOp40
 70
     1
102
RTVSPropertyOp41
 70
     1
102
RTVSPropertyOp42
 70
     1
102
RTVSPropertyOp43
 70
     1
102
RTVSPropertyOp44
 70
     1
102
RTVSPropertyOp45
 70
     1
102
RTVSPropertyOp46
 70
     1
102
RTVSPropertyOp47
 70
     1
102
RTVSPropertyOp48
 70
     1
102
RTVSPropertyOp49
 70
     1
102
RTVSPropertyOp50
 70
     1
102
RTVSPropertyOp51
 70
     0
102
RTVSPropertyOp52
 70
     0
102
RTVSPropertyOp53
 70
     1
102
RTVSPropertyOp54
 70
     1
102
RTVSPropertyOp55
 70
     1
102
RTVSPropertyOp56
 70
     1
102
RTVSPropertyOp57
 70
     1
102
RTVSPropertyOp58
 70
     1
102
RTVSPropertyOp59
 70
     1
102
RTVSPropertyOp60
 70
     1
102
RTVSPropertyOp61
 70
     1
102
RTVSPropertyOp62
 70
     1
  0
XRECORD
  5
A7C5
102
{ACAD_REACTORS
330
A7C4
102
}
330
A7C4
100
AcDbXrecord
280
     1
102
RTVSPost2010Prop28
280
     0
102
RTVSPost2010PropOp28
 70
     1
102
RTVSPost2010Prop29
280
     1
102
RTVSPost2010PropOp29
 70
     1
102
RTVSPost2010Prop30
280
     1
102
RTVSPost2010PropOp30
 70
     1
102
RTVSPost2010Prop31
280
     0
102
RTVSPost2010PropOp31
 70
     1
102
RTVSPost2010Prop32
280
     0
102
RTVSPost2010PropOp32
 70
     1
102
RTVSPost2010Prop33
280
     0
102
RTVSPost2010PropOp33
 70
     1
102
RTVSPost2010Prop34
280
     0
102
RTVSPost2010PropOp34
 70
     1
102
RTVSPost2010Prop35
280
     0
102
RTVSPost2010PropOp35
 70
     1
102
RTVSPost2010Prop36
280
     0
102
RTVSPost2010PropOp36
 70
     1
102
RTVSPost2010Prop37
 90
       50
102
RTVSPost2010PropOp37
 70
     1
102
RTVSPost2010Prop38
140
0.0
102
RTVSPost2010PropOp38
 70
     1
102
RTVSPost2010Prop39
140
1.0
102
RTVSPost2010PropOp39
 70
     1
102
RTVSPost2010Prop40
 90
        0
102
RTVSPost2010PropOp40
 70
     1
102
RTVSPost2010Prop41ColorIndex
 90
       18
102
RTVSPost2010Prop41ColorRGB
 90
        0
102
RTVSPost2010PropOp41
 70
     1
102
RTVSPost2010Prop42
 90
       50
102
RTVSPost2010PropOp42
 70
     1
102
RTVSPost2010Prop43
 90
        3
102
RTVSPost2010PropOp43
 70
     1
102
RTVSPost2010Prop44ColorIndex
 90
        5
102
RTVSPost2010Prop44ColorRGB
 90
      255
102
RTVSPost2010PropOp44
 70
     1
102
RTVSPost2010Prop45
280
     0
102
RTVSPost2010PropOp45
 70
     1
102
RTVSPost2010Prop46
 90
       50
102
RTVSPost2010PropOp46
 70
     1
102
RTVSPost2010Prop47
 90
       50
102
RTVSPost2010PropOp47
 70
     1
102
RTVSPost2010Prop48
 90
       50
102
RTVSPost2010PropOp48
 70
     1
102
RTVSPost2010Prop49
280
     0
102
RTVSPost2010PropOp49
 70
     1
102
RTVSPost2010Prop50
 90
       50
102
RTVSPost2010PropOp50
 70
     1
102
RTVSPost2010Prop51ColorIndex
 90
      256
102
RTVSPost2010Prop51ColorRGB
 90
-16777216
102
RTVSPost2010PropOp51
 70
     0
102
RTVSPost2010Prop52
140
1.0
102
RTVSPost2010PropOp52
 70
     0
102
RTVSPost2010Prop53
 90
        2
102
RTVSPost2010PropOp53
 70
     1
102
RTVSPost2010Prop54
  1
strokes_ogs.tif
102
RTVSPost2010PropOp54
 70
     1
102
RTVSPost2010Prop55
280
     0
102
RTVSPost2010PropOp55
 70
     1
102
RTVSPost2010Prop56
140
1.0
102
RTVSPost2010PropOp56
 70
     1
102
RTVSPost2010Prop57
140
1.0
102
RTVSPost2010PropOp57
 70
     1
102
RTVSPropertyOp0
 70
     1
102
RTVSPropertyOp1
 70
     1
102
RTVSPropertyOp2
 70
     1
102
RTVSPropertyOp3
 70
     1
102
RTVSPropertyOp4
 70
     1
102
RTVSPropertyOp5
 70
     1
102
RTVSPropertyOp6
 70
     1
102
RTVSPropertyOp7
 70
     1
102
RTVSPropertyOp8
 70
     1
102
RTVSPropertyOp9
 70
     1
102
RTVSPropertyOp10
 70
     1
102
RTVSPropertyOp11
 70
     1
102
RTVSPropertyOp12
 70
     1
102
RTVSPropertyOp13
 70
     1
102
RTVSPropertyOp14
 70
     1
102
RTVSPropertyOp15
 70
     1
102
RTVSPropertyOp16
 70
     1
102
RTVSPropertyOp17
 70
     1
102
RTVSPropertyOp18
 70
     1
102
RTVSPropertyOp19
 70
     1
102
RTVSPropertyOp20
 70
     1
102
RTVSPropertyOp21
 70
     1
102
RTVSPropertyOp22
 70
     1
102
RTVSPropertyOp23
 70
     1
102
RTVSPropertyOp24
 70
     1
102
RTVSPropertyOp25
 70
     1
102
RTVSPropertyOp26
 70
     1
102
RTVSPropertyOp27
 70
     1
102
RTVSPropertyOp28
 70
     1
102
RTVSPropertyOp29
 70
     1
102
RTVSPropertyOp30
 70
     1
102
RTVSPropertyOp31
 70
     1
102
RTVSPropertyOp32
 70
     1
102
RTVSPropertyOp33
 70
     1
102
RTVSPropertyOp34
 70
     1
102
RTVSPropertyOp35
 70
     1
102
RTVSPropertyOp36
 70
     1
102
RTVSPropertyOp37
 70
     1
102
RTVSPropertyOp38
 70
     1
102
RTVSPropertyOp39
 70
     1
102
RTVSPropertyOp40
 70
     1
102
RTVSPropertyOp41
 70
     1
102
RTVSPropertyOp42
 70
     1
102
RTVSPropertyOp43
 70
     1
102
RTVSPropertyOp44
 70
     1
102
RTVSPropertyOp45
 70
     1
102
RTVSPropertyOp46
 70
     1
102
RTVSPropertyOp47
 70
     1
102
RTVSPropertyOp48
 70
     1
102
RTVSPropertyOp49
 70
     1
102
RTVSPropertyOp50
 70
     1
102
RTVSPropertyOp51
 70
     0
102
RTVSPropertyOp52
 70
     0
102
RTVSPropertyOp53
 70
     1
102
RTVSPropertyOp54
 70
     1
102
RTVSPropertyOp55
 70
     1
102
RTVSPropertyOp56
 70
     1
102
RTVSPropertyOp57
 70
     1
102
RTVSPropertyOp58
 70
     1
102
RTVSPropertyOp59
 70
     1
102
RTVSPropertyOp60
 70
     1
102
RTVSPropertyOp61
 70
     1
102
RTVSPropertyOp62
 70
     1
  0
XRECORD
  5
A7C7
102
{ACAD_REACTORS
330
A7C6
102
}
330
A7C6
100
AcDbXrecord
280
     1
102
RTVSPost2010Prop28
280
     0
102
RTVSPost2010PropOp28
 70
     1
102
RTVSPost2010Prop29
280
     1
102
RTVSPost2010PropOp29
 70
     1
102
RTVSPost2010Prop30
280
     1
102
RTVSPost2010PropOp30
 70
     1
102
RTVSPost2010Prop31
280
     0
102
RTVSPost2010PropOp31
 70
     1
102
RTVSPost2010Prop32
280
     0
102
RTVSPost2010PropOp32
 70
     1
102
RTVSPost2010Prop33
280
     0
102
RTVSPost2010PropOp33
 70
     1
102
RTVSPost2010Prop34
280
     0
102
RTVSPost2010PropOp34
 70
     1
102
RTVSPost2010Prop35
280
     0
102
RTVSPost2010PropOp35
 70
     1
102
RTVSPost2010Prop36
280
     0
102
RTVSPost2010PropOp36
 70
     1
102
RTVSPost2010Prop37
 90
       50
102
RTVSPost2010PropOp37
 70
     1
102
RTVSPost2010Prop38
140
0.0
102
RTVSPost2010PropOp38
 70
     1
102
RTVSPost2010Prop39
140
1.0
102
RTVSPost2010PropOp39
 70
     1
102
RTVSPost2010Prop40
 90
        0
102
RTVSPost2010PropOp40
 70
     1
102
RTVSPost2010Prop41ColorIndex
 90
       18
102
RTVSPost2010Prop41ColorRGB
 90
        0
102
RTVSPost2010PropOp41
 70
     1
102
RTVSPost2010Prop42
 90
       50
102
RTVSPost2010PropOp42
 70
     1
102
RTVSPost2010Prop43
 90
        3
102
RTVSPost2010PropOp43
 70
     1
102
RTVSPost2010Prop44ColorIndex
 90
        5
102
RTVSPost2010Prop44ColorRGB
 90
      255
102
RTVSPost2010PropOp44
 70
     1
102
RTVSPost2010Prop45
280
     0
102
RTVSPost2010PropOp45
 70
     1
102
RTVSPost2010Prop46
 90
       50
102
RTVSPost2010PropOp46
 70
     1
102
RTVSPost2010Prop47
 90
       50
102
RTVSPost2010PropOp47
 70
     1
102
RTVSPost2010Prop48
 90
       50
102
RTVSPost2010PropOp48
 70
     1
102
RTVSPost2010Prop49
280
     0
102
RTVSPost2010PropOp49
 70
     1
102
RTVSPost2010Prop50
 90
       50
102
RTVSPost2010PropOp50
 70
     1
102
RTVSPost2010Prop51ColorIndex
 90
      256
102
RTVSPost2010Prop51ColorRGB
 90
-16777216
102
RTVSPost2010PropOp51
 70
     0
102
RTVSPost2010Prop52
140
1.0
102
RTVSPost2010PropOp52
 70
     0
102
RTVSPost2010Prop53
 90
        2
102
RTVSPost2010PropOp53
 70
     1
102
RTVSPost2010Prop54
  1
strokes_ogs.tif
102
RTVSPost2010PropOp54
 70
     1
102
RTVSPost2010Prop55
280
     0
102
RTVSPost2010PropOp55
 70
     1
102
RTVSPost2010Prop56
140
1.0
102
RTVSPost2010PropOp56
 70
     1
102
RTVSPost2010Prop57
140
1.0
102
RTVSPost2010PropOp57
 70
     1
102
RTVSPropertyOp0
 70
     1
102
RTVSPropertyOp1
 70
     1
102
RTVSPropertyOp2
 70
     1
102
RTVSPropertyOp3
 70
     1
102
RTVSPropertyOp4
 70
     1
102
RTVSPropertyOp5
 70
     1
102
RTVSPropertyOp6
 70
     1
102
RTVSPropertyOp7
 70
     1
102
RTVSPropertyOp8
 70
     1
102
RTVSPropertyOp9
 70
     1
102
RTVSPropertyOp10
 70
     1
102
RTVSPropertyOp11
 70
     1
102
RTVSPropertyOp12
 70
     1
102
RTVSPropertyOp13
 70
     1
102
RTVSPropertyOp14
 70
     1
102
RTVSPropertyOp15
 70
     1
102
RTVSPropertyOp16
 70
     1
102
RTVSPropertyOp17
 70
     1
102
RTVSPropertyOp18
 70
     1
102
RTVSPropertyOp19
 70
     1
102
RTVSPropertyOp20
 70
     1
102
RTVSPropertyOp21
 70
     1
102
RTVSPropertyOp22
 70
     1
102
RTVSPropertyOp23
 70
     1
102
RTVSPropertyOp24
 70
     1
102
RTVSPropertyOp25
 70
     1
102
RTVSPropertyOp26
 70
     1
102
RTVSPropertyOp27
 70
     1
102
RTVSPropertyOp28
 70
     1
102
RTVSPropertyOp29
 70
     1
102
RTVSPropertyOp30
 70
     1
102
RTVSPropertyOp31
 70
     1
102
RTVSPropertyOp32
 70
     1
102
RTVSPropertyOp33
 70
     1
102
RTVSPropertyOp34
 70
     1
102
RTVSPropertyOp35
 70
     1
102
RTVSPropertyOp36
 70
     1
102
RTVSPropertyOp37
 70
     1
102
RTVSPropertyOp38
 70
     1
102
RTVSPropertyOp39
 70
     1
102
RTVSPropertyOp40
 70
     1
102
RTVSPropertyOp41
 70
     1
102
RTVSPropertyOp42
 70
     1
102
RTVSPropertyOp43
 70
     1
102
RTVSPropertyOp44
 70
     1
102
RTVSPropertyOp45
 70
     1
102
RTVSPropertyOp46
 70
     1
102
RTVSPropertyOp47
 70
     1
102
RTVSPropertyOp48
 70
     1
102
RTVSPropertyOp49
 70
     1
102
RTVSPropertyOp50
 70
     1
102
RTVSPropertyOp51
 70
     0
102
RTVSPropertyOp52
 70
     0
102
RTVSPropertyOp53
 70
     1
102
RTVSPropertyOp54
 70
     1
102
RTVSPropertyOp55
 70
     1
102
RTVSPropertyOp56
 70
     1
102
RTVSPropertyOp57
 70
     1
102
RTVSPropertyOp58
 70
     1
102
RTVSPropertyOp59
 70
     1
102
RTVSPropertyOp60
 70
     1
102
RTVSPropertyOp61
 70
     1
102
RTVSPropertyOp62
 70
     1
  0
XRECORD
  5
A7BD
102
{ACAD_REACTORS
330
A7BC
102
}
330
A7BC
100
AcDbXrecord
280
     1
102
RTVSPost2010Prop28
280
     0
102
RTVSPost2010PropOp28
 70
     1
102
RTVSPost2010Prop29
280
     1
102
RTVSPost2010PropOp29
 70
     1
102
RTVSPost2010Prop30
280
     1
102
RTVSPost2010PropOp30
 70
     1
102
RTVSPost2010Prop31
280
     0
102
RTVSPost2010PropOp31
 70
     1
102
RTVSPost2010Prop32
280
     0
102
RTVSPost2010PropOp32
 70
     1
102
RTVSPost2010Prop33
280
     0
102
RTVSPost2010PropOp33
 70
     1
102
RTVSPost2010Prop34
280
     0
102
RTVSPost2010PropOp34
 70
     1
102
RTVSPost2010Prop35
280
     0
102
RTVSPost2010PropOp35
 70
     1
102
RTVSPost2010Prop36
280
     0
102
RTVSPost2010PropOp36
 70
     1
102
RTVSPost2010Prop37
 90
       50
102
RTVSPost2010PropOp37
 70
     1
102
RTVSPost2010Prop38
140
0.0
102
RTVSPost2010PropOp38
 70
     1
102
RTVSPost2010Prop39
140
1.0
102
RTVSPost2010PropOp39
 70
     1
102
RTVSPost2010Prop40
 90
        0
102
RTVSPost2010PropOp40
 70
     1
102
RTVSPost2010Prop41ColorIndex
 90
       18
102
RTVSPost2010Prop41ColorRGB
 90
        0
102
RTVSPost2010PropOp41
 70
     1
102
RTVSPost2010Prop42
 90
       50
102
RTVSPost2010PropOp42
 70
     1
102
RTVSPost2010Prop43
 90
        3
102
RTVSPost2010PropOp43
 70
     1
102
RTVSPost2010Prop44ColorIndex
 90
        5
102
RTVSPost2010Prop44ColorRGB
 90
      255
102
RTVSPost2010PropOp44
 70
     1
102
RTVSPost2010Prop45
280
     0
102
RTVSPost2010PropOp45
 70
     1
102
RTVSPost2010Prop46
 90
       50
102
RTVSPost2010PropOp46
 70
     1
102
RTVSPost2010Prop47
 90
       50
102
RTVSPost2010PropOp47
 70
     1
102
RTVSPost2010Prop48
 90
       50
102
RTVSPost2010PropOp48
 70
     1
102
RTVSPost2010Prop49
280
     0
102
RTVSPost2010PropOp49
 70
     1
102
RTVSPost2010Prop50
 90
       50
102
RTVSPost2010PropOp50
 70
     1
102
RTVSPost2010Prop51ColorIndex
 90
      256
102
RTVSPost2010Prop51ColorRGB
 90
-16777216
102
RTVSPost2010PropOp51
 70
     0
102
RTVSPost2010Prop52
140
1.0
102
RTVSPost2010PropOp52
 70
     0
102
RTVSPost2010Prop53
 90
        2
102
RTVSPost2010PropOp53
 70
     1
102
RTVSPost2010Prop54
  1
strokes_ogs.tif
102
RTVSPost2010PropOp54
 70
     1
102
RTVSPost2010Prop55
280
     0
102
RTVSPost2010PropOp55
 70
     1
102
RTVSPost2010Prop56
140
1.0
102
RTVSPost2010PropOp56
 70
     1
102
RTVSPost2010Prop57
140
1.0
102
RTVSPost2010PropOp57
 70
     1
102
RTVSPropertyOp0
 70
     1
102
RTVSPropertyOp1
 70
     1
102
RTVSPropertyOp2
 70
     1
102
RTVSPropertyOp3
 70
     1
102
RTVSPropertyOp4
 70
     1
102
RTVSPropertyOp5
 70
     1
102
RTVSPropertyOp6
 70
     1
102
RTVSPropertyOp7
 70
     1
102
RTVSPropertyOp8
 70
     1
102
RTVSPropertyOp9
 70
     1
102
RTVSPropertyOp10
 70
     1
102
RTVSPropertyOp11
 70
     1
102
RTVSPropertyOp12
 70
     1
102
RTVSPropertyOp13
 70
     1
102
RTVSPropertyOp14
 70
     1
102
RTVSPropertyOp15
 70
     1
102
RTVSPropertyOp16
 70
     1
102
RTVSPropertyOp17
 70
     1
102
RTVSPropertyOp18
 70
     1
102
RTVSPropertyOp19
 70
     1
102
RTVSPropertyOp20
 70
     1
102
RTVSPropertyOp21
 70
     1
102
RTVSPropertyOp22
 70
     1
102
RTVSPropertyOp23
 70
     1
102
RTVSPropertyOp24
 70
     1
102
RTVSPropertyOp25
 70
     1
102
RTVSPropertyOp26
 70
     1
102
RTVSPropertyOp27
 70
     1
102
RTVSPropertyOp28
 70
     1
102
RTVSPropertyOp29
 70
     1
102
RTVSPropertyOp30
 70
     1
102
RTVSPropertyOp31
 70
     1
102
RTVSPropertyOp32
 70
     1
102
RTVSPropertyOp33
 70
     1
102
RTVSPropertyOp34
 70
     1
102
RTVSPropertyOp35
 70
     1
102
RTVSPropertyOp36
 70
     1
102
RTVSPropertyOp37
 70
     1
102
RTVSPropertyOp38
 70
     1
102
RTVSPropertyOp39
 70
     1
102
RTVSPropertyOp40
 70
     1
102
RTVSPropertyOp41
 70
     1
102
RTVSPropertyOp42
 70
     1
102
RTVSPropertyOp43
 70
     1
102
RTVSPropertyOp44
 70
     1
102
RTVSPropertyOp45
 70
     1
102
RTVSPropertyOp46
 70
     1
102
RTVSPropertyOp47
 70
     1
102
RTVSPropertyOp48
 70
     1
102
RTVSPropertyOp49
 70
     1
102
RTVSPropertyOp50
 70
     1
102
RTVSPropertyOp51
 70
     0
102
RTVSPropertyOp52
 70
     0
102
RTVSPropertyOp53
 70
     1
102
RTVSPropertyOp54
 70
     1
102
RTVSPropertyOp55
 70
     1
102
RTVSPropertyOp56
 70
     1
102
RTVSPropertyOp57
 70
     1
102
RTVSPropertyOp58
 70
     1
102
RTVSPropertyOp59
 70
     1
102
RTVSPropertyOp60
 70
     1
102
RTVSPropertyOp61
 70
     1
102
RTVSPropertyOp62
 70
     1
  0
XRECORD
  5
A7B1
102
{ACAD_REACTORS
330
A7B0
102
}
330
A7B0
100
AcDbXrecord
280
     1
102
RTVSPost2010Prop28
280
     0
102
RTVSPost2010PropOp28
 70
     1
102
RTVSPost2010Prop29
280
     1
102
RTVSPost2010PropOp29
 70
     1
102
RTVSPost2010Prop30
280
     1
102
RTVSPost2010PropOp30
 70
     1
102
RTVSPost2010Prop31
280
     0
102
RTVSPost2010PropOp31
 70
     1
102
RTVSPost2010Prop32
280
     0
102
RTVSPost2010PropOp32
 70
     1
102
RTVSPost2010Prop33
280
     0
102
RTVSPost2010PropOp33
 70
     1
102
RTVSPost2010Prop34
280
     0
102
RTVSPost2010PropOp34
 70
     1
102
RTVSPost2010Prop35
280
     0
102
RTVSPost2010PropOp35
 70
     1
102
RTVSPost2010Prop36
280
     0
102
RTVSPost2010PropOp36
 70
     1
102
RTVSPost2010Prop37
 90
       50
102
RTVSPost2010PropOp37
 70
     1
102
RTVSPost2010Prop38
140
0.0
102
RTVSPost2010PropOp38
 70
     1
102
RTVSPost2010Prop39
140
1.0
102
RTVSPost2010PropOp39
 70
     1
102
RTVSPost2010Prop40
 90
        0
102
RTVSPost2010PropOp40
 70
     1
102
RTVSPost2010Prop41ColorIndex
 90
       18
102
RTVSPost2010Prop41ColorRGB
 90
        0
102
RTVSPost2010PropOp41
 70
     1
102
RTVSPost2010Prop42
 90
       50
102
RTVSPost2010PropOp42
 70
     1
102
RTVSPost2010Prop43
 90
        3
102
RTVSPost2010PropOp43
 70
     1
102
RTVSPost2010Prop44ColorIndex
 90
        5
102
RTVSPost2010Prop44ColorRGB
 90
      255
102
RTVSPost2010PropOp44
 70
     1
102
RTVSPost2010Prop45
280
     0
102
RTVSPost2010PropOp45
 70
     1
102
RTVSPost2010Prop46
 90
       50
102
RTVSPost2010PropOp46
 70
     1
102
RTVSPost2010Prop47
 90
       50
102
RTVSPost2010PropOp47
 70
     1
102
RTVSPost2010Prop48
 90
       50
102
RTVSPost2010PropOp48
 70
     1
102
RTVSPost2010Prop49
280
     0
102
RTVSPost2010PropOp49
 70
     1
102
RTVSPost2010Prop50
 90
       50
102
RTVSPost2010PropOp50
 70
     1
102
RTVSPost2010Prop51ColorIndex
 90
      256
102
RTVSPost2010Prop51ColorRGB
 90
-16777216
102
RTVSPost2010PropOp51
 70
     0
102
RTVSPost2010Prop52
140
1.0
102
RTVSPost2010PropOp52
 70
     0
102
RTVSPost2010Prop53
 90
        2
102
RTVSPost2010PropOp53
 70
     1
102
RTVSPost2010Prop54
  1
strokes_ogs.tif
102
RTVSPost2010PropOp54
 70
     1
102
RTVSPost2010Prop55
280
     0
102
RTVSPost2010PropOp55
 70
     1
102
RTVSPost2010Prop56
140
1.0
102
RTVSPost2010PropOp56
 70
     1
102
RTVSPost2010Prop57
140
1.0
102
RTVSPost2010PropOp57
 70
     1
102
RTVSPropertyOp0
 70
     1
102
RTVSPropertyOp1
 70
     1
102
RTVSPropertyOp2
 70
     1
102
RTVSPropertyOp3
 70
     1
102
RTVSPropertyOp4
 70
     1
102
RTVSPropertyOp5
 70
     1
102
RTVSPropertyOp6
 70
     1
102
RTVSPropertyOp7
 70
     1
102
RTVSPropertyOp8
 70
     1
102
RTVSPropertyOp9
 70
     1
102
RTVSPropertyOp10
 70
     1
102
RTVSPropertyOp11
 70
     1
102
RTVSPropertyOp12
 70
     1
102
RTVSPropertyOp13
 70
     1
102
RTVSPropertyOp14
 70
     1
102
RTVSPropertyOp15
 70
     1
102
RTVSPropertyOp16
 70
     1
102
RTVSPropertyOp17
 70
     1
102
RTVSPropertyOp18
 70
     1
102
RTVSPropertyOp19
 70
     1
102
RTVSPropertyOp20
 70
     1
102
RTVSPropertyOp21
 70
     1
102
RTVSPropertyOp22
 70
     1
102
RTVSPropertyOp23
 70
     1
102
RTVSPropertyOp24
 70
     1
102
RTVSPropertyOp25
 70
     1
102
RTVSPropertyOp26
 70
     1
102
RTVSPropertyOp27
 70
     1
102
RTVSPropertyOp28
 70
     1
102
RTVSPropertyOp29
 70
     1
102
RTVSPropertyOp30
 70
     1
102
RTVSPropertyOp31
 70
     1
102
RTVSPropertyOp32
 70
     1
102
RTVSPropertyOp33
 70
     1
102
RTVSPropertyOp34
 70
     1
102
RTVSPropertyOp35
 70
     1
102
RTVSPropertyOp36
 70
     1
102
RTVSPropertyOp37
 70
     1
102
RTVSPropertyOp38
 70
     1
102
RTVSPropertyOp39
 70
     1
102
RTVSPropertyOp40
 70
     1
102
RTVSPropertyOp41
 70
     1
102
RTVSPropertyOp42
 70
     1
102
RTVSPropertyOp43
 70
     1
102
RTVSPropertyOp44
 70
     1
102
RTVSPropertyOp45
 70
     1
102
RTVSPropertyOp46
 70
     1
102
RTVSPropertyOp47
 70
     1
102
RTVSPropertyOp48
 70
     1
102
RTVSPropertyOp49
 70
     1
102
RTVSPropertyOp50
 70
     1
102
RTVSPropertyOp51
 70
     0
102
RTVSPropertyOp52
 70
     0
102
RTVSPropertyOp53
 70
     1
102
RTVSPropertyOp54
 70
     1
102
RTVSPropertyOp55
 70
     1
102
RTVSPropertyOp56
 70
     1
102
RTVSPropertyOp57
 70
     1
102
RTVSPropertyOp58
 70
     1
102
RTVSPropertyOp59
 70
     1
102
RTVSPropertyOp60
 70
     1
102
RTVSPropertyOp61
 70
     1
102
RTVSPropertyOp62
 70
     1
  0
XRECORD
  5
A7C9
102
{ACAD_REACTORS
330
A7C8
102
}
330
A7C8
100
AcDbXrecord
280
     1
102
RTVSPost2010Prop28
280
     0
102
RTVSPost2010PropOp28
 70
     1
102
RTVSPost2010Prop29
280
     1
102
RTVSPost2010PropOp29
 70
     1
102
RTVSPost2010Prop30
280
     1
102
RTVSPost2010PropOp30
 70
     1
102
RTVSPost2010Prop31
280
     0
102
RTVSPost2010PropOp31
 70
     1
102
RTVSPost2010Prop32
280
     0
102
RTVSPost2010PropOp32
 70
     1
102
RTVSPost2010Prop33
280
     0
102
RTVSPost2010PropOp33
 70
     1
102
RTVSPost2010Prop34
280
     0
102
RTVSPost2010PropOp34
 70
     1
102
RTVSPost2010Prop35
280
     0
102
RTVSPost2010PropOp35
 70
     1
102
RTVSPost2010Prop36
280
     0
102
RTVSPost2010PropOp36
 70
     1
102
RTVSPost2010Prop37
 90
       50
102
RTVSPost2010PropOp37
 70
     1
102
RTVSPost2010Prop38
140
0.0
102
RTVSPost2010PropOp38
 70
     1
102
RTVSPost2010Prop39
140
1.0
102
RTVSPost2010PropOp39
 70
     1
102
RTVSPost2010Prop40
 90
        0
102
RTVSPost2010PropOp40
 70
     1
102
RTVSPost2010Prop41ColorIndex
 90
       18
102
RTVSPost2010Prop41ColorRGB
 90
        0
102
RTVSPost2010PropOp41
 70
     1
102
RTVSPost2010Prop42
 90
       50
102
RTVSPost2010PropOp42
 70
     1
102
RTVSPost2010Prop43
 90
        3
102
RTVSPost2010PropOp43
 70
     1
102
RTVSPost2010Prop44ColorIndex
 90
        5
102
RTVSPost2010Prop44ColorRGB
 90
      255
102
RTVSPost2010PropOp44
 70
     1
102
RTVSPost2010Prop45
280
     0
102
RTVSPost2010PropOp45
 70
     1
102
RTVSPost2010Prop46
 90
       50
102
RTVSPost2010PropOp46
 70
     1
102
RTVSPost2010Prop47
 90
       50
102
RTVSPost2010PropOp47
 70
     1
102
RTVSPost2010Prop48
 90
       50
102
RTVSPost2010PropOp48
 70
     1
102
RTVSPost2010Prop49
280
     0
102
RTVSPost2010PropOp49
 70
     1
102
RTVSPost2010Prop50
 90
       50
102
RTVSPost2010PropOp50
 70
     1
102
RTVSPost2010Prop51ColorIndex
 90
      256
102
RTVSPost2010Prop51ColorRGB
 90
-16777216
102
RTVSPost2010PropOp51
 70
     0
102
RTVSPost2010Prop52
140
1.0
102
RTVSPost2010PropOp52
 70
     0
102
RTVSPost2010Prop53
 90
        2
102
RTVSPost2010PropOp53
 70
     1
102
RTVSPost2010Prop54
  1
strokes_ogs.tif
102
RTVSPost2010PropOp54
 70
     1
102
RTVSPost2010Prop55
280
     0
102
RTVSPost2010PropOp55
 70
     1
102
RTVSPost2010Prop56
140
1.0
102
RTVSPost2010PropOp56
 70
     1
102
RTVSPost2010Prop57
140
1.0
102
RTVSPost2010PropOp57
 70
     1
102
RTVSPropertyOp0
 70
     1
102
RTVSPropertyOp1
 70
     1
102
RTVSPropertyOp2
 70
     1
102
RTVSPropertyOp3
 70
     1
102
RTVSPropertyOp4
 70
     1
102
RTVSPropertyOp5
 70
     1
102
RTVSPropertyOp6
 70
     1
102
RTVSPropertyOp7
 70
     1
102
RTVSPropertyOp8
 70
     1
102
RTVSPropertyOp9
 70
     1
102
RTVSPropertyOp10
 70
     1
102
RTVSPropertyOp11
 70
     1
102
RTVSPropertyOp12
 70
     1
102
RTVSPropertyOp13
 70
     1
102
RTVSPropertyOp14
 70
     1
102
RTVSPropertyOp15
 70
     1
102
RTVSPropertyOp16
 70
     1
102
RTVSPropertyOp17
 70
     1
102
RTVSPropertyOp18
 70
     1
102
RTVSPropertyOp19
 70
     1
102
RTVSPropertyOp20
 70
     1
102
RTVSPropertyOp21
 70
     1
102
RTVSPropertyOp22
 70
     1
102
RTVSPropertyOp23
 70
     1
102
RTVSPropertyOp24
 70
     1
102
RTVSPropertyOp25
 70
     1
102
RTVSPropertyOp26
 70
     1
102
RTVSPropertyOp27
 70
     1
102
RTVSPropertyOp28
 70
     1
102
RTVSPropertyOp29
 70
     1
102
RTVSPropertyOp30
 70
     1
102
RTVSPropertyOp31
 70
     1
102
RTVSPropertyOp32
 70
     1
102
RTVSPropertyOp33
 70
     1
102
RTVSPropertyOp34
 70
     1
102
RTVSPropertyOp35
 70
     1
102
RTVSPropertyOp36
 70
     1
102
RTVSPropertyOp37
 70
     1
102
RTVSPropertyOp38
 70
     1
102
RTVSPropertyOp39
 70
     1
102
RTVSPropertyOp40
 70
     1
102
RTVSPropertyOp41
 70
     1
102
RTVSPropertyOp42
 70
     1
102
RTVSPropertyOp43
 70
     1
102
RTVSPropertyOp44
 70
     1
102
RTVSPropertyOp45
 70
     1
102
RTVSPropertyOp46
 70
     1
102
RTVSPropertyOp47
 70
     1
102
RTVSPropertyOp48
 70
     1
102
RTVSPropertyOp49
 70
     1
102
RTVSPropertyOp50
 70
     1
102
RTVSPropertyOp51
 70
     0
102
RTVSPropertyOp52
 70
     0
102
RTVSPropertyOp53
 70
     1
102
RTVSPropertyOp54
 70
     1
102
RTVSPropertyOp55
 70
     1
102
RTVSPropertyOp56
 70
     1
102
RTVSPropertyOp57
 70
     1
102
RTVSPropertyOp58
 70
     1
102
RTVSPropertyOp59
 70
     1
102
RTVSPropertyOp60
 70
     1
102
RTVSPropertyOp61
 70
     1
102
RTVSPropertyOp62
 70
     1
  0
ENDSEC
  0
EOF
