  0
SECTION
  2
HEADER
  9
$ACADVER
  1
AC1015
  9
$ACADMAINTVER
 70
    20
  9
$DWGCODEPAGE
  3
ANSI_932
  9
$INSBASE
 10
0.0
 20
0.0
 30
0.0
  9
$EXTMIN
 10
10.0
 20
9.999999999999998
 30
0.0
  9
$EXTMAX
 10
728.3551169999997
 20
437.3143269999998
 30
0.0
  9
$LIMMIN
 10
0.0
 20
0.0
  9
$LIMMAX
 10
792.0
 20
546.0
  9
$ORTHOMODE
 70
     1
  9
$REGENMODE
 70
     1
  9
$FILLMODE
 70
     1
  9
$QTEXTMODE
 70
     0
  9
$MIRRTEXT
 70
     1
  9
$LTSCALE
 40
20.0
  9
$ATTMODE
 70
     1
  9
$TEXTSIZE
 40
5.0
  9
$TRACEWID
 40
1.0
  9
$TEXTSTYLE
  7
STANDARD
  9
$CLAYER
  8
0
  9
$CELTYPE
  6
BYLAYER
  9
$CECOLOR
 62
   256
  9
$CELTSCALE
 40
1.0
  9
$DISPSILH
 70
     0
  9
$DIMSCALE
 40
1.0
  9
$DIMASZ
 40
2.5
  9
$DIMEXO
 40
1.0
  9
$DIMDLI
 40
10.0
  9
$DIMRND
 40
0.0
  9
$DIMDLE
 40
0.0
  9
$DIMEXE
 40
1.0
  9
$DIMTP
 40
0.0
  9
$DIMTM
 40
0.0
  9
$DIMTXT
 40
3.2
  9
$DIMCEN
 40
0.0
  9
$DIMTSZ
 40
0.0
  9
$DIMTOL
 70
     0
  9
$DIMLIM
 70
     0
  9
$DIMTIH
 70
     0
  9
$DIMTOH
 70
     0
  9
$DIMSE1
 70
     0
  9
$DIMSE2
 70
     0
  9
$DIMTAD
 70
     3
  9
$DIMZIN
 70
     8
  9
$DIMBLK
  1

  9
$DIMASO
 70
     1
  9
$DIMSHO
 70
     1
  9
$DIMPOST
  1

  9
$DIMAPOST
  1

  9
$DIMALT
 70
     0
  9
$DIMALTD
 70
     2
  9
$DIMALTF
 40
25.4
  9
$DIMLFAC
 40
1.0
  9
$DIMTOFL
 70
     1
  9
$DIMTVP
 40
0.0
  9
$DIMTIX
 70
     0
  9
$DIMSOXD
 70
     0
  9
$DIMSAH
 70
     1
  9
$DIMBLK1
  1
OPEN
  9
$DIMBLK2
  1
OPEN
  9
$DIMSTYLE
  2
STANDARD
  9
$DIMCLRD
 70
     0
  9
$DIMCLRE
 70
     0
  9
$DIMCLRT
 70
     0
  9
$DIMTFAC
 40
1.0
  9
$DIMGAP
 40
1.0
  9
$DIMJUST
 70
     0
  9
$DIMSD1
 70
     0
  9
$DIMSD2
 70
     0
  9
$DIMTOLJ
 70
     1
  9
$DIMTZIN
 70
     0
  9
$DIMALTZ
 70
     0
  9
$DIMALTTZ
 70
     0
  9
$DIMUPT
 70
     0
  9
$DIMDEC
 70
     4
  9
$DIMTDEC
 70
     4
  9
$DIMALTU
 70
     2
  9
$DIMALTTD
 70
     2
  9
$DIMTXSTY
  7
STANDARD
  9
$DIMAUNIT
 70
     0
  9
$DIMADEC
 70
     0
  9
$DIMALTRND
 40
0.0
  9
$DIMAZIN
 70
     0
  9
$DIMDSEP
 70
    46
  9
$DIMATFIT
 70
     3
  9
$DIMFRAC
 70
     0
  9
$DIMLDRBLK
  1
OPEN
  9
$DIMLUNIT
 70
     2
  9
$DIMLWD
 70
    -2
  9
$DIMLWE
 70
    -2
  9
$DIMTMOVE
 70
     0
  9
$LUNITS
 70
     2
  9
$LUPREC
 70
     4
  9
$SKETCHINC
 40
1.0
  9
$FILLETRAD
 40
2.5
  9
$AUNITS
 70
     0
  9
$AUPREC
 70
     2
  9
$MENU
  1
.
  9
$ELEVATION
 40
0.0
  9
$PELEVATION
 40
0.0
  9
$THICKNESS
 40
0.0
  9
$LIMCHECK
 70
     0
  9
$CHAMFERA
 40
10.0
  9
$CHAMFERB
 40
10.0
  9
$CHAMFERC
 40
0.0
  9
$CHAMFERD
 40
0.0
  9
$SKPOLY
 70
     0
  9
$TDCREATE
 40
2451417.569075116
  9
$TDUCREATE
 40
2451417.194075116
  9
$TDUPDATE
 40
2457192.640567882
  9
$TDUUPDATE
 40
2457192.265567882
  9
$TDINDWG
 40
0.0000171065
  9
$TDUSRTIMER
 40
0.0000162384
  9
$USRTIMER
 70
     1
  9
$ANGBASE
 50
0.0
  9
$ANGDIR
 70
     0
  9
$PDMODE
 70
     0
  9
$PDSIZE
 40
0.0
  9
$PLINEWID
 40
0.0
  9
$SPLFRAME
 70
     0
  9
$SPLINETYPE
 70
     6
  9
$SPLINESEGS
 70
     8
  9
$HANDSEED
  5
B3AD
  9
$SURFTAB1
 70
     6
  9
$SURFTAB2
 70
     6
  9
$SURFTYPE
 70
     6
  9
$SURFU
 70
     6
  9
$SURFV
 70
     6
  9
$UCSBASE
  2

  9
$UCSNAME
  2

  9
$UCSORG
 10
0.0
 20
0.0
 30
0.0
  9
$UCSXDIR
 10
1.0
 20
0.0
 30
0.0
  9
$UCSYDIR
 10
0.0
 20
1.0
 30
0.0
  9
$UCSORTHOREF
  2

  9
$UCSORTHOVIEW
 70
     0
  9
$UCSORGTOP
 10
0.0
 20
0.0
 30
0.0
  9
$UCSORGBOTTOM
 10
0.0
 20
0.0
 30
0.0
  9
$UCSORGLEFT
 10
0.0
 20
0.0
 30
0.0
  9
$UCSORGRIGHT
 10
0.0
 20
0.0
 30
0.0
  9
$UCSORGFRONT
 10
0.0
 20
0.0
 30
0.0
  9
$UCSORGBACK
 10
0.0
 20
0.0
 30
0.0
  9
$PUCSBASE
  2

  9
$PUCSNAME
  2

  9
$PUCSORG
 10
0.0
 20
0.0
 30
0.0
  9
$PUCSXDIR
 10
1.0
 20
0.0
 30
0.0
  9
$PUCSYDIR
 10
0.0
 20
1.0
 30
0.0
  9
$PUCSORTHOREF
  2

  9
$PUCSORTHOVIEW
 70
     0
  9
$PUCSORGTOP
 10
0.0
 20
0.0
 30
0.0
  9
$PUCSORGBOTTOM
 10
0.0
 20
0.0
 30
0.0
  9
$PUCSORGLEFT
 10
0.0
 20
0.0
 30
0.0
  9
$PUCSORGRIGHT
 10
0.0
 20
0.0
 30
0.0
  9
$PUCSORGFRONT
 10
0.0
 20
0.0
 30
0.0
  9
$PUCSORGBACK
 10
0.0
 20
0.0
 30
0.0
  9
$USERI1
 70
     0
  9
$USERI2
 70
     0
  9
$USERI3
 70
     0
  9
$USERI4
 70
     0
  9
$USERI5
 70
     0
  9
$USERR1
 40
0.0
  9
$USERR2
 40
0.0
  9
$USERR3
 40
0.0
  9
$USERR4
 40
0.0
  9
$USERR5
 40
0.0
  9
$WORLDVIEW
 70
     1
  9
$SHADEDGE
 70
     3
  9
$SHADEDIF
 70
    70
  9
$TILEMODE
 70
     1
  9
$MAXACTVP
 70
    16
  9
$PINSBASE
 10
0.0
 20
0.0
 30
0.0
  9
$PLIMCHECK
 70
     0
  9
$PEXTMIN
 10
1.000000000000000E+20
 20
1.000000000000000E+20
 30
1.000000000000000E+20
  9
$PEXTMAX
 10
-1.000000000000000E+20
 20
-1.000000000000000E+20
 30
-1.000000000000000E+20
  9
$PLIMMIN
 10
0.0
 20
0.0
  9
$PLIMMAX
 10
420.0
 20
297.0
  9
$UNITMODE
 70
     0
  9
$VISRETAIN
 70
     0
  9
$PLINEGEN
 70
     0
  9
$PSLTSCALE
 70
     0
  9
$TREEDEPTH
 70
  3020
  9
$CMLSTYLE
  2
STANDARD
  9
$CMLJUST
 70
     0
  9
$CMLSCALE
 40
1.0
  9
$PROXYGRAPHICS
 70
     1
  9
$MEASUREMENT
 70
     0
  9
$CELWEIGHT
370
    -1
  9
$ENDCAPS
280
     0
  9
$JOINSTYLE
280
     0
  9
$LWDISPLAY
290
     0
  9
$INSUNITS
 70
     0
  9
$HYPERLINKBASE
  1

  9
$STYLESHEET
  1

  9
$XEDIT
290
     1
  9
$CEPSNTYPE
380
     0
  9
$PSTYLEMODE
290
     1
  9
$FINGERPRINTGUID
  2
{0EF2C623-1924-4E82-93EF-7D6A386B3428}
  9
$VERSIONGUID
  2
{85B2B55B-51D0-4D01-8CE4-02E5E3822F69}
  9
$EXTNAMES
290
     1
  9
$PSVPSCALE
 40
0.0
  9
$OLESTARTUP
290
     0
  0
ENDSEC
  0
SECTION
  2
CLASSES
  0
CLASS
  1
ACDBDICTIONARYWDFLT
  2
AcDbDictionaryWithDefault
  3
ObjectDBX Classes
 90
        0
280
     0
281
     0
  0
CLASS
  1
ACDBPLACEHOLDER
  2
AcDbPlaceHolder
  3
ObjectDBX Classes
 90
        0
280
     0
281
     0
  0
CLASS
  1
LAYOUT
  2
AcDbLayout
  3
ObjectDBX Classes
 90
        0
280
     0
281
     0
  0
CLASS
  1
DICTIONARYVAR
  2
AcDbDictionaryVar
  3
ObjectDBX Classes
 90
        0
280
     0
281
     0
  0
CLASS
  1
MATERIAL
  2
AcDbMaterial
  3
ObjectDBX Classes
 90
     1153
280
     0
281
     0
  0
CLASS
  1
VISUALSTYLE
  2
AcDbVisualStyle
  3
ObjectDBX Classes
 90
     4095
280
     0
281
     0
  0
CLASS
  1
TABLESTYLE
  2
AcDbTableStyle
  3
ObjectDBX Classes
 90
     4095
280
     0
281
     0
  0
CLASS
  1
SCALE
  2
AcDbScale
  3
ObjectDBX Classes
 90
     1153
280
     0
281
     0
  0
CLASS
  1
MLEADERSTYLE
  2
AcDbMLeaderStyle
  3
ACDB_MLEADERSTYLE_CLASS
 90
     4095
280
     0
281
     0
  0
CLASS
  1
ACDBSECTIONVIEWSTYLE
  2
AcDbSectionViewStyle
  3
ObjectDBX Classes
 90
     1025
280
     0
281
     0
  0
CLASS
  1
ACDBDETAILVIEWSTYLE
  2
AcDbDetailViewStyle
  3
ObjectDBX Classes
 90
     1025
280
     0
281
     0
  0
CLASS
  1
CELLSTYLEMAP
  2
AcDbCellStyleMap
  3
ObjectDBX Classes
 90
     1152
280
     0
281
     0
  0
ENDSEC
  0
SECTION
  2
TABLES
  0
TABLE
  2
VPORT
  5
AFE5
330
0
100
AcDbSymbolTable
 70
     1
  0
VPORT
  5
B2F6
330
AFE5
100
AcDbSymbolTableRecord
100
AcDbViewportTableRecord
  2
*ACTIVE
 70
     0
 10
0.0
 20
0.0
 11
1.0
 21
1.0
 12
498.6091957667569
 22
223.6578839042431
 13
0.0
 23
0.0
 14
10.0
 24
10.0
 15
10.0
 25
10.0
 16
0.0
 26
0.0
 36
1.0
 17
0.0
 27
0.0
 37
0.0
 40
432.1336785850074
 41
1.899603698811096
 42
50.0
 43
0.0
 44
0.0
 50
0.0
 51
0.0
 71
     0
 72
   100
 73
     1
 74
     0
 75
     0
 76
     0
 77
     0
 78
     0
281
     0
 65
     1
110
0.0
120
0.0
130
0.0
111
1.0
121
0.0
131
0.0
112
0.0
122
1.0
132
0.0
 79
     0
146
0.0
1001
ACAD_NAV_VCDISPLAY
1070
     3
  0
ENDTAB
  0
TABLE
  2
LTYPE
  5
AFE2
330
0
100
AcDbSymbolTable
 70
     4
  0
LTYPE
  5
AFF0
330
AFE2
100
AcDbSymbolTableRecord
100
AcDbLinetypeTableRecord
  2
BYBLOCK
 70
     0
  3

 72
    65
 73
     0
 40
0.0
  0
LTYPE
  5
AFF1
330
AFE2
100
AcDbSymbolTableRecord
100
AcDbLinetypeTableRecord
  2
BYLAYER
 70
     0
  3

 72
    65
 73
     0
 40
0.0
  0
LTYPE
  5
AFF2
330
AFE2
100
AcDbSymbolTableRecord
100
AcDbLinetypeTableRecord
  2
CONTINUOUS
 70
     0
  3
Solid line
 72
    65
 73
     0
 40
0.0
  0
LTYPE
  5
B000
330
AFE2
100
AcDbSymbolTableRecord
100
AcDbLinetypeTableRecord
  2
DASHED
 70
     0
  3
__ __ __ __ __ __ __ __ __ __ __ __ __ __ __ __
 72
    65
 73
     2
 40
0.75
 49
0.5
 74
     0
 49
-0.25
 74
     0
  0
LTYPE
  5
B001
330
AFE2
100
AcDbSymbolTableRecord
100
AcDbLinetypeTableRecord
  2
CENTER
 70
     0
  3
____ _ ____ _ ____ _ ____ _ ____ _ ____ _ ____ 
 72
    65
 73
     4
 40
2.0
 49
1.25
 74
     0
 49
-0.25
 74
     0
 49
0.25
 74
     0
 49
-0.25
 74
     0
  0
LTYPE
  5
B002
330
AFE2
100
AcDbSymbolTableRecord
100
AcDbLinetypeTableRecord
  2
PHANTOM
 70
     0
  3
______  __  __  ______  __  __  ______  __  __ 
 72
    65
 73
     6
 40
2.5
 49
1.25
 74
     0
 49
-0.25
 74
     0
 49
0.25
 74
     0
 49
-0.25
 74
     0
 49
0.25
 74
     0
 49
-0.25
 74
     0
  0
ENDTAB
  0
TABLE
  2
LAYER
  5
AFDF
330
0
100
AcDbSymbolTable
 70
     8
  0
LAYER
  5
AFED
102
{ACAD_XDICTIONARY
360
B351
102
}
330
AFDF
100
AcDbSymbolTableRecord
100
AcDbLayerTableRecord
  2
0
 70
     0
 62
     7
  6
CONTINUOUS
370
    -3
390
B2FF
  0
LAYER
  5
B003
102
{ACAD_XDICTIONARY
360
B353
102
}
330
AFDF
100
AcDbSymbolTableRecord
100
AcDbLayerTableRecord
  2
4
 70
     0
 62
     1
  6
CENTER
370
    -3
390
B2FF
  0
LAYER
  5
B004
102
{ACAD_XDICTIONARY
360
B355
102
}
330
AFDF
100
AcDbSymbolTableRecord
100
AcDbLayerTableRecord
  2
5
 70
     0
 62
     6
  6
PHANTOM
370
    -3
390
B2FF
  0
LAYER
  5
B005
102
{ACAD_XDICTIONARY
360
B357
102
}
330
AFDF
100
AcDbSymbolTableRecord
100
AcDbLayerTableRecord
  2
1
 70
     0
 62
     7
  6
CONTINUOUS
370
    -3
390
B2FF
  0
LAYER
  5
B006
102
{ACAD_XDICTIONARY
360
B359
102
}
330
AFDF
100
AcDbSymbolTableRecord
100
AcDbLayerTableRecord
  2
2
 70
     0
 62
     4
  6
CONTINUOUS
370
    -3
390
B2FF
  0
LAYER
  5
B007
102
{ACAD_XDICTIONARY
360
B35B
102
}
330
AFDF
100
AcDbSymbolTableRecord
100
AcDbLayerTableRecord
  2
3
 70
     0
 62
     2
  6
DASHED
370
    -3
390
B2FF
  0
LAYER
  5
B008
102
{ACAD_XDICTIONARY
360
B35D
102
}
330
AFDF
100
AcDbSymbolTableRecord
100
AcDbLayerTableRecord
  2
6
 70
     0
 62
     5
  6
CONTINUOUS
370
    -3
390
B2FF
  0
LAYER
  5
B009
102
{ACAD_XDICTIONARY
360
B35F
102
}
330
AFDF
100
AcDbSymbolTableRecord
100
AcDbLayerTableRecord
  2
7
 70
     0
 62
     3
  6
CONTINUOUS
370
    -3
390
B2FF
  0
ENDTAB
  0
TABLE
  2
STYLE
  5
AFE0
330
0
100
AcDbSymbolTable
 70
     1
  0
STYLE
  5
AFEE
330
AFE0
100
AcDbSymbolTableRecord
100
AcDbTextStyleTableRecord
  2
STANDARD
 70
     0
 40
0.0
 41
1.0
 50
0.0
 71
     0
 42
5.0
  3
txt
  4

  0
ENDTAB
  0
TABLE
  2
VIEW
  5
AFE3
330
0
100
AcDbSymbolTable
 70
     0
  0
ENDTAB
  0
TABLE
  2
UCS
  5
AFE4
330
0
100
AcDbSymbolTable
 70
     0
  0
ENDTAB
  0
TABLE
  2
APPID
  5
AFE6
330
0
100
AcDbSymbolTable
 70
     3
  0
APPID
  5
AFEF
330
AFE6
100
AcDbSymbolTableRecord
100
AcDbRegAppTableRecord
  2
ACAD
 70
     0
  0
APPID
  5
B36B
330
AFE6
100
AcDbSymbolTableRecord
100
AcDbRegAppTableRecord
  2
ACAD_NAV_VCDISPLAY
 70
     0
  0
APPID
  5
B3A4
330
AFE6
100
AcDbSymbolTableRecord
100
AcDbRegAppTableRecord
  2
ACAD_MLEADERVER
 70
     0
  0
ENDTAB
  0
TABLE
  2
DIMSTYLE
  5
AFE7
330
0
100
AcDbSymbolTable
 70
     1
100
AcDbDimStyleTable
 71
     0
  0
DIMSTYLE
105
B00B
330
AFE7
100
AcDbSymbolTableRecord
100
AcDbDimStyleTableRecord
  2
STANDARD
 70
     0
 41
2.5
 42
1.0
 43
10.0
 44
1.0
 73
     0
 74
     0
 77
     3
 78
     8
140
3.2
141
0.0
147
1.0
172
     1
173
     1
284
     8
285
     8
286
     8
340
AFEE
  0
ENDTAB
  0
TABLE
  2
BLOCK_RECORD
  5
AFDE
330
0
100
AcDbSymbolTable
 70
     1
  0
BLOCK_RECORD
  5
AFFB
102
{ACAD_XDICTIONARY
360
B2F9
102
}
330
AFDE
100
AcDbSymbolTableRecord
100
AcDbBlockTableRecord
  2
*MODEL_SPACE
340
B34D
  0
BLOCK_RECORD
  5
AFF7
102
{ACAD_XDICTIONARY
360
B2F7
102
}
330
AFDE
100
AcDbSymbolTableRecord
100
AcDbBlockTableRecord
  2
*PAPER_SPACE
340
B34E
  0
BLOCK_RECORD
  5
B013
330
AFDE
100
AcDbSymbolTableRecord
100
AcDbBlockTableRecord
  2
_OPEN
340
0
  0
ENDTAB
  0
ENDSEC
  0
SECTION
  2
BLOCKS
  0
BLOCK
  5
AFFC
330
AFFB
100
AcDbEntity
  8
0
100
AcDbBlockBegin
  2
*MODEL_SPACE
 70
     0
 10
0.0
 20
0.0
 30
0.0
  3
*MODEL_SPACE
  1

  0
ENDBLK
  5
AFFD
330
AFFB
100
AcDbEntity
  8
0
100
AcDbBlockEnd
  0
BLOCK
  5
AFF8
330
AFF7
100
AcDbEntity
 67
     1
  8
0
100
AcDbBlockBegin
  2
*PAPER_SPACE
 70
     0
 10
0.0
 20
0.0
 30
0.0
  3
*PAPER_SPACE
  1

  0
ENDBLK
  5
AFF9
330
AFF7
100
AcDbEntity
 67
     1
  8
0
100
AcDbBlockEnd
  0
BLOCK
  5
B014
330
B013
100
AcDbEntity
  8
0
100
AcDbBlockBegin
  2
_OPEN
 70
     0
 10
0.0
 20
0.0
 30
0.0
  3
_OPEN
  1

  0
LINE
  5
B015
330
B013
100
AcDbEntity
  8
0
  6
ByBlock
 62
     0
100
AcDbLine
 10
-1.0
 20
0.166667
 30
0.0
 11
0.0
 21
0.0
 31
0.0
  0
LINE
  5
B016
330
B013
100
AcDbEntity
  8
0
  6
ByBlock
 62
     0
100
AcDbLine
 10
0.0
 20
0.0
 30
0.0
 11
-1.0
 21
-0.166667
 31
0.0
  0
LINE
  5
B017
330
B013
100
AcDbEntity
  8
0
  6
ByBlock
 62
     0
100
AcDbLine
 10
0.0
 20
0.0
 30
0.0
 11
-1.0
 21
0.0
 31
0.0
  0
ENDBLK
  5
B018
330
B013
100
AcDbEntity
  8
0
100
AcDbBlockEnd
  0
ENDSEC
  0
SECTION
  2
ENTITIES
  0
LINE
  5
B019
330
AFFB
100
AcDbEntity
  8
4
  6
CENTER
100
AcDbLine
 10
257.590017
 20
60.10842099999999
 30
0.0
 11
242.4900169999999
 21
60.10842099999999
 31
0.0
  0
LINE
  5
B01A
330
AFFB
100
AcDbEntity
  8
4
  6
CENTER
100
AcDbLine
 10
257.4234169999999
 20
283.332647
 30
0.0
 11
242.4900169999999
 21
283.332647
 31
0.0
  0
ARC
  5
B01B
330
AFFB
100
AcDbEntity
  8
5
  6
PHANTOM
100
AcDbCircle
 10
52.48221700000001
 20
176.332647
 30
0.0
 40
1.0
100
AcDbArc
 50
270.0
 51
0.0
  0
ARC
  5
B01C
330
AFFB
100
AcDbEntity
  8
5
  6
PHANTOM
100
AcDbCircle
 10
32.482217
 20
176.332647
 30
0.0
 40
1.0
100
AcDbArc
 50
180.0
 51
270.0
  0
LINE
  5
B01D
330
AFFB
100
AcDbEntity
  8
4
  6
CENTER
100
AcDbLine
 10
42.482217
 20
306.332647
 30
0.0
 11
42.482217
 21
172.332647
 31
0.0
  0
TEXT
  5
B01E
330
AFFB
100
AcDbEntity
  8
7
  6
Continuous
100
AcDbText
 10
10.0
 20
26.0
 30
0.0
 40
3.0
  1
CODE No.3572
100
AcDbText
  0
TEXT
  5
B01F
330
AFFB
100
AcDbEntity
  8
7
  6
Continuous
100
AcDbText
 10
10.0
 20
18.0
 30
0.0
 40
3.0
  1
TYPE No.THA-302J-3
100
AcDbText
  0
TEXT
  5
B020
330
AFFB
100
AcDbEntity
  8
1
  6
Continuous
100
AcDbText
 10
10.0
 20
10.0
 30
0.0
 40
1.399999999999999
  1
LAYER
100
AcDbText
  0
TEXT
  5
B021
330
AFFB
100
AcDbEntity
  8
5
  6
PHANTOM
100
AcDbText
 10
25.97951099999999
 20
10.04873699999998
 30
0.0
 40
1.399999999999999
  1
5
100
AcDbText
  0
TEXT
  5
B022
330
AFFB
100
AcDbEntity
  8
6
  6
Continuous
100
AcDbText
 10
27.979511
 20
10.04873699999998
 30
0.0
 40
1.399999999999999
  1
6
100
AcDbText
  0
TEXT
  5
B023
330
AFFB
100
AcDbEntity
  8
2
  6
Continuous
100
AcDbText
 10
19.97951099999999
 20
10.04873699999998
 30
0.0
 40
1.399999999999999
  1
2
100
AcDbText
  0
TEXT
  5
B024
330
AFFB
100
AcDbEntity
  8
3
  6
DASHED
100
AcDbText
 10
21.979511
 20
10.04873699999998
 30
0.0
 40
1.399999999999999
  1
3
100
AcDbText
  0
TEXT
  5
B025
330
AFFB
100
AcDbEntity
  8
4
  6
CENTER
100
AcDbText
 10
23.97951099999999
 20
10.04873699999998
 30
0.0
 40
1.399999999999999
  1
4
100
AcDbText
  0
TEXT
  5
B026
330
AFFB
100
AcDbEntity
  8
7
  6
Continuous
100
AcDbText
 10
29.97951099999999
 20
10.04873699999998
 30
0.0
 40
1.399999999999999
  1
7
100
AcDbText
  0
TEXT
  5
B027
330
AFFB
100
AcDbEntity
  8
1
  6
Continuous
100
AcDbText
 10
17.97951099999998
 20
10.04873699999998
 30
0.0
 40
1.399999999999999
  1
1
100
AcDbText
  0
LINE
  5
B028
330
AFFB
100
AcDbEntity
  8
5
  6
PHANTOM
100
AcDbLine
 10
32.482217
 20
175.332647
 30
0.0
 11
52.48221700000001
 21
175.332647
 31
0.0
  0
LINE
  5
B029
330
AFFB
100
AcDbEntity
  8
1
  6
Continuous
100
AcDbLine
 10
188.5472169999999
 20
77.10842099999998
 30
0.0
 11
192.047217
 21
77.10842099999998
 31
0.0
  0
LINE
  5
B02A
330
AFFB
100
AcDbEntity
  8
1
  6
Continuous
100
AcDbLine
 10
188.5472169999999
 20
43.108421
 30
0.0
 11
192.047217
 21
43.108421
 31
0.0
  0
LINE
  5
B02B
330
AFFB
100
AcDbEntity
  8
4
  6
CENTER
100
AcDbLine
 10
182.6475169999999
 20
60.10842099999999
 30
0.0
 11
229.047517
 21
60.10842099999999
 31
0.0
  0
LINE
  5
B02C
330
AFFB
100
AcDbEntity
  8
1
  6
Continuous
100
AcDbLine
 10
188.5472169999999
 20
48.858421
 30
0.0
 11
188.5472169999999
 21
43.108421
 31
0.0
  0
LINE
  5
B02D
330
AFFB
100
AcDbEntity
  8
1
  6
Continuous
100
AcDbLine
 10
186.0472169999999
 20
51.108421
 30
0.0
 11
188.5472169999999
 21
43.108421
 31
0.0
  0
LINE
  5
B02E
330
AFFB
100
AcDbEntity
  8
1
  6
Continuous
100
AcDbLine
 10
191.047217
 20
77.10842099999998
 30
0.0
 11
191.047217
 21
43.108421
 31
0.0
  0
LINE
  5
B02F
330
AFFB
100
AcDbEntity
  8
1
  6
Continuous
100
AcDbLine
 10
189.1472169999999
 20
71.35842099999996
 30
0.0
 11
189.1472169999999
 21
48.858421
 31
0.0
  0
LINE
  5
B030
330
AFFB
100
AcDbEntity
  8
1
  6
Continuous
100
AcDbLine
 10
188.2472169999998
 20
71.10842099999998
 30
0.0
 11
188.2472169999998
 21
49.10842099999999
 31
0.0
  0
LINE
  5
B031
330
AFFB
100
AcDbEntity
  8
1
  6
Continuous
100
AcDbLine
 10
186.7042679999999
 20
71.210984
 30
0.0
 11
186.7042679999999
 21
49.005858
 31
0.0
  0
ARC
  5
B032
330
AFFB
100
AcDbEntity
  8
1
  6
Continuous
100
AcDbCircle
 10
285.6475169999999
 20
60.10842099999999
 30
0.0
 40
100.0
100
AcDbArc
 50
175.452076
 51
184.5479239999999
  0
LINE
  5
B033
330
AFFB
100
AcDbEntity
  8
1
  6
Continuous
100
AcDbLine
 10
186.0472169999999
 20
69.10842099999999
 30
0.0
 11
186.0472169999999
 21
51.108421
 31
0.0
  0
LINE
  5
B034
330
AFFB
100
AcDbEntity
  8
1
  6
Continuous
100
AcDbLine
 10
186.750342
 20
48.858421
 30
0.0
 11
189.1472169999999
 21
48.858421
 31
0.0
  0
LINE
  5
B035
330
AFFB
100
AcDbEntity
  8
1
  6
Continuous
100
AcDbLine
 10
186.7042679999999
 20
49.10842099999999
 30
0.0
 11
189.1472169999999
 21
49.10842099999999
 31
0.0
  0
ARC
  5
B036
330
AFFB
100
AcDbEntity
  8
1
  6
Continuous
100
AcDbCircle
 10
186.9592319999999
 20
52.25842100000001
 30
0.0
 40
1.0
100
AcDbArc
 50
184.5479239999999
 51
204.2146199999999
  0
LINE
  5
B037
330
AFFB
100
AcDbEntity
  8
1
  6
Continuous
100
AcDbLine
 10
186.750342
 20
71.35842099999996
 30
0.0
 11
189.1472169999999
 21
71.35842099999996
 31
0.0
  0
LINE
  5
B038
330
AFFB
100
AcDbEntity
  8
1
  6
Continuous
100
AcDbLine
 10
186.7042679999999
 20
71.10842099999998
 30
0.0
 11
189.1472169999999
 21
71.10842099999998
 31
0.0
  0
ARC
  5
B039
330
AFFB
100
AcDbEntity
  8
1
  6
Continuous
100
AcDbCircle
 10
186.9592319999999
 20
67.958421
 30
0.0
 40
1.0
100
AcDbArc
 50
155.78538
 51
175.452076
  0
LINE
  5
B03A
330
AFFB
100
AcDbEntity
  8
1
  6
Continuous
100
AcDbLine
 10
188.5472169999999
 20
77.10842099999998
 30
0.0
 11
186.0472169999999
 21
69.10842099999999
 31
0.0
  0
LINE
  5
B03B
330
AFFB
100
AcDbEntity
  8
1
  6
Continuous
100
AcDbLine
 10
188.5472169999999
 20
77.10842099999998
 30
0.0
 11
188.5472169999999
 21
71.35842099999996
 31
0.0
  0
LINE
  5
B03C
330
AFFB
100
AcDbEntity
  8
1
  6
Continuous
100
AcDbLine
 10
192.047217
 20
77.10842099999998
 30
0.0
 11
192.047217
 21
43.108421
 31
0.0
  0
LINE
  5
B03D
330
AFFB
100
AcDbEntity
  8
2
  6
Continuous
100
AcDbLine
 10
226.0475169999998
 20
67.17942099999999
 30
0.0
 11
222.0475169999999
 21
62.465421
 31
0.0
  0
LINE
  5
B03E
330
AFFB
100
AcDbEntity
  8
1
  6
Continuous
100
AcDbLine
 10
222.0475169999999
 20
67.17942099999999
 30
0.0
 11
226.0475169999998
 21
67.17942099999999
 31
0.0
  0
LINE
  5
B03F
330
AFFB
100
AcDbEntity
  8
2
  6
Continuous
100
AcDbLine
 10
222.0475169999999
 20
57.751421
 30
0.0
 11
226.0475169999998
 21
53.037421
 31
0.0
  0
LINE
  5
B040
330
AFFB
100
AcDbEntity
  8
2
  6
Continuous
100
AcDbLine
 10
226.0475169999998
 20
60.10842099999999
 30
0.0
 11
222.0475169999999
 21
55.39442099999998
 31
0.0
  0
LINE
  5
B041
330
AFFB
100
AcDbEntity
  8
1
  6
Continuous
100
AcDbLine
 10
222.0475169999999
 20
53.037421
 30
0.0
 11
226.0475169999998
 21
53.037421
 31
0.0
  0
LINE
  5
B042
330
AFFB
100
AcDbEntity
  8
1
  6
Continuous
100
AcDbLine
 10
222.0475169999999
 20
60.10842099999999
 30
0.0
 11
226.0475169999998
 21
60.10842099999999
 31
0.0
  0
LINE
  5
B043
330
AFFB
100
AcDbEntity
  8
2
  6
Continuous
100
AcDbLine
 10
222.0475169999999
 20
64.82242099999999
 30
0.0
 11
226.0475169999998
 21
60.10842099999999
 31
0.0
  0
LINE
  5
B044
330
AFFB
100
AcDbEntity
  8
1
  6
Continuous
100
AcDbLine
 10
218.547517
 20
72.10842099999998
 30
0.0
 11
218.547517
 21
48.108421
 31
0.0
  0
LINE
  5
B045
330
AFFB
100
AcDbEntity
  8
1
  6
Continuous
100
AcDbLine
 10
219.847517
 20
49.058421
 30
0.0
 11
219.847517
 21
71.15842099999998
 31
0.0
  0
LINE
  5
B046
330
AFFB
100
AcDbEntity
  8
1
  6
Continuous
100
AcDbLine
 10
220.047517
 20
47.10842099999999
 30
0.0
 11
220.047517
 21
71.366721
 31
0.0
  0
LINE
  5
B047
330
AFFB
100
AcDbEntity
  8
1
  6
Continuous
100
AcDbLine
 10
222.0475169999999
 20
47.10842099999999
 30
0.0
 11
222.0475169999999
 21
71.366721
 31
0.0
  0
LINE
  5
B048
330
AFFB
100
AcDbEntity
  8
1
  6
Continuous
100
AcDbLine
 10
192.047217
 20
47.10842099999999
 30
0.0
 11
217.5475169999999
 21
47.10842099999999
 31
0.0
  0
LINE
  5
B049
330
AFFB
100
AcDbEntity
  8
1
  6
Continuous
100
AcDbLine
 10
194.0472169999999
 20
47.10842099999999
 30
0.0
 11
194.0472169999999
 21
46.06259099999999
 31
0.0
  0
ARC
  5
B04A
330
AFFB
100
AcDbEntity
  8
1
  6
Continuous
100
AcDbCircle
 10
204.047217
 20
47.333821
 30
0.0
 40
1.0
100
AcDbArc
 50
271.432
 51
346.9735989999999
  0
LINE
  5
B04B
330
AFFB
100
AcDbEntity
  8
1
  6
Continuous
100
AcDbLine
 10
192.047217
 20
46.008421
 30
0.0
 11
204.072217
 21
46.334121
 31
0.0
  0
ARC
  5
B04C
330
AFFB
100
AcDbEntity
  8
1
  6
Continuous
100
AcDbCircle
 10
217.5475169999999
 20
48.108421
 30
0.0
 40
1.0
100
AcDbArc
 50
270.0
 51
0.0
  0
LINE
  5
B04D
330
AFFB
100
AcDbEntity
  8
1
  6
Continuous
100
AcDbLine
 10
220.047517
 20
47.10842099999999
 30
0.0
 11
222.0475169999999
 21
47.10842099999999
 31
0.0
  0
ARC
  5
B04E
330
AFFB
100
AcDbEntity
  8
1
  6
Continuous
100
AcDbCircle
 10
218.8475169999999
 20
49.058421
 30
0.0
 40
1.0
100
AcDbArc
 50
270.0
 51
0.0
  0
LINE
  5
B04F
330
AFFB
100
AcDbEntity
  8
1
  6
Continuous
100
AcDbLine
 10
219.847517
 20
52.90842099999998
 30
0.0
 11
220.047517
 21
52.90842099999998
 31
0.0
  0
LINE
  5
B050
330
AFFB
100
AcDbEntity
  8
1
  6
Continuous
100
AcDbLine
 10
218.547517
 20
48.058421
 30
0.0
 11
218.8475169999999
 21
48.058421
 31
0.0
  0
LINE
  5
B051
330
AFFB
100
AcDbEntity
  8
1
  6
Continuous
100
AcDbLine
 10
192.047217
 20
73.10842099999998
 30
0.0
 11
217.5475169999999
 21
73.10842099999998
 31
0.0
  0
LINE
  5
B052
330
AFFB
100
AcDbEntity
  8
1
  6
Continuous
100
AcDbLine
 10
194.0472169999999
 20
74.154201
 30
0.0
 11
194.0472169999999
 21
73.10842099999998
 31
0.0
  0
ARC
  5
B053
330
AFFB
100
AcDbEntity
  8
1
  6
Continuous
100
AcDbCircle
 10
204.047217
 20
72.883421
 30
0.0
 40
1.0
100
AcDbArc
 50
13.00287799999999
 51
88.56789999999998
  0
LINE
  5
B054
330
AFFB
100
AcDbEntity
  8
1
  6
Continuous
100
AcDbLine
 10
192.047217
 20
74.208421
 30
0.0
 11
204.072217
 21
73.88242099999998
 31
0.0
  0
ARC
  5
B055
330
AFFB
100
AcDbEntity
  8
1
  6
Continuous
100
AcDbCircle
 10
217.5475169999999
 20
72.10842099999998
 30
0.0
 40
1.0
100
AcDbArc
 50
0.0
 51
90.0
  0
LINE
  5
B056
330
AFFB
100
AcDbEntity
  8
1
  6
Continuous
100
AcDbLine
 10
219.847517
 20
67.308421
 30
0.0
 11
220.047517
 21
67.308421
 31
0.0
  0
ARC
  5
B057
330
AFFB
100
AcDbEntity
  8
1
  6
Continuous
100
AcDbCircle
 10
218.8475169999999
 20
71.15842099999998
 30
0.0
 40
1.0
100
AcDbArc
 50
0.0
 51
90.0
  0
LINE
  5
B058
330
AFFB
100
AcDbEntity
  8
1
  6
Continuous
100
AcDbLine
 10
218.547517
 20
72.15842099999997
 30
0.0
 11
218.8475169999999
 21
72.15842099999997
 31
0.0
  0
LINE
  5
B059
330
AFFB
100
AcDbEntity
  8
1
  6
Continuous
100
AcDbLine
 10
220.047517
 20
71.366721
 30
0.0
 11
222.0475169999999
 21
71.366721
 31
0.0
  0
LINE
  5
B05A
330
AFFB
100
AcDbEntity
  8
1
  6
Continuous
100
AcDbLine
 10
247.490017
 20
71.10842099999998
 30
0.0
 11
247.490017
 21
49.10842099999999
 31
0.0
  0
LINE
  5
B05B
330
AFFB
100
AcDbEntity
  8
1
  6
Continuous
100
AcDbLine
 10
245.490017
 20
71.10842099999998
 30
0.0
 11
245.490017
 21
49.10842099999999
 31
0.0
  0
LINE
  5
B05C
330
AFFB
100
AcDbEntity
  8
1
  6
Continuous
100
AcDbLine
 10
249.0900169999999
 20
52.108421
 30
0.0
 11
249.0900169999999
 21
68.10842099999999
 31
0.0
  0
LINE
  5
B05D
330
AFFB
100
AcDbEntity
  8
1
  6
Continuous
100
AcDbLine
 10
250.5900169999999
 20
54.008421
 30
0.0
 11
250.5900169999999
 21
66.208421
 31
0.0
  0
LINE
  5
B05E
330
AFFB
100
AcDbEntity
  8
1
  6
Continuous
100
AcDbLine
 10
226.0475169999998
 20
67.17942099999999
 30
0.0
 11
226.0475169999998
 21
53.037421
 31
0.0
  0
LINE
  5
B05F
330
AFFB
100
AcDbEntity
  8
1
  6
Continuous
100
AcDbLine
 10
254.5900169999999
 20
65.10842099999999
 30
0.0
 11
250.5900169999999
 21
65.10842099999999
 31
0.0
  0
LINE
  5
B060
330
AFFB
100
AcDbEntity
  8
1
  6
Continuous
100
AcDbLine
 10
247.490017
 20
49.10842099999999
 30
0.0
 11
245.490017
 21
49.10842099999999
 31
0.0
  0
ARC
  5
B061
330
AFFB
100
AcDbEntity
  8
1
  6
Continuous
100
AcDbCircle
 10
247.3647249999999
 20
57.60842099999999
 30
0.0
 40
7.225291999999997
100
AcDbArc
 50
339.756734
 51
20.24326599999999
  0
ARC
  5
B062
330
AFFB
100
AcDbEntity
  8
1
  6
Continuous
100
AcDbCircle
 10
257.815309
 20
57.60842099999999
 30
0.0
 40
7.225291999999997
100
AcDbArc
 50
159.7567339999999
 51
200.243266
  0
LINE
  5
B063
330
AFFB
100
AcDbEntity
  8
1
  6
Continuous
100
AcDbLine
 10
254.5900169999999
 20
55.10842099999999
 30
0.0
 11
250.5900169999999
 21
55.10842099999999
 31
0.0
  0
LINE
  5
B064
330
AFFB
100
AcDbEntity
  8
1
  6
Continuous
100
AcDbLine
 10
249.0900169999999
 20
52.108421
 30
0.0
 11
247.490017
 21
52.108421
 31
0.0
  0
LINE
  5
B065
330
AFFB
100
AcDbEntity
  8
1
  6
Continuous
100
AcDbLine
 10
250.5900169999999
 20
54.008421
 30
0.0
 11
249.0900169999999
 21
54.008421
 31
0.0
  0
LINE
  5
B066
330
AFFB
100
AcDbEntity
  8
1
  6
Continuous
100
AcDbLine
 10
249.0900169999999
 20
60.10842099999999
 30
0.0
 11
250.5900169999999
 21
61.60842099999999
 31
0.0
  0
LINE
  5
B067
330
AFFB
100
AcDbEntity
  8
1
  6
Continuous
100
AcDbLine
 10
249.0900169999999
 20
58.60842099999999
 30
0.0
 11
250.5900169999999
 21
60.10842099999999
 31
0.0
  0
LINE
  5
B068
330
AFFB
100
AcDbEntity
  8
1
  6
Continuous
100
AcDbLine
 10
251.0363089999999
 20
60.10842099999999
 30
0.0
 11
254.1437249999999
 21
60.10842099999999
 31
0.0
  0
LINE
  5
B069
330
AFFB
100
AcDbEntity
  8
1
  6
Continuous
100
AcDbLine
 10
254.5900169999999
 20
65.10842099999999
 30
0.0
 11
254.5900169999999
 21
55.10842099999999
 31
0.0
  0
ARC
  5
B06A
330
AFFB
100
AcDbEntity
  8
1
  6
Continuous
100
AcDbCircle
 10
247.3647249999999
 20
62.60842099999999
 30
0.0
 40
7.225291999999997
100
AcDbArc
 50
339.756734
 51
20.24326599999999
  0
ARC
  5
B06B
330
AFFB
100
AcDbEntity
  8
1
  6
Continuous
100
AcDbCircle
 10
257.815309
 20
62.60842099999999
 30
0.0
 40
7.225291999999997
100
AcDbArc
 50
159.7567339999999
 51
200.243266
  0
LINE
  5
B06C
330
AFFB
100
AcDbEntity
  8
1
  6
Continuous
100
AcDbLine
 10
247.490017
 20
71.10842099999998
 30
0.0
 11
245.490017
 21
71.10842099999998
 31
0.0
  0
LINE
  5
B06D
330
AFFB
100
AcDbEntity
  8
1
  6
Continuous
100
AcDbLine
 10
249.0900169999999
 20
68.10842099999999
 30
0.0
 11
247.490017
 21
68.10842099999999
 31
0.0
  0
LINE
  5
B06E
330
AFFB
100
AcDbEntity
  8
1
  6
Continuous
100
AcDbLine
 10
250.5900169999999
 20
66.208421
 30
0.0
 11
249.0900169999999
 21
66.208421
 31
0.0
  0
LINE
  5
B06F
330
AFFB
100
AcDbEntity
  8
1
  6
Continuous
100
AcDbLine
 10
60.232217
 20
266.332607
 30
0.0
 11
60.232217
 21
238.332647
 31
0.0
  0
LINE
  5
B070
330
AFFB
100
AcDbEntity
  8
1
  6
Continuous
100
AcDbLine
 10
24.73221699999999
 20
266.332607
 30
0.0
 11
24.73221699999999
 21
238.332647
 31
0.0
  0
LINE
  5
B071
330
AFFB
100
AcDbEntity
  8
1
  6
Continuous
100
AcDbLine
 10
51.682217
 20
298.832647
 30
0.0
 11
51.682217
 21
214.832647
 31
0.0
  0
LINE
  5
B072
330
AFFB
100
AcDbEntity
  8
1
  6
Continuous
100
AcDbLine
 10
33.28221699999998
 20
298.832647
 30
0.0
 11
33.28221699999998
 21
214.832647
 31
0.0
  0
LINE
  5
B073
330
AFFB
100
AcDbEntity
  8
1
  6
Continuous
100
AcDbLine
 10
33.48221699999999
 20
286.439247
 30
0.0
 11
33.48221699999999
 21
216.832647
 31
0.0
  0
LINE
  5
B074
330
AFFB
100
AcDbEntity
  8
1
  6
Continuous
100
AcDbLine
 10
51.482217
 20
286.439247
 30
0.0
 11
51.482217
 21
216.832647
 31
0.0
  0
LINE
  5
B075
330
AFFB
100
AcDbEntity
  8
1
  6
Continuous
100
AcDbLine
 10
25.482217
 20
299.3326469999999
 30
0.0
 11
25.482217
 21
183.332647
 31
0.0
  0
LINE
  5
B076
330
AFFB
100
AcDbEntity
  8
1
  6
Continuous
100
AcDbLine
 10
59.48221700000001
 20
299.3326469999999
 30
0.0
 11
59.48221700000001
 21
183.332647
 31
0.0
  0
ARC
  5
B077
330
AFFB
100
AcDbEntity
  8
1
  6
Continuous
100
AcDbCircle
 10
32.482217
 20
180.332647
 30
0.0
 40
1.0
100
AcDbArc
 50
180.0
 51
270.0
  0
ARC
  5
B078
330
AFFB
100
AcDbEntity
  8
1
  6
Continuous
100
AcDbCircle
 10
32.23221699999999
 20
213.332647
 30
0.0
 40
1.0
100
AcDbArc
 50
90.0
 51
180.0
  0
ARC
  5
B079
330
AFFB
100
AcDbEntity
  8
1
  6
Continuous
100
AcDbCircle
 10
32.482217
 20
213.332647
 30
0.0
 40
1.0
100
AcDbArc
 50
90.0
 51
180.0
  0
ARC
  5
B07A
330
AFFB
100
AcDbEntity
  8
1
  6
Continuous
100
AcDbCircle
 10
42.482217
 20
225.912747
 30
0.0
 40
30.0
100
AcDbArc
 50
248.49
 51
291.5099999999998
  0
ARC
  5
B07B
330
AFFB
100
AcDbEntity
  8
1
  6
Continuous
100
AcDbCircle
 10
42.482217
 20
226.5826469999999
 30
0.0
 40
30.0
100
AcDbArc
 50
248.49
 51
291.5099999999998
  0
LINE
  5
B07C
330
AFFB
100
AcDbEntity
  8
1
  6
Continuous
100
AcDbLine
 10
29.48221699999999
 20
179.332647
 30
0.0
 11
55.482217
 21
179.332647
 31
0.0
  0
LINE
  5
B07D
330
AFFB
100
AcDbEntity
  8
1
  6
Continuous
100
AcDbLine
 10
31.482217
 20
213.332647
 30
0.0
 11
31.482217
 21
180.332647
 31
0.0
  0
LINE
  5
B07E
330
AFFB
100
AcDbEntity
  8
1
  6
Continuous
100
AcDbLine
 10
31.232217
 20
213.332647
 30
0.0
 11
31.232217
 21
179.332647
 31
0.0
  0
ARC
  5
B07F
330
AFFB
100
AcDbEntity
  8
1
  6
Continuous
100
AcDbCircle
 10
29.48221699999999
 20
183.332647
 30
0.0
 40
4.0
100
AcDbArc
 50
180.0
 51
270.0
  0
LINE
  5
B080
330
AFFB
100
AcDbEntity
  8
5
  6
PHANTOM
100
AcDbLine
 10
31.482217
 20
180.332647
 30
0.0
 11
31.482217
 21
176.332647
 31
0.0
  0
LINE
  5
B081
330
AFFB
100
AcDbEntity
  8
1
  6
Continuous
100
AcDbLine
 10
31.232217
 20
183.832647
 30
0.0
 11
27.535217
 21
180.939747
 31
0.0
  0
LINE
  5
B082
330
AFFB
100
AcDbEntity
  8
1
  6
Continuous
100
AcDbLine
 10
53.48221699999999
 20
213.332647
 30
0.0
 11
53.48221699999999
 21
180.332647
 31
0.0
  0
LINE
  5
B083
330
AFFB
100
AcDbEntity
  8
1
  6
Continuous
100
AcDbLine
 10
53.73221700000001
 20
213.332647
 30
0.0
 11
53.73221700000001
 21
179.332647
 31
0.0
  0
LINE
  5
B084
330
AFFB
100
AcDbEntity
  8
1
  6
Continuous
100
AcDbLine
 10
31.92321699999999
 20
183.832647
 30
0.0
 11
53.205217
 21
183.832647
 31
0.0
  0
LINE
  5
B085
330
AFFB
100
AcDbEntity
  8
1
  6
Continuous
100
AcDbLine
 10
47.482217
 20
191.832647
 30
0.0
 11
42.482217
 21
188.832647
 31
0.0
  0
LINE
  5
B086
330
AFFB
100
AcDbEntity
  8
1
  6
Continuous
100
AcDbLine
 10
42.482217
 20
188.832647
 30
0.0
 11
37.482217
 21
191.832547
 31
0.0
  0
LINE
  5
B087
330
AFFB
100
AcDbEntity
  8
1
  6
Continuous
100
AcDbLine
 10
37.482217
 20
191.832647
 30
0.0
 11
47.482217
 21
191.832647
 31
0.0
  0
ARC
  5
B088
330
AFFB
100
AcDbEntity
  8
1
  6
Continuous
100
AcDbCircle
 10
52.48221700000001
 20
180.332647
 30
0.0
 40
1.0
100
AcDbArc
 50
270.0
 51
0.0
  0
ARC
  5
B089
330
AFFB
100
AcDbEntity
  8
1
  6
Continuous
100
AcDbCircle
 10
55.482217
 20
183.332647
 30
0.0
 40
4.0
100
AcDbArc
 50
270.0
 51
0.0
  0
LINE
  5
B08A
330
AFFB
100
AcDbEntity
  8
5
  6
PHANTOM
100
AcDbLine
 10
53.48221699999999
 20
180.332647
 30
0.0
 11
53.48221699999999
 21
176.332647
 31
0.0
  0
LINE
  5
B08B
330
AFFB
100
AcDbEntity
  8
1
  6
Continuous
100
AcDbLine
 10
53.73221700000001
 20
183.832647
 30
0.0
 11
57.513217
 21
180.873047
 31
0.0
  0
LINE
  5
B08C
330
AFFB
100
AcDbEntity
  8
1
  6
Continuous
100
AcDbLine
 10
32.23221699999999
 20
214.332647
 30
0.0
 11
52.732217
 21
214.332647
 31
0.0
  0
ARC
  5
B08D
330
AFFB
100
AcDbEntity
  8
1
  6
Continuous
100
AcDbCircle
 10
35.98221699999999
 20
216.832647
 30
0.0
 40
2.5
100
AcDbArc
 50
180.0
 51
270.0
  0
ARC
  5
B08E
330
AFFB
100
AcDbEntity
  8
1
  6
Continuous
100
AcDbCircle
 10
32.78221699999999
 20
214.832647
 30
0.0
 40
0.5
100
AcDbArc
 50
270.0
 51
0.0
  0
ARC
  5
B08F
330
AFFB
100
AcDbEntity
  8
1
  6
Continuous
100
AcDbCircle
 10
48.982217
 20
216.832647
 30
0.0
 40
2.5
100
AcDbArc
 50
270.0
 51
0.0
  0
ARC
  5
B090
330
AFFB
100
AcDbEntity
  8
1
  6
Continuous
100
AcDbCircle
 10
52.182217
 20
214.832647
 30
0.0
 40
0.5
100
AcDbArc
 50
180.0
 51
270.0
  0
ARC
  5
B091
330
AFFB
100
AcDbEntity
  8
1
  6
Continuous
100
AcDbCircle
 10
52.732217
 20
213.332647
 30
0.0
 40
1.0
100
AcDbArc
 50
0.0
 51
90.0
  0
ARC
  5
B092
330
AFFB
100
AcDbEntity
  8
1
  6
Continuous
100
AcDbCircle
 10
52.48221700000001
 20
213.332647
 30
0.0
 40
1.0
100
AcDbArc
 50
0.0
 51
90.0
  0
ARC
  5
B093
330
AFFB
100
AcDbEntity
  8
1
  6
Continuous
100
AcDbCircle
 10
26.732217
 20
238.332647
 30
0.0
 40
2.0
100
AcDbArc
 50
180.0
 51
231.317813
  0
ARC
  5
B094
330
AFFB
100
AcDbEntity
  8
1
  6
Continuous
100
AcDbCircle
 10
58.23221700000001
 20
238.332647
 30
0.0
 40
2.0
100
AcDbArc
 50
308.682187
 51
0.0
  0
LINE
  5
B095
330
AFFB
100
AcDbEntity
  8
5
  6
PHANTOM
100
AcDbLine
 10
39.37521699999999
 20
292.332647
 30
0.0
 11
108.9822169999999
 21
292.332647
 31
0.0
  0
LINE
  5
B096
330
AFFB
100
AcDbEntity
  8
5
  6
PHANTOM
100
AcDbLine
 10
39.37521699999999
 20
274.3326469999999
 30
0.0
 11
108.9822169999999
 21
274.3326469999999
 31
0.0
  0
LINE
  5
B097
330
AFFB
100
AcDbEntity
  8
4
  6
CENTER
100
AcDbLine
 10
22.48221699999999
 20
283.332647
 30
0.0
 11
114.4822169999999
 21
283.332647
 31
0.0
  0
ARC
  5
B098
330
AFFB
100
AcDbEntity
  8
1
  6
Continuous
100
AcDbCircle
 10
42.482217
 20
283.332647
 30
0.0
 40
13.925
100
AcDbArc
 50
311.3519999999998
 51
228.648
  0
LINE
  5
B099
330
AFFB
100
AcDbEntity
  8
1
  6
Continuous
100
AcDbLine
 10
29.48221699999999
 20
303.3326469999999
 30
0.0
 11
55.482217
 21
303.3326469999999
 31
0.0
  0
LINE
  5
B09A
330
AFFB
100
AcDbEntity
  8
1
  6
Continuous
100
AcDbLine
 10
28.04921699999999
 20
301.851147
 30
0.0
 11
33.28221699999998
 21
298.832647
 31
0.0
  0
ARC
  5
B09B
330
AFFB
100
AcDbEntity
  8
1
  6
Continuous
100
AcDbCircle
 10
26.732217
 20
266.332607
 30
0.0
 40
2.0
100
AcDbArc
 50
128.682187
 51
180.0
  0
ARC
  5
B09C
330
AFFB
100
AcDbEntity
  8
1
  6
Continuous
100
AcDbCircle
 10
29.48221699999999
 20
299.3326469999999
 30
0.0
 40
4.0
100
AcDbArc
 50
90.0
 51
180.0
  0
LINE
  5
B09D
330
AFFB
100
AcDbEntity
  8
5
  6
PHANTOM
100
AcDbLine
 10
38.875217
 20
274.832647
 30
0.0
 11
38.875217
 21
291.832647
 31
0.0
  0
ARC
  5
B09E
330
AFFB
100
AcDbEntity
  8
1
  6
Continuous
100
AcDbCircle
 10
42.482217
 20
325.4178469999998
 30
0.0
 40
41.0
100
AcDbArc
 50
276.711
 51
281.6469999999998
  0
LINE
  5
B09F
330
AFFB
100
AcDbEntity
  8
5
  6
PHANTOM
100
AcDbLine
 10
32.02921699999999
 20
274.132547
 30
0.0
 11
52.935217
 21
274.132547
 31
0.0
  0
ARC
  5
B0A0
330
AFFB
100
AcDbEntity
  8
5
  6
PHANTOM
100
AcDbCircle
 10
39.37521699999999
 20
274.832647
 30
0.0
 40
0.5
100
AcDbArc
 50
180.0
 51
270.0
  0
ARC
  5
B0A1
330
AFFB
100
AcDbEntity
  8
1
  6
Continuous
100
AcDbCircle
 10
42.482217
 20
325.4178469999998
 30
0.0
 40
41.0
100
AcDbArc
 50
265.223
 51
275.428
  0
ARC
  5
B0A2
330
AFFB
100
AcDbEntity
  8
1
  6
Continuous
100
AcDbCircle
 10
42.482217
 20
325.4178469999998
 30
0.0
 40
41.0
100
AcDbArc
 50
258.2709999999999
 51
264.3079999999998
  0
ARC
  5
B0A3
330
AFFB
100
AcDbEntity
  8
1
  6
Continuous
100
AcDbCircle
 10
58.23221700000001
 20
266.332607
 30
0.0
 40
2.0
100
AcDbArc
 50
0.0
 51
51.317813
  0
LINE
  5
B0A4
330
AFFB
100
AcDbEntity
  8
1
  6
Continuous
100
AcDbLine
 10
33.982217
 20
286.939247
 30
0.0
 11
50.98221699999999
 21
286.939247
 31
0.0
  0
LINE
  5
B0A5
330
AFFB
100
AcDbEntity
  8
1
  6
Continuous
100
AcDbLine
 10
33.28221699999998
 20
298.832647
 30
0.0
 11
51.682217
 21
298.832647
 31
0.0
  0
LINE
  5
B0A6
330
AFFB
100
AcDbEntity
  8
5
  6
PHANTOM
100
AcDbLine
 10
32.02921699999999
 20
292.5326469999999
 30
0.0
 11
52.935217
 21
292.5326469999999
 31
0.0
  0
ARC
  5
B0A7
330
AFFB
100
AcDbEntity
  8
1
  6
Continuous
100
AcDbCircle
 10
33.982217
 20
286.439247
 30
0.0
 40
0.5
100
AcDbArc
 50
90.0
 51
180.0
  0
ARC
  5
B0A8
330
AFFB
100
AcDbEntity
  8
5
  6
PHANTOM
100
AcDbCircle
 10
39.37521699999999
 20
291.832647
 30
0.0
 40
0.5
100
AcDbArc
 50
90.0
 51
180.0
  0
ARC
  5
B0A9
330
AFFB
100
AcDbEntity
  8
1
  6
Continuous
100
AcDbCircle
 10
50.98221699999999
 20
286.439247
 30
0.0
 40
0.5
100
AcDbArc
 50
0.0
 51
90.0
  0
ARC
  5
B0AA
330
AFFB
100
AcDbEntity
  8
1
  6
Continuous
100
AcDbCircle
 10
55.482217
 20
299.3326469999999
 30
0.0
 40
4.0
100
AcDbArc
 50
0.0
 51
90.0
  0
LINE
  5
B0AB
330
AFFB
100
AcDbEntity
  8
1
  6
Continuous
100
AcDbLine
 10
51.682217
 20
298.832647
 30
0.0
 11
56.940217
 21
301.8665470000001
 31
0.0
  0
LINE
  5
B0AC
330
AFFB
100
AcDbEntity
  8
5
  6
PHANTOM
100
AcDbLine
 10
111.4822169999999
 20
276.832647
 30
0.0
 11
111.4822169999999
 21
289.832647
 31
0.0
  0
ARC
  5
B0AD
330
AFFB
100
AcDbEntity
  8
5
  6
PHANTOM
100
AcDbCircle
 10
108.9822169999999
 20
276.832647
 30
0.0
 40
2.5
100
AcDbArc
 50
270.0
 51
0.0
  0
ARC
  5
B0AE
330
AFFB
100
AcDbEntity
  8
5
  6
PHANTOM
100
AcDbCircle
 10
108.9822169999999
 20
289.832647
 30
0.0
 40
2.5
100
AcDbArc
 50
0.0
 51
90.0
  0
LINE
  5
B0AF
330
AFFB
100
AcDbEntity
  8
5
  6
PHANTOM
100
AcDbLine
 10
185.476517
 20
272.9326469999999
 30
0.0
 11
154.471517
 21
241.9279469999999
 31
0.0
  0
LINE
  5
B0B0
330
AFFB
100
AcDbEntity
  8
5
  6
PHANTOM
100
AcDbLine
 10
186.0472169999999
 20
286.7969679999998
 30
0.0
 11
139.7315169999999
 21
240.481947
 31
0.0
  0
LINE
  5
B0B1
330
AFFB
100
AcDbEntity
  8
5
  6
PHANTOM
100
AcDbLine
 10
185.7125169999999
 20
284.341047
 30
0.0
 11
178.7675169999999
 21
216.438447
 31
0.0
  0
LINE
  5
B0B2
330
AFFB
100
AcDbEntity
  8
1
  6
Continuous
100
AcDbLine
 10
186.0472169999999
 20
298.832647
 30
0.0
 11
186.0472169999999
 21
214.6326469999999
 31
0.0
  0
LINE
  5
B0B3
330
AFFB
100
AcDbEntity
  8
1
  6
Continuous
100
AcDbLine
 10
192.047217
 20
303.3326469999999
 30
0.0
 11
192.047217
 21
179.332647
 31
0.0
  0
LINE
  5
B0B4
330
AFFB
100
AcDbEntity
  8
1
  6
Continuous
100
AcDbLine
 10
202.047217
 20
268.232647
 30
0.0
 11
202.047217
 21
229.332647
 31
0.0
  0
LINE
  5
B0B5
330
AFFB
100
AcDbEntity
  8
1
  6
Continuous
100
AcDbLine
 10
191.047217
 20
303.3326469999999
 30
0.0
 11
191.047217
 21
179.332647
 31
0.0
  0
LINE
  5
B0B6
330
AFFB
100
AcDbEntity
  8
1
  6
Continuous
100
AcDbLine
 10
188.5472169999999
 20
303.3326469999999
 30
0.0
 11
188.5472169999999
 21
179.332647
 31
0.0
  0
LINE
  5
B0B7
330
AFFB
100
AcDbEntity
  8
1
  6
Continuous
100
AcDbLine
 10
185.6475169999999
 20
283.5894469999999
 30
0.0
 11
185.6475169999999
 21
215.332647
 31
0.0
  0
LINE
  5
B0B8
330
AFFB
100
AcDbEntity
  8
1
  6
Continuous
100
AcDbLine
 10
188.5472169999999
 20
179.332647
 30
0.0
 11
192.047217
 21
179.332647
 31
0.0
  0
LINE
  5
B0B9
330
AFFB
100
AcDbEntity
  8
1
  6
Continuous
100
AcDbLine
 10
186.0472169999999
 20
198.002166
 30
0.0
 11
186.7042679999999
 21
198.178222
 31
0.0
  0
LINE
  5
B0BA
330
AFFB
100
AcDbEntity
  8
1
  6
Continuous
100
AcDbLine
 10
186.7042679999999
 20
214.6326469999999
 30
0.0
 11
186.7042679999999
 21
182.649954
 31
0.0
  0
LINE
  5
B0BB
330
AFFB
100
AcDbEntity
  8
1
  6
Continuous
100
AcDbLine
 10
186.0472169999999
 20
198.002166
 30
0.0
 11
186.0472169999999
 21
183.832647
 31
0.0
  0
LINE
  5
B0BC
330
AFFB
100
AcDbEntity
  8
1
  6
Continuous
100
AcDbLine
 10
186.0472169999999
 20
183.832647
 30
0.0
 11
188.5472169999999
 21
179.332647
 31
0.0
  0
LINE
  5
B0BD
330
AFFB
100
AcDbEntity
  8
1
  6
Continuous
100
AcDbLine
 10
186.0472169999999
 20
214.6326469999999
 30
0.0
 11
186.7042679999999
 21
214.6326469999999
 31
0.0
  0
ARC
  5
B0BE
330
AFFB
100
AcDbEntity
  8
5
  6
PHANTOM
100
AcDbCircle
 10
179.762517
 20
216.336647
 30
0.0
 40
1.0
100
AcDbArc
 50
174.16
 51
264.16
  0
ARC
  5
B0BF
330
AFFB
100
AcDbEntity
  8
1
  6
Continuous
100
AcDbCircle
 10
186.647517
 20
215.332647
 30
0.0
 40
1.0
100
AcDbArc
 50
180.0
 51
273.253357
  0
LINE
  5
B0C0
330
AFFB
100
AcDbEntity
  8
5
  6
PHANTOM
100
AcDbLine
 10
183.042517
 20
214.995947
 30
0.0
 11
186.0472169999999
 21
214.989196
 31
0.0
  0
LINE
  5
B0C1
330
AFFB
100
AcDbEntity
  8
5
  6
PHANTOM
100
AcDbLine
 10
179.660517
 20
215.341847
 30
0.0
 11
183.042517
 21
214.995947
 31
0.0
  0
ARC
  5
B0C2
330
AFFB
100
AcDbEntity
  8
5
  6
PHANTOM
100
AcDbCircle
 10
157.2995169999998
 20
239.099547
 30
0.0
 40
4.0
100
AcDbArc
 50
135.0
 51
210.0
  0
LINE
  5
B0C3
330
AFFB
100
AcDbEntity
  8
5
  6
PHANTOM
100
AcDbLine
 10
142.136517
 20
236.6635469999999
 30
0.0
 11
146.0255169999998
 21
233.4815470000001
 31
0.0
  0
ARC
  5
B0C4
330
AFFB
100
AcDbEntity
  8
5
  6
PHANTOM
100
AcDbCircle
 10
140.4395169999999
 20
239.7748469999999
 30
0.0
 40
1.0
100
AcDbArc
 50
135.0
 51
225.0
  0
LINE
  5
B0C5
330
AFFB
100
AcDbEntity
  8
5
  6
PHANTOM
100
AcDbLine
 10
139.7315169999999
 20
239.067747
 30
0.0
 11
142.136517
 21
236.6635469999999
 31
0.0
  0
ARC
  5
B0C6
330
AFFB
100
AcDbEntity
  8
5
  6
PHANTOM
100
AcDbCircle
 10
153.4255169999999
 20
233.810647
 30
0.0
 40
2.0
100
AcDbArc
 50
315.0
 51
30.0
  0
ARC
  5
B0C7
330
AFFB
100
AcDbEntity
  8
5
  6
PHANTOM
100
AcDbCircle
 10
151.1275169999999
 20
231.513047
 30
0.0
 40
2.0
100
AcDbArc
 50
227.454
 51
315.0
  0
LINE
  5
B0C8
330
AFFB
100
AcDbEntity
  8
5
  6
PHANTOM
100
AcDbLine
 10
153.8355169999999
 20
237.099547
 30
0.0
 11
155.1575169999999
 21
234.8106469999999
 31
0.0
  0
LINE
  5
B0C9
330
AFFB
100
AcDbEntity
  8
5
  6
PHANTOM
100
AcDbLine
 10
146.0255169999998
 20
233.4815470000001
 30
0.0
 11
149.7755169999998
 21
230.039647
 31
0.0
  0
LINE
  5
B0CA
330
AFFB
100
AcDbEntity
  8
5
  6
PHANTOM
100
AcDbLine
 10
154.839517
 20
232.3964469999999
 30
0.0
 11
152.541517
 21
230.098847
 31
0.0
  0
LINE
  5
B0CB
330
AFFB
100
AcDbEntity
  8
1
  6
Continuous
100
AcDbLine
 10
204.047217
 20
227.332647
 30
0.0
 11
204.047217
 21
217.436247
 31
0.0
  0
LINE
  5
B0CC
330
AFFB
100
AcDbEntity
  8
1
  6
Continuous
100
AcDbLine
 10
194.0472169999999
 20
215.296547
 30
0.0
 11
194.0472169999999
 21
185.411147
 31
0.0
  0
LINE
  5
B0CD
330
AFFB
100
AcDbEntity
  8
1
  6
Continuous
100
AcDbLine
 10
218.547517
 20
215.306747
 30
0.0
 11
218.547517
 21
186.3644469999999
 31
0.0
  0
LINE
  5
B0CE
330
AFFB
100
AcDbEntity
  8
1
  6
Continuous
100
AcDbLine
 10
192.047217
 20
184.371547
 30
0.0
 11
217.586417
 21
185.365247
 31
0.0
  0
ARC
  5
B0CF
330
AFFB
100
AcDbEntity
  8
1
  6
Continuous
100
AcDbCircle
 10
193.0472169999999
 20
185.411147
 30
0.0
 40
1.0
100
AcDbArc
 50
272.228
 51
0.0
  0
ARC
  5
B0D0
330
AFFB
100
AcDbEntity
  8
1
  6
Continuous
100
AcDbCircle
 10
217.5475169999999
 20
186.3644469999999
 30
0.0
 40
1.0
100
AcDbArc
 50
272.228
 51
0.0
  0
LINE
  5
B0D1
330
AFFB
100
AcDbEntity
  8
1
  6
Continuous
100
AcDbLine
 10
205.037217
 20
216.4362469999999
 30
0.0
 11
217.557817
 21
216.306747
 31
0.0
  0
ARC
  5
B0D2
330
AFFB
100
AcDbEntity
  8
1
  6
Continuous
100
AcDbCircle
 10
193.0472169999999
 20
215.296547
 30
0.0
 40
1.0
100
AcDbArc
 50
0.0
 51
90.0
  0
ARC
  5
B0D3
330
AFFB
100
AcDbEntity
  8
1
  6
Continuous
100
AcDbCircle
 10
205.0472169999999
 20
217.436247
 30
0.0
 40
1.0
100
AcDbArc
 50
180.0
 51
269.4069999999999
  0
LINE
  5
B0D4
330
AFFB
100
AcDbEntity
  8
1
  6
Continuous
100
AcDbLine
 10
193.0472169999999
 20
216.296547
 30
0.0
 11
205.037217
 21
216.4362469999999
 31
0.0
  0
LINE
  5
B0D5
330
AFFB
100
AcDbEntity
  8
1
  6
Continuous
100
AcDbLine
 10
192.047217
 20
216.296547
 30
0.0
 11
193.0472169999999
 21
216.296547
 31
0.0
  0
ARC
  5
B0D6
330
AFFB
100
AcDbEntity
  8
1
  6
Continuous
100
AcDbCircle
 10
217.5475169999999
 20
215.306747
 30
0.0
 40
1.0
100
AcDbArc
 50
0.0
 51
89.4073
  0
LINE
  5
B0D7
330
AFFB
100
AcDbEntity
  8
4
  6
CENTER
100
AcDbLine
 10
215.5475169999998
 20
201.832647
 30
0.0
 11
221.5475169999999
 21
201.832647
 31
0.0
  0
ARC
  5
B0D8
330
AFFB
100
AcDbEntity
  8
1
  6
Continuous
100
AcDbCircle
 10
203.0472169999999
 20
229.332647
 30
0.0
 40
1.0
100
AcDbArc
 50
180.0
 51
270.0
  0
ARC
  5
B0D9
330
AFFB
100
AcDbEntity
  8
1
  6
Continuous
100
AcDbCircle
 10
203.0472169999999
 20
227.332647
 30
0.0
 40
1.0
100
AcDbArc
 50
0.0
 51
90.0
  0
LINE
  5
B0DA
330
AFFB
100
AcDbEntity
  8
4
  6
CENTER
100
AcDbLine
 10
199.0472169999999
 20
252.3326069999999
 30
0.0
 11
205.0472169999999
 21
252.3326069999999
 31
0.0
  0
LINE
  5
B0DB
330
AFFB
100
AcDbEntity
  8
1
  6
Continuous
100
AcDbLine
 10
188.5472169999999
 20
303.3326469999999
 30
0.0
 11
192.047217
 21
303.3326469999999
 31
0.0
  0
LINE
  5
B0DC
330
AFFB
100
AcDbEntity
  8
4
  6
CENTER
100
AcDbLine
 10
183.0472169999999
 20
283.332647
 30
0.0
 11
229.047517
 21
283.332647
 31
0.0
  0
ARC
  5
B0DD
330
AFFB
100
AcDbEntity
  8
1
  6
Continuous
100
AcDbCircle
 10
139.2332169999999
 20
283.332647
 30
0.0
 40
48.3525
100
AcDbArc
 50
345.5079999999999
 51
14.4921
  0
ARC
  5
B0DE
330
AFFB
100
AcDbEntity
  8
5
  6
PHANTOM
100
AcDbCircle
 10
187.7015169999999
 20
284.137547
 30
0.0
 40
2.0
100
AcDbArc
 50
145.8070779999999
 51
174.16
  0
ARC
  5
B0DF
330
AFFB
100
AcDbEntity
  8
1
  6
Continuous
100
AcDbCircle
 10
187.6475169999999
 20
283.5894469999999
 30
0.0
 40
2.0
100
AcDbArc
 50
143.1444289999998
 51
180.0
  0
LINE
  5
B0E0
330
AFFB
100
AcDbEntity
  8
5
  6
PHANTOM
100
AcDbLine
 10
185.476517
 20
272.9326469999999
 30
0.0
 11
186.0472169999999
 21
272.9326469999999
 31
0.0
  0
LINE
  5
B0E1
330
AFFB
100
AcDbEntity
  8
1
  6
Continuous
100
AcDbLine
 10
188.5472169999999
 20
303.3326469999999
 30
0.0
 11
186.0472169999999
 21
298.832647
 31
0.0
  0
LINE
  5
B0E2
330
AFFB
100
AcDbEntity
  8
1
  6
Continuous
100
AcDbLine
 10
222.0475169999999
 20
276.261547
 30
0.0
 11
226.0475169999998
 21
276.261547
 31
0.0
  0
LINE
  5
B0E3
330
AFFB
100
AcDbEntity
  8
2
  6
Continuous
100
AcDbLine
 10
222.0475169999999
 20
280.975547
 30
0.0
 11
226.0475169999998
 21
276.261547
 31
0.0
  0
LINE
  5
B0E4
330
AFFB
100
AcDbEntity
  8
2
  6
Continuous
100
AcDbLine
 10
226.0475169999998
 20
283.332647
 30
0.0
 11
222.0475169999999
 21
278.6185469999999
 31
0.0
  0
LINE
  5
B0E5
330
AFFB
100
AcDbEntity
  8
1
  6
Continuous
100
AcDbLine
 10
222.0475169999999
 20
283.332647
 30
0.0
 11
226.0475169999998
 21
283.332647
 31
0.0
  0
LINE
  5
B0E6
330
AFFB
100
AcDbEntity
  8
2
  6
Continuous
100
AcDbLine
 10
222.0475169999999
 20
288.046647
 30
0.0
 11
226.0475169999998
 21
283.332647
 31
0.0
  0
LINE
  5
B0E7
330
AFFB
100
AcDbEntity
  8
2
  6
Continuous
100
AcDbLine
 10
226.0475169999998
 20
290.4036469999999
 30
0.0
 11
222.0475169999999
 21
285.6896469999999
 31
0.0
  0
LINE
  5
B0E8
330
AFFB
100
AcDbEntity
  8
1
  6
Continuous
100
AcDbLine
 10
222.0475169999999
 20
290.4036469999999
 30
0.0
 11
226.0475169999998
 21
290.4036469999999
 31
0.0
  0
LINE
  5
B0E9
330
AFFB
100
AcDbEntity
  8
1
  6
Continuous
100
AcDbLine
 10
220.047517
 20
270.3326469999999
 30
0.0
 11
220.047517
 21
292.079447
 31
0.0
  0
LINE
  5
B0EA
330
AFFB
100
AcDbEntity
  8
1
  6
Continuous
100
AcDbLine
 10
194.0472169999999
 20
297.4326469999999
 30
0.0
 11
194.0472169999999
 21
283.332647
 31
0.0
  0
LINE
  5
B0EB
330
AFFB
100
AcDbEntity
  8
1
  6
Continuous
100
AcDbLine
 10
205.0472169999999
 20
294.5435469999999
 30
0.0
 11
205.0472169999999
 21
270.232647
 31
0.0
  0
LINE
  5
B0EC
330
AFFB
100
AcDbEntity
  8
1
  6
Continuous
100
AcDbLine
 10
222.0475169999999
 20
294.590977
 30
0.0
 11
222.0475169999999
 21
270.3326469999999
 31
0.0
  0
LINE
  5
B0ED
330
AFFB
100
AcDbEntity
  8
1
  6
Continuous
100
AcDbLine
 10
219.847517
 20
293.768247
 30
0.0
 11
219.847517
 21
272.282647
 31
0.0
  0
LINE
  5
B0EE
330
AFFB
100
AcDbEntity
  8
1
  6
Continuous
100
AcDbLine
 10
206.0472169999999
 20
271.2826469999999
 30
0.0
 11
218.8475169999999
 21
271.2826469999999
 31
0.0
  0
ARC
  5
B0EF
330
AFFB
100
AcDbEntity
  8
1
  6
Continuous
100
AcDbCircle
 10
202.047217
 20
269.2326469999999
 30
0.0
 40
1.0
100
AcDbArc
 50
270.0
 51
0.0
  0
LINE
  5
B0F0
330
AFFB
100
AcDbEntity
  8
1
  6
Continuous
100
AcDbLine
 10
203.0472169999999
 20
275.3898469999999
 30
0.0
 11
203.0472169999999
 21
269.2326469999999
 31
0.0
  0
LINE
  5
B0F1
330
AFFB
100
AcDbEntity
  8
1
  6
Continuous
100
AcDbLine
 10
203.0472169999999
 20
275.3898469999999
 30
0.0
 11
192.047217
 21
275.3898469999999
 31
0.0
  0
ARC
  5
B0F2
330
AFFB
100
AcDbEntity
  8
1
  6
Continuous
100
AcDbCircle
 10
204.047217
 20
270.232647
 30
0.0
 40
1.0
100
AcDbArc
 50
270.0
 51
0.0
  0
ARC
  5
B0F3
330
AFFB
100
AcDbEntity
  8
1
  6
Continuous
100
AcDbCircle
 10
206.0472169999999
 20
270.282647
 30
0.0
 40
1.0
100
AcDbArc
 50
90.0
 51
180.0
  0
LINE
  5
B0F4
330
AFFB
100
AcDbEntity
  8
1
  6
Continuous
100
AcDbLine
 10
203.0472169999999
 20
269.2326469999999
 30
0.0
 11
204.047217
 21
269.2326469999999
 31
0.0
  0
LINE
  5
B0F5
330
AFFB
100
AcDbEntity
  8
1
  6
Continuous
100
AcDbLine
 10
219.847517
 20
276.132647
 30
0.0
 11
220.047517
 21
276.132647
 31
0.0
  0
ARC
  5
B0F6
330
AFFB
100
AcDbEntity
  8
1
  6
Continuous
100
AcDbCircle
 10
218.8475169999999
 20
272.282647
 30
0.0
 40
1.0
100
AcDbArc
 50
270.0
 51
0.0
  0
LINE
  5
B0F7
330
AFFB
100
AcDbEntity
  8
1
  6
Continuous
100
AcDbLine
 10
220.047517
 20
270.3326469999999
 30
0.0
 11
222.0475169999999
 21
270.3326469999999
 31
0.0
  0
LINE
  5
B0F8
330
AFFB
100
AcDbEntity
  8
1
  6
Continuous
100
AcDbLine
 10
220.047517
 20
276.832647
 30
0.0
 11
222.0475169999999
 21
276.832647
 31
0.0
  0
LINE
  5
B0F9
330
AFFB
100
AcDbEntity
  8
1
  6
Continuous
100
AcDbLine
 10
220.047517
 20
278.3326469999999
 30
0.0
 11
222.0475169999999
 21
278.3326469999999
 31
0.0
  0
LINE
  5
B0FA
330
AFFB
100
AcDbEntity
  8
1
  6
Continuous
100
AcDbLine
 10
221.847517
 20
295.5435469999999
 30
0.0
 11
206.0472169999999
 21
295.5435469999999
 31
0.0
  0
LINE
  5
B0FB
330
AFFB
100
AcDbEntity
  8
1
  6
Continuous
100
AcDbLine
 10
206.0472169999999
 20
293.768247
 30
0.0
 11
219.847517
 21
293.768247
 31
0.0
  0
LINE
  5
B0FC
330
AFFB
100
AcDbEntity
  8
1
  6
Continuous
100
AcDbLine
 10
194.0472169999999
 20
297.4326469999999
 30
0.0
 11
220.8475169999999
 21
297.4326469999999
 31
0.0
  0
ARC
  5
B0FD
330
AFFB
100
AcDbEntity
  8
1
  6
Continuous
100
AcDbCircle
 10
206.0472169999999
 20
294.5435469999999
 30
0.0
 40
1.0
100
AcDbArc
 50
90.0
 51
180.0
  0
ARC
  5
B0FE
330
AFFB
100
AcDbEntity
  8
1
  6
Continuous
100
AcDbCircle
 10
206.0472169999999
 20
292.7682469999999
 30
0.0
 40
1.0
100
AcDbArc
 50
90.0
 51
180.0
  0
ARC
  5
B0FF
330
AFFB
100
AcDbEntity
  8
1
  6
Continuous
100
AcDbCircle
 10
193.0472169999999
 20
297.3326469999999
 30
0.0
 40
1.0
100
AcDbArc
 50
5.739169999999997
 51
90.0
  0
LINE
  5
B100
330
AFFB
100
AcDbEntity
  8
1
  6
Continuous
100
AcDbLine
 10
192.047217
 20
298.332647
 30
0.0
 11
193.0472169999999
 21
298.332647
 31
0.0
  0
LINE
  5
B101
330
AFFB
100
AcDbEntity
  8
1
  6
Continuous
100
AcDbLine
 10
219.847517
 20
290.5326469999998
 30
0.0
 11
220.047517
 21
290.5326469999998
 31
0.0
  0
LINE
  5
B102
330
AFFB
100
AcDbEntity
  8
1
  6
Continuous
100
AcDbLine
 10
221.847517
 20
296.4326469999999
 30
0.0
 11
221.847517
 21
292.079447
 31
0.0
  0
LINE
  5
B103
330
AFFB
100
AcDbEntity
  8
1
  6
Continuous
100
AcDbLine
 10
222.0475169999999
 20
293.332647
 30
0.0
 11
221.847517
 21
293.332647
 31
0.0
  0
LINE
  5
B104
330
AFFB
100
AcDbEntity
  8
1
  6
Continuous
100
AcDbLine
 10
222.0475169999999
 20
294.590977
 30
0.0
 11
221.847517
 21
294.590977
 31
0.0
  0
ARC
  5
B105
330
AFFB
100
AcDbEntity
  8
1
  6
Continuous
100
AcDbCircle
 10
220.8475169999999
 20
296.4326469999999
 30
0.0
 40
1.0
100
AcDbArc
 50
0.0
 51
90.0
  0
LINE
  5
B106
330
AFFB
100
AcDbEntity
  8
1
  6
Continuous
100
AcDbLine
 10
219.847517
 20
292.079447
 30
0.0
 11
221.847517
 21
292.079447
 31
0.0
  0
ARC
  5
B107
330
AFFB
100
AcDbEntity
  8
1
  6
Continuous
100
AcDbCircle
 10
245.029068
 20
283.333147
 30
0.0
 40
9.560949
100
AcDbArc
 50
342.4247879999999
 51
17.575212
  0
LINE
  5
B108
330
AFFB
100
AcDbEntity
  8
1
  6
Continuous
100
AcDbLine
 10
254.5900169999999
 20
288.3331469999999
 30
0.0
 11
254.5900169999999
 21
278.332147
 31
0.0
  0
ARC
  5
B109
330
AFFB
100
AcDbEntity
  8
1
  6
Continuous
100
AcDbCircle
 10
260.150966
 20
283.333147
 30
0.0
 40
9.560949
100
AcDbArc
 50
162.4247879999998
 51
197.5752119999999
  0
LINE
  5
B10A
330
AFFB
100
AcDbEntity
  8
1
  6
Continuous
100
AcDbLine
 10
226.0475169999998
 20
290.4036469999999
 30
0.0
 11
226.0475169999998
 21
276.261547
 31
0.0
  0
LINE
  5
B10B
330
AFFB
100
AcDbEntity
  8
1
  6
Continuous
100
AcDbLine
 10
245.490017
 20
294.332647
 30
0.0
 11
245.490017
 21
272.3326469999999
 31
0.0
  0
LINE
  5
B10C
330
AFFB
100
AcDbEntity
  8
1
  6
Continuous
100
AcDbLine
 10
247.490017
 20
294.332647
 30
0.0
 11
247.490017
 21
272.3326469999999
 31
0.0
  0
LINE
  5
B10D
330
AFFB
100
AcDbEntity
  8
1
  6
Continuous
100
AcDbLine
 10
249.0900169999999
 20
275.332647
 30
0.0
 11
249.0900169999999
 21
291.332647
 31
0.0
  0
LINE
  5
B10E
330
AFFB
100
AcDbEntity
  8
1
  6
Continuous
100
AcDbLine
 10
250.5900169999999
 20
277.2326469999999
 30
0.0
 11
250.5900169999999
 21
289.4326469999999
 31
0.0
  0
LINE
  5
B10F
330
AFFB
100
AcDbEntity
  8
1
  6
Continuous
100
AcDbLine
 10
254.5900169999999
 20
278.332147
 30
0.0
 11
254.1437249999999
 21
277.559147
 31
0.0
  0
ARC
  5
B110
330
AFFB
100
AcDbEntity
  8
1
  6
Continuous
100
AcDbCircle
 10
252.0340369999999
 20
279.0021469999999
 30
0.0
 40
2.555979999999999
100
AcDbArc
 50
334.371637
 51
34.371637
  0
LINE
  5
B111
330
AFFB
100
AcDbEntity
  8
1
  6
Continuous
100
AcDbLine
 10
250.5900169999999
 20
278.332147
 30
0.0
 11
251.0363089999999
 21
277.559147
 31
0.0
  0
ARC
  5
B112
330
AFFB
100
AcDbEntity
  8
1
  6
Continuous
100
AcDbCircle
 10
253.1459969999999
 20
279.0021469999999
 30
0.0
 40
2.555979999999999
100
AcDbArc
 50
145.6283629999998
 51
205.6283629999998
  0
LINE
  5
B113
330
AFFB
100
AcDbEntity
  8
1
  6
Continuous
100
AcDbLine
 10
251.0363089999999
 20
277.559147
 30
0.0
 11
254.1437249999999
 21
277.559147
 31
0.0
  0
ARC
  5
B114
330
AFFB
100
AcDbEntity
  8
1
  6
Continuous
100
AcDbCircle
 10
253.1460169999999
 20
279.003147
 30
0.0
 40
2.55582
100
AcDbArc
 50
214.3528569999999
 51
214.3839999999999
  0
ARC
  5
B115
330
AFFB
100
AcDbEntity
  8
1
  6
Continuous
100
AcDbCircle
 10
252.034017
 20
279.003147
 30
0.0
 40
2.55582
100
AcDbArc
 50
325.6159999999998
 51
325.647143
  0
LINE
  5
B116
330
AFFB
100
AcDbEntity
  8
1
  6
Continuous
100
AcDbLine
 10
251.0363089999999
 20
280.446147
 30
0.0
 11
254.1437249999999
 21
280.446147
 31
0.0
  0
LINE
  5
B117
330
AFFB
100
AcDbEntity
  8
1
  6
Continuous
100
AcDbLine
 10
250.5900169999999
 20
284.8326469999999
 30
0.0
 11
249.0900169999999
 21
283.332647
 31
0.0
  0
LINE
  5
B118
330
AFFB
100
AcDbEntity
  8
1
  6
Continuous
100
AcDbLine
 10
250.5900169999999
 20
283.332647
 30
0.0
 11
249.0900169999999
 21
281.832647
 31
0.0
  0
LINE
  5
B119
330
AFFB
100
AcDbEntity
  8
1
  6
Continuous
100
AcDbLine
 10
247.490017
 20
272.3326469999999
 30
0.0
 11
245.490017
 21
272.3326469999999
 31
0.0
  0
LINE
  5
B11A
330
AFFB
100
AcDbEntity
  8
1
  6
Continuous
100
AcDbLine
 10
249.0900169999999
 20
275.332647
 30
0.0
 11
247.490017
 21
275.332647
 31
0.0
  0
LINE
  5
B11B
330
AFFB
100
AcDbEntity
  8
1
  6
Continuous
100
AcDbLine
 10
250.5900169999999
 20
277.2326469999999
 30
0.0
 11
249.0900169999999
 21
277.2326469999999
 31
0.0
  0
ARC
  5
B11C
330
AFFB
100
AcDbEntity
  8
1
  6
Continuous
100
AcDbCircle
 10
252.0340369999999
 20
287.6631469999999
 30
0.0
 40
2.555979999999999
100
AcDbArc
 50
325.6283629999999
 51
25.628363
  0
LINE
  5
B11D
330
AFFB
100
AcDbEntity
  8
1
  6
Continuous
100
AcDbLine
 10
254.5900169999999
 20
288.3331469999999
 30
0.0
 11
254.1437249999999
 21
289.106147
 31
0.0
  0
LINE
  5
B11E
330
AFFB
100
AcDbEntity
  8
1
  6
Continuous
100
AcDbLine
 10
251.0363089999999
 20
286.220147
 30
0.0
 11
254.1437249999999
 21
286.220147
 31
0.0
  0
LINE
  5
B11F
330
AFFB
100
AcDbEntity
  8
1
  6
Continuous
100
AcDbLine
 10
251.0363089999999
 20
289.106147
 30
0.0
 11
254.1437249999999
 21
289.106147
 31
0.0
  0
ARC
  5
B120
330
AFFB
100
AcDbEntity
  8
1
  6
Continuous
100
AcDbCircle
 10
253.1459969999999
 20
287.6631469999999
 30
0.0
 40
2.555979999999999
100
AcDbArc
 50
154.371637
 51
214.371637
  0
LINE
  5
B121
330
AFFB
100
AcDbEntity
  8
1
  6
Continuous
100
AcDbLine
 10
250.5900169999999
 20
288.3331469999999
 30
0.0
 11
251.0363089999999
 21
289.106147
 31
0.0
  0
LINE
  5
B122
330
AFFB
100
AcDbEntity
  8
1
  6
Continuous
100
AcDbLine
 10
247.490017
 20
294.332647
 30
0.0
 11
245.490017
 21
294.332647
 31
0.0
  0
LINE
  5
B123
330
AFFB
100
AcDbEntity
  8
1
  6
Continuous
100
AcDbLine
 10
249.0900169999999
 20
291.332647
 30
0.0
 11
247.490017
 21
291.332647
 31
0.0
  0
LINE
  5
B124
330
AFFB
100
AcDbEntity
  8
1
  6
Continuous
100
AcDbLine
 10
250.5900169999999
 20
289.4326469999999
 30
0.0
 11
249.0900169999999
 21
289.4326469999999
 31
0.0
  0
ARC
  5
B125
330
AFFB
100
AcDbEntity
  8
5
  6
PHANTOM
100
AcDbCircle
 10
423.8973169999998
 20
176.332647
 30
0.0
 40
1.0
100
AcDbArc
 50
180.0
 51
270.0
  0
ARC
  5
B126
330
AFFB
100
AcDbEntity
  8
5
  6
PHANTOM
100
AcDbCircle
 10
443.8973169999998
 20
176.332647
 30
0.0
 40
1.0
100
AcDbArc
 50
270.0
 51
0.0
  0
LINE
  5
B127
330
AFFB
100
AcDbEntity
  8
4
  6
CENTER
100
AcDbLine
 10
433.897317
 20
306.332647
 30
0.0
 11
433.897317
 21
172.332647
 31
0.0
  0
LINE
  5
B128
330
AFFB
100
AcDbEntity
  8
1
  6
Continuous
100
AcDbLine
 10
280.0396169999999
 20
46.358421
 30
0.0
 11
280.0396169999999
 21
42.358421
 31
0.0
  0
LINE
  5
B129
330
AFFB
100
AcDbEntity
  8
1
  6
Continuous
100
AcDbLine
 10
278.0396169999999
 20
46.358421
 30
0.0
 11
278.0396169999999
 21
42.358421
 31
0.0
  0
LINE
  5
B12A
330
AFFB
100
AcDbEntity
  8
1
  6
Continuous
100
AcDbLine
 10
278.0396169999999
 20
42.358421
 30
0.0
 11
280.0396169999999
 21
42.358421
 31
0.0
  0
LINE
  5
B12B
330
AFFB
100
AcDbEntity
  8
1
  6
Continuous
100
AcDbLine
 10
280.0396169999999
 20
71.85842099999998
 30
0.0
 11
287.739617
 21
71.85842099999998
 31
0.0
  0
LINE
  5
B12C
330
AFFB
100
AcDbEntity
  8
1
  6
Continuous
100
AcDbLine
 10
280.0396169999999
 20
73.85842099999996
 30
0.0
 11
287.739617
 21
73.85842099999996
 31
0.0
  0
LINE
  5
B12D
330
AFFB
100
AcDbEntity
  8
1
  6
Continuous
100
AcDbLine
 10
280.0396169999999
 20
46.358421
 30
0.0
 11
287.739617
 21
46.358421
 31
0.0
  0
LINE
  5
B12E
330
AFFB
100
AcDbEntity
  8
1
  6
Continuous
100
AcDbLine
 10
280.0396169999999
 20
48.358421
 30
0.0
 11
287.739617
 21
48.358421
 31
0.0
  0
LINE
  5
B12F
330
AFFB
100
AcDbEntity
  8
4
  6
CENTER
100
AcDbLine
 10
284.375007
 20
60.10842099999999
 30
0.0
 11
297.339617
 21
60.10842099999999
 31
0.0
  0
ARC
  5
B130
330
AFFB
100
AcDbEntity
  8
1
  6
Continuous
100
AcDbCircle
 10
280.0396169999999
 20
46.358421
 30
0.0
 40
2.0
100
AcDbArc
 50
90.0
 51
180.0
  0
ARC
  5
B131
330
AFFB
100
AcDbEntity
  8
1
  6
Continuous
100
AcDbCircle
 10
280.0396169999999
 20
73.85842099999996
 30
0.0
 40
2.0
100
AcDbArc
 50
180.0
 51
270.0
  0
LINE
  5
B132
330
AFFB
100
AcDbEntity
  8
1
  6
Continuous
100
AcDbLine
 10
280.0396169999999
 20
77.85842099999998
 30
0.0
 11
280.0396169999999
 21
73.85842099999996
 31
0.0
  0
LINE
  5
B133
330
AFFB
100
AcDbEntity
  8
1
  6
Continuous
100
AcDbLine
 10
278.0396169999999
 20
77.85842099999998
 30
0.0
 11
280.0396169999999
 21
77.85842099999998
 31
0.0
  0
LINE
  5
B134
330
AFFB
100
AcDbEntity
  8
1
  6
Continuous
100
AcDbLine
 10
278.0396169999999
 20
77.85842099999998
 30
0.0
 11
278.0396169999999
 21
73.85842099999996
 31
0.0
  0
LINE
  5
B135
330
AFFB
100
AcDbEntity
  8
1
  6
Continuous
100
AcDbLine
 10
287.739617
 20
71.85842099999998
 30
0.0
 11
287.739617
 21
48.358421
 31
0.0
  0
LINE
  5
B136
330
AFFB
100
AcDbEntity
  8
1
  6
Continuous
100
AcDbLine
 10
289.739617
 20
71.85842099999998
 30
0.0
 11
289.739617
 21
48.358421
 31
0.0
  0
LINE
  5
B137
330
AFFB
100
AcDbEntity
  8
1
  6
Continuous
100
AcDbLine
 10
292.5006169999999
 20
64.48042099999999
 30
0.0
 11
291.0396169999998
 21
64.60842099999999
 31
0.0
  0
LINE
  5
B138
330
AFFB
100
AcDbEntity
  8
1
  6
Continuous
100
AcDbLine
 10
289.739617
 20
64.708421
 30
0.0
 11
291.0396169999998
 21
64.708421
 31
0.0
  0
ARC
  5
B139
330
AFFB
100
AcDbEntity
  8
1
  6
Continuous
100
AcDbCircle
 10
292.3616169999998
 20
62.886421
 30
0.0
 40
1.6
100
AcDbArc
 50
15.494
 51
84.99990000000002
  0
ARC
  5
B13A
330
AFFB
100
AcDbEntity
  8
1
  6
Continuous
100
AcDbCircle
 10
287.739617
 20
48.358421
 30
0.0
 40
2.0
100
AcDbArc
 50
270.0
 51
0.0
  0
LINE
  5
B13B
330
AFFB
100
AcDbEntity
  8
1
  6
Continuous
100
AcDbLine
 10
292.5006169999999
 20
55.73642099999999
 30
0.0
 11
291.0396169999998
 21
55.60842099999999
 31
0.0
  0
LINE
  5
B13C
330
AFFB
100
AcDbEntity
  8
1
  6
Continuous
100
AcDbLine
 10
289.739617
 20
55.508421
 30
0.0
 11
291.0396169999998
 21
55.508421
 31
0.0
  0
LINE
  5
B13D
330
AFFB
100
AcDbEntity
  8
1
  6
Continuous
100
AcDbLine
 10
289.739617
 20
60.10842099999999
 30
0.0
 11
291.0396169999998
 21
61.408421
 31
0.0
  0
LINE
  5
B13E
330
AFFB
100
AcDbEntity
  8
1
  6
Continuous
100
AcDbLine
 10
289.739617
 20
58.80842099999998
 30
0.0
 11
291.0396169999998
 21
60.10842099999999
 31
0.0
  0
ARC
  5
B13F
330
AFFB
100
AcDbEntity
  8
1
  6
Continuous
100
AcDbCircle
 10
292.3616169999998
 20
57.33042099999998
 30
0.0
 40
1.6
100
AcDbArc
 50
275.0
 51
344.5059999999998
  0
LINE
  5
B140
330
AFFB
100
AcDbEntity
  8
1
  6
Continuous
100
AcDbLine
 10
291.0396169999998
 20
64.708421
 30
0.0
 11
291.0396169999998
 21
55.508421
 31
0.0
  0
ARC
  5
B141
330
AFFB
100
AcDbEntity
  8
1
  6
Continuous
100
AcDbCircle
 10
282.3396169999999
 20
60.10842099999999
 30
0.0
 40
12.0
100
AcDbArc
 50
344.5059999999998
 51
15.494
  0
ARC
  5
B142
330
AFFB
100
AcDbEntity
  8
1
  6
Continuous
100
AcDbCircle
 10
287.739617
 20
71.85842099999998
 30
0.0
 40
2.0
100
AcDbArc
 50
0.0
 51
90.0
  0
LINE
  5
B143
330
AFFB
100
AcDbEntity
  8
5
  6
PHANTOM
100
AcDbLine
 10
443.8973169999998
 20
175.332647
 30
0.0
 11
423.8973169999998
 21
175.332647
 31
0.0
  0
LINE
  5
B144
330
AFFB
100
AcDbEntity
  8
5
  6
PHANTOM
100
AcDbLine
 10
416.897317
 20
292.332647
 30
0.0
 11
367.397317
 21
292.332647
 31
0.0
  0
LINE
  5
B145
330
AFFB
100
AcDbEntity
  8
5
  6
PHANTOM
100
AcDbLine
 10
416.897317
 20
274.3326469999999
 30
0.0
 11
367.397317
 21
274.3326469999999
 31
0.0
  0
LINE
  5
B146
330
AFFB
100
AcDbEntity
  8
4
  6
CENTER
100
AcDbLine
 10
453.897317
 20
283.332647
 30
0.0
 11
361.8973169999999
 21
283.332647
 31
0.0
  0
LINE
  5
B147
330
AFFB
100
AcDbEntity
  8
1
  6
Continuous
100
AcDbLine
 10
280.0396169999999
 20
268.332647
 30
0.0
 11
280.0396169999999
 21
236.332647
 31
0.0
  0
LINE
  5
B148
330
AFFB
100
AcDbEntity
  8
1
  6
Continuous
100
AcDbLine
 10
289.739617
 20
268.332647
 30
0.0
 11
289.739617
 21
236.332647
 31
0.0
  0
LINE
  5
B149
330
AFFB
100
AcDbEntity
  8
1
  6
Continuous
100
AcDbLine
 10
278.0396169999999
 20
268.332647
 30
0.0
 11
278.0396169999999
 21
236.332647
 31
0.0
  0
LINE
  5
B14A
330
AFFB
100
AcDbEntity
  8
4
  6
CENTER
100
AcDbLine
 10
286.6095169999999
 20
252.3326069999999
 30
0.0
 11
297.339617
 21
252.3326069999999
 31
0.0
  0
LINE
  5
B14B
330
AFFB
100
AcDbEntity
  8
1
  6
Continuous
100
AcDbLine
 10
278.0396169999999
 20
236.332647
 30
0.0
 11
289.739617
 21
236.332647
 31
0.0
  0
ARC
  5
B14C
330
AFFB
100
AcDbEntity
  8
1
  6
Continuous
100
AcDbCircle
 10
282.3396169999999
 20
252.3326069999999
 30
0.0
 40
12.0
100
AcDbArc
 50
344.5059999999998
 51
15.494
  0
LINE
  5
B14D
330
AFFB
100
AcDbEntity
  8
1
  6
Continuous
100
AcDbLine
 10
289.739617
 20
256.9326069999998
 30
0.0
 11
291.0396169999998
 21
256.9326069999998
 31
0.0
  0
LINE
  5
B14E
330
AFFB
100
AcDbEntity
  8
1
  6
Continuous
100
AcDbLine
 10
289.739617
 20
251.032607
 30
0.0
 11
291.0396169999998
 21
252.3326069999999
 31
0.0
  0
LINE
  5
B14F
330
AFFB
100
AcDbEntity
  8
1
  6
Continuous
100
AcDbLine
 10
289.739617
 20
252.3326069999999
 30
0.0
 11
291.0396169999998
 21
253.6326069999998
 31
0.0
  0
LINE
  5
B150
330
AFFB
100
AcDbEntity
  8
1
  6
Continuous
100
AcDbLine
 10
292.5006169999999
 20
256.7046069999999
 30
0.0
 11
291.0396169999998
 21
256.8326069999999
 31
0.0
  0
ARC
  5
B151
330
AFFB
100
AcDbEntity
  8
1
  6
Continuous
100
AcDbCircle
 10
292.3616169999998
 20
255.1106069999999
 30
0.0
 40
1.6
100
AcDbArc
 50
15.494
 51
84.99990000000002
  0
LINE
  5
B152
330
AFFB
100
AcDbEntity
  8
1
  6
Continuous
100
AcDbLine
 10
289.739617
 20
247.7326069999998
 30
0.0
 11
291.0396169999998
 21
247.7326069999998
 31
0.0
  0
LINE
  5
B153
330
AFFB
100
AcDbEntity
  8
1
  6
Continuous
100
AcDbLine
 10
292.5006169999999
 20
247.9606069999999
 30
0.0
 11
291.0396169999998
 21
247.832607
 31
0.0
  0
LINE
  5
B154
330
AFFB
100
AcDbEntity
  8
1
  6
Continuous
100
AcDbLine
 10
291.0396169999998
 20
256.9326069999998
 30
0.0
 11
291.0396169999998
 21
247.7326069999998
 31
0.0
  0
ARC
  5
B155
330
AFFB
100
AcDbEntity
  8
1
  6
Continuous
100
AcDbCircle
 10
292.3616169999998
 20
249.5546069999999
 30
0.0
 40
1.6
100
AcDbArc
 50
275.0
 51
344.5059999999998
  0
LINE
  5
B156
330
AFFB
100
AcDbEntity
  8
1
  6
Continuous
100
AcDbLine
 10
278.0396169999999
 20
268.332647
 30
0.0
 11
289.739617
 21
268.332647
 31
0.0
  0
LINE
  5
B157
330
AFFB
100
AcDbEntity
  8
5
  6
PHANTOM
100
AcDbLine
 10
364.897317
 20
276.832647
 30
0.0
 11
364.897317
 21
289.832647
 31
0.0
  0
ARC
  5
B158
330
AFFB
100
AcDbEntity
  8
5
  6
PHANTOM
100
AcDbCircle
 10
367.397317
 20
276.832647
 30
0.0
 40
2.5
100
AcDbArc
 50
180.0
 51
270.0
  0
ARC
  5
B159
330
AFFB
100
AcDbEntity
  8
5
  6
PHANTOM
100
AcDbCircle
 10
367.397317
 20
289.832647
 30
0.0
 40
2.5
100
AcDbArc
 50
90.0
 51
180.0
  0
LINE
  5
B15A
330
AFFB
100
AcDbEntity
  8
1
  6
Continuous
100
AcDbLine
 10
447.647317
 20
268.332647
 30
0.0
 11
447.647317
 21
236.332647
 31
0.0
  0
LINE
  5
B15B
330
AFFB
100
AcDbEntity
  8
1
  6
Continuous
100
AcDbLine
 10
420.1473169999998
 20
268.332647
 30
0.0
 11
420.1473169999998
 21
236.332647
 31
0.0
  0
LINE
  5
B15C
330
AFFB
100
AcDbEntity
  8
1
  6
Continuous
100
AcDbLine
 10
451.647317
 20
266.332607
 30
0.0
 11
451.647317
 21
238.332647
 31
0.0
  0
LINE
  5
B15D
330
AFFB
100
AcDbEntity
  8
1
  6
Continuous
100
AcDbLine
 10
416.1473169999998
 20
266.332607
 30
0.0
 11
416.1473169999998
 21
238.332647
 31
0.0
  0
ARC
  5
B15E
330
AFFB
100
AcDbEntity
  8
1
  6
Continuous
100
AcDbCircle
 10
445.897317
 20
215.296547
 30
0.0
 40
1.0
100
AcDbArc
 50
0.0
 51
90.0
  0
ARC
  5
B15F
330
AFFB
100
AcDbEntity
  8
1
  6
Continuous
100
AcDbCircle
 10
445.997317
 20
186.332647
 30
0.0
 40
2.0
100
AcDbArc
 50
270.0
 51
0.0
  0
LINE
  5
B160
330
AFFB
100
AcDbEntity
  8
1
  6
Continuous
100
AcDbLine
 10
449.6473169999998
 20
236.332647
 30
0.0
 11
418.147317
 21
236.332647
 31
0.0
  0
LINE
  5
B161
330
AFFB
100
AcDbEntity
  8
1
  6
Continuous
100
AcDbLine
 10
420.797317
 20
216.296547
 30
0.0
 11
446.997317
 21
216.296547
 31
0.0
  0
LINE
  5
B162
330
AFFB
100
AcDbEntity
  8
1
  6
Continuous
100
AcDbLine
 10
420.897317
 20
179.332647
 30
0.0
 11
446.8973169999999
 21
179.332647
 31
0.0
  0
LINE
  5
B163
330
AFFB
100
AcDbEntity
  8
1
  6
Continuous
100
AcDbLine
 10
445.547317
 20
236.332647
 30
0.0
 11
445.547317
 21
217.296547
 31
0.0
  0
LINE
  5
B164
330
AFFB
100
AcDbEntity
  8
1
  6
Continuous
100
AcDbLine
 10
422.2473169999998
 20
236.332647
 30
0.0
 11
422.2473169999998
 21
217.296547
 31
0.0
  0
LINE
  5
B165
330
AFFB
100
AcDbEntity
  8
1
  6
Continuous
100
AcDbLine
 10
416.897317
 20
236.7713469999999
 30
0.0
 11
416.897317
 21
183.332647
 31
0.0
  0
LINE
  5
B166
330
AFFB
100
AcDbEntity
  8
1
  6
Continuous
100
AcDbLine
 10
419.797317
 20
236.332647
 30
0.0
 11
419.797317
 21
186.332647
 31
0.0
  0
LINE
  5
B167
330
AFFB
100
AcDbEntity
  8
1
  6
Continuous
100
AcDbLine
 10
420.897317
 20
215.296547
 30
0.0
 11
420.897317
 21
184.546547
 31
0.0
  0
LINE
  5
B168
330
AFFB
100
AcDbEntity
  8
1
  6
Continuous
100
AcDbLine
 10
421.797317
 20
184.332647
 30
0.0
 11
445.997317
 21
184.332647
 31
0.0
  0
LINE
  5
B169
330
AFFB
100
AcDbEntity
  8
5
  6
PHANTOM
100
AcDbLine
 10
422.8973169999998
 20
179.332647
 30
0.0
 11
422.8973169999998
 21
176.332647
 31
0.0
  0
ARC
  5
B16A
330
AFFB
100
AcDbEntity
  8
1
  6
Continuous
100
AcDbCircle
 10
421.797317
 20
186.332647
 30
0.0
 40
2.0
100
AcDbArc
 50
180.0
 51
270.0
  0
ARC
  5
B16B
330
AFFB
100
AcDbEntity
  8
1
  6
Continuous
100
AcDbCircle
 10
420.897317
 20
183.332647
 30
0.0
 40
4.0
100
AcDbArc
 50
180.0
 51
270.0
  0
LINE
  5
B16C
330
AFFB
100
AcDbEntity
  8
5
  6
PHANTOM
100
AcDbLine
 10
444.897317
 20
179.332647
 30
0.0
 11
444.897317
 21
176.332647
 31
0.0
  0
LINE
  5
B16D
330
AFFB
100
AcDbEntity
  8
1
  6
Continuous
100
AcDbLine
 10
427.8973169999998
 20
213.296547
 30
0.0
 11
439.8973169999998
 21
213.296547
 31
0.0
  0
LINE
  5
B16E
330
AFFB
100
AcDbEntity
  8
1
  6
Continuous
100
AcDbLine
 10
427.8973169999998
 20
208.2965469999999
 30
0.0
 11
439.8973169999998
 21
208.2965469999999
 31
0.0
  0
ARC
  5
B16F
330
AFFB
100
AcDbEntity
  8
1
  6
Continuous
100
AcDbCircle
 10
421.8973169999999
 20
215.296547
 30
0.0
 40
1.0
100
AcDbArc
 50
90.0
 51
180.0
  0
ARC
  5
B170
330
AFFB
100
AcDbEntity
  8
1
  6
Continuous
100
AcDbCircle
 10
420.797317
 20
215.296547
 30
0.0
 40
1.0
100
AcDbArc
 50
90.0
 51
180.0
  0
ARC
  5
B171
330
AFFB
100
AcDbEntity
  8
1
  6
Continuous
100
AcDbCircle
 10
421.2473169999998
 20
217.296547
 30
0.0
 40
1.0
100
AcDbArc
 50
270.0
 51
0.0
  0
CIRCLE
  5
B172
330
AFFB
100
AcDbEntity
  8
1
  6
Continuous
100
AcDbCircle
 10
425.397317
 20
201.832647
 30
0.0
 40
2.6
  0
ARC
  5
B173
330
AFFB
100
AcDbEntity
  8
1
  6
Continuous
100
AcDbCircle
 10
425.397317
 20
201.832647
 30
0.0
 40
1.3
100
AcDbArc
 50
304.8090000000001
 51
325.1909999999999
  0
ARC
  5
B174
330
AFFB
100
AcDbEntity
  8
1
  6
Continuous
100
AcDbCircle
 10
425.397317
 20
201.832647
 30
0.0
 40
1.3
100
AcDbArc
 50
214.809
 51
235.1909999999999
  0
ARC
  5
B175
330
AFFB
100
AcDbEntity
  8
1
  6
Continuous
100
AcDbCircle
 10
425.397317
 20
201.832647
 30
0.0
 40
1.3
100
AcDbArc
 50
124.8094
 51
145.1909999999998
  0
ARC
  5
B176
330
AFFB
100
AcDbEntity
  8
1
  6
Continuous
100
AcDbCircle
 10
425.397317
 20
201.832647
 30
0.0
 40
1.3
100
AcDbArc
 50
34.809
 51
55.1906
  0
LINE
  5
B177
330
AFFB
100
AcDbEntity
  8
4
  6
CENTER
100
AcDbLine
 10
425.397317
 20
204.967747
 30
0.0
 11
425.397317
 21
198.828247
 31
0.0
  0
LINE
  5
B178
330
AFFB
100
AcDbEntity
  8
4
  6
CENTER
100
AcDbLine
 10
422.440117
 20
201.832647
 30
0.0
 11
428.3716169999998
 21
201.832647
 31
0.0
  0
LINE
  5
B179
330
AFFB
100
AcDbEntity
  8
1
  6
Continuous
100
AcDbLine
 10
425.397388
 20
201.176381
 30
0.0
 11
425.9224139999998
 21
200.9749269999999
 31
0.0
  0
LINE
  5
B17A
330
AFFB
100
AcDbEntity
  8
1
  6
Continuous
100
AcDbLine
 10
425.9224849999998
 20
200.9748559999999
 30
0.0
 11
426.139425
 21
200.765269
 31
0.0
  0
LINE
  5
B17B
330
AFFB
100
AcDbEntity
  8
1
  6
Continuous
100
AcDbLine
 10
426.053653
 20
201.832647
 30
0.0
 11
426.2551789999998
 21
201.3075499999999
 31
0.0
  0
LINE
  5
B17C
330
AFFB
100
AcDbEntity
  8
1
  6
Continuous
100
AcDbLine
 10
426.2551789999998
 20
201.3075499999999
 30
0.0
 11
426.464695
 21
201.0905379999999
 31
0.0
  0
LINE
  5
B17D
330
AFFB
100
AcDbEntity
  8
1
  6
Continuous
100
AcDbLine
 10
424.741122
 20
201.832647
 30
0.0
 11
424.539596
 21
201.3075499999999
 31
0.0
  0
LINE
  5
B17E
330
AFFB
100
AcDbEntity
  8
1
  6
Continuous
100
AcDbLine
 10
424.539596
 20
201.3075499999999
 30
0.0
 11
424.3300099999998
 21
201.090609
 31
0.0
  0
LINE
  5
B17F
330
AFFB
100
AcDbEntity
  8
1
  6
Continuous
100
AcDbLine
 10
425.397388
 20
201.176381
 30
0.0
 11
424.87229
 21
200.9748559999999
 31
0.0
  0
LINE
  5
B180
330
AFFB
100
AcDbEntity
  8
1
  6
Continuous
100
AcDbLine
 10
424.87229
 20
200.9748559999999
 30
0.0
 11
424.6552079999998
 21
200.765269
 31
0.0
  0
LINE
  5
B181
330
AFFB
100
AcDbEntity
  8
1
  6
Continuous
100
AcDbLine
 10
425.397388
 20
202.488913
 30
0.0
 11
424.87229
 21
202.6904379999999
 31
0.0
  0
LINE
  5
B182
330
AFFB
100
AcDbEntity
  8
1
  6
Continuous
100
AcDbLine
 10
424.87229
 20
202.6904379999999
 30
0.0
 11
424.6552079999998
 21
202.900025
 31
0.0
  0
LINE
  5
B183
330
AFFB
100
AcDbEntity
  8
1
  6
Continuous
100
AcDbLine
 10
424.741122
 20
201.832647
 30
0.0
 11
424.539596
 21
202.3577449999999
 31
0.0
  0
LINE
  5
B184
330
AFFB
100
AcDbEntity
  8
1
  6
Continuous
100
AcDbLine
 10
424.539596
 20
202.3577449999999
 30
0.0
 11
424.3300099999998
 21
202.5746849999999
 31
0.0
  0
LINE
  5
B185
330
AFFB
100
AcDbEntity
  8
1
  6
Continuous
100
AcDbLine
 10
425.9224849999998
 20
202.6904379999999
 30
0.0
 11
426.139425
 21
202.900025
 31
0.0
  0
LINE
  5
B186
330
AFFB
100
AcDbEntity
  8
1
  6
Continuous
100
AcDbLine
 10
425.397388
 20
202.488913
 30
0.0
 11
425.9224849999998
 21
202.6904379999999
 31
0.0
  0
LINE
  5
B187
330
AFFB
100
AcDbEntity
  8
1
  6
Continuous
100
AcDbLine
 10
426.2551789999998
 20
202.3577449999999
 30
0.0
 11
426.464695
 21
202.574756
 31
0.0
  0
LINE
  5
B188
330
AFFB
100
AcDbEntity
  8
1
  6
Continuous
100
AcDbLine
 10
426.053653
 20
201.832647
 30
0.0
 11
426.2551079999998
 21
202.357674
 31
0.0
  0
LINE
  5
B189
330
AFFB
100
AcDbEntity
  8
1
  6
Continuous
100
AcDbLine
 10
427.8973169999998
 20
213.296547
 30
0.0
 11
427.8973169999998
 21
208.2965469999999
 31
0.0
  0
ARC
  5
B18A
330
AFFB
100
AcDbEntity
  8
1
  6
Continuous
100
AcDbCircle
 10
446.547317
 20
217.296547
 30
0.0
 40
1.0
100
AcDbArc
 50
180.0
 51
270.0
  0
CIRCLE
  5
B18B
330
AFFB
100
AcDbEntity
  8
1
  6
Continuous
100
AcDbCircle
 10
442.397317
 20
201.832647
 30
0.0
 40
2.6
  0
ARC
  5
B18C
330
AFFB
100
AcDbEntity
  8
1
  6
Continuous
100
AcDbCircle
 10
442.397317
 20
201.832647
 30
0.0
 40
1.3
100
AcDbArc
 50
304.8090000000001
 51
325.1909999999999
  0
ARC
  5
B18D
330
AFFB
100
AcDbEntity
  8
1
  6
Continuous
100
AcDbCircle
 10
442.397317
 20
201.832647
 30
0.0
 40
1.3
100
AcDbArc
 50
214.809
 51
235.1909999999999
  0
ARC
  5
B18E
330
AFFB
100
AcDbEntity
  8
1
  6
Continuous
100
AcDbCircle
 10
442.397317
 20
201.832647
 30
0.0
 40
1.3
100
AcDbArc
 50
124.8094
 51
145.1909999999998
  0
ARC
  5
B18F
330
AFFB
100
AcDbEntity
  8
1
  6
Continuous
100
AcDbCircle
 10
442.397317
 20
201.832647
 30
0.0
 40
1.3
100
AcDbArc
 50
34.809
 51
55.1906
  0
LINE
  5
B190
330
AFFB
100
AcDbEntity
  8
4
  6
CENTER
100
AcDbLine
 10
442.397317
 20
204.967747
 30
0.0
 11
442.397317
 21
198.828247
 31
0.0
  0
LINE
  5
B191
330
AFFB
100
AcDbEntity
  8
4
  6
CENTER
100
AcDbLine
 10
439.440117
 20
201.832647
 30
0.0
 11
445.3716169999998
 21
201.832647
 31
0.0
  0
LINE
  5
B192
330
AFFB
100
AcDbEntity
  8
1
  6
Continuous
100
AcDbLine
 10
442.397388
 20
201.176381
 30
0.0
 11
442.9224849999997
 21
200.9748559999999
 31
0.0
  0
LINE
  5
B193
330
AFFB
100
AcDbEntity
  8
1
  6
Continuous
100
AcDbLine
 10
442.9224849999997
 20
200.9748559999999
 30
0.0
 11
443.139425
 21
200.765269
 31
0.0
  0
LINE
  5
B194
330
AFFB
100
AcDbEntity
  8
1
  6
Continuous
100
AcDbLine
 10
443.053653
 20
201.832647
 30
0.0
 11
443.2551789999997
 21
201.3075499999999
 31
0.0
  0
LINE
  5
B195
330
AFFB
100
AcDbEntity
  8
1
  6
Continuous
100
AcDbLine
 10
443.2551789999997
 20
201.3075499999999
 30
0.0
 11
443.464695
 21
201.0905379999999
 31
0.0
  0
LINE
  5
B196
330
AFFB
100
AcDbEntity
  8
1
  6
Continuous
100
AcDbLine
 10
441.7411219999998
 20
201.832647
 30
0.0
 11
441.539596
 21
201.3075499999999
 31
0.0
  0
LINE
  5
B197
330
AFFB
100
AcDbEntity
  8
1
  6
Continuous
100
AcDbLine
 10
441.539596
 20
201.3075499999999
 30
0.0
 11
441.3299389999998
 21
201.0905379999999
 31
0.0
  0
LINE
  5
B198
330
AFFB
100
AcDbEntity
  8
1
  6
Continuous
100
AcDbLine
 10
442.397388
 20
201.176381
 30
0.0
 11
441.87229
 21
200.9748559999999
 31
0.0
  0
LINE
  5
B199
330
AFFB
100
AcDbEntity
  8
1
  6
Continuous
100
AcDbLine
 10
441.87229
 20
200.9748559999999
 30
0.0
 11
441.6552789999998
 21
200.7653399999999
 31
0.0
  0
LINE
  5
B19A
330
AFFB
100
AcDbEntity
  8
1
  6
Continuous
100
AcDbLine
 10
442.397388
 20
202.488913
 30
0.0
 11
441.87229
 21
202.6904379999999
 31
0.0
  0
LINE
  5
B19B
330
AFFB
100
AcDbEntity
  8
1
  6
Continuous
100
AcDbLine
 10
441.87229
 20
202.6904379999999
 30
0.0
 11
441.6552789999998
 21
202.899954
 31
0.0
  0
LINE
  5
B19C
330
AFFB
100
AcDbEntity
  8
1
  6
Continuous
100
AcDbLine
 10
441.7411219999998
 20
201.832647
 30
0.0
 11
441.539596
 21
202.3577449999999
 31
0.0
  0
LINE
  5
B19D
330
AFFB
100
AcDbEntity
  8
1
  6
Continuous
100
AcDbLine
 10
441.539596
 20
202.3577449999999
 30
0.0
 11
441.3300099999998
 21
202.5746849999999
 31
0.0
  0
LINE
  5
B19E
330
AFFB
100
AcDbEntity
  8
1
  6
Continuous
100
AcDbLine
 10
442.9224849999997
 20
202.6904379999999
 30
0.0
 11
443.139425
 21
202.900025
 31
0.0
  0
LINE
  5
B19F
330
AFFB
100
AcDbEntity
  8
1
  6
Continuous
100
AcDbLine
 10
442.397388
 20
202.488913
 30
0.0
 11
442.9224849999997
 21
202.6904379999999
 31
0.0
  0
LINE
  5
B1A0
330
AFFB
100
AcDbEntity
  8
1
  6
Continuous
100
AcDbLine
 10
443.2551789999997
 20
202.3577449999999
 30
0.0
 11
443.464695
 21
202.574756
 31
0.0
  0
LINE
  5
B1A1
330
AFFB
100
AcDbEntity
  8
1
  6
Continuous
100
AcDbLine
 10
443.053653
 20
201.832647
 30
0.0
 11
443.255108
 21
202.357674
 31
0.0
  0
LINE
  5
B1A2
330
AFFB
100
AcDbEntity
  8
1
  6
Continuous
100
AcDbLine
 10
439.8973169999998
 20
213.296547
 30
0.0
 11
439.8973169999998
 21
208.2965469999999
 31
0.0
  0
LINE
  5
B1A3
330
AFFB
100
AcDbEntity
  8
1
  6
Continuous
100
AcDbLine
 10
423.247317
 20
228.3326469999999
 30
0.0
 11
444.547317
 21
228.3326469999999
 31
0.0
  0
ARC
  5
B1A4
330
AFFB
100
AcDbEntity
  8
1
  6
Continuous
100
AcDbCircle
 10
423.247317
 20
227.332647
 30
0.0
 40
1.0
100
AcDbArc
 50
90.0
 51
180.0
  0
ARC
  5
B1A5
330
AFFB
100
AcDbEntity
  8
1
  6
Continuous
100
AcDbCircle
 10
418.147317
 20
238.332647
 30
0.0
 40
2.0
100
AcDbArc
 50
180.0
 51
270.0
  0
ARC
  5
B1A6
330
AFFB
100
AcDbEntity
  8
1
  6
Continuous
100
AcDbCircle
 10
444.547317
 20
227.332647
 30
0.0
 40
1.0
100
AcDbArc
 50
0.0
 51
90.0
  0
CIRCLE
  5
B1A7
330
AFFB
100
AcDbEntity
  8
1
  6
Continuous
100
AcDbCircle
 10
433.897317
 20
252.3326069999999
 30
0.0
 40
4.599999999999997
  0
CIRCLE
  5
B1A8
330
AFFB
100
AcDbEntity
  8
1
  6
Continuous
100
AcDbCircle
 10
433.897317
 20
252.3326069999999
 30
0.0
 40
4.5
  0
LINE
  5
B1A9
330
AFFB
100
AcDbEntity
  8
4
  6
CENTER
100
AcDbLine
 10
441.397317
 20
252.3326069999999
 30
0.0
 11
426.3973169999998
 21
252.3326069999999
 31
0.0
  0
LINE
  5
B1AA
330
AFFB
100
AcDbEntity
  8
1
  6
Continuous
100
AcDbLine
 10
434.918379
 20
252.3326069999999
 30
0.0
 11
435.146775
 21
252.961225
 31
0.0
  0
LINE
  5
B1AB
330
AFFB
100
AcDbEntity
  8
1
  6
Continuous
100
AcDbLine
 10
435.146775
 20
252.961225
 30
0.0
 11
435.9012569999999
 21
253.7425779999999
 31
0.0
  0
LINE
  5
B1AC
330
AFFB
100
AcDbEntity
  8
1
  6
Continuous
100
AcDbLine
 10
434.918379
 20
252.3326069999999
 30
0.0
 11
435.146775
 21
251.7039889999999
 31
0.0
  0
LINE
  5
B1AD
330
AFFB
100
AcDbEntity
  8
1
  6
Continuous
100
AcDbLine
 10
435.146775
 20
251.7039889999999
 30
0.0
 11
435.9012569999999
 21
250.9226359999999
 31
0.0
  0
ARC
  5
B1AE
330
AFFB
100
AcDbEntity
  8
1
  6
Continuous
100
AcDbCircle
 10
433.897317
 20
252.3326069999999
 30
0.0
 40
2.45
100
AcDbArc
 50
35.129
 51
54.87089
  0
ARC
  5
B1AF
330
AFFB
100
AcDbEntity
  8
1
  6
Continuous
100
AcDbCircle
 10
433.897317
 20
252.3326069999999
 30
0.0
 40
2.45
100
AcDbArc
 50
305.129
 51
324.8709999999999
  0
LINE
  5
B1B0
330
AFFB
100
AcDbEntity
  8
1
  6
Continuous
100
AcDbLine
 10
433.897317
 20
253.353669
 30
0.0
 11
434.5259349999998
 21
253.582065
 31
0.0
  0
LINE
  5
B1B1
330
AFFB
100
AcDbEntity
  8
1
  6
Continuous
100
AcDbLine
 10
433.897317
 20
253.353669
 30
0.0
 11
433.268699
 21
253.582065
 31
0.0
  0
LINE
  5
B1B2
330
AFFB
100
AcDbEntity
  8
1
  6
Continuous
100
AcDbLine
 10
432.876962
 20
252.333314
 30
0.0
 11
432.6478589999998
 21
252.961225
 31
0.0
  0
LINE
  5
B1B3
330
AFFB
100
AcDbEntity
  8
1
  6
Continuous
100
AcDbLine
 10
432.876962
 20
252.333314
 30
0.0
 11
432.6478589999998
 21
251.7039889999999
 31
0.0
  0
LINE
  5
B1B4
330
AFFB
100
AcDbEntity
  8
1
  6
Continuous
100
AcDbLine
 10
433.898024
 20
251.312252
 30
0.0
 11
433.268699
 21
251.083149
 31
0.0
  0
LINE
  5
B1B5
330
AFFB
100
AcDbEntity
  8
1
  6
Continuous
100
AcDbLine
 10
433.898024
 20
251.312252
 30
0.0
 11
434.5259349999998
 21
251.083149
 31
0.0
  0
ARC
  5
B1B6
330
AFFB
100
AcDbEntity
  8
1
  6
Continuous
100
AcDbCircle
 10
433.897317
 20
252.3326069999999
 30
0.0
 40
2.45
100
AcDbArc
 50
125.1291
 51
144.8709
  0
ARC
  5
B1B7
330
AFFB
100
AcDbEntity
  8
1
  6
Continuous
100
AcDbCircle
 10
433.897317
 20
252.3326069999999
 30
0.0
 40
2.45
100
AcDbArc
 50
215.1289999999999
 51
234.871
  0
LINE
  5
B1B8
330
AFFB
100
AcDbEntity
  8
1
  6
Continuous
100
AcDbLine
 10
433.268699
 20
253.582065
 30
0.0
 11
432.487346
 21
254.3365479999999
 31
0.0
  0
LINE
  5
B1B9
330
AFFB
100
AcDbEntity
  8
1
  6
Continuous
100
AcDbLine
 10
432.6478589999998
 20
252.961225
 30
0.0
 11
431.893376
 21
253.7425779999999
 31
0.0
  0
LINE
  5
B1BA
330
AFFB
100
AcDbEntity
  8
1
  6
Continuous
100
AcDbLine
 10
432.6478589999998
 20
251.7039889999999
 30
0.0
 11
431.893376
 21
250.9226359999999
 31
0.0
  0
LINE
  5
B1BB
330
AFFB
100
AcDbEntity
  8
1
  6
Continuous
100
AcDbLine
 10
433.268699
 20
251.083149
 30
0.0
 11
432.487346
 21
250.328666
 31
0.0
  0
LINE
  5
B1BC
330
AFFB
100
AcDbEntity
  8
1
  6
Continuous
100
AcDbLine
 10
434.5259349999998
 20
253.582065
 30
0.0
 11
435.307288
 21
254.3365479999999
 31
0.0
  0
LINE
  5
B1BD
330
AFFB
100
AcDbEntity
  8
1
  6
Continuous
100
AcDbLine
 10
434.5259349999998
 20
251.083149
 30
0.0
 11
435.307288
 21
250.328666
 31
0.0
  0
LINE
  5
B1BE
330
AFFB
100
AcDbEntity
  8
1
  6
Continuous
100
AcDbLine
 10
450.8973169999999
 20
236.7713469999999
 30
0.0
 11
450.8973169999999
 21
183.332647
 31
0.0
  0
LINE
  5
B1BF
330
AFFB
100
AcDbEntity
  8
1
  6
Continuous
100
AcDbLine
 10
447.997317
 20
236.332647
 30
0.0
 11
447.997317
 21
186.332647
 31
0.0
  0
LINE
  5
B1C0
330
AFFB
100
AcDbEntity
  8
1
  6
Continuous
100
AcDbLine
 10
446.8973169999999
 20
215.296547
 30
0.0
 11
446.8973169999999
 21
184.546547
 31
0.0
  0
ARC
  5
B1C1
330
AFFB
100
AcDbEntity
  8
1
  6
Continuous
100
AcDbCircle
 10
446.8973169999999
 20
183.332647
 30
0.0
 40
4.0
100
AcDbArc
 50
270.0
 51
0.0
  0
ARC
  5
B1C2
330
AFFB
100
AcDbEntity
  8
1
  6
Continuous
100
AcDbCircle
 10
446.997317
 20
215.296547
 30
0.0
 40
1.0
100
AcDbArc
 50
0.0
 51
90.0
  0
ARC
  5
B1C3
330
AFFB
100
AcDbEntity
  8
1
  6
Continuous
100
AcDbCircle
 10
449.6473169999998
 20
238.332647
 30
0.0
 40
2.0
100
AcDbArc
 50
270.0
 51
0.0
  0
ARC
  5
B1C4
330
AFFB
100
AcDbEntity
  8
1
  6
Continuous
100
AcDbCircle
 10
433.897317
 20
283.332647
 30
0.0
 40
13.0
100
AcDbArc
 50
210.0
 51
60.0
  0
ARC
  5
B1C5
330
AFFB
100
AcDbEntity
  8
1
  6
Continuous
100
AcDbCircle
 10
445.997317
 20
296.332647
 30
0.0
 40
2.0
100
AcDbArc
 50
0.0
 51
90.0
  0
CIRCLE
  5
B1C6
330
AFFB
100
AcDbEntity
  8
1
  6
Continuous
100
AcDbCircle
 10
433.897317
 20
283.332647
 30
0.0
 40
14.1
  0
LINE
  5
B1C7
330
AFFB
100
AcDbEntity
  8
1
  6
Continuous
100
AcDbLine
 10
449.6473169999998
 20
268.332647
 30
0.0
 11
418.147317
 21
268.332647
 31
0.0
  0
LINE
  5
B1C8
330
AFFB
100
AcDbEntity
  8
1
  6
Continuous
100
AcDbLine
 10
420.897317
 20
303.3326469999999
 30
0.0
 11
446.8973169999999
 21
303.3326469999999
 31
0.0
  0
LINE
  5
B1C9
330
AFFB
100
AcDbEntity
  8
1
  6
Continuous
100
AcDbLine
 10
438.8973169999998
 20
280.445647
 30
0.0
 11
438.8973169999998
 21
286.219647
 31
0.0
  0
LINE
  5
B1CA
330
AFFB
100
AcDbEntity
  8
1
  6
Continuous
100
AcDbLine
 10
433.9002809999998
 20
284.817377
 30
0.0
 11
435.2508079999998
 21
286.1215649999999
 31
0.0
  0
LINE
  5
B1CB
330
AFFB
100
AcDbEntity
  8
1
  6
Continuous
100
AcDbLine
 10
432.5438259999998
 20
286.1215649999999
 30
0.0
 11
433.8943519999999
 21
284.817377
 31
0.0
  0
ARC
  5
B1CC
330
AFFB
100
AcDbEntity
  8
1
  6
Continuous
100
AcDbCircle
 10
433.897317
 20
283.332647
 30
0.0
 40
3.1
100
AcDbArc
 50
115.8877849999999
 51
154.1122149999999
  0
LINE
  5
B1CD
330
AFFB
100
AcDbEntity
  8
1
  6
Continuous
100
AcDbLine
 10
428.897317
 20
280.445647
 30
0.0
 11
428.897317
 21
286.219647
 31
0.0
  0
CIRCLE
  5
B1CE
330
AFFB
100
AcDbEntity
  8
1
  6
Continuous
100
AcDbCircle
 10
433.897317
 20
283.332647
 30
0.0
 40
5.0
  0
CIRCLE
  5
B1CF
330
AFFB
100
AcDbEntity
  8
1
  6
Continuous
100
AcDbCircle
 10
433.897317
 20
283.332647
 30
0.0
 40
4.049999999999998
  0
ARC
  5
B1D0
330
AFFB
100
AcDbEntity
  8
1
  6
Continuous
100
AcDbCircle
 10
433.897317
 20
283.332647
 30
0.0
 40
3.1
100
AcDbArc
 50
25.887785
 51
64.112215
  0
CIRCLE
  5
B1D1
330
AFFB
100
AcDbEntity
  8
1
  6
Continuous
100
AcDbCircle
 10
433.897317
 20
283.332647
 30
0.0
 40
8.0
  0
CIRCLE
  5
B1D2
330
AFFB
100
AcDbEntity
  8
1
  6
Continuous
100
AcDbCircle
 10
433.897317
 20
283.332647
 30
0.0
 40
11.0
  0
CIRCLE
  5
B1D3
330
AFFB
100
AcDbEntity
  8
1
  6
Continuous
100
AcDbCircle
 10
433.897317
 20
283.332647
 30
0.0
 40
6.099999999999997
  0
ARC
  5
B1D4
330
AFFB
100
AcDbEntity
  8
1
  6
Continuous
100
AcDbCircle
 10
433.897317
 20
283.332647
 30
0.0
 40
12.05
100
AcDbArc
 50
119.9999999999999
 51
210.0
  0
LINE
  5
B1D5
330
AFFB
100
AcDbEntity
  8
1
  6
Continuous
100
AcDbLine
 10
419.797317
 20
296.332647
 30
0.0
 11
419.797317
 21
268.332647
 31
0.0
  0
LINE
  5
B1D6
330
AFFB
100
AcDbEntity
  8
1
  6
Continuous
100
AcDbLine
 10
416.897317
 20
299.3326469999999
 30
0.0
 11
416.897317
 21
267.8938469999998
 31
0.0
  0
LINE
  5
B1D7
330
AFFB
100
AcDbEntity
  8
1
  6
Continuous
100
AcDbLine
 10
428.897317
 20
280.445647
 30
0.0
 11
433.897317
 21
277.5586469999999
 31
0.0
  0
LINE
  5
B1D8
330
AFFB
100
AcDbEntity
  8
1
  6
Continuous
100
AcDbLine
 10
423.247317
 20
269.2326469999999
 30
0.0
 11
444.547317
 21
269.2326469999999
 31
0.0
  0
ARC
  5
B1D9
330
AFFB
100
AcDbEntity
  8
1
  6
Continuous
100
AcDbCircle
 10
418.147317
 20
266.332607
 30
0.0
 40
2.0
100
AcDbArc
 50
90.0
 51
180.0
  0
ARC
  5
B1DA
330
AFFB
100
AcDbEntity
  8
1
  6
Continuous
100
AcDbCircle
 10
423.247317
 20
270.232647
 30
0.0
 40
1.0
100
AcDbArc
 50
180.0
 51
270.0
  0
LINE
  5
B1DB
330
AFFB
100
AcDbEntity
  8
1
  6
Continuous
100
AcDbLine
 10
424.371049
 20
277.8326269999999
 30
0.0
 11
422.639017
 21
276.832647
 31
0.0
  0
LINE
  5
B1DC
330
AFFB
100
AcDbEntity
  8
1
  6
Continuous
100
AcDbLine
 10
422.2473169999998
 20
275.3898469999999
 30
0.0
 11
422.2473169999998
 21
268.332647
 31
0.0
  0
LINE
  5
B1DD
330
AFFB
100
AcDbEntity
  8
1
  6
Continuous
100
AcDbLine
 10
433.897317
 20
284.8164699999998
 30
0.0
 11
433.8943519999999
 21
284.817377
 31
0.0
  0
LINE
  5
B1DE
330
AFFB
100
AcDbEntity
  8
1
  6
Continuous
100
AcDbLine
 10
433.897317
 20
284.8164699999998
 30
0.0
 11
433.9002809999998
 21
284.817377
 31
0.0
  0
LINE
  5
B1DF
330
AFFB
100
AcDbEntity
  8
1
  6
Continuous
100
AcDbLine
 10
435.2508079999998
 20
280.543729
 30
0.0
 11
433.9002809999998
 21
281.8479169999998
 31
0.0
  0
LINE
  5
B1E0
330
AFFB
100
AcDbEntity
  8
1
  6
Continuous
100
AcDbLine
 10
435.38114
 20
283.332647
 30
0.0
 11
435.382046
 21
283.335612
 31
0.0
  0
LINE
  5
B1E1
330
AFFB
100
AcDbEntity
  8
1
  6
Continuous
100
AcDbLine
 10
435.38114
 20
283.332647
 30
0.0
 11
435.382046
 21
283.329682
 31
0.0
  0
LINE
  5
B1E2
330
AFFB
100
AcDbEntity
  8
1
  6
Continuous
100
AcDbLine
 10
433.897317
 20
281.8488239999999
 30
0.0
 11
433.9002809999998
 21
281.8479169999998
 31
0.0
  0
LINE
  5
B1E3
330
AFFB
100
AcDbEntity
  8
1
  6
Continuous
100
AcDbLine
 10
433.897317
 20
281.8488239999999
 30
0.0
 11
433.8943519999999
 21
281.8479169999998
 31
0.0
  0
LINE
  5
B1E4
330
AFFB
100
AcDbEntity
  8
1
  6
Continuous
100
AcDbLine
 10
432.413494
 20
283.332647
 30
0.0
 11
432.4125869999998
 21
283.329682
 31
0.0
  0
LINE
  5
B1E5
330
AFFB
100
AcDbEntity
  8
1
  6
Continuous
100
AcDbLine
 10
432.413494
 20
283.332647
 30
0.0
 11
432.4125869999998
 21
283.335612
 31
0.0
  0
LINE
  5
B1E6
330
AFFB
100
AcDbEntity
  8
1
  6
Continuous
100
AcDbLine
 10
433.8943519999999
 20
281.8479169999998
 30
0.0
 11
432.5438259999998
 21
280.543729
 31
0.0
  0
ARC
  5
B1E7
330
AFFB
100
AcDbEntity
  8
1
  6
Continuous
100
AcDbCircle
 10
433.897317
 20
283.332647
 30
0.0
 40
3.1
100
AcDbArc
 50
205.887785
 51
244.112215
  0
LINE
  5
B1E8
330
AFFB
100
AcDbEntity
  8
1
  6
Continuous
100
AcDbLine
 10
432.4125869999998
 20
283.329682
 30
0.0
 11
431.108399
 21
281.979156
 31
0.0
  0
LINE
  5
B1E9
330
AFFB
100
AcDbEntity
  8
1
  6
Continuous
100
AcDbLine
 10
431.108399
 20
284.6861379999999
 30
0.0
 11
432.4125869999998
 21
283.335612
 31
0.0
  0
LINE
  5
B1EA
330
AFFB
100
AcDbEntity
  8
1
  6
Continuous
100
AcDbLine
 10
438.8973169999998
 20
280.445647
 30
0.0
 11
433.897317
 21
277.5586469999999
 31
0.0
  0
ARC
  5
B1EB
330
AFFB
100
AcDbEntity
  8
1
  6
Continuous
100
AcDbCircle
 10
433.897317
 20
283.332647
 30
0.0
 40
3.1
100
AcDbArc
 50
295.887785
 51
334.1122149999999
  0
LINE
  5
B1EC
330
AFFB
100
AcDbEntity
  8
1
  6
Continuous
100
AcDbLine
 10
436.6862349999998
 20
281.979156
 30
0.0
 11
435.382046
 21
283.329682
 31
0.0
  0
LINE
  5
B1ED
330
AFFB
100
AcDbEntity
  8
1
  6
Continuous
100
AcDbLine
 10
435.382046
 20
283.335612
 30
0.0
 11
436.6862349999998
 21
284.6861379999999
 31
0.0
  0
ARC
  5
B1EE
330
AFFB
100
AcDbEntity
  8
1
  6
Continuous
100
AcDbCircle
 10
444.547317
 20
270.232647
 30
0.0
 40
1.0
100
AcDbArc
 50
270.0
 51
0.0
  0
LINE
  5
B1EF
330
AFFB
100
AcDbEntity
  8
1
  6
Continuous
100
AcDbLine
 10
445.547317
 20
275.3898469999999
 30
0.0
 11
445.547317
 21
268.332647
 31
0.0
  0
LINE
  5
B1F0
330
AFFB
100
AcDbEntity
  8
1
  6
Continuous
100
AcDbLine
 10
433.897317
 20
289.1056469999999
 30
0.0
 11
428.897317
 21
286.219647
 31
0.0
  0
LINE
  5
B1F1
330
AFFB
100
AcDbEntity
  8
1
  6
Continuous
100
AcDbLine
 10
421.797317
 20
298.332647
 30
0.0
 11
445.997317
 21
298.332647
 31
0.0
  0
ARC
  5
B1F2
330
AFFB
100
AcDbEntity
  8
1
  6
Continuous
100
AcDbCircle
 10
421.797317
 20
296.332647
 30
0.0
 40
2.0
100
AcDbArc
 50
90.0
 51
180.0
  0
ARC
  5
B1F3
330
AFFB
100
AcDbEntity
  8
1
  6
Continuous
100
AcDbCircle
 10
420.897317
 20
299.3326469999999
 30
0.0
 40
4.0
100
AcDbArc
 50
90.0
 51
180.0
  0
LINE
  5
B1F4
330
AFFB
100
AcDbEntity
  8
1
  6
Continuous
100
AcDbLine
 10
428.3972949999999
 20
292.8589140000001
 30
0.0
 11
426.847317
 21
295.5435469999999
 31
0.0
  0
LINE
  5
B1F5
330
AFFB
100
AcDbEntity
  8
1
  6
Continuous
100
AcDbLine
 10
433.897317
 20
289.1056469999999
 30
0.0
 11
438.8973169999998
 21
286.219647
 31
0.0
  0
LINE
  5
B1F6
330
AFFB
100
AcDbEntity
  8
1
  6
Continuous
100
AcDbLine
 10
439.397341
 20
292.8589129999998
 30
0.0
 11
440.947317
 21
295.5435469999999
 31
0.0
  0
LINE
  5
B1F7
330
AFFB
100
AcDbEntity
  8
1
  6
Continuous
100
AcDbLine
 10
447.997317
 20
296.332647
 30
0.0
 11
447.997317
 21
268.332647
 31
0.0
  0
LINE
  5
B1F8
330
AFFB
100
AcDbEntity
  8
1
  6
Continuous
100
AcDbLine
 10
450.8973169999999
 20
299.3326469999999
 30
0.0
 11
450.8973169999999
 21
267.8938469999998
 31
0.0
  0
ARC
  5
B1F9
330
AFFB
100
AcDbEntity
  8
1
  6
Continuous
100
AcDbCircle
 10
449.6473169999998
 20
266.332607
 30
0.0
 40
2.0
100
AcDbArc
 50
0.0
 51
90.0
  0
ARC
  5
B1FA
330
AFFB
100
AcDbEntity
  8
1
  6
Continuous
100
AcDbCircle
 10
446.8973169999999
 20
299.3326469999999
 30
0.0
 40
4.0
100
AcDbArc
 50
0.0
 51
90.0
  0
LINE
  5
B1FB
330
AFFB
100
AcDbEntity
  8
4
  6
CENTER
100
AcDbLine
 10
257.590017
 20
419.5643269999997
 30
0.0
 11
242.4900169999999
 21
419.5643269999997
 31
0.0
  0
LINE
  5
B1FC
330
AFFB
100
AcDbEntity
  8
1
  6
Continuous
100
AcDbLine
 10
188.5472169999999
 20
436.5643269999998
 30
0.0
 11
192.047217
 21
436.5643269999998
 31
0.0
  0
LINE
  5
B1FD
330
AFFB
100
AcDbEntity
  8
1
  6
Continuous
100
AcDbLine
 10
188.5472169999999
 20
402.5643269999997
 30
0.0
 11
192.047217
 21
402.5643269999997
 31
0.0
  0
LINE
  5
B1FE
330
AFFB
100
AcDbEntity
  8
4
  6
CENTER
100
AcDbLine
 10
182.6475169999999
 20
419.5643269999997
 30
0.0
 11
229.047517
 21
419.5643269999997
 31
0.0
  0
ARC
  5
B1FF
330
AFFB
100
AcDbEntity
  8
1
  6
Continuous
100
AcDbCircle
 10
285.6475169999999
 20
419.5643269999997
 30
0.0
 40
100.0
100
AcDbArc
 50
175.452076
 51
184.5479239999999
  0
LINE
  5
B200
330
AFFB
100
AcDbEntity
  8
1
  6
Continuous
100
AcDbLine
 10
191.047217
 20
436.5643269999998
 30
0.0
 11
191.047217
 21
402.5643269999997
 31
0.0
  0
LINE
  5
B201
330
AFFB
100
AcDbEntity
  8
1
  6
Continuous
100
AcDbLine
 10
188.5472169999999
 20
436.5643269999998
 30
0.0
 11
188.5472169999999
 21
402.5643269999997
 31
0.0
  0
LINE
  5
B202
330
AFFB
100
AcDbEntity
  8
1
  6
Continuous
100
AcDbLine
 10
186.0472169999999
 20
428.5643269999998
 30
0.0
 11
186.0472169999999
 21
410.5643269999998
 31
0.0
  0
ARC
  5
B203
330
AFFB
100
AcDbEntity
  8
1
  6
Continuous
100
AcDbCircle
 10
186.9592319999999
 20
411.714327
 30
0.0
 40
1.0
100
AcDbArc
 50
184.5479239999999
 51
204.2146199999999
  0
LINE
  5
B204
330
AFFB
100
AcDbEntity
  8
1
  6
Continuous
100
AcDbLine
 10
186.0472169999999
 20
410.5643269999998
 30
0.0
 11
188.5472169999999
 21
402.5643269999997
 31
0.0
  0
ARC
  5
B205
330
AFFB
100
AcDbEntity
  8
1
  6
Continuous
100
AcDbCircle
 10
186.9592319999999
 20
427.4143269999998
 30
0.0
 40
1.0
100
AcDbArc
 50
155.78538
 51
175.452076
  0
LINE
  5
B206
330
AFFB
100
AcDbEntity
  8
1
  6
Continuous
100
AcDbLine
 10
188.5472169999999
 20
436.5643269999998
 30
0.0
 11
186.0472169999999
 21
428.5643269999998
 31
0.0
  0
LINE
  5
B207
330
AFFB
100
AcDbEntity
  8
2
  6
Continuous
100
AcDbLine
 10
222.0475169999999
 20
417.207327
 30
0.0
 11
226.0475169999998
 21
412.493327
 31
0.0
  0
LINE
  5
B208
330
AFFB
100
AcDbEntity
  8
2
  6
Continuous
100
AcDbLine
 10
226.0475169999998
 20
419.5643269999997
 30
0.0
 11
222.0475169999999
 21
414.8503269999998
 31
0.0
  0
LINE
  5
B209
330
AFFB
100
AcDbEntity
  8
2
  6
Continuous
100
AcDbLine
 10
226.0475169999998
 20
426.6353269999998
 30
0.0
 11
222.0475169999999
 21
421.921327
 31
0.0
  0
LINE
  5
B20A
330
AFFB
100
AcDbEntity
  8
2
  6
Continuous
100
AcDbLine
 10
222.0475169999999
 20
424.2783269999998
 30
0.0
 11
226.0475169999998
 21
419.5643269999997
 31
0.0
  0
LINE
  5
B20B
330
AFFB
100
AcDbEntity
  8
1
  6
Continuous
100
AcDbLine
 10
222.0475169999999
 20
419.5643269999997
 30
0.0
 11
226.0475169999998
 21
419.5643269999997
 31
0.0
  0
LINE
  5
B20C
330
AFFB
100
AcDbEntity
  8
1
  6
Continuous
100
AcDbLine
 10
222.0475169999999
 20
426.6353269999998
 30
0.0
 11
226.0475169999998
 21
426.6353269999998
 31
0.0
  0
LINE
  5
B20D
330
AFFB
100
AcDbEntity
  8
1
  6
Continuous
100
AcDbLine
 10
222.0475169999999
 20
412.493327
 30
0.0
 11
226.0475169999998
 21
412.493327
 31
0.0
  0
LINE
  5
B20E
330
AFFB
100
AcDbEntity
  8
1
  6
Continuous
100
AcDbLine
 10
221.847517
 20
426.6143269999998
 30
0.0
 11
221.847517
 21
412.5143269999998
 31
0.0
  0
LINE
  5
B20F
330
AFFB
100
AcDbEntity
  8
1
  6
Continuous
100
AcDbLine
 10
192.047217
 20
436.5643269999998
 30
0.0
 11
192.047217
 21
402.5643269999997
 31
0.0
  0
LINE
  5
B210
330
AFFB
100
AcDbEntity
  8
1
  6
Continuous
100
AcDbLine
 10
194.0472169999999
 20
432.6393269999998
 30
0.0
 11
194.0472169999999
 21
406.489727
 31
0.0
  0
LINE
  5
B211
330
AFFB
100
AcDbEntity
  8
1
  6
Continuous
100
AcDbLine
 10
222.0475169999999
 20
432.5643269999998
 30
0.0
 11
222.0475169999999
 21
408.3060269999998
 31
0.0
  0
LINE
  5
B212
330
AFFB
100
AcDbEntity
  8
1
  6
Continuous
100
AcDbLine
 10
205.0472169999999
 20
412.5143269999998
 30
0.0
 11
221.847517
 21
412.5143269999998
 31
0.0
  0
LINE
  5
B213
330
AFFB
100
AcDbEntity
  8
1
  6
Continuous
100
AcDbLine
 10
205.0472169999999
 20
407.5143269999998
 30
0.0
 11
218.8475169999999
 21
407.5143269999998
 31
0.0
  0
ARC
  5
B214
330
AFFB
100
AcDbEntity
  8
1
  6
Continuous
100
AcDbCircle
 10
193.0472169999999
 20
406.489727
 30
0.0
 40
1.0
100
AcDbArc
 50
271.432
 51
0.0
  0
ARC
  5
B215
330
AFFB
100
AcDbEntity
  8
1
  6
Continuous
100
AcDbCircle
 10
204.047217
 20
406.789727
 30
0.0
 40
1.0
100
AcDbArc
 50
271.432
 51
0.0
  0
LINE
  5
B216
330
AFFB
100
AcDbEntity
  8
1
  6
Continuous
100
AcDbLine
 10
205.0472169999999
 20
412.5143269999998
 30
0.0
 11
205.0472169999999
 21
406.789727
 31
0.0
  0
LINE
  5
B217
330
AFFB
100
AcDbEntity
  8
1
  6
Continuous
100
AcDbLine
 10
192.047217
 20
405.464327
 30
0.0
 11
204.072217
 21
405.790027
 31
0.0
  0
LINE
  5
B218
330
AFFB
100
AcDbEntity
  8
1
  6
Continuous
100
AcDbLine
 10
219.847517
 20
412.364327
 30
0.0
 11
220.047517
 21
412.364327
 31
0.0
  0
LINE
  5
B219
330
AFFB
100
AcDbEntity
  8
1
  6
Continuous
100
AcDbLine
 10
219.847517
 20
408.5143269999998
 30
0.0
 11
219.847517
 21
412.5143269999998
 31
0.0
  0
ARC
  5
B21A
330
AFFB
100
AcDbEntity
  8
1
  6
Continuous
100
AcDbCircle
 10
218.8475169999999
 20
408.5143269999998
 30
0.0
 40
1.0
100
AcDbArc
 50
270.0
 51
0.0
  0
LINE
  5
B21B
330
AFFB
100
AcDbEntity
  8
1
  6
Continuous
100
AcDbLine
 10
220.047517
 20
409.564327
 30
0.0
 11
222.0475169999999
 21
409.564327
 31
0.0
  0
LINE
  5
B21C
330
AFFB
100
AcDbEntity
  8
1
  6
Continuous
100
AcDbLine
 10
220.047517
 20
408.3060269999998
 30
0.0
 11
222.0475169999999
 21
408.3060269999998
 31
0.0
  0
LINE
  5
B21D
330
AFFB
100
AcDbEntity
  8
1
  6
Continuous
100
AcDbLine
 10
220.047517
 20
412.5143269999998
 30
0.0
 11
220.047517
 21
408.3060269999998
 31
0.0
  0
LINE
  5
B21E
330
AFFB
100
AcDbEntity
  8
1
  6
Continuous
100
AcDbLine
 10
205.0472169999999
 20
426.6143269999998
 30
0.0
 11
221.847517
 21
426.6143269999998
 31
0.0
  0
LINE
  5
B21F
330
AFFB
100
AcDbEntity
  8
1
  6
Continuous
100
AcDbLine
 10
205.0472169999999
 20
431.6143269999998
 30
0.0
 11
218.8475169999999
 21
431.6143269999998
 31
0.0
  0
ARC
  5
B220
330
AFFB
100
AcDbEntity
  8
1
  6
Continuous
100
AcDbCircle
 10
193.0472169999999
 20
432.6393269999998
 30
0.0
 40
1.0
100
AcDbArc
 50
0.0
 51
88.56789999999998
  0
ARC
  5
B221
330
AFFB
100
AcDbEntity
  8
1
  6
Continuous
100
AcDbCircle
 10
204.047217
 20
432.3393269999998
 30
0.0
 40
1.0
100
AcDbArc
 50
0.0
 51
88.56789999999998
  0
LINE
  5
B222
330
AFFB
100
AcDbEntity
  8
1
  6
Continuous
100
AcDbLine
 10
192.047217
 20
433.6643269999998
 30
0.0
 11
204.072217
 21
433.3383269999997
 31
0.0
  0
LINE
  5
B223
330
AFFB
100
AcDbEntity
  8
1
  6
Continuous
100
AcDbLine
 10
205.0472169999999
 20
432.3393269999998
 30
0.0
 11
205.0472169999999
 21
426.6143269999998
 31
0.0
  0
LINE
  5
B224
330
AFFB
100
AcDbEntity
  8
1
  6
Continuous
100
AcDbLine
 10
219.847517
 20
426.7643269999998
 30
0.0
 11
220.047517
 21
426.7643269999998
 31
0.0
  0
LINE
  5
B225
330
AFFB
100
AcDbEntity
  8
1
  6
Continuous
100
AcDbLine
 10
219.847517
 20
430.6143269999998
 30
0.0
 11
219.847517
 21
426.6143269999998
 31
0.0
  0
ARC
  5
B226
330
AFFB
100
AcDbEntity
  8
1
  6
Continuous
100
AcDbCircle
 10
218.8475169999999
 20
430.6143269999998
 30
0.0
 40
1.0
100
AcDbArc
 50
0.0
 51
90.0
  0
LINE
  5
B227
330
AFFB
100
AcDbEntity
  8
1
  6
Continuous
100
AcDbLine
 10
220.047517
 20
432.5643269999998
 30
0.0
 11
222.0475169999999
 21
432.5643269999998
 31
0.0
  0
LINE
  5
B228
330
AFFB
100
AcDbEntity
  8
1
  6
Continuous
100
AcDbLine
 10
220.047517
 20
432.5643269999998
 30
0.0
 11
220.047517
 21
426.6143269999998
 31
0.0
  0
ARC
  5
B229
330
AFFB
100
AcDbEntity
  8
1
  6
Continuous
100
AcDbCircle
 10
247.3647249999999
 20
417.064327
 30
0.0
 40
7.225291999999997
100
AcDbArc
 50
339.756734
 51
20.24326599999999
  0
LINE
  5
B22A
330
AFFB
100
AcDbEntity
  8
1
  6
Continuous
100
AcDbLine
 10
254.5900169999999
 20
424.5643269999998
 30
0.0
 11
254.5900169999999
 21
414.5643269999998
 31
0.0
  0
ARC
  5
B22B
330
AFFB
100
AcDbEntity
  8
1
  6
Continuous
100
AcDbCircle
 10
257.815309
 20
417.064327
 30
0.0
 40
7.225291999999997
100
AcDbArc
 50
159.7567339999999
 51
200.243266
  0
LINE
  5
B22C
330
AFFB
100
AcDbEntity
  8
1
  6
Continuous
100
AcDbLine
 10
226.0475169999998
 20
426.6353269999998
 30
0.0
 11
226.0475169999998
 21
412.493327
 31
0.0
  0
LINE
  5
B22D
330
AFFB
100
AcDbEntity
  8
1
  6
Continuous
100
AcDbLine
 10
245.490017
 20
430.5643269999998
 30
0.0
 11
245.490017
 21
408.564327
 31
0.0
  0
LINE
  5
B22E
330
AFFB
100
AcDbEntity
  8
1
  6
Continuous
100
AcDbLine
 10
247.490017
 20
430.5643269999998
 30
0.0
 11
247.490017
 21
408.564327
 31
0.0
  0
LINE
  5
B22F
330
AFFB
100
AcDbEntity
  8
1
  6
Continuous
100
AcDbLine
 10
249.0900169999999
 20
411.5643269999997
 30
0.0
 11
249.0900169999999
 21
427.5643269999997
 31
0.0
  0
LINE
  5
B230
330
AFFB
100
AcDbEntity
  8
1
  6
Continuous
100
AcDbLine
 10
250.5900169999999
 20
413.464327
 30
0.0
 11
250.5900169999999
 21
425.6643269999998
 31
0.0
  0
LINE
  5
B231
330
AFFB
100
AcDbEntity
  8
1
  6
Continuous
100
AcDbLine
 10
254.5900169999999
 20
414.5643269999998
 30
0.0
 11
250.5900169999999
 21
414.5643269999998
 31
0.0
  0
LINE
  5
B232
330
AFFB
100
AcDbEntity
  8
1
  6
Continuous
100
AcDbLine
 10
247.490017
 20
408.564327
 30
0.0
 11
245.490017
 21
408.564327
 31
0.0
  0
LINE
  5
B233
330
AFFB
100
AcDbEntity
  8
1
  6
Continuous
100
AcDbLine
 10
249.0900169999999
 20
411.5643269999997
 30
0.0
 11
247.490017
 21
411.5643269999997
 31
0.0
  0
LINE
  5
B234
330
AFFB
100
AcDbEntity
  8
1
  6
Continuous
100
AcDbLine
 10
250.5900169999999
 20
413.464327
 30
0.0
 11
249.0900169999999
 21
413.464327
 31
0.0
  0
LINE
  5
B235
330
AFFB
100
AcDbEntity
  8
1
  6
Continuous
100
AcDbLine
 10
249.0900169999999
 20
418.064327
 30
0.0
 11
250.5900169999999
 21
419.5643269999997
 31
0.0
  0
LINE
  5
B236
330
AFFB
100
AcDbEntity
  8
1
  6
Continuous
100
AcDbLine
 10
249.0900169999999
 20
419.5643269999997
 30
0.0
 11
250.5900169999999
 21
421.0643269999998
 31
0.0
  0
ARC
  5
B237
330
AFFB
100
AcDbEntity
  8
1
  6
Continuous
100
AcDbCircle
 10
247.3647249999999
 20
422.0643269999998
 30
0.0
 40
7.225291999999997
100
AcDbArc
 50
339.756734
 51
20.24326599999999
  0
ARC
  5
B238
330
AFFB
100
AcDbEntity
  8
1
  6
Continuous
100
AcDbCircle
 10
257.815309
 20
422.0643269999998
 30
0.0
 40
7.225291999999997
100
AcDbArc
 50
159.7567339999999
 51
200.243266
  0
LINE
  5
B239
330
AFFB
100
AcDbEntity
  8
1
  6
Continuous
100
AcDbLine
 10
254.5900169999999
 20
424.5643269999998
 30
0.0
 11
250.5900169999999
 21
424.5643269999998
 31
0.0
  0
LINE
  5
B23A
330
AFFB
100
AcDbEntity
  8
1
  6
Continuous
100
AcDbLine
 10
251.0363089999999
 20
419.5643269999997
 30
0.0
 11
254.1437249999999
 21
419.5643269999997
 31
0.0
  0
LINE
  5
B23B
330
AFFB
100
AcDbEntity
  8
1
  6
Continuous
100
AcDbLine
 10
247.490017
 20
430.5643269999998
 30
0.0
 11
245.490017
 21
430.5643269999998
 31
0.0
  0
LINE
  5
B23C
330
AFFB
100
AcDbEntity
  8
1
  6
Continuous
100
AcDbLine
 10
249.0900169999999
 20
427.5643269999997
 30
0.0
 11
247.490017
 21
427.5643269999997
 31
0.0
  0
LINE
  5
B23D
330
AFFB
100
AcDbEntity
  8
1
  6
Continuous
100
AcDbLine
 10
250.5900169999999
 20
425.6643269999998
 30
0.0
 11
249.0900169999999
 21
425.6643269999998
 31
0.0
  0
LINE
  5
B23E
330
AFFB
100
AcDbEntity
  8
1
  6
Continuous
100
AcDbLine
 10
280.0396169999999
 20
433.3143269999998
 30
0.0
 11
287.739617
 21
433.3143269999998
 31
0.0
  0
LINE
  5
B23F
330
AFFB
100
AcDbEntity
  8
1
  6
Continuous
100
AcDbLine
 10
280.0396169999999
 20
405.814327
 30
0.0
 11
287.739617
 21
405.814327
 31
0.0
  0
LINE
  5
B240
330
AFFB
100
AcDbEntity
  8
1
  6
Continuous
100
AcDbLine
 10
280.0396169999999
 20
431.3143269999998
 30
0.0
 11
287.739617
 21
431.3143269999998
 31
0.0
  0
LINE
  5
B241
330
AFFB
100
AcDbEntity
  8
1
  6
Continuous
100
AcDbLine
 10
280.0396169999999
 20
407.8143269999998
 30
0.0
 11
287.739617
 21
407.8143269999998
 31
0.0
  0
LINE
  5
B242
330
AFFB
100
AcDbEntity
  8
4
  6
CENTER
100
AcDbLine
 10
284.375007
 20
419.5643269999997
 30
0.0
 11
297.339617
 21
419.5643269999997
 31
0.0
  0
ARC
  5
B243
330
AFFB
100
AcDbEntity
  8
1
  6
Continuous
100
AcDbCircle
 10
280.0396169999999
 20
405.814327
 30
0.0
 40
2.0
100
AcDbArc
 50
90.0
 51
180.0
  0
LINE
  5
B244
330
AFFB
100
AcDbEntity
  8
1
  6
Continuous
100
AcDbLine
 10
280.0396169999999
 20
405.814327
 30
0.0
 11
280.0396169999999
 21
401.814327
 31
0.0
  0
LINE
  5
B245
330
AFFB
100
AcDbEntity
  8
1
  6
Continuous
100
AcDbLine
 10
278.0396169999999
 20
405.814327
 30
0.0
 11
278.0396169999999
 21
401.814327
 31
0.0
  0
LINE
  5
B246
330
AFFB
100
AcDbEntity
  8
1
  6
Continuous
100
AcDbLine
 10
278.0396169999999
 20
401.814327
 30
0.0
 11
280.0396169999999
 21
401.814327
 31
0.0
  0
ARC
  5
B247
330
AFFB
100
AcDbEntity
  8
1
  6
Continuous
100
AcDbCircle
 10
280.0396169999999
 20
433.3143269999998
 30
0.0
 40
2.0
100
AcDbArc
 50
180.0
 51
270.0
  0
LINE
  5
B248
330
AFFB
100
AcDbEntity
  8
1
  6
Continuous
100
AcDbLine
 10
280.0396169999999
 20
437.3143269999998
 30
0.0
 11
280.0396169999999
 21
433.3143269999998
 31
0.0
  0
LINE
  5
B249
330
AFFB
100
AcDbEntity
  8
1
  6
Continuous
100
AcDbLine
 10
278.0396169999999
 20
437.3143269999998
 30
0.0
 11
280.0396169999999
 21
437.3143269999998
 31
0.0
  0
LINE
  5
B24A
330
AFFB
100
AcDbEntity
  8
1
  6
Continuous
100
AcDbLine
 10
278.0396169999999
 20
437.3143269999998
 30
0.0
 11
278.0396169999999
 21
433.3143269999998
 31
0.0
  0
LINE
  5
B24B
330
AFFB
100
AcDbEntity
  8
1
  6
Continuous
100
AcDbLine
 10
291.0396169999998
 20
424.1643269999998
 30
0.0
 11
291.0396169999998
 21
414.964327
 31
0.0
  0
ARC
  5
B24C
330
AFFB
100
AcDbEntity
  8
1
  6
Continuous
100
AcDbCircle
 10
282.3396169999999
 20
419.5643269999997
 30
0.0
 40
12.0
100
AcDbArc
 50
344.5059999999998
 51
15.494
  0
LINE
  5
B24D
330
AFFB
100
AcDbEntity
  8
1
  6
Continuous
100
AcDbLine
 10
287.739617
 20
431.3143269999998
 30
0.0
 11
287.739617
 21
407.8143269999998
 31
0.0
  0
LINE
  5
B24E
330
AFFB
100
AcDbEntity
  8
1
  6
Continuous
100
AcDbLine
 10
289.739617
 20
431.3143269999998
 30
0.0
 11
289.739617
 21
407.8143269999998
 31
0.0
  0
LINE
  5
B24F
330
AFFB
100
AcDbEntity
  8
1
  6
Continuous
100
AcDbLine
 10
289.739617
 20
414.964327
 30
0.0
 11
291.0396169999998
 21
414.964327
 31
0.0
  0
ARC
  5
B250
330
AFFB
100
AcDbEntity
  8
1
  6
Continuous
100
AcDbCircle
 10
292.3616169999998
 20
416.786327
 30
0.0
 40
1.6
100
AcDbArc
 50
275.0
 51
344.5059999999998
  0
LINE
  5
B251
330
AFFB
100
AcDbEntity
  8
1
  6
Continuous
100
AcDbLine
 10
292.5006169999999
 20
415.192327
 30
0.0
 11
291.0396169999998
 21
415.0643269999997
 31
0.0
  0
ARC
  5
B252
330
AFFB
100
AcDbEntity
  8
1
  6
Continuous
100
AcDbCircle
 10
287.739617
 20
407.8143269999998
 30
0.0
 40
2.0
100
AcDbArc
 50
270.0
 51
0.0
  0
LINE
  5
B253
330
AFFB
100
AcDbEntity
  8
1
  6
Continuous
100
AcDbLine
 10
289.739617
 20
418.2643269999998
 30
0.0
 11
291.0396169999998
 21
419.5643269999997
 31
0.0
  0
LINE
  5
B254
330
AFFB
100
AcDbEntity
  8
1
  6
Continuous
100
AcDbLine
 10
289.739617
 20
419.5643269999997
 30
0.0
 11
291.0396169999998
 21
420.8643269999998
 31
0.0
  0
LINE
  5
B255
330
AFFB
100
AcDbEntity
  8
1
  6
Continuous
100
AcDbLine
 10
289.739617
 20
424.1643269999998
 30
0.0
 11
291.0396169999998
 21
424.1643269999998
 31
0.0
  0
ARC
  5
B256
330
AFFB
100
AcDbEntity
  8
1
  6
Continuous
100
AcDbCircle
 10
292.3616169999998
 20
422.3423269999998
 30
0.0
 40
1.6
100
AcDbArc
 50
15.494
 51
84.99990000000002
  0
LINE
  5
B257
330
AFFB
100
AcDbEntity
  8
1
  6
Continuous
100
AcDbLine
 10
292.5006169999999
 20
423.9363269999998
 30
0.0
 11
291.0396169999998
 21
424.0643269999997
 31
0.0
  0
ARC
  5
B258
330
AFFB
100
AcDbEntity
  8
1
  6
Continuous
100
AcDbCircle
 10
287.739617
 20
431.3143269999998
 30
0.0
 40
2.0
100
AcDbArc
 50
0.0
 51
90.0
  0
LINE
  5
B259
330
AFFB
100
AcDbEntity
  8
1
  6
Continuous
100
AcDbLine
 10
589.7550169999998
 20
268.332647
 30
0.0
 11
589.7550169999998
 21
236.332647
 31
0.0
  0
LINE
  5
B25A
330
AFFB
100
AcDbEntity
  8
1
  6
Continuous
100
AcDbLine
 10
578.055017
 20
268.332647
 30
0.0
 11
578.055017
 21
236.332647
 31
0.0
  0
LINE
  5
B25B
330
AFFB
100
AcDbEntity
  8
1
  6
Continuous
100
AcDbLine
 10
587.7550169999998
 20
268.332647
 30
0.0
 11
587.7550169999998
 21
236.332647
 31
0.0
  0
ARC
  5
B25C
330
AFFB
100
AcDbEntity
  8
1
  6
Continuous
100
AcDbCircle
 10
575.4330169999998
 20
255.1106069999999
 30
0.0
 40
1.6
100
AcDbArc
 50
95.00010000000001
 51
164.5059999999998
  0
ARC
  5
B25D
330
AFFB
100
AcDbEntity
  8
1
  6
Continuous
100
AcDbCircle
 10
575.4330169999998
 20
249.5546069999999
 30
0.0
 40
1.6
100
AcDbArc
 50
195.494
 51
265.0
  0
LINE
  5
B25E
330
AFFB
100
AcDbEntity
  8
4
  6
CENTER
100
AcDbLine
 10
581.1851169999997
 20
252.3326069999999
 30
0.0
 11
570.455017
 21
252.3326069999999
 31
0.0
  0
ARC
  5
B25F
330
AFFB
100
AcDbEntity
  8
1
  6
Continuous
100
AcDbCircle
 10
585.455017
 20
252.3326069999999
 30
0.0
 40
12.0
100
AcDbArc
 50
164.5059999999998
 51
195.494
  0
LINE
  5
B260
330
AFFB
100
AcDbEntity
  8
1
  6
Continuous
100
AcDbLine
 10
589.7550169999998
 20
236.332647
 30
0.0
 11
578.055017
 21
236.332647
 31
0.0
  0
LINE
  5
B261
330
AFFB
100
AcDbEntity
  8
1
  6
Continuous
100
AcDbLine
 10
575.2940169999999
 20
256.7046069999999
 30
0.0
 11
576.7550169999998
 21
256.8326069999999
 31
0.0
  0
LINE
  5
B262
330
AFFB
100
AcDbEntity
  8
1
  6
Continuous
100
AcDbLine
 10
578.055017
 20
256.9326069999998
 30
0.0
 11
576.7550169999998
 21
256.9326069999998
 31
0.0
  0
LINE
  5
B263
330
AFFB
100
AcDbEntity
  8
1
  6
Continuous
100
AcDbLine
 10
575.2940169999999
 20
247.9606069999999
 30
0.0
 11
576.7550169999998
 21
247.832607
 31
0.0
  0
LINE
  5
B264
330
AFFB
100
AcDbEntity
  8
1
  6
Continuous
100
AcDbLine
 10
578.055017
 20
247.7326069999998
 30
0.0
 11
576.7550169999998
 21
247.7326069999998
 31
0.0
  0
LINE
  5
B265
330
AFFB
100
AcDbEntity
  8
1
  6
Continuous
100
AcDbLine
 10
578.055017
 20
252.3326069999999
 30
0.0
 11
576.7550169999998
 21
251.032607
 31
0.0
  0
LINE
  5
B266
330
AFFB
100
AcDbEntity
  8
1
  6
Continuous
100
AcDbLine
 10
578.055017
 20
253.6326069999998
 30
0.0
 11
576.7550169999998
 21
252.3326069999999
 31
0.0
  0
LINE
  5
B267
330
AFFB
100
AcDbEntity
  8
1
  6
Continuous
100
AcDbLine
 10
576.7550169999998
 20
256.9326069999998
 30
0.0
 11
576.7550169999998
 21
247.7326069999998
 31
0.0
  0
LINE
  5
B268
330
AFFB
100
AcDbEntity
  8
1
  6
Continuous
100
AcDbLine
 10
589.7550169999998
 20
268.332647
 30
0.0
 11
578.055017
 21
268.332647
 31
0.0
  0
LINE
  5
B269
330
AFFB
100
AcDbEntity
  8
1
  6
Continuous
100
AcDbLine
 10
617.2046169999997
 20
277.2326469999999
 30
0.0
 11
617.2046169999997
 21
289.4326469999999
 31
0.0
  0
LINE
  5
B26A
330
AFFB
100
AcDbEntity
  8
1
  6
Continuous
100
AcDbLine
 10
613.2046169999997
 20
288.3331469999999
 30
0.0
 11
613.2046169999997
 21
278.332147
 31
0.0
  0
ARC
  5
B26B
330
AFFB
100
AcDbEntity
  8
1
  6
Continuous
100
AcDbCircle
 10
607.6436679999998
 20
283.333147
 30
0.0
 40
9.560949
100
AcDbArc
 50
342.4247879999999
 51
17.575212
  0
ARC
  5
B26C
330
AFFB
100
AcDbEntity
  8
1
  6
Continuous
100
AcDbCircle
 10
622.765566
 20
283.333147
 30
0.0
 40
9.560949
100
AcDbArc
 50
162.4247879999998
 51
197.5752119999999
  0
LINE
  5
B26D
330
AFFB
100
AcDbEntity
  8
1
  6
Continuous
100
AcDbLine
 10
618.704617
 20
275.332647
 30
0.0
 11
618.704617
 21
291.332647
 31
0.0
  0
LINE
  5
B26E
330
AFFB
100
AcDbEntity
  8
1
  6
Continuous
100
AcDbLine
 10
622.3046169999999
 20
294.332647
 30
0.0
 11
622.3046169999999
 21
272.3326469999999
 31
0.0
  0
LINE
  5
B26F
330
AFFB
100
AcDbEntity
  8
1
  6
Continuous
100
AcDbLine
 10
620.304617
 20
294.332647
 30
0.0
 11
620.304617
 21
272.3326469999999
 31
0.0
  0
LINE
  5
B270
330
AFFB
100
AcDbEntity
  8
4
  6
CENTER
100
AcDbLine
 10
610.371217
 20
283.332647
 30
0.0
 11
625.304617
 21
283.332647
 31
0.0
  0
LINE
  5
B271
330
AFFB
100
AcDbEntity
  8
1
  6
Continuous
100
AcDbLine
 10
617.2046169999997
 20
277.2326469999999
 30
0.0
 11
618.704617
 21
277.2326469999999
 31
0.0
  0
LINE
  5
B272
330
AFFB
100
AcDbEntity
  8
1
  6
Continuous
100
AcDbLine
 10
617.2046169999997
 20
283.332647
 30
0.0
 11
618.704617
 21
284.8326469999999
 31
0.0
  0
LINE
  5
B273
330
AFFB
100
AcDbEntity
  8
1
  6
Continuous
100
AcDbLine
 10
617.2046169999997
 20
281.832647
 30
0.0
 11
618.704617
 21
283.332647
 31
0.0
  0
LINE
  5
B274
330
AFFB
100
AcDbEntity
  8
1
  6
Continuous
100
AcDbLine
 10
616.7583249999998
 20
280.446147
 30
0.0
 11
613.6509089999998
 21
280.446147
 31
0.0
  0
ARC
  5
B275
330
AFFB
100
AcDbEntity
  8
1
  6
Continuous
100
AcDbCircle
 10
615.760617
 20
279.003147
 30
0.0
 40
2.55582
100
AcDbArc
 50
214.3528569999999
 51
214.3839999999999
  0
ARC
  5
B276
330
AFFB
100
AcDbEntity
  8
1
  6
Continuous
100
AcDbCircle
 10
614.6486169999998
 20
279.003147
 30
0.0
 40
2.55582
100
AcDbArc
 50
325.6159999999998
 51
325.647143
  0
LINE
  5
B277
330
AFFB
100
AcDbEntity
  8
1
  6
Continuous
100
AcDbLine
 10
616.7583249999998
 20
277.559147
 30
0.0
 11
613.6509089999998
 21
277.559147
 31
0.0
  0
ARC
  5
B278
330
AFFB
100
AcDbEntity
  8
1
  6
Continuous
100
AcDbCircle
 10
614.6486369999998
 20
279.0021469999999
 30
0.0
 40
2.555979999999999
100
AcDbArc
 50
334.371637
 51
34.371637
  0
LINE
  5
B279
330
AFFB
100
AcDbEntity
  8
1
  6
Continuous
100
AcDbLine
 10
617.2046169999997
 20
278.332147
 30
0.0
 11
616.7583249999998
 21
277.559147
 31
0.0
  0
ARC
  5
B27A
330
AFFB
100
AcDbEntity
  8
1
  6
Continuous
100
AcDbCircle
 10
615.7605969999997
 20
279.0021469999999
 30
0.0
 40
2.555979999999999
100
AcDbArc
 50
145.6283629999998
 51
205.6283629999998
  0
LINE
  5
B27B
330
AFFB
100
AcDbEntity
  8
1
  6
Continuous
100
AcDbLine
 10
613.2046169999997
 20
278.332147
 30
0.0
 11
613.6509089999998
 21
277.559147
 31
0.0
  0
LINE
  5
B27C
330
AFFB
100
AcDbEntity
  8
1
  6
Continuous
100
AcDbLine
 10
618.704617
 20
275.332647
 30
0.0
 11
620.304617
 21
275.332647
 31
0.0
  0
LINE
  5
B27D
330
AFFB
100
AcDbEntity
  8
1
  6
Continuous
100
AcDbLine
 10
620.304617
 20
272.3326469999999
 30
0.0
 11
622.3046169999999
 21
272.3326469999999
 31
0.0
  0
ARC
  5
B27E
330
AFFB
100
AcDbEntity
  8
1
  6
Continuous
100
AcDbCircle
 10
614.6486369999998
 20
287.6631469999999
 30
0.0
 40
2.555979999999999
100
AcDbArc
 50
325.6283629999999
 51
25.628363
  0
ARC
  5
B27F
330
AFFB
100
AcDbEntity
  8
1
  6
Continuous
100
AcDbCircle
 10
615.7605969999997
 20
287.6631469999999
 30
0.0
 40
2.555979999999999
100
AcDbArc
 50
154.371637
 51
214.371637
  0
LINE
  5
B280
330
AFFB
100
AcDbEntity
  8
1
  6
Continuous
100
AcDbLine
 10
616.7583249999998
 20
286.220147
 30
0.0
 11
613.6509089999998
 21
286.220147
 31
0.0
  0
LINE
  5
B281
330
AFFB
100
AcDbEntity
  8
1
  6
Continuous
100
AcDbLine
 10
617.2046169999997
 20
289.4326469999999
 30
0.0
 11
618.704617
 21
289.4326469999999
 31
0.0
  0
LINE
  5
B282
330
AFFB
100
AcDbEntity
  8
1
  6
Continuous
100
AcDbLine
 10
618.704617
 20
291.332647
 30
0.0
 11
620.304617
 21
291.332647
 31
0.0
  0
LINE
  5
B283
330
AFFB
100
AcDbEntity
  8
1
  6
Continuous
100
AcDbLine
 10
617.2046169999997
 20
288.3331469999999
 30
0.0
 11
616.7583249999998
 21
289.106147
 31
0.0
  0
LINE
  5
B284
330
AFFB
100
AcDbEntity
  8
1
  6
Continuous
100
AcDbLine
 10
616.7583249999998
 20
289.106147
 30
0.0
 11
613.6509089999998
 21
289.106147
 31
0.0
  0
LINE
  5
B285
330
AFFB
100
AcDbEntity
  8
1
  6
Continuous
100
AcDbLine
 10
613.2046169999997
 20
288.3331469999999
 30
0.0
 11
613.6509089999998
 21
289.106147
 31
0.0
  0
LINE
  5
B286
330
AFFB
100
AcDbEntity
  8
1
  6
Continuous
100
AcDbLine
 10
620.304617
 20
294.332647
 30
0.0
 11
622.3046169999999
 21
294.332647
 31
0.0
  0
LINE
  5
B287
330
AFFB
100
AcDbEntity
  8
1
  6
Continuous
100
AcDbLine
 10
682.1471169999997
 20
283.5894469999999
 30
0.0
 11
682.1471169999997
 21
215.332647
 31
0.0
  0
LINE
  5
B288
330
AFFB
100
AcDbEntity
  8
1
  6
Continuous
100
AcDbLine
 10
665.747417
 20
268.232647
 30
0.0
 11
665.747417
 21
229.332647
 31
0.0
  0
LINE
  5
B289
330
AFFB
100
AcDbEntity
  8
5
  6
PHANTOM
100
AcDbLine
 10
682.082117
 20
284.341047
 30
0.0
 11
689.027117
 21
216.438447
 31
0.0
  0
LINE
  5
B28A
330
AFFB
100
AcDbEntity
  8
5
  6
PHANTOM
100
AcDbLine
 10
681.747417
 20
286.7969679999998
 30
0.0
 11
728.063117
 21
240.481947
 31
0.0
  0
LINE
  5
B28B
330
AFFB
100
AcDbEntity
  8
5
  6
PHANTOM
100
AcDbLine
 10
682.318117
 20
272.9326469999999
 30
0.0
 11
713.323117
 21
241.9279469999999
 31
0.0
  0
LINE
  5
B28C
330
AFFB
100
AcDbEntity
  8
1
  6
Continuous
100
AcDbLine
 10
681.747417
 20
298.832647
 30
0.0
 11
681.747417
 21
214.6326469999999
 31
0.0
  0
LINE
  5
B28D
330
AFFB
100
AcDbEntity
  8
1
  6
Continuous
100
AcDbLine
 10
679.247417
 20
303.3326469999999
 30
0.0
 11
679.247417
 21
179.332647
 31
0.0
  0
LINE
  5
B28E
330
AFFB
100
AcDbEntity
  8
1
  6
Continuous
100
AcDbLine
 10
676.747417
 20
303.3326469999999
 30
0.0
 11
676.747417
 21
179.332647
 31
0.0
  0
LINE
  5
B28F
330
AFFB
100
AcDbEntity
  8
1
  6
Continuous
100
AcDbLine
 10
675.747417
 20
303.3326469999999
 30
0.0
 11
675.747417
 21
179.332647
 31
0.0
  0
LINE
  5
B290
330
AFFB
100
AcDbEntity
  8
1
  6
Continuous
100
AcDbLine
 10
663.747417
 20
227.332647
 30
0.0
 11
663.747417
 21
217.436247
 31
0.0
  0
LINE
  5
B291
330
AFFB
100
AcDbEntity
  8
1
  6
Continuous
100
AcDbLine
 10
674.747417
 20
216.296547
 30
0.0
 11
662.757417
 21
216.4362469999999
 31
0.0
  0
LINE
  5
B292
330
AFFB
100
AcDbEntity
  8
1
  6
Continuous
100
AcDbLine
 10
675.747417
 20
184.371547
 30
0.0
 11
650.208217
 21
185.365247
 31
0.0
  0
LINE
  5
B293
330
AFFB
100
AcDbEntity
  8
1
  6
Continuous
100
AcDbLine
 10
649.2471169999999
 20
215.306747
 30
0.0
 11
649.2471169999999
 21
186.3644469999999
 31
0.0
  0
ARC
  5
B294
330
AFFB
100
AcDbEntity
  8
1
  6
Continuous
100
AcDbCircle
 10
650.2471169999997
 20
186.3644469999999
 30
0.0
 40
1.0
100
AcDbArc
 50
180.0
 51
267.7719999999998
  0
LINE
  5
B295
330
AFFB
100
AcDbEntity
  8
1
  6
Continuous
100
AcDbLine
 10
662.757417
 20
216.4362469999999
 30
0.0
 11
650.2368169999997
 21
216.306747
 31
0.0
  0
ARC
  5
B296
330
AFFB
100
AcDbEntity
  8
1
  6
Continuous
100
AcDbCircle
 10
650.2471169999997
 20
215.306747
 30
0.0
 40
1.0
100
AcDbArc
 50
90.59269999999999
 51
180.0
  0
LINE
  5
B297
330
AFFB
100
AcDbEntity
  8
4
  6
CENTER
100
AcDbLine
 10
652.247117
 20
201.832647
 30
0.0
 11
646.247117
 21
201.832647
 31
0.0
  0
ARC
  5
B298
330
AFFB
100
AcDbEntity
  8
1
  6
Continuous
100
AcDbCircle
 10
662.747417
 20
217.436247
 30
0.0
 40
1.0
100
AcDbArc
 50
270.593
 51
0.0
  0
LINE
  5
B299
330
AFFB
100
AcDbEntity
  8
1
  6
Continuous
100
AcDbLine
 10
681.747417
 20
198.002166
 30
0.0
 11
681.090366
 21
198.178222
 31
0.0
  0
LINE
  5
B29A
330
AFFB
100
AcDbEntity
  8
1
  6
Continuous
100
AcDbLine
 10
673.747417
 20
215.296547
 30
0.0
 11
673.747417
 21
185.411147
 31
0.0
  0
LINE
  5
B29B
330
AFFB
100
AcDbEntity
  8
1
  6
Continuous
100
AcDbLine
 10
681.090366
 20
214.6326469999999
 30
0.0
 11
681.090366
 21
182.649954
 31
0.0
  0
LINE
  5
B29C
330
AFFB
100
AcDbEntity
  8
1
  6
Continuous
100
AcDbLine
 10
679.247417
 20
179.332647
 30
0.0
 11
675.747417
 21
179.332647
 31
0.0
  0
LINE
  5
B29D
330
AFFB
100
AcDbEntity
  8
1
  6
Continuous
100
AcDbLine
 10
681.747417
 20
183.832647
 30
0.0
 11
679.247417
 21
179.332647
 31
0.0
  0
ARC
  5
B29E
330
AFFB
100
AcDbEntity
  8
1
  6
Continuous
100
AcDbCircle
 10
674.747417
 20
185.411147
 30
0.0
 40
1.0
100
AcDbArc
 50
180.0
 51
267.7719999999998
  0
LINE
  5
B29F
330
AFFB
100
AcDbEntity
  8
1
  6
Continuous
100
AcDbLine
 10
681.747417
 20
198.002166
 30
0.0
 11
681.747417
 21
183.832647
 31
0.0
  0
LINE
  5
B2A0
330
AFFB
100
AcDbEntity
  8
5
  6
PHANTOM
100
AcDbLine
 10
688.1341169999998
 20
215.341847
 30
0.0
 11
684.752117
 21
214.995947
 31
0.0
  0
LINE
  5
B2A1
330
AFFB
100
AcDbEntity
  8
1
  6
Continuous
100
AcDbLine
 10
675.747417
 20
216.296547
 30
0.0
 11
674.747417
 21
216.296547
 31
0.0
  0
LINE
  5
B2A2
330
AFFB
100
AcDbEntity
  8
5
  6
PHANTOM
100
AcDbLine
 10
684.752117
 20
214.995947
 30
0.0
 11
681.747417
 21
214.989196
 31
0.0
  0
ARC
  5
B2A3
330
AFFB
100
AcDbEntity
  8
1
  6
Continuous
100
AcDbCircle
 10
681.1471169999999
 20
215.332647
 30
0.0
 40
1.0
100
AcDbArc
 50
266.746643
 51
0.0
  0
ARC
  5
B2A4
330
AFFB
100
AcDbEntity
  8
1
  6
Continuous
100
AcDbCircle
 10
674.747417
 20
215.296547
 30
0.0
 40
1.0
100
AcDbArc
 50
90.0
 51
180.0
  0
LINE
  5
B2A5
330
AFFB
100
AcDbEntity
  8
1
  6
Continuous
100
AcDbLine
 10
681.747417
 20
214.6326469999999
 30
0.0
 11
681.090366
 21
214.6326469999999
 31
0.0
  0
ARC
  5
B2A6
330
AFFB
100
AcDbEntity
  8
5
  6
PHANTOM
100
AcDbCircle
 10
688.032117
 20
216.336647
 30
0.0
 40
1.0
100
AcDbArc
 50
275.8399999999999
 51
5.839999999999997
  0
ARC
  5
B2A7
330
AFFB
100
AcDbEntity
  8
1
  6
Continuous
100
AcDbCircle
 10
664.747417
 20
227.332647
 30
0.0
 40
1.0
100
AcDbArc
 50
90.0
 51
180.0
  0
ARC
  5
B2A8
330
AFFB
100
AcDbEntity
  8
1
  6
Continuous
100
AcDbCircle
 10
664.747417
 20
229.332647
 30
0.0
 40
1.0
100
AcDbArc
 50
270.0
 51
0.0
  0
LINE
  5
B2A9
330
AFFB
100
AcDbEntity
  8
4
  6
CENTER
100
AcDbLine
 10
668.747417
 20
252.3326069999999
 30
0.0
 11
662.747417
 21
252.3326069999999
 31
0.0
  0
ARC
  5
B2AA
330
AFFB
100
AcDbEntity
  8
5
  6
PHANTOM
100
AcDbCircle
 10
710.4951169999999
 20
239.099547
 30
0.0
 40
4.0
100
AcDbArc
 50
330.0
 51
45.0
  0
LINE
  5
B2AB
330
AFFB
100
AcDbEntity
  8
5
  6
PHANTOM
100
AcDbLine
 10
721.7691169999997
 20
233.4815470000001
 30
0.0
 11
718.0191169999999
 21
230.039647
 31
0.0
  0
LINE
  5
B2AC
330
AFFB
100
AcDbEntity
  8
5
  6
PHANTOM
100
AcDbLine
 10
713.959117
 20
237.099547
 30
0.0
 11
712.6371169999996
 21
234.8106469999999
 31
0.0
  0
ARC
  5
B2AD
330
AFFB
100
AcDbEntity
  8
5
  6
PHANTOM
100
AcDbCircle
 10
714.3691169999997
 20
233.810647
 30
0.0
 40
2.0
100
AcDbArc
 50
150.0
 51
225.0
  0
ARC
  5
B2AE
330
AFFB
100
AcDbEntity
  8
5
  6
PHANTOM
100
AcDbCircle
 10
716.6671169999997
 20
231.513047
 30
0.0
 40
2.0
100
AcDbArc
 50
225.0
 51
312.5459999999999
  0
LINE
  5
B2AF
330
AFFB
100
AcDbEntity
  8
5
  6
PHANTOM
100
AcDbLine
 10
712.955117
 20
232.3964469999999
 30
0.0
 11
715.2531169999997
 21
230.098847
 31
0.0
  0
LINE
  5
B2B0
330
AFFB
100
AcDbEntity
  8
5
  6
PHANTOM
100
AcDbLine
 10
728.063117
 20
239.067747
 30
0.0
 11
725.6581169999996
 21
236.6635469999999
 31
0.0
  0
LINE
  5
B2B1
330
AFFB
100
AcDbEntity
  8
5
  6
PHANTOM
100
AcDbLine
 10
725.6581169999996
 20
236.6635469999999
 30
0.0
 11
721.7691169999997
 21
233.4815470000001
 31
0.0
  0
ARC
  5
B2B2
330
AFFB
100
AcDbEntity
  8
5
  6
PHANTOM
100
AcDbCircle
 10
727.3551169999997
 20
239.7748469999999
 30
0.0
 40
1.0
100
AcDbArc
 50
315.0
 51
45.0
  0
LINE
  5
B2B3
330
AFFB
100
AcDbEntity
  8
1
  6
Continuous
100
AcDbLine
 10
664.747417
 20
275.3898469999999
 30
0.0
 11
675.747417
 21
275.3898469999999
 31
0.0
  0
LINE
  5
B2B4
330
AFFB
100
AcDbEntity
  8
4
  6
CENTER
100
AcDbLine
 10
684.747417
 20
283.332647
 30
0.0
 11
638.747117
 21
283.332647
 31
0.0
  0
LINE
  5
B2B5
330
AFFB
100
AcDbEntity
  8
1
  6
Continuous
100
AcDbLine
 10
673.747417
 20
297.4326469999999
 30
0.0
 11
646.9471170000002
 21
297.4326469999999
 31
0.0
  0
LINE
  5
B2B6
330
AFFB
100
AcDbEntity
  8
2
  6
Continuous
100
AcDbLine
 10
641.7471169999998
 20
290.4036469999999
 30
0.0
 11
645.7471169999998
 21
285.6896469999999
 31
0.0
  0
LINE
  5
B2B7
330
AFFB
100
AcDbEntity
  8
2
  6
Continuous
100
AcDbLine
 10
645.7471169999998
 20
288.046647
 30
0.0
 11
641.7471169999998
 21
283.332647
 31
0.0
  0
LINE
  5
B2B8
330
AFFB
100
AcDbEntity
  8
1
  6
Continuous
100
AcDbLine
 10
647.9471170000001
 20
293.768247
 30
0.0
 11
647.9471170000001
 21
272.282647
 31
0.0
  0
LINE
  5
B2B9
330
AFFB
100
AcDbEntity
  8
1
  6
Continuous
100
AcDbLine
 10
645.7471169999998
 20
294.590977
 30
0.0
 11
645.7471169999998
 21
270.3326469999999
 31
0.0
  0
LINE
  5
B2BA
330
AFFB
100
AcDbEntity
  8
1
  6
Continuous
100
AcDbLine
 10
641.7471169999998
 20
290.4036469999999
 30
0.0
 11
641.7471169999998
 21
276.261547
 31
0.0
  0
LINE
  5
B2BB
330
AFFB
100
AcDbEntity
  8
1
  6
Continuous
100
AcDbLine
 10
647.747117
 20
270.3326469999999
 30
0.0
 11
647.747117
 21
294.590977
 31
0.0
  0
LINE
  5
B2BC
330
AFFB
100
AcDbEntity
  8
1
  6
Continuous
100
AcDbLine
 10
662.747417
 20
294.5435469999999
 30
0.0
 11
662.747417
 21
270.232647
 31
0.0
  0
LINE
  5
B2BD
330
AFFB
100
AcDbEntity
  8
1
  6
Continuous
100
AcDbLine
 10
661.747417
 20
271.2826469999999
 30
0.0
 11
648.9471170000001
 21
271.2826469999999
 31
0.0
  0
LINE
  5
B2BE
330
AFFB
100
AcDbEntity
  8
1
  6
Continuous
100
AcDbLine
 10
645.7471169999998
 20
283.332647
 30
0.0
 11
641.7471169999998
 21
283.332647
 31
0.0
  0
LINE
  5
B2BF
330
AFFB
100
AcDbEntity
  8
2
  6
Continuous
100
AcDbLine
 10
641.7471169999998
 20
283.332647
 30
0.0
 11
645.7471169999998
 21
278.6185469999999
 31
0.0
  0
LINE
  5
B2C0
330
AFFB
100
AcDbEntity
  8
1
  6
Continuous
100
AcDbLine
 10
647.747117
 20
270.3326469999999
 30
0.0
 11
645.7471169999998
 21
270.3326469999999
 31
0.0
  0
LINE
  5
B2C1
330
AFFB
100
AcDbEntity
  8
1
  6
Continuous
100
AcDbLine
 10
645.7471169999998
 20
276.261547
 30
0.0
 11
641.7471169999998
 21
276.261547
 31
0.0
  0
ARC
  5
B2C2
330
AFFB
100
AcDbEntity
  8
1
  6
Continuous
100
AcDbCircle
 10
648.9471170000001
 20
272.282647
 30
0.0
 40
1.0
100
AcDbArc
 50
180.0
 51
270.0
  0
LINE
  5
B2C3
330
AFFB
100
AcDbEntity
  8
1
  6
Continuous
100
AcDbLine
 10
647.9471170000001
 20
276.132647
 30
0.0
 11
647.747117
 21
276.132647
 31
0.0
  0
LINE
  5
B2C4
330
AFFB
100
AcDbEntity
  8
2
  6
Continuous
100
AcDbLine
 10
645.7471169999998
 20
280.975547
 30
0.0
 11
641.7471169999998
 21
276.261547
 31
0.0
  0
LINE
  5
B2C5
330
AFFB
100
AcDbEntity
  8
1
  6
Continuous
100
AcDbLine
 10
664.747417
 20
269.2326469999999
 30
0.0
 11
663.747417
 21
269.2326469999999
 31
0.0
  0
ARC
  5
B2C6
330
AFFB
100
AcDbEntity
  8
1
  6
Continuous
100
AcDbCircle
 10
661.747417
 20
270.282647
 30
0.0
 40
1.0
100
AcDbArc
 50
0.0
 51
90.0
  0
ARC
  5
B2C7
330
AFFB
100
AcDbEntity
  8
1
  6
Continuous
100
AcDbCircle
 10
663.747417
 20
270.232647
 30
0.0
 40
1.0
100
AcDbArc
 50
180.0
 51
270.0
  0
LINE
  5
B2C8
330
AFFB
100
AcDbEntity
  8
1
  6
Continuous
100
AcDbLine
 10
664.747417
 20
275.3898469999999
 30
0.0
 11
664.747417
 21
269.2326469999999
 31
0.0
  0
ARC
  5
B2C9
330
AFFB
100
AcDbEntity
  8
1
  6
Continuous
100
AcDbCircle
 10
665.747417
 20
269.2326469999999
 30
0.0
 40
1.0
100
AcDbArc
 50
180.0
 51
270.0
  0
LINE
  5
B2CA
330
AFFB
100
AcDbEntity
  8
1
  6
Continuous
100
AcDbLine
 10
661.747417
 20
293.768247
 30
0.0
 11
647.9471170000001
 21
293.768247
 31
0.0
  0
LINE
  5
B2CB
330
AFFB
100
AcDbEntity
  8
1
  6
Continuous
100
AcDbLine
 10
645.9471170000001
 20
295.5435469999999
 30
0.0
 11
661.747417
 21
295.5435469999999
 31
0.0
  0
LINE
  5
B2CC
330
AFFB
100
AcDbEntity
  8
1
  6
Continuous
100
AcDbLine
 10
647.9471170000001
 20
292.079447
 30
0.0
 11
647.747117
 21
292.079447
 31
0.0
  0
LINE
  5
B2CD
330
AFFB
100
AcDbEntity
  8
1
  6
Continuous
100
AcDbLine
 10
645.7471169999998
 20
290.4036469999999
 30
0.0
 11
641.7471169999998
 21
290.4036469999999
 31
0.0
  0
ARC
  5
B2CE
330
AFFB
100
AcDbEntity
  8
1
  6
Continuous
100
AcDbCircle
 10
646.9471170000002
 20
296.4326469999999
 30
0.0
 40
1.0
100
AcDbArc
 50
90.0
 51
180.0
  0
LINE
  5
B2CF
330
AFFB
100
AcDbEntity
  8
1
  6
Continuous
100
AcDbLine
 10
645.7471169999998
 20
294.590977
 30
0.0
 11
647.747117
 21
294.590977
 31
0.0
  0
LINE
  5
B2D0
330
AFFB
100
AcDbEntity
  8
1
  6
Continuous
100
AcDbLine
 10
645.9471170000001
 20
296.4326469999999
 30
0.0
 11
645.9471170000001
 21
294.590977
 31
0.0
  0
LINE
  5
B2D1
330
AFFB
100
AcDbEntity
  8
1
  6
Continuous
100
AcDbLine
 10
647.9471170000001
 20
290.5326469999998
 30
0.0
 11
647.747117
 21
290.5326469999998
 31
0.0
  0
ARC
  5
B2D2
330
AFFB
100
AcDbEntity
  8
1
  6
Continuous
100
AcDbCircle
 10
661.747417
 20
292.7682469999999
 30
0.0
 40
1.0
100
AcDbArc
 50
0.0
 51
90.0
  0
ARC
  5
B2D3
330
AFFB
100
AcDbEntity
  8
1
  6
Continuous
100
AcDbCircle
 10
661.747417
 20
294.5435469999999
 30
0.0
 40
1.0
100
AcDbArc
 50
0.0
 51
90.0
  0
LINE
  5
B2D4
330
AFFB
100
AcDbEntity
  8
1
  6
Continuous
100
AcDbLine
 10
673.747417
 20
297.4326469999999
 30
0.0
 11
673.747417
 21
283.332647
 31
0.0
  0
ARC
  5
B2D5
330
AFFB
100
AcDbEntity
  8
1
  6
Continuous
100
AcDbCircle
 10
728.561417
 20
283.332647
 30
0.0
 40
48.3525
100
AcDbArc
 50
165.5079
 51
194.4919999999999
  0
ARC
  5
B2D6
330
AFFB
100
AcDbEntity
  8
1
  6
Continuous
100
AcDbCircle
 10
680.147117
 20
283.5894469999999
 30
0.0
 40
2.0
100
AcDbArc
 50
0.0
 51
36.855571
  0
ARC
  5
B2D7
330
AFFB
100
AcDbEntity
  8
5
  6
PHANTOM
100
AcDbCircle
 10
680.093117
 20
284.137547
 30
0.0
 40
2.0
100
AcDbArc
 50
5.839999999999997
 51
34.19292199999999
  0
LINE
  5
B2D8
330
AFFB
100
AcDbEntity
  8
5
  6
PHANTOM
100
AcDbLine
 10
682.318117
 20
272.9326469999999
 30
0.0
 11
681.747417
 21
272.9326469999999
 31
0.0
  0
LINE
  5
B2D9
330
AFFB
100
AcDbEntity
  8
1
  6
Continuous
100
AcDbLine
 10
679.247417
 20
303.3326469999999
 30
0.0
 11
675.747417
 21
303.3326469999999
 31
0.0
  0
LINE
  5
B2DA
330
AFFB
100
AcDbEntity
  8
1
  6
Continuous
100
AcDbLine
 10
679.247417
 20
303.3326469999999
 30
0.0
 11
681.747417
 21
298.832647
 31
0.0
  0
LINE
  5
B2DB
330
AFFB
100
AcDbEntity
  8
1
  6
Continuous
100
AcDbLine
 10
675.747417
 20
298.332647
 30
0.0
 11
674.747417
 21
298.332647
 31
0.0
  0
ARC
  5
B2DC
330
AFFB
100
AcDbEntity
  8
1
  6
Continuous
100
AcDbCircle
 10
674.747417
 20
297.3326469999999
 30
0.0
 40
1.0
100
AcDbArc
 50
90.0
 51
174.26083
  0
LINE
  5
B2DD
330
AFFB
100
AcDbEntity
  8
1
  6
Continuous
100
AcDbLine
 10
44.20315
 20
359.942498
 30
0.0
 11
31.20315
 21
359.942498
 31
0.0
  0
LINE
  5
B2DE
330
AFFB
100
AcDbEntity
  8
1
  6
Continuous
100
AcDbLine
 10
44.20315
 20
371.9424979999998
 30
0.0
 11
31.20315
 21
371.9424979999998
 31
0.0
  0
LINE
  5
B2DF
330
AFFB
100
AcDbEntity
  8
1
  6
Continuous
100
AcDbLine
 10
32.79545800000001
 20
370.6540359999999
 30
0.0
 11
42.99545799999999
 21
366.4040359999999
 31
0.0
  0
LINE
  5
B2E0
330
AFFB
100
AcDbEntity
  8
1
  6
Continuous
100
AcDbLine
 10
32.79545800000001
 20
361.2309589999999
 30
0.0
 11
42.99545799999999
 21
365.4809589999999
 31
0.0
  0
ARC
  5
B2E1
330
AFFB
100
AcDbEntity
  8
1
  6
Continuous
100
AcDbCircle
 10
31.20315
 20
360.442498
 30
0.0
 40
0.5
100
AcDbArc
 50
180.0
 51
270.0
  0
LINE
  5
B2E2
330
AFFB
100
AcDbEntity
  8
1
  6
Continuous
100
AcDbLine
 10
30.70315
 20
371.4424979999998
 30
0.0
 11
30.70315
 21
360.442498
 31
0.0
  0
ARC
  5
B2E3
330
AFFB
100
AcDbEntity
  8
1
  6
Continuous
100
AcDbCircle
 10
31.20315
 20
371.4424979999998
 30
0.0
 40
0.5
100
AcDbArc
 50
90.0
 51
180.0
  0
ARC
  5
B2E4
330
AFFB
100
AcDbEntity
  8
1
  6
Continuous
100
AcDbCircle
 10
32.60315
 20
361.692498
 30
0.0
 40
0.5
100
AcDbArc
 50
180.0
 51
292.6198649999999
  0
ARC
  5
B2E5
330
AFFB
100
AcDbEntity
  8
1
  6
Continuous
100
AcDbCircle
 10
32.60315
 20
370.192498
 30
0.0
 40
0.5
100
AcDbArc
 50
67.380135
 51
180.0
  0
LINE
  5
B2E6
330
AFFB
100
AcDbEntity
  8
1
  6
Continuous
100
AcDbLine
 10
32.10315
 20
361.692498
 30
0.0
 11
32.10315
 21
370.192498
 31
0.0
  0
ARC
  5
B2E7
330
AFFB
100
AcDbEntity
  8
1
  6
Continuous
100
AcDbCircle
 10
44.20315
 20
360.442498
 30
0.0
 40
0.5
100
AcDbArc
 50
270.0
 51
0.0
  0
LINE
  5
B2E8
330
AFFB
100
AcDbEntity
  8
1
  6
Continuous
100
AcDbLine
 10
44.70315
 20
371.4424979999998
 30
0.0
 11
44.70315
 21
360.442498
 31
0.0
  0
ARC
  5
B2E9
330
AFFB
100
AcDbEntity
  8
1
  6
Continuous
100
AcDbCircle
 10
44.20315
 20
371.4424979999998
 30
0.0
 40
0.5
100
AcDbArc
 50
0.0
 51
90.0
  0
ARC
  5
B2EA
330
AFFB
100
AcDbEntity
  8
1
  6
Continuous
100
AcDbCircle
 10
42.80315
 20
365.942498
 30
0.0
 40
0.5
100
AcDbArc
 50
292.6198649999999
 51
67.380135
  0
ENDSEC
  0
SECTION
  2
OBJECTS
  0
DICTIONARY
  5
AFE9
330
0
100
AcDbDictionary
281
     1
  3
ACAD_CIP_PREVIOUS_PRODUCT_INFO
350
B350
  3
ACAD_COLOR
350
B332
  3
ACAD_DETAILVIEWSTYLE
350
B34B
  3
ACAD_GROUP
350
AFEA
  3
ACAD_LAYOUT
350
AFF6
  3
ACAD_MATERIAL
350
B300
  3
ACAD_MLEADERSTYLE
350
B347
  3
ACAD_MLINESTYLE
350
AFF3
  3
ACAD_PLOTSETTINGS
350
AFF5
  3
ACAD_PLOTSTYLENAME
350
B2FE
  3
ACAD_SCALELIST
350
B335
  3
ACAD_SECTIONVIEWSTYLE
350
B349
  3
ACAD_TABLESTYLE
350
B333
  3
ACAD_VISUALSTYLE
350
B319
  3
ACDB_RECOMPOSE_DATA
350
B36E
  3
AcDbVariableDictionary
350
B361
  3
DWGPROPS
350
B36F
  0
DICTIONARY
  5
B351
330
AFED
100
AcDbDictionary
280
     1
281
     1
  3
ADSK_XREC_LAYER_RECONCILED
360
B352
  0
DICTIONARY
  5
B353
330
B003
100
AcDbDictionary
280
     1
281
     1
  3
ADSK_XREC_LAYER_RECONCILED
360
B354
  0
DICTIONARY
  5
B355
330
B004
100
AcDbDictionary
280
     1
281
     1
  3
ADSK_XREC_LAYER_RECONCILED
360
B356
  0
DICTIONARY
  5
B357
330
B005
100
AcDbDictionary
280
     1
281
     1
  3
ADSK_XREC_LAYER_RECONCILED
360
B358
  0
DICTIONARY
  5
B359
330
B006
100
AcDbDictionary
280
     1
281
     1
  3
ADSK_XREC_LAYER_RECONCILED
360
B35A
  0
DICTIONARY
  5
B35B
330
B007
100
AcDbDictionary
280
     1
281
     1
  3
ADSK_XREC_LAYER_RECONCILED
360
B35C
  0
DICTIONARY
  5
B35D
330
B008
100
AcDbDictionary
280
     1
281
     1
  3
ADSK_XREC_LAYER_RECONCILED
360
B35E
  0
DICTIONARY
  5
B35F
330
B009
100
AcDbDictionary
280
     1
281
     1
  3
ADSK_XREC_LAYER_RECONCILED
360
B360
  0
DICTIONARY
  5
B2F9
330
AFFB
100
AcDbDictionary
281
     1
  3
ACAD_LAYOUTSELFREF
350
B2FA
  0
DICTIONARY
  5
B2F7
330
AFF7
100
AcDbDictionary
281
     1
  3
ACAD_LAYOUTSELFREF
350
B2F8
  0
XRECORD
  5
B350
102
{ACAD_REACTORS
330
AFE9
102
}
330
AFE9
100
AcDbXrecord
280
     1
300
ACDLT
300
2014
300
ACDLT_F_S
  0
DICTIONARY
  5
B332
102
{ACAD_REACTORS
330
AFE9
102
}
330
AFE9
100
AcDbDictionary
281
     1
  0
DICTIONARY
  5
B34B
102
{ACAD_REACTORS
330
AFE9
102
}
330
AFE9
100
AcDbDictionary
281
     1
  3
Imperial24
350
B34C
  0
DICTIONARY
  5
AFEA
102
{ACAD_REACTORS
330
AFE9
102
}
330
AFE9
100
AcDbDictionary
281
     1
  0
DICTIONARY
  5
AFF6
102
{ACAD_REACTORS
330
AFE9
102
}
330
AFE9
100
AcDbDictionary
281
     1
  3
Model
350
B34D
  3
レイアウト1
350
B34E
  0
DICTIONARY
  5
B300
102
{ACAD_REACTORS
330
AFE9
102
}
330
AFE9
100
AcDbDictionary
281
     1
  3
ByBlock
350
B309
  3
ByLayer
350
B301
  3
Global
350
B311
  0
DICTIONARY
  5
B347
102
{ACAD_REACTORS
330
AFE9
102
}
330
AFE9
100
AcDbDictionary
281
     1
  3
Standard
350
B348
  0
DICTIONARY
  5
AFF3
102
{ACAD_REACTORS
330
AFE9
102
}
330
AFE9
100
AcDbDictionary
281
     1
  3
STANDARD
350
AFF4
  0
DICTIONARY
  5
AFF5
102
{ACAD_REACTORS
330
AFE9
102
}
330
AFE9
100
AcDbDictionary
281
     1
  0
ACDBDICTIONARYWDFLT
  5
B2FE
102
{ACAD_REACTORS
330
AFE9
102
}
330
AFE9
100
AcDbDictionary
281
     1
  3
Normal
350
B2FF
100
AcDbDictionaryWithDefault
340
B2FF
  0
DICTIONARY
  5
B335
102
{ACAD_REACTORS
330
AFE9
102
}
330
AFE9
100
AcDbDictionary
281
     1
  3
A0
350
B336
  3
A1
350
B337
  3
A2
350
B338
  3
A3
350
B339
  3
A4
350
B33A
  3
A5
350
B33B
  3
A6
350
B33C
  3
A7
350
B33D
  3
A8
350
B33E
  3
A9
350
B33F
  3
B0
350
B340
  3
B1
350
B341
  3
B2
350
B342
  3
B3
350
B343
  3
B4
350
B344
  3
B5
350
B345
  3
B6
350
B346
  0
DICTIONARY
  5
B349
102
{ACAD_REACTORS
330
AFE9
102
}
330
AFE9
100
AcDbDictionary
281
     1
  3
Imperial24
350
B34A
  0
DICTIONARY
  5
B333
102
{ACAD_REACTORS
330
AFE9
102
}
330
AFE9
100
AcDbDictionary
281
     1
  3
Standard
350
B334
  0
DICTIONARY
  5
B319
102
{ACAD_REACTORS
330
AFE9
102
}
330
AFE9
100
AcDbDictionary
281
     1
  3
2dWireframe
350
B31F
  3
Basic
350
B31E
  3
Brighten
350
B325
  3
ColorChange
350
B329
  3
Conceptual
350
B322
  3
Dim
350
B324
  3
EdgeColorOff
350
B331
  3
Facepattern
350
B328
  3
Flat
350
B31A
  3
FlatWithEdges
350
B31B
  3
Gouraud
350
B31C
  3
GouraudWithEdges
350
B31D
  3
Hidden
350
B321
  3
JitterOff
350
B32F
  3
Linepattern
350
B327
  3
OverhangOff
350
B330
  3
Realistic
350
B323
  3
Shaded
350
B32E
  3
Shaded with edges
350
B32D
  3
Shades of Gray
350
B32A
  3
Sketchy
350
B32B
  3
Thicken
350
B326
  3
Wireframe
350
B320
  3
X-Ray
350
B32C
  0
XRECORD
  5
B36E
102
{ACAD_REACTORS
330
AFE9
102
}
330
AFE9
100
AcDbXrecord
280
     1
 90
        1
330
B334
  0
DICTIONARY
  5
B361
102
{ACAD_REACTORS
330
AFE9
102
}
330
AFE9
100
AcDbDictionary
281
     1
  3
CANNOSCALE
350
B366
  3
CMLEADERSTYLE
350
B363
  3
CTABLESTYLE
350
B362
  3
CVIEWDETAILSTYLE
350
B364
  3
CVIEWSECTIONSTYLE
350
B365
  3
DIMASSOC
350
B369
  3
INDEXCTL
350
B368
  3
SORTENTS
350
B367
  3
XCLIPFRAME
350
B36A
  0
XRECORD
  5
B36F
102
{ACAD_REACTORS
330
AFE9
102
}
330
AFE9
100
AcDbXrecord
280
     1
  1
DWGPROPS COOKIE
  2

  3

  4

  6

  7

  8
Yoshitsune
  9

300
=
301
=
302
=
303
=
304
=
305
=
306
=
307
=
308
=
309
=
 40
0.0000164351851852
 41
2451417.569075116
 42
2457192.640567882
  1

 90
        0
  0
XRECORD
  5
B352
102
{ACAD_REACTORS
330
B351
102
}
330
B351
100
AcDbXrecord
280
     1
290
     1
  0
XRECORD
  5
B354
102
{ACAD_REACTORS
330
B353
102
}
330
B353
100
AcDbXrecord
280
     1
290
     1
  0
XRECORD
  5
B356
102
{ACAD_REACTORS
330
B355
102
}
330
B355
100
AcDbXrecord
280
     1
290
     1
  0
XRECORD
  5
B358
102
{ACAD_REACTORS
330
B357
102
}
330
B357
100
AcDbXrecord
280
     1
290
     1
  0
XRECORD
  5
B35A
102
{ACAD_REACTORS
330
B359
102
}
330
B359
100
AcDbXrecord
280
     1
290
     1
  0
XRECORD
  5
B35C
102
{ACAD_REACTORS
330
B35B
102
}
330
B35B
100
AcDbXrecord
280
     1
290
     1
  0
XRECORD
  5
B35E
102
{ACAD_REACTORS
330
B35D
102
}
330
B35D
100
AcDbXrecord
280
     1
290
     1
  0
XRECORD
  5
B360
102
{ACAD_REACTORS
330
B35F
102
}
330
B35F
100
AcDbXrecord
280
     1
290
     1
  0
XRECORD
  5
B2FA
102
{ACAD_REACTORS
330
B2F9
102
}
330
B2F9
100
AcDbXrecord
280
     1
340
AFFB
  0
XRECORD
  5
B2F8
102
{ACAD_REACTORS
330
B2F7
102
}
330
B2F7
100
AcDbXrecord
280
     1
340
AFF7
  0
ACDBDETAILVIEWSTYLE
  5
B34C
102
{ACAD_XDICTIONARY
360
B3A7
102
}
102
{ACAD_REACTORS
330
B34B
102
}
330
B34B
100
AcDbModelDocViewStyle
 70
     0
  3
Imperial24
290
     0
100
AcDbDetailViewStyle
 70
     0
 71
     0
 90
        3
 71
     1
340
AFEE
 40
0.24
340
0
 40
0.24
300

 40
0.36
280
     3
 71
     2
340
AFF2
 90
       25
 71
     3
340
AFEE
 40
0.24
 90
        1
 40
0.75
 90
        1
300
%<\AcVar ViewType \f "%tc1">% %<\AcVar ViewDetailId>%\PSCALE %<\AcVar ViewScale \f "%sn">%
 71
     4
340
AFF2
 90
       25
340
AFF2
 90
       25
280
     0
  0
LAYOUT
  5
B34D
102
{ACAD_XDICTIONARY
360
B3A9
102
}
102
{ACAD_REACTORS
330
AFF6
102
}
330
AFF6
100
AcDbPlotSettings
  1

  2
Canon LBP9100C
  4

  6

 40
0.0
 41
0.0
 42
0.0
 43
0.0
 44
0.0
 45
0.0
 46
0.0
 47
0.0
 48
0.0
 49
0.0
140
0.0
141
0.0
142
1.0
143
1.0
 70
  1712
 72
     0
 73
     0
 74
     0
  7

 75
     0
147
1.0
148
0.0
149
0.0
100
AcDbLayout
  1
Model
 70
     1
 71
     0
 10
0.0
 20
0.0
 11
12.0
 21
9.0
 12
0.0
 22
0.0
 32
0.0
 14
0.0
 24
0.0
 34
0.0
 15
0.0
 25
0.0
 35
0.0
146
0.0
 13
0.0
 23
0.0
 33
0.0
 16
1.0
 26
0.0
 36
0.0
 17
0.0
 27
1.0
 37
0.0
 76
     0
330
AFFB
331
B2F6
  0
LAYOUT
  5
B34E
102
{ACAD_XDICTIONARY
360
B3AB
102
}
102
{ACAD_REACTORS
330
AFF6
102
}
330
AFF6
100
AcDbPlotSettings
  1

  2
Canon LBP9100C
  4

  6

 40
0.0
 41
0.0
 42
0.0
 43
0.0
 44
0.0
 45
0.0
 46
0.0
 47
0.0
 48
0.0
 49
0.0
140
0.0
141
0.0
142
1.0
143
1.0
 70
   688
 72
     0
 73
     0
 74
     5
  7

 75
    16
147
1.0
148
0.0
149
0.0
100
AcDbLayout
  1
レイアウト1
 70
     0
 71
     1
 10
0.0
 20
0.0
 11
420.0
 21
297.0
 12
0.0
 22
0.0
 32
0.0
 14
1.000000000000000E+20
 24
1.000000000000000E+20
 34
1.000000000000000E+20
 15
-1.000000000000000E+20
 25
-1.000000000000000E+20
 35
-1.000000000000000E+20
146
0.0
 13
0.0
 23
0.0
 33
0.0
 16
1.0
 26
0.0
 36
0.0
 17
0.0
 27
1.0
 37
0.0
 76
     0
330
AFF7
  0
MATERIAL
  5
B309
102
{ACAD_XDICTIONARY
360
B30A
102
}
102
{ACAD_REACTORS
330
B300
102
}
330
B300
100
AcDbMaterial
  1
ByBlock
 72
     0
 43
0.0208333333333333
 43
0.0
 43
0.0
 43
0.0
 43
0.0
 43
0.0208333333333333
 43
0.0
 43
0.0
 43
0.0
 43
0.0
 43
1.0
 43
0.0
 43
0.0
 43
0.0
 43
0.0
 43
1.0
 77
     0
 47
0.0208333333333333
 47
0.0
 47
0.0
 47
0.0
 47
0.0
 47
0.0208333333333333
 47
0.0
 47
0.0
 47
0.0
 47
0.0
 47
1.0
 47
0.0
 47
0.0
 47
0.0
 47
0.0
 47
1.0
171
     0
 49
0.0208333333333333
 49
0.0
 49
0.0
 49
0.0
 49
0.0
 49
0.0208333333333333
 49
0.0
 49
0.0
 49
0.0
 49
0.0
 49
1.0
 49
0.0
 49
0.0
 49
0.0
 49
0.0
 49
1.0
175
     0
142
0.0208333333333333
142
0.0
142
0.0
142
0.0
142
0.0
142
0.0208333333333333
142
0.0
142
0.0
142
0.0
142
0.0
142
1.0
142
0.0
142
0.0
142
0.0
142
0.0
142
1.0
179
     0
144
0.0208333333333333
144
0.0
144
0.0
144
0.0
144
0.0
144
0.0208333333333333
144
0.0
144
0.0
144
0.0
144
0.0
144
1.0
144
0.0
144
0.0
144
0.0
144
0.0
144
1.0
147
0.0208333333333333
147
0.0
147
0.0
147
0.0
147
0.0
147
0.0208333333333333
147
0.0
147
0.0
147
0.0
147
0.0
147
1.0
147
0.0
147
0.0
147
0.0
147
0.0
147
1.0
  0
MATERIAL
  5
B301
102
{ACAD_XDICTIONARY
360
B302
102
}
102
{ACAD_REACTORS
330
B300
102
}
330
B300
100
AcDbMaterial
  1
ByLayer
 72
     0
 43
0.0208333333333333
 43
0.0
 43
0.0
 43
0.0
 43
0.0
 43
0.0208333333333333
 43
0.0
 43
0.0
 43
0.0
 43
0.0
 43
1.0
 43
0.0
 43
0.0
 43
0.0
 43
0.0
 43
1.0
 77
     0
 47
0.0208333333333333
 47
0.0
 47
0.0
 47
0.0
 47
0.0
 47
0.0208333333333333
 47
0.0
 47
0.0
 47
0.0
 47
0.0
 47
1.0
 47
0.0
 47
0.0
 47
0.0
 47
0.0
 47
1.0
171
     0
 49
0.0208333333333333
 49
0.0
 49
0.0
 49
0.0
 49
0.0
 49
0.0208333333333333
 49
0.0
 49
0.0
 49
0.0
 49
0.0
 49
1.0
 49
0.0
 49
0.0
 49
0.0
 49
0.0
 49
1.0
175
     0
142
0.0208333333333333
142
0.0
142
0.0
142
0.0
142
0.0
142
0.0208333333333333
142
0.0
142
0.0
142
0.0
142
0.0
142
1.0
142
0.0
142
0.0
142
0.0
142
0.0
142
1.0
179
     0
144
0.0208333333333333
144
0.0
144
0.0
144
0.0
144
0.0
144
0.0208333333333333
144
0.0
144
0.0
144
0.0
144
0.0
144
1.0
144
0.0
144
0.0
144
0.0
144
0.0
144
1.0
147
0.0208333333333333
147
0.0
147
0.0
147
0.0
147
0.0
147
0.0208333333333333
147
0.0
147
0.0
147
0.0
147
0.0
147
1.0
147
0.0
147
0.0
147
0.0
147
0.0
147
1.0
  0
MATERIAL
  5
B311
102
{ACAD_XDICTIONARY
360
B312
102
}
102
{ACAD_REACTORS
330
B300
102
}
330
B300
100
AcDbMaterial
  1
Global
 72
     0
 43
0.0208333333333333
 43
0.0
 43
0.0
 43
0.0
 43
0.0
 43
0.0208333333333333
 43
0.0
 43
0.0
 43
0.0
 43
0.0
 43
1.0
 43
0.0
 43
0.0
 43
0.0
 43
0.0
 43
1.0
 77
     0
 47
0.0208333333333333
 47
0.0
 47
0.0
 47
0.0
 47
0.0
 47
0.0208333333333333
 47
0.0
 47
0.0
 47
0.0
 47
0.0
 47
1.0
 47
0.0
 47
0.0
 47
0.0
 47
0.0
 47
1.0
171
     0
 49
0.0208333333333333
 49
0.0
 49
0.0
 49
0.0
 49
0.0
 49
0.0208333333333333
 49
0.0
 49
0.0
 49
0.0
 49
0.0
 49
1.0
 49
0.0
 49
0.0
 49
0.0
 49
0.0
 49
1.0
175
     0
142
0.0208333333333333
142
0.0
142
0.0
142
0.0
142
0.0
142
0.0208333333333333
142
0.0
142
0.0
142
0.0
142
0.0
142
1.0
142
0.0
142
0.0
142
0.0
142
0.0
142
1.0
179
     0
144
0.0208333333333333
144
0.0
144
0.0
144
0.0
144
0.0
144
0.0208333333333333
144
0.0
144
0.0
144
0.0
144
0.0
144
1.0
144
0.0
144
0.0
144
0.0
144
0.0
144
1.0
147
0.0208333333333333
147
0.0
147
0.0
147
0.0
147
0.0
147
0.0208333333333333
147
0.0
147
0.0
147
0.0
147
0.0
147
1.0
147
0.0
147
0.0
147
0.0
147
0.0
147
1.0
  0
MLEADERSTYLE
  5
B348
102
{ACAD_REACTORS
330
B347
102
}
330
B347
100
AcDbMLeaderStyle
170
     2
171
     1
172
     0
 90
        2
 40
0.0
 41
0.0
173
     1
 91
-1056964608
340
AFF0
 92
       -2
290
     1
 42
0.09
291
     1
 43
0.36
  3
Standard
 44
0.18
300

342
AFEE
174
     1
178
     6
175
     1
176
     0
 93
-1056964608
 45
0.18
292
     0
297
     0
 46
0.18
 94
-1056964608
 47
1.0
 49
1.0
140
1.0
293
     1
141
0.0
294
     1
177
     0
142
1.0
295
     0
296
     0
143
0.125
1001
ACAD_MLEADERVER
1070
     2
  0
MLINESTYLE
  5
AFF4
102
{ACAD_REACTORS
330
AFF3
102
}
330
AFF3
100
AcDbMlineStyle
  2
STANDARD
 70
     0
  3

 62
   256
 51
90.0
 52
90.0
 71
     2
 49
0.5
 62
   256
  6
BYLAYER
 49
-0.5
 62
   256
  6
BYLAYER
  0
ACDBPLACEHOLDER
  5
B2FF
102
{ACAD_REACTORS
330
B2FE
102
}
330
B2FE
  0
SCALE
  5
B336
102
{ACAD_REACTORS
330
B335
102
}
330
B335
100
AcDbScale
 70
     0
300
1:1
140
1.0
141
1.0
290
     1
  0
SCALE
  5
B337
102
{ACAD_REACTORS
330
B335
102
}
330
B335
100
AcDbScale
 70
     0
300
1/128" = 1'-0"
140
0.0078125
141
12.0
290
     0
  0
SCALE
  5
B338
102
{ACAD_REACTORS
330
B335
102
}
330
B335
100
AcDbScale
 70
     0
300
1/64" = 1'-0"
140
0.015625
141
12.0
290
     0
  0
SCALE
  5
B339
102
{ACAD_REACTORS
330
B335
102
}
330
B335
100
AcDbScale
 70
     0
300
1/32" = 1'-0"
140
0.03125
141
12.0
290
     0
  0
SCALE
  5
B33A
102
{ACAD_REACTORS
330
B335
102
}
330
B335
100
AcDbScale
 70
     0
300
1/16" = 1'-0"
140
0.0625
141
12.0
290
     0
  0
SCALE
  5
B33B
102
{ACAD_REACTORS
330
B335
102
}
330
B335
100
AcDbScale
 70
     0
300
3/32" = 1'-0"
140
0.09375
141
12.0
290
     0
  0
SCALE
  5
B33C
102
{ACAD_REACTORS
330
B335
102
}
330
B335
100
AcDbScale
 70
     0
300
1/8" = 1'-0"
140
0.125
141
12.0
290
     0
  0
SCALE
  5
B33D
102
{ACAD_REACTORS
330
B335
102
}
330
B335
100
AcDbScale
 70
     0
300
3/16" = 1'-0"
140
0.1875
141
12.0
290
     0
  0
SCALE
  5
B33E
102
{ACAD_REACTORS
330
B335
102
}
330
B335
100
AcDbScale
 70
     0
300
1/4" = 1'-0"
140
0.25
141
12.0
290
     0
  0
SCALE
  5
B33F
102
{ACAD_REACTORS
330
B335
102
}
330
B335
100
AcDbScale
 70
     0
300
3/8" = 1'-0"
140
0.375
141
12.0
290
     0
  0
SCALE
  5
B340
102
{ACAD_REACTORS
330
B335
102
}
330
B335
100
AcDbScale
 70
     0
300
1/2" = 1'-0"
140
0.5
141
12.0
290
     0
  0
SCALE
  5
B341
102
{ACAD_REACTORS
330
B335
102
}
330
B335
100
AcDbScale
 70
     0
300
3/4" = 1'-0"
140
0.75
141
12.0
290
     0
  0
SCALE
  5
B342
102
{ACAD_REACTORS
330
B335
102
}
330
B335
100
AcDbScale
 70
     0
300
1" = 1'-0"
140
1.0
141
12.0
290
     0
  0
SCALE
  5
B343
102
{ACAD_REACTORS
330
B335
102
}
330
B335
100
AcDbScale
 70
     0
300
1-1/2" = 1'-0"
140
1.5
141
12.0
290
     0
  0
SCALE
  5
B344
102
{ACAD_REACTORS
330
B335
102
}
330
B335
100
AcDbScale
 70
     0
300
3" = 1'-0"
140
3.0
141
12.0
290
     0
  0
SCALE
  5
B345
102
{ACAD_REACTORS
330
B335
102
}
330
B335
100
AcDbScale
 70
     0
300
6" = 1'-0"
140
6.0
141
12.0
290
     0
  0
SCALE
  5
B346
102
{ACAD_REACTORS
330
B335
102
}
330
B335
100
AcDbScale
 70
     0
300
1'-0" = 1'-0"
140
12.0
141
12.0
290
     0
  0
ACDBSECTIONVIEWSTYLE
  5
B34A
102
{ACAD_XDICTIONARY
360
B3A5
102
}
102
{ACAD_REACTORS
330
B349
102
}
330
B349
100
AcDbModelDocViewStyle
 70
     0
  3
Imperial24
290
     0
100
AcDbSectionViewStyle
 70
     0
 71
     0
 90
       78
 71
     1
340
AFEE
 40
0.24
340
0
340
0
 40
0.24
300
I, O, Q, S, X, Z
 40
0.48
 90
        3
 40
0.18
 90
        1
 71
     2
340
AFF2
 90
       25
340
AFF2
 90
       50
 40
0.24
 40
0.0
 40
0.24
 71
     3
340
AFEE
 40
0.24
 90
        1
 40
0.75
 90
        1
300
%<\AcVar ViewType \f "%tc1">% %<\AcVar ViewSectionStartId>%-%<\AcVar ViewSectionEndId>%\PSCALE %<\AcVar ViewScale \f "%sn">%
 71
     4
300
ANSI31
 40
1.0
 90
        0
290
     0
290
     0
 90
        6
 40
0.0
 40
1.570796326794896
 40
0.2617993877991494
 40
1.308996938995747
 40
-0.2617993877991494
 40
1.832595714594046
  0
TABLESTYLE
  5
B334
102
{ACAD_XDICTIONARY
360
B36C
102
}
102
{ACAD_REACTORS
330
B333
102
}
330
B333
100
AcDbTableStyle
  3
Standard
 70
     0
 71
     0
 40
0.06
 41
0.06
280
     0
281
     0
  7
STANDARD
140
0.18
170
     2
 62
     0
 63
     7
283
     0
274
    -2
284
     1
 64
     0
275
    -2
285
     1
 65
     0
276
    -2
286
     1
 66
     0
277
    -2
287
     1
 67
     0
278
    -2
288
     1
 68
     0
279
    -2
289
     1
 69
     0
  7
STANDARD
140
0.25
170
     5
 62
     0
 63
     7
283
     0
274
    -2
284
     1
 64
     0
275
    -2
285
     1
 65
     0
276
    -2
286
     1
 66
     0
277
    -2
287
     1
 67
     0
278
    -2
288
     1
 68
     0
279
    -2
289
     1
 69
     0
  7
STANDARD
140
0.18
170
     5
 62
     0
 63
     7
283
     0
274
    -2
284
     1
 64
     0
275
    -2
285
     1
 65
     0
276
    -2
286
     1
 66
     0
277
    -2
287
     1
 67
     0
278
    -2
288
     1
 68
     0
279
    -2
289
     1
 69
     0
  0
VISUALSTYLE
  5
B31F
102
{ACAD_XDICTIONARY
360
B37D
102
}
102
{ACAD_REACTORS
330
B319
102
}
330
B319
100
AcDbVisualStyle
  2
2dWireframe
 70
     4
 71
     0
 72
     2
 73
     0
 90
        0
 40
-0.6
 41
-30.0
 62
     5
 63
     7
 74
     1
 91
        4
 64
     7
 65
   257
 75
     1
175
     1
 42
1.0
 92
        0
 66
   257
 43
1.0
 76
     1
 77
     6
 78
     2
 67
     7
 79
     5
170
     0
171
     0
290
     0
174
     0
 93
        1
 44
0.0
173
     0
291
     0
 45
0.0
1001
ACAD
1000
AcDbSavedByObjectVersion
1070
     0
  0
VISUALSTYLE
  5
B31E
102
{ACAD_XDICTIONARY
360
B37B
102
}
102
{ACAD_REACTORS
330
B319
102
}
330
B319
100
AcDbVisualStyle
  2
Basic
 70
     7
 71
     1
 72
     0
 73
     1
 90
        0
 40
-0.6
 41
-30.0
 62
     5
 63
     7
 74
     0
 91
        4
 64
     7
 65
   257
 75
     1
175
     1
 42
1.0
 92
        8
 66
     7
 43
1.0
 76
     1
 77
     6
 78
     2
 67
     7
 79
     5
170
     0
171
     0
290
     0
174
     0
 93
        1
 44
0.0
173
     0
291
     1
 45
0.0
1001
ACAD
1000
AcDbSavedByObjectVersion
1070
     0
  0
VISUALSTYLE
  5
B325
102
{ACAD_XDICTIONARY
360
B389
102
}
102
{ACAD_REACTORS
330
B319
102
}
330
B319
100
AcDbVisualStyle
  2
Brighten
 70
    12
 71
     2
 72
     2
 73
     0
 90
        0
 40
-0.6
 41
-30.0
 62
     5
 63
     7
 74
     1
 91
        4
 64
     7
 65
   257
 75
     1
175
     1
 42
1.0
 92
        8
 66
     7
 43
1.0
 76
     1
 77
     6
 78
     2
 67
     7
 79
     5
170
     0
171
     0
290
     0
174
     0
 93
        1
 44
50.0
173
     0
291
     1
 45
0.0
1001
ACAD
1000
AcDbSavedByObjectVersion
1070
     0
  0
VISUALSTYLE
  5
B329
102
{ACAD_XDICTIONARY
360
B391
102
}
102
{ACAD_REACTORS
330
B319
102
}
330
B319
100
AcDbVisualStyle
  2
ColorChange
 70
    16
 71
     2
 72
     2
 73
     3
 90
        0
 40
-0.6
 41
-30.0
 62
     5
 63
     8
 74
     1
 91
        4
 64
     7
 65
   257
 75
     1
175
     1
 42
1.0
 92
        8
 66
     8
 43
1.0
 76
     1
 77
     6
 78
     2
 67
     7
 79
     5
170
     0
171
     0
290
     0
174
     0
 93
        1
 44
0.0
173
     0
291
     1
 45
0.0
1001
ACAD
1000
AcDbSavedByObjectVersion
1070
     0
  0
VISUALSTYLE
  5
B322
102
{ACAD_XDICTIONARY
360
B383
102
}
102
{ACAD_REACTORS
330
B319
102
}
330
B319
100
AcDbVisualStyle
  2
Conceptual
 70
     9
 71
     3
 72
     2
 73
     0
 90
        0
 40
-0.6
 41
-30.0
 62
     5
 63
     7
 74
     2
 91
        2
 64
     7
 65
   257
 75
     1
175
     1
 42
179.0
 92
        8
 66
     7
 43
1.0
 76
     1
 77
     6
 78
     2
 67
     7
 79
     3
170
     0
171
     0
290
     0
174
     0
 93
        1
 44
0.0
173
     0
291
     0
 45
0.0
1001
ACAD
1000
AcDbSavedByObjectVersion
1070
     0
  0
VISUALSTYLE
  5
B324
102
{ACAD_XDICTIONARY
360
B387
102
}
102
{ACAD_REACTORS
330
B319
102
}
330
B319
100
AcDbVisualStyle
  2
Dim
 70
    11
 71
     2
 72
     2
 73
     0
 90
        0
 40
-0.6
 41
-30.0
 62
     5
 63
     7
 74
     1
 91
        4
 64
     7
 65
   257
 75
     1
175
     1
 42
1.0
 92
        8
 66
     7
 43
1.0
 76
     1
 77
     6
 78
     2
 67
     7
 79
     5
170
     0
171
     0
290
     0
174
     0
 93
        1
 44
-50.0
173
     0
291
     1
 45
0.0
1001
ACAD
1000
AcDbSavedByObjectVersion
1070
     0
  0
VISUALSTYLE
  5
B331
102
{ACAD_XDICTIONARY
360
B3A1
102
}
102
{ACAD_REACTORS
330
B319
102
}
330
B319
100
AcDbVisualStyle
  2
EdgeColorOff
 70
    22
 71
     2
 72
     2
 73
     0
 90
        0
 40
-0.6
 41
-30.0
 62
     5
 63
     7
 74
     1
 91
        4
 64
     7
 65
   257
 75
     1
175
     1
 42
1.0
 92
        8
 66
     7
 43
1.0
 76
     1
 77
     6
 78
     2
 67
     7
 79
     5
170
     0
171
     0
290
     0
174
     0
 93
        1
 44
0.0
173
     0
291
     1
 45
0.0
1001
ACAD
1000
AcDbSavedByObjectVersion
1070
     0
  0
VISUALSTYLE
  5
B328
102
{ACAD_XDICTIONARY
360
B38F
102
}
102
{ACAD_REACTORS
330
B319
102
}
330
B319
100
AcDbVisualStyle
  2
Facepattern
 70
    15
 71
     2
 72
     2
 73
     0
 90
        0
 40
-0.6
 41
-30.0
 62
     5
 63
     7
 74
     1
 91
        4
 64
     7
 65
   257
 75
     1
175
     1
 42
1.0
 92
        8
 66
     7
 43
1.0
 76
     1
 77
     6
 78
     2
 67
     7
 79
     5
170
     0
171
     0
290
     0
174
     0
 93
        1
 44
0.0
173
     0
291
     1
 45
0.0
1001
ACAD
1000
AcDbSavedByObjectVersion
1070
     0
  0
VISUALSTYLE
  5
B31A
102
{ACAD_XDICTIONARY
360
B373
102
}
102
{ACAD_REACTORS
330
B319
102
}
330
B319
100
AcDbVisualStyle
  2
Flat
 70
     0
 71
     2
 72
     1
 73
     1
 90
        2
 40
-0.6
 41
30.0
 62
     5
 63
     7
 74
     0
 91
        0
 64
     7
 65
   257
 75
     1
175
     1
 42
1.0
 92
        8
 66
     7
 43
1.0
 76
     1
 77
     6
 78
     2
 67
     7
 79
     5
170
     0
171
     0
290
     0
174
     0
 93
       13
 44
0.0
173
     0
291
     1
 45
0.0
1001
ACAD
1000
AcDbSavedByObjectVersion
1070
     0
  0
VISUALSTYLE
  5
B31B
102
{ACAD_XDICTIONARY
360
B375
102
}
102
{ACAD_REACTORS
330
B319
102
}
330
B319
100
AcDbVisualStyle
  2
FlatWithEdges
 70
     1
 71
     2
 72
     1
 73
     1
 90
        2
 40
-0.6
 41
30.0
 62
     5
 63
     7
 74
     1
 91
        0
 64
     7
 65
   257
 75
     1
175
     1
 42
1.0
 92
        0
 66
   257
 43
1.0
 76
     1
 77
     6
 78
     2
 67
     7
 79
     5
170
     0
171
     0
290
     0
174
     0
 93
       13
 44
0.0
173
     0
291
     1
 45
0.0
1001
ACAD
1000
AcDbSavedByObjectVersion
1070
     0
  0
VISUALSTYLE
  5
B31C
102
{ACAD_XDICTIONARY
360
B377
102
}
102
{ACAD_REACTORS
330
B319
102
}
330
B319
100
AcDbVisualStyle
  2
Gouraud
 70
     2
 71
     2
 72
     2
 73
     1
 90
        2
 40
-0.6
 41
30.0
 62
     5
 63
     7
 74
     0
 91
        0
 64
     7
 65
   257
 75
     1
175
     1
 42
1.0
 92
        0
 66
     7
 43
1.0
 76
     1
 77
     6
 78
     2
 67
     7
 79
     5
170
     0
171
     0
290
     0
174
     0
 93
       13
 44
0.0
173
     0
291
     1
 45
0.0
1001
ACAD
1000
AcDbSavedByObjectVersion
1070
     0
  0
VISUALSTYLE
  5
B31D
102
{ACAD_XDICTIONARY
360
B379
102
}
102
{ACAD_REACTORS
330
B319
102
}
330
B319
100
AcDbVisualStyle
  2
GouraudWithEdges
 70
     3
 71
     2
 72
     2
 73
     1
 90
        2
 40
-0.6
 41
30.0
 62
     5
 63
     7
 74
     1
 91
        0
 64
     7
 65
   257
 75
     1
175
     1
 42
1.0
 92
        0
 66
   257
 43
1.0
 76
     1
 77
     6
 78
     2
 67
     7
 79
     5
170
     0
171
     0
290
     0
174
     0
 93
       13
 44
0.0
173
     0
291
     1
 45
0.0
1001
ACAD
1000
AcDbSavedByObjectVersion
1070
     0
  0
VISUALSTYLE
  5
B321
102
{ACAD_XDICTIONARY
360
B381
102
}
102
{ACAD_REACTORS
330
B319
102
}
330
B319
100
AcDbVisualStyle
  2
Hidden
 70
     6
 71
     1
 72
     2
 73
     2
 90
        0
 40
-0.6
 41
-30.0
 62
     5
 63
     7
 74
     2
 91
        2
 64
     7
 65
   257
 75
     2
175
     1
 42
40.0
 92
        0
 66
   257
 43
1.0
 76
     1
 77
     6
 78
     2
 67
     7
 79
     3
170
     0
171
     0
290
     0
174
     0
 93
        1
 44
0.0
173
     0
291
     0
 45
0.0
1001
ACAD
1000
AcDbSavedByObjectVersion
1070
     0
  0
VISUALSTYLE
  5
B32F
102
{ACAD_XDICTIONARY
360
B39D
102
}
102
{ACAD_REACTORS
330
B319
102
}
330
B319
100
AcDbVisualStyle
  2
JitterOff
 70
    20
 71
     2
 72
     2
 73
     0
 90
        0
 40
-0.6
 41
-30.0
 62
     5
 63
     7
 74
     1
 91
        4
 64
     7
 65
   257
 75
     1
175
     1
 42
1.0
 92
       10
 66
     7
 43
1.0
 76
     1
 77
     6
 78
     2
 67
     7
 79
     5
170
     0
171
     0
290
     0
174
     0
 93
        1
 44
0.0
173
     0
291
     1
 45
0.0
1001
ACAD
1000
AcDbSavedByObjectVersion
1070
     0
  0
VISUALSTYLE
  5
B327
102
{ACAD_XDICTIONARY
360
B38D
102
}
102
{ACAD_REACTORS
330
B319
102
}
330
B319
100
AcDbVisualStyle
  2
Linepattern
 70
    14
 71
     2
 72
     2
 73
     0
 90
        0
 40
-0.6
 41
-30.0
 62
     5
 63
     7
 74
     1
 91
        4
 64
     7
 65
   257
 75
     7
175
     7
 42
1.0
 92
        8
 66
     7
 43
1.0
 76
     1
 77
     6
 78
     2
 67
     7
 79
     5
170
     0
171
     0
290
     0
174
     0
 93
        1
 44
0.0
173
     0
291
     1
 45
0.0
1001
ACAD
1000
AcDbSavedByObjectVersion
1070
     0
  0
VISUALSTYLE
  5
B330
102
{ACAD_XDICTIONARY
360
B39F
102
}
102
{ACAD_REACTORS
330
B319
102
}
330
B319
100
AcDbVisualStyle
  2
OverhangOff
 70
    21
 71
     2
 72
     2
 73
     0
 90
        0
 40
-0.6
 41
-30.0
 62
     5
 63
     7
 74
     1
 91
        4
 64
     7
 65
   257
 75
     1
175
     1
 42
1.0
 92
        9
 66
     7
 43
1.0
 76
     1
 77
     6
 78
     2
 67
     7
 79
     5
170
     0
171
     0
290
     0
174
     0
 93
        1
 44
0.0
173
     0
291
     1
 45
0.0
1001
ACAD
1000
AcDbSavedByObjectVersion
1070
     0
  0
VISUALSTYLE
  5
B323
102
{ACAD_XDICTIONARY
360
B385
102
}
102
{ACAD_REACTORS
330
B319
102
}
330
B319
100
AcDbVisualStyle
  2
Realistic
 70
     8
 71
     2
 72
     3
 73
     0
 90
        2
 40
-0.6
 41
30.0
 62
     5
 63
     7
 74
     0
 91
        0
 64
     7
 65
   257
 75
     1
175
     1
 42
1.0
 92
        8
 66
   257
 43
1.0
 76
     1
 77
     6
 78
     2
 67
     7
 79
     3
170
     0
171
     0
290
     0
174
     0
 93
       13
 44
0.0
173
     0
291
     0
 45
0.0
1001
ACAD
1000
AcDbSavedByObjectVersion
1070
     0
  0
VISUALSTYLE
  5
B32E
102
{ACAD_XDICTIONARY
360
B39B
102
}
102
{ACAD_REACTORS
330
B319
102
}
330
B319
100
AcDbVisualStyle
  2
Shaded
 70
    27
 71
     2
 72
     2
 73
     1
 90
        2
 40
-0.6
 41
30.0
 62
     5
 63
     7
 74
     0
 91
        4
 64
     7
 65
   257
 75
     1
175
     1
 42
1.0
 92
        8
 66
   257
 43
1.0
 76
     1
 77
     6
 78
     2
 67
     8
 79
     3
170
     0
171
     0
290
     0
174
     0
 93
        5
 44
0.0
173
     0
291
     0
 45
0.0
1001
ACAD
1000
AcDbSavedByObjectVersion
1070
     0
  0
VISUALSTYLE
  5
B32D
102
{ACAD_XDICTIONARY
360
B399
102
}
102
{ACAD_REACTORS
330
B319
102
}
330
B319
100
AcDbVisualStyle
  2
Shaded with edges
 70
    26
 71
     2
 72
     2
 73
     1
 90
        2
 40
-0.6
 41
30.0
 62
     5
 63
     7
 74
     1
 91
       10
 64
     7
 65
   257
 75
     2
175
     1
 42
1.0
 92
        8
 66
   257
 43
1.0
 76
     1
 77
     6
 78
     2
 67
     7
 79
     3
170
     0
171
     0
290
     0
174
     0
 93
        5
 44
0.0
173
     0
291
     0
 45
0.0
1001
ACAD
1000
AcDbSavedByObjectVersion
1070
     0
  0
VISUALSTYLE
  5
B32A
102
{ACAD_XDICTIONARY
360
B393
102
}
102
{ACAD_REACTORS
330
B319
102
}
330
B319
100
AcDbVisualStyle
  2
Shades of Gray
 70
    23
 71
     2
 72
     2
 73
     3
 90
        0
 40
-0.6
 41
-30.0
 62
     5
 63
     7
 74
     2
 91
        2
 64
     7
 65
     7
 75
     1
175
     1
 42
40.0
 92
        8
 66
     7
 43
1.0
 76
     1
 77
     6
 78
     2
 67
     7
 79
     3
170
     0
171
     0
290
     0
174
     0
 93
        1
 44
0.0
173
     0
291
     0
 45
0.0
1001
ACAD
1000
AcDbSavedByObjectVersion
1070
     0
  0
VISUALSTYLE
  5
B32B
102
{ACAD_XDICTIONARY
360
B395
102
}
102
{ACAD_REACTORS
330
B319
102
}
330
B319
100
AcDbVisualStyle
  2
Sketchy
 70
    24
 71
     1
 72
     2
 73
     2
 90
        0
 40
-0.6
 41
-30.0
 62
     5
 63
     7
 74
     2
 91
        2
 64
     7
 65
     7
 75
     1
175
     1
 42
40.0
 92
       11
 66
     7
 43
1.0
 76
     1
 77
     6
 78
     2
 67
     7
 79
     6
170
     0
171
     0
290
     0
174
     0
 93
        1
 44
0.0
173
     0
291
     0
 45
0.0
1001
ACAD
1000
AcDbSavedByObjectVersion
1070
     0
  0
VISUALSTYLE
  5
B326
102
{ACAD_XDICTIONARY
360
B38B
102
}
102
{ACAD_REACTORS
330
B319
102
}
330
B319
100
AcDbVisualStyle
  2
Thicken
 70
    13
 71
     2
 72
     2
 73
     0
 90
        0
 40
-0.6
 41
-30.0
 62
     5
 63
     7
 74
     1
 91
        4
 64
     7
 65
   257
 75
     1
175
     1
 42
1.0
 92
       12
 66
     7
 43
1.0
 76
     1
 77
     6
 78
     2
 67
     7
 79
     5
170
     0
171
     0
290
     0
174
     0
 93
        1
 44
0.0
173
     0
291
     1
 45
0.0
1001
ACAD
1000
AcDbSavedByObjectVersion
1070
     0
  0
VISUALSTYLE
  5
B320
102
{ACAD_XDICTIONARY
360
B37F
102
}
102
{ACAD_REACTORS
330
B319
102
}
330
B319
100
AcDbVisualStyle
  2
Wireframe
 70
     5
 71
     0
 72
     2
 73
     0
 90
        0
 40
-0.6
 41
-30.0
 62
     5
 63
     7
 74
     1
 91
        4
 64
     7
 65
   257
 75
     1
175
     1
 42
1.0
 92
        0
 66
   257
 43
1.0
 76
     1
 77
     6
 78
     2
 67
     7
 79
     3
170
     0
171
     0
290
     0
174
     0
 93
        1
 44
0.0
173
     0
291
     0
 45
0.0
1001
ACAD
1000
AcDbSavedByObjectVersion
1070
     0
  0
VISUALSTYLE
  5
B32C
102
{ACAD_XDICTIONARY
360
B397
102
}
102
{ACAD_REACTORS
330
B319
102
}
330
B319
100
AcDbVisualStyle
  2
X-Ray
 70
    25
 71
     2
 72
     2
 73
     1
 90
        1
 40
0.5
 41
-30.0
 62
     5
 63
     7
 74
     1
 91
        0
 64
     7
 65
   257
 75
     1
175
     1
 42
1.0
 92
        8
 66
     7
 43
1.0
 76
     1
 77
     6
 78
     2
 67
     7
 79
     3
170
     0
171
     0
290
     0
174
     0
 93
       13
 44
0.0
173
     0
291
     0
 45
0.0
1001
ACAD
1000
AcDbSavedByObjectVersion
1070
     0
  0
DICTIONARYVAR
  5
B366
102
{ACAD_REACTORS
330
B361
102
}
330
B361
100
DictionaryVariables
280
     0
  1
1:1
  0
DICTIONARYVAR
  5
B363
102
{ACAD_REACTORS
330
B361
102
}
330
B361
100
DictionaryVariables
280
     0
  1
STANDARD
  0
DICTIONARYVAR
  5
B362
102
{ACAD_REACTORS
330
B361
102
}
330
B361
100
DictionaryVariables
280
     0
  1
STANDARD
  0
DICTIONARYVAR
  5
B364
102
{ACAD_REACTORS
330
B361
102
}
330
B361
100
DictionaryVariables
280
     0
  1
Imperial24
  0
DICTIONARYVAR
  5
B365
102
{ACAD_REACTORS
330
B361
102
}
330
B361
100
DictionaryVariables
280
     0
  1
Imperial24
  0
DICTIONARYVAR
  5
B369
102
{ACAD_REACTORS
330
B361
102
}
330
B361
100
DictionaryVariables
280
     0
  1
1
  0
DICTIONARYVAR
  5
B368
102
{ACAD_REACTORS
330
B361
102
}
330
B361
100
DictionaryVariables
280
     0
  1
0
  0
DICTIONARYVAR
  5
B367
102
{ACAD_REACTORS
330
B361
102
}
330
B361
100
DictionaryVariables
280
     0
  1
127
  0
DICTIONARYVAR
  5
B36A
102
{ACAD_REACTORS
330
B361
102
}
330
B361
100
DictionaryVariables
280
     0
  1
2
  0
DICTIONARY
  5
B3A7
330
B34C
100
AcDbDictionary
280
     1
281
     1
  3
ACAD_XREC_ROUNDTRIP
360
B3A8
  0
DICTIONARY
  5
B3A9
330
B34D
100
AcDbDictionary
280
     1
281
     1
  3
ACAD_XREC_ROUNDTRIP
360
B3AA
  0
DICTIONARY
  5
B3AB
330
B34E
100
AcDbDictionary
280
     1
281
     1
  3
ACAD_XREC_ROUNDTRIP
360
B3AC
  0
DICTIONARY
  5
B30A
330
B309
100
AcDbDictionary
280
     1
281
     1
  3
ACAD_XREC_ROUNDTRIP
360
B371
  3
BUMPTILE
360
B30C
  3
DIFFUSETILE
360
B30B
  3
OPACITYTILE
360
B30F
  3
REFLECTIONTILE
360
B30E
  3
REFRACTIONTILE
360
B310
  3
SPECULARTILE
360
B30D
  0
DICTIONARY
  5
B302
330
B301
100
AcDbDictionary
280
     1
281
     1
  3
ACAD_XREC_ROUNDTRIP
360
B370
  3
BUMPTILE
360
B304
  3
DIFFUSETILE
360
B303
  3
OPACITYTILE
360
B307
  3
REFLECTIONTILE
360
B306
  3
REFRACTIONTILE
360
B308
  3
SPECULARTILE
360
B305
  0
DICTIONARY
  5
B312
330
B311
100
AcDbDictionary
280
     1
281
     1
  3
ACAD_XREC_ROUNDTRIP
360
B372
  3
BUMPTILE
360
B314
  3
DIFFUSETILE
360
B313
  3
OPACITYTILE
360
B317
  3
REFLECTIONTILE
360
B316
  3
REFRACTIONTILE
360
B318
  3
SPECULARTILE
360
B315
  0
DICTIONARY
  5
B3A5
330
B34A
100
AcDbDictionary
280
     1
281
     1
  3
ACAD_XREC_ROUNDTRIP
360
B3A6
  0
DICTIONARY
  5
B36C
330
B334
100
AcDbDictionary
280
     1
281
     1
  3
ACAD_ROUNDTRIP_2008_TABLESTYLE_CELLSTYLEMAP
360
B36D
  3
ACAD_XREC_ROUNDTRIP
360
B3A3
  0
DICTIONARY
  5
B37D
330
B31F
100
AcDbDictionary
280
     1
281
     1
  3
ACAD_XREC_ROUNDTRIP
360
B37E
  0
DICTIONARY
  5
B37B
330
B31E
100
AcDbDictionary
280
     1
281
     1
  3
ACAD_XREC_ROUNDTRIP
360
B37C
  0
DICTIONARY
  5
B389
330
B325
100
AcDbDictionary
280
     1
281
     1
  3
ACAD_XREC_ROUNDTRIP
360
B38A
  0
DICTIONARY
  5
B391
330
B329
100
AcDbDictionary
280
     1
281
     1
  3
ACAD_XREC_ROUNDTRIP
360
B392
  0
DICTIONARY
  5
B383
330
B322
100
AcDbDictionary
280
     1
281
     1
  3
ACAD_XREC_ROUNDTRIP
360
B384
  0
DICTIONARY
  5
B387
330
B324
100
AcDbDictionary
280
     1
281
     1
  3
ACAD_XREC_ROUNDTRIP
360
B388
  0
DICTIONARY
  5
B3A1
330
B331
100
AcDbDictionary
280
     1
281
     1
  3
ACAD_XREC_ROUNDTRIP
360
B3A2
  0
DICTIONARY
  5
B38F
330
B328
100
AcDbDictionary
280
     1
281
     1
  3
ACAD_XREC_ROUNDTRIP
360
B390
  0
DICTIONARY
  5
B373
330
B31A
100
AcDbDictionary
280
     1
281
     1
  3
ACAD_XREC_ROUNDTRIP
360
B374
  0
DICTIONARY
  5
B375
330
B31B
100
AcDbDictionary
280
     1
281
     1
  3
ACAD_XREC_ROUNDTRIP
360
B376
  0
DICTIONARY
  5
B377
330
B31C
100
AcDbDictionary
280
     1
281
     1
  3
ACAD_XREC_ROUNDTRIP
360
B378
  0
DICTIONARY
  5
B379
330
B31D
100
AcDbDictionary
280
     1
281
     1
  3
ACAD_XREC_ROUNDTRIP
360
B37A
  0
DICTIONARY
  5
B381
330
B321
100
AcDbDictionary
280
     1
281
     1
  3
ACAD_XREC_ROUNDTRIP
360
B382
  0
DICTIONARY
  5
B39D
330
B32F
100
AcDbDictionary
280
     1
281
     1
  3
ACAD_XREC_ROUNDTRIP
360
B39E
  0
DICTIONARY
  5
B38D
330
B327
100
AcDbDictionary
280
     1
281
     1
  3
ACAD_XREC_ROUNDTRIP
360
B38E
  0
DICTIONARY
  5
B39F
330
B330
100
AcDbDictionary
280
     1
281
     1
  3
ACAD_XREC_ROUNDTRIP
360
B3A0
  0
DICTIONARY
  5
B385
330
B323
100
AcDbDictionary
280
     1
281
     1
  3
ACAD_XREC_ROUNDTRIP
360
B386
  0
DICTIONARY
  5
B39B
330
B32E
100
AcDbDictionary
280
     1
281
     1
  3
ACAD_XREC_ROUNDTRIP
360
B39C
  0
DICTIONARY
  5
B399
330
B32D
100
AcDbDictionary
280
     1
281
     1
  3
ACAD_XREC_ROUNDTRIP
360
B39A
  0
DICTIONARY
  5
B393
330
B32A
100
AcDbDictionary
280
     1
281
     1
  3
ACAD_XREC_ROUNDTRIP
360
B394
  0
DICTIONARY
  5
B395
330
B32B
100
AcDbDictionary
280
     1
281
     1
  3
ACAD_XREC_ROUNDTRIP
360
B396
  0
DICTIONARY
  5
B38B
330
B326
100
AcDbDictionary
280
     1
281
     1
  3
ACAD_XREC_ROUNDTRIP
360
B38C
  0
DICTIONARY
  5
B37F
330
B320
100
AcDbDictionary
280
     1
281
     1
  3
ACAD_XREC_ROUNDTRIP
360
B380
  0
DICTIONARY
  5
B397
330
B32C
100
AcDbDictionary
280
     1
281
     1
  3
ACAD_XREC_ROUNDTRIP
360
B398
  0
XRECORD
  5
B3A8
102
{ACAD_REACTORS
330
B3A7
102
}
330
B3A7
100
AcDbXrecord
280
     1
102
DISPLAYNAME
  1
Imperial24
102
FLAGS
 90
        0
  0
XRECORD
  5
B3AA
102
{ACAD_REACTORS
330
B3A9
102
}
330
B3A9
100
AcDbXrecord
280
     1
102
SHADEPLOT
 70
     0
102
SHADEPLOTRESLEVEL
 70
     2
102
SHADEPLOTCUSTOMDPI
 70
   300
  0
XRECORD
  5
B3AC
102
{ACAD_REACTORS
330
B3AB
102
}
330
B3AB
100
AcDbXrecord
280
     1
102
SHADEPLOT
 70
     0
102
SHADEPLOTRESLEVEL
 70
     2
102
SHADEPLOTCUSTOMDPI
 70
   300
  0
XRECORD
  5
B371
102
{ACAD_REACTORS
330
B30A
102
}
330
B30A
100
AcDbXrecord
280
     1
102
MATERIAL
148
0.0
149
0.0
149
0.0
 93
        0
 94
      127
282
     0
 72
     0
 77
     0
171
     0
175
     0
179
     0
273
     0
  0
XRECORD
  5
B30C
102
{ACAD_REACTORS
330
B30A
102
}
330
B30A
100
AcDbXrecord
280
     1
270
     1
271
     1
  0
XRECORD
  5
B30B
102
{ACAD_REACTORS
330
B30A
102
}
330
B30A
100
AcDbXrecord
280
     1
270
     1
271
     1
  0
XRECORD
  5
B30F
102
{ACAD_REACTORS
330
B30A
102
}
330
B30A
100
AcDbXrecord
280
     1
270
     1
271
     1
  0
XRECORD
  5
B30E
102
{ACAD_REACTORS
330
B30A
102
}
330
B30A
100
AcDbXrecord
280
     1
270
     1
271
     1
  0
XRECORD
  5
B310
102
{ACAD_REACTORS
330
B30A
102
}
330
B30A
100
AcDbXrecord
280
     1
270
     1
271
     1
  0
XRECORD
  5
B30D
102
{ACAD_REACTORS
330
B30A
102
}
330
B30A
100
AcDbXrecord
280
     1
270
     1
271
     1
  0
XRECORD
  5
B370
102
{ACAD_REACTORS
330
B302
102
}
330
B302
100
AcDbXrecord
280
     1
102
MATERIAL
148
0.0
149
0.0
149
0.0
 93
        0
 94
      127
282
     0
 72
     0
 77
     0
171
     0
175
     0
179
     0
273
     0
  0
XRECORD
  5
B304
102
{ACAD_REACTORS
330
B302
102
}
330
B302
100
AcDbXrecord
280
     1
270
     1
271
     1
  0
XRECORD
  5
B303
102
{ACAD_REACTORS
330
B302
102
}
330
B302
100
AcDbXrecord
280
     1
270
     1
271
     1
  0
XRECORD
  5
B307
102
{ACAD_REACTORS
330
B302
102
}
330
B302
100
AcDbXrecord
280
     1
270
     1
271
     1
  0
XRECORD
  5
B306
102
{ACAD_REACTORS
330
B302
102
}
330
B302
100
AcDbXrecord
280
     1
270
     1
271
     1
  0
XRECORD
  5
B308
102
{ACAD_REACTORS
330
B302
102
}
330
B302
100
AcDbXrecord
280
     1
270
     1
271
     1
  0
XRECORD
  5
B305
102
{ACAD_REACTORS
330
B302
102
}
330
B302
100
AcDbXrecord
280
     1
270
     1
271
     1
  0
XRECORD
  5
B372
102
{ACAD_REACTORS
330
B312
102
}
330
B312
100
AcDbXrecord
280
     1
102
MATERIAL
148
0.0
149
0.0
149
0.0
 93
        0
 94
      127
282
     0
 72
     0
 77
     0
171
     0
175
     0
179
     0
273
     0
  0
XRECORD
  5
B314
102
{ACAD_REACTORS
330
B312
102
}
330
B312
100
AcDbXrecord
280
     1
270
     1
271
     1
  0
XRECORD
  5
B313
102
{ACAD_REACTORS
330
B312
102
}
330
B312
100
AcDbXrecord
280
     1
270
     1
271
     1
  0
XRECORD
  5
B317
102
{ACAD_REACTORS
330
B312
102
}
330
B312
100
AcDbXrecord
280
     1
270
     1
271
     1
  0
XRECORD
  5
B316
102
{ACAD_REACTORS
330
B312
102
}
330
B312
100
AcDbXrecord
280
     1
270
     1
271
     1
  0
XRECORD
  5
B318
102
{ACAD_REACTORS
330
B312
102
}
330
B312
100
AcDbXrecord
280
     1
270
     1
271
     1
  0
XRECORD
  5
B315
102
{ACAD_REACTORS
330
B312
102
}
330
B312
100
AcDbXrecord
280
     1
270
     1
271
     1
  0
XRECORD
  5
B3A6
102
{ACAD_REACTORS
330
B3A5
102
}
330
B3A5
100
AcDbXrecord
280
     1
102
DISPLAYNAME
  1
Imperial24
102
FLAGS
 90
        0
  0
CELLSTYLEMAP
  5
B36D
102
{ACAD_REACTORS
330
B36C
102
}
330
B36C
100
AcDbCellStyleMap
 90
        3
300
CELLSTYLE
  1
TABLEFORMAT_BEGIN
 90
        5
170
     1
 91
        0
 92
    32768
 62
   257
 93
        1
300
CONTENTFORMAT
  1
CONTENTFORMAT_BEGIN
 90
        0
 91
        0
 92
      512
 93
        0
300

 40
0.0
140
1.0
 94
        5
 62
     0
340
AFEE
144
0.25
309
CONTENTFORMAT_END
171
     0
 94
        0
309
TABLEFORMAT_END
  1
CELLSTYLE_BEGIN
 90
        1
 91
        1
300
_TITLE
309
CELLSTYLE_END
300
CELLSTYLE
  1
TABLEFORMAT_BEGIN
 90
        5
170
     1
 91
        0
 92
        0
 62
   257
 93
        1
300
CONTENTFORMAT
  1
CONTENTFORMAT_BEGIN
 90
        0
 91
        0
 92
      512
 93
        0
300

 40
0.0
140
1.0
 94
        5
 62
     0
340
AFEE
144
0.18
309
CONTENTFORMAT_END
171
     0
 94
        0
309
TABLEFORMAT_END
  1
CELLSTYLE_BEGIN
 90
        2
 91
        1
300
_HEADER
309
CELLSTYLE_END
300
CELLSTYLE
  1
TABLEFORMAT_BEGIN
 90
        5
170
     1
 91
        0
 92
        0
 62
   257
 93
        1
300
CONTENTFORMAT
  1
CONTENTFORMAT_BEGIN
 90
        0
 91
        0
 92
      512
 93
        0
300

 40
0.0
140
1.0
 94
        2
 62
     0
340
AFEE
144
0.18
309
CONTENTFORMAT_END
171
     0
 94
        0
309
TABLEFORMAT_END
  1
CELLSTYLE_BEGIN
 90
        3
 91
        2
300
_DATA
309
CELLSTYLE_END
  0
XRECORD
  5
B3A3
102
{ACAD_REACTORS
330
B36C
102
}
330
B36C
100
AcDbXrecord
280
     1
102
ACAD_ROUNDTRIP_PRE2007_TABLESTYLE
 90
      512
 91
        0
  1

 92
      512
 93
        0
  2

 94
      512
 95
        0
  3

  0
XRECORD
  5
B37E
102
{ACAD_REACTORS
330
B37D
102
}
330
B37D
100
AcDbXrecord
280
     1
102
RTVSPost2010Prop28
280
     1
102
RTVSPost2010PropOp28
 70
     1
102
RTVSPost2010Prop29
280
     1
102
RTVSPost2010PropOp29
 70
     1
102
RTVSPost2010Prop30
280
     0
102
RTVSPost2010PropOp30
 70
     1
102
RTVSPost2010Prop31
280
     0
102
RTVSPost2010PropOp31
 70
     1
102
RTVSPost2010Prop32
280
     0
102
RTVSPost2010PropOp32
 70
     1
102
RTVSPost2010Prop33
280
     0
102
RTVSPost2010PropOp33
 70
     1
102
RTVSPost2010Prop34
280
     0
102
RTVSPost2010PropOp34
 70
     1
102
RTVSPost2010Prop35
280
     0
102
RTVSPost2010PropOp35
 70
     1
102
RTVSPost2010Prop36
280
     0
102
RTVSPost2010PropOp36
 70
     1
102
RTVSPost2010Prop37
 90
       50
102
RTVSPost2010PropOp37
 70
     1
102
RTVSPost2010Prop38
140
0.0
102
RTVSPost2010PropOp38
 70
     1
102
RTVSPost2010Prop39
140
1.0
102
RTVSPost2010PropOp39
 70
     1
102
RTVSPost2010Prop40
 90
        0
102
RTVSPost2010PropOp40
 70
     1
102
RTVSPost2010Prop41ColorIndex
 90
       18
102
RTVSPost2010Prop41ColorRGB
 90
        0
102
RTVSPost2010PropOp41
 70
     1
102
RTVSPost2010Prop42
 90
       50
102
RTVSPost2010PropOp42
 70
     1
102
RTVSPost2010Prop43
 90
        3
102
RTVSPost2010PropOp43
 70
     1
102
RTVSPost2010Prop44ColorIndex
 90
        5
102
RTVSPost2010Prop44ColorRGB
 90
      255
102
RTVSPost2010PropOp44
 70
     1
102
RTVSPost2010Prop45
280
     0
102
RTVSPost2010PropOp45
 70
     1
102
RTVSPost2010Prop46
 90
       50
102
RTVSPost2010PropOp46
 70
     1
102
RTVSPost2010Prop47
 90
       50
102
RTVSPost2010PropOp47
 70
     1
102
RTVSPost2010Prop48
 90
       50
102
RTVSPost2010PropOp48
 70
     1
102
RTVSPost2010Prop49
280
     0
102
RTVSPost2010PropOp49
 70
     1
102
RTVSPost2010Prop50
 90
       50
102
RTVSPost2010PropOp50
 70
     1
102
RTVSPost2010Prop51ColorIndex
 90
      256
102
RTVSPost2010Prop51ColorRGB
 90
-16777216
102
RTVSPost2010PropOp51
 70
     0
102
RTVSPost2010Prop52
140
1.0
102
RTVSPost2010PropOp52
 70
     0
102
RTVSPost2010Prop53
 90
        2
102
RTVSPost2010PropOp53
 70
     1
102
RTVSPost2010Prop54
  1
strokes_ogs.tif
102
RTVSPost2010PropOp54
 70
     1
102
RTVSPost2010Prop55
280
     0
102
RTVSPost2010PropOp55
 70
     1
102
RTVSPost2010Prop56
140
1.0
102
RTVSPost2010PropOp56
 70
     1
102
RTVSPost2010Prop57
140
1.0
102
RTVSPost2010PropOp57
 70
     1
102
RTVSPropertyOp0
 70
     1
102
RTVSPropertyOp1
 70
     1
102
RTVSPropertyOp2
 70
     1
102
RTVSPropertyOp3
 70
     1
102
RTVSPropertyOp4
 70
     1
102
RTVSPropertyOp5
 70
     1
102
RTVSPropertyOp6
 70
     1
102
RTVSPropertyOp7
 70
     1
102
RTVSPropertyOp8
 70
     1
102
RTVSPropertyOp9
 70
     1
102
RTVSPropertyOp10
 70
     1
102
RTVSPropertyOp11
 70
     1
102
RTVSPropertyOp12
 70
     1
102
RTVSPropertyOp13
 70
     1
102
RTVSPropertyOp14
 70
     1
102
RTVSPropertyOp15
 70
     1
102
RTVSPropertyOp16
 70
     1
102
RTVSPropertyOp17
 70
     1
102
RTVSPropertyOp18
 70
     1
102
RTVSPropertyOp19
 70
     1
102
RTVSPropertyOp20
 70
     1
102
RTVSPropertyOp21
 70
     1
102
RTVSPropertyOp22
 70
     1
102
RTVSPropertyOp23
 70
     1
102
RTVSPropertyOp24
 70
     1
102
RTVSPropertyOp25
 70
     1
102
RTVSPropertyOp26
 70
     1
102
RTVSPropertyOp27
 70
     1
102
RTVSPropertyOp28
 70
     1
102
RTVSPropertyOp29
 70
     1
102
RTVSPropertyOp30
 70
     1
102
RTVSPropertyOp31
 70
     1
102
RTVSPropertyOp32
 70
     1
102
RTVSPropertyOp33
 70
     1
102
RTVSPropertyOp34
 70
     1
102
RTVSPropertyOp35
 70
     1
102
RTVSPropertyOp36
 70
     1
102
RTVSPropertyOp37
 70
     1
102
RTVSPropertyOp38
 70
     1
102
RTVSPropertyOp39
 70
     1
102
RTVSPropertyOp40
 70
     1
102
RTVSPropertyOp41
 70
     1
102
RTVSPropertyOp42
 70
     1
102
RTVSPropertyOp43
 70
     1
102
RTVSPropertyOp44
 70
     1
102
RTVSPropertyOp45
 70
     1
102
RTVSPropertyOp46
 70
     1
102
RTVSPropertyOp47
 70
     1
102
RTVSPropertyOp48
 70
     1
102
RTVSPropertyOp49
 70
     1
102
RTVSPropertyOp50
 70
     1
102
RTVSPropertyOp51
 70
     0
102
RTVSPropertyOp52
 70
     0
102
RTVSPropertyOp53
 70
     1
102
RTVSPropertyOp54
 70
     1
102
RTVSPropertyOp55
 70
     1
102
RTVSPropertyOp56
 70
     1
102
RTVSPropertyOp57
 70
     1
102
RTVSPropertyOp58
 70
     1
102
RTVSPropertyOp59
 70
     1
102
RTVSPropertyOp60
 70
     1
102
RTVSPropertyOp61
 70
     1
102
RTVSPropertyOp62
 70
     1
  0
XRECORD
  5
B37C
102
{ACAD_REACTORS
330
B37B
102
}
330
B37B
100
AcDbXrecord
280
     1
102
RTVSPost2010Prop28
280
     0
102
RTVSPost2010PropOp28
 70
     1
102
RTVSPost2010Prop29
280
     1
102
RTVSPost2010PropOp29
 70
     1
102
RTVSPost2010Prop30
280
     1
102
RTVSPost2010PropOp30
 70
     1
102
RTVSPost2010Prop31
280
     0
102
RTVSPost2010PropOp31
 70
     1
102
RTVSPost2010Prop32
280
     0
102
RTVSPost2010PropOp32
 70
     1
102
RTVSPost2010Prop33
280
     0
102
RTVSPost2010PropOp33
 70
     1
102
RTVSPost2010Prop34
280
     0
102
RTVSPost2010PropOp34
 70
     1
102
RTVSPost2010Prop35
280
     0
102
RTVSPost2010PropOp35
 70
     1
102
RTVSPost2010Prop36
280
     0
102
RTVSPost2010PropOp36
 70
     1
102
RTVSPost2010Prop37
 90
       50
102
RTVSPost2010PropOp37
 70
     1
102
RTVSPost2010Prop38
140
0.0
102
RTVSPost2010PropOp38
 70
     1
102
RTVSPost2010Prop39
140
1.0
102
RTVSPost2010PropOp39
 70
     1
102
RTVSPost2010Prop40
 90
        0
102
RTVSPost2010PropOp40
 70
     1
102
RTVSPost2010Prop41ColorIndex
 90
       18
102
RTVSPost2010Prop41ColorRGB
 90
        0
102
RTVSPost2010PropOp41
 70
     1
102
RTVSPost2010Prop42
 90
       50
102
RTVSPost2010PropOp42
 70
     1
102
RTVSPost2010Prop43
 90
        3
102
RTVSPost2010PropOp43
 70
     1
102
RTVSPost2010Prop44ColorIndex
 90
        5
102
RTVSPost2010Prop44ColorRGB
 90
      255
102
RTVSPost2010PropOp44
 70
     1
102
RTVSPost2010Prop45
280
     0
102
RTVSPost2010PropOp45
 70
     1
102
RTVSPost2010Prop46
 90
       50
102
RTVSPost2010PropOp46
 70
     1
102
RTVSPost2010Prop47
 90
       50
102
RTVSPost2010PropOp47
 70
     1
102
RTVSPost2010Prop48
 90
       50
102
RTVSPost2010PropOp48
 70
     1
102
RTVSPost2010Prop49
280
     0
102
RTVSPost2010PropOp49
 70
     1
102
RTVSPost2010Prop50
 90
       50
102
RTVSPost2010PropOp50
 70
     1
102
RTVSPost2010Prop51ColorIndex
 90
      256
102
RTVSPost2010Prop51ColorRGB
 90
-16777216
102
RTVSPost2010PropOp51
 70
     0
102
RTVSPost2010Prop52
140
1.0
102
RTVSPost2010PropOp52
 70
     0
102
RTVSPost2010Prop53
 90
        2
102
RTVSPost2010PropOp53
 70
     1
102
RTVSPost2010Prop54
  1
strokes_ogs.tif
102
RTVSPost2010PropOp54
 70
     1
102
RTVSPost2010Prop55
280
     0
102
RTVSPost2010PropOp55
 70
     1
102
RTVSPost2010Prop56
140
1.0
102
RTVSPost2010PropOp56
 70
     1
102
RTVSPost2010Prop57
140
1.0
102
RTVSPost2010PropOp57
 70
     1
102
RTVSPropertyOp0
 70
     1
102
RTVSPropertyOp1
 70
     1
102
RTVSPropertyOp2
 70
     1
102
RTVSPropertyOp3
 70
     1
102
RTVSPropertyOp4
 70
     1
102
RTVSPropertyOp5
 70
     1
102
RTVSPropertyOp6
 70
     1
102
RTVSPropertyOp7
 70
     1
102
RTVSPropertyOp8
 70
     1
102
RTVSPropertyOp9
 70
     1
102
RTVSPropertyOp10
 70
     1
102
RTVSPropertyOp11
 70
     1
102
RTVSPropertyOp12
 70
     1
102
RTVSPropertyOp13
 70
     1
102
RTVSPropertyOp14
 70
     1
102
RTVSPropertyOp15
 70
     1
102
RTVSPropertyOp16
 70
     1
102
RTVSPropertyOp17
 70
     1
102
RTVSPropertyOp18
 70
     1
102
RTVSPropertyOp19
 70
     1
102
RTVSPropertyOp20
 70
     1
102
RTVSPropertyOp21
 70
     1
102
RTVSPropertyOp22
 70
     1
102
RTVSPropertyOp23
 70
     1
102
RTVSPropertyOp24
 70
     1
102
RTVSPropertyOp25
 70
     1
102
RTVSPropertyOp26
 70
     1
102
RTVSPropertyOp27
 70
     1
102
RTVSPropertyOp28
 70
     1
102
RTVSPropertyOp29
 70
     1
102
RTVSPropertyOp30
 70
     1
102
RTVSPropertyOp31
 70
     1
102
RTVSPropertyOp32
 70
     1
102
RTVSPropertyOp33
 70
     1
102
RTVSPropertyOp34
 70
     1
102
RTVSPropertyOp35
 70
     1
102
RTVSPropertyOp36
 70
     1
102
RTVSPropertyOp37
 70
     1
102
RTVSPropertyOp38
 70
     1
102
RTVSPropertyOp39
 70
     1
102
RTVSPropertyOp40
 70
     1
102
RTVSPropertyOp41
 70
     1
102
RTVSPropertyOp42
 70
     1
102
RTVSPropertyOp43
 70
     1
102
RTVSPropertyOp44
 70
     1
102
RTVSPropertyOp45
 70
     1
102
RTVSPropertyOp46
 70
     1
102
RTVSPropertyOp47
 70
     1
102
RTVSPropertyOp48
 70
     1
102
RTVSPropertyOp49
 70
     1
102
RTVSPropertyOp50
 70
     1
102
RTVSPropertyOp51
 70
     0
102
RTVSPropertyOp52
 70
     0
102
RTVSPropertyOp53
 70
     1
102
RTVSPropertyOp54
 70
     1
102
RTVSPropertyOp55
 70
     1
102
RTVSPropertyOp56
 70
     1
102
RTVSPropertyOp57
 70
     1
102
RTVSPropertyOp58
 70
     1
102
RTVSPropertyOp59
 70
     1
102
RTVSPropertyOp60
 70
     1
102
RTVSPropertyOp61
 70
     1
102
RTVSPropertyOp62
 70
     1
  0
XRECORD
  5
B38A
102
{ACAD_REACTORS
330
B389
102
}
330
B389
100
AcDbXrecord
280
     1
102
RTVSPost2010Prop28
280
     0
102
RTVSPost2010PropOp28
 70
     1
102
RTVSPost2010Prop29
280
     1
102
RTVSPost2010PropOp29
 70
     1
102
RTVSPost2010Prop30
280
     1
102
RTVSPost2010PropOp30
 70
     1
102
RTVSPost2010Prop31
280
     0
102
RTVSPost2010PropOp31
 70
     1
102
RTVSPost2010Prop32
280
     0
102
RTVSPost2010PropOp32
 70
     1
102
RTVSPost2010Prop33
280
     0
102
RTVSPost2010PropOp33
 70
     1
102
RTVSPost2010Prop34
280
     0
102
RTVSPost2010PropOp34
 70
     1
102
RTVSPost2010Prop35
280
     0
102
RTVSPost2010PropOp35
 70
     1
102
RTVSPost2010Prop36
280
     0
102
RTVSPost2010PropOp36
 70
     1
102
RTVSPost2010Prop37
 90
       50
102
RTVSPost2010PropOp37
 70
     1
102
RTVSPost2010Prop38
140
0.0
102
RTVSPost2010PropOp38
 70
     1
102
RTVSPost2010Prop39
140
1.0
102
RTVSPost2010PropOp39
 70
     1
102
RTVSPost2010Prop40
 90
        0
102
RTVSPost2010PropOp40
 70
     1
102
RTVSPost2010Prop41ColorIndex
 90
       18
102
RTVSPost2010Prop41ColorRGB
 90
        0
102
RTVSPost2010PropOp41
 70
     1
102
RTVSPost2010Prop42
 90
       50
102
RTVSPost2010PropOp42
 70
     1
102
RTVSPost2010Prop43
 90
        3
102
RTVSPost2010PropOp43
 70
     1
102
RTVSPost2010Prop44ColorIndex
 90
        5
102
RTVSPost2010Prop44ColorRGB
 90
      255
102
RTVSPost2010PropOp44
 70
     1
102
RTVSPost2010Prop45
280
     0
102
RTVSPost2010PropOp45
 70
     1
102
RTVSPost2010Prop46
 90
       50
102
RTVSPost2010PropOp46
 70
     1
102
RTVSPost2010Prop47
 90
       50
102
RTVSPost2010PropOp47
 70
     1
102
RTVSPost2010Prop48
 90
       50
102
RTVSPost2010PropOp48
 70
     1
102
RTVSPost2010Prop49
280
     0
102
RTVSPost2010PropOp49
 70
     1
102
RTVSPost2010Prop50
 90
       50
102
RTVSPost2010PropOp50
 70
     1
102
RTVSPost2010Prop51ColorIndex
 90
      256
102
RTVSPost2010Prop51ColorRGB
 90
-16777216
102
RTVSPost2010PropOp51
 70
     0
102
RTVSPost2010Prop52
140
1.0
102
RTVSPost2010PropOp52
 70
     0
102
RTVSPost2010Prop53
 90
        2
102
RTVSPost2010PropOp53
 70
     1
102
RTVSPost2010Prop54
  1
strokes_ogs.tif
102
RTVSPost2010PropOp54
 70
     1
102
RTVSPost2010Prop55
280
     0
102
RTVSPost2010PropOp55
 70
     1
102
RTVSPost2010Prop56
140
1.0
102
RTVSPost2010PropOp56
 70
     1
102
RTVSPost2010Prop57
140
1.0
102
RTVSPost2010PropOp57
 70
     1
102
RTVSPropertyOp0
 70
     1
102
RTVSPropertyOp1
 70
     1
102
RTVSPropertyOp2
 70
     1
102
RTVSPropertyOp3
 70
     1
102
RTVSPropertyOp4
 70
     1
102
RTVSPropertyOp5
 70
     1
102
RTVSPropertyOp6
 70
     1
102
RTVSPropertyOp7
 70
     1
102
RTVSPropertyOp8
 70
     1
102
RTVSPropertyOp9
 70
     1
102
RTVSPropertyOp10
 70
     1
102
RTVSPropertyOp11
 70
     1
102
RTVSPropertyOp12
 70
     1
102
RTVSPropertyOp13
 70
     1
102
RTVSPropertyOp14
 70
     1
102
RTVSPropertyOp15
 70
     1
102
RTVSPropertyOp16
 70
     1
102
RTVSPropertyOp17
 70
     1
102
RTVSPropertyOp18
 70
     1
102
RTVSPropertyOp19
 70
     1
102
RTVSPropertyOp20
 70
     1
102
RTVSPropertyOp21
 70
     1
102
RTVSPropertyOp22
 70
     1
102
RTVSPropertyOp23
 70
     1
102
RTVSPropertyOp24
 70
     1
102
RTVSPropertyOp25
 70
     1
102
RTVSPropertyOp26
 70
     1
102
RTVSPropertyOp27
 70
     1
102
RTVSPropertyOp28
 70
     1
102
RTVSPropertyOp29
 70
     1
102
RTVSPropertyOp30
 70
     1
102
RTVSPropertyOp31
 70
     1
102
RTVSPropertyOp32
 70
     1
102
RTVSPropertyOp33
 70
     1
102
RTVSPropertyOp34
 70
     1
102
RTVSPropertyOp35
 70
     1
102
RTVSPropertyOp36
 70
     1
102
RTVSPropertyOp37
 70
     1
102
RTVSPropertyOp38
 70
     1
102
RTVSPropertyOp39
 70
     1
102
RTVSPropertyOp40
 70
     1
102
RTVSPropertyOp41
 70
     1
102
RTVSPropertyOp42
 70
     1
102
RTVSPropertyOp43
 70
     1
102
RTVSPropertyOp44
 70
     1
102
RTVSPropertyOp45
 70
     1
102
RTVSPropertyOp46
 70
     1
102
RTVSPropertyOp47
 70
     1
102
RTVSPropertyOp48
 70
     1
102
RTVSPropertyOp49
 70
     1
102
RTVSPropertyOp50
 70
     1
102
RTVSPropertyOp51
 70
     0
102
RTVSPropertyOp52
 70
     0
102
RTVSPropertyOp53
 70
     1
102
RTVSPropertyOp54
 70
     1
102
RTVSPropertyOp55
 70
     1
102
RTVSPropertyOp56
 70
     1
102
RTVSPropertyOp57
 70
     1
102
RTVSPropertyOp58
 70
     1
102
RTVSPropertyOp59
 70
     1
102
RTVSPropertyOp60
 70
     1
102
RTVSPropertyOp61
 70
     1
102
RTVSPropertyOp62
 70
     1
  0
XRECORD
  5
B392
102
{ACAD_REACTORS
330
B391
102
}
330
B391
100
AcDbXrecord
280
     1
102
RTVSPost2010Prop28
280
     0
102
RTVSPost2010PropOp28
 70
     1
102
RTVSPost2010Prop29
280
     1
102
RTVSPost2010PropOp29
 70
     1
102
RTVSPost2010Prop30
280
     1
102
RTVSPost2010PropOp30
 70
     1
102
RTVSPost2010Prop31
280
     0
102
RTVSPost2010PropOp31
 70
     1
102
RTVSPost2010Prop32
280
     0
102
RTVSPost2010PropOp32
 70
     1
102
RTVSPost2010Prop33
280
     0
102
RTVSPost2010PropOp33
 70
     1
102
RTVSPost2010Prop34
280
     0
102
RTVSPost2010PropOp34
 70
     1
102
RTVSPost2010Prop35
280
     0
102
RTVSPost2010PropOp35
 70
     1
102
RTVSPost2010Prop36
280
     0
102
RTVSPost2010PropOp36
 70
     1
102
RTVSPost2010Prop37
 90
       50
102
RTVSPost2010PropOp37
 70
     1
102
RTVSPost2010Prop38
140
0.0
102
RTVSPost2010PropOp38
 70
     1
102
RTVSPost2010Prop39
140
1.0
102
RTVSPost2010PropOp39
 70
     1
102
RTVSPost2010Prop40
 90
        0
102
RTVSPost2010PropOp40
 70
     1
102
RTVSPost2010Prop41ColorIndex
 90
       18
102
RTVSPost2010Prop41ColorRGB
 90
        0
102
RTVSPost2010PropOp41
 70
     1
102
RTVSPost2010Prop42
 90
       50
102
RTVSPost2010PropOp42
 70
     1
102
RTVSPost2010Prop43
 90
        3
102
RTVSPost2010PropOp43
 70
     1
102
RTVSPost2010Prop44ColorIndex
 90
        5
102
RTVSPost2010Prop44ColorRGB
 90
      255
102
RTVSPost2010PropOp44
 70
     1
102
RTVSPost2010Prop45
280
     0
102
RTVSPost2010PropOp45
 70
     1
102
RTVSPost2010Prop46
 90
       50
102
RTVSPost2010PropOp46
 70
     1
102
RTVSPost2010Prop47
 90
       50
102
RTVSPost2010PropOp47
 70
     1
102
RTVSPost2010Prop48
 90
       50
102
RTVSPost2010PropOp48
 70
     1
102
RTVSPost2010Prop49
280
     0
102
RTVSPost2010PropOp49
 70
     1
102
RTVSPost2010Prop50
 90
       50
102
RTVSPost2010PropOp50
 70
     1
102
RTVSPost2010Prop51ColorIndex
 90
      256
102
RTVSPost2010Prop51ColorRGB
 90
-16777216
102
RTVSPost2010PropOp51
 70
     0
102
RTVSPost2010Prop52
140
1.0
102
RTVSPost2010PropOp52
 70
     0
102
RTVSPost2010Prop53
 90
        2
102
RTVSPost2010PropOp53
 70
     1
102
RTVSPost2010Prop54
  1
strokes_ogs.tif
102
RTVSPost2010PropOp54
 70
     1
102
RTVSPost2010Prop55
280
     0
102
RTVSPost2010PropOp55
 70
     1
102
RTVSPost2010Prop56
140
1.0
102
RTVSPost2010PropOp56
 70
     1
102
RTVSPost2010Prop57
140
1.0
102
RTVSPost2010PropOp57
 70
     1
102
RTVSPropertyOp0
 70
     1
102
RTVSPropertyOp1
 70
     1
102
RTVSPropertyOp2
 70
     1
102
RTVSPropertyOp3
 70
     1
102
RTVSPropertyOp4
 70
     1
102
RTVSPropertyOp5
 70
     1
102
RTVSPropertyOp6
 70
     1
102
RTVSPropertyOp7
 70
     1
102
RTVSPropertyOp8
 70
     1
102
RTVSPropertyOp9
 70
     1
102
RTVSPropertyOp10
 70
     1
102
RTVSPropertyOp11
 70
     1
102
RTVSPropertyOp12
 70
     1
102
RTVSPropertyOp13
 70
     1
102
RTVSPropertyOp14
 70
     1
102
RTVSPropertyOp15
 70
     1
102
RTVSPropertyOp16
 70
     1
102
RTVSPropertyOp17
 70
     1
102
RTVSPropertyOp18
 70
     1
102
RTVSPropertyOp19
 70
     1
102
RTVSPropertyOp20
 70
     1
102
RTVSPropertyOp21
 70
     1
102
RTVSPropertyOp22
 70
     1
102
RTVSPropertyOp23
 70
     1
102
RTVSPropertyOp24
 70
     1
102
RTVSPropertyOp25
 70
     1
102
RTVSPropertyOp26
 70
     1
102
RTVSPropertyOp27
 70
     1
102
RTVSPropertyOp28
 70
     1
102
RTVSPropertyOp29
 70
     1
102
RTVSPropertyOp30
 70
     1
102
RTVSPropertyOp31
 70
     1
102
RTVSPropertyOp32
 70
     1
102
RTVSPropertyOp33
 70
     1
102
RTVSPropertyOp34
 70
     1
102
RTVSPropertyOp35
 70
     1
102
RTVSPropertyOp36
 70
     1
102
RTVSPropertyOp37
 70
     1
102
RTVSPropertyOp38
 70
     1
102
RTVSPropertyOp39
 70
     1
102
RTVSPropertyOp40
 70
     1
102
RTVSPropertyOp41
 70
     1
102
RTVSPropertyOp42
 70
     1
102
RTVSPropertyOp43
 70
     1
102
RTVSPropertyOp44
 70
     1
102
RTVSPropertyOp45
 70
     1
102
RTVSPropertyOp46
 70
     1
102
RTVSPropertyOp47
 70
     1
102
RTVSPropertyOp48
 70
     1
102
RTVSPropertyOp49
 70
     1
102
RTVSPropertyOp50
 70
     1
102
RTVSPropertyOp51
 70
     0
102
RTVSPropertyOp52
 70
     0
102
RTVSPropertyOp53
 70
     1
102
RTVSPropertyOp54
 70
     1
102
RTVSPropertyOp55
 70
     1
102
RTVSPropertyOp56
 70
     1
102
RTVSPropertyOp57
 70
     1
102
RTVSPropertyOp58
 70
     1
102
RTVSPropertyOp59
 70
     1
102
RTVSPropertyOp60
 70
     1
102
RTVSPropertyOp61
 70
     1
102
RTVSPropertyOp62
 70
     1
  0
XRECORD
  5
B384
102
{ACAD_REACTORS
330
B383
102
}
330
B383
100
AcDbXrecord
280
     1
102
RTVSPost2010Prop28
280
     0
102
RTVSPost2010PropOp28
 70
     1
102
RTVSPost2010Prop29
280
     1
102
RTVSPost2010PropOp29
 70
     1
102
RTVSPost2010Prop30
280
     1
102
RTVSPost2010PropOp30
 70
     1
102
RTVSPost2010Prop31
280
     0
102
RTVSPost2010PropOp31
 70
     1
102
RTVSPost2010Prop32
280
     0
102
RTVSPost2010PropOp32
 70
     1
102
RTVSPost2010Prop33
280
     0
102
RTVSPost2010PropOp33
 70
     1
102
RTVSPost2010Prop34
280
     0
102
RTVSPost2010PropOp34
 70
     1
102
RTVSPost2010Prop35
280
     0
102
RTVSPost2010PropOp35
 70
     1
102
RTVSPost2010Prop36
280
     0
102
RTVSPost2010PropOp36
 70
     1
102
RTVSPost2010Prop37
 90
       50
102
RTVSPost2010PropOp37
 70
     1
102
RTVSPost2010Prop38
140
0.0
102
RTVSPost2010PropOp38
 70
     1
102
RTVSPost2010Prop39
140
1.0
102
RTVSPost2010PropOp39
 70
     1
102
RTVSPost2010Prop40
 90
        0
102
RTVSPost2010PropOp40
 70
     1
102
RTVSPost2010Prop41ColorIndex
 90
       18
102
RTVSPost2010Prop41ColorRGB
 90
        0
102
RTVSPost2010PropOp41
 70
     1
102
RTVSPost2010Prop42
 90
       50
102
RTVSPost2010PropOp42
 70
     1
102
RTVSPost2010Prop43
 90
        3
102
RTVSPost2010PropOp43
 70
     1
102
RTVSPost2010Prop44ColorIndex
 90
        5
102
RTVSPost2010Prop44ColorRGB
 90
      255
102
RTVSPost2010PropOp44
 70
     1
102
RTVSPost2010Prop45
280
     0
102
RTVSPost2010PropOp45
 70
     1
102
RTVSPost2010Prop46
 90
       50
102
RTVSPost2010PropOp46
 70
     1
102
RTVSPost2010Prop47
 90
       50
102
RTVSPost2010PropOp47
 70
     1
102
RTVSPost2010Prop48
 90
       50
102
RTVSPost2010PropOp48
 70
     1
102
RTVSPost2010Prop49
280
     0
102
RTVSPost2010PropOp49
 70
     1
102
RTVSPost2010Prop50
 90
       50
102
RTVSPost2010PropOp50
 70
     1
102
RTVSPost2010Prop51ColorIndex
 90
      256
102
RTVSPost2010Prop51ColorRGB
 90
-16777216
102
RTVSPost2010PropOp51
 70
     0
102
RTVSPost2010Prop52
140
1.0
102
RTVSPost2010PropOp52
 70
     0
102
RTVSPost2010Prop53
 90
        2
102
RTVSPost2010PropOp53
 70
     1
102
RTVSPost2010Prop54
  1
strokes_ogs.tif
102
RTVSPost2010PropOp54
 70
     1
102
RTVSPost2010Prop55
280
     0
102
RTVSPost2010PropOp55
 70
     1
102
RTVSPost2010Prop56
140
1.0
102
RTVSPost2010PropOp56
 70
     1
102
RTVSPost2010Prop57
140
1.0
102
RTVSPost2010PropOp57
 70
     1
102
RTVSPropertyOp0
 70
     1
102
RTVSPropertyOp1
 70
     1
102
RTVSPropertyOp2
 70
     1
102
RTVSPropertyOp3
 70
     1
102
RTVSPropertyOp4
 70
     1
102
RTVSPropertyOp5
 70
     1
102
RTVSPropertyOp6
 70
     1
102
RTVSPropertyOp7
 70
     1
102
RTVSPropertyOp8
 70
     1
102
RTVSPropertyOp9
 70
     1
102
RTVSPropertyOp10
 70
     1
102
RTVSPropertyOp11
 70
     1
102
RTVSPropertyOp12
 70
     1
102
RTVSPropertyOp13
 70
     1
102
RTVSPropertyOp14
 70
     1
102
RTVSPropertyOp15
 70
     1
102
RTVSPropertyOp16
 70
     1
102
RTVSPropertyOp17
 70
     1
102
RTVSPropertyOp18
 70
     1
102
RTVSPropertyOp19
 70
     1
102
RTVSPropertyOp20
 70
     1
102
RTVSPropertyOp21
 70
     1
102
RTVSPropertyOp22
 70
     1
102
RTVSPropertyOp23
 70
     1
102
RTVSPropertyOp24
 70
     1
102
RTVSPropertyOp25
 70
     1
102
RTVSPropertyOp26
 70
     1
102
RTVSPropertyOp27
 70
     1
102
RTVSPropertyOp28
 70
     1
102
RTVSPropertyOp29
 70
     1
102
RTVSPropertyOp30
 70
     1
102
RTVSPropertyOp31
 70
     1
102
RTVSPropertyOp32
 70
     1
102
RTVSPropertyOp33
 70
     1
102
RTVSPropertyOp34
 70
     1
102
RTVSPropertyOp35
 70
     1
102
RTVSPropertyOp36
 70
     1
102
RTVSPropertyOp37
 70
     1
102
RTVSPropertyOp38
 70
     1
102
RTVSPropertyOp39
 70
     1
102
RTVSPropertyOp40
 70
     1
102
RTVSPropertyOp41
 70
     1
102
RTVSPropertyOp42
 70
     1
102
RTVSPropertyOp43
 70
     1
102
RTVSPropertyOp44
 70
     1
102
RTVSPropertyOp45
 70
     1
102
RTVSPropertyOp46
 70
     1
102
RTVSPropertyOp47
 70
     1
102
RTVSPropertyOp48
 70
     1
102
RTVSPropertyOp49
 70
     1
102
RTVSPropertyOp50
 70
     1
102
RTVSPropertyOp51
 70
     0
102
RTVSPropertyOp52
 70
     0
102
RTVSPropertyOp53
 70
     1
102
RTVSPropertyOp54
 70
     1
102
RTVSPropertyOp55
 70
     1
102
RTVSPropertyOp56
 70
     1
102
RTVSPropertyOp57
 70
     1
102
RTVSPropertyOp58
 70
     1
102
RTVSPropertyOp59
 70
     1
102
RTVSPropertyOp60
 70
     1
102
RTVSPropertyOp61
 70
     1
102
RTVSPropertyOp62
 70
     1
  0
XRECORD
  5
B388
102
{ACAD_REACTORS
330
B387
102
}
330
B387
100
AcDbXrecord
280
     1
102
RTVSPost2010Prop28
280
     0
102
RTVSPost2010PropOp28
 70
     1
102
RTVSPost2010Prop29
280
     1
102
RTVSPost2010PropOp29
 70
     1
102
RTVSPost2010Prop30
280
     1
102
RTVSPost2010PropOp30
 70
     1
102
RTVSPost2010Prop31
280
     0
102
RTVSPost2010PropOp31
 70
     1
102
RTVSPost2010Prop32
280
     0
102
RTVSPost2010PropOp32
 70
     1
102
RTVSPost2010Prop33
280
     0
102
RTVSPost2010PropOp33
 70
     1
102
RTVSPost2010Prop34
280
     0
102
RTVSPost2010PropOp34
 70
     1
102
RTVSPost2010Prop35
280
     0
102
RTVSPost2010PropOp35
 70
     1
102
RTVSPost2010Prop36
280
     0
102
RTVSPost2010PropOp36
 70
     1
102
RTVSPost2010Prop37
 90
       50
102
RTVSPost2010PropOp37
 70
     1
102
RTVSPost2010Prop38
140
0.0
102
RTVSPost2010PropOp38
 70
     1
102
RTVSPost2010Prop39
140
1.0
102
RTVSPost2010PropOp39
 70
     1
102
RTVSPost2010Prop40
 90
        0
102
RTVSPost2010PropOp40
 70
     1
102
RTVSPost2010Prop41ColorIndex
 90
       18
102
RTVSPost2010Prop41ColorRGB
 90
        0
102
RTVSPost2010PropOp41
 70
     1
102
RTVSPost2010Prop42
 90
       50
102
RTVSPost2010PropOp42
 70
     1
102
RTVSPost2010Prop43
 90
        3
102
RTVSPost2010PropOp43
 70
     1
102
RTVSPost2010Prop44ColorIndex
 90
        5
102
RTVSPost2010Prop44ColorRGB
 90
      255
102
RTVSPost2010PropOp44
 70
     1
102
RTVSPost2010Prop45
280
     0
102
RTVSPost2010PropOp45
 70
     1
102
RTVSPost2010Prop46
 90
       50
102
RTVSPost2010PropOp46
 70
     1
102
RTVSPost2010Prop47
 90
       50
102
RTVSPost2010PropOp47
 70
     1
102
RTVSPost2010Prop48
 90
       50
102
RTVSPost2010PropOp48
 70
     1
102
RTVSPost2010Prop49
280
     0
102
RTVSPost2010PropOp49
 70
     1
102
RTVSPost2010Prop50
 90
       50
102
RTVSPost2010PropOp50
 70
     1
102
RTVSPost2010Prop51ColorIndex
 90
      256
102
RTVSPost2010Prop51ColorRGB
 90
-16777216
102
RTVSPost2010PropOp51
 70
     0
102
RTVSPost2010Prop52
140
1.0
102
RTVSPost2010PropOp52
 70
     0
102
RTVSPost2010Prop53
 90
        2
102
RTVSPost2010PropOp53
 70
     1
102
RTVSPost2010Prop54
  1
strokes_ogs.tif
102
RTVSPost2010PropOp54
 70
     1
102
RTVSPost2010Prop55
280
     0
102
RTVSPost2010PropOp55
 70
     1
102
RTVSPost2010Prop56
140
1.0
102
RTVSPost2010PropOp56
 70
     1
102
RTVSPost2010Prop57
140
1.0
102
RTVSPost2010PropOp57
 70
     1
102
RTVSPropertyOp0
 70
     1
102
RTVSPropertyOp1
 70
     1
102
RTVSPropertyOp2
 70
     1
102
RTVSPropertyOp3
 70
     1
102
RTVSPropertyOp4
 70
     1
102
RTVSPropertyOp5
 70
     1
102
RTVSPropertyOp6
 70
     1
102
RTVSPropertyOp7
 70
     1
102
RTVSPropertyOp8
 70
     1
102
RTVSPropertyOp9
 70
     1
102
RTVSPropertyOp10
 70
     1
102
RTVSPropertyOp11
 70
     1
102
RTVSPropertyOp12
 70
     1
102
RTVSPropertyOp13
 70
     1
102
RTVSPropertyOp14
 70
     1
102
RTVSPropertyOp15
 70
     1
102
RTVSPropertyOp16
 70
     1
102
RTVSPropertyOp17
 70
     1
102
RTVSPropertyOp18
 70
     1
102
RTVSPropertyOp19
 70
     1
102
RTVSPropertyOp20
 70
     1
102
RTVSPropertyOp21
 70
     1
102
RTVSPropertyOp22
 70
     1
102
RTVSPropertyOp23
 70
     1
102
RTVSPropertyOp24
 70
     1
102
RTVSPropertyOp25
 70
     1
102
RTVSPropertyOp26
 70
     1
102
RTVSPropertyOp27
 70
     1
102
RTVSPropertyOp28
 70
     1
102
RTVSPropertyOp29
 70
     1
102
RTVSPropertyOp30
 70
     1
102
RTVSPropertyOp31
 70
     1
102
RTVSPropertyOp32
 70
     1
102
RTVSPropertyOp33
 70
     1
102
RTVSPropertyOp34
 70
     1
102
RTVSPropertyOp35
 70
     1
102
RTVSPropertyOp36
 70
     1
102
RTVSPropertyOp37
 70
     1
102
RTVSPropertyOp38
 70
     1
102
RTVSPropertyOp39
 70
     1
102
RTVSPropertyOp40
 70
     1
102
RTVSPropertyOp41
 70
     1
102
RTVSPropertyOp42
 70
     1
102
RTVSPropertyOp43
 70
     1
102
RTVSPropertyOp44
 70
     1
102
RTVSPropertyOp45
 70
     1
102
RTVSPropertyOp46
 70
     1
102
RTVSPropertyOp47
 70
     1
102
RTVSPropertyOp48
 70
     1
102
RTVSPropertyOp49
 70
     1
102
RTVSPropertyOp50
 70
     1
102
RTVSPropertyOp51
 70
     0
102
RTVSPropertyOp52
 70
     0
102
RTVSPropertyOp53
 70
     1
102
RTVSPropertyOp54
 70
     1
102
RTVSPropertyOp55
 70
     1
102
RTVSPropertyOp56
 70
     1
102
RTVSPropertyOp57
 70
     1
102
RTVSPropertyOp58
 70
     1
102
RTVSPropertyOp59
 70
     1
102
RTVSPropertyOp60
 70
     1
102
RTVSPropertyOp61
 70
     1
102
RTVSPropertyOp62
 70
     1
  0
XRECORD
  5
B3A2
102
{ACAD_REACTORS
330
B3A1
102
}
330
B3A1
100
AcDbXrecord
280
     1
102
RTVSPost2010Prop28
280
     0
102
RTVSPost2010PropOp28
 70
     1
102
RTVSPost2010Prop29
280
     1
102
RTVSPost2010PropOp29
 70
     1
102
RTVSPost2010Prop30
280
     1
102
RTVSPost2010PropOp30
 70
     1
102
RTVSPost2010Prop31
280
     0
102
RTVSPost2010PropOp31
 70
     1
102
RTVSPost2010Prop32
280
     0
102
RTVSPost2010PropOp32
 70
     1
102
RTVSPost2010Prop33
280
     0
102
RTVSPost2010PropOp33
 70
     1
102
RTVSPost2010Prop34
280
     0
102
RTVSPost2010PropOp34
 70
     1
102
RTVSPost2010Prop35
280
     0
102
RTVSPost2010PropOp35
 70
     1
102
RTVSPost2010Prop36
280
     0
102
RTVSPost2010PropOp36
 70
     1
102
RTVSPost2010Prop37
 90
       50
102
RTVSPost2010PropOp37
 70
     0
102
RTVSPost2010Prop38
140
0.0
102
RTVSPost2010PropOp38
 70
     0
102
RTVSPost2010Prop39
140
1.0
102
RTVSPost2010PropOp39
 70
     0
102
RTVSPost2010Prop40
 90
        0
102
RTVSPost2010PropOp40
 70
     0
102
RTVSPost2010Prop41ColorIndex
 90
       18
102
RTVSPost2010Prop41ColorRGB
 90
        0
102
RTVSPost2010PropOp41
 70
     0
102
RTVSPost2010Prop42
 90
       50
102
RTVSPost2010PropOp42
 70
     0
102
RTVSPost2010Prop43
 90
        3
102
RTVSPost2010PropOp43
 70
     0
102
RTVSPost2010Prop44ColorIndex
 90
        5
102
RTVSPost2010Prop44ColorRGB
 90
      255
102
RTVSPost2010PropOp44
 70
     0
102
RTVSPost2010Prop45
280
     0
102
RTVSPost2010PropOp45
 70
     1
102
RTVSPost2010Prop46
 90
       50
102
RTVSPost2010PropOp46
 70
     0
102
RTVSPost2010Prop47
 90
       50
102
RTVSPost2010PropOp47
 70
     0
102
RTVSPost2010Prop48
 90
       50
102
RTVSPost2010PropOp48
 70
     0
102
RTVSPost2010Prop49
280
     0
102
RTVSPost2010PropOp49
 70
     1
102
RTVSPost2010Prop50
 90
       50
102
RTVSPost2010PropOp50
 70
     0
102
RTVSPost2010Prop51ColorIndex
 90
      256
102
RTVSPost2010Prop51ColorRGB
 90
-16777216
102
RTVSPost2010PropOp51
 70
     0
102
RTVSPost2010Prop52
140
1.0
102
RTVSPost2010PropOp52
 70
     0
102
RTVSPost2010Prop53
 90
        2
102
RTVSPost2010PropOp53
 70
     0
102
RTVSPost2010Prop54
  1
strokes_ogs.tif
102
RTVSPost2010PropOp54
 70
     0
102
RTVSPost2010Prop55
280
     0
102
RTVSPost2010PropOp55
 70
     1
102
RTVSPost2010Prop56
140
1.0
102
RTVSPost2010PropOp56
 70
     0
102
RTVSPost2010Prop57
140
1.0
102
RTVSPost2010PropOp57
 70
     0
102
RTVSPropertyOp0
 70
     0
102
RTVSPropertyOp1
 70
     0
102
RTVSPropertyOp2
 70
     0
102
RTVSPropertyOp3
 70
     0
102
RTVSPropertyOp4
 70
     0
102
RTVSPropertyOp5
 70
     0
102
RTVSPropertyOp6
 70
     0
102
RTVSPropertyOp7
 70
     0
102
RTVSPropertyOp8
 70
     0
102
RTVSPropertyOp9
 70
     0
102
RTVSPropertyOp10
 70
     0
102
RTVSPropertyOp11
 70
     0
102
RTVSPropertyOp12
 70
     0
102
RTVSPropertyOp13
 70
     0
102
RTVSPropertyOp14
 70
     2
102
RTVSPropertyOp15
 70
     0
102
RTVSPropertyOp16
 70
     0
102
RTVSPropertyOp17
 70
     0
102
RTVSPropertyOp18
 70
     0
102
RTVSPropertyOp19
 70
     0
102
RTVSPropertyOp20
 70
     0
102
RTVSPropertyOp21
 70
     0
102
RTVSPropertyOp22
 70
     0
102
RTVSPropertyOp23
 70
     0
102
RTVSPropertyOp24
 70
     0
102
RTVSPropertyOp25
 70
     0
102
RTVSPropertyOp26
 70
     0
102
RTVSPropertyOp27
 70
     0
102
RTVSPropertyOp28
 70
     1
102
RTVSPropertyOp29
 70
     1
102
RTVSPropertyOp30
 70
     1
102
RTVSPropertyOp31
 70
     1
102
RTVSPropertyOp32
 70
     1
102
RTVSPropertyOp33
 70
     1
102
RTVSPropertyOp34
 70
     1
102
RTVSPropertyOp35
 70
     1
102
RTVSPropertyOp36
 70
     1
102
RTVSPropertyOp37
 70
     0
102
RTVSPropertyOp38
 70
     0
102
RTVSPropertyOp39
 70
     0
102
RTVSPropertyOp40
 70
     0
102
RTVSPropertyOp41
 70
     0
102
RTVSPropertyOp42
 70
     0
102
RTVSPropertyOp43
 70
     0
102
RTVSPropertyOp44
 70
     0
102
RTVSPropertyOp45
 70
     1
102
RTVSPropertyOp46
 70
     0
102
RTVSPropertyOp47
 70
     0
102
RTVSPropertyOp48
 70
     0
102
RTVSPropertyOp49
 70
     1
102
RTVSPropertyOp50
 70
     0
102
RTVSPropertyOp51
 70
     0
102
RTVSPropertyOp52
 70
     0
102
RTVSPropertyOp53
 70
     0
102
RTVSPropertyOp54
 70
     0
102
RTVSPropertyOp55
 70
     1
102
RTVSPropertyOp56
 70
     0
102
RTVSPropertyOp57
 70
     0
102
RTVSPropertyOp58
 70
     0
102
RTVSPropertyOp59
 70
     0
102
RTVSPropertyOp60
 70
     0
102
RTVSPropertyOp61
 70
     0
102
RTVSPropertyOp62
 70
     0
  0
XRECORD
  5
B390
102
{ACAD_REACTORS
330
B38F
102
}
330
B38F
100
AcDbXrecord
280
     1
102
RTVSPost2010Prop28
280
     0
102
RTVSPost2010PropOp28
 70
     1
102
RTVSPost2010Prop29
280
     1
102
RTVSPost2010PropOp29
 70
     1
102
RTVSPost2010Prop30
280
     1
102
RTVSPost2010PropOp30
 70
     1
102
RTVSPost2010Prop31
280
     0
102
RTVSPost2010PropOp31
 70
     1
102
RTVSPost2010Prop32
280
     0
102
RTVSPost2010PropOp32
 70
     1
102
RTVSPost2010Prop33
280
     0
102
RTVSPost2010PropOp33
 70
     1
102
RTVSPost2010Prop34
280
     0
102
RTVSPost2010PropOp34
 70
     1
102
RTVSPost2010Prop35
280
     0
102
RTVSPost2010PropOp35
 70
     1
102
RTVSPost2010Prop36
280
     0
102
RTVSPost2010PropOp36
 70
     1
102
RTVSPost2010Prop37
 90
       50
102
RTVSPost2010PropOp37
 70
     1
102
RTVSPost2010Prop38
140
0.0
102
RTVSPost2010PropOp38
 70
     1
102
RTVSPost2010Prop39
140
1.0
102
RTVSPost2010PropOp39
 70
     1
102
RTVSPost2010Prop40
 90
        0
102
RTVSPost2010PropOp40
 70
     1
102
RTVSPost2010Prop41ColorIndex
 90
       18
102
RTVSPost2010Prop41ColorRGB
 90
        0
102
RTVSPost2010PropOp41
 70
     1
102
RTVSPost2010Prop42
 90
       50
102
RTVSPost2010PropOp42
 70
     1
102
RTVSPost2010Prop43
 90
        3
102
RTVSPost2010PropOp43
 70
     1
102
RTVSPost2010Prop44ColorIndex
 90
        5
102
RTVSPost2010Prop44ColorRGB
 90
      255
102
RTVSPost2010PropOp44
 70
     1
102
RTVSPost2010Prop45
280
     0
102
RTVSPost2010PropOp45
 70
     1
102
RTVSPost2010Prop46
 90
       50
102
RTVSPost2010PropOp46
 70
     1
102
RTVSPost2010Prop47
 90
       50
102
RTVSPost2010PropOp47
 70
     1
102
RTVSPost2010Prop48
 90
       50
102
RTVSPost2010PropOp48
 70
     1
102
RTVSPost2010Prop49
280
     0
102
RTVSPost2010PropOp49
 70
     1
102
RTVSPost2010Prop50
 90
       50
102
RTVSPost2010PropOp50
 70
     1
102
RTVSPost2010Prop51ColorIndex
 90
      256
102
RTVSPost2010Prop51ColorRGB
 90
-16777216
102
RTVSPost2010PropOp51
 70
     0
102
RTVSPost2010Prop52
140
1.0
102
RTVSPost2010PropOp52
 70
     0
102
RTVSPost2010Prop53
 90
        2
102
RTVSPost2010PropOp53
 70
     1
102
RTVSPost2010Prop54
  1
strokes_ogs.tif
102
RTVSPost2010PropOp54
 70
     1
102
RTVSPost2010Prop55
280
     0
102
RTVSPost2010PropOp55
 70
     1
102
RTVSPost2010Prop56
140
1.0
102
RTVSPost2010PropOp56
 70
     1
102
RTVSPost2010Prop57
140
1.0
102
RTVSPost2010PropOp57
 70
     1
102
RTVSPropertyOp0
 70
     1
102
RTVSPropertyOp1
 70
     1
102
RTVSPropertyOp2
 70
     1
102
RTVSPropertyOp3
 70
     1
102
RTVSPropertyOp4
 70
     1
102
RTVSPropertyOp5
 70
     1
102
RTVSPropertyOp6
 70
     1
102
RTVSPropertyOp7
 70
     1
102
RTVSPropertyOp8
 70
     1
102
RTVSPropertyOp9
 70
     1
102
RTVSPropertyOp10
 70
     1
102
RTVSPropertyOp11
 70
     1
102
RTVSPropertyOp12
 70
     1
102
RTVSPropertyOp13
 70
     1
102
RTVSPropertyOp14
 70
     1
102
RTVSPropertyOp15
 70
     1
102
RTVSPropertyOp16
 70
     1
102
RTVSPropertyOp17
 70
     1
102
RTVSPropertyOp18
 70
     1
102
RTVSPropertyOp19
 70
     1
102
RTVSPropertyOp20
 70
     1
102
RTVSPropertyOp21
 70
     1
102
RTVSPropertyOp22
 70
     1
102
RTVSPropertyOp23
 70
     1
102
RTVSPropertyOp24
 70
     1
102
RTVSPropertyOp25
 70
     1
102
RTVSPropertyOp26
 70
     1
102
RTVSPropertyOp27
 70
     1
102
RTVSPropertyOp28
 70
     1
102
RTVSPropertyOp29
 70
     1
102
RTVSPropertyOp30
 70
     1
102
RTVSPropertyOp31
 70
     1
102
RTVSPropertyOp32
 70
     1
102
RTVSPropertyOp33
 70
     1
102
RTVSPropertyOp34
 70
     1
102
RTVSPropertyOp35
 70
     1
102
RTVSPropertyOp36
 70
     1
102
RTVSPropertyOp37
 70
     1
102
RTVSPropertyOp38
 70
     1
102
RTVSPropertyOp39
 70
     1
102
RTVSPropertyOp40
 70
     1
102
RTVSPropertyOp41
 70
     1
102
RTVSPropertyOp42
 70
     1
102
RTVSPropertyOp43
 70
     1
102
RTVSPropertyOp44
 70
     1
102
RTVSPropertyOp45
 70
     1
102
RTVSPropertyOp46
 70
     1
102
RTVSPropertyOp47
 70
     1
102
RTVSPropertyOp48
 70
     1
102
RTVSPropertyOp49
 70
     1
102
RTVSPropertyOp50
 70
     1
102
RTVSPropertyOp51
 70
     0
102
RTVSPropertyOp52
 70
     0
102
RTVSPropertyOp53
 70
     1
102
RTVSPropertyOp54
 70
     1
102
RTVSPropertyOp55
 70
     1
102
RTVSPropertyOp56
 70
     1
102
RTVSPropertyOp57
 70
     1
102
RTVSPropertyOp58
 70
     1
102
RTVSPropertyOp59
 70
     1
102
RTVSPropertyOp60
 70
     1
102
RTVSPropertyOp61
 70
     1
102
RTVSPropertyOp62
 70
     1
  0
XRECORD
  5
B374
102
{ACAD_REACTORS
330
B373
102
}
330
B373
100
AcDbXrecord
280
     1
102
RTVSPost2010Prop28
280
     0
102
RTVSPost2010PropOp28
 70
     1
102
RTVSPost2010Prop29
280
     1
102
RTVSPost2010PropOp29
 70
     1
102
RTVSPost2010Prop30
280
     1
102
RTVSPost2010PropOp30
 70
     1
102
RTVSPost2010Prop31
280
     0
102
RTVSPost2010PropOp31
 70
     1
102
RTVSPost2010Prop32
280
     0
102
RTVSPost2010PropOp32
 70
     1
102
RTVSPost2010Prop33
280
     0
102
RTVSPost2010PropOp33
 70
     1
102
RTVSPost2010Prop34
280
     0
102
RTVSPost2010PropOp34
 70
     1
102
RTVSPost2010Prop35
280
     0
102
RTVSPost2010PropOp35
 70
     1
102
RTVSPost2010Prop36
280
     0
102
RTVSPost2010PropOp36
 70
     1
102
RTVSPost2010Prop37
 90
       50
102
RTVSPost2010PropOp37
 70
     1
102
RTVSPost2010Prop38
140
0.0
102
RTVSPost2010PropOp38
 70
     1
102
RTVSPost2010Prop39
140
1.0
102
RTVSPost2010PropOp39
 70
     1
102
RTVSPost2010Prop40
 90
        0
102
RTVSPost2010PropOp40
 70
     1
102
RTVSPost2010Prop41ColorIndex
 90
       18
102
RTVSPost2010Prop41ColorRGB
 90
        0
102
RTVSPost2010PropOp41
 70
     1
102
RTVSPost2010Prop42
 90
       50
102
RTVSPost2010PropOp42
 70
     1
102
RTVSPost2010Prop43
 90
        3
102
RTVSPost2010PropOp43
 70
     1
102
RTVSPost2010Prop44ColorIndex
 90
        5
102
RTVSPost2010Prop44ColorRGB
 90
      255
102
RTVSPost2010PropOp44
 70
     1
102
RTVSPost2010Prop45
280
     0
102
RTVSPost2010PropOp45
 70
     1
102
RTVSPost2010Prop46
 90
       50
102
RTVSPost2010PropOp46
 70
     1
102
RTVSPost2010Prop47
 90
       50
102
RTVSPost2010PropOp47
 70
     1
102
RTVSPost2010Prop48
 90
       50
102
RTVSPost2010PropOp48
 70
     1
102
RTVSPost2010Prop49
280
     0
102
RTVSPost2010PropOp49
 70
     1
102
RTVSPost2010Prop50
 90
       50
102
RTVSPost2010PropOp50
 70
     1
102
RTVSPost2010Prop51ColorIndex
 90
      256
102
RTVSPost2010Prop51ColorRGB
 90
-16777216
102
RTVSPost2010PropOp51
 70
     0
102
RTVSPost2010Prop52
140
1.0
102
RTVSPost2010PropOp52
 70
     0
102
RTVSPost2010Prop53
 90
        2
102
RTVSPost2010PropOp53
 70
     1
102
RTVSPost2010Prop54
  1
strokes_ogs.tif
102
RTVSPost2010PropOp54
 70
     1
102
RTVSPost2010Prop55
280
     0
102
RTVSPost2010PropOp55
 70
     1
102
RTVSPost2010Prop56
140
1.0
102
RTVSPost2010PropOp56
 70
     1
102
RTVSPost2010Prop57
140
1.0
102
RTVSPost2010PropOp57
 70
     1
102
RTVSPropertyOp0
 70
     1
102
RTVSPropertyOp1
 70
     1
102
RTVSPropertyOp2
 70
     1
102
RTVSPropertyOp3
 70
     1
102
RTVSPropertyOp4
 70
     1
102
RTVSPropertyOp5
 70
     1
102
RTVSPropertyOp6
 70
     1
102
RTVSPropertyOp7
 70
     1
102
RTVSPropertyOp8
 70
     1
102
RTVSPropertyOp9
 70
     1
102
RTVSPropertyOp10
 70
     1
102
RTVSPropertyOp11
 70
     1
102
RTVSPropertyOp12
 70
     1
102
RTVSPropertyOp13
 70
     1
102
RTVSPropertyOp14
 70
     1
102
RTVSPropertyOp15
 70
     1
102
RTVSPropertyOp16
 70
     1
102
RTVSPropertyOp17
 70
     1
102
RTVSPropertyOp18
 70
     1
102
RTVSPropertyOp19
 70
     1
102
RTVSPropertyOp20
 70
     1
102
RTVSPropertyOp21
 70
     1
102
RTVSPropertyOp22
 70
     1
102
RTVSPropertyOp23
 70
     1
102
RTVSPropertyOp24
 70
     1
102
RTVSPropertyOp25
 70
     1
102
RTVSPropertyOp26
 70
     1
102
RTVSPropertyOp27
 70
     1
102
RTVSPropertyOp28
 70
     1
102
RTVSPropertyOp29
 70
     1
102
RTVSPropertyOp30
 70
     1
102
RTVSPropertyOp31
 70
     1
102
RTVSPropertyOp32
 70
     1
102
RTVSPropertyOp33
 70
     1
102
RTVSPropertyOp34
 70
     1
102
RTVSPropertyOp35
 70
     1
102
RTVSPropertyOp36
 70
     1
102
RTVSPropertyOp37
 70
     1
102
RTVSPropertyOp38
 70
     1
102
RTVSPropertyOp39
 70
     1
102
RTVSPropertyOp40
 70
     1
102
RTVSPropertyOp41
 70
     1
102
RTVSPropertyOp42
 70
     1
102
RTVSPropertyOp43
 70
     1
102
RTVSPropertyOp44
 70
     1
102
RTVSPropertyOp45
 70
     1
102
RTVSPropertyOp46
 70
     1
102
RTVSPropertyOp47
 70
     1
102
RTVSPropertyOp48
 70
     1
102
RTVSPropertyOp49
 70
     1
102
RTVSPropertyOp50
 70
     1
102
RTVSPropertyOp51
 70
     0
102
RTVSPropertyOp52
 70
     0
102
RTVSPropertyOp53
 70
     1
102
RTVSPropertyOp54
 70
     1
102
RTVSPropertyOp55
 70
     1
102
RTVSPropertyOp56
 70
     1
102
RTVSPropertyOp57
 70
     1
102
RTVSPropertyOp58
 70
     1
102
RTVSPropertyOp59
 70
     1
102
RTVSPropertyOp60
 70
     1
102
RTVSPropertyOp61
 70
     1
102
RTVSPropertyOp62
 70
     1
  0
XRECORD
  5
B376
102
{ACAD_REACTORS
330
B375
102
}
330
B375
100
AcDbXrecord
280
     1
102
RTVSPost2010Prop28
280
     0
102
RTVSPost2010PropOp28
 70
     1
102
RTVSPost2010Prop29
280
     1
102
RTVSPost2010PropOp29
 70
     1
102
RTVSPost2010Prop30
280
     1
102
RTVSPost2010PropOp30
 70
     1
102
RTVSPost2010Prop31
280
     0
102
RTVSPost2010PropOp31
 70
     1
102
RTVSPost2010Prop32
280
     0
102
RTVSPost2010PropOp32
 70
     1
102
RTVSPost2010Prop33
280
     0
102
RTVSPost2010PropOp33
 70
     1
102
RTVSPost2010Prop34
280
     0
102
RTVSPost2010PropOp34
 70
     1
102
RTVSPost2010Prop35
280
     0
102
RTVSPost2010PropOp35
 70
     1
102
RTVSPost2010Prop36
280
     0
102
RTVSPost2010PropOp36
 70
     1
102
RTVSPost2010Prop37
 90
       50
102
RTVSPost2010PropOp37
 70
     1
102
RTVSPost2010Prop38
140
0.0
102
RTVSPost2010PropOp38
 70
     1
102
RTVSPost2010Prop39
140
1.0
102
RTVSPost2010PropOp39
 70
     1
102
RTVSPost2010Prop40
 90
        0
102
RTVSPost2010PropOp40
 70
     1
102
RTVSPost2010Prop41ColorIndex
 90
       18
102
RTVSPost2010Prop41ColorRGB
 90
        0
102
RTVSPost2010PropOp41
 70
     1
102
RTVSPost2010Prop42
 90
       50
102
RTVSPost2010PropOp42
 70
     1
102
RTVSPost2010Prop43
 90
        3
102
RTVSPost2010PropOp43
 70
     1
102
RTVSPost2010Prop44ColorIndex
 90
        5
102
RTVSPost2010Prop44ColorRGB
 90
      255
102
RTVSPost2010PropOp44
 70
     1
102
RTVSPost2010Prop45
280
     0
102
RTVSPost2010PropOp45
 70
     1
102
RTVSPost2010Prop46
 90
       50
102
RTVSPost2010PropOp46
 70
     1
102
RTVSPost2010Prop47
 90
       50
102
RTVSPost2010PropOp47
 70
     1
102
RTVSPost2010Prop48
 90
       50
102
RTVSPost2010PropOp48
 70
     1
102
RTVSPost2010Prop49
280
     0
102
RTVSPost2010PropOp49
 70
     1
102
RTVSPost2010Prop50
 90
       50
102
RTVSPost2010PropOp50
 70
     1
102
RTVSPost2010Prop51ColorIndex
 90
      256
102
RTVSPost2010Prop51ColorRGB
 90
-16777216
102
RTVSPost2010PropOp51
 70
     0
102
RTVSPost2010Prop52
140
1.0
102
RTVSPost2010PropOp52
 70
     0
102
RTVSPost2010Prop53
 90
        2
102
RTVSPost2010PropOp53
 70
     1
102
RTVSPost2010Prop54
  1
strokes_ogs.tif
102
RTVSPost2010PropOp54
 70
     1
102
RTVSPost2010Prop55
280
     0
102
RTVSPost2010PropOp55
 70
     1
102
RTVSPost2010Prop56
140
1.0
102
RTVSPost2010PropOp56
 70
     1
102
RTVSPost2010Prop57
140
1.0
102
RTVSPost2010PropOp57
 70
     1
102
RTVSPropertyOp0
 70
     1
102
RTVSPropertyOp1
 70
     1
102
RTVSPropertyOp2
 70
     1
102
RTVSPropertyOp3
 70
     1
102
RTVSPropertyOp4
 70
     1
102
RTVSPropertyOp5
 70
     1
102
RTVSPropertyOp6
 70
     1
102
RTVSPropertyOp7
 70
     1
102
RTVSPropertyOp8
 70
     1
102
RTVSPropertyOp9
 70
     1
102
RTVSPropertyOp10
 70
     1
102
RTVSPropertyOp11
 70
     1
102
RTVSPropertyOp12
 70
     1
102
RTVSPropertyOp13
 70
     1
102
RTVSPropertyOp14
 70
     1
102
RTVSPropertyOp15
 70
     1
102
RTVSPropertyOp16
 70
     1
102
RTVSPropertyOp17
 70
     1
102
RTVSPropertyOp18
 70
     1
102
RTVSPropertyOp19
 70
     1
102
RTVSPropertyOp20
 70
     1
102
RTVSPropertyOp21
 70
     1
102
RTVSPropertyOp22
 70
     1
102
RTVSPropertyOp23
 70
     1
102
RTVSPropertyOp24
 70
     1
102
RTVSPropertyOp25
 70
     1
102
RTVSPropertyOp26
 70
     1
102
RTVSPropertyOp27
 70
     1
102
RTVSPropertyOp28
 70
     1
102
RTVSPropertyOp29
 70
     1
102
RTVSPropertyOp30
 70
     1
102
RTVSPropertyOp31
 70
     1
102
RTVSPropertyOp32
 70
     1
102
RTVSPropertyOp33
 70
     1
102
RTVSPropertyOp34
 70
     1
102
RTVSPropertyOp35
 70
     1
102
RTVSPropertyOp36
 70
     1
102
RTVSPropertyOp37
 70
     1
102
RTVSPropertyOp38
 70
     1
102
RTVSPropertyOp39
 70
     1
102
RTVSPropertyOp40
 70
     1
102
RTVSPropertyOp41
 70
     1
102
RTVSPropertyOp42
 70
     1
102
RTVSPropertyOp43
 70
     1
102
RTVSPropertyOp44
 70
     1
102
RTVSPropertyOp45
 70
     1
102
RTVSPropertyOp46
 70
     1
102
RTVSPropertyOp47
 70
     1
102
RTVSPropertyOp48
 70
     1
102
RTVSPropertyOp49
 70
     1
102
RTVSPropertyOp50
 70
     1
102
RTVSPropertyOp51
 70
     0
102
RTVSPropertyOp52
 70
     0
102
RTVSPropertyOp53
 70
     1
102
RTVSPropertyOp54
 70
     1
102
RTVSPropertyOp55
 70
     1
102
RTVSPropertyOp56
 70
     1
102
RTVSPropertyOp57
 70
     1
102
RTVSPropertyOp58
 70
     1
102
RTVSPropertyOp59
 70
     1
102
RTVSPropertyOp60
 70
     1
102
RTVSPropertyOp61
 70
     1
102
RTVSPropertyOp62
 70
     1
  0
XRECORD
  5
B378
102
{ACAD_REACTORS
330
B377
102
}
330
B377
100
AcDbXrecord
280
     1
102
RTVSPost2010Prop28
280
     0
102
RTVSPost2010PropOp28
 70
     1
102
RTVSPost2010Prop29
280
     1
102
RTVSPost2010PropOp29
 70
     1
102
RTVSPost2010Prop30
280
     1
102
RTVSPost2010PropOp30
 70
     1
102
RTVSPost2010Prop31
280
     0
102
RTVSPost2010PropOp31
 70
     1
102
RTVSPost2010Prop32
280
     0
102
RTVSPost2010PropOp32
 70
     1
102
RTVSPost2010Prop33
280
     0
102
RTVSPost2010PropOp33
 70
     1
102
RTVSPost2010Prop34
280
     0
102
RTVSPost2010PropOp34
 70
     1
102
RTVSPost2010Prop35
280
     0
102
RTVSPost2010PropOp35
 70
     1
102
RTVSPost2010Prop36
280
     0
102
RTVSPost2010PropOp36
 70
     1
102
RTVSPost2010Prop37
 90
       50
102
RTVSPost2010PropOp37
 70
     1
102
RTVSPost2010Prop38
140
0.0
102
RTVSPost2010PropOp38
 70
     1
102
RTVSPost2010Prop39
140
1.0
102
RTVSPost2010PropOp39
 70
     1
102
RTVSPost2010Prop40
 90
        0
102
RTVSPost2010PropOp40
 70
     1
102
RTVSPost2010Prop41ColorIndex
 90
       18
102
RTVSPost2010Prop41ColorRGB
 90
        0
102
RTVSPost2010PropOp41
 70
     1
102
RTVSPost2010Prop42
 90
       50
102
RTVSPost2010PropOp42
 70
     1
102
RTVSPost2010Prop43
 90
        3
102
RTVSPost2010PropOp43
 70
     1
102
RTVSPost2010Prop44ColorIndex
 90
        5
102
RTVSPost2010Prop44ColorRGB
 90
      255
102
RTVSPost2010PropOp44
 70
     1
102
RTVSPost2010Prop45
280
     0
102
RTVSPost2010PropOp45
 70
     1
102
RTVSPost2010Prop46
 90
       50
102
RTVSPost2010PropOp46
 70
     1
102
RTVSPost2010Prop47
 90
       50
102
RTVSPost2010PropOp47
 70
     1
102
RTVSPost2010Prop48
 90
       50
102
RTVSPost2010PropOp48
 70
     1
102
RTVSPost2010Prop49
280
     0
102
RTVSPost2010PropOp49
 70
     1
102
RTVSPost2010Prop50
 90
       50
102
RTVSPost2010PropOp50
 70
     1
102
RTVSPost2010Prop51ColorIndex
 90
      256
102
RTVSPost2010Prop51ColorRGB
 90
-16777216
102
RTVSPost2010PropOp51
 70
     0
102
RTVSPost2010Prop52
140
1.0
102
RTVSPost2010PropOp52
 70
     0
102
RTVSPost2010Prop53
 90
        2
102
RTVSPost2010PropOp53
 70
     1
102
RTVSPost2010Prop54
  1
strokes_ogs.tif
102
RTVSPost2010PropOp54
 70
     1
102
RTVSPost2010Prop55
280
     0
102
RTVSPost2010PropOp55
 70
     1
102
RTVSPost2010Prop56
140
1.0
102
RTVSPost2010PropOp56
 70
     1
102
RTVSPost2010Prop57
140
1.0
102
RTVSPost2010PropOp57
 70
     1
102
RTVSPropertyOp0
 70
     1
102
RTVSPropertyOp1
 70
     1
102
RTVSPropertyOp2
 70
     1
102
RTVSPropertyOp3
 70
     1
102
RTVSPropertyOp4
 70
     1
102
RTVSPropertyOp5
 70
     1
102
RTVSPropertyOp6
 70
     1
102
RTVSPropertyOp7
 70
     1
102
RTVSPropertyOp8
 70
     1
102
RTVSPropertyOp9
 70
     1
102
RTVSPropertyOp10
 70
     1
102
RTVSPropertyOp11
 70
     1
102
RTVSPropertyOp12
 70
     1
102
RTVSPropertyOp13
 70
     1
102
RTVSPropertyOp14
 70
     1
102
RTVSPropertyOp15
 70
     1
102
RTVSPropertyOp16
 70
     1
102
RTVSPropertyOp17
 70
     1
102
RTVSPropertyOp18
 70
     1
102
RTVSPropertyOp19
 70
     1
102
RTVSPropertyOp20
 70
     1
102
RTVSPropertyOp21
 70
     1
102
RTVSPropertyOp22
 70
     1
102
RTVSPropertyOp23
 70
     1
102
RTVSPropertyOp24
 70
     1
102
RTVSPropertyOp25
 70
     1
102
RTVSPropertyOp26
 70
     1
102
RTVSPropertyOp27
 70
     1
102
RTVSPropertyOp28
 70
     1
102
RTVSPropertyOp29
 70
     1
102
RTVSPropertyOp30
 70
     1
102
RTVSPropertyOp31
 70
     1
102
RTVSPropertyOp32
 70
     1
102
RTVSPropertyOp33
 70
     1
102
RTVSPropertyOp34
 70
     1
102
RTVSPropertyOp35
 70
     1
102
RTVSPropertyOp36
 70
     1
102
RTVSPropertyOp37
 70
     1
102
RTVSPropertyOp38
 70
     1
102
RTVSPropertyOp39
 70
     1
102
RTVSPropertyOp40
 70
     1
102
RTVSPropertyOp41
 70
     1
102
RTVSPropertyOp42
 70
     1
102
RTVSPropertyOp43
 70
     1
102
RTVSPropertyOp44
 70
     1
102
RTVSPropertyOp45
 70
     1
102
RTVSPropertyOp46
 70
     1
102
RTVSPropertyOp47
 70
     1
102
RTVSPropertyOp48
 70
     1
102
RTVSPropertyOp49
 70
     1
102
RTVSPropertyOp50
 70
     1
102
RTVSPropertyOp51
 70
     0
102
RTVSPropertyOp52
 70
     0
102
RTVSPropertyOp53
 70
     1
102
RTVSPropertyOp54
 70
     1
102
RTVSPropertyOp55
 70
     1
102
RTVSPropertyOp56
 70
     1
102
RTVSPropertyOp57
 70
     1
102
RTVSPropertyOp58
 70
     1
102
RTVSPropertyOp59
 70
     1
102
RTVSPropertyOp60
 70
     1
102
RTVSPropertyOp61
 70
     1
102
RTVSPropertyOp62
 70
     1
  0
XRECORD
  5
B37A
102
{ACAD_REACTORS
330
B379
102
}
330
B379
100
AcDbXrecord
280
     1
102
RTVSPost2010Prop28
280
     0
102
RTVSPost2010PropOp28
 70
     1
102
RTVSPost2010Prop29
280
     1
102
RTVSPost2010PropOp29
 70
     1
102
RTVSPost2010Prop30
280
     1
102
RTVSPost2010PropOp30
 70
     1
102
RTVSPost2010Prop31
280
     0
102
RTVSPost2010PropOp31
 70
     1
102
RTVSPost2010Prop32
280
     0
102
RTVSPost2010PropOp32
 70
     1
102
RTVSPost2010Prop33
280
     0
102
RTVSPost2010PropOp33
 70
     1
102
RTVSPost2010Prop34
280
     0
102
RTVSPost2010PropOp34
 70
     1
102
RTVSPost2010Prop35
280
     0
102
RTVSPost2010PropOp35
 70
     1
102
RTVSPost2010Prop36
280
     0
102
RTVSPost2010PropOp36
 70
     1
102
RTVSPost2010Prop37
 90
       50
102
RTVSPost2010PropOp37
 70
     1
102
RTVSPost2010Prop38
140
0.0
102
RTVSPost2010PropOp38
 70
     1
102
RTVSPost2010Prop39
140
1.0
102
RTVSPost2010PropOp39
 70
     1
102
RTVSPost2010Prop40
 90
        0
102
RTVSPost2010PropOp40
 70
     1
102
RTVSPost2010Prop41ColorIndex
 90
       18
102
RTVSPost2010Prop41ColorRGB
 90
        0
102
RTVSPost2010PropOp41
 70
     1
102
RTVSPost2010Prop42
 90
       50
102
RTVSPost2010PropOp42
 70
     1
102
RTVSPost2010Prop43
 90
        3
102
RTVSPost2010PropOp43
 70
     1
102
RTVSPost2010Prop44ColorIndex
 90
        5
102
RTVSPost2010Prop44ColorRGB
 90
      255
102
RTVSPost2010PropOp44
 70
     1
102
RTVSPost2010Prop45
280
     0
102
RTVSPost2010PropOp45
 70
     1
102
RTVSPost2010Prop46
 90
       50
102
RTVSPost2010PropOp46
 70
     1
102
RTVSPost2010Prop47
 90
       50
102
RTVSPost2010PropOp47
 70
     1
102
RTVSPost2010Prop48
 90
       50
102
RTVSPost2010PropOp48
 70
     1
102
RTVSPost2010Prop49
280
     0
102
RTVSPost2010PropOp49
 70
     1
102
RTVSPost2010Prop50
 90
       50
102
RTVSPost2010PropOp50
 70
     1
102
RTVSPost2010Prop51ColorIndex
 90
      256
102
RTVSPost2010Prop51ColorRGB
 90
-16777216
102
RTVSPost2010PropOp51
 70
     0
102
RTVSPost2010Prop52
140
1.0
102
RTVSPost2010PropOp52
 70
     0
102
RTVSPost2010Prop53
 90
        2
102
RTVSPost2010PropOp53
 70
     1
102
RTVSPost2010Prop54
  1
strokes_ogs.tif
102
RTVSPost2010PropOp54
 70
     1
102
RTVSPost2010Prop55
280
     0
102
RTVSPost2010PropOp55
 70
     1
102
RTVSPost2010Prop56
140
1.0
102
RTVSPost2010PropOp56
 70
     1
102
RTVSPost2010Prop57
140
1.0
102
RTVSPost2010PropOp57
 70
     1
102
RTVSPropertyOp0
 70
     1
102
RTVSPropertyOp1
 70
     1
102
RTVSPropertyOp2
 70
     1
102
RTVSPropertyOp3
 70
     1
102
RTVSPropertyOp4
 70
     1
102
RTVSPropertyOp5
 70
     1
102
RTVSPropertyOp6
 70
     1
102
RTVSPropertyOp7
 70
     1
102
RTVSPropertyOp8
 70
     1
102
RTVSPropertyOp9
 70
     1
102
RTVSPropertyOp10
 70
     1
102
RTVSPropertyOp11
 70
     1
102
RTVSPropertyOp12
 70
     1
102
RTVSPropertyOp13
 70
     1
102
RTVSPropertyOp14
 70
     1
102
RTVSPropertyOp15
 70
     1
102
RTVSPropertyOp16
 70
     1
102
RTVSPropertyOp17
 70
     1
102
RTVSPropertyOp18
 70
     1
102
RTVSPropertyOp19
 70
     1
102
RTVSPropertyOp20
 70
     1
102
RTVSPropertyOp21
 70
     1
102
RTVSPropertyOp22
 70
     1
102
RTVSPropertyOp23
 70
     1
102
RTVSPropertyOp24
 70
     1
102
RTVSPropertyOp25
 70
     1
102
RTVSPropertyOp26
 70
     1
102
RTVSPropertyOp27
 70
     1
102
RTVSPropertyOp28
 70
     1
102
RTVSPropertyOp29
 70
     1
102
RTVSPropertyOp30
 70
     1
102
RTVSPropertyOp31
 70
     1
102
RTVSPropertyOp32
 70
     1
102
RTVSPropertyOp33
 70
     1
102
RTVSPropertyOp34
 70
     1
102
RTVSPropertyOp35
 70
     1
102
RTVSPropertyOp36
 70
     1
102
RTVSPropertyOp37
 70
     1
102
RTVSPropertyOp38
 70
     1
102
RTVSPropertyOp39
 70
     1
102
RTVSPropertyOp40
 70
     1
102
RTVSPropertyOp41
 70
     1
102
RTVSPropertyOp42
 70
     1
102
RTVSPropertyOp43
 70
     1
102
RTVSPropertyOp44
 70
     1
102
RTVSPropertyOp45
 70
     1
102
RTVSPropertyOp46
 70
     1
102
RTVSPropertyOp47
 70
     1
102
RTVSPropertyOp48
 70
     1
102
RTVSPropertyOp49
 70
     1
102
RTVSPropertyOp50
 70
     1
102
RTVSPropertyOp51
 70
     0
102
RTVSPropertyOp52
 70
     0
102
RTVSPropertyOp53
 70
     1
102
RTVSPropertyOp54
 70
     1
102
RTVSPropertyOp55
 70
     1
102
RTVSPropertyOp56
 70
     1
102
RTVSPropertyOp57
 70
     1
102
RTVSPropertyOp58
 70
     1
102
RTVSPropertyOp59
 70
     1
102
RTVSPropertyOp60
 70
     1
102
RTVSPropertyOp61
 70
     1
102
RTVSPropertyOp62
 70
     1
  0
XRECORD
  5
B382
102
{ACAD_REACTORS
330
B381
102
}
330
B381
100
AcDbXrecord
280
     1
102
RTVSPost2010Prop28
280
     0
102
RTVSPost2010PropOp28
 70
     1
102
RTVSPost2010Prop29
280
     1
102
RTVSPost2010PropOp29
 70
     1
102
RTVSPost2010Prop30
280
     1
102
RTVSPost2010PropOp30
 70
     1
102
RTVSPost2010Prop31
280
     0
102
RTVSPost2010PropOp31
 70
     1
102
RTVSPost2010Prop32
280
     0
102
RTVSPost2010PropOp32
 70
     1
102
RTVSPost2010Prop33
280
     0
102
RTVSPost2010PropOp33
 70
     1
102
RTVSPost2010Prop34
280
     0
102
RTVSPost2010PropOp34
 70
     1
102
RTVSPost2010Prop35
280
     0
102
RTVSPost2010PropOp35
 70
     1
102
RTVSPost2010Prop36
280
     0
102
RTVSPost2010PropOp36
 70
     1
102
RTVSPost2010Prop37
 90
       50
102
RTVSPost2010PropOp37
 70
     1
102
RTVSPost2010Prop38
140
0.0
102
RTVSPost2010PropOp38
 70
     1
102
RTVSPost2010Prop39
140
1.0
102
RTVSPost2010PropOp39
 70
     1
102
RTVSPost2010Prop40
 90
        0
102
RTVSPost2010PropOp40
 70
     1
102
RTVSPost2010Prop41ColorIndex
 90
       18
102
RTVSPost2010Prop41ColorRGB
 90
        0
102
RTVSPost2010PropOp41
 70
     1
102
RTVSPost2010Prop42
 90
       50
102
RTVSPost2010PropOp42
 70
     1
102
RTVSPost2010Prop43
 90
        3
102
RTVSPost2010PropOp43
 70
     1
102
RTVSPost2010Prop44ColorIndex
 90
        5
102
RTVSPost2010Prop44ColorRGB
 90
      255
102
RTVSPost2010PropOp44
 70
     1
102
RTVSPost2010Prop45
280
     0
102
RTVSPost2010PropOp45
 70
     1
102
RTVSPost2010Prop46
 90
       50
102
RTVSPost2010PropOp46
 70
     1
102
RTVSPost2010Prop47
 90
       50
102
RTVSPost2010PropOp47
 70
     1
102
RTVSPost2010Prop48
 90
       50
102
RTVSPost2010PropOp48
 70
     1
102
RTVSPost2010Prop49
280
     0
102
RTVSPost2010PropOp49
 70
     1
102
RTVSPost2010Prop50
 90
       50
102
RTVSPost2010PropOp50
 70
     1
102
RTVSPost2010Prop51ColorIndex
 90
      256
102
RTVSPost2010Prop51ColorRGB
 90
-16777216
102
RTVSPost2010PropOp51
 70
     0
102
RTVSPost2010Prop52
140
1.0
102
RTVSPost2010PropOp52
 70
     0
102
RTVSPost2010Prop53
 90
        2
102
RTVSPost2010PropOp53
 70
     1
102
RTVSPost2010Prop54
  1
strokes_ogs.tif
102
RTVSPost2010PropOp54
 70
     1
102
RTVSPost2010Prop55
280
     0
102
RTVSPost2010PropOp55
 70
     1
102
RTVSPost2010Prop56
140
1.0
102
RTVSPost2010PropOp56
 70
     1
102
RTVSPost2010Prop57
140
1.0
102
RTVSPost2010PropOp57
 70
     1
102
RTVSPropertyOp0
 70
     1
102
RTVSPropertyOp1
 70
     1
102
RTVSPropertyOp2
 70
     1
102
RTVSPropertyOp3
 70
     1
102
RTVSPropertyOp4
 70
     1
102
RTVSPropertyOp5
 70
     1
102
RTVSPropertyOp6
 70
     1
102
RTVSPropertyOp7
 70
     1
102
RTVSPropertyOp8
 70
     1
102
RTVSPropertyOp9
 70
     1
102
RTVSPropertyOp10
 70
     1
102
RTVSPropertyOp11
 70
     1
102
RTVSPropertyOp12
 70
     1
102
RTVSPropertyOp13
 70
     1
102
RTVSPropertyOp14
 70
     1
102
RTVSPropertyOp15
 70
     1
102
RTVSPropertyOp16
 70
     1
102
RTVSPropertyOp17
 70
     1
102
RTVSPropertyOp18
 70
     1
102
RTVSPropertyOp19
 70
     1
102
RTVSPropertyOp20
 70
     1
102
RTVSPropertyOp21
 70
     1
102
RTVSPropertyOp22
 70
     1
102
RTVSPropertyOp23
 70
     1
102
RTVSPropertyOp24
 70
     1
102
RTVSPropertyOp25
 70
     1
102
RTVSPropertyOp26
 70
     1
102
RTVSPropertyOp27
 70
     1
102
RTVSPropertyOp28
 70
     1
102
RTVSPropertyOp29
 70
     1
102
RTVSPropertyOp30
 70
     1
102
RTVSPropertyOp31
 70
     1
102
RTVSPropertyOp32
 70
     1
102
RTVSPropertyOp33
 70
     1
102
RTVSPropertyOp34
 70
     1
102
RTVSPropertyOp35
 70
     1
102
RTVSPropertyOp36
 70
     1
102
RTVSPropertyOp37
 70
     1
102
RTVSPropertyOp38
 70
     1
102
RTVSPropertyOp39
 70
     1
102
RTVSPropertyOp40
 70
     1
102
RTVSPropertyOp41
 70
     1
102
RTVSPropertyOp42
 70
     1
102
RTVSPropertyOp43
 70
     1
102
RTVSPropertyOp44
 70
     1
102
RTVSPropertyOp45
 70
     1
102
RTVSPropertyOp46
 70
     1
102
RTVSPropertyOp47
 70
     1
102
RTVSPropertyOp48
 70
     1
102
RTVSPropertyOp49
 70
     1
102
RTVSPropertyOp50
 70
     1
102
RTVSPropertyOp51
 70
     0
102
RTVSPropertyOp52
 70
     0
102
RTVSPropertyOp53
 70
     1
102
RTVSPropertyOp54
 70
     1
102
RTVSPropertyOp55
 70
     1
102
RTVSPropertyOp56
 70
     1
102
RTVSPropertyOp57
 70
     1
102
RTVSPropertyOp58
 70
     1
102
RTVSPropertyOp59
 70
     1
102
RTVSPropertyOp60
 70
     1
102
RTVSPropertyOp61
 70
     1
102
RTVSPropertyOp62
 70
     1
  0
XRECORD
  5
B39E
102
{ACAD_REACTORS
330
B39D
102
}
330
B39D
100
AcDbXrecord
280
     1
102
RTVSPost2010Prop28
280
     0
102
RTVSPost2010PropOp28
 70
     1
102
RTVSPost2010Prop29
280
     1
102
RTVSPost2010PropOp29
 70
     1
102
RTVSPost2010Prop30
280
     1
102
RTVSPost2010PropOp30
 70
     1
102
RTVSPost2010Prop31
280
     0
102
RTVSPost2010PropOp31
 70
     1
102
RTVSPost2010Prop32
280
     0
102
RTVSPost2010PropOp32
 70
     1
102
RTVSPost2010Prop33
280
     0
102
RTVSPost2010PropOp33
 70
     1
102
RTVSPost2010Prop34
280
     0
102
RTVSPost2010PropOp34
 70
     1
102
RTVSPost2010Prop35
280
     0
102
RTVSPost2010PropOp35
 70
     1
102
RTVSPost2010Prop36
280
     0
102
RTVSPost2010PropOp36
 70
     1
102
RTVSPost2010Prop37
 90
       50
102
RTVSPost2010PropOp37
 70
     0
102
RTVSPost2010Prop38
140
0.0
102
RTVSPost2010PropOp38
 70
     0
102
RTVSPost2010Prop39
140
1.0
102
RTVSPost2010PropOp39
 70
     0
102
RTVSPost2010Prop40
 90
        0
102
RTVSPost2010PropOp40
 70
     0
102
RTVSPost2010Prop41ColorIndex
 90
       18
102
RTVSPost2010Prop41ColorRGB
 90
        0
102
RTVSPost2010PropOp41
 70
     0
102
RTVSPost2010Prop42
 90
       50
102
RTVSPost2010PropOp42
 70
     0
102
RTVSPost2010Prop43
 90
        3
102
RTVSPost2010PropOp43
 70
     0
102
RTVSPost2010Prop44ColorIndex
 90
        5
102
RTVSPost2010Prop44ColorRGB
 90
      255
102
RTVSPost2010PropOp44
 70
     0
102
RTVSPost2010Prop45
280
     0
102
RTVSPost2010PropOp45
 70
     1
102
RTVSPost2010Prop46
 90
       50
102
RTVSPost2010PropOp46
 70
     0
102
RTVSPost2010Prop47
 90
       50
102
RTVSPost2010PropOp47
 70
     0
102
RTVSPost2010Prop48
 90
       50
102
RTVSPost2010PropOp48
 70
     0
102
RTVSPost2010Prop49
280
     0
102
RTVSPost2010PropOp49
 70
     1
102
RTVSPost2010Prop50
 90
       50
102
RTVSPost2010PropOp50
 70
     0
102
RTVSPost2010Prop51ColorIndex
 90
      256
102
RTVSPost2010Prop51ColorRGB
 90
-16777216
102
RTVSPost2010PropOp51
 70
     0
102
RTVSPost2010Prop52
140
1.0
102
RTVSPost2010PropOp52
 70
     0
102
RTVSPost2010Prop53
 90
        2
102
RTVSPost2010PropOp53
 70
     0
102
RTVSPost2010Prop54
  1
strokes_ogs.tif
102
RTVSPost2010PropOp54
 70
     0
102
RTVSPost2010Prop55
280
     0
102
RTVSPost2010PropOp55
 70
     1
102
RTVSPost2010Prop56
140
1.0
102
RTVSPost2010PropOp56
 70
     0
102
RTVSPost2010Prop57
140
1.0
102
RTVSPost2010PropOp57
 70
     0
102
RTVSPropertyOp0
 70
     0
102
RTVSPropertyOp1
 70
     0
102
RTVSPropertyOp2
 70
     0
102
RTVSPropertyOp3
 70
     0
102
RTVSPropertyOp4
 70
     0
102
RTVSPropertyOp5
 70
     0
102
RTVSPropertyOp6
 70
     0
102
RTVSPropertyOp7
 70
     0
102
RTVSPropertyOp8
 70
     0
102
RTVSPropertyOp9
 70
     0
102
RTVSPropertyOp10
 70
     0
102
RTVSPropertyOp11
 70
     0
102
RTVSPropertyOp12
 70
     0
102
RTVSPropertyOp13
 70
     0
102
RTVSPropertyOp14
 70
     2
102
RTVSPropertyOp15
 70
     0
102
RTVSPropertyOp16
 70
     0
102
RTVSPropertyOp17
 70
     0
102
RTVSPropertyOp18
 70
     0
102
RTVSPropertyOp19
 70
     0
102
RTVSPropertyOp20
 70
     0
102
RTVSPropertyOp21
 70
     0
102
RTVSPropertyOp22
 70
     0
102
RTVSPropertyOp23
 70
     0
102
RTVSPropertyOp24
 70
     0
102
RTVSPropertyOp25
 70
     0
102
RTVSPropertyOp26
 70
     0
102
RTVSPropertyOp27
 70
     0
102
RTVSPropertyOp28
 70
     1
102
RTVSPropertyOp29
 70
     1
102
RTVSPropertyOp30
 70
     1
102
RTVSPropertyOp31
 70
     1
102
RTVSPropertyOp32
 70
     1
102
RTVSPropertyOp33
 70
     1
102
RTVSPropertyOp34
 70
     1
102
RTVSPropertyOp35
 70
     1
102
RTVSPropertyOp36
 70
     1
102
RTVSPropertyOp37
 70
     0
102
RTVSPropertyOp38
 70
     0
102
RTVSPropertyOp39
 70
     0
102
RTVSPropertyOp40
 70
     0
102
RTVSPropertyOp41
 70
     0
102
RTVSPropertyOp42
 70
     0
102
RTVSPropertyOp43
 70
     0
102
RTVSPropertyOp44
 70
     0
102
RTVSPropertyOp45
 70
     1
102
RTVSPropertyOp46
 70
     0
102
RTVSPropertyOp47
 70
     0
102
RTVSPropertyOp48
 70
     0
102
RTVSPropertyOp49
 70
     1
102
RTVSPropertyOp50
 70
     0
102
RTVSPropertyOp51
 70
     0
102
RTVSPropertyOp52
 70
     0
102
RTVSPropertyOp53
 70
     0
102
RTVSPropertyOp54
 70
     0
102
RTVSPropertyOp55
 70
     1
102
RTVSPropertyOp56
 70
     0
102
RTVSPropertyOp57
 70
     0
102
RTVSPropertyOp58
 70
     0
102
RTVSPropertyOp59
 70
     0
102
RTVSPropertyOp60
 70
     0
102
RTVSPropertyOp61
 70
     0
102
RTVSPropertyOp62
 70
     0
  0
XRECORD
  5
B38E
102
{ACAD_REACTORS
330
B38D
102
}
330
B38D
100
AcDbXrecord
280
     1
102
RTVSPost2010Prop28
280
     0
102
RTVSPost2010PropOp28
 70
     1
102
RTVSPost2010Prop29
280
     1
102
RTVSPost2010PropOp29
 70
     1
102
RTVSPost2010Prop30
280
     1
102
RTVSPost2010PropOp30
 70
     1
102
RTVSPost2010Prop31
280
     0
102
RTVSPost2010PropOp31
 70
     1
102
RTVSPost2010Prop32
280
     0
102
RTVSPost2010PropOp32
 70
     1
102
RTVSPost2010Prop33
280
     0
102
RTVSPost2010PropOp33
 70
     1
102
RTVSPost2010Prop34
280
     0
102
RTVSPost2010PropOp34
 70
     1
102
RTVSPost2010Prop35
280
     0
102
RTVSPost2010PropOp35
 70
     1
102
RTVSPost2010Prop36
280
     0
102
RTVSPost2010PropOp36
 70
     1
102
RTVSPost2010Prop37
 90
       50
102
RTVSPost2010PropOp37
 70
     1
102
RTVSPost2010Prop38
140
0.0
102
RTVSPost2010PropOp38
 70
     1
102
RTVSPost2010Prop39
140
1.0
102
RTVSPost2010PropOp39
 70
     1
102
RTVSPost2010Prop40
 90
        0
102
RTVSPost2010PropOp40
 70
     1
102
RTVSPost2010Prop41ColorIndex
 90
       18
102
RTVSPost2010Prop41ColorRGB
 90
        0
102
RTVSPost2010PropOp41
 70
     1
102
RTVSPost2010Prop42
 90
       50
102
RTVSPost2010PropOp42
 70
     1
102
RTVSPost2010Prop43
 90
        3
102
RTVSPost2010PropOp43
 70
     1
102
RTVSPost2010Prop44ColorIndex
 90
        5
102
RTVSPost2010Prop44ColorRGB
 90
      255
102
RTVSPost2010PropOp44
 70
     1
102
RTVSPost2010Prop45
280
     0
102
RTVSPost2010PropOp45
 70
     1
102
RTVSPost2010Prop46
 90
       50
102
RTVSPost2010PropOp46
 70
     1
102
RTVSPost2010Prop47
 90
       50
102
RTVSPost2010PropOp47
 70
     1
102
RTVSPost2010Prop48
 90
       50
102
RTVSPost2010PropOp48
 70
     1
102
RTVSPost2010Prop49
280
     0
102
RTVSPost2010PropOp49
 70
     1
102
RTVSPost2010Prop50
 90
       50
102
RTVSPost2010PropOp50
 70
     1
102
RTVSPost2010Prop51ColorIndex
 90
      256
102
RTVSPost2010Prop51ColorRGB
 90
-16777216
102
RTVSPost2010PropOp51
 70
     0
102
RTVSPost2010Prop52
140
1.0
102
RTVSPost2010PropOp52
 70
     0
102
RTVSPost2010Prop53
 90
        2
102
RTVSPost2010PropOp53
 70
     1
102
RTVSPost2010Prop54
  1
strokes_ogs.tif
102
RTVSPost2010PropOp54
 70
     1
102
RTVSPost2010Prop55
280
     0
102
RTVSPost2010PropOp55
 70
     1
102
RTVSPost2010Prop56
140
1.0
102
RTVSPost2010PropOp56
 70
     1
102
RTVSPost2010Prop57
140
1.0
102
RTVSPost2010PropOp57
 70
     1
102
RTVSPropertyOp0
 70
     1
102
RTVSPropertyOp1
 70
     1
102
RTVSPropertyOp2
 70
     1
102
RTVSPropertyOp3
 70
     1
102
RTVSPropertyOp4
 70
     1
102
RTVSPropertyOp5
 70
     1
102
RTVSPropertyOp6
 70
     1
102
RTVSPropertyOp7
 70
     1
102
RTVSPropertyOp8
 70
     1
102
RTVSPropertyOp9
 70
     1
102
RTVSPropertyOp10
 70
     1
102
RTVSPropertyOp11
 70
     1
102
RTVSPropertyOp12
 70
     1
102
RTVSPropertyOp13
 70
     1
102
RTVSPropertyOp14
 70
     1
102
RTVSPropertyOp15
 70
     1
102
RTVSPropertyOp16
 70
     1
102
RTVSPropertyOp17
 70
     1
102
RTVSPropertyOp18
 70
     1
102
RTVSPropertyOp19
 70
     1
102
RTVSPropertyOp20
 70
     1
102
RTVSPropertyOp21
 70
     1
102
RTVSPropertyOp22
 70
     1
102
RTVSPropertyOp23
 70
     1
102
RTVSPropertyOp24
 70
     1
102
RTVSPropertyOp25
 70
     1
102
RTVSPropertyOp26
 70
     1
102
RTVSPropertyOp27
 70
     1
102
RTVSPropertyOp28
 70
     1
102
RTVSPropertyOp29
 70
     1
102
RTVSPropertyOp30
 70
     1
102
RTVSPropertyOp31
 70
     1
102
RTVSPropertyOp32
 70
     1
102
RTVSPropertyOp33
 70
     1
102
RTVSPropertyOp34
 70
     1
102
RTVSPropertyOp35
 70
     1
102
RTVSPropertyOp36
 70
     1
102
RTVSPropertyOp37
 70
     1
102
RTVSPropertyOp38
 70
     1
102
RTVSPropertyOp39
 70
     1
102
RTVSPropertyOp40
 70
     1
102
RTVSPropertyOp41
 70
     1
102
RTVSPropertyOp42
 70
     1
102
RTVSPropertyOp43
 70
     1
102
RTVSPropertyOp44
 70
     1
102
RTVSPropertyOp45
 70
     1
102
RTVSPropertyOp46
 70
     1
102
RTVSPropertyOp47
 70
     1
102
RTVSPropertyOp48
 70
     1
102
RTVSPropertyOp49
 70
     1
102
RTVSPropertyOp50
 70
     1
102
RTVSPropertyOp51
 70
     0
102
RTVSPropertyOp52
 70
     0
102
RTVSPropertyOp53
 70
     1
102
RTVSPropertyOp54
 70
     1
102
RTVSPropertyOp55
 70
     1
102
RTVSPropertyOp56
 70
     1
102
RTVSPropertyOp57
 70
     1
102
RTVSPropertyOp58
 70
     1
102
RTVSPropertyOp59
 70
     1
102
RTVSPropertyOp60
 70
     1
102
RTVSPropertyOp61
 70
     1
102
RTVSPropertyOp62
 70
     1
  0
XRECORD
  5
B3A0
102
{ACAD_REACTORS
330
B39F
102
}
330
B39F
100
AcDbXrecord
280
     1
102
RTVSPost2010Prop28
280
     0
102
RTVSPost2010PropOp28
 70
     1
102
RTVSPost2010Prop29
280
     1
102
RTVSPost2010PropOp29
 70
     1
102
RTVSPost2010Prop30
280
     1
102
RTVSPost2010PropOp30
 70
     1
102
RTVSPost2010Prop31
280
     0
102
RTVSPost2010PropOp31
 70
     1
102
RTVSPost2010Prop32
280
     0
102
RTVSPost2010PropOp32
 70
     1
102
RTVSPost2010Prop33
280
     0
102
RTVSPost2010PropOp33
 70
     1
102
RTVSPost2010Prop34
280
     0
102
RTVSPost2010PropOp34
 70
     1
102
RTVSPost2010Prop35
280
     0
102
RTVSPost2010PropOp35
 70
     1
102
RTVSPost2010Prop36
280
     0
102
RTVSPost2010PropOp36
 70
     1
102
RTVSPost2010Prop37
 90
       50
102
RTVSPost2010PropOp37
 70
     0
102
RTVSPost2010Prop38
140
0.0
102
RTVSPost2010PropOp38
 70
     0
102
RTVSPost2010Prop39
140
1.0
102
RTVSPost2010PropOp39
 70
     0
102
RTVSPost2010Prop40
 90
        0
102
RTVSPost2010PropOp40
 70
     0
102
RTVSPost2010Prop41ColorIndex
 90
       18
102
RTVSPost2010Prop41ColorRGB
 90
        0
102
RTVSPost2010PropOp41
 70
     0
102
RTVSPost2010Prop42
 90
       50
102
RTVSPost2010PropOp42
 70
     0
102
RTVSPost2010Prop43
 90
        3
102
RTVSPost2010PropOp43
 70
     0
102
RTVSPost2010Prop44ColorIndex
 90
        5
102
RTVSPost2010Prop44ColorRGB
 90
      255
102
RTVSPost2010PropOp44
 70
     0
102
RTVSPost2010Prop45
280
     0
102
RTVSPost2010PropOp45
 70
     1
102
RTVSPost2010Prop46
 90
       50
102
RTVSPost2010PropOp46
 70
     0
102
RTVSPost2010Prop47
 90
       50
102
RTVSPost2010PropOp47
 70
     0
102
RTVSPost2010Prop48
 90
       50
102
RTVSPost2010PropOp48
 70
     0
102
RTVSPost2010Prop49
280
     0
102
RTVSPost2010PropOp49
 70
     1
102
RTVSPost2010Prop50
 90
       50
102
RTVSPost2010PropOp50
 70
     0
102
RTVSPost2010Prop51ColorIndex
 90
      256
102
RTVSPost2010Prop51ColorRGB
 90
-16777216
102
RTVSPost2010PropOp51
 70
     0
102
RTVSPost2010Prop52
140
1.0
102
RTVSPost2010PropOp52
 70
     0
102
RTVSPost2010Prop53
 90
        2
102
RTVSPost2010PropOp53
 70
     0
102
RTVSPost2010Prop54
  1
strokes_ogs.tif
102
RTVSPost2010PropOp54
 70
     0
102
RTVSPost2010Prop55
280
     0
102
RTVSPost2010PropOp55
 70
     1
102
RTVSPost2010Prop56
140
1.0
102
RTVSPost2010PropOp56
 70
     0
102
RTVSPost2010Prop57
140
1.0
102
RTVSPost2010PropOp57
 70
     0
102
RTVSPropertyOp0
 70
     0
102
RTVSPropertyOp1
 70
     0
102
RTVSPropertyOp2
 70
     0
102
RTVSPropertyOp3
 70
     0
102
RTVSPropertyOp4
 70
     0
102
RTVSPropertyOp5
 70
     0
102
RTVSPropertyOp6
 70
     0
102
RTVSPropertyOp7
 70
     0
102
RTVSPropertyOp8
 70
     0
102
RTVSPropertyOp9
 70
     0
102
RTVSPropertyOp10
 70
     0
102
RTVSPropertyOp11
 70
     0
102
RTVSPropertyOp12
 70
     0
102
RTVSPropertyOp13
 70
     0
102
RTVSPropertyOp14
 70
     2
102
RTVSPropertyOp15
 70
     0
102
RTVSPropertyOp16
 70
     0
102
RTVSPropertyOp17
 70
     0
102
RTVSPropertyOp18
 70
     0
102
RTVSPropertyOp19
 70
     0
102
RTVSPropertyOp20
 70
     0
102
RTVSPropertyOp21
 70
     0
102
RTVSPropertyOp22
 70
     0
102
RTVSPropertyOp23
 70
     0
102
RTVSPropertyOp24
 70
     0
102
RTVSPropertyOp25
 70
     0
102
RTVSPropertyOp26
 70
     0
102
RTVSPropertyOp27
 70
     0
102
RTVSPropertyOp28
 70
     1
102
RTVSPropertyOp29
 70
     1
102
RTVSPropertyOp30
 70
     1
102
RTVSPropertyOp31
 70
     1
102
RTVSPropertyOp32
 70
     1
102
RTVSPropertyOp33
 70
     1
102
RTVSPropertyOp34
 70
     1
102
RTVSPropertyOp35
 70
     1
102
RTVSPropertyOp36
 70
     1
102
RTVSPropertyOp37
 70
     0
102
RTVSPropertyOp38
 70
     0
102
RTVSPropertyOp39
 70
     0
102
RTVSPropertyOp40
 70
     0
102
RTVSPropertyOp41
 70
     0
102
RTVSPropertyOp42
 70
     0
102
RTVSPropertyOp43
 70
     0
102
RTVSPropertyOp44
 70
     0
102
RTVSPropertyOp45
 70
     1
102
RTVSPropertyOp46
 70
     0
102
RTVSPropertyOp47
 70
     0
102
RTVSPropertyOp48
 70
     0
102
RTVSPropertyOp49
 70
     1
102
RTVSPropertyOp50
 70
     0
102
RTVSPropertyOp51
 70
     0
102
RTVSPropertyOp52
 70
     0
102
RTVSPropertyOp53
 70
     0
102
RTVSPropertyOp54
 70
     0
102
RTVSPropertyOp55
 70
     1
102
RTVSPropertyOp56
 70
     0
102
RTVSPropertyOp57
 70
     0
102
RTVSPropertyOp58
 70
     0
102
RTVSPropertyOp59
 70
     0
102
RTVSPropertyOp60
 70
     0
102
RTVSPropertyOp61
 70
     0
102
RTVSPropertyOp62
 70
     0
  0
XRECORD
  5
B386
102
{ACAD_REACTORS
330
B385
102
}
330
B385
100
AcDbXrecord
280
     1
102
RTVSPost2010Prop28
280
     0
102
RTVSPost2010PropOp28
 70
     1
102
RTVSPost2010Prop29
280
     1
102
RTVSPost2010PropOp29
 70
     1
102
RTVSPost2010Prop30
280
     1
102
RTVSPost2010PropOp30
 70
     1
102
RTVSPost2010Prop31
280
     0
102
RTVSPost2010PropOp31
 70
     1
102
RTVSPost2010Prop32
280
     0
102
RTVSPost2010PropOp32
 70
     1
102
RTVSPost2010Prop33
280
     0
102
RTVSPost2010PropOp33
 70
     1
102
RTVSPost2010Prop34
280
     0
102
RTVSPost2010PropOp34
 70
     1
102
RTVSPost2010Prop35
280
     0
102
RTVSPost2010PropOp35
 70
     1
102
RTVSPost2010Prop36
280
     0
102
RTVSPost2010PropOp36
 70
     1
102
RTVSPost2010Prop37
 90
       50
102
RTVSPost2010PropOp37
 70
     1
102
RTVSPost2010Prop38
140
0.0
102
RTVSPost2010PropOp38
 70
     1
102
RTVSPost2010Prop39
140
1.0
102
RTVSPost2010PropOp39
 70
     1
102
RTVSPost2010Prop40
 90
        0
102
RTVSPost2010PropOp40
 70
     1
102
RTVSPost2010Prop41ColorIndex
 90
       18
102
RTVSPost2010Prop41ColorRGB
 90
        0
102
RTVSPost2010PropOp41
 70
     1
102
RTVSPost2010Prop42
 90
       50
102
RTVSPost2010PropOp42
 70
     1
102
RTVSPost2010Prop43
 90
        3
102
RTVSPost2010PropOp43
 70
     1
102
RTVSPost2010Prop44ColorIndex
 90
        5
102
RTVSPost2010Prop44ColorRGB
 90
      255
102
RTVSPost2010PropOp44
 70
     1
102
RTVSPost2010Prop45
280
     0
102
RTVSPost2010PropOp45
 70
     1
102
RTVSPost2010Prop46
 90
       50
102
RTVSPost2010PropOp46
 70
     1
102
RTVSPost2010Prop47
 90
       50
102
RTVSPost2010PropOp47
 70
     1
102
RTVSPost2010Prop48
 90
       50
102
RTVSPost2010PropOp48
 70
     1
102
RTVSPost2010Prop49
280
     0
102
RTVSPost2010PropOp49
 70
     1
102
RTVSPost2010Prop50
 90
       50
102
RTVSPost2010PropOp50
 70
     1
102
RTVSPost2010Prop51ColorIndex
 90
      256
102
RTVSPost2010Prop51ColorRGB
 90
-16777216
102
RTVSPost2010PropOp51
 70
     0
102
RTVSPost2010Prop52
140
1.0
102
RTVSPost2010PropOp52
 70
     0
102
RTVSPost2010Prop53
 90
        2
102
RTVSPost2010PropOp53
 70
     1
102
RTVSPost2010Prop54
  1
strokes_ogs.tif
102
RTVSPost2010PropOp54
 70
     1
102
RTVSPost2010Prop55
280
     0
102
RTVSPost2010PropOp55
 70
     1
102
RTVSPost2010Prop56
140
1.0
102
RTVSPost2010PropOp56
 70
     1
102
RTVSPost2010Prop57
140
1.0
102
RTVSPost2010PropOp57
 70
     1
102
RTVSPropertyOp0
 70
     1
102
RTVSPropertyOp1
 70
     1
102
RTVSPropertyOp2
 70
     1
102
RTVSPropertyOp3
 70
     1
102
RTVSPropertyOp4
 70
     1
102
RTVSPropertyOp5
 70
     1
102
RTVSPropertyOp6
 70
     1
102
RTVSPropertyOp7
 70
     1
102
RTVSPropertyOp8
 70
     1
102
RTVSPropertyOp9
 70
     1
102
RTVSPropertyOp10
 70
     1
102
RTVSPropertyOp11
 70
     1
102
RTVSPropertyOp12
 70
     1
102
RTVSPropertyOp13
 70
     1
102
RTVSPropertyOp14
 70
     1
102
RTVSPropertyOp15
 70
     1
102
RTVSPropertyOp16
 70
     1
102
RTVSPropertyOp17
 70
     1
102
RTVSPropertyOp18
 70
     1
102
RTVSPropertyOp19
 70
     1
102
RTVSPropertyOp20
 70
     1
102
RTVSPropertyOp21
 70
     1
102
RTVSPropertyOp22
 70
     1
102
RTVSPropertyOp23
 70
     1
102
RTVSPropertyOp24
 70
     1
102
RTVSPropertyOp25
 70
     1
102
RTVSPropertyOp26
 70
     1
102
RTVSPropertyOp27
 70
     1
102
RTVSPropertyOp28
 70
     1
102
RTVSPropertyOp29
 70
     1
102
RTVSPropertyOp30
 70
     1
102
RTVSPropertyOp31
 70
     1
102
RTVSPropertyOp32
 70
     1
102
RTVSPropertyOp33
 70
     1
102
RTVSPropertyOp34
 70
     1
102
RTVSPropertyOp35
 70
     1
102
RTVSPropertyOp36
 70
     1
102
RTVSPropertyOp37
 70
     1
102
RTVSPropertyOp38
 70
     1
102
RTVSPropertyOp39
 70
     1
102
RTVSPropertyOp40
 70
     1
102
RTVSPropertyOp41
 70
     1
102
RTVSPropertyOp42
 70
     1
102
RTVSPropertyOp43
 70
     1
102
RTVSPropertyOp44
 70
     1
102
RTVSPropertyOp45
 70
     1
102
RTVSPropertyOp46
 70
     1
102
RTVSPropertyOp47
 70
     1
102
RTVSPropertyOp48
 70
     1
102
RTVSPropertyOp49
 70
     1
102
RTVSPropertyOp50
 70
     1
102
RTVSPropertyOp51
 70
     0
102
RTVSPropertyOp52
 70
     0
102
RTVSPropertyOp53
 70
     1
102
RTVSPropertyOp54
 70
     1
102
RTVSPropertyOp55
 70
     1
102
RTVSPropertyOp56
 70
     1
102
RTVSPropertyOp57
 70
     1
102
RTVSPropertyOp58
 70
     1
102
RTVSPropertyOp59
 70
     1
102
RTVSPropertyOp60
 70
     1
102
RTVSPropertyOp61
 70
     1
102
RTVSPropertyOp62
 70
     1
  0
XRECORD
  5
B39C
102
{ACAD_REACTORS
330
B39B
102
}
330
B39B
100
AcDbXrecord
280
     1
102
RTVSPost2010Prop28
280
     0
102
RTVSPost2010PropOp28
 70
     1
102
RTVSPost2010Prop29
280
     1
102
RTVSPost2010PropOp29
 70
     1
102
RTVSPost2010Prop30
280
     1
102
RTVSPost2010PropOp30
 70
     1
102
RTVSPost2010Prop31
280
     0
102
RTVSPost2010PropOp31
 70
     1
102
RTVSPost2010Prop32
280
     0
102
RTVSPost2010PropOp32
 70
     1
102
RTVSPost2010Prop33
280
     0
102
RTVSPost2010PropOp33
 70
     1
102
RTVSPost2010Prop34
280
     0
102
RTVSPost2010PropOp34
 70
     1
102
RTVSPost2010Prop35
280
     0
102
RTVSPost2010PropOp35
 70
     1
102
RTVSPost2010Prop36
280
     0
102
RTVSPost2010PropOp36
 70
     1
102
RTVSPost2010Prop37
 90
       50
102
RTVSPost2010PropOp37
 70
     1
102
RTVSPost2010Prop38
140
0.0
102
RTVSPost2010PropOp38
 70
     1
102
RTVSPost2010Prop39
140
1.0
102
RTVSPost2010PropOp39
 70
     1
102
RTVSPost2010Prop40
 90
        0
102
RTVSPost2010PropOp40
 70
     1
102
RTVSPost2010Prop41ColorIndex
 90
       18
102
RTVSPost2010Prop41ColorRGB
 90
        0
102
RTVSPost2010PropOp41
 70
     1
102
RTVSPost2010Prop42
 90
       50
102
RTVSPost2010PropOp42
 70
     1
102
RTVSPost2010Prop43
 90
        3
102
RTVSPost2010PropOp43
 70
     1
102
RTVSPost2010Prop44ColorIndex
 90
        5
102
RTVSPost2010Prop44ColorRGB
 90
      255
102
RTVSPost2010PropOp44
 70
     1
102
RTVSPost2010Prop45
280
     0
102
RTVSPost2010PropOp45
 70
     1
102
RTVSPost2010Prop46
 90
       50
102
RTVSPost2010PropOp46
 70
     1
102
RTVSPost2010Prop47
 90
       50
102
RTVSPost2010PropOp47
 70
     1
102
RTVSPost2010Prop48
 90
       50
102
RTVSPost2010PropOp48
 70
     1
102
RTVSPost2010Prop49
280
     0
102
RTVSPost2010PropOp49
 70
     1
102
RTVSPost2010Prop50
 90
       50
102
RTVSPost2010PropOp50
 70
     1
102
RTVSPost2010Prop51ColorIndex
 90
      256
102
RTVSPost2010Prop51ColorRGB
 90
-16777216
102
RTVSPost2010PropOp51
 70
     0
102
RTVSPost2010Prop52
140
1.0
102
RTVSPost2010PropOp52
 70
     0
102
RTVSPost2010Prop53
 90
        2
102
RTVSPost2010PropOp53
 70
     1
102
RTVSPost2010Prop54
  1
strokes_ogs.tif
102
RTVSPost2010PropOp54
 70
     1
102
RTVSPost2010Prop55
280
     0
102
RTVSPost2010PropOp55
 70
     1
102
RTVSPost2010Prop56
140
1.0
102
RTVSPost2010PropOp56
 70
     1
102
RTVSPost2010Prop57
140
1.0
102
RTVSPost2010PropOp57
 70
     1
102
RTVSPropertyOp0
 70
     1
102
RTVSPropertyOp1
 70
     1
102
RTVSPropertyOp2
 70
     1
102
RTVSPropertyOp3
 70
     1
102
RTVSPropertyOp4
 70
     1
102
RTVSPropertyOp5
 70
     1
102
RTVSPropertyOp6
 70
     1
102
RTVSPropertyOp7
 70
     1
102
RTVSPropertyOp8
 70
     1
102
RTVSPropertyOp9
 70
     1
102
RTVSPropertyOp10
 70
     1
102
RTVSPropertyOp11
 70
     1
102
RTVSPropertyOp12
 70
     1
102
RTVSPropertyOp13
 70
     1
102
RTVSPropertyOp14
 70
     1
102
RTVSPropertyOp15
 70
     1
102
RTVSPropertyOp16
 70
     1
102
RTVSPropertyOp17
 70
     1
102
RTVSPropertyOp18
 70
     1
102
RTVSPropertyOp19
 70
     1
102
RTVSPropertyOp20
 70
     1
102
RTVSPropertyOp21
 70
     1
102
RTVSPropertyOp22
 70
     1
102
RTVSPropertyOp23
 70
     1
102
RTVSPropertyOp24
 70
     1
102
RTVSPropertyOp25
 70
     1
102
RTVSPropertyOp26
 70
     1
102
RTVSPropertyOp27
 70
     1
102
RTVSPropertyOp28
 70
     1
102
RTVSPropertyOp29
 70
     1
102
RTVSPropertyOp30
 70
     1
102
RTVSPropertyOp31
 70
     1
102
RTVSPropertyOp32
 70
     1
102
RTVSPropertyOp33
 70
     1
102
RTVSPropertyOp34
 70
     1
102
RTVSPropertyOp35
 70
     1
102
RTVSPropertyOp36
 70
     1
102
RTVSPropertyOp37
 70
     1
102
RTVSPropertyOp38
 70
     1
102
RTVSPropertyOp39
 70
     1
102
RTVSPropertyOp40
 70
     1
102
RTVSPropertyOp41
 70
     1
102
RTVSPropertyOp42
 70
     1
102
RTVSPropertyOp43
 70
     1
102
RTVSPropertyOp44
 70
     1
102
RTVSPropertyOp45
 70
     1
102
RTVSPropertyOp46
 70
     1
102
RTVSPropertyOp47
 70
     1
102
RTVSPropertyOp48
 70
     1
102
RTVSPropertyOp49
 70
     1
102
RTVSPropertyOp50
 70
     1
102
RTVSPropertyOp51
 70
     0
102
RTVSPropertyOp52
 70
     0
102
RTVSPropertyOp53
 70
     1
102
RTVSPropertyOp54
 70
     1
102
RTVSPropertyOp55
 70
     1
102
RTVSPropertyOp56
 70
     1
102
RTVSPropertyOp57
 70
     1
102
RTVSPropertyOp58
 70
     1
102
RTVSPropertyOp59
 70
     1
102
RTVSPropertyOp60
 70
     1
102
RTVSPropertyOp61
 70
     1
102
RTVSPropertyOp62
 70
     1
  0
XRECORD
  5
B39A
102
{ACAD_REACTORS
330
B399
102
}
330
B399
100
AcDbXrecord
280
     1
102
RTVSPost2010Prop28
280
     0
102
RTVSPost2010PropOp28
 70
     1
102
RTVSPost2010Prop29
280
     1
102
RTVSPost2010PropOp29
 70
     1
102
RTVSPost2010Prop30
280
     1
102
RTVSPost2010PropOp30
 70
     1
102
RTVSPost2010Prop31
280
     0
102
RTVSPost2010PropOp31
 70
     1
102
RTVSPost2010Prop32
280
     0
102
RTVSPost2010PropOp32
 70
     1
102
RTVSPost2010Prop33
280
     0
102
RTVSPost2010PropOp33
 70
     1
102
RTVSPost2010Prop34
280
     0
102
RTVSPost2010PropOp34
 70
     1
102
RTVSPost2010Prop35
280
     0
102
RTVSPost2010PropOp35
 70
     1
102
RTVSPost2010Prop36
280
     0
102
RTVSPost2010PropOp36
 70
     1
102
RTVSPost2010Prop37
 90
       50
102
RTVSPost2010PropOp37
 70
     1
102
RTVSPost2010Prop38
140
0.0
102
RTVSPost2010PropOp38
 70
     1
102
RTVSPost2010Prop39
140
1.0
102
RTVSPost2010PropOp39
 70
     1
102
RTVSPost2010Prop40
 90
        0
102
RTVSPost2010PropOp40
 70
     1
102
RTVSPost2010Prop41ColorIndex
 90
       18
102
RTVSPost2010Prop41ColorRGB
 90
        0
102
RTVSPost2010PropOp41
 70
     1
102
RTVSPost2010Prop42
 90
       50
102
RTVSPost2010PropOp42
 70
     1
102
RTVSPost2010Prop43
 90
        3
102
RTVSPost2010PropOp43
 70
     1
102
RTVSPost2010Prop44ColorIndex
 90
        5
102
RTVSPost2010Prop44ColorRGB
 90
      255
102
RTVSPost2010PropOp44
 70
     1
102
RTVSPost2010Prop45
280
     0
102
RTVSPost2010PropOp45
 70
     1
102
RTVSPost2010Prop46
 90
       50
102
RTVSPost2010PropOp46
 70
     1
102
RTVSPost2010Prop47
 90
       50
102
RTVSPost2010PropOp47
 70
     1
102
RTVSPost2010Prop48
 90
       50
102
RTVSPost2010PropOp48
 70
     1
102
RTVSPost2010Prop49
280
     0
102
RTVSPost2010PropOp49
 70
     1
102
RTVSPost2010Prop50
 90
       50
102
RTVSPost2010PropOp50
 70
     1
102
RTVSPost2010Prop51ColorIndex
 90
      256
102
RTVSPost2010Prop51ColorRGB
 90
-16777216
102
RTVSPost2010PropOp51
 70
     0
102
RTVSPost2010Prop52
140
1.0
102
RTVSPost2010PropOp52
 70
     0
102
RTVSPost2010Prop53
 90
        2
102
RTVSPost2010PropOp53
 70
     1
102
RTVSPost2010Prop54
  1
strokes_ogs.tif
102
RTVSPost2010PropOp54
 70
     1
102
RTVSPost2010Prop55
280
     0
102
RTVSPost2010PropOp55
 70
     1
102
RTVSPost2010Prop56
140
1.0
102
RTVSPost2010PropOp56
 70
     1
102
RTVSPost2010Prop57
140
1.0
102
RTVSPost2010PropOp57
 70
     1
102
RTVSPropertyOp0
 70
     1
102
RTVSPropertyOp1
 70
     1
102
RTVSPropertyOp2
 70
     1
102
RTVSPropertyOp3
 70
     1
102
RTVSPropertyOp4
 70
     1
102
RTVSPropertyOp5
 70
     1
102
RTVSPropertyOp6
 70
     1
102
RTVSPropertyOp7
 70
     1
102
RTVSPropertyOp8
 70
     1
102
RTVSPropertyOp9
 70
     1
102
RTVSPropertyOp10
 70
     1
102
RTVSPropertyOp11
 70
     1
102
RTVSPropertyOp12
 70
     1
102
RTVSPropertyOp13
 70
     1
102
RTVSPropertyOp14
 70
     1
102
RTVSPropertyOp15
 70
     1
102
RTVSPropertyOp16
 70
     1
102
RTVSPropertyOp17
 70
     1
102
RTVSPropertyOp18
 70
     1
102
RTVSPropertyOp19
 70
     1
102
RTVSPropertyOp20
 70
     1
102
RTVSPropertyOp21
 70
     1
102
RTVSPropertyOp22
 70
     1
102
RTVSPropertyOp23
 70
     1
102
RTVSPropertyOp24
 70
     1
102
RTVSPropertyOp25
 70
     1
102
RTVSPropertyOp26
 70
     1
102
RTVSPropertyOp27
 70
     1
102
RTVSPropertyOp28
 70
     1
102
RTVSPropertyOp29
 70
     1
102
RTVSPropertyOp30
 70
     1
102
RTVSPropertyOp31
 70
     1
102
RTVSPropertyOp32
 70
     1
102
RTVSPropertyOp33
 70
     1
102
RTVSPropertyOp34
 70
     1
102
RTVSPropertyOp35
 70
     1
102
RTVSPropertyOp36
 70
     1
102
RTVSPropertyOp37
 70
     1
102
RTVSPropertyOp38
 70
     1
102
RTVSPropertyOp39
 70
     1
102
RTVSPropertyOp40
 70
     1
102
RTVSPropertyOp41
 70
     1
102
RTVSPropertyOp42
 70
     1
102
RTVSPropertyOp43
 70
     1
102
RTVSPropertyOp44
 70
     1
102
RTVSPropertyOp45
 70
     1
102
RTVSPropertyOp46
 70
     1
102
RTVSPropertyOp47
 70
     1
102
RTVSPropertyOp48
 70
     1
102
RTVSPropertyOp49
 70
     1
102
RTVSPropertyOp50
 70
     1
102
RTVSPropertyOp51
 70
     0
102
RTVSPropertyOp52
 70
     0
102
RTVSPropertyOp53
 70
     1
102
RTVSPropertyOp54
 70
     1
102
RTVSPropertyOp55
 70
     1
102
RTVSPropertyOp56
 70
     1
102
RTVSPropertyOp57
 70
     1
102
RTVSPropertyOp58
 70
     1
102
RTVSPropertyOp59
 70
     1
102
RTVSPropertyOp60
 70
     1
102
RTVSPropertyOp61
 70
     1
102
RTVSPropertyOp62
 70
     1
  0
XRECORD
  5
B394
102
{ACAD_REACTORS
330
B393
102
}
330
B393
100
AcDbXrecord
280
     1
102
RTVSPost2010Prop28
280
     0
102
RTVSPost2010PropOp28
 70
     1
102
RTVSPost2010Prop29
280
     1
102
RTVSPost2010PropOp29
 70
     1
102
RTVSPost2010Prop30
280
     1
102
RTVSPost2010PropOp30
 70
     1
102
RTVSPost2010Prop31
280
     0
102
RTVSPost2010PropOp31
 70
     1
102
RTVSPost2010Prop32
280
     0
102
RTVSPost2010PropOp32
 70
     1
102
RTVSPost2010Prop33
280
     0
102
RTVSPost2010PropOp33
 70
     1
102
RTVSPost2010Prop34
280
     0
102
RTVSPost2010PropOp34
 70
     1
102
RTVSPost2010Prop35
280
     0
102
RTVSPost2010PropOp35
 70
     1
102
RTVSPost2010Prop36
280
     0
102
RTVSPost2010PropOp36
 70
     1
102
RTVSPost2010Prop37
 90
       50
102
RTVSPost2010PropOp37
 70
     1
102
RTVSPost2010Prop38
140
0.0
102
RTVSPost2010PropOp38
 70
     1
102
RTVSPost2010Prop39
140
1.0
102
RTVSPost2010PropOp39
 70
     1
102
RTVSPost2010Prop40
 90
        0
102
RTVSPost2010PropOp40
 70
     1
102
RTVSPost2010Prop41ColorIndex
 90
       18
102
RTVSPost2010Prop41ColorRGB
 90
        0
102
RTVSPost2010PropOp41
 70
     1
102
RTVSPost2010Prop42
 90
       50
102
RTVSPost2010PropOp42
 70
     1
102
RTVSPost2010Prop43
 90
        3
102
RTVSPost2010PropOp43
 70
     1
102
RTVSPost2010Prop44ColorIndex
 90
        5
102
RTVSPost2010Prop44ColorRGB
 90
      255
102
RTVSPost2010PropOp44
 70
     1
102
RTVSPost2010Prop45
280
     0
102
RTVSPost2010PropOp45
 70
     1
102
RTVSPost2010Prop46
 90
       50
102
RTVSPost2010PropOp46
 70
     1
102
RTVSPost2010Prop47
 90
       50
102
RTVSPost2010PropOp47
 70
     1
102
RTVSPost2010Prop48
 90
       50
102
RTVSPost2010PropOp48
 70
     1
102
RTVSPost2010Prop49
280
     0
102
RTVSPost2010PropOp49
 70
     1
102
RTVSPost2010Prop50
 90
       50
102
RTVSPost2010PropOp50
 70
     1
102
RTVSPost2010Prop51ColorIndex
 90
      256
102
RTVSPost2010Prop51ColorRGB
 90
-16777216
102
RTVSPost2010PropOp51
 70
     0
102
RTVSPost2010Prop52
140
1.0
102
RTVSPost2010PropOp52
 70
     0
102
RTVSPost2010Prop53
 90
        2
102
RTVSPost2010PropOp53
 70
     1
102
RTVSPost2010Prop54
  1
strokes_ogs.tif
102
RTVSPost2010PropOp54
 70
     1
102
RTVSPost2010Prop55
280
     0
102
RTVSPost2010PropOp55
 70
     1
102
RTVSPost2010Prop56
140
1.0
102
RTVSPost2010PropOp56
 70
     1
102
RTVSPost2010Prop57
140
1.0
102
RTVSPost2010PropOp57
 70
     1
102
RTVSPropertyOp0
 70
     1
102
RTVSPropertyOp1
 70
     1
102
RTVSPropertyOp2
 70
     1
102
RTVSPropertyOp3
 70
     1
102
RTVSPropertyOp4
 70
     1
102
RTVSPropertyOp5
 70
     1
102
RTVSPropertyOp6
 70
     1
102
RTVSPropertyOp7
 70
     1
102
RTVSPropertyOp8
 70
     1
102
RTVSPropertyOp9
 70
     1
102
RTVSPropertyOp10
 70
     1
102
RTVSPropertyOp11
 70
     1
102
RTVSPropertyOp12
 70
     1
102
RTVSPropertyOp13
 70
     1
102
RTVSPropertyOp14
 70
     1
102
RTVSPropertyOp15
 70
     1
102
RTVSPropertyOp16
 70
     1
102
RTVSPropertyOp17
 70
     1
102
RTVSPropertyOp18
 70
     1
102
RTVSPropertyOp19
 70
     1
102
RTVSPropertyOp20
 70
     1
102
RTVSPropertyOp21
 70
     1
102
RTVSPropertyOp22
 70
     1
102
RTVSPropertyOp23
 70
     1
102
RTVSPropertyOp24
 70
     1
102
RTVSPropertyOp25
 70
     1
102
RTVSPropertyOp26
 70
     1
102
RTVSPropertyOp27
 70
     1
102
RTVSPropertyOp28
 70
     1
102
RTVSPropertyOp29
 70
     1
102
RTVSPropertyOp30
 70
     1
102
RTVSPropertyOp31
 70
     1
102
RTVSPropertyOp32
 70
     1
102
RTVSPropertyOp33
 70
     1
102
RTVSPropertyOp34
 70
     1
102
RTVSPropertyOp35
 70
     1
102
RTVSPropertyOp36
 70
     1
102
RTVSPropertyOp37
 70
     1
102
RTVSPropertyOp38
 70
     1
102
RTVSPropertyOp39
 70
     1
102
RTVSPropertyOp40
 70
     1
102
RTVSPropertyOp41
 70
     1
102
RTVSPropertyOp42
 70
     1
102
RTVSPropertyOp43
 70
     1
102
RTVSPropertyOp44
 70
     1
102
RTVSPropertyOp45
 70
     1
102
RTVSPropertyOp46
 70
     1
102
RTVSPropertyOp47
 70
     1
102
RTVSPropertyOp48
 70
     1
102
RTVSPropertyOp49
 70
     1
102
RTVSPropertyOp50
 70
     1
102
RTVSPropertyOp51
 70
     0
102
RTVSPropertyOp52
 70
     0
102
RTVSPropertyOp53
 70
     1
102
RTVSPropertyOp54
 70
     1
102
RTVSPropertyOp55
 70
     1
102
RTVSPropertyOp56
 70
     1
102
RTVSPropertyOp57
 70
     1
102
RTVSPropertyOp58
 70
     1
102
RTVSPropertyOp59
 70
     1
102
RTVSPropertyOp60
 70
     1
102
RTVSPropertyOp61
 70
     1
102
RTVSPropertyOp62
 70
     1
  0
XRECORD
  5
B396
102
{ACAD_REACTORS
330
B395
102
}
330
B395
100
AcDbXrecord
280
     1
102
RTVSPost2010Prop28
280
     0
102
RTVSPost2010PropOp28
 70
     1
102
RTVSPost2010Prop29
280
     1
102
RTVSPost2010PropOp29
 70
     1
102
RTVSPost2010Prop30
280
     1
102
RTVSPost2010PropOp30
 70
     1
102
RTVSPost2010Prop31
280
     0
102
RTVSPost2010PropOp31
 70
     1
102
RTVSPost2010Prop32
280
     0
102
RTVSPost2010PropOp32
 70
     1
102
RTVSPost2010Prop33
280
     0
102
RTVSPost2010PropOp33
 70
     1
102
RTVSPost2010Prop34
280
     0
102
RTVSPost2010PropOp34
 70
     1
102
RTVSPost2010Prop35
280
     0
102
RTVSPost2010PropOp35
 70
     1
102
RTVSPost2010Prop36
280
     0
102
RTVSPost2010PropOp36
 70
     1
102
RTVSPost2010Prop37
 90
       50
102
RTVSPost2010PropOp37
 70
     1
102
RTVSPost2010Prop38
140
0.0
102
RTVSPost2010PropOp38
 70
     1
102
RTVSPost2010Prop39
140
1.0
102
RTVSPost2010PropOp39
 70
     1
102
RTVSPost2010Prop40
 90
        0
102
RTVSPost2010PropOp40
 70
     1
102
RTVSPost2010Prop41ColorIndex
 90
       18
102
RTVSPost2010Prop41ColorRGB
 90
        0
102
RTVSPost2010PropOp41
 70
     1
102
RTVSPost2010Prop42
 90
       50
102
RTVSPost2010PropOp42
 70
     1
102
RTVSPost2010Prop43
 90
        3
102
RTVSPost2010PropOp43
 70
     1
102
RTVSPost2010Prop44ColorIndex
 90
        5
102
RTVSPost2010Prop44ColorRGB
 90
      255
102
RTVSPost2010PropOp44
 70
     1
102
RTVSPost2010Prop45
280
     0
102
RTVSPost2010PropOp45
 70
     1
102
RTVSPost2010Prop46
 90
       50
102
RTVSPost2010PropOp46
 70
     1
102
RTVSPost2010Prop47
 90
       50
102
RTVSPost2010PropOp47
 70
     1
102
RTVSPost2010Prop48
 90
       50
102
RTVSPost2010PropOp48
 70
     1
102
RTVSPost2010Prop49
280
     0
102
RTVSPost2010PropOp49
 70
     1
102
RTVSPost2010Prop50
 90
       50
102
RTVSPost2010PropOp50
 70
     1
102
RTVSPost2010Prop51ColorIndex
 90
      256
102
RTVSPost2010Prop51ColorRGB
 90
-16777216
102
RTVSPost2010PropOp51
 70
     0
102
RTVSPost2010Prop52
140
1.0
102
RTVSPost2010PropOp52
 70
     0
102
RTVSPost2010Prop53
 90
        2
102
RTVSPost2010PropOp53
 70
     1
102
RTVSPost2010Prop54
  1
strokes_ogs.tif
102
RTVSPost2010PropOp54
 70
     1
102
RTVSPost2010Prop55
280
     0
102
RTVSPost2010PropOp55
 70
     1
102
RTVSPost2010Prop56
140
1.0
102
RTVSPost2010PropOp56
 70
     1
102
RTVSPost2010Prop57
140
1.0
102
RTVSPost2010PropOp57
 70
     1
102
RTVSPropertyOp0
 70
     1
102
RTVSPropertyOp1
 70
     1
102
RTVSPropertyOp2
 70
     1
102
RTVSPropertyOp3
 70
     1
102
RTVSPropertyOp4
 70
     1
102
RTVSPropertyOp5
 70
     1
102
RTVSPropertyOp6
 70
     1
102
RTVSPropertyOp7
 70
     1
102
RTVSPropertyOp8
 70
     1
102
RTVSPropertyOp9
 70
     1
102
RTVSPropertyOp10
 70
     1
102
RTVSPropertyOp11
 70
     1
102
RTVSPropertyOp12
 70
     1
102
RTVSPropertyOp13
 70
     1
102
RTVSPropertyOp14
 70
     1
102
RTVSPropertyOp15
 70
     1
102
RTVSPropertyOp16
 70
     1
102
RTVSPropertyOp17
 70
     1
102
RTVSPropertyOp18
 70
     1
102
RTVSPropertyOp19
 70
     1
102
RTVSPropertyOp20
 70
     1
102
RTVSPropertyOp21
 70
     1
102
RTVSPropertyOp22
 70
     1
102
RTVSPropertyOp23
 70
     1
102
RTVSPropertyOp24
 70
     1
102
RTVSPropertyOp25
 70
     1
102
RTVSPropertyOp26
 70
     1
102
RTVSPropertyOp27
 70
     1
102
RTVSPropertyOp28
 70
     1
102
RTVSPropertyOp29
 70
     1
102
RTVSPropertyOp30
 70
     1
102
RTVSPropertyOp31
 70
     1
102
RTVSPropertyOp32
 70
     1
102
RTVSPropertyOp33
 70
     1
102
RTVSPropertyOp34
 70
     1
102
RTVSPropertyOp35
 70
     1
102
RTVSPropertyOp36
 70
     1
102
RTVSPropertyOp37
 70
     1
102
RTVSPropertyOp38
 70
     1
102
RTVSPropertyOp39
 70
     1
102
RTVSPropertyOp40
 70
     1
102
RTVSPropertyOp41
 70
     1
102
RTVSPropertyOp42
 70
     1
102
RTVSPropertyOp43
 70
     1
102
RTVSPropertyOp44
 70
     1
102
RTVSPropertyOp45
 70
     1
102
RTVSPropertyOp46
 70
     1
102
RTVSPropertyOp47
 70
     1
102
RTVSPropertyOp48
 70
     1
102
RTVSPropertyOp49
 70
     1
102
RTVSPropertyOp50
 70
     1
102
RTVSPropertyOp51
 70
     0
102
RTVSPropertyOp52
 70
     0
102
RTVSPropertyOp53
 70
     1
102
RTVSPropertyOp54
 70
     1
102
RTVSPropertyOp55
 70
     1
102
RTVSPropertyOp56
 70
     1
102
RTVSPropertyOp57
 70
     1
102
RTVSPropertyOp58
 70
     1
102
RTVSPropertyOp59
 70
     1
102
RTVSPropertyOp60
 70
     1
102
RTVSPropertyOp61
 70
     1
102
RTVSPropertyOp62
 70
     1
  0
XRECORD
  5
B38C
102
{ACAD_REACTORS
330
B38B
102
}
330
B38B
100
AcDbXrecord
280
     1
102
RTVSPost2010Prop28
280
     0
102
RTVSPost2010PropOp28
 70
     1
102
RTVSPost2010Prop29
280
     1
102
RTVSPost2010PropOp29
 70
     1
102
RTVSPost2010Prop30
280
     1
102
RTVSPost2010PropOp30
 70
     1
102
RTVSPost2010Prop31
280
     0
102
RTVSPost2010PropOp31
 70
     1
102
RTVSPost2010Prop32
280
     0
102
RTVSPost2010PropOp32
 70
     1
102
RTVSPost2010Prop33
280
     0
102
RTVSPost2010PropOp33
 70
     1
102
RTVSPost2010Prop34
280
     0
102
RTVSPost2010PropOp34
 70
     1
102
RTVSPost2010Prop35
280
     0
102
RTVSPost2010PropOp35
 70
     1
102
RTVSPost2010Prop36
280
     0
102
RTVSPost2010PropOp36
 70
     1
102
RTVSPost2010Prop37
 90
       50
102
RTVSPost2010PropOp37
 70
     1
102
RTVSPost2010Prop38
140
0.0
102
RTVSPost2010PropOp38
 70
     1
102
RTVSPost2010Prop39
140
1.0
102
RTVSPost2010PropOp39
 70
     1
102
RTVSPost2010Prop40
 90
        0
102
RTVSPost2010PropOp40
 70
     1
102
RTVSPost2010Prop41ColorIndex
 90
       18
102
RTVSPost2010Prop41ColorRGB
 90
        0
102
RTVSPost2010PropOp41
 70
     1
102
RTVSPost2010Prop42
 90
       50
102
RTVSPost2010PropOp42
 70
     1
102
RTVSPost2010Prop43
 90
        3
102
RTVSPost2010PropOp43
 70
     1
102
RTVSPost2010Prop44ColorIndex
 90
        5
102
RTVSPost2010Prop44ColorRGB
 90
      255
102
RTVSPost2010PropOp44
 70
     1
102
RTVSPost2010Prop45
280
     0
102
RTVSPost2010PropOp45
 70
     1
102
RTVSPost2010Prop46
 90
       50
102
RTVSPost2010PropOp46
 70
     1
102
RTVSPost2010Prop47
 90
       50
102
RTVSPost2010PropOp47
 70
     1
102
RTVSPost2010Prop48
 90
       50
102
RTVSPost2010PropOp48
 70
     1
102
RTVSPost2010Prop49
280
     0
102
RTVSPost2010PropOp49
 70
     1
102
RTVSPost2010Prop50
 90
       50
102
RTVSPost2010PropOp50
 70
     1
102
RTVSPost2010Prop51ColorIndex
 90
      256
102
RTVSPost2010Prop51ColorRGB
 90
-16777216
102
RTVSPost2010PropOp51
 70
     0
102
RTVSPost2010Prop52
140
1.0
102
RTVSPost2010PropOp52
 70
     0
102
RTVSPost2010Prop53
 90
        2
102
RTVSPost2010PropOp53
 70
     1
102
RTVSPost2010Prop54
  1
strokes_ogs.tif
102
RTVSPost2010PropOp54
 70
     1
102
RTVSPost2010Prop55
280
     0
102
RTVSPost2010PropOp55
 70
     1
102
RTVSPost2010Prop56
140
1.0
102
RTVSPost2010PropOp56
 70
     1
102
RTVSPost2010Prop57
140
1.0
102
RTVSPost2010PropOp57
 70
     1
102
RTVSPropertyOp0
 70
     1
102
RTVSPropertyOp1
 70
     1
102
RTVSPropertyOp2
 70
     1
102
RTVSPropertyOp3
 70
     1
102
RTVSPropertyOp4
 70
     1
102
RTVSPropertyOp5
 70
     1
102
RTVSPropertyOp6
 70
     1
102
RTVSPropertyOp7
 70
     1
102
RTVSPropertyOp8
 70
     1
102
RTVSPropertyOp9
 70
     1
102
RTVSPropertyOp10
 70
     1
102
RTVSPropertyOp11
 70
     1
102
RTVSPropertyOp12
 70
     1
102
RTVSPropertyOp13
 70
     1
102
RTVSPropertyOp14
 70
     1
102
RTVSPropertyOp15
 70
     1
102
RTVSPropertyOp16
 70
     1
102
RTVSPropertyOp17
 70
     1
102
RTVSPropertyOp18
 70
     1
102
RTVSPropertyOp19
 70
     1
102
RTVSPropertyOp20
 70
     1
102
RTVSPropertyOp21
 70
     1
102
RTVSPropertyOp22
 70
     1
102
RTVSPropertyOp23
 70
     1
102
RTVSPropertyOp24
 70
     1
102
RTVSPropertyOp25
 70
     1
102
RTVSPropertyOp26
 70
     1
102
RTVSPropertyOp27
 70
     1
102
RTVSPropertyOp28
 70
     1
102
RTVSPropertyOp29
 70
     1
102
RTVSPropertyOp30
 70
     1
102
RTVSPropertyOp31
 70
     1
102
RTVSPropertyOp32
 70
     1
102
RTVSPropertyOp33
 70
     1
102
RTVSPropertyOp34
 70
     1
102
RTVSPropertyOp35
 70
     1
102
RTVSPropertyOp36
 70
     1
102
RTVSPropertyOp37
 70
     1
102
RTVSPropertyOp38
 70
     1
102
RTVSPropertyOp39
 70
     1
102
RTVSPropertyOp40
 70
     1
102
RTVSPropertyOp41
 70
     1
102
RTVSPropertyOp42
 70
     1
102
RTVSPropertyOp43
 70
     1
102
RTVSPropertyOp44
 70
     1
102
RTVSPropertyOp45
 70
     1
102
RTVSPropertyOp46
 70
     1
102
RTVSPropertyOp47
 70
     1
102
RTVSPropertyOp48
 70
     1
102
RTVSPropertyOp49
 70
     1
102
RTVSPropertyOp50
 70
     1
102
RTVSPropertyOp51
 70
     0
102
RTVSPropertyOp52
 70
     0
102
RTVSPropertyOp53
 70
     1
102
RTVSPropertyOp54
 70
     1
102
RTVSPropertyOp55
 70
     1
102
RTVSPropertyOp56
 70
     1
102
RTVSPropertyOp57
 70
     1
102
RTVSPropertyOp58
 70
     1
102
RTVSPropertyOp59
 70
     1
102
RTVSPropertyOp60
 70
     1
102
RTVSPropertyOp61
 70
     1
102
RTVSPropertyOp62
 70
     1
  0
XRECORD
  5
B380
102
{ACAD_REACTORS
330
B37F
102
}
330
B37F
100
AcDbXrecord
280
     1
102
RTVSPost2010Prop28
280
     0
102
RTVSPost2010PropOp28
 70
     1
102
RTVSPost2010Prop29
280
     1
102
RTVSPost2010PropOp29
 70
     1
102
RTVSPost2010Prop30
280
     1
102
RTVSPost2010PropOp30
 70
     1
102
RTVSPost2010Prop31
280
     0
102
RTVSPost2010PropOp31
 70
     1
102
RTVSPost2010Prop32
280
     0
102
RTVSPost2010PropOp32
 70
     1
102
RTVSPost2010Prop33
280
     0
102
RTVSPost2010PropOp33
 70
     1
102
RTVSPost2010Prop34
280
     0
102
RTVSPost2010PropOp34
 70
     1
102
RTVSPost2010Prop35
280
     0
102
RTVSPost2010PropOp35
 70
     1
102
RTVSPost2010Prop36
280
     0
102
RTVSPost2010PropOp36
 70
     1
102
RTVSPost2010Prop37
 90
       50
102
RTVSPost2010PropOp37
 70
     1
102
RTVSPost2010Prop38
140
0.0
102
RTVSPost2010PropOp38
 70
     1
102
RTVSPost2010Prop39
140
1.0
102
RTVSPost2010PropOp39
 70
     1
102
RTVSPost2010Prop40
 90
        0
102
RTVSPost2010PropOp40
 70
     1
102
RTVSPost2010Prop41ColorIndex
 90
       18
102
RTVSPost2010Prop41ColorRGB
 90
        0
102
RTVSPost2010PropOp41
 70
     1
102
RTVSPost2010Prop42
 90
       50
102
RTVSPost2010PropOp42
 70
     1
102
RTVSPost2010Prop43
 90
        3
102
RTVSPost2010PropOp43
 70
     1
102
RTVSPost2010Prop44ColorIndex
 90
        5
102
RTVSPost2010Prop44ColorRGB
 90
      255
102
RTVSPost2010PropOp44
 70
     1
102
RTVSPost2010Prop45
280
     0
102
RTVSPost2010PropOp45
 70
     1
102
RTVSPost2010Prop46
 90
       50
102
RTVSPost2010PropOp46
 70
     1
102
RTVSPost2010Prop47
 90
       50
102
RTVSPost2010PropOp47
 70
     1
102
RTVSPost2010Prop48
 90
       50
102
RTVSPost2010PropOp48
 70
     1
102
RTVSPost2010Prop49
280
     0
102
RTVSPost2010PropOp49
 70
     1
102
RTVSPost2010Prop50
 90
       50
102
RTVSPost2010PropOp50
 70
     1
102
RTVSPost2010Prop51ColorIndex
 90
      256
102
RTVSPost2010Prop51ColorRGB
 90
-16777216
102
RTVSPost2010PropOp51
 70
     0
102
RTVSPost2010Prop52
140
1.0
102
RTVSPost2010PropOp52
 70
     0
102
RTVSPost2010Prop53
 90
        2
102
RTVSPost2010PropOp53
 70
     1
102
RTVSPost2010Prop54
  1
strokes_ogs.tif
102
RTVSPost2010PropOp54
 70
     1
102
RTVSPost2010Prop55
280
     0
102
RTVSPost2010PropOp55
 70
     1
102
RTVSPost2010Prop56
140
1.0
102
RTVSPost2010PropOp56
 70
     1
102
RTVSPost2010Prop57
140
1.0
102
RTVSPost2010PropOp57
 70
     1
102
RTVSPropertyOp0
 70
     1
102
RTVSPropertyOp1
 70
     1
102
RTVSPropertyOp2
 70
     1
102
RTVSPropertyOp3
 70
     1
102
RTVSPropertyOp4
 70
     1
102
RTVSPropertyOp5
 70
     1
102
RTVSPropertyOp6
 70
     1
102
RTVSPropertyOp7
 70
     1
102
RTVSPropertyOp8
 70
     1
102
RTVSPropertyOp9
 70
     1
102
RTVSPropertyOp10
 70
     1
102
RTVSPropertyOp11
 70
     1
102
RTVSPropertyOp12
 70
     1
102
RTVSPropertyOp13
 70
     1
102
RTVSPropertyOp14
 70
     1
102
RTVSPropertyOp15
 70
     1
102
RTVSPropertyOp16
 70
     1
102
RTVSPropertyOp17
 70
     1
102
RTVSPropertyOp18
 70
     1
102
RTVSPropertyOp19
 70
     1
102
RTVSPropertyOp20
 70
     1
102
RTVSPropertyOp21
 70
     1
102
RTVSPropertyOp22
 70
     1
102
RTVSPropertyOp23
 70
     1
102
RTVSPropertyOp24
 70
     1
102
RTVSPropertyOp25
 70
     1
102
RTVSPropertyOp26
 70
     1
102
RTVSPropertyOp27
 70
     1
102
RTVSPropertyOp28
 70
     1
102
RTVSPropertyOp29
 70
     1
102
RTVSPropertyOp30
 70
     1
102
RTVSPropertyOp31
 70
     1
102
RTVSPropertyOp32
 70
     1
102
RTVSPropertyOp33
 70
     1
102
RTVSPropertyOp34
 70
     1
102
RTVSPropertyOp35
 70
     1
102
RTVSPropertyOp36
 70
     1
102
RTVSPropertyOp37
 70
     1
102
RTVSPropertyOp38
 70
     1
102
RTVSPropertyOp39
 70
     1
102
RTVSPropertyOp40
 70
     1
102
RTVSPropertyOp41
 70
     1
102
RTVSPropertyOp42
 70
     1
102
RTVSPropertyOp43
 70
     1
102
RTVSPropertyOp44
 70
     1
102
RTVSPropertyOp45
 70
     1
102
RTVSPropertyOp46
 70
     1
102
RTVSPropertyOp47
 70
     1
102
RTVSPropertyOp48
 70
     1
102
RTVSPropertyOp49
 70
     1
102
RTVSPropertyOp50
 70
     1
102
RTVSPropertyOp51
 70
     0
102
RTVSPropertyOp52
 70
     0
102
RTVSPropertyOp53
 70
     1
102
RTVSPropertyOp54
 70
     1
102
RTVSPropertyOp55
 70
     1
102
RTVSPropertyOp56
 70
     1
102
RTVSPropertyOp57
 70
     1
102
RTVSPropertyOp58
 70
     1
102
RTVSPropertyOp59
 70
     1
102
RTVSPropertyOp60
 70
     1
102
RTVSPropertyOp61
 70
     1
102
RTVSPropertyOp62
 70
     1
  0
XRECORD
  5
B398
102
{ACAD_REACTORS
330
B397
102
}
330
B397
100
AcDbXrecord
280
     1
102
RTVSPost2010Prop28
280
     0
102
RTVSPost2010PropOp28
 70
     1
102
RTVSPost2010Prop29
280
     1
102
RTVSPost2010PropOp29
 70
     1
102
RTVSPost2010Prop30
280
     1
102
RTVSPost2010PropOp30
 70
     1
102
RTVSPost2010Prop31
280
     0
102
RTVSPost2010PropOp31
 70
     1
102
RTVSPost2010Prop32
280
     0
102
RTVSPost2010PropOp32
 70
     1
102
RTVSPost2010Prop33
280
     0
102
RTVSPost2010PropOp33
 70
     1
102
RTVSPost2010Prop34
280
     0
102
RTVSPost2010PropOp34
 70
     1
102
RTVSPost2010Prop35
280
     0
102
RTVSPost2010PropOp35
 70
     1
102
RTVSPost2010Prop36
280
     0
102
RTVSPost2010PropOp36
 70
     1
102
RTVSPost2010Prop37
 90
       50
102
RTVSPost2010PropOp37
 70
     1
102
RTVSPost2010Prop38
140
0.0
102
RTVSPost2010PropOp38
 70
     1
102
RTVSPost2010Prop39
140
1.0
102
RTVSPost2010PropOp39
 70
     1
102
RTVSPost2010Prop40
 90
        0
102
RTVSPost2010PropOp40
 70
     1
102
RTVSPost2010Prop41ColorIndex
 90
       18
102
RTVSPost2010Prop41ColorRGB
 90
        0
102
RTVSPost2010PropOp41
 70
     1
102
RTVSPost2010Prop42
 90
       50
102
RTVSPost2010PropOp42
 70
     1
102
RTVSPost2010Prop43
 90
        3
102
RTVSPost2010PropOp43
 70
     1
102
RTVSPost2010Prop44ColorIndex
 90
        5
102
RTVSPost2010Prop44ColorRGB
 90
      255
102
RTVSPost2010PropOp44
 70
     1
102
RTVSPost2010Prop45
280
     0
102
RTVSPost2010PropOp45
 70
     1
102
RTVSPost2010Prop46
 90
       50
102
RTVSPost2010PropOp46
 70
     1
102
RTVSPost2010Prop47
 90
       50
102
RTVSPost2010PropOp47
 70
     1
102
RTVSPost2010Prop48
 90
       50
102
RTVSPost2010PropOp48
 70
     1
102
RTVSPost2010Prop49
280
     0
102
RTVSPost2010PropOp49
 70
     1
102
RTVSPost2010Prop50
 90
       50
102
RTVSPost2010PropOp50
 70
     1
102
RTVSPost2010Prop51ColorIndex
 90
      256
102
RTVSPost2010Prop51ColorRGB
 90
-16777216
102
RTVSPost2010PropOp51
 70
     0
102
RTVSPost2010Prop52
140
1.0
102
RTVSPost2010PropOp52
 70
     0
102
RTVSPost2010Prop53
 90
        2
102
RTVSPost2010PropOp53
 70
     1
102
RTVSPost2010Prop54
  1
strokes_ogs.tif
102
RTVSPost2010PropOp54
 70
     1
102
RTVSPost2010Prop55
280
     0
102
RTVSPost2010PropOp55
 70
     1
102
RTVSPost2010Prop56
140
1.0
102
RTVSPost2010PropOp56
 70
     1
102
RTVSPost2010Prop57
140
1.0
102
RTVSPost2010PropOp57
 70
     1
102
RTVSPropertyOp0
 70
     1
102
RTVSPropertyOp1
 70
     1
102
RTVSPropertyOp2
 70
     1
102
RTVSPropertyOp3
 70
     1
102
RTVSPropertyOp4
 70
     1
102
RTVSPropertyOp5
 70
     1
102
RTVSPropertyOp6
 70
     1
102
RTVSPropertyOp7
 70
     1
102
RTVSPropertyOp8
 70
     1
102
RTVSPropertyOp9
 70
     1
102
RTVSPropertyOp10
 70
     1
102
RTVSPropertyOp11
 70
     1
102
RTVSPropertyOp12
 70
     1
102
RTVSPropertyOp13
 70
     1
102
RTVSPropertyOp14
 70
     1
102
RTVSPropertyOp15
 70
     1
102
RTVSPropertyOp16
 70
     1
102
RTVSPropertyOp17
 70
     1
102
RTVSPropertyOp18
 70
     1
102
RTVSPropertyOp19
 70
     1
102
RTVSPropertyOp20
 70
     1
102
RTVSPropertyOp21
 70
     1
102
RTVSPropertyOp22
 70
     1
102
RTVSPropertyOp23
 70
     1
102
RTVSPropertyOp24
 70
     1
102
RTVSPropertyOp25
 70
     1
102
RTVSPropertyOp26
 70
     1
102
RTVSPropertyOp27
 70
     1
102
RTVSPropertyOp28
 70
     1
102
RTVSPropertyOp29
 70
     1
102
RTVSPropertyOp30
 70
     1
102
RTVSPropertyOp31
 70
     1
102
RTVSPropertyOp32
 70
     1
102
RTVSPropertyOp33
 70
     1
102
RTVSPropertyOp34
 70
     1
102
RTVSPropertyOp35
 70
     1
102
RTVSPropertyOp36
 70
     1
102
RTVSPropertyOp37
 70
     1
102
RTVSPropertyOp38
 70
     1
102
RTVSPropertyOp39
 70
     1
102
RTVSPropertyOp40
 70
     1
102
RTVSPropertyOp41
 70
     1
102
RTVSPropertyOp42
 70
     1
102
RTVSPropertyOp43
 70
     1
102
RTVSPropertyOp44
 70
     1
102
RTVSPropertyOp45
 70
     1
102
RTVSPropertyOp46
 70
     1
102
RTVSPropertyOp47
 70
     1
102
RTVSPropertyOp48
 70
     1
102
RTVSPropertyOp49
 70
     1
102
RTVSPropertyOp50
 70
     1
102
RTVSPropertyOp51
 70
     0
102
RTVSPropertyOp52
 70
     0
102
RTVSPropertyOp53
 70
     1
102
RTVSPropertyOp54
 70
     1
102
RTVSPropertyOp55
 70
     1
102
RTVSPropertyOp56
 70
     1
102
RTVSPropertyOp57
 70
     1
102
RTVSPropertyOp58
 70
     1
102
RTVSPropertyOp59
 70
     1
102
RTVSPropertyOp60
 70
     1
102
RTVSPropertyOp61
 70
     1
102
RTVSPropertyOp62
 70
     1
  0
ENDSEC
  0
EOF
