  0
SECTION
  2
HEADER
  9
$ACADVER
  1
AC1015
  9
$DWGCODEPAGE
  3
ANSI_932
  9
$LTSCALE
 40
20.0
  9
$FILLMODE
 70
     1
  9
$CLAYER
  8
0
  9
$PDMODE
 70
     0
  9
$SPLFRAME
 70
     0
  9
$SPLINETYPE
 70
     6
  9
$SPLINESEGS
 70
     8
  9
$DIMASZ
 40
2.000000
  9
$DIMEXE
 40
1.500000
  9
$DIMEXO
 40
0.800000
  9
$DIMTAD
 70
     1
  9
$DIMTIH
 70
     0
  9
$DIMTOH
 70
     0
  9
$DIMTVP
 40
0.500000
  9
$DIMTXT
 40
3.100000
  9
$EXTMIN
 10
0.000000
 20
0.000000
 30
0.000000
  9
$EXTMAX
 10
297.000000
 20
420.000000
 30
0.000000
  9
$MEASUREMENT
 70
  1
  9
$LIMMIN
 10
0.000000
 20
0.000000
  9
$LIMMAX
 10
297.000000
 20
420.000000
  9
$HANDSEED
  5
C3
  9
$LWDISPLAY
290
     0
  9
$DIMBLK
  1
_OPEN
  9
$DIMDEC
 70
     2
  9
$DIMADEC
 70
     2
  9
$DIMAUNIT
 70
     0
  9
$DIMZIN
 70
     8
  9
$DIMAZIN
 70
     2
  9
$DIMTOFL
 70
     1
  0
ENDSEC
  0
SECTION
  2
CLASSES
  0
ENDSEC
  0
SECTION
  2
TABLES
  0
TABLE
  2
VPORT
  5
90
100
AcDbSymbolTable
 70
     1
  0
VPORT
  5
91
100
AcDbSymbolTableRecord
100
AcDbViewportTableRecord
  2
*ACTIVE
 70
     0
 12
113.069200
 22
92.101000
 40
148.202000
 41
1.403487
  0
ENDTAB
  0
TABLE
  2
LTYPE
  5
92
100
AcDbSymbolTable
 70
     2
  0
LTYPE
  5
93
100
AcDbSymbolTableRecord
100
AcDbLinetypeTableRecord
  2
BYBLOCK
 70
     0
  3

 72
    65
 73
     0
 40
0.0
  0
LTYPE
  5
94
100
AcDbSymbolTableRecord
100
AcDbLinetypeTableRecord
  2
BYLAYER
 70
     0
  3

 72
    65
 73
     0
 40
0.0
  0
LTYPE
  5
95
100
AcDbSymbolTableRecord
100
AcDbLinetypeTableRecord
  2
CONTINUOUS
 70
     0
  3
Solid line (NEC CAE2D for Win R16.0 : 2021.09.02)
 72
    65
 73
     0
 40
0.0
  0
LTYPE
  5
96
100
AcDbSymbolTableRecord
100
AcDbLinetypeTableRecord
  2
CENTER
 70
     0
  3
____ _ ____ _ ____ _ ____ _ ____ _ ____
 72
    65
 73
     4
 40
2.0
 49
1.25
 74
     0
 49
-0.25
 74
     0
 49
0.25
 74
     0
 49
-0.25
 74
     0
  0
ENDTAB
  0
TABLE
  2
LAYER
  5
97
100
AcDbSymbolTable
 70
    13
  0
LAYER
  5
98
100
AcDbSymbolTableRecord
100
AcDbLayerTableRecord
  2
0
 70
     0
 62
     7
  6
CONTINUOUS
370
    -3
390

  0
LAYER
  5
99
100
AcDbSymbolTableRecord
100
AcDbLayerTableRecord
  2
DXF0
 70
     0
 62
     7
  6
CONTINUOUS
370
    -3
390

  0
LAYER
  5
9A
100
AcDbSymbolTableRecord
100
AcDbLayerTableRecord
  2
DXF0
 70
     0
 62
     7
  6
CONTINUOUS
370
    -3
390

  0
LAYER
  5
9B
100
AcDbSymbolTableRecord
100
AcDbLayerTableRecord
  2
4
 70
     0
 62
     1
  6
CONTINUOUS
370
    -3
390

  0
LAYER
  5
9C
100
AcDbSymbolTableRecord
100
AcDbLayerTableRecord
  2
5
 70
     0
 62
     6
  6
CONTINUOUS
370
    -3
390

  0
LAYER
  5
9D
100
AcDbSymbolTableRecord
100
AcDbLayerTableRecord
  2
1
 70
     0
 62
     7
  6
CONTINUOUS
370
    -3
390

  0
LAYER
  5
9E
100
AcDbSymbolTableRecord
100
AcDbLayerTableRecord
  2
2
 70
     0
 62
     4
  6
CONTINUOUS
370
    -3
390

  0
LAYER
  5
9F
100
AcDbSymbolTableRecord
100
AcDbLayerTableRecord
  2
3
 70
     0
 62
     2
  6
CONTINUOUS
370
    -3
390

  0
LAYER
  5
A0
100
AcDbSymbolTableRecord
100
AcDbLayerTableRecord
  2
6
 70
     0
 62
     5
  6
CONTINUOUS
370
    -3
390

  0
LAYER
  5
A1
100
AcDbSymbolTableRecord
100
AcDbLayerTableRecord
  2
7
 70
     0
 62
     7
  6
CONTINUOUS
370
    -3
390

  0
LAYER
  5
A2
100
AcDbSymbolTableRecord
100
AcDbLayerTableRecord
  2
DXF10
 70
     0
 62
    12
  6
CONTINUOUS
370
    -3
390

  0
LAYER
  5
A3
100
AcDbSymbolTableRecord
100
AcDbLayerTableRecord
  2
DXF1023
 70
     0
 62
     8
  6
CONTINUOUS
370
    -3
390

  0
LAYER
  5
A4
100
AcDbSymbolTableRecord
100
AcDbLayerTableRecord
  2
DXF1023
 70
     0
 62
    16
  6
CONTINUOUS
370
    -3
390

  0
ENDTAB
  0
TABLE
  2
STYLE
  5
A5
100
AcDbSymbolTable
 70
     4
  0
STYLE
  5
A6
100
AcDbSymbolTableRecord
100
AcDbTextStyleTableRecord
  2
STANDARD
 70
    64
 40
0.0
 41
1.0
 50
0.0
 71
     0
 42
3.000000000000000
  3
TXT
  4

  0
STYLE
  5
A7
100
AcDbSymbolTableRecord
100
AcDbTextStyleTableRecord
  2
ANKTATE
 70
    68
 40
0.0
 41
1.0
 50
0.0
 71
     0
 42
3.000000000000000
  3
TXT
  4

  0
STYLE
  5
A8
100
AcDbSymbolTableRecord
100
AcDbTextStyleTableRecord
  2
KNJYOKO
 70
    64
 40
0.0
 41
1.0
 50
0.0
 71
     0
 42
3.000000000000000
  3
TXT
  4
BIGFONT
  0
STYLE
  5
A9
100
AcDbSymbolTableRecord
100
AcDbTextStyleTableRecord
  2
KNJTATE
 70
    68
 40
0.0
 41
1.0
 50
0.0
 71
     0
 42
3.000000000000000
  3
TXT
  4
BIGFONT
  0
ENDTAB
  0
TABLE
  2
VIEW
  5
AA
100
AcDbSymbolTable
 70
     0
  0
ENDTAB
  0
TABLE
  2
UCS
  5
AB
100
AcDbSymbolTable
 70
     0
  0
ENDTAB
  0
TABLE
  2
APPID
  5
AC
100
AcDbSymbolTable
 70
     1
  0
APPID
  5
AD
100
AcDbSymbolTableRecord
100
AcDbRegAppTableRecord
  2
ACAD
 70
     0
  0
ENDTAB
  0
TABLE
  2
DIMSTYLE
  5
AE
100
AcDbSymbolTable
 70
     2
100
AcDbDimStyleTable
  0
DIMSTYLE
105
AF
100
AcDbSymbolTableRecord
100
AcDbDimStyleTableRecord
  2
STANDARD
 70
     0
 41
2.000000
 44
1.500000
 42
0.800000
145
0.661290
140
3.100000
144
1.000000
146
0.645161
340
A6
  0
DIMSTYLE
105
B0
100
AcDbSymbolTableRecord
100
AcDbDimStyleTableRecord
  2
DXF001
 70
     0
 41
2.000000
 44
1.500000
 42
0.800000
145
0.661290
140
3.100000
144
1.000000
146
0.645161
 77
     1
 73
     0
 74
     0
271
     2
179
     2
275
     0
 78
     8
 79
     2
172
     1
340
A6
  0
ENDTAB
  0
TABLE
  2
BLOCK_RECORD
  5
B1
100
AcDbSymbolTable
 70
    12
  0
BLOCK_RECORD
  5
B2
100
AcDbSymbolTableRecord
100
AcDbBlockTableRecord
  2
*MODEL_SPACE
  0
BLOCK_RECORD
  5
B3
100
AcDbSymbolTableRecord
100
AcDbBlockTableRecord
  2
*PAPER_SPACE
  0
BLOCK_RECORD
  5
B4
100
AcDbSymbolTableRecord
100
AcDbBlockTableRecord
  2
*PAPER_SPACE0
  0
BLOCK_RECORD
  5
1
100
AcDbSymbolTableRecord
100
AcDbBlockTableRecord
  2
_NONE
  0
BLOCK_RECORD
  5
4
100
AcDbSymbolTableRecord
100
AcDbBlockTableRecord
  2
_CLOSED
  0
BLOCK_RECORD
  5
B
100
AcDbSymbolTableRecord
100
AcDbBlockTableRecord
  2
_DOT
  0
BLOCK_RECORD
  5
13
100
AcDbSymbolTableRecord
100
AcDbBlockTableRecord
  2
_OPEN
  0
BLOCK_RECORD
  5
19
100
AcDbSymbolTableRecord
100
AcDbBlockTableRecord
  2
_ORIGIN
  0
BLOCK_RECORD
  5
1E
100
AcDbSymbolTableRecord
100
AcDbBlockTableRecord
  2
_OPEN30
  0
BLOCK_RECORD
  5
24
100
AcDbSymbolTableRecord
100
AcDbBlockTableRecord
  2
_BOXFILLED
  0
BLOCK_RECORD
  5
29
100
AcDbSymbolTableRecord
100
AcDbBlockTableRecord
  2
_BOXBLANK
  0
BLOCK_RECORD
  5
31
100
AcDbSymbolTableRecord
100
AcDbBlockTableRecord
  2
_OBLIQUE
  0
BLOCK_RECORD
  5
35
100
AcDbSymbolTableRecord
100
AcDbBlockTableRecord
  2
_OPEN90
  0
BLOCK_RECORD
  5
3B
100
AcDbSymbolTableRecord
100
AcDbBlockTableRecord
  2
_CLOSEDBLANK
  0
BLOCK_RECORD
  5
41
100
AcDbSymbolTableRecord
100
AcDbBlockTableRecord
  2
_DOTBLANK
  0
ENDTAB
  0
ENDSEC
  0
SECTION
  2
BLOCKS
  0
BLOCK
  5
B5
100
AcDbEntity
  8
0
100
AcDbBlockBegin
  2
*MODEL_SPACE
 70
     0
 10
0.0
 20
0.0
 30
0.0
  3
*MODEL_SPACE
  1

  0
ENDBLK
  5
B6
100
AcDbEntity
  8
0
100
AcDbBlockEnd
  0
BLOCK
  5
B7
100
AcDbEntity
  8
0
100
AcDbBlockBegin
  2
*PAPER_SPACE
 70
     0
 10
0.0
 20
0.0
 30
0.0
  3
*PAPER_SPACE
  1

  0
ENDBLK
  5
B8
100
AcDbEntity
  8
0
100
AcDbBlockEnd
  0
BLOCK
  5
B9
100
AcDbEntity
  8
0
100
AcDbBlockBegin
  2
*PAPER_SPACE0
 70
     0
 10
0.0
 20
0.0
 30
0.0
  3
*PAPER_SPACE0
  1

  0
ENDBLK
  5
BA
100
AcDbEntity
  8
0
100
AcDbBlockEnd
  0
BLOCK
  5
2
330
1
100
AcDbEntity
  8
0
100
AcDbBlockBegin
  2
_NONE
 70
     0
 10
0.0
 20
0.0
 30
0.0
  3
_NONE
  1

  0
ENDBLK
  5
3
330
1
100
AcDbEntity
  8
0
100
AcDbBlockEnd
  0
BLOCK
  5
5
330
4
100
AcDbEntity
  8
0
100
AcDbBlockBegin
  2
_CLOSED
 70
     0
 10
0.0
 20
0.0
 30
0.0
  3
_CLOSED
  1

  0
LINE
  5
6
330
4
100
AcDbEntity
  8
0
  6
BYBLOCK
 62
     0
370
    -2
100
AcDbLine
 10
-1.0
 20
0.166667
 30
0.0
 11
0.0
 21
0.0
 31
0.0
  0
LINE
  5
7
330
4
100
AcDbEntity
  8
0
  6
BYBLOCK
 62
     0
370
    -2
100
AcDbLine
 10
0.0
 20
0.0
 30
0.0
 11
-1.0
 21
-0.166667
 31
0.0
  0
LINE
  5
8
330
4
100
AcDbEntity
  8
0
  6
BYBLOCK
 62
     0
370
    -2
100
AcDbLine
 10
-1.0
 20
0.166667
 30
0.0
 11
-1.0
 21
-0.166667
 31
0.0
  0
LINE
  5
9
330
4
100
AcDbEntity
  8
0
  6
BYBLOCK
 62
     0
370
    -2
100
AcDbLine
 10
0.0
 20
0.0
 30
0.0
 11
-1.0
 21
0.0
 31
0.0
  0
ENDBLK
  5
A
330
4
100
AcDbEntity
  8
0
100
AcDbBlockEnd
  0
BLOCK
  5
C
330
B
100
AcDbEntity
  8
0
100
AcDbBlockBegin
  2
_DOT
 70
     0
 10
0.0
 20
0.0
 30
0.0
  3
_DOT
  1

  0
POLYLINE
  5
D
330
B
100
AcDbEntity
  8
0
  6
BYBLOCK
 62
     0
370
    -2
100
AcDb2dPolyline
 66
     1
 10
0.0
 20
0.0
 30
0.0
 70
     1
 40
0.5
 41
0.5
  0
VERTEX
  5
E
330
B
100
AcDbEntity
  8
0
  6
BYBLOCK
 62
     0
370
    -2
100
AcDbVertex
100
AcDb2dVertex
 10
-0.25
 20
0.0
 30
0.0
 42
1.0
  0
VERTEX
  5
F
330
B
100
AcDbEntity
  8
0
  6
BYBLOCK
 62
     0
370
    -2
100
AcDbVertex
100
AcDb2dVertex
 10
0.25
 20
0.0
 30
0.0
 42
1.0
  0
SEQEND
  5
10
330
B
100
AcDbEntity
  8
0
  6
BYBLOCK
 62
     0
370
    -2
  0
LINE
  5
11
330
B
100
AcDbEntity
  8
0
  6
BYBLOCK
 62
     0
370
    -2
100
AcDbLine
 10
-0.5
 20
0.0
 30
0.0
 11
-1.0
 21
0.0
 31
0.0
  0
ENDBLK
  5
12
330
B
100
AcDbEntity
  8
0
100
AcDbBlockEnd
  0
BLOCK
  5
14
330
13
100
AcDbEntity
  8
0
100
AcDbBlockBegin
  2
_OPEN
 70
     0
 10
0.0
 20
0.0
 30
0.0
  3
_OPEN
  1

  0
LINE
  5
15
330
13
100
AcDbEntity
  8
0
  6
BYBLOCK
 62
     0
370
    -2
100
AcDbLine
 10
-1.0
 20
0.166667
 30
0.0
 11
0.0
 21
0.0
 31
0.0
  0
LINE
  5
16
330
13
100
AcDbEntity
  8
0
  6
BYBLOCK
 62
     0
370
    -2
100
AcDbLine
 10
0.0
 20
0.0
 30
0.0
 11
-1.0
 21
-0.166667
 31
0.0
  0
LINE
  5
17
330
13
100
AcDbEntity
  8
0
  6
BYBLOCK
 62
     0
370
    -2
100
AcDbLine
 10
0.0
 20
0.0
 30
0.0
 11
-1.0
 21
0.0
 31
0.0
  0
ENDBLK
  5
18
330
13
100
AcDbEntity
  8
0
100
AcDbBlockEnd
  0
BLOCK
  5
1A
330
19
100
AcDbEntity
  8
0
100
AcDbBlockBegin
  2
_ORIGIN
 70
     0
 10
0.0
 20
0.0
 30
0.0
  3
_ORIGIN
  1

  0
CIRCLE
  5
1B
330
19
100
AcDbEntity
  8
0
  6
BYBLOCK
 62
     0
370
    -2
100
AcDbCircle
 10
0.0
 20
0.0
 30
0.0
 40
0.5
  0
LINE
  5
1C
330
19
100
AcDbEntity
  8
0
  6
BYBLOCK
 62
     0
370
    -2
100
AcDbLine
 10
0.0
 20
0.0
 30
0.0
 11
-1.0
 21
0.0
 31
0.0
  0
ENDBLK
  5
1D
330
19
100
AcDbEntity
  8
0
100
AcDbBlockEnd
  0
BLOCK
  5
1F
330
1E
100
AcDbEntity
  8
0
100
AcDbBlockBegin
  2
_OPEN30
 70
     0
 10
0.0
 20
0.0
 30
0.0
  3
_OPEN30
  1

  0
LINE
  5
20
330
1E
100
AcDbEntity
  8
0
  6
BYBLOCK
 62
     0
370
    -2
100
AcDbLine
 10
-1.0
 20
0.267949
 30
0.0
 11
0.0
 21
0.0
 31
0.0
  0
LINE
  5
21
330
1E
100
AcDbEntity
  8
0
  6
BYBLOCK
 62
     0
370
    -2
100
AcDbLine
 10
0.0
 20
0.0
 30
0.0
 11
-1.0
 21
-0.267949
 31
0.0
  0
LINE
  5
22
330
1E
100
AcDbEntity
  8
0
  6
BYBLOCK
 62
     0
370
    -2
100
AcDbLine
 10
0.0
 20
0.0
 30
0.0
 11
-1.0
 21
0.0
 31
0.0
  0
ENDBLK
  5
23
330
1E
100
AcDbEntity
  8
0
100
AcDbBlockEnd
  0
BLOCK
  5
25
330
24
100
AcDbEntity
  8
0
100
AcDbBlockBegin
  2
_BOXFILLED
 70
     0
 10
0.0
 20
0.0
 30
0.0
  3
_BOXFILLED
  1

  0
SOLID
  5
26
330
24
100
AcDbEntity
  8
0
  6
BYBLOCK
 62
     0
370
    -2
100
AcDbTrace
 10
-0.5
 20
0.5
 30
0.0
 11
0.5
 21
0.5
 31
0.0
 12
-0.5
 22
-0.5
 32
0.0
 13
0.5
 23
-0.5
 33
0.0
  0
LINE
  5
27
330
24
100
AcDbEntity
  8
0
  6
BYBLOCK
 62
     0
370
    -2
100
AcDbLine
 10
-0.5
 20
0.0
 30
0.0
 11
-1.0
 21
0.0
 31
0.0
  0
ENDBLK
  5
28
330
24
100
AcDbEntity
  8
0
100
AcDbBlockEnd
  0
BLOCK
  5
2A
330
29
100
AcDbEntity
  8
0
100
AcDbBlockBegin
  2
_BOXBLANK
 70
     0
 10
0.0
 20
0.0
 30
0.0
  3
_BOXBLANK
  1

  0
LINE
  5
2B
330
29
100
AcDbEntity
  8
0
  6
BYBLOCK
 62
     0
370
    -2
100
AcDbLine
 10
-0.5
 20
-0.5
 30
0.0
 11
0.5
 21
-0.5
 31
0.0
  0
LINE
  5
2C
330
29
100
AcDbEntity
  8
0
  6
BYBLOCK
 62
     0
370
    -2
100
AcDbLine
 10
0.5
 20
-0.5
 30
0.0
 11
0.5
 21
0.5
 31
0.0
  0
LINE
  5
2D
330
29
100
AcDbEntity
  8
0
  6
BYBLOCK
 62
     0
370
    -2
100
AcDbLine
 10
0.5
 20
0.5
 30
0.0
 11
-0.5
 21
0.5
 31
0.0
  0
LINE
  5
2E
330
29
100
AcDbEntity
  8
0
  6
BYBLOCK
 62
     0
370
    -2
100
AcDbLine
 10
-0.5
 20
0.5
 30
0.0
 11
-0.5
 21
-0.5
 31
0.0
  0
LINE
  5
2F
330
29
100
AcDbEntity
  8
0
  6
BYBLOCK
 62
     0
370
    -2
100
AcDbLine
 10
-0.5
 20
0.0
 30
0.0
 11
-1.0
 21
0.0
 31
0.0
  0
ENDBLK
  5
30
330
29
100
AcDbEntity
  8
0
100
AcDbBlockEnd
  0
BLOCK
  5
32
330
31
100
AcDbEntity
  8
0
100
AcDbBlockBegin
  2
_OBLIQUE
 70
     0
 10
0.0
 20
0.0
 30
0.0
  3
_OBLIQUE
  1

  0
LINE
  5
33
330
31
100
AcDbEntity
  8
0
  6
BYBLOCK
 62
     0
370
    -2
100
AcDbLine
 10
-0.5
 20
-0.5
 30
0.0
 11
0.5
 21
0.5
 31
0.0
  0
ENDBLK
  5
34
330
31
100
AcDbEntity
  8
0
100
AcDbBlockEnd
  0
BLOCK
  5
36
330
35
100
AcDbEntity
  8
0
100
AcDbBlockBegin
  2
_OPEN90
 70
     0
 10
0.0
 20
0.0
 30
0.0
  3
_OPEN90
  1

  0
LINE
  5
37
330
35
100
AcDbEntity
  8
0
  6
BYBLOCK
 62
     0
370
    -2
100
AcDbLine
 10
-0.5
 20
0.5
 30
0.0
 11
0.0
 21
0.0
 31
0.0
  0
LINE
  5
38
330
35
100
AcDbEntity
  8
0
  6
BYBLOCK
 62
     0
370
    -2
100
AcDbLine
 10
0.0
 20
0.0
 30
0.0
 11
-0.5
 21
-0.5
 31
0.0
  0
LINE
  5
39
330
35
100
AcDbEntity
  8
0
  6
BYBLOCK
 62
     0
370
    -2
100
AcDbLine
 10
0.0
 20
0.0
 30
0.0
 11
-1.0
 21
0.0
 31
0.0
  0
ENDBLK
  5
3A
330
35
100
AcDbEntity
  8
0
100
AcDbBlockEnd
  0
BLOCK
  5
3C
330
3B
100
AcDbEntity
  8
0
100
AcDbBlockBegin
  2
_CLOSEDBLANK
 70
     0
 10
0.0
 20
0.0
 30
0.0
  3
_CLOSEDBLANK
  1

  0
LINE
  5
3D
330
3B
100
AcDbEntity
  8
0
  6
BYBLOCK
 62
     0
370
    -2
100
AcDbLine
 10
-1.0
 20
0.1666666666666666
 30
0.0
 11
0.0
 21
0.0
 31
0.0
  0
LINE
  5
3E
330
3B
100
AcDbEntity
  8
0
  6
BYBLOCK
 62
     0
370
    -2
100
AcDbLine
 10
0.0
 20
0.0
 30
0.0
 11
-1.0
 21
-0.1666666666666666
 31
0.0
  0
LINE
  5
3F
330
3B
100
AcDbEntity
  8
0
  6
BYBLOCK
 62
     0
370
    -2
100
AcDbLine
 10
-1.0
 20
0.1666666666666666
 30
0.0
 11
-1.0
 21
-0.1666666666666666
 31
0.0
  0
ENDBLK
  5
40
330
3B
100
AcDbEntity
  8
0
100
AcDbBlockEnd
  0
BLOCK
  5
42
330
41
100
AcDbEntity
  8
0
100
AcDbBlockBegin
  2
_DOTBLANK
 70
     0
 10
0.0
 20
0.0
 30
0.0
  3
_DOTBLANK
  1

  0
CIRCLE
  5
43
330
41
100
AcDbEntity
  8
0
  6
BYBLOCK
 62
     0
370
    -2
100
AcDbCircle
 10
0.0
 20
0.0
 30
0.0
 40
0.5
  0
LINE
  5
44
330
41
100
AcDbEntity
  8
0
  6
BYBLOCK
 62
     0
370
    -2
100
AcDbLine
 10
-0.5
 20
0.0
 30
0.0
 11
-1.0
 21
0.0
 31
0.0
  0
ENDBLK
  5
45
330
41
100
AcDbEntity
  8
0
100
AcDbBlockEnd
  0
ENDSEC
  0
SECTION
  2
ENTITIES
  0
MTEXT
  5
46
100
AcDbEntity
  8
7
  6
CONTINUOUS
 62
7
100
AcDbMText
 10
10.00000000000000
 20
18.00000000000000
 30
0.000000000000000
 40
3.000000000000000
 41
0.000000000000000
 44
0.6739999771118164
 71
     7
 72
     1
  1
{\H0.93x;{TYPE No.THA-32-1}}
 11
1.000000000000000
 21
0.000000000000000
 31
0.000000000000000
  7
STANDARD
  0
LINE
  5
47
100
AcDbEntity
  8
1
  6
CONTINUOUS
 62
7
100
AcDbLine
 10
211.0689999999999
 20
81.00000000000000
 30
0.000000000000000
 11
217.0690000000000
 21
81.00000000000000
 31
0.000000000000000
  0
LINE
  5
48
100
AcDbEntity
  8
1
  6
CONTINUOUS
 62
7
100
AcDbLine
 10
163.0689999999998
 20
111.0000000000000
 30
0.000000000000000
 11
205.0690000000000
 21
111.0000000000000
 31
0.000000000000000
  0
LINE
  5
49
100
AcDbEntity
  8
4
  6
CENTER
 62
1
100
AcDbLine
 10
44.06940000000000
 20
56.00000000000000
 30
0.000000000000000
 11
44.06940000000000
 21
44.00000000000000
 31
0.000000000000000
  0
LINE
  5
4A
100
AcDbEntity
  8
4
  6
CENTER
 62
1
100
AcDbLine
 10
184.0690000000000
 20
114.0000000000000
 30
0.000000000000000
 11
184.0690000000000
 21
103.0000000000000
 31
0.000000000000000
  0
LINE
  5
4B
100
AcDbEntity
  8
1
  6
CONTINUOUS
 62
7
100
AcDbLine
 10
211.0689999999999
 20
99.00000000000000
 30
0.000000000000000
 11
211.0689999999999
 21
81.00000000000000
 31
0.000000000000000
  0
LINE
  5
4C
100
AcDbEntity
  8
1
  6
CONTINUOUS
 62
7
100
AcDbLine
 10
217.0690000000000
 20
99.00000000000000
 30
0.000000000000000
 11
217.0690000000000
 21
81.00000000000000
 31
0.000000000000000
  0
LINE
  5
4D
100
AcDbEntity
  8
1
  6
CONTINUOUS
 62
7
100
AcDbLine
 10
163.0689999999999
 20
105.0000000000000
 30
0.000000000000000
 11
205.0689999999999
 21
105.0000000000000
 31
0.000000000000000
  0
LINE
  5
4E
100
AcDbEntity
  8
1
  6
CONTINUOUS
 62
7
100
AcDbLine
 10
157.0689999999999
 20
81.00000000000000
 30
0.000000000000000
 11
151.0689999999998
 21
81.00000000000000
 31
0.000000000000000
  0
LINE
  5
4F
100
AcDbEntity
  8
1
  6
CONTINUOUS
 62
7
100
AcDbLine
 10
157.0689999999999
 20
99.00000000000000
 30
0.000000000000000
 11
157.0689999999999
 21
81.00000000000000
 31
0.000000000000000
  0
LINE
  5
50
100
AcDbEntity
  8
1
  6
CONTINUOUS
 62
7
100
AcDbLine
 10
151.0689999999998
 20
98.99999999999999
 30
0.000000000000000
 11
151.0689999999998
 21
81.00000000000000
 31
0.000000000000000
  0
LINE
  5
51
100
AcDbEntity
  8
1
  6
CONTINUOUS
 62
7
100
AcDbLine
 10
22.06940000000000
 20
53.00000000000000
 30
0.000000000000000
 11
66.06940000000000
 21
53.00000000000000
 31
0.000000000000000
  0
LINE
  5
52
100
AcDbEntity
  8
1
  6
CONTINUOUS
 62
7
100
AcDbLine
 10
22.06940000000000
 20
47.00000000000000
 30
0.000000000000000
 11
66.06940000000000
 21
47.00000000000000
 31
0.000000000000000
  0
LINE
  5
53
100
AcDbEntity
  8
1
  6
CONTINUOUS
 62
7
100
AcDbLine
 10
110.8990000000000
 20
81.00000000000000
 30
0.000000000000000
 11
116.8989999999999
 21
81.00000000000000
 31
0.000000000000000
  0
LINE
  5
54
100
AcDbEntity
  8
1
  6
CONTINUOUS
 62
7
100
AcDbLine
 10
110.8990000000000
 20
92.00000000000000
 30
0.000000000000000
 11
110.8990000000000
 21
81.00000000000000
 31
0.000000000000000
  0
LINE
  5
55
100
AcDbEntity
  8
1
  6
CONTINUOUS
 62
7
100
AcDbLine
 10
116.8989999999999
 20
92.00000000000000
 30
0.000000000000000
 11
116.8989999999999
 21
81.00000000000000
 31
0.000000000000000
  0
LINE
  5
56
100
AcDbEntity
  8
4
  6
CENTER
 62
1
100
AcDbLine
 10
103.8990000000000
 20
113.0000000000000
 30
0.000000000000000
 11
103.8990000000000
 21
102.4999999999999
 31
0.000000000000000
  0
LINE
  5
57
100
AcDbEntity
  8
4
  6
CENTER
 62
1
100
AcDbLine
 10
98.89870000000001
 20
108.0000000000000
 30
0.000000000000000
 11
109.6110000000000
 21
108.0000000000000
 31
0.000000000000000
  0
LINE
  5
58
100
AcDbEntity
  8
4
  6
CENTER
 62
1
100
AcDbLine
 10
113.8989999999999
 20
83.00000000000000
 30
0.000000000000000
 11
113.8989999999999
 21
79.00000000000000
 31
0.000000000000000
  0
LINE
  5
59
100
AcDbEntity
  8
4
  6
CENTER
 62
1
100
AcDbLine
 10
154.0689999999998
 20
83.00000000000000
 30
0.000000000000000
 11
154.0689999999998
 21
79.00000000000000
 31
0.000000000000000
  0
LINE
  5
5A
100
AcDbEntity
  8
4
  6
CENTER
 62
1
100
AcDbLine
 10
74.06940000000000
 20
45.00000000000000
 30
0.000000000000000
 11
74.06940000000000
 21
35.00000000000000
 31
0.000000000000000
  0
LINE
  5
5B
100
AcDbEntity
  8
4
  6
CENTER
 62
1
100
AcDbLine
 10
69.06940000000000
 20
40.00000000000000
 30
0.000000000000000
 11
79.06940000000000
 21
40.00000000000000
 31
0.000000000000000
  0
LINE
  5
5C
100
AcDbEntity
  8
4
  6
CENTER
 62
1
100
AcDbLine
 10
9.069399999999998
 20
40.00000000000000
 30
0.000000000000000
 11
19.06940000000000
 21
40.00000000000000
 31
0.000000000000000
  0
LINE
  5
5D
100
AcDbEntity
  8
4
  6
CENTER
 62
1
100
AcDbLine
 10
14.06940000000000
 20
45.00000000000000
 30
0.000000000000000
 11
14.06940000000000
 21
35.00000000000000
 31
0.000000000000000
  0
LINE
  5
5E
100
AcDbEntity
  8
4
  6
CENTER
 62
1
100
AcDbLine
 10
214.0689999999999
 20
83.00000000000000
 30
0.000000000000000
 11
214.0689999999999
 21
79.00000000000000
 31
0.000000000000000
  0
LINE
  5
5F
100
AcDbEntity
  8
1
  6
CONTINUOUS
 62
7
100
AcDbLine
 10
101.5920000000000
 20
106.0819999999999
 30
0.000000000000000
 11
109.0489999999998
 21
97.11560000000003
 31
0.000000000000000
  0
LINE
  5
60
100
AcDbEntity
  8
1
  6
CONTINUOUS
 62
7
100
AcDbLine
 10
106.2049999999999
 20
109.9180000000000
 30
0.000000000000000
 11
113.6620000000000
 21
100.9520000000000
 31
0.000000000000000
  0
LINE
  5
61
100
AcDbEntity
  8
1
  6
CONTINUOUS
 62
7
100
AcDbLine
 10
71.06940000000000
 20
81.00000000000000
 30
0.000000000000000
 11
77.06940000000000
 21
81.00000000000000
 31
0.000000000000000
  0
LINE
  5
62
100
AcDbEntity
  8
1
  6
CONTINUOUS
 62
7
100
AcDbLine
 10
23.06940000000000
 20
111.0000000000000
 30
0.000000000000000
 11
65.06940000000000
 21
111.0000000000000
 31
0.000000000000000
  0
LINE
  5
63
100
AcDbEntity
  8
4
  6
CENTER
 62
1
100
AcDbLine
 10
44.06940000000000
 20
114.0000000000000
 30
0.000000000000000
 11
44.06940000000000
 21
103.0000000000000
 31
0.000000000000000
  0
LINE
  5
64
100
AcDbEntity
  8
1
  6
CONTINUOUS
 62
7
100
AcDbLine
 10
71.06940000000000
 20
99.00000000000000
 30
0.000000000000000
 11
71.06940000000000
 21
81.00000000000000
 31
0.000000000000000
  0
LINE
  5
65
100
AcDbEntity
  8
1
  6
CONTINUOUS
 62
7
100
AcDbLine
 10
77.06940000000000
 20
99.00000000000000
 30
0.000000000000000
 11
77.06940000000000
 21
81.00000000000000
 31
0.000000000000000
  0
LINE
  5
66
100
AcDbEntity
  8
1
  6
CONTINUOUS
 62
7
100
AcDbLine
 10
23.06940000000000
 20
105.0000000000000
 30
0.000000000000000
 11
65.06940000000000
 21
105.0000000000000
 31
0.000000000000000
  0
LINE
  5
67
100
AcDbEntity
  8
1
  6
CONTINUOUS
 62
7
100
AcDbLine
 10
17.06940000000000
 20
81.00000000000000
 30
0.000000000000000
 11
11.06940000000000
 21
81.00000000000000
 31
0.000000000000000
  0
LINE
  5
68
100
AcDbEntity
  8
1
  6
CONTINUOUS
 62
7
100
AcDbLine
 10
17.06940000000000
 20
99.00000000000000
 30
0.000000000000000
 11
17.06940000000000
 21
81.00000000000000
 31
0.000000000000000
  0
LINE
  5
69
100
AcDbEntity
  8
1
  6
CONTINUOUS
 62
7
100
AcDbLine
 10
11.06940000000000
 20
99.00000000000000
 30
0.000000000000000
 11
11.06940000000000
 21
81.00000000000000
 31
0.000000000000000
  0
LINE
  5
6A
100
AcDbEntity
  8
4
  6
CENTER
 62
1
100
AcDbLine
 10
14.06940000000000
 20
83.00000000000000
 30
0.000000000000000
 11
14.06940000000000
 21
79.00000000000000
 31
0.000000000000000
  0
LINE
  5
6B
100
AcDbEntity
  8
4
  6
CENTER
 62
1
100
AcDbLine
 10
74.06940000000000
 20
83.00000000000000
 30
0.000000000000000
 11
74.06940000000000
 21
79.00000000000000
 31
0.000000000000000
  0
CIRCLE
  5
6C
100
AcDbEntity
  8
1
  6
CONTINUOUS
 62
7
100
AcDbCircle
 10
74.06940000000000
 20
40.00000000000000
 30
0.000000000000000
 40
1.620999999999999
  0
CIRCLE
  5
6D
100
AcDbEntity
  8
2
  6
CONTINUOUS
 62
4
100
AcDbCircle
 10
74.06940000000000
 20
40.00000000000000
 30
0.000000000000000
 40
2.000000000000000
  0
CIRCLE
  5
6E
100
AcDbEntity
  8
1
  6
CONTINUOUS
 62
7
100
AcDbCircle
 10
74.06940000000000
 20
40.00000000000000
 30
0.000000000000000
 40
2.149999999999999
  0
CIRCLE
  5
6F
100
AcDbEntity
  8
1
  6
CONTINUOUS
 62
7
100
AcDbCircle
 10
74.06940000000000
 20
40.00000000000000
 30
0.000000000000000
 40
3.000000000000000
  0
CIRCLE
  5
70
100
AcDbEntity
  8
1
  6
CONTINUOUS
 62
7
100
AcDbCircle
 10
14.06940000000000
 20
40.00000000000000
 30
0.000000000000000
 40
1.620999999999999
  0
CIRCLE
  5
71
100
AcDbEntity
  8
1
  6
CONTINUOUS
 62
7
100
AcDbCircle
 10
14.06940000000000
 20
40.00000000000000
 30
0.000000000000000
 40
3.000000000000000
  0
CIRCLE
  5
72
100
AcDbEntity
  8
2
  6
CONTINUOUS
 62
4
100
AcDbCircle
 10
14.06940000000000
 20
40.00000000000000
 30
0.000000000000000
 40
2.000000000000000
  0
CIRCLE
  5
73
100
AcDbEntity
  8
1
  6
CONTINUOUS
 62
7
100
AcDbCircle
 10
14.06940000000000
 20
40.00000000000000
 30
0.000000000000000
 40
2.149999999999999
  0
ARC
  5
74
100
AcDbEntity
  8
1
  6
CONTINUOUS
 62
7
100
AcDbCircle
 10
102.8990000000000
 20
92.00000000000000
 30
0.000000000000000
 40
8.000000000000000
100
AcDbArc
 50
0.000000000000000
 51
39.75070000000000
  0
ARC
  5
75
100
AcDbEntity
  8
1
  6
CONTINUOUS
 62
7
100
AcDbCircle
 10
103.8990000000000
 20
108.0000000000000
 30
0.000000000000000
 40
3.000000000000000
100
AcDbArc
 50
39.75070000000000
 51
219.7509999999998
  0
ARC
  5
76
100
AcDbEntity
  8
1
  6
CONTINUOUS
 62
7
100
AcDbCircle
 10
102.8990000000000
 20
92.00000000000000
 30
0.000000000000000
 40
14.00000000000000
100
AcDbArc
 50
0.000000000000000
 51
39.75070000000000
  0
ELLIPSE
  5
77
100
AcDbEntity
  8
1
  6
CONTINUOUS
 62
7
100
AcDbEllipse
 10
66.06940000000927
 20
40.00000000000000
 30
0.000000000000000
 11
0.000000000000000
 21
7.000000000000000
 31
0.000000000000000
210
0.000000000000000
220
0.000000000000000
230
1.000000000000000
 40
0.7142857142857143
 41
4.712388980384690
 42
0.000000000000000
  0
ELLIPSE
  5
78
100
AcDbEntity
  8
1
  6
CONTINUOUS
 62
7
100
AcDbEllipse
 10
66.06940000000927
 20
40.00000000000000
 30
0.000000000000000
 11
0.000000000000000
 21
13.00000000000000
 31
0.000000000000000
210
0.000000000000000
220
0.000000000000000
230
1.000000000000000
 40
0.8461538461538461
 41
4.712388980384690
 42
0.000000000000000
  0
ELLIPSE
  5
79
100
AcDbEntity
  8
1
  6
CONTINUOUS
 62
7
100
AcDbEllipse
 10
22.06939999999075
 20
40.00000000000000
 30
0.000000000000000
 11
0.000000000000000
 21
-7.000000000000000
 31
0.000000000000000
210
0.000000000000000
220
0.000000000000000
230
1.000000000000000
 40
0.7142857142857143
 41
3.141592653589793
 42
4.712388980384690
  0
ELLIPSE
  5
7A
100
AcDbEntity
  8
1
  6
CONTINUOUS
 62
7
100
AcDbEllipse
 10
22.06939999999075
 20
40.00000000000000
 30
0.000000000000000
 11
0.000000000000000
 21
-13.00000000000000
 31
0.000000000000000
210
0.000000000000000
220
0.000000000000000
230
1.000000000000000
 40
0.8461538461538461
 41
3.141592653589793
 42
4.712388980384690
  0
LINE
  5
7B
100
AcDbEntity
  8
4
  6
CENTER
 62
1
100
AcDbLine
 10
44.06940000004946
 20
145.2019999999996
 30
0.000000000000000
 11
44.06940000006276
 21
157.2019999999996
 31
0.000000000000000
  0
LINE
  5
7C
100
AcDbEntity
  8
1
  6
CONTINUOUS
 62
7
100
AcDbLine
 10
22.06940000005278
 20
148.2020000000240
 30
0.000000000000000
 11
66.06940000005278
 21
148.2019999999752
 31
0.000000000000000
  0
LINE
  5
7D
100
AcDbEntity
  8
1
  6
CONTINUOUS
 62
7
100
AcDbLine
 10
22.06940000005943
 20
154.2020000000240
 30
0.000000000000000
 11
66.06940000005943
 21
154.2019999999752
 31
0.000000000000000
  0
LINE
  5
7E
100
AcDbEntity
  8
4
  6
CENTER
 62
1
100
AcDbLine
 10
74.06940000006165
 20
156.2019999999663
 30
0.000000000000000
 11
74.06940000007273
 21
166.2019999999663
 31
0.000000000000000
  0
LINE
  5
7F
100
AcDbEntity
  8
4
  6
CENTER
 62
1
100
AcDbLine
 10
69.06940000006719
 20
161.2019999999719
 30
0.000000000000000
 11
79.06940000006719
 21
161.2019999999608
 31
0.000000000000000
  0
LINE
  5
80
100
AcDbEntity
  8
4
  6
CENTER
 62
1
100
AcDbLine
 10
9.069400000067187
 20
161.2020000000384
 30
0.000000000000000
 11
19.06940000006719
 21
161.2020000000273
 31
0.000000000000000
  0
LINE
  5
81
100
AcDbEntity
  8
4
  6
CENTER
 62
1
100
AcDbLine
 10
14.06940000006164
 20
156.2020000000328
 30
0.000000000000000
 11
14.06940000007273
 21
166.2020000000328
 31
0.000000000000000
  0
ARC
  5
82
100
AcDbEntity
  8
1
  6
CONTINUOUS
 62
7
100
AcDbCircle
 10
74.06940000006719
 20
161.2019999999663
 30
0.000000000000000
 40
3.000000000000000
100
AcDbArc
 50
0.000000000000000
 51
180.0000000000000
  0
ARC
  5
83
100
AcDbEntity
  8
1
  6
CONTINUOUS
 62
7
100
AcDbCircle
 10
14.06940000006719
 20
161.2020000000328
 30
0.000000000000000
 40
3.000000000000000
100
AcDbArc
 50
0.000000000000000
 51
180.0000000000000
  0
ELLIPSE
  5
84
100
AcDbEntity
  8
1
  6
CONTINUOUS
 62
7
100
AcDbEllipse
 10
66.06940000007646
 20
161.2019999999752
 30
0.000000000000000
 11
0.000000000000000
 21
7.000000000000000
 31
0.000000000000000
210
0.000000000000000
220
0.000000000000000
230
1.000000000000000
 40
0.7142857142857143
 41
3.141592653589793
 42
4.712388980384690
  0
ELLIPSE
  5
85
100
AcDbEntity
  8
1
  6
CONTINUOUS
 62
7
100
AcDbEllipse
 10
66.06940000007646
 20
161.2019999999752
 30
0.000000000000000
 11
0.000000000000000
 21
13.00000000000000
 31
0.000000000000000
210
0.000000000000000
220
0.000000000000000
230
1.000000000000000
 40
0.8461538461538461
 41
3.141592653589793
 42
4.712388980384690
  0
ELLIPSE
  5
86
100
AcDbEntity
  8
1
  6
CONTINUOUS
 62
7
100
AcDbEllipse
 10
22.06940000005794
 20
161.2020000000240
 30
0.000000000000000
 11
0.000000000000000
 21
-7.000000000000000
 31
0.000000000000000
210
0.000000000000000
220
0.000000000000000
230
1.000000000000000
 40
0.7142857142857143
 41
4.712388980384690
 42
0.000000000000000
  0
ELLIPSE
  5
87
100
AcDbEntity
  8
1
  6
CONTINUOUS
 62
7
100
AcDbEllipse
 10
22.06940000005794
 20
161.2020000000240
 30
0.000000000000000
 11
0.000000000000000
 21
-13.00000000000000
 31
0.000000000000000
210
0.000000000000000
220
0.000000000000000
230
1.000000000000000
 40
0.8461538461538461
 41
4.712388980384690
 42
6.283185307179586
  0
ARC
  5
88
100
AcDbEntity
  8
1
  6
CONTINUOUS
 62
7
100
AcDbCircle
 10
65.06940000000000
 20
99.00000000000000
 30
0.000000000000000
 40
6.000000000000000
100
AcDbArc
 50
0.000000000000000
 51
90.00000000000000
  0
ARC
  5
89
100
AcDbEntity
  8
1
  6
CONTINUOUS
 62
7
100
AcDbCircle
 10
23.06940000000000
 20
99.00000000000000
 30
0.000000000000000
 40
6.000000000000000
100
AcDbArc
 50
90.00000000000000
 51
180.0000000000000
  0
ARC
  5
8A
100
AcDbEntity
  8
1
  6
CONTINUOUS
 62
7
100
AcDbCircle
 10
65.06940000000000
 20
99.00000000000000
 30
0.000000000000000
 40
12.00000000000000
100
AcDbArc
 50
0.000000000000000
 51
90.00000000000000
  0
ARC
  5
8B
100
AcDbEntity
  8
1
  6
CONTINUOUS
 62
7
100
AcDbCircle
 10
23.06940000000000
 20
99.00000000000000
 30
0.000000000000000
 40
12.00000000000000
100
AcDbArc
 50
90.00000000000000
 51
180.0000000000000
  0
ARC
  5
8C
100
AcDbEntity
  8
1
  6
CONTINUOUS
 62
7
100
AcDbCircle
 10
205.0690000000000
 20
99.00000000000000
 30
0.000000000000000
 40
12.00000000000000
100
AcDbArc
 50
0.000000000000000
 51
90.00000000000000
  0
ARC
  5
8D
100
AcDbEntity
  8
1
  6
CONTINUOUS
 62
7
100
AcDbCircle
 10
163.0689999999998
 20
98.99999999999999
 30
0.000000000000000
 40
12.00000000000000
100
AcDbArc
 50
90.00000000000000
 51
180.0000000000000
  0
ARC
  5
8E
100
AcDbEntity
  8
1
  6
CONTINUOUS
 62
7
100
AcDbCircle
 10
163.0689999999999
 20
99.00000000000000
 30
0.000000000000000
 40
6.000000000000000
100
AcDbArc
 50
90.00000000000000
 51
180.0000000000000
  0
ARC
  5
8F
100
AcDbEntity
  8
1
  6
CONTINUOUS
 62
7
100
AcDbCircle
 10
205.0689999999999
 20
99.00000000000000
 30
0.000000000000000
 40
6.000000000000000
100
AcDbArc
 50
0.000000000000000
 51
90.00000000000000
  0
ENDSEC
  0
SECTION
  2
OBJECTS
  0
DICTIONARY
  5
BB
100
AcDbDictionary
  3
ACAD_GROUP
350
BC
  3
ACAD_LAYOUT
350
BD
  3
ACAD_MLINESTYLE
350
BE
  0
DICTIONARY
  5
BC
102
{ACAD_REACTORS
330
BB
102
}
330
BB
100
AcDbDictionary
  0
DICTIONARY
  5
BD
102
{ACAD_REACTORS
330
BB
102
}
330
BB
100
AcDbDictionary
  3
Model
350
BF
  3
ﾚｲｱｳﾄ1
350
C0
  3
ﾚｲｱｳﾄ2
350
C1
  0
DICTIONARY
  5
BE
102
{ACAD_REACTORS
330
BB
102
}
330
BB
100
AcDbDictionary
  3
STANDARD
350
C2
  0
LAYOUT
  5
BF
102
{ACAD_REACTORS
330
BD
102
}
330
BD
100
AcDbPlotSettings
 70
11952
  4
A3
 44
297.000000
 45
420.000000
 73
  1
 72
  1
100
AcDbLayout
  1
Model
 71
0
330
B2
  0
LAYOUT
  5
C0
102
{ACAD_REACTORS
330
BD
102
}
330
BD
100
AcDbPlotSettings
100
AcDbLayout
  1
ﾚｲｱｳﾄ1
 71
1
330
B3
  0
LAYOUT
  5
C1
102
{ACAD_REACTORS
330
BD
102
}
330
BD
100
AcDbPlotSettings
100
AcDbLayout
  1
ﾚｲｱｳﾄ2
 71
2
330
B4
  0
MLINESTYLE
  5
C2
102
{ACAD_REACTORS
330
BE
102
}
330
BE
100
AcDbMlineStyle
  2
STANDARD
 70
     0
  3

 62
   256
 51
90.00
 52
90.00
 71
     2
 49
0.50
 62
   256
  6
BYLAYER
 49
-0.50
 62
   256
  6
BYLAYER
  0
ENDSEC
  0
EOF
