  0
SECTION
  2
HEADER
  9
$ACADVER
  1
AC1015
  9
$ACADMAINTVER
 70
    20
  9
$DWGCODEPAGE
  3
ANSI_932
  9
$INSBASE
 10
0.0
 20
0.0
 30
0.0
  9
$EXTMIN
 10
10.0
 20
9.999999999999998
 30
0.0
  9
$EXTMAX
 10
709.893552
 20
527.5585940000001
 30
0.0
  9
$LIMMIN
 10
0.0
 20
0.0
  9
$LIMMAX
 10
792.0
 20
546.0
  9
$ORTHOMODE
 70
     1
  9
$REGENMODE
 70
     1
  9
$FILLMODE
 70
     1
  9
$QTEXTMODE
 70
     0
  9
$MIRRTEXT
 70
     1
  9
$LTSCALE
 40
20.0
  9
$ATTMODE
 70
     1
  9
$TEXTSIZE
 40
5.0
  9
$TRACEWID
 40
1.0
  9
$TEXTSTYLE
  7
STANDARD
  9
$CLAYER
  8
0
  9
$CELTYPE
  6
BYLAYER
  9
$CECOLOR
 62
   256
  9
$CELTSCALE
 40
1.0
  9
$DISPSILH
 70
     0
  9
$DIMSCALE
 40
1.0
  9
$DIMASZ
 40
2.5
  9
$DIMEXO
 40
1.0
  9
$DIMDLI
 40
10.0
  9
$DIMRND
 40
0.0
  9
$DIMDLE
 40
0.0
  9
$DIMEXE
 40
1.0
  9
$DIMTP
 40
0.0
  9
$DIMTM
 40
0.0
  9
$DIMTXT
 40
3.2
  9
$DIMCEN
 40
0.0
  9
$DIMTSZ
 40
0.0
  9
$DIMTOL
 70
     0
  9
$DIMLIM
 70
     0
  9
$DIMTIH
 70
     0
  9
$DIMTOH
 70
     0
  9
$DIMSE1
 70
     0
  9
$DIMSE2
 70
     0
  9
$DIMTAD
 70
     3
  9
$DIMZIN
 70
     8
  9
$DIMBLK
  1

  9
$DIMASO
 70
     1
  9
$DIMSHO
 70
     1
  9
$DIMPOST
  1

  9
$DIMAPOST
  1

  9
$DIMALT
 70
     0
  9
$DIMALTD
 70
     2
  9
$DIMALTF
 40
25.4
  9
$DIMLFAC
 40
1.0
  9
$DIMTOFL
 70
     1
  9
$DIMTVP
 40
0.0
  9
$DIMTIX
 70
     0
  9
$DIMSOXD
 70
     0
  9
$DIMSAH
 70
     1
  9
$DIMBLK1
  1

  9
$DIMBLK2
  1

  9
$DIMSTYLE
  2
STANDARD
  9
$DIMCLRD
 70
     0
  9
$DIMCLRE
 70
     0
  9
$DIMCLRT
 70
     0
  9
$DIMTFAC
 40
1.0
  9
$DIMGAP
 40
1.0
  9
$DIMJUST
 70
     0
  9
$DIMSD1
 70
     0
  9
$DIMSD2
 70
     0
  9
$DIMTOLJ
 70
     1
  9
$DIMTZIN
 70
     0
  9
$DIMALTZ
 70
     0
  9
$DIMALTTZ
 70
     0
  9
$DIMUPT
 70
     0
  9
$DIMDEC
 70
     4
  9
$DIMTDEC
 70
     4
  9
$DIMALTU
 70
     2
  9
$DIMALTTD
 70
     2
  9
$DIMTXSTY
  7
STANDARD
  9
$DIMAUNIT
 70
     0
  9
$DIMADEC
 70
     0
  9
$DIMALTRND
 40
0.0
  9
$DIMAZIN
 70
     0
  9
$DIMDSEP
 70
    46
  9
$DIMATFIT
 70
     3
  9
$DIMFRAC
 70
     0
  9
$DIMLDRBLK
  1

  9
$DIMLUNIT
 70
     2
  9
$DIMLWD
 70
    -2
  9
$DIMLWE
 70
    -2
  9
$DIMTMOVE
 70
     0
  9
$LUNITS
 70
     2
  9
$LUPREC
 70
     4
  9
$SKETCHINC
 40
1.0
  9
$FILLETRAD
 40
0.5
  9
$AUNITS
 70
     0
  9
$AUPREC
 70
     2
  9
$MENU
  1
.
  9
$ELEVATION
 40
0.0
  9
$PELEVATION
 40
0.0
  9
$THICKNESS
 40
0.0
  9
$LIMCHECK
 70
     0
  9
$CHAMFERA
 40
10.0
  9
$CHAMFERB
 40
10.0
  9
$CHAMFERC
 40
0.0
  9
$CHAMFERD
 40
0.0
  9
$SKPOLY
 70
     0
  9
$TDCREATE
 40
2451439.547425926
  9
$TDUCREATE
 40
2451439.172425926
  9
$TDUPDATE
 40
2457192.641369005
  9
$TDUUPDATE
 40
2457192.266369005
  9
$TDINDWG
 40
0.0045662616
  9
$TDUSRTIMER
 40
0.0045657523
  9
$USRTIMER
 70
     1
  9
$ANGBASE
 50
0.0
  9
$ANGDIR
 70
     0
  9
$PDMODE
 70
     0
  9
$PDSIZE
 40
0.0
  9
$PLINEWID
 40
0.0
  9
$SPLFRAME
 70
     0
  9
$SPLINETYPE
 70
     6
  9
$SPLINESEGS
 70
     8
  9
$HANDSEED
  5
DE8E
  9
$SURFTAB1
 70
     6
  9
$SURFTAB2
 70
     6
  9
$SURFTYPE
 70
     6
  9
$SURFU
 70
     6
  9
$SURFV
 70
     6
  9
$UCSBASE
  2

  9
$UCSNAME
  2

  9
$UCSORG
 10
0.0
 20
0.0
 30
0.0
  9
$UCSXDIR
 10
1.0
 20
0.0
 30
0.0
  9
$UCSYDIR
 10
0.0
 20
1.0
 30
0.0
  9
$UCSORTHOREF
  2

  9
$UCSORTHOVIEW
 70
     0
  9
$UCSORGTOP
 10
0.0
 20
0.0
 30
0.0
  9
$UCSORGBOTTOM
 10
0.0
 20
0.0
 30
0.0
  9
$UCSORGLEFT
 10
0.0
 20
0.0
 30
0.0
  9
$UCSORGRIGHT
 10
0.0
 20
0.0
 30
0.0
  9
$UCSORGFRONT
 10
0.0
 20
0.0
 30
0.0
  9
$UCSORGBACK
 10
0.0
 20
0.0
 30
0.0
  9
$PUCSBASE
  2

  9
$PUCSNAME
  2

  9
$PUCSORG
 10
0.0
 20
0.0
 30
0.0
  9
$PUCSXDIR
 10
1.0
 20
0.0
 30
0.0
  9
$PUCSYDIR
 10
0.0
 20
1.0
 30
0.0
  9
$PUCSORTHOREF
  2

  9
$PUCSORTHOVIEW
 70
     0
  9
$PUCSORGTOP
 10
0.0
 20
0.0
 30
0.0
  9
$PUCSORGBOTTOM
 10
0.0
 20
0.0
 30
0.0
  9
$PUCSORGLEFT
 10
0.0
 20
0.0
 30
0.0
  9
$PUCSORGRIGHT
 10
0.0
 20
0.0
 30
0.0
  9
$PUCSORGFRONT
 10
0.0
 20
0.0
 30
0.0
  9
$PUCSORGBACK
 10
0.0
 20
0.0
 30
0.0
  9
$USERI1
 70
     0
  9
$USERI2
 70
     0
  9
$USERI3
 70
     0
  9
$USERI4
 70
     0
  9
$USERI5
 70
     0
  9
$USERR1
 40
0.0
  9
$USERR2
 40
0.0
  9
$USERR3
 40
0.0
  9
$USERR4
 40
0.0
  9
$USERR5
 40
0.0
  9
$WORLDVIEW
 70
     1
  9
$SHADEDGE
 70
     3
  9
$SHADEDIF
 70
    70
  9
$TILEMODE
 70
     1
  9
$MAXACTVP
 70
    16
  9
$PINSBASE
 10
0.0
 20
0.0
 30
0.0
  9
$PLIMCHECK
 70
     0
  9
$PEXTMIN
 10
1.000000000000000E+20
 20
1.000000000000000E+20
 30
1.000000000000000E+20
  9
$PEXTMAX
 10
-1.000000000000000E+20
 20
-1.000000000000000E+20
 30
-1.000000000000000E+20
  9
$PLIMMIN
 10
0.0
 20
0.0
  9
$PLIMMAX
 10
420.0
 20
297.0
  9
$UNITMODE
 70
     0
  9
$VISRETAIN
 70
     0
  9
$PLINEGEN
 70
     0
  9
$PSLTSCALE
 70
     0
  9
$TREEDEPTH
 70
  3020
  9
$CMLSTYLE
  2
STANDARD
  9
$CMLJUST
 70
     0
  9
$CMLSCALE
 40
1.0
  9
$PROXYGRAPHICS
 70
     1
  9
$MEASUREMENT
 70
     0
  9
$CELWEIGHT
370
    -1
  9
$ENDCAPS
280
     0
  9
$JOINSTYLE
280
     0
  9
$LWDISPLAY
290
     0
  9
$INSUNITS
 70
     0
  9
$HYPERLINKBASE
  1

  9
$STYLESHEET
  1

  9
$XEDIT
290
     1
  9
$CEPSNTYPE
380
     0
  9
$PSTYLEMODE
290
     1
  9
$FINGERPRINTGUID
  2
{46397DF7-06D0-4128-BA5D-DC5CF78E8B42}
  9
$VERSIONGUID
  2
{65F42BDB-2DAA-4114-828E-D122ACF5C30B}
  9
$EXTNAMES
290
     1
  9
$PSVPSCALE
 40
0.0
  9
$OLESTARTUP
290
     0
  0
ENDSEC
  0
SECTION
  2
CLASSES
  0
CLASS
  1
ACDBDICTIONARYWDFLT
  2
AcDbDictionaryWithDefault
  3
ObjectDBX Classes
 90
        0
280
     0
281
     0
  0
CLASS
  1
ACDBPLACEHOLDER
  2
AcDbPlaceHolder
  3
ObjectDBX Classes
 90
        0
280
     0
281
     0
  0
CLASS
  1
LAYOUT
  2
AcDbLayout
  3
ObjectDBX Classes
 90
        0
280
     0
281
     0
  0
CLASS
  1
DICTIONARYVAR
  2
AcDbDictionaryVar
  3
ObjectDBX Classes
 90
        0
280
     0
281
     0
  0
CLASS
  1
MATERIAL
  2
AcDbMaterial
  3
ObjectDBX Classes
 90
     1153
280
     0
281
     0
  0
CLASS
  1
VISUALSTYLE
  2
AcDbVisualStyle
  3
ObjectDBX Classes
 90
     4095
280
     0
281
     0
  0
CLASS
  1
TABLESTYLE
  2
AcDbTableStyle
  3
ObjectDBX Classes
 90
     4095
280
     0
281
     0
  0
CLASS
  1
SCALE
  2
AcDbScale
  3
ObjectDBX Classes
 90
     1153
280
     0
281
     0
  0
CLASS
  1
MLEADERSTYLE
  2
AcDbMLeaderStyle
  3
ACDB_MLEADERSTYLE_CLASS
 90
     4095
280
     0
281
     0
  0
CLASS
  1
ACDBSECTIONVIEWSTYLE
  2
AcDbSectionViewStyle
  3
ObjectDBX Classes
 90
     1025
280
     0
281
     0
  0
CLASS
  1
ACDBDETAILVIEWSTYLE
  2
AcDbDetailViewStyle
  3
ObjectDBX Classes
 90
     1025
280
     0
281
     0
  0
CLASS
  1
CELLSTYLEMAP
  2
AcDbCellStyleMap
  3
ObjectDBX Classes
 90
     1152
280
     0
281
     0
  0
ENDSEC
  0
SECTION
  2
TABLES
  0
TABLE
  2
VPORT
  5
DA06
330
0
100
AcDbSymbolTable
 70
     1
  0
VPORT
  5
DDD7
330
DA06
100
AcDbSymbolTableRecord
100
AcDbViewportTableRecord
  2
*ACTIVE
 70
     0
 10
0.0
 20
0.0
 11
1.0
 21
1.0
 12
516.6926235736434
 22
268.7718671110595
 13
0.0
 23
0.0
 14
10.0
 24
10.0
 15
10.0
 25
10.0
 16
0.0
 26
0.0
 36
1.0
 17
0.0
 27
0.0
 37
0.0
 40
523.3707922615153
 41
1.899603698811096
 42
50.0
 43
0.0
 44
0.0
 50
0.0
 51
0.0
 71
     0
 72
   100
 73
     1
 74
     0
 75
     0
 76
     0
 77
     0
 78
     0
281
     0
 65
     1
110
0.0
120
0.0
130
0.0
111
1.0
121
0.0
131
0.0
112
0.0
122
1.0
132
0.0
 79
     0
146
0.0
1001
ACAD_NAV_VCDISPLAY
1070
     3
  0
ENDTAB
  0
TABLE
  2
LTYPE
  5
DA03
330
0
100
AcDbSymbolTable
 70
     4
  0
LTYPE
  5
DA11
330
DA03
100
AcDbSymbolTableRecord
100
AcDbLinetypeTableRecord
  2
BYBLOCK
 70
     0
  3

 72
    65
 73
     0
 40
0.0
  0
LTYPE
  5
DA12
330
DA03
100
AcDbSymbolTableRecord
100
AcDbLinetypeTableRecord
  2
BYLAYER
 70
     0
  3

 72
    65
 73
     0
 40
0.0
  0
LTYPE
  5
DA13
330
DA03
100
AcDbSymbolTableRecord
100
AcDbLinetypeTableRecord
  2
CONTINUOUS
 70
     0
  3
Solid line
 72
    65
 73
     0
 40
0.0
  0
LTYPE
  5
DA21
330
DA03
100
AcDbSymbolTableRecord
100
AcDbLinetypeTableRecord
  2
DASHED
 70
     0
  3
__ __ __ __ __ __ __ __ __ __ __ __ __ __ __ __
 72
    65
 73
     2
 40
0.75
 49
0.5
 74
     0
 49
-0.25
 74
     0
  0
LTYPE
  5
DA22
330
DA03
100
AcDbSymbolTableRecord
100
AcDbLinetypeTableRecord
  2
CENTER
 70
     0
  3
____ _ ____ _ ____ _ ____ _ ____ _ ____ _ ____ 
 72
    65
 73
     4
 40
2.0
 49
1.25
 74
     0
 49
-0.25
 74
     0
 49
0.25
 74
     0
 49
-0.25
 74
     0
  0
LTYPE
  5
DA23
330
DA03
100
AcDbSymbolTableRecord
100
AcDbLinetypeTableRecord
  2
PHANTOM
 70
     0
  3
______  __  __  ______  __  __  ______  __  __ 
 72
    65
 73
     6
 40
2.5
 49
1.25
 74
     0
 49
-0.25
 74
     0
 49
0.25
 74
     0
 49
-0.25
 74
     0
 49
0.25
 74
     0
 49
-0.25
 74
     0
  0
ENDTAB
  0
TABLE
  2
LAYER
  5
DA00
330
0
100
AcDbSymbolTable
 70
     8
  0
LAYER
  5
DA0E
102
{ACAD_XDICTIONARY
360
DE32
102
}
330
DA00
100
AcDbSymbolTableRecord
100
AcDbLayerTableRecord
  2
0
 70
     0
 62
     7
  6
CONTINUOUS
370
    -3
390
DDE0
  0
LAYER
  5
DA24
102
{ACAD_XDICTIONARY
360
DE34
102
}
330
DA00
100
AcDbSymbolTableRecord
100
AcDbLayerTableRecord
  2
4
 70
     0
 62
     1
  6
CENTER
370
    -3
390
DDE0
  0
LAYER
  5
DA25
102
{ACAD_XDICTIONARY
360
DE36
102
}
330
DA00
100
AcDbSymbolTableRecord
100
AcDbLayerTableRecord
  2
5
 70
     0
 62
     6
  6
PHANTOM
370
    -3
390
DDE0
  0
LAYER
  5
DA26
102
{ACAD_XDICTIONARY
360
DE38
102
}
330
DA00
100
AcDbSymbolTableRecord
100
AcDbLayerTableRecord
  2
1
 70
     0
 62
     7
  6
CONTINUOUS
370
    -3
390
DDE0
  0
LAYER
  5
DA27
102
{ACAD_XDICTIONARY
360
DE3A
102
}
330
DA00
100
AcDbSymbolTableRecord
100
AcDbLayerTableRecord
  2
2
 70
     0
 62
     4
  6
CONTINUOUS
370
    -3
390
DDE0
  0
LAYER
  5
DA28
102
{ACAD_XDICTIONARY
360
DE3C
102
}
330
DA00
100
AcDbSymbolTableRecord
100
AcDbLayerTableRecord
  2
3
 70
     0
 62
     2
  6
DASHED
370
    -3
390
DDE0
  0
LAYER
  5
DA29
102
{ACAD_XDICTIONARY
360
DE3E
102
}
330
DA00
100
AcDbSymbolTableRecord
100
AcDbLayerTableRecord
  2
6
 70
     0
 62
     5
  6
CONTINUOUS
370
    -3
390
DDE0
  0
LAYER
  5
DA2A
102
{ACAD_XDICTIONARY
360
DE40
102
}
330
DA00
100
AcDbSymbolTableRecord
100
AcDbLayerTableRecord
  2
7
 70
     0
 62
     3
  6
CONTINUOUS
370
    -3
390
DDE0
  0
ENDTAB
  0
TABLE
  2
STYLE
  5
DA01
330
0
100
AcDbSymbolTable
 70
     1
  0
STYLE
  5
DA0F
330
DA01
100
AcDbSymbolTableRecord
100
AcDbTextStyleTableRecord
  2
STANDARD
 70
     0
 40
0.0
 41
1.0
 50
0.0
 71
     0
 42
5.0
  3
txt
  4

  0
ENDTAB
  0
TABLE
  2
VIEW
  5
DA04
330
0
100
AcDbSymbolTable
 70
     0
  0
ENDTAB
  0
TABLE
  2
UCS
  5
DA05
330
0
100
AcDbSymbolTable
 70
     0
  0
ENDTAB
  0
TABLE
  2
APPID
  5
DA07
330
0
100
AcDbSymbolTable
 70
     3
  0
APPID
  5
DA10
330
DA07
100
AcDbSymbolTableRecord
100
AcDbRegAppTableRecord
  2
ACAD
 70
     0
  0
APPID
  5
DE4C
330
DA07
100
AcDbSymbolTableRecord
100
AcDbRegAppTableRecord
  2
ACAD_NAV_VCDISPLAY
 70
     0
  0
APPID
  5
DE85
330
DA07
100
AcDbSymbolTableRecord
100
AcDbRegAppTableRecord
  2
ACAD_MLEADERVER
 70
     0
  0
ENDTAB
  0
TABLE
  2
DIMSTYLE
  5
DA08
330
0
100
AcDbSymbolTable
 70
     1
100
AcDbDimStyleTable
 71
     0
  0
DIMSTYLE
105
DA2C
330
DA08
100
AcDbSymbolTableRecord
100
AcDbDimStyleTableRecord
  2
STANDARD
 70
     0
 41
2.5
 42
1.0
 43
10.0
 44
1.0
 73
     0
 74
     0
 77
     3
 78
     8
140
3.2
141
0.0
147
1.0
172
     1
173
     1
284
     8
285
     8
286
     8
340
DA0F
  0
ENDTAB
  0
TABLE
  2
BLOCK_RECORD
  5
D9FF
330
0
100
AcDbSymbolTable
 70
     0
  0
BLOCK_RECORD
  5
DA1C
102
{ACAD_XDICTIONARY
360
DDDA
102
}
330
D9FF
100
AcDbSymbolTableRecord
100
AcDbBlockTableRecord
  2
*MODEL_SPACE
340
DE2E
  0
BLOCK_RECORD
  5
DA18
102
{ACAD_XDICTIONARY
360
DDD8
102
}
330
D9FF
100
AcDbSymbolTableRecord
100
AcDbBlockTableRecord
  2
*PAPER_SPACE
340
DE2F
  0
ENDTAB
  0
ENDSEC
  0
SECTION
  2
BLOCKS
  0
BLOCK
  5
DA1D
330
DA1C
100
AcDbEntity
  8
0
100
AcDbBlockBegin
  2
*MODEL_SPACE
 70
     0
 10
0.0
 20
0.0
 30
0.0
  3
*MODEL_SPACE
  1

  0
ENDBLK
  5
DA1E
330
DA1C
100
AcDbEntity
  8
0
100
AcDbBlockEnd
  0
BLOCK
  5
DA19
330
DA18
100
AcDbEntity
 67
     1
  8
0
100
AcDbBlockBegin
  2
*PAPER_SPACE
 70
     0
 10
0.0
 20
0.0
 30
0.0
  3
*PAPER_SPACE
  1

  0
ENDBLK
  5
DA1A
330
DA18
100
AcDbEntity
 67
     1
  8
0
100
AcDbBlockEnd
  0
ENDSEC
  0
SECTION
  2
ENTITIES
  0
LINE
  5
DA34
330
DA1C
100
AcDbEntity
  8
1
  6
Continuous
100
AcDbLine
 10
297.301569
 20
349.780829
 30
0.0
 11
295.7385319999999
 21
352.4880889999997
 31
0.0
  0
LINE
  5
DA35
330
DA1C
100
AcDbEntity
  8
1
  6
Continuous
100
AcDbLine
 10
290.3015689999999
 20
349.780829
 30
0.0
 11
291.864606
 21
352.4880889999997
 31
0.0
  0
ARC
  5
DA36
330
DA1C
100
AcDbEntity
  8
1
  6
Continuous
100
AcDbCircle
 10
447.0899619999998
 20
352.2808289999999
 30
0.0
 40
4.0
100
AcDbArc
 50
332.571902
 51
207.428098
  0
ARC
  5
DA37
330
DA1C
100
AcDbEntity
  8
1
  6
Continuous
100
AcDbCircle
 10
447.0899619999998
 20
352.2808289999999
 30
0.0
 40
4.25
100
AcDbArc
 50
332.420521
 51
207.579479
  0
LINE
  5
DA38
330
DA1C
100
AcDbEntity
  8
1
  6
Continuous
100
AcDbLine
 10
447.0899619999998
 20
352.4880889999997
 30
0.0
 11
464.589962
 21
342.3844589999998
 31
0.0
  0
LINE
  5
DA39
330
DA1C
100
AcDbEntity
  8
1
  6
Continuous
100
AcDbLine
 10
429.589962
 20
342.3844589999998
 30
0.0
 11
447.0899619999998
 21
352.4880889999997
 31
0.0
  0
CIRCLE
  5
DA3A
330
DA1C
100
AcDbEntity
  8
1
  6
Continuous
100
AcDbCircle
 10
447.0899619999998
 20
332.2808289999999
 30
0.0
 40
30.0
  0
LINE
  5
DA3B
330
DA1C
100
AcDbEntity
  8
4
  6
CENTER
100
AcDbLine
 10
447.0899619999998
 20
367.2808289999999
 30
0.0
 11
447.0899619999998
 21
207.280829
 31
0.0
  0
LINE
  5
DA3C
330
DA1C
100
AcDbEntity
  8
1
  6
Continuous
100
AcDbLine
 10
240.8336659999999
 20
356.2808289999999
 30
0.0
 11
240.8336659999999
 21
349.780829
 31
0.0
  0
LINE
  5
DA3D
330
DA1C
100
AcDbEntity
  8
1
  6
Continuous
100
AcDbLine
 10
221.8447289999998
 20
346.3921389999999
 30
0.0
 11
230.7619419999999
 21
361.238612
 31
0.0
  0
LINE
  5
DA3E
330
DA1C
100
AcDbEntity
  8
1
  6
Continuous
100
AcDbLine
 10
230.7642009999999
 20
355.9912569999998
 30
0.0
 11
221.7952939999999
 21
342.572971
 31
0.0
  0
LINE
  5
DA3F
330
DA1C
100
AcDbEntity
  8
1
  6
Continuous
100
AcDbLine
 10
231.333666
 20
355.9912569999998
 30
0.0
 11
231.333666
 21
308.570401
 31
0.0
  0
LINE
  5
DA40
330
DA1C
100
AcDbEntity
  8
1
  6
Continuous
100
AcDbLine
 10
236.3336659999999
 20
362.280829
 30
0.0
 11
236.3336659999999
 21
302.2808289999999
 31
0.0
  0
LINE
  5
DA41
330
DA1C
100
AcDbEntity
  8
1
  6
Continuous
100
AcDbLine
 10
235.333666
 20
362.280829
 30
0.0
 11
235.333666
 21
302.2808289999999
 31
0.0
  0
ARC
  5
DA42
330
DA1C
100
AcDbEntity
  8
1
  6
Continuous
100
AcDbCircle
 10
56.499999
 20
332.2808289999999
 30
0.0
 40
30.0
100
AcDbArc
 50
296.2191329999999
 51
243.7808669999999
  0
LINE
  5
DA43
330
DA1C
100
AcDbEntity
  8
1
  6
Continuous
100
AcDbLine
 10
39.499999
 20
355.92401
 30
0.0
 11
39.499999
 21
308.637648
 31
0.0
  0
LINE
  5
DA44
330
DA1C
100
AcDbEntity
  8
1
  6
Continuous
100
AcDbLine
 10
73.499999
 20
355.92401
 30
0.0
 11
73.499999
 21
308.637648
 31
0.0
  0
LINE
  5
DA45
330
DA1C
100
AcDbEntity
  8
1
  6
Continuous
100
AcDbLine
 10
42.999999
 20
343.448668
 30
0.0
 11
39.760353
 21
355.9912569999998
 31
0.0
  0
LINE
  5
DA46
330
DA1C
100
AcDbEntity
  8
1
  6
Continuous
100
AcDbLine
 10
69.999999
 20
343.448668
 30
0.0
 11
73.23964499999998
 21
355.9912569999998
 31
0.0
  0
LINE
  5
DA47
330
DA1C
100
AcDbEntity
  8
4
  6
CENTER
100
AcDbLine
 10
56.499999
 20
366.880829
 30
0.0
 11
56.499999
 21
207.822677
 31
0.0
  0
LINE
  5
DA48
330
DA1C
100
AcDbEntity
  8
2
  6
Continuous
100
AcDbLine
 10
257.133666
 20
82.945448
 30
0.0
 11
240.8336659999999
 21
74.85741
 31
0.0
  0
LINE
  5
DA49
330
DA1C
100
AcDbEntity
  8
2
  6
Continuous
100
AcDbLine
 10
240.8336659999999
 20
80.84768599999998
 30
0.0
 11
257.133666
 21
72.759648
 31
0.0
  0
LINE
  5
DA4A
330
DA1C
100
AcDbEntity
  8
1
  6
Continuous
100
AcDbLine
 10
257.133666
 20
72.759648
 30
0.0
 11
236.3336659999999
 21
72.759648
 31
0.0
  0
LINE
  5
DA4B
330
DA1C
100
AcDbEntity
  8
1
  6
Continuous
100
AcDbLine
 10
257.133666
 20
82.945448
 30
0.0
 11
236.3336659999999
 21
82.945448
 31
0.0
  0
LINE
  5
DA4C
330
DA1C
100
AcDbEntity
  8
2
  6
Continuous
100
AcDbLine
 10
257.945666
 20
67.66454799999999
 30
0.0
 11
240.740091
 21
67.66454799999999
 31
0.0
  0
LINE
  5
DA4D
330
DA1C
100
AcDbEntity
  8
2
  6
Continuous
100
AcDbLine
 10
257.945666
 20
88.04054800000001
 30
0.0
 11
240.740091
 21
88.04054800000001
 31
0.0
  0
LINE
  5
DA4E
330
DA1C
100
AcDbEntity
  8
1
  6
Continuous
100
AcDbLine
 10
257.133666
 20
66.852548
 30
0.0
 11
236.3336659999999
 21
66.852548
 31
0.0
  0
LINE
  5
DA4F
330
DA1C
100
AcDbEntity
  8
1
  6
Continuous
100
AcDbLine
 10
257.133666
 20
88.852548
 30
0.0
 11
236.3336659999999
 21
88.852548
 31
0.0
  0
LINE
  5
DA50
330
DA1C
100
AcDbEntity
  8
4
  6
CENTER
100
AcDbLine
 10
271.683666
 20
77.852548
 30
0.0
 11
182.633666
 21
77.852548
 31
0.0
  0
LINE
  5
DA51
330
DA1C
100
AcDbEntity
  8
1
  6
Continuous
100
AcDbLine
 10
236.3336659999999
 20
342.0308289999999
 30
0.0
 11
258.383666
 21
342.0308289999999
 31
0.0
  0
LINE
  5
DA52
330
DA1C
100
AcDbEntity
  8
1
  6
Continuous
100
AcDbLine
 10
236.3336659999999
 20
322.530829
 30
0.0
 11
258.383666
 21
322.530829
 31
0.0
  0
LINE
  5
DA53
330
DA1C
100
AcDbEntity
  8
4
  6
CENTER
100
AcDbLine
 10
184.286372
 20
332.2808289999999
 30
0.0
 11
271.683666
 21
332.2808289999999
 31
0.0
  0
TEXT
  5
DA54
330
DA1C
100
AcDbEntity
  8
7
  6
Continuous
100
AcDbText
 10
10.0
 20
26.0
 30
0.0
 40
3.0
  1
CODE No.13124
100
AcDbText
  0
TEXT
  5
DA55
330
DA1C
100
AcDbEntity
  8
7
  6
Continuous
100
AcDbText
 10
10.0
 20
18.0
 30
0.0
 40
3.0
  1
TYPE No.THA-330B-1(5Y7/1)
100
AcDbText
  0
TEXT
  5
DA56
330
DA1C
100
AcDbEntity
  8
1
  6
Continuous
100
AcDbText
 10
10.0
 20
10.0
 30
0.0
 40
1.399999999999999
  1
LAYER
100
AcDbText
  0
TEXT
  5
DA57
330
DA1C
100
AcDbEntity
  8
5
  6
PHANTOM
100
AcDbText
 10
25.97951099999999
 20
10.04873699999998
 30
0.0
 40
1.399999999999999
  1
5
100
AcDbText
  0
TEXT
  5
DA58
330
DA1C
100
AcDbEntity
  8
6
  6
Continuous
100
AcDbText
 10
27.979511
 20
10.04873699999998
 30
0.0
 40
1.399999999999999
  1
6
100
AcDbText
  0
TEXT
  5
DA59
330
DA1C
100
AcDbEntity
  8
2
  6
Continuous
100
AcDbText
 10
19.97951099999999
 20
10.04873699999998
 30
0.0
 40
1.399999999999999
  1
2
100
AcDbText
  0
TEXT
  5
DA5A
330
DA1C
100
AcDbEntity
  8
3
  6
DASHED
100
AcDbText
 10
21.979511
 20
10.04873699999998
 30
0.0
 40
1.399999999999999
  1
3
100
AcDbText
  0
TEXT
  5
DA5B
330
DA1C
100
AcDbEntity
  8
4
  6
CENTER
100
AcDbText
 10
23.97951099999999
 20
10.04873699999998
 30
0.0
 40
1.399999999999999
  1
4
100
AcDbText
  0
TEXT
  5
DA5C
330
DA1C
100
AcDbEntity
  8
7
  6
Continuous
100
AcDbText
 10
29.97951099999999
 20
10.04873699999998
 30
0.0
 40
1.399999999999999
  1
7
100
AcDbText
  0
TEXT
  5
DA5D
330
DA1C
100
AcDbEntity
  8
1
  6
Continuous
100
AcDbText
 10
17.97951099999998
 20
10.04873699999998
 30
0.0
 40
1.399999999999999
  1
1
100
AcDbText
  0
LINE
  5
DA5E
330
DA1C
100
AcDbEntity
  8
1
  6
Continuous
100
AcDbLine
 10
240.740091
 20
88.852548
 30
0.0
 11
240.740091
 21
82.945448
 31
0.0
  0
LINE
  5
DA5F
330
DA1C
100
AcDbEntity
  8
1
  6
Continuous
100
AcDbLine
 10
203.2336659999999
 20
91.352548
 30
0.0
 11
203.2336659999999
 21
85.95525100000001
 31
0.0
  0
LINE
  5
DA60
330
DA1C
100
AcDbEntity
  8
1
  6
Continuous
100
AcDbLine
 10
221.783666
 20
64.352548
 30
0.0
 11
221.783666
 21
91.352548
 31
0.0
  0
LINE
  5
DA61
330
DA1C
100
AcDbEntity
  8
1
  6
Continuous
100
AcDbLine
 10
235.333666
 20
47.85254799999999
 30
0.0
 11
235.333666
 21
107.8525479999999
 31
0.0
  0
LINE
  5
DA62
330
DA1C
100
AcDbEntity
  8
1
  6
Continuous
100
AcDbLine
 10
236.3336659999999
 20
47.85254799999999
 30
0.0
 11
236.3336659999999
 21
107.8525479999999
 31
0.0
  0
LINE
  5
DA63
330
DA1C
100
AcDbEntity
  8
1
  6
Continuous
100
AcDbLine
 10
231.333666
 20
49.85254799999999
 30
0.0
 11
231.333666
 21
105.8525479999999
 31
0.0
  0
LINE
  5
DA64
330
DA1C
100
AcDbEntity
  8
1
  6
Continuous
100
AcDbLine
 10
221.733666
 20
64.352548
 30
0.0
 11
221.733666
 21
91.352548
 31
0.0
  0
LINE
  5
DA65
330
DA1C
100
AcDbEntity
  8
1
  6
Continuous
100
AcDbLine
 10
221.733666
 20
64.352548
 30
0.0
 11
190.5730209999999
 21
64.352548
 31
0.0
  0
LINE
  5
DA66
330
DA1C
100
AcDbEntity
  8
1
  6
Continuous
100
AcDbLine
 10
221.783666
 20
64.352548
 30
0.0
 11
231.333666
 21
60.852548
 31
0.0
  0
LINE
  5
DA67
330
DA1C
100
AcDbEntity
  8
1
  6
Continuous
100
AcDbLine
 10
203.2336659999999
 20
69.749844
 30
0.0
 11
203.2336659999999
 21
64.352548
 31
0.0
  0
ARC
  5
DA68
330
DA1C
100
AcDbEntity
  8
1
  6
Continuous
100
AcDbCircle
 10
202.233666
 20
79.02704799999998
 30
0.0
 40
7.0
100
AcDbArc
 50
0.0
 51
90.0
  0
ARC
  5
DA69
330
DA1C
100
AcDbEntity
  8
1
  6
Continuous
100
AcDbCircle
 10
202.233666
 20
76.678048
 30
0.0
 40
7.0
100
AcDbArc
 50
270.0
 51
0.0
  0
LINE
  5
DA6A
330
DA1C
100
AcDbEntity
  8
1
  6
Continuous
100
AcDbLine
 10
203.2336659999999
 20
82.852548
 30
0.0
 11
203.2336659999999
 21
72.852548
 31
0.0
  0
LINE
  5
DA6B
330
DA1C
100
AcDbEntity
  8
1
  6
Continuous
100
AcDbLine
 10
202.233666
 20
86.02704799999996
 30
0.0
 11
197.671506
 21
86.02704799999996
 31
0.0
  0
LINE
  5
DA6C
330
DA1C
100
AcDbEntity
  8
1
  6
Continuous
100
AcDbLine
 10
202.233666
 20
69.678048
 30
0.0
 11
197.671506
 21
69.678048
 31
0.0
  0
LINE
  5
DA6D
330
DA1C
100
AcDbEntity
  8
1
  6
Continuous
100
AcDbLine
 10
209.2336659999999
 20
79.02704799999998
 30
0.0
 11
209.2336659999999
 21
76.678048
 31
0.0
  0
LINE
  5
DA6E
330
DA1C
100
AcDbEntity
  8
1
  6
Continuous
100
AcDbLine
 10
236.3336659999999
 20
47.85254799999999
 30
0.0
 11
233.333666
 21
47.85254799999999
 31
0.0
  0
ARC
  5
DA6F
330
DA1C
100
AcDbEntity
  8
1
  6
Continuous
100
AcDbCircle
 10
233.333666
 20
49.85254799999999
 30
0.0
 40
2.0
100
AcDbArc
 50
180.0
 51
270.0
  0
LINE
  5
DA70
330
DA1C
100
AcDbEntity
  8
2
  6
Continuous
100
AcDbLine
 10
239.333666
 20
66.852548
 30
0.0
 11
240.740091
 21
67.66454799999999
 31
0.0
  0
LINE
  5
DA71
330
DA1C
100
AcDbEntity
  8
1
  6
Continuous
100
AcDbLine
 10
236.3336659999999
 20
74.602548
 30
0.0
 11
240.8336659999999
 21
74.602548
 31
0.0
  0
LINE
  5
DA72
330
DA1C
100
AcDbEntity
  8
1
  6
Continuous
100
AcDbLine
 10
236.3336659999999
 20
81.10254799999998
 30
0.0
 11
240.8336659999999
 21
81.10254799999998
 31
0.0
  0
LINE
  5
DA73
330
DA1C
100
AcDbEntity
  8
1
  6
Continuous
100
AcDbLine
 10
240.740091
 20
72.759648
 30
0.0
 11
240.740091
 21
66.852548
 31
0.0
  0
LINE
  5
DA74
330
DA1C
100
AcDbEntity
  8
1
  6
Continuous
100
AcDbLine
 10
240.8336659999999
 20
81.10254799999998
 30
0.0
 11
240.8336659999999
 21
74.602548
 31
0.0
  0
LINE
  5
DA75
330
DA1C
100
AcDbEntity
  8
1
  6
Continuous
100
AcDbLine
 10
221.733666
 20
91.352548
 30
0.0
 11
190.5730209999999
 21
91.352548
 31
0.0
  0
LINE
  5
DA76
330
DA1C
100
AcDbEntity
  8
1
  6
Continuous
100
AcDbLine
 10
221.783666
 20
91.352548
 30
0.0
 11
231.333666
 21
94.85254799999998
 31
0.0
  0
LINE
  5
DA77
330
DA1C
100
AcDbEntity
  8
2
  6
Continuous
100
AcDbLine
 10
239.333666
 20
88.852548
 30
0.0
 11
240.740091
 21
88.04054800000001
 31
0.0
  0
LINE
  5
DA78
330
DA1C
100
AcDbEntity
  8
1
  6
Continuous
100
AcDbLine
 10
236.3336659999999
 20
107.8525479999999
 30
0.0
 11
233.333666
 21
107.8525479999999
 31
0.0
  0
ARC
  5
DA79
330
DA1C
100
AcDbEntity
  8
1
  6
Continuous
100
AcDbCircle
 10
233.333666
 20
105.8525479999999
 30
0.0
 40
2.0
100
AcDbArc
 50
90.0
 51
180.0
  0
LINE
  5
DA7A
330
DA1C
100
AcDbEntity
  8
4
  6
CENTER
100
AcDbLine
 10
26.53552
 20
349.5808289999998
 30
0.0
 11
164.28392
 21
270.0517529999999
 31
0.0
  0
LINE
  5
DA7B
330
DA1C
100
AcDbEntity
  8
5
  6
PHANTOM
100
AcDbLine
 10
161.8365629999999
 20
280.903737
 30
0.0
 11
87.58274099999999
 21
329.5560029999998
 31
0.0
  0
LINE
  5
DA7C
330
DA1C
100
AcDbEntity
  8
5
  6
PHANTOM
100
AcDbLine
 10
153.6621479999998
 20
266.745235
 30
0.0
 11
74.401139
 21
306.724798
 31
0.0
  0
LINE
  5
DA7D
330
DA1C
100
AcDbEntity
  8
1
  6
Continuous
100
AcDbLine
 10
64.674414
 20
215.368143
 30
0.0
 11
69.681601
 21
303.999971
 31
0.0
  0
LINE
  5
DA7E
330
DA1C
100
AcDbEntity
  8
1
  6
Continuous
100
AcDbLine
 10
48.32558399999999
 20
215.368143
 30
0.0
 11
43.31839699999998
 21
303.999971
 31
0.0
  0
ARC
  5
DA7F
330
DA1C
100
AcDbEntity
  8
1
  6
Continuous
100
AcDbCircle
 10
62.17839399999999
 20
215.5091539999999
 30
0.0
 40
2.5
100
AcDbArc
 50
284.6179859999999
 51
356.766556
  0
ARC
  5
DA80
330
DA1C
100
AcDbEntity
  8
1
  6
Continuous
100
AcDbCircle
 10
50.821604
 20
215.5091539999999
 30
0.0
 40
2.5
100
AcDbArc
 50
183.233444
 51
255.382014
  0
ARC
  5
DA81
330
DA1C
100
AcDbEntity
  8
1
  6
Continuous
100
AcDbCircle
 10
56.499999
 20
237.280829
 30
0.0
 40
25.0
100
AcDbArc
 50
255.382014
 51
284.6179859999999
  0
ARC
  5
DA82
330
DA1C
100
AcDbEntity
  8
1
  6
Continuous
100
AcDbCircle
 10
56.499999
 20
314.280829
 30
0.0
 40
8.0
100
AcDbArc
 50
12.83958799999999
 51
167.160412
  0
LINE
  5
DA83
330
DA1C
100
AcDbEntity
  8
4
  6
CENTER
100
AcDbLine
 10
91.499999
 20
332.2808289999999
 30
0.0
 11
21.499999
 21
332.2808289999999
 31
0.0
  0
ARC
  5
DA84
330
DA1C
100
AcDbEntity
  8
1
  6
Continuous
100
AcDbCircle
 10
56.499999
 20
323.2808289999999
 30
0.0
 40
26.0
100
AcDbArc
 50
61.36900999999999
 51
118.6309899999999
  0
ARC
  5
DA85
330
DA1C
100
AcDbEntity
  8
1
  6
Continuous
100
AcDbCircle
 10
41.499999
 20
308.637648
 30
0.0
 40
2.0
100
AcDbArc
 50
180.0
 51
237.607635
  0
ARC
  5
DA86
330
DA1C
100
AcDbEntity
  8
1
  6
Continuous
100
AcDbCircle
 10
242.999999
 20
315.2808289999999
 30
0.0
 40
200.0
100
AcDbArc
 50
180.0
 51
183.233444
  0
LINE
  5
DA87
330
DA1C
100
AcDbEntity
  8
1
  6
Continuous
100
AcDbLine
 10
42.999999
 20
315.2808289999999
 30
0.0
 11
42.999999
 21
344.346203
 31
0.0
  0
LINE
  5
DA88
330
DA1C
100
AcDbEntity
  8
1
  6
Continuous
100
AcDbLine
 10
44.999999
 20
346.5992769999999
 30
0.0
 11
44.999999
 21
315.7808289999999
 31
0.0
  0
LINE
  5
DA89
330
DA1C
100
AcDbEntity
  8
1
  6
Continuous
100
AcDbLine
 10
49.57179599999999
 20
318.280829
 30
0.0
 11
56.499999
 21
330.2808289999999
 31
0.0
  0
LINE
  5
DA8A
330
DA1C
100
AcDbEntity
  8
1
  6
Continuous
100
AcDbLine
 10
56.499999
 20
330.2808289999999
 30
0.0
 11
63.428202
 21
318.280829
 31
0.0
  0
ARC
  5
DA8B
330
DA1C
100
AcDbEntity
  8
1
  6
Continuous
100
AcDbCircle
 10
47.725035
 20
316.280829
 30
0.0
 40
1.0
100
AcDbArc
 50
270.0
 51
347.160412
  0
ARC
  5
DA8C
330
DA1C
100
AcDbEntity
  8
1
  6
Continuous
100
AcDbCircle
 10
47.725035
 20
316.280829
 30
0.0
 40
1.0
100
AcDbArc
 50
270.0
 51
347.160412
  0
LINE
  5
DA8D
330
DA1C
100
AcDbEntity
  8
1
  6
Continuous
100
AcDbLine
 10
42.999999
 20
321.1129899999999
 30
0.0
 11
39.760353
 21
308.570401
 31
0.0
  0
LINE
  5
DA8E
330
DA1C
100
AcDbEntity
  8
1
  6
Continuous
100
AcDbLine
 10
45.499999
 20
315.2808289999999
 30
0.0
 11
47.725035
 21
315.2808289999999
 31
0.0
  0
ARC
  5
DA8F
330
DA1C
100
AcDbEntity
  8
1
  6
Continuous
100
AcDbCircle
 10
44.999999
 20
344.346203
 30
0.0
 40
2.0
100
AcDbArc
 50
118.6309899999999
 51
180.0
  0
ARC
  5
DA90
330
DA1C
100
AcDbEntity
  8
1
  6
Continuous
100
AcDbCircle
 10
71.499999
 20
308.637648
 30
0.0
 40
2.0
100
AcDbArc
 50
302.3923649999999
 51
0.0
  0
ARC
  5
DA91
330
DA1C
100
AcDbEntity
  8
1
  6
Continuous
100
AcDbCircle
 10
-130.0000009999999
 20
315.2808289999999
 30
0.0
 40
200.0
100
AcDbArc
 50
356.766556
 51
0.0
  0
LINE
  5
DA92
330
DA1C
100
AcDbEntity
  8
1
  6
Continuous
100
AcDbLine
 10
69.999999
 20
315.2808289999999
 30
0.0
 11
69.999999
 21
344.346203
 31
0.0
  0
LINE
  5
DA93
330
DA1C
100
AcDbEntity
  8
1
  6
Continuous
100
AcDbLine
 10
67.999999
 20
346.5992769999999
 30
0.0
 11
67.999999
 21
315.7808289999999
 31
0.0
  0
LINE
  5
DA94
330
DA1C
100
AcDbEntity
  8
1
  6
Continuous
100
AcDbLine
 10
69.999999
 20
321.1129899999999
 30
0.0
 11
73.23964499999998
 21
308.570401
 31
0.0
  0
ARC
  5
DA95
330
DA1C
100
AcDbEntity
  8
1
  6
Continuous
100
AcDbCircle
 10
65.274963
 20
316.280829
 30
0.0
 40
1.0
100
AcDbArc
 50
192.839588
 51
270.0
  0
ARC
  5
DA96
330
DA1C
100
AcDbEntity
  8
1
  6
Continuous
100
AcDbCircle
 10
65.274963
 20
316.280829
 30
0.0
 40
1.0
100
AcDbArc
 50
192.839588
 51
270.0
  0
LINE
  5
DA97
330
DA1C
100
AcDbEntity
  8
1
  6
Continuous
100
AcDbLine
 10
65.274963
 20
315.2808289999999
 30
0.0
 11
67.499999
 21
315.2808289999999
 31
0.0
  0
ARC
  5
DA98
330
DA1C
100
AcDbEntity
  8
1
  6
Continuous
100
AcDbCircle
 10
67.999999
 20
344.346203
 30
0.0
 40
2.0
100
AcDbArc
 50
0.0
 51
61.36900999999999
  0
LINE
  5
DA99
330
DA1C
100
AcDbEntity
  8
1
  6
Continuous
100
AcDbLine
 10
188.945687
 20
298.4195859999999
 30
0.0
 11
196.0787169999999
 21
214.112217
 31
0.0
  0
LINE
  5
DA9A
330
DA1C
100
AcDbEntity
  8
1
  6
Continuous
100
AcDbLine
 10
203.2336659999999
 20
315.1374149999999
 30
0.0
 11
203.2336659999999
 21
234.351897
 31
0.0
  0
ARC
  5
DA9B
330
DA1C
100
AcDbEntity
  8
1
  6
Continuous
100
AcDbCircle
 10
201.2336659999999
 20
220.280829
 30
0.0
 40
8.0
100
AcDbArc
 50
270.0
 51
0.0
  0
ARC
  5
DA9C
330
DA1C
100
AcDbEntity
  8
1
  6
Continuous
100
AcDbCircle
 10
198.071597
 20
214.280829
 30
0.0
 40
2.0
100
AcDbArc
 50
184.8361309999999
 51
270.0
  0
LINE
  5
DA9D
330
DA1C
100
AcDbEntity
  8
1
  6
Continuous
100
AcDbLine
 10
198.071597
 20
212.280829
 30
0.0
 11
201.2336659999999
 21
212.280829
 31
0.0
  0
ARC
  5
DA9E
330
DA1C
100
AcDbEntity
  8
1
  6
Continuous
100
AcDbCircle
 10
201.2336659999999
 20
222.9671209999999
 30
0.0
 40
8.0
100
AcDbArc
 50
0.0
 51
45.0
  0
ARC
  5
DA9F
330
DA1C
100
AcDbEntity
  8
1
  6
Continuous
100
AcDbCircle
 10
208.233666
 20
234.351897
 30
0.0
 40
5.0
100
AcDbArc
 50
180.0
 51
225.0
  0
LINE
  5
DAA0
330
DA1C
100
AcDbEntity
  8
1
  6
Continuous
100
AcDbLine
 10
206.89052
 20
228.623975
 30
0.0
 11
204.6981319999999
 21
230.816363
 31
0.0
  0
LINE
  5
DAA1
330
DA1C
100
AcDbEntity
  8
1
  6
Continuous
100
AcDbLine
 10
209.2336659999999
 20
222.9671209999999
 30
0.0
 11
209.2336659999999
 21
220.280829
 31
0.0
  0
ARC
  5
DAA2
330
DA1C
100
AcDbEntity
  8
1
  6
Continuous
100
AcDbCircle
 10
388.233666
 20
315.2808289999999
 30
0.0
 40
200.0
100
AcDbArc
 50
180.0
 51
184.8361309999999
  0
ARC
  5
DAA3
330
DA1C
100
AcDbEntity
  8
5
  6
PHANTOM
100
AcDbCircle
 10
138.772412
 20
284.7808289999999
 30
0.0
 40
25.0
100
AcDbArc
 50
315.382014
 51
344.6179859999999
  0
ARC
  5
DAA4
330
DA1C
100
AcDbEntity
  8
5
  6
PHANTOM
100
AcDbCircle
 10
154.788038
 20
268.9773569999999
 30
0.0
 40
2.5
100
AcDbArc
 50
243.233444
 51
315.382014
  0
ARC
  5
DAA5
330
DA1C
100
AcDbEntity
  8
5
  6
PHANTOM
100
AcDbCircle
 10
160.466433
 20
278.8126259999998
 30
0.0
 40
2.5
100
AcDbArc
 50
344.6179859999999
 51
56.76655600000001
  0
LINE
  5
DAA6
330
DA1C
100
AcDbEntity
  8
1
  6
Continuous
100
AcDbLine
 10
221.844665
 20
318.1799919999999
 30
0.0
 11
230.7616869999999
 21
303.323513
 31
0.0
  0
ARC
  5
DAA7
330
DA1C
100
AcDbEntity
  8
1
  6
Continuous
100
AcDbCircle
 10
232.5176899999999
 20
304.2808289999999
 30
0.0
 40
2.0
100
AcDbArc
 50
208.597786
 51
270.0
  0
LINE
  5
DAA8
330
DA1C
100
AcDbEntity
  8
1
  6
Continuous
100
AcDbLine
 10
232.5176899999999
 20
302.2808289999999
 30
0.0
 11
236.3336659999999
 21
302.2808289999999
 31
0.0
  0
LINE
  5
DAA9
330
DA1C
100
AcDbEntity
  8
1
  6
Continuous
100
AcDbLine
 10
231.333666
 20
303.318915
 30
0.0
 11
231.333666
 21
307.718431
 31
0.0
  0
LINE
  5
DAAA
330
DA1C
100
AcDbEntity
  8
1
  6
Continuous
100
AcDbLine
 10
230.7642009999999
 20
308.570401
 30
0.0
 11
221.7952939999999
 21
321.988687
 31
0.0
  0
LINE
  5
DAAB
330
DA1C
100
AcDbEntity
  8
1
  6
Continuous
100
AcDbLine
 10
221.733666
 20
318.280829
 30
0.0
 11
221.733666
 21
346.2808289999999
 31
0.0
  0
LINE
  5
DAAC
330
DA1C
100
AcDbEntity
  8
1
  6
Continuous
100
AcDbLine
 10
221.783666
 20
318.4193209999999
 30
0.0
 11
221.783666
 21
346.152693
 31
0.0
  0
LINE
  5
DAAD
330
DA1C
100
AcDbEntity
  8
1
  6
Continuous
100
AcDbLine
 10
221.733666
 20
318.280829
 30
0.0
 11
204.8919179999999
 21
316.7726129999999
 31
0.0
  0
ARC
  5
DAAE
330
DA1C
100
AcDbEntity
  8
1
  6
Continuous
100
AcDbCircle
 10
209.2336659999999
 20
315.1374149999999
 30
0.0
 40
6.0
100
AcDbArc
 50
95.11731500000001
 51
180.0
  0
ARC
  5
DAAF
330
DA1C
100
AcDbEntity
  8
1
  6
Continuous
100
AcDbCircle
 10
206.2298479999999
 20
301.832401
 30
0.0
 40
15.0
100
AcDbArc
 50
95.11731500000001
 51
100.851964
  0
LINE
  5
DAB0
330
DA1C
100
AcDbEntity
  8
1
  6
Continuous
100
AcDbLine
 10
221.733666
 20
322.2808289999999
 30
0.0
 11
221.783666
 21
322.2808289999999
 31
0.0
  0
ARC
  5
DAB1
330
DA1C
100
AcDbEntity
  8
1
  6
Continuous
100
AcDbCircle
 10
222.283666
 20
318.4193209999999
 30
0.0
 40
0.5
100
AcDbArc
 50
180.0
 51
210.963757
  0
LINE
  5
DAB2
330
DA1C
100
AcDbEntity
  8
1
  6
Continuous
100
AcDbLine
 10
221.733666
 20
322.2808289999999
 30
0.0
 11
208.6984939999999
 21
321.1135
 31
0.0
  0
LINE
  5
DAB3
330
DA1C
100
AcDbEntity
  8
1
  6
Continuous
100
AcDbLine
 10
202.192959
 20
345.298197
 30
0.0
 11
221.1445299999998
 21
342.412171
 31
0.0
  0
LINE
  5
DAB4
330
DA1C
100
AcDbEntity
  8
1
  6
Continuous
100
AcDbLine
 10
202.782095
 20
349.1668549999998
 30
0.0
 11
221.733666
 21
346.2808289999999
 31
0.0
  0
ARC
  5
DAB5
330
DA1C
100
AcDbEntity
  8
1
  6
Continuous
100
AcDbCircle
 10
201.276608
 20
339.280829
 30
0.0
 40
10.0
100
AcDbArc
 50
81.34127900000001
 51
90.0
  0
LINE
  5
DAB6
330
DA1C
100
AcDbEntity
  8
1
  6
Continuous
100
AcDbLine
 10
188.733666
 20
349.2808289999999
 30
0.0
 11
201.276608
 21
349.2808289999999
 31
0.0
  0
LINE
  5
DAB7
330
DA1C
100
AcDbEntity
  8
1
  6
Continuous
100
AcDbLine
 10
190.7721399999998
 20
345.36757
 30
0.0
 11
201.276608
 21
345.36757
 31
0.0
  0
ARC
  5
DAB8
330
DA1C
100
AcDbEntity
  8
1
  6
Continuous
100
AcDbCircle
 10
201.276608
 20
339.280829
 30
0.0
 40
6.086740999999999
100
AcDbArc
 50
81.34127900000001
 51
90.0
  0
LINE
  5
DAB9
330
DA1C
100
AcDbEntity
  8
1
  6
Continuous
100
AcDbLine
 10
221.733666
 20
341.95024
 30
0.0
 11
221.783666
 21
341.95024
 31
0.0
  0
LINE
  5
DABA
330
DA1C
100
AcDbEntity
  8
1
  6
Continuous
100
AcDbLine
 10
221.733666
 20
344.7808289999999
 30
0.0
 11
221.783666
 21
344.7808289999999
 31
0.0
  0
ARC
  5
DABB
330
DA1C
100
AcDbEntity
  8
1
  6
Continuous
100
AcDbCircle
 10
222.283666
 20
346.152693
 30
0.0
 40
0.5
100
AcDbArc
 50
151.2520859999999
 51
180.0
  0
LINE
  5
DABC
330
DA1C
100
AcDbEntity
  8
1
  6
Continuous
100
AcDbLine
 10
236.3336659999999
 20
314.7808289999999
 30
0.0
 11
240.8336659999999
 21
314.7808289999999
 31
0.0
  0
LINE
  5
DABD
330
DA1C
100
AcDbEntity
  8
1
  6
Continuous
100
AcDbLine
 10
236.3336659999999
 20
308.280829
 30
0.0
 11
240.8336659999999
 21
308.280829
 31
0.0
  0
LINE
  5
DABE
330
DA1C
100
AcDbEntity
  8
1
  6
Continuous
100
AcDbLine
 10
240.8336659999999
 20
314.7808289999999
 30
0.0
 11
240.8336659999999
 21
308.280829
 31
0.0
  0
LINE
  5
DABF
330
DA1C
100
AcDbEntity
  8
1
  6
Continuous
100
AcDbLine
 10
236.3336659999999
 20
349.780829
 30
0.0
 11
240.8336659999999
 21
349.780829
 31
0.0
  0
LINE
  5
DAC0
330
DA1C
100
AcDbEntity
  8
1
  6
Continuous
100
AcDbLine
 10
288.801571
 20
93.852548
 30
0.0
 11
288.801571
 21
61.852548
 31
0.0
  0
LINE
  5
DAC1
330
DA1C
100
AcDbEntity
  8
1
  6
Continuous
100
AcDbLine
 10
287.1015709999999
 20
95.352548
 30
0.0
 11
287.1015709999999
 21
60.352548
 31
0.0
  0
LINE
  5
DAC2
330
DA1C
100
AcDbEntity
  8
1
  6
Continuous
100
AcDbLine
 10
257.133666
 20
88.852548
 30
0.0
 11
258.683666
 21
87.302548
 31
0.0
  0
LINE
  5
DAC3
330
DA1C
100
AcDbEntity
  8
1
  6
Continuous
100
AcDbLine
 10
257.133666
 20
88.852548
 30
0.0
 11
257.133666
 21
82.945448
 31
0.0
  0
LINE
  5
DAC4
330
DA1C
100
AcDbEntity
  8
1
  6
Continuous
100
AcDbLine
 10
288.501571
 20
60.352548
 30
0.0
 11
288.501571
 21
95.352548
 31
0.0
  0
ARC
  5
DAC5
330
DA1C
100
AcDbEntity
  8
1
  6
Continuous
100
AcDbCircle
 10
324.822632
 20
86.602548
 30
0.0
 40
34.52106099999999
100
AcDbArc
 50
165.317147
 51
194.6828529999999
  0
ARC
  5
DAC6
330
DA1C
100
AcDbEntity
  8
1
  6
Continuous
100
AcDbCircle
 10
262.7805099999998
 20
86.602548
 30
0.0
 40
34.52106099999999
100
AcDbArc
 50
345.317147
 51
14.68285299999999
  0
LINE
  5
DAC7
330
DA1C
100
AcDbEntity
  8
1
  6
Continuous
100
AcDbLine
 10
298.801571
 20
93.852548
 30
0.0
 11
298.801571
 21
61.852548
 31
0.0
  0
LINE
  5
DAC8
330
DA1C
100
AcDbEntity
  8
1
  6
Continuous
100
AcDbLine
 10
297.301571
 20
95.352548
 30
0.0
 11
297.301571
 21
60.352548
 31
0.0
  0
LINE
  5
DAC9
330
DA1C
100
AcDbEntity
  8
1
  6
Continuous
100
AcDbLine
 10
290.301571
 20
95.352548
 30
0.0
 11
290.301571
 21
60.352548
 31
0.0
  0
LINE
  5
DACA
330
DA1C
100
AcDbEntity
  8
1
  6
Continuous
100
AcDbLine
 10
334.8067349999999
 20
66.85257
 30
0.0
 11
334.8067349999999
 21
88.85257000000001
 31
0.0
  0
LINE
  5
DACB
330
DA1C
100
AcDbEntity
  8
1
  6
Continuous
100
AcDbLine
 10
331.806735
 20
66.85257
 30
0.0
 11
331.806735
 21
88.85257000000001
 31
0.0
  0
LINE
  5
DACC
330
DA1C
100
AcDbEntity
  8
1
  6
Continuous
100
AcDbLine
 10
326.07059
 20
66.85257
 30
0.0
 11
326.07059
 21
88.85257000000001
 31
0.0
  0
LINE
  5
DACD
330
DA1C
100
AcDbEntity
  8
1
  6
Continuous
100
AcDbLine
 10
328.07059
 20
66.85257
 30
0.0
 11
328.07059
 21
88.85257000000001
 31
0.0
  0
LINE
  5
DACE
330
DA1C
100
AcDbEntity
  8
1
  6
Continuous
100
AcDbLine
 10
287.1015709999999
 20
60.352548
 30
0.0
 11
288.501571
 21
60.352548
 31
0.0
  0
LINE
  5
DACF
330
DA1C
100
AcDbEntity
  8
4
  6
CENTER
100
AcDbLine
 10
283.801571
 20
77.852548
 30
0.0
 11
303.801571
 21
77.852548
 31
0.0
  0
LINE
  5
DAD0
330
DA1C
100
AcDbEntity
  8
1
  6
Continuous
100
AcDbLine
 10
286.801571
 20
66.915398
 30
0.0
 11
287.1015709999999
 21
65.757248
 31
0.0
  0
LINE
  5
DAD1
330
DA1C
100
AcDbEntity
  8
1
  6
Continuous
100
AcDbLine
 10
257.133666
 20
72.759648
 30
0.0
 11
257.133666
 21
66.852548
 31
0.0
  0
ARC
  5
DAD2
330
DA1C
100
AcDbEntity
  8
1
  6
Continuous
100
AcDbCircle
 10
246.92632
 20
77.852548
 30
0.0
 40
11.407346
100
AcDbArc
 50
333.483346
 51
26.516654
  0
LINE
  5
DAD3
330
DA1C
100
AcDbEntity
  8
1
  6
Continuous
100
AcDbLine
 10
257.133666
 20
66.852548
 30
0.0
 11
258.683666
 21
68.402548
 31
0.0
  0
ARC
  5
DAD4
330
DA1C
100
AcDbEntity
  8
1
  6
Continuous
100
AcDbCircle
 10
266.433666
 20
84.42864099999999
 30
0.0
 40
0.3
100
AcDbArc
 50
0.0
 51
90.0
  0
LINE
  5
DAD5
330
DA1C
100
AcDbEntity
  8
2
  6
Continuous
100
AcDbLine
 10
266.433666
 20
84.72864099999998
 30
0.0
 11
258.733666
 21
77.852548
 31
0.0
  0
LINE
  5
DAD6
330
DA1C
100
AcDbEntity
  8
2
  6
Continuous
100
AcDbLine
 10
266.433666
 20
77.852548
 30
0.0
 11
258.733666
 21
84.72864099999998
 31
0.0
  0
LINE
  5
DAD7
330
DA1C
100
AcDbEntity
  8
1
  6
Continuous
100
AcDbLine
 10
266.433666
 20
77.852548
 30
0.0
 11
258.733666
 21
77.852548
 31
0.0
  0
ARC
  5
DAD8
330
DA1C
100
AcDbEntity
  8
1
  6
Continuous
100
AcDbCircle
 10
266.433666
 20
71.27645499999998
 30
0.0
 40
0.3
100
AcDbArc
 50
270.0
 51
0.0
  0
LINE
  5
DAD9
330
DA1C
100
AcDbEntity
  8
1
  6
Continuous
100
AcDbLine
 10
266.433666
 20
70.976455
 30
0.0
 11
258.733666
 21
70.976455
 31
0.0
  0
LINE
  5
DADA
330
DA1C
100
AcDbEntity
  8
2
  6
Continuous
100
AcDbLine
 10
258.733666
 20
77.852548
 30
0.0
 11
266.433666
 21
70.976455
 31
0.0
  0
LINE
  5
DADB
330
DA1C
100
AcDbEntity
  8
2
  6
Continuous
100
AcDbLine
 10
258.733666
 20
70.976455
 30
0.0
 11
266.433666
 21
77.852548
 31
0.0
  0
LINE
  5
DADC
330
DA1C
100
AcDbEntity
  8
1
  6
Continuous
100
AcDbLine
 10
266.733666
 20
84.42864099999999
 30
0.0
 11
266.733666
 21
71.27645499999998
 31
0.0
  0
LINE
  5
DADD
330
DA1C
100
AcDbEntity
  8
1
  6
Continuous
100
AcDbLine
 10
266.433666
 20
84.72864099999998
 30
0.0
 11
258.733666
 21
84.72864099999998
 31
0.0
  0
LINE
  5
DADE
330
DA1C
100
AcDbEntity
  8
1
  6
Continuous
100
AcDbLine
 10
258.683666
 20
87.302548
 30
0.0
 11
258.683666
 21
68.402548
 31
0.0
  0
LINE
  5
DADF
330
DA1C
100
AcDbEntity
  8
1
  6
Continuous
100
AcDbLine
 10
287.1015709999999
 20
66.915398
 30
0.0
 11
286.801571
 21
66.915398
 31
0.0
  0
LINE
  5
DAE0
330
DA1C
100
AcDbEntity
  8
1
  6
Continuous
100
AcDbLine
 10
286.801571
 20
71.09303800000002
 30
0.0
 11
287.1015709999999
 21
70.79303799999998
 31
0.0
  0
LINE
  5
DAE1
330
DA1C
100
AcDbEntity
  8
1
  6
Continuous
100
AcDbLine
 10
286.801571
 20
71.09303800000002
 30
0.0
 11
287.1015709999999
 21
71.39304799999997
 31
0.0
  0
LINE
  5
DAE2
330
DA1C
100
AcDbEntity
  8
1
  6
Continuous
100
AcDbLine
 10
286.801571
 20
77.862578
 30
0.0
 11
287.1015709999999
 21
78.16257799999998
 31
0.0
  0
LINE
  5
DAE3
330
DA1C
100
AcDbEntity
  8
1
  6
Continuous
100
AcDbLine
 10
286.801571
 20
77.862578
 30
0.0
 11
287.1015709999999
 21
77.562578
 31
0.0
  0
LINE
  5
DAE4
330
DA1C
100
AcDbEntity
  8
1
  6
Continuous
100
AcDbLine
 10
286.801571
 20
84.61207799999998
 30
0.0
 11
287.1015709999999
 21
84.31207800000001
 31
0.0
  0
LINE
  5
DAE5
330
DA1C
100
AcDbEntity
  8
1
  6
Continuous
100
AcDbLine
 10
286.801571
 20
84.61207799999998
 30
0.0
 11
287.1015709999999
 21
84.91207799999996
 31
0.0
  0
LINE
  5
DAE6
330
DA1C
100
AcDbEntity
  8
1
  6
Continuous
100
AcDbLine
 10
288.801571
 20
66.915398
 30
0.0
 11
288.501571
 21
65.757248
 31
0.0
  0
ARC
  5
DAE7
330
DA1C
100
AcDbEntity
  8
1
  6
Continuous
100
AcDbCircle
 10
324.822632
 20
69.102548
 30
0.0
 40
34.52106099999999
100
AcDbArc
 50
165.317147
 51
194.6828529999999
  0
ARC
  5
DAE8
330
DA1C
100
AcDbEntity
  8
1
  6
Continuous
100
AcDbCircle
 10
262.7805099999998
 20
69.102548
 30
0.0
 40
34.52106099999999
100
AcDbArc
 50
345.317147
 51
14.68285299999999
  0
LINE
  5
DAE9
330
DA1C
100
AcDbEntity
  8
1
  6
Continuous
100
AcDbLine
 10
288.801571
 20
61.852548
 30
0.0
 11
290.301571
 21
61.852548
 31
0.0
  0
LINE
  5
DAEA
330
DA1C
100
AcDbEntity
  8
1
  6
Continuous
100
AcDbLine
 10
298.801571
 20
61.852548
 30
0.0
 11
297.301571
 21
61.852548
 31
0.0
  0
LINE
  5
DAEB
330
DA1C
100
AcDbEntity
  8
1
  6
Continuous
100
AcDbLine
 10
290.301571
 20
60.352548
 30
0.0
 11
297.301571
 21
60.352548
 31
0.0
  0
LINE
  5
DAEC
330
DA1C
100
AcDbEntity
  8
1
  6
Continuous
100
AcDbLine
 10
288.801571
 20
77.84249799999997
 30
0.0
 11
288.501571
 21
77.54249799999998
 31
0.0
  0
LINE
  5
DAED
330
DA1C
100
AcDbEntity
  8
1
  6
Continuous
100
AcDbLine
 10
288.501571
 20
78.142498
 30
0.0
 11
288.801571
 21
77.84249799999997
 31
0.0
  0
LINE
  5
DAEE
330
DA1C
100
AcDbEntity
  8
1
  6
Continuous
100
AcDbLine
 10
288.501571
 20
84.91207799999996
 30
0.0
 11
288.801571
 21
84.61207799999998
 31
0.0
  0
LINE
  5
DAEF
330
DA1C
100
AcDbEntity
  8
1
  6
Continuous
100
AcDbLine
 10
288.801571
 20
84.61207799999998
 30
0.0
 11
288.501571
 21
84.31207800000001
 31
0.0
  0
LINE
  5
DAF0
330
DA1C
100
AcDbEntity
  8
1
  6
Continuous
100
AcDbLine
 10
288.501571
 20
66.915398
 30
0.0
 11
288.801571
 21
66.915398
 31
0.0
  0
LINE
  5
DAF1
330
DA1C
100
AcDbEntity
  8
1
  6
Continuous
100
AcDbLine
 10
288.801571
 20
71.09303800000002
 30
0.0
 11
288.501571
 21
71.39304799999997
 31
0.0
  0
LINE
  5
DAF2
330
DA1C
100
AcDbEntity
  8
1
  6
Continuous
100
AcDbLine
 10
288.501571
 20
70.79303799999998
 30
0.0
 11
288.801571
 21
71.09303800000002
 31
0.0
  0
LINE
  5
DAF3
330
DA1C
100
AcDbEntity
  8
1
  6
Continuous
100
AcDbLine
 10
291.4289029999998
 20
77.852548
 30
0.0
 11
296.1742389999999
 21
77.852548
 31
0.0
  0
LINE
  5
DAF4
330
DA1C
100
AcDbEntity
  8
4
  6
CENTER
100
AcDbLine
 10
339.806735
 20
77.85257
 30
0.0
 11
321.0705899999999
 21
77.85257
 31
0.0
  0
LINE
  5
DAF5
330
DA1C
100
AcDbEntity
  8
1
  6
Continuous
100
AcDbLine
 10
334.8067349999999
 20
66.85257
 30
0.0
 11
331.806735
 21
66.85257
 31
0.0
  0
LINE
  5
DAF6
330
DA1C
100
AcDbEntity
  8
1
  6
Continuous
100
AcDbLine
 10
328.07059
 20
66.85257
 30
0.0
 11
326.07059
 21
66.85257
 31
0.0
  0
LINE
  5
DAF7
330
DA1C
100
AcDbEntity
  8
1
  6
Continuous
100
AcDbLine
 10
365.4771629999999
 20
85.85259
 30
0.0
 11
367.0771629999999
 21
85.85259
 31
0.0
  0
LINE
  5
DAF8
330
DA1C
100
AcDbEntity
  8
4
  6
CENTER
100
AcDbLine
 10
377.5771629999999
 20
77.85259
 30
0.0
 11
360.4771629999997
 21
77.85259
 31
0.0
  0
LINE
  5
DAF9
330
DA1C
100
AcDbEntity
  8
1
  6
Continuous
100
AcDbLine
 10
365.4771629999999
 20
69.85259
 30
0.0
 11
367.0771629999999
 21
69.85259
 31
0.0
  0
LINE
  5
DAFA
330
DA1C
100
AcDbEntity
  8
1
  6
Continuous
100
AcDbLine
 10
365.4771629999999
 20
85.85259
 30
0.0
 11
365.4771629999999
 21
69.85259
 31
0.0
  0
ARC
  5
DAFB
330
DA1C
100
AcDbEntity
  8
1
  6
Continuous
100
AcDbCircle
 10
365.351871
 20
75.35259
 30
0.0
 40
7.225291999999996
100
AcDbArc
 50
339.756734
 51
20.24326599999999
  0
LINE
  5
DAFC
330
DA1C
100
AcDbEntity
  8
1
  6
Continuous
100
AcDbLine
 10
372.577163
 20
82.85259000000001
 30
0.0
 11
372.577163
 21
72.85259
 31
0.0
  0
ARC
  5
DAFD
330
DA1C
100
AcDbEntity
  8
1
  6
Continuous
100
AcDbCircle
 10
365.351871
 20
80.35259000000001
 30
0.0
 40
7.225291999999996
100
AcDbArc
 50
339.756734
 51
20.24326599999999
  0
ARC
  5
DAFE
330
DA1C
100
AcDbEntity
  8
1
  6
Continuous
100
AcDbCircle
 10
375.802455
 20
75.35259
 30
0.0
 40
7.225291999999996
100
AcDbArc
 50
159.7567339999999
 51
200.243266
  0
ARC
  5
DAFF
330
DA1C
100
AcDbEntity
  8
1
  6
Continuous
100
AcDbCircle
 10
375.802455
 20
80.35259000000001
 30
0.0
 40
7.225291999999996
100
AcDbArc
 50
159.7567339999999
 51
200.243266
  0
LINE
  5
DB00
330
DA1C
100
AcDbEntity
  8
1
  6
Continuous
100
AcDbLine
 10
372.577163
 20
72.85259
 30
0.0
 11
368.577163
 21
72.85259
 31
0.0
  0
LINE
  5
DB01
330
DA1C
100
AcDbEntity
  8
1
  6
Continuous
100
AcDbLine
 10
372.577163
 20
82.85259000000001
 30
0.0
 11
368.577163
 21
82.85259000000001
 31
0.0
  0
LINE
  5
DB02
330
DA1C
100
AcDbEntity
  8
1
  6
Continuous
100
AcDbLine
 10
369.0234549999997
 20
77.85259
 30
0.0
 11
372.130871
 21
77.85259
 31
0.0
  0
LINE
  5
DB03
330
DA1C
100
AcDbEntity
  8
1
  6
Continuous
100
AcDbLine
 10
368.577163
 20
71.75259
 30
0.0
 11
368.577163
 21
83.95259000000001
 31
0.0
  0
LINE
  5
DB04
330
DA1C
100
AcDbEntity
  8
1
  6
Continuous
100
AcDbLine
 10
368.577163
 20
83.95259000000001
 30
0.0
 11
367.0771629999999
 21
83.95259000000001
 31
0.0
  0
LINE
  5
DB05
330
DA1C
100
AcDbEntity
  8
1
  6
Continuous
100
AcDbLine
 10
368.577163
 20
71.75259
 30
0.0
 11
367.0771629999999
 21
71.75259
 31
0.0
  0
LINE
  5
DB06
330
DA1C
100
AcDbEntity
  8
1
  6
Continuous
100
AcDbLine
 10
367.0771629999999
 20
76.34863299999998
 30
0.0
 11
368.577163
 21
77.84863299999997
 31
0.0
  0
LINE
  5
DB07
330
DA1C
100
AcDbEntity
  8
1
  6
Continuous
100
AcDbLine
 10
367.0771629999999
 20
77.85259
 30
0.0
 11
368.577163
 21
79.35259000000002
 31
0.0
  0
LINE
  5
DB08
330
DA1C
100
AcDbEntity
  8
1
  6
Continuous
100
AcDbLine
 10
367.0771629999999
 20
85.85259
 30
0.0
 11
367.0771629999999
 21
69.85259
 31
0.0
  0
LINE
  5
DB09
330
DA1C
100
AcDbEntity
  8
1
  6
Continuous
100
AcDbLine
 10
287.1015709999999
 20
95.352548
 30
0.0
 11
288.501571
 21
95.352548
 31
0.0
  0
LINE
  5
DB0A
330
DA1C
100
AcDbEntity
  8
1
  6
Continuous
100
AcDbLine
 10
287.1015709999999
 20
88.789698
 30
0.0
 11
286.801571
 21
88.789698
 31
0.0
  0
LINE
  5
DB0B
330
DA1C
100
AcDbEntity
  8
1
  6
Continuous
100
AcDbLine
 10
286.801571
 20
88.789698
 30
0.0
 11
287.1015709999999
 21
89.94784799999996
 31
0.0
  0
LINE
  5
DB0C
330
DA1C
100
AcDbEntity
  8
1
  6
Continuous
100
AcDbLine
 10
288.501571
 20
88.789698
 30
0.0
 11
288.801571
 21
88.789698
 31
0.0
  0
LINE
  5
DB0D
330
DA1C
100
AcDbEntity
  8
1
  6
Continuous
100
AcDbLine
 10
288.801571
 20
88.789698
 30
0.0
 11
288.501571
 21
89.94784799999996
 31
0.0
  0
LINE
  5
DB0E
330
DA1C
100
AcDbEntity
  8
1
  6
Continuous
100
AcDbLine
 10
288.801571
 20
93.852548
 30
0.0
 11
290.301571
 21
93.852548
 31
0.0
  0
LINE
  5
DB0F
330
DA1C
100
AcDbEntity
  8
1
  6
Continuous
100
AcDbLine
 10
298.801571
 20
93.852548
 30
0.0
 11
297.301571
 21
93.852548
 31
0.0
  0
LINE
  5
DB10
330
DA1C
100
AcDbEntity
  8
1
  6
Continuous
100
AcDbLine
 10
290.301571
 20
95.352548
 30
0.0
 11
297.301571
 21
95.352548
 31
0.0
  0
LINE
  5
DB11
330
DA1C
100
AcDbEntity
  8
1
  6
Continuous
100
AcDbLine
 10
334.8067349999999
 20
88.85257000000001
 30
0.0
 11
331.806735
 21
88.85257000000001
 31
0.0
  0
LINE
  5
DB12
330
DA1C
100
AcDbEntity
  8
1
  6
Continuous
100
AcDbLine
 10
328.07059
 20
88.85257000000001
 30
0.0
 11
326.07059
 21
88.85257000000001
 31
0.0
  0
LINE
  5
DB13
330
DA1C
100
AcDbEntity
  8
5
  6
PHANTOM
100
AcDbLine
 10
341.7533979999999
 20
280.903737
 30
0.0
 11
416.007219
 21
329.5560029999998
 31
0.0
  0
LINE
  5
DB14
330
DA1C
100
AcDbEntity
  8
5
  6
PHANTOM
100
AcDbLine
 10
349.927813
 20
266.745235
 30
0.0
 11
429.188821
 21
306.724798
 31
0.0
  0
LINE
  5
DB15
330
DA1C
100
AcDbEntity
  8
4
  6
CENTER
100
AcDbLine
 10
477.054441
 20
349.5808289999998
 30
0.0
 11
339.3060399999999
 21
270.0517529999999
 31
0.0
  0
LINE
  5
DB16
330
DA1C
100
AcDbEntity
  8
1
  6
Continuous
100
AcDbLine
 10
287.1015689999999
 20
349.780829
 30
0.0
 11
288.501569
 21
349.780829
 31
0.0
  0
LINE
  5
DB17
330
DA1C
100
AcDbEntity
  8
1
  6
Continuous
100
AcDbLine
 10
287.1015689999999
 20
314.7808289999999
 30
0.0
 11
288.501569
 21
314.7808289999999
 31
0.0
  0
LINE
  5
DB18
330
DA1C
100
AcDbEntity
  8
4
  6
CENTER
100
AcDbLine
 10
282.201569
 20
332.2808289999999
 30
0.0
 11
303.8015689999999
 21
332.2808289999999
 31
0.0
  0
LINE
  5
DB19
330
DA1C
100
AcDbEntity
  8
1
  6
Continuous
100
AcDbLine
 10
287.1015689999999
 20
349.780829
 30
0.0
 11
287.1015689999999
 21
314.7808289999999
 31
0.0
  0
LINE
  5
DB1A
330
DA1C
100
AcDbEntity
  8
2
  6
Continuous
100
AcDbLine
 10
258.733666
 20
332.2808289999999
 30
0.0
 11
266.433666
 21
325.404736
 31
0.0
  0
LINE
  5
DB1B
330
DA1C
100
AcDbEntity
  8
2
  6
Continuous
100
AcDbLine
 10
258.733666
 20
325.404736
 30
0.0
 11
266.433666
 21
332.2808289999999
 31
0.0
  0
LINE
  5
DB1C
330
DA1C
100
AcDbEntity
  8
1
  6
Continuous
100
AcDbLine
 10
266.733666
 20
338.8569219999999
 30
0.0
 11
266.733666
 21
325.7047359999999
 31
0.0
  0
LINE
  5
DB1D
330
DA1C
100
AcDbEntity
  8
1
  6
Continuous
100
AcDbLine
 10
258.683666
 20
341.7308290000002
 30
0.0
 11
258.683666
 21
322.830829
 31
0.0
  0
LINE
  5
DB1E
330
DA1C
100
AcDbEntity
  8
1
  6
Continuous
100
AcDbLine
 10
258.383666
 20
322.530829
 30
0.0
 11
258.683666
 21
322.830829
 31
0.0
  0
ARC
  5
DB1F
330
DA1C
100
AcDbEntity
  8
1
  6
Continuous
100
AcDbCircle
 10
266.433666
 20
325.7047359999999
 30
0.0
 40
0.3
100
AcDbArc
 50
270.0
 51
0.0
  0
LINE
  5
DB20
330
DA1C
100
AcDbEntity
  8
1
  6
Continuous
100
AcDbLine
 10
266.433666
 20
325.404736
 30
0.0
 11
258.733666
 21
325.404736
 31
0.0
  0
LINE
  5
DB21
330
DA1C
100
AcDbEntity
  8
1
  6
Continuous
100
AcDbLine
 10
286.8015689999999
 20
325.521319
 30
0.0
 11
287.1015689999999
 21
325.821329
 31
0.0
  0
LINE
  5
DB22
330
DA1C
100
AcDbEntity
  8
1
  6
Continuous
100
AcDbLine
 10
286.8015689999999
 20
325.521319
 30
0.0
 11
287.1015689999999
 21
325.2213189999999
 31
0.0
  0
LINE
  5
DB23
330
DA1C
100
AcDbEntity
  8
1
  6
Continuous
100
AcDbLine
 10
287.1015689999999
 20
321.343679
 30
0.0
 11
286.8015689999999
 21
321.343679
 31
0.0
  0
LINE
  5
DB24
330
DA1C
100
AcDbEntity
  8
1
  6
Continuous
100
AcDbLine
 10
286.8015689999999
 20
321.343679
 30
0.0
 11
287.1015689999999
 21
320.1855289999999
 31
0.0
  0
LINE
  5
DB25
330
DA1C
100
AcDbEntity
  8
1
  6
Continuous
100
AcDbLine
 10
258.383666
 20
342.0308289999999
 30
0.0
 11
258.683666
 21
341.7308290000002
 31
0.0
  0
ARC
  5
DB26
330
DA1C
100
AcDbEntity
  8
1
  6
Continuous
100
AcDbCircle
 10
266.433666
 20
338.8569219999999
 30
0.0
 40
0.3
100
AcDbArc
 50
0.0
 51
90.0
  0
LINE
  5
DB27
330
DA1C
100
AcDbEntity
  8
2
  6
Continuous
100
AcDbLine
 10
266.433666
 20
339.156922
 30
0.0
 11
258.733666
 21
332.2808289999999
 31
0.0
  0
LINE
  5
DB28
330
DA1C
100
AcDbEntity
  8
2
  6
Continuous
100
AcDbLine
 10
266.433666
 20
332.2808289999999
 30
0.0
 11
258.733666
 21
339.156922
 31
0.0
  0
LINE
  5
DB29
330
DA1C
100
AcDbEntity
  8
1
  6
Continuous
100
AcDbLine
 10
266.433666
 20
332.2808289999999
 30
0.0
 11
258.733666
 21
332.2808289999999
 31
0.0
  0
LINE
  5
DB2A
330
DA1C
100
AcDbEntity
  8
1
  6
Continuous
100
AcDbLine
 10
266.433666
 20
339.156922
 30
0.0
 11
258.733666
 21
339.156922
 31
0.0
  0
LINE
  5
DB2B
330
DA1C
100
AcDbEntity
  8
1
  6
Continuous
100
AcDbLine
 10
286.8015689999999
 20
339.0403589999999
 30
0.0
 11
287.1015689999999
 21
339.3403589999999
 31
0.0
  0
LINE
  5
DB2C
330
DA1C
100
AcDbEntity
  8
1
  6
Continuous
100
AcDbLine
 10
286.8015689999999
 20
339.0403589999999
 30
0.0
 11
287.1015689999999
 21
338.740359
 31
0.0
  0
LINE
  5
DB2D
330
DA1C
100
AcDbEntity
  8
1
  6
Continuous
100
AcDbLine
 10
286.8015689999999
 20
343.217979
 30
0.0
 11
287.1015689999999
 21
344.3761289999998
 31
0.0
  0
LINE
  5
DB2E
330
DA1C
100
AcDbEntity
  8
1
  6
Continuous
100
AcDbLine
 10
287.1015689999999
 20
343.217979
 30
0.0
 11
286.8015689999999
 21
343.217979
 31
0.0
  0
LINE
  5
DB2F
330
DA1C
100
AcDbEntity
  8
1
  6
Continuous
100
AcDbLine
 10
286.8015689999999
 20
332.290859
 30
0.0
 11
287.1015689999999
 21
331.990859
 31
0.0
  0
LINE
  5
DB30
330
DA1C
100
AcDbEntity
  8
1
  6
Continuous
100
AcDbLine
 10
286.8015689999999
 20
332.290859
 30
0.0
 11
287.1015689999999
 21
332.5908589999999
 31
0.0
  0
LINE
  5
DB31
330
DA1C
100
AcDbEntity
  8
1
  6
Continuous
100
AcDbLine
 10
288.8015689999999
 20
348.2808289999999
 30
0.0
 11
288.8015689999999
 21
316.280829
 31
0.0
  0
ARC
  5
DB32
330
DA1C
100
AcDbEntity
  8
1
  6
Continuous
100
AcDbCircle
 10
251.4613740000001
 20
332.2808289999999
 30
0.0
 40
45.84019399999998
100
AcDbArc
 50
347.266894
 51
12.733106
  0
ARC
  5
DB33
330
DA1C
100
AcDbEntity
  8
1
  6
Continuous
100
AcDbCircle
 10
336.1417629999999
 20
332.2808289999999
 30
0.0
 40
45.84019399999998
100
AcDbArc
 50
167.266894
 51
192.733106
  0
LINE
  5
DB34
330
DA1C
100
AcDbEntity
  8
1
  6
Continuous
100
AcDbLine
 10
288.501569
 20
314.7808289999999
 30
0.0
 11
288.501569
 21
349.780829
 31
0.0
  0
LINE
  5
DB35
330
DA1C
100
AcDbEntity
  8
1
  6
Continuous
100
AcDbLine
 10
290.3015689999999
 20
314.7808289999999
 30
0.0
 11
290.3015689999999
 21
349.780829
 31
0.0
  0
LINE
  5
DB36
330
DA1C
100
AcDbEntity
  8
1
  6
Continuous
100
AcDbLine
 10
297.301569
 20
314.7808289999999
 30
0.0
 11
297.301569
 21
349.780829
 31
0.0
  0
LINE
  5
DB37
330
DA1C
100
AcDbEntity
  8
1
  6
Continuous
100
AcDbLine
 10
298.8015689999999
 20
316.280829
 30
0.0
 11
298.8015689999999
 21
348.2808289999999
 31
0.0
  0
ARC
  5
DB38
330
DA1C
100
AcDbEntity
  8
1
  6
Continuous
100
AcDbCircle
 10
285.4187729999998
 20
317.1253849999998
 30
0.0
 40
11.882796
100
AcDbArc
 50
345.2736279999998
 51
25.159327
  0
LINE
  5
DB39
330
DA1C
100
AcDbEntity
  8
1
  6
Continuous
100
AcDbLine
 10
298.8015689999999
 20
316.280829
 30
0.0
 11
297.301569
 21
316.280829
 31
0.0
  0
LINE
  5
DB3A
330
DA1C
100
AcDbEntity
  8
1
  6
Continuous
100
AcDbLine
 10
288.501569
 20
325.2213189999999
 30
0.0
 11
288.8015689999999
 21
325.521319
 31
0.0
  0
LINE
  5
DB3B
330
DA1C
100
AcDbEntity
  8
1
  6
Continuous
100
AcDbLine
 10
288.8015689999999
 20
325.521319
 30
0.0
 11
288.501569
 21
325.821329
 31
0.0
  0
LINE
  5
DB3C
330
DA1C
100
AcDbEntity
  8
1
  6
Continuous
100
AcDbLine
 10
288.501569
 20
321.343679
 30
0.0
 11
288.8015689999999
 21
321.343679
 31
0.0
  0
LINE
  5
DB3D
330
DA1C
100
AcDbEntity
  8
1
  6
Continuous
100
AcDbLine
 10
288.8015689999999
 20
321.343679
 30
0.0
 11
288.501569
 21
320.1855289999999
 31
0.0
  0
ARC
  5
DB3E
330
DA1C
100
AcDbEntity
  8
1
  6
Continuous
100
AcDbCircle
 10
302.184365
 20
317.1253849999998
 30
0.0
 40
11.882796
100
AcDbArc
 50
154.840673
 51
194.726372
  0
LINE
  5
DB3F
330
DA1C
100
AcDbEntity
  8
1
  6
Continuous
100
AcDbLine
 10
288.8015689999999
 20
316.280829
 30
0.0
 11
290.3015689999999
 21
316.280829
 31
0.0
  0
LINE
  5
DB40
330
DA1C
100
AcDbEntity
  8
1
  6
Continuous
100
AcDbLine
 10
296.1742369999999
 20
322.1771989999999
 30
0.0
 11
291.428901
 21
322.1771989999999
 31
0.0
  0
LINE
  5
DB41
330
DA1C
100
AcDbEntity
  8
1
  6
Continuous
100
AcDbLine
 10
295.7385319999999
 20
312.07357
 30
0.0
 11
291.864606
 21
312.07357
 31
0.0
  0
LINE
  5
DB42
330
DA1C
100
AcDbEntity
  8
1
  6
Continuous
100
AcDbLine
 10
297.301569
 20
314.7808289999999
 30
0.0
 11
295.7385319999999
 21
312.073569
 31
0.0
  0
LINE
  5
DB43
330
DA1C
100
AcDbEntity
  8
1
  6
Continuous
100
AcDbLine
 10
290.3015689999999
 20
314.7808289999999
 30
0.0
 11
291.864606
 21
312.073569
 31
0.0
  0
ARC
  5
DB44
330
DA1C
100
AcDbEntity
  8
1
  6
Continuous
100
AcDbCircle
 10
285.4187729999998
 20
347.4362740000001
 30
0.0
 40
11.882796
100
AcDbArc
 50
334.8406729999999
 51
14.726371
  0
LINE
  5
DB45
330
DA1C
100
AcDbEntity
  8
1
  6
Continuous
100
AcDbLine
 10
298.8015689999999
 20
348.2808289999999
 30
0.0
 11
297.301569
 21
348.2808289999999
 31
0.0
  0
LINE
  5
DB46
330
DA1C
100
AcDbEntity
  8
1
  6
Continuous
100
AcDbLine
 10
288.8015689999999
 20
339.0403589999999
 30
0.0
 11
288.501569
 21
338.740359
 31
0.0
  0
LINE
  5
DB47
330
DA1C
100
AcDbEntity
  8
1
  6
Continuous
100
AcDbLine
 10
288.501569
 20
339.3403589999999
 30
0.0
 11
288.8015689999999
 21
339.0403589999999
 31
0.0
  0
LINE
  5
DB48
330
DA1C
100
AcDbEntity
  8
1
  6
Continuous
100
AcDbLine
 10
288.8015689999999
 20
343.217979
 30
0.0
 11
288.501569
 21
344.3761289999998
 31
0.0
  0
LINE
  5
DB49
330
DA1C
100
AcDbEntity
  8
1
  6
Continuous
100
AcDbLine
 10
288.501569
 20
343.217979
 30
0.0
 11
288.8015689999999
 21
343.217979
 31
0.0
  0
ARC
  5
DB4A
330
DA1C
100
AcDbEntity
  8
1
  6
Continuous
100
AcDbCircle
 10
302.184365
 20
347.4362740000001
 30
0.0
 40
11.882796
100
AcDbArc
 50
165.2736289999998
 51
205.159327
  0
LINE
  5
DB4B
330
DA1C
100
AcDbEntity
  8
1
  6
Continuous
100
AcDbLine
 10
288.8015689999999
 20
348.2808289999999
 30
0.0
 11
290.3015689999999
 21
348.2808289999999
 31
0.0
  0
LINE
  5
DB4C
330
DA1C
100
AcDbEntity
  8
1
  6
Continuous
100
AcDbLine
 10
296.1742369999999
 20
342.3844589999998
 30
0.0
 11
291.428901
 21
342.3844589999998
 31
0.0
  0
LINE
  5
DB4D
330
DA1C
100
AcDbEntity
  8
1
  6
Continuous
100
AcDbLine
 10
288.501569
 20
332.570779
 30
0.0
 11
288.8015689999999
 21
332.2707789999999
 31
0.0
  0
LINE
  5
DB4E
330
DA1C
100
AcDbEntity
  8
1
  6
Continuous
100
AcDbLine
 10
288.8015689999999
 20
332.2707789999999
 30
0.0
 11
288.501569
 21
331.9707789999998
 31
0.0
  0
ARC
  5
DB4F
330
DA1C
100
AcDbEntity
  8
5
  6
PHANTOM
100
AcDbCircle
 10
343.123527
 20
278.8126259999998
 30
0.0
 40
2.5
100
AcDbArc
 50
123.233444
 51
195.3820139999996
  0
ARC
  5
DB50
330
DA1C
100
AcDbEntity
  8
5
  6
PHANTOM
100
AcDbCircle
 10
348.8019219999998
 20
268.9773569999999
 30
0.0
 40
2.5
100
AcDbArc
 50
224.6179859999997
 51
296.766556
  0
ARC
  5
DB51
330
DA1C
100
AcDbEntity
  8
5
  6
PHANTOM
100
AcDbCircle
 10
364.8175479999999
 20
284.7808289999999
 30
0.0
 40
25.0
100
AcDbArc
 50
195.3820139999996
 51
224.6179859999997
  0
LINE
  5
DB52
330
DA1C
100
AcDbEntity
  8
1
  6
Continuous
100
AcDbLine
 10
328.07059
 20
321.2808289999999
 30
0.0
 11
328.07059
 21
343.280829
 31
0.0
  0
LINE
  5
DB53
330
DA1C
100
AcDbEntity
  8
1
  6
Continuous
100
AcDbLine
 10
326.07059
 20
321.2808289999999
 30
0.0
 11
326.07059
 21
343.280829
 31
0.0
  0
LINE
  5
DB54
330
DA1C
100
AcDbEntity
  8
1
  6
Continuous
100
AcDbLine
 10
331.806735
 20
321.2808289999999
 30
0.0
 11
331.806735
 21
343.280829
 31
0.0
  0
LINE
  5
DB55
330
DA1C
100
AcDbEntity
  8
1
  6
Continuous
100
AcDbLine
 10
334.8067349999999
 20
321.2808289999999
 30
0.0
 11
334.8067349999999
 21
343.280829
 31
0.0
  0
LINE
  5
DB56
330
DA1C
100
AcDbEntity
  8
1
  6
Continuous
100
AcDbLine
 10
328.07059
 20
321.2808289999999
 30
0.0
 11
326.07059
 21
321.2808289999999
 31
0.0
  0
LINE
  5
DB57
330
DA1C
100
AcDbEntity
  8
1
  6
Continuous
100
AcDbLine
 10
334.8067349999999
 20
321.2808289999999
 30
0.0
 11
331.806735
 21
321.2808289999999
 31
0.0
  0
LINE
  5
DB58
330
DA1C
100
AcDbEntity
  8
4
  6
CENTER
100
AcDbLine
 10
339.806735
 20
332.2808289999999
 30
0.0
 11
321.0705899999999
 21
332.2808289999999
 31
0.0
  0
LINE
  5
DB59
330
DA1C
100
AcDbEntity
  8
1
  6
Continuous
100
AcDbLine
 10
328.07059
 20
343.280829
 30
0.0
 11
326.07059
 21
343.280829
 31
0.0
  0
LINE
  5
DB5A
330
DA1C
100
AcDbEntity
  8
1
  6
Continuous
100
AcDbLine
 10
334.8067349999999
 20
343.280829
 30
0.0
 11
331.806735
 21
343.280829
 31
0.0
  0
ARC
  5
DB5B
330
DA1C
100
AcDbEntity
  8
1
  6
Continuous
100
AcDbCircle
 10
363.0162139999998
 20
332.277372
 30
0.0
 40
9.560949
100
AcDbArc
 50
342.4247879999999
 51
17.575212
  0
LINE
  5
DB5C
330
DA1C
100
AcDbEntity
  8
1
  6
Continuous
100
AcDbLine
 10
372.577163
 20
337.277372
 30
0.0
 11
372.577163
 21
327.2763719999999
 31
0.0
  0
ARC
  5
DB5D
330
DA1C
100
AcDbEntity
  8
1
  6
Continuous
100
AcDbCircle
 10
378.1381119999999
 20
332.277372
 30
0.0
 40
9.560949
100
AcDbArc
 50
162.4247879999998
 51
197.5752119999999
  0
LINE
  5
DB5E
330
DA1C
100
AcDbEntity
  8
1
  6
Continuous
100
AcDbLine
 10
368.577163
 20
326.5073259999998
 30
0.0
 11
368.577163
 21
338.054332
 31
0.0
  0
LINE
  5
DB5F
330
DA1C
100
AcDbEntity
  8
1
  6
Continuous
100
AcDbLine
 10
368.577163
 20
326.180829
 30
0.0
 11
368.577163
 21
338.380829
 31
0.0
  0
LINE
  5
DB60
330
DA1C
100
AcDbEntity
  8
1
  6
Continuous
100
AcDbLine
 10
367.0771629999999
 20
340.2808289999999
 30
0.0
 11
367.0771629999999
 21
324.2808289999999
 31
0.0
  0
LINE
  5
DB61
330
DA1C
100
AcDbEntity
  8
1
  6
Continuous
100
AcDbLine
 10
365.4771629999999
 20
340.2808289999999
 30
0.0
 11
365.4771629999999
 21
324.2808289999999
 31
0.0
  0
LINE
  5
DB62
330
DA1C
100
AcDbEntity
  8
1
  6
Continuous
100
AcDbLine
 10
365.4771629999999
 20
324.2808289999999
 30
0.0
 11
367.0771629999999
 21
324.2808289999999
 31
0.0
  0
LINE
  5
DB63
330
DA1C
100
AcDbEntity
  8
1
  6
Continuous
100
AcDbLine
 10
372.577163
 20
327.2763719999999
 30
0.0
 11
372.130871
 21
326.503372
 31
0.0
  0
ARC
  5
DB64
330
DA1C
100
AcDbEntity
  8
1
  6
Continuous
100
AcDbCircle
 10
370.021183
 20
327.9463719999998
 30
0.0
 40
2.555979999999999
100
AcDbArc
 50
334.371637
 51
34.371637
  0
ARC
  5
DB65
330
DA1C
100
AcDbEntity
  8
1
  6
Continuous
100
AcDbCircle
 10
370.021163
 20
327.9473719999999
 30
0.0
 40
2.55582
100
AcDbArc
 50
325.6159999999998
 51
325.647143
  0
LINE
  5
DB66
330
DA1C
100
AcDbEntity
  8
1
  6
Continuous
100
AcDbLine
 10
368.577163
 20
327.2763719999999
 30
0.0
 11
369.0234549999997
 21
326.503372
 31
0.0
  0
ARC
  5
DB67
330
DA1C
100
AcDbEntity
  8
1
  6
Continuous
100
AcDbCircle
 10
371.133143
 20
327.9463719999998
 30
0.0
 40
2.555979999999999
100
AcDbArc
 50
145.6283629999998
 51
205.6283629999998
  0
ARC
  5
DB68
330
DA1C
100
AcDbEntity
  8
1
  6
Continuous
100
AcDbCircle
 10
371.1331629999999
 20
327.9473719999999
 30
0.0
 40
2.55582
100
AcDbArc
 50
214.3528569999999
 51
214.3839999999999
  0
LINE
  5
DB69
330
DA1C
100
AcDbEntity
  8
1
  6
Continuous
100
AcDbLine
 10
369.0234549999997
 20
326.503372
 30
0.0
 11
372.130871
 21
326.503372
 31
0.0
  0
LINE
  5
DB6A
330
DA1C
100
AcDbEntity
  8
1
  6
Continuous
100
AcDbLine
 10
369.0234549999997
 20
329.390372
 30
0.0
 11
372.130871
 21
329.390372
 31
0.0
  0
LINE
  5
DB6B
330
DA1C
100
AcDbEntity
  8
1
  6
Continuous
100
AcDbLine
 10
368.577163
 20
326.180829
 30
0.0
 11
367.0771629999999
 21
326.180829
 31
0.0
  0
LINE
  5
DB6C
330
DA1C
100
AcDbEntity
  8
1
  6
Continuous
100
AcDbLine
 10
365.4771629999999
 20
340.2808289999999
 30
0.0
 11
367.0771629999999
 21
340.2808289999999
 31
0.0
  0
LINE
  5
DB6D
330
DA1C
100
AcDbEntity
  8
4
  6
CENTER
100
AcDbLine
 10
377.5771629999999
 20
332.2808289999999
 30
0.0
 11
360.4771629999997
 21
332.2808289999999
 31
0.0
  0
ARC
  5
DB6E
330
DA1C
100
AcDbEntity
  8
1
  6
Continuous
100
AcDbCircle
 10
370.021183
 20
336.607372
 30
0.0
 40
2.555979999999999
100
AcDbArc
 50
325.6283629999999
 51
25.628363
  0
LINE
  5
DB6F
330
DA1C
100
AcDbEntity
  8
1
  6
Continuous
100
AcDbLine
 10
372.577163
 20
337.277372
 30
0.0
 11
372.130871
 21
338.050372
 31
0.0
  0
ARC
  5
DB70
330
DA1C
100
AcDbEntity
  8
1
  6
Continuous
100
AcDbCircle
 10
371.133143
 20
336.607372
 30
0.0
 40
2.555979999999999
100
AcDbArc
 50
154.371637
 51
214.371637
  0
LINE
  5
DB71
330
DA1C
100
AcDbEntity
  8
1
  6
Continuous
100
AcDbLine
 10
368.577163
 20
337.277372
 30
0.0
 11
369.0234549999997
 21
338.050372
 31
0.0
  0
LINE
  5
DB72
330
DA1C
100
AcDbEntity
  8
1
  6
Continuous
100
AcDbLine
 10
369.0234549999997
 20
335.164372
 30
0.0
 11
372.130871
 21
335.164372
 31
0.0
  0
LINE
  5
DB73
330
DA1C
100
AcDbEntity
  8
1
  6
Continuous
100
AcDbLine
 10
369.0234549999997
 20
338.050372
 30
0.0
 11
372.130871
 21
338.050372
 31
0.0
  0
LINE
  5
DB74
330
DA1C
100
AcDbEntity
  8
1
  6
Continuous
100
AcDbLine
 10
367.0771629999999
 20
332.2808289999999
 30
0.0
 11
368.577163
 21
333.7808289999999
 31
0.0
  0
LINE
  5
DB75
330
DA1C
100
AcDbEntity
  8
1
  6
Continuous
100
AcDbLine
 10
367.0771629999999
 20
330.776872
 30
0.0
 11
368.577163
 21
332.276872
 31
0.0
  0
LINE
  5
DB76
330
DA1C
100
AcDbEntity
  8
1
  6
Continuous
100
AcDbLine
 10
368.577163
 20
338.380829
 30
0.0
 11
367.0771629999999
 21
338.380829
 31
0.0
  0
LINE
  5
DB77
330
DA1C
100
AcDbEntity
  8
1
  6
Continuous
100
AcDbLine
 10
438.9155469999998
 20
215.368143
 30
0.0
 11
433.9083599999996
 21
303.999971
 31
0.0
  0
LINE
  5
DB78
330
DA1C
100
AcDbEntity
  8
1
  6
Continuous
100
AcDbLine
 10
455.264378
 20
215.368143
 30
0.0
 11
460.2715639999996
 21
303.999971
 31
0.0
  0
LINE
  5
DB79
330
DA1C
100
AcDbEntity
  8
1
  6
Continuous
100
AcDbLine
 10
440.8315919999998
 20
234.6398179999999
 30
0.0
 11
436.909699
 21
304.0609379999999
 31
0.0
  0
LINE
  5
DB7A
330
DA1C
100
AcDbEntity
  8
1
  6
Continuous
100
AcDbLine
 10
453.348332
 20
234.6398179999999
 30
0.0
 11
457.2702249999998
 21
304.0609379999999
 31
0.0
  0
LINE
  5
DB7B
330
DA1C
100
AcDbEntity
  8
1
  6
Continuous
100
AcDbLine
 10
446.3937999999997
 20
261.2808289999999
 30
0.0
 11
447.968775
 21
261.2808289999999
 31
0.0
  0
LINE
  5
DB7C
330
DA1C
100
AcDbEntity
  8
1
  6
Continuous
100
AcDbLine
 10
439.5525049999998
 20
257.2808289999999
 30
0.0
 11
454.627419
 21
257.2808289999999
 31
0.0
  0
LINE
  5
DB7D
330
DA1C
100
AcDbEntity
  8
1
  6
Continuous
100
AcDbLine
 10
439.891471
 20
251.280829
 30
0.0
 11
454.288453
 21
251.280829
 31
0.0
  0
LINE
  5
DB7E
330
DA1C
100
AcDbEntity
  8
1
  6
Continuous
100
AcDbLine
 10
443.327612
 20
232.280829
 30
0.0
 11
450.8523119999998
 21
232.280829
 31
0.0
  0
ARC
  5
DB7F
330
DA1C
100
AcDbEntity
  8
1
  6
Continuous
100
AcDbCircle
 10
447.0899619999998
 20
237.280829
 30
0.0
 40
11.0
100
AcDbArc
 50
255.382014
 51
284.6179859999999
  0
ARC
  5
DB80
330
DA1C
100
AcDbEntity
  8
1
  6
Continuous
100
AcDbCircle
 10
447.0899619999998
 20
237.280829
 30
0.0
 40
25.0
100
AcDbArc
 50
255.382014
 51
284.6179859999999
  0
ARC
  5
DB81
330
DA1C
100
AcDbEntity
  8
1
  6
Continuous
100
AcDbCircle
 10
441.411567
 20
215.5091539999999
 30
0.0
 40
2.5
100
AcDbArc
 50
183.233444
 51
255.382014
  0
ARC
  5
DB82
330
DA1C
100
AcDbEntity
  8
1
  6
Continuous
100
AcDbCircle
 10
443.327612
 20
234.780829
 30
0.0
 40
2.5
100
AcDbArc
 50
183.233444
 51
270.0
  0
LINE
  5
DB83
330
DA1C
100
AcDbEntity
  8
1
  6
Continuous
100
AcDbLine
 10
443.610754
 20
261.2808289999999
 30
0.0
 11
444.080554
 21
261.2808289999999
 31
0.0
  0
ARC
  5
DB84
330
DA1C
100
AcDbEntity
  8
1
  6
Continuous
100
AcDbCircle
 10
444.080554
 20
260.640829
 30
0.0
 40
0.6400000000000004
100
AcDbArc
 50
222.7718659999999
 51
90.0
  0
LINE
  5
DB85
330
DA1C
100
AcDbEntity
  8
1
  6
Continuous
100
AcDbLine
 10
443.610754
 20
261.2808289999999
 30
0.0
 11
443.610754
 21
259.2808289999999
 31
0.0
  0
LINE
  5
DB86
330
DA1C
100
AcDbEntity
  8
1
  6
Continuous
100
AcDbLine
 10
445.035468
 20
259.886029
 30
0.0
 11
446.088968
 21
259.886029
 31
0.0
  0
LINE
  5
DB87
330
DA1C
100
AcDbEntity
  8
1
  6
Continuous
100
AcDbLine
 10
445.570968
 20
261.2825839999998
 30
0.0
 11
446.3108179999998
 21
259.282579
 31
0.0
  0
LINE
  5
DB88
330
DA1C
100
AcDbEntity
  8
1
  6
Continuous
100
AcDbLine
 10
445.570968
 20
261.279069
 30
0.0
 11
444.7956679999998
 21
259.282579
 31
0.0
  0
ARC
  5
DB89
330
DA1C
100
AcDbEntity
  8
1
  6
Continuous
100
AcDbCircle
 10
452.7683579999998
 20
215.5091539999999
 30
0.0
 40
2.5
100
AcDbArc
 50
284.6179859999999
 51
356.766556
  0
ARC
  5
DB8A
330
DA1C
100
AcDbEntity
  8
1
  6
Continuous
100
AcDbCircle
 10
450.8523119999998
 20
234.780829
 30
0.0
 40
2.5
100
AcDbArc
 50
270.0
 51
356.766556
  0
LINE
  5
DB8B
330
DA1C
100
AcDbEntity
  8
1
  6
Continuous
100
AcDbLine
 10
447.177805
 20
261.2808289999999
 30
0.0
 11
447.177805
 21
259.2808289999999
 31
0.0
  0
CIRCLE
  5
DB8C
330
DA1C
100
AcDbEntity
  8
1
  6
Continuous
100
AcDbCircle
 10
448.96067
 20
259.320829
 30
0.0
 40
0.04
  0
LINE
  5
DB8D
330
DA1C
100
AcDbEntity
  8
1
  6
Continuous
100
AcDbLine
 10
449.6876059999998
 20
261.2808289999999
 30
0.0
 11
449.6876059999998
 21
259.2808289999999
 31
0.0
  0
LINE
  5
DB8E
330
DA1C
100
AcDbEntity
  8
1
  6
Continuous
100
AcDbLine
 10
449.6876059999998
 20
261.2808289999999
 30
0.0
 11
450.157407
 21
261.2808289999999
 31
0.0
  0
ARC
  5
DB8F
330
DA1C
100
AcDbEntity
  8
1
  6
Continuous
100
AcDbCircle
 10
450.157407
 20
260.640829
 30
0.0
 40
0.6400000000000004
100
AcDbArc
 50
222.7718659999999
 51
90.0
  0
LINE
  5
DB90
330
DA1C
100
AcDbEntity
  8
1
  6
Continuous
100
AcDbLine
 10
445.736471
 20
335.069747
 30
0.0
 11
447.0869969999998
 21
333.765559
 31
0.0
  0
LINE
  5
DB91
330
DA1C
100
AcDbEntity
  8
1
  6
Continuous
100
AcDbLine
 10
447.0899619999998
 20
338.053829
 30
0.0
 11
442.089962
 21
335.1678289999999
 31
0.0
  0
LINE
  5
DB92
330
DA1C
100
AcDbEntity
  8
1
  6
Continuous
100
AcDbLine
 10
447.0869969999998
 20
330.7961
 30
0.0
 11
445.736471
 21
329.491912
 31
0.0
  0
LINE
  5
DB93
330
DA1C
100
AcDbEntity
  8
1
  6
Continuous
100
AcDbLine
 10
442.089962
 20
329.3938289999999
 30
0.0
 11
447.0899619999998
 21
326.5068289999998
 31
0.0
  0
CIRCLE
  5
DB94
330
DA1C
100
AcDbEntity
  8
1
  6
Continuous
100
AcDbCircle
 10
447.0899619999998
 20
332.2808289999999
 30
0.0
 40
5.0
  0
CIRCLE
  5
DB95
330
DA1C
100
AcDbEntity
  8
1
  6
Continuous
100
AcDbCircle
 10
447.0899619999998
 20
332.2808289999999
 30
0.0
 40
4.049999999999998
  0
CIRCLE
  5
DB96
330
DA1C
100
AcDbEntity
  8
1
  6
Continuous
100
AcDbCircle
 10
447.0899619999998
 20
332.2808289999999
 30
0.0
 40
8.0
  0
CIRCLE
  5
DB97
330
DA1C
100
AcDbEntity
  8
1
  6
Continuous
100
AcDbCircle
 10
447.0899619999998
 20
332.2808289999999
 30
0.0
 40
6.099999999999997
  0
ARC
  5
DB98
330
DA1C
100
AcDbEntity
  8
1
  6
Continuous
100
AcDbCircle
 10
447.0899619999998
 20
332.2808289999999
 30
0.0
 40
10.25
100
AcDbArc
 50
72.03024599999998
 51
107.9697539999999
  0
LINE
  5
DB99
330
DA1C
100
AcDbEntity
  8
1
  6
Continuous
100
AcDbLine
 10
452.1828489999998
 20
342.0308289999999
 30
0.0
 11
441.997075
 21
342.0308289999999
 31
0.0
  0
ARC
  5
DB9A
330
DA1C
100
AcDbEntity
  8
2
  6
Continuous
100
AcDbCircle
 10
447.0899619999998
 20
332.2808289999999
 30
0.0
 40
11.0
100
AcDbArc
 50
62.419801
 51
117.5801989999998
  0
ARC
  5
DB9B
330
DA1C
100
AcDbEntity
  8
1
  6
Continuous
100
AcDbCircle
 10
447.0899619999998
 20
312.280829
 30
0.0
 40
4.0
100
AcDbArc
 50
152.571893
 51
27.428107
  0
ARC
  5
DB9C
330
DA1C
100
AcDbEntity
  8
1
  6
Continuous
100
AcDbCircle
 10
447.0899619999998
 20
312.280829
 30
0.0
 40
4.25
100
AcDbArc
 50
152.4205119999997
 51
27.579488
  0
ARC
  5
DB9D
330
DA1C
100
AcDbEntity
  8
1
  6
Continuous
100
AcDbCircle
 10
447.0899619999998
 20
332.2808289999999
 30
0.0
 40
10.25
100
AcDbArc
 50
252.0302459999999
 51
287.969754
  0
LINE
  5
DB9E
330
DA1C
100
AcDbEntity
  8
1
  6
Continuous
100
AcDbLine
 10
452.1828489999998
 20
322.530829
 30
0.0
 11
441.997075
 21
322.530829
 31
0.0
  0
ARC
  5
DB9F
330
DA1C
100
AcDbEntity
  8
2
  6
Continuous
100
AcDbCircle
 10
447.0899619999998
 20
332.2808289999999
 30
0.0
 40
11.0
100
AcDbArc
 50
242.419801
 51
297.5801989999999
  0
LINE
  5
DBA0
330
DA1C
100
AcDbEntity
  8
4
  6
CENTER
100
AcDbLine
 10
453.659483
 20
312.280829
 30
0.0
 11
441.589962
 21
312.280829
 31
0.0
  0
CIRCLE
  5
DBA1
330
DA1C
100
AcDbEntity
  8
1
  6
Continuous
100
AcDbCircle
 10
447.0899619999998
 20
332.2808289999999
 30
0.0
 40
11.5
  0
ARC
  5
DBA2
330
DA1C
100
AcDbEntity
  8
1
  6
Continuous
100
AcDbCircle
 10
452.362123
 20
286.6784629999999
 30
0.0
 40
5.732929999999998
100
AcDbArc
 50
144.462
 51
215.5379999999999
  0
LINE
  5
DBA3
330
DA1C
100
AcDbEntity
  8
4
  6
CENTER
100
AcDbLine
 10
482.089962
 20
332.2808289999999
 30
0.0
 11
412.089962
 21
332.2808289999999
 31
0.0
  0
LINE
  5
DBA4
330
DA1C
100
AcDbEntity
  8
1
  6
Continuous
100
AcDbLine
 10
429.589962
 20
322.1771989999999
 30
0.0
 11
447.0899619999998
 21
312.07357
 31
0.0
  0
CIRCLE
  5
DBA5
330
DA1C
100
AcDbEntity
  8
1
  6
Continuous
100
AcDbCircle
 10
447.0899619999998
 20
332.2808289999999
 30
0.0
 40
16.0
  0
CIRCLE
  5
DBA6
330
DA1C
100
AcDbEntity
  8
1
  6
Continuous
100
AcDbCircle
 10
447.0899619999998
 20
332.2808289999999
 30
0.0
 40
17.5
  0
LINE
  5
DBA7
330
DA1C
100
AcDbEntity
  8
1
  6
Continuous
100
AcDbLine
 10
445.8821679999998
 20
265.9995629999999
 30
0.0
 11
446.4648429999998
 21
265.4466409999999
 31
0.0
  0
LINE
  5
DBA8
330
DA1C
100
AcDbEntity
  8
1
  6
Continuous
100
AcDbLine
 10
446.4648429999998
 20
265.4466409999999
 30
0.0
 11
444.4648429999999
 21
265.4466409999999
 31
0.0
  0
LINE
  5
DBA9
330
DA1C
100
AcDbEntity
  8
1
  6
Continuous
100
AcDbLine
 10
445.4648429999998
 20
267.0470209999999
 30
0.0
 11
445.4648429999998
 21
266.420471
 31
0.0
  0
LINE
  5
DBAA
330
DA1C
100
AcDbEntity
  8
1
  6
Continuous
100
AcDbLine
 10
445.852743
 20
269.444723
 30
0.0
 11
445.076943
 21
269.444723
 31
0.0
  0
ARC
  5
DBAB
330
DA1C
100
AcDbEntity
  8
1
  6
Continuous
100
AcDbCircle
 10
445.852743
 20
268.8183729999999
 30
0.0
 40
0.62634
100
AcDbArc
 50
45.92799999999999
 51
90.0
  0
ARC
  5
DBAC
330
DA1C
100
AcDbEntity
  8
1
  6
Continuous
100
AcDbCircle
 10
445.885503
 20
268.8522229999999
 30
0.0
 40
0.57924
100
AcDbArc
 50
314.0724999999998
 51
45.92799999999999
  0
ARC
  5
DBAD
330
DA1C
100
AcDbEntity
  8
1
  6
Continuous
100
AcDbCircle
 10
445.076943
 20
268.8183729999999
 30
0.0
 40
0.62634
100
AcDbArc
 50
90.0
 51
134.072
  0
ARC
  5
DBAE
330
DA1C
100
AcDbEntity
  8
1
  6
Continuous
100
AcDbCircle
 10
445.0441829999999
 20
268.8522229999999
 30
0.0
 40
0.57924
100
AcDbArc
 50
134.072
 51
225.9269999999999
  0
LINE
  5
DBAF
330
DA1C
100
AcDbEntity
  8
1
  6
Continuous
100
AcDbLine
 10
445.852743
 20
268.259723
 30
0.0
 11
445.076943
 21
268.259723
 31
0.0
  0
ARC
  5
DBB0
330
DA1C
100
AcDbEntity
  8
1
  6
Continuous
100
AcDbCircle
 10
445.852743
 20
268.886073
 30
0.0
 40
0.62634
100
AcDbArc
 50
270.0
 51
314.0724999999998
  0
ARC
  5
DBB1
330
DA1C
100
AcDbEntity
  8
1
  6
Continuous
100
AcDbCircle
 10
445.076943
 20
268.886073
 30
0.0
 40
0.62634
100
AcDbArc
 50
225.9269999999999
 51
270.0
  0
ARC
  5
DBB2
330
DA1C
100
AcDbEntity
  8
1
  6
Continuous
100
AcDbCircle
 10
445.0148429999998
 20
270.822069
 30
0.0
 40
0.5225300000000001
100
AcDbArc
 50
103.0139999999999
 51
137.1299999999999
  0
ARC
  5
DBB3
330
DA1C
100
AcDbEntity
  8
1
  6
Continuous
100
AcDbCircle
 10
445.0148429999998
 20
270.6821289999999
 30
0.0
 40
0.5225300000000001
100
AcDbArc
 50
222.8699999999999
 51
317.1304
  0
ARC
  5
DBB4
330
DA1C
100
AcDbEntity
  8
1
  6
Continuous
100
AcDbCircle
 10
444.939466
 20
270.7520989999998
 30
0.0
 40
0.6253750000000001
100
AcDbArc
 50
317.1304
 51
327.1503
  0
ARC
  5
DBB5
330
DA1C
100
AcDbEntity
  8
1
  6
Continuous
100
AcDbCircle
 10
445.0902179999998
 20
270.7520989999998
 30
0.0
 40
0.6253750000000001
100
AcDbArc
 50
137.1299999999999
 51
222.8699999999999
  0
ARC
  5
DBB6
330
DA1C
100
AcDbEntity
  8
1
  6
Continuous
100
AcDbCircle
 10
445.9148429999998
 20
270.822069
 30
0.0
 40
0.5225300000000001
100
AcDbArc
 50
42.86999999999999
 51
108.2079999999999
  0
ARC
  5
DBB7
330
DA1C
100
AcDbEntity
  8
1
  6
Continuous
100
AcDbCircle
 10
445.9148429999998
 20
270.6821289999999
 30
0.0
 40
0.5225300000000001
100
AcDbArc
 50
222.8699999999999
 51
317.1304
  0
ARC
  5
DBB8
330
DA1C
100
AcDbEntity
  8
1
  6
Continuous
100
AcDbCircle
 10
445.8394679999996
 20
270.7520989999998
 30
0.0
 40
0.6253750000000001
100
AcDbArc
 50
317.1304
 51
42.86999999999999
  0
ARC
  5
DBB9
330
DA1C
100
AcDbEntity
  8
1
  6
Continuous
100
AcDbCircle
 10
445.9902179999998
 20
270.7520989999998
 30
0.0
 40
0.6253750000000001
100
AcDbArc
 50
212.8499999999999
 51
222.8699999999999
  0
LINE
  5
DBBA
330
DA1C
100
AcDbEntity
  8
1
  6
Continuous
100
AcDbLine
 10
445.4648429999998
 20
270.705579
 30
0.0
 11
445.4648429999998
 21
270.412869
 31
0.0
  0
LINE
  5
DBBB
330
DA1C
100
AcDbEntity
  8
1
  6
Continuous
100
AcDbLine
 10
445.4648429999998
 20
272.5545509999999
 30
0.0
 11
445.4648429999998
 21
272.2618409999999
 31
0.0
  0
ARC
  5
DBBC
330
DA1C
100
AcDbEntity
  8
1
  6
Continuous
100
AcDbCircle
 10
445.9902179999998
 20
272.601071
 30
0.0
 40
0.6253750000000001
100
AcDbArc
 50
212.8499999999999
 51
222.8699999999999
  0
ARC
  5
DBBD
330
DA1C
100
AcDbEntity
  8
1
  6
Continuous
100
AcDbCircle
 10
445.8394679999996
 20
272.601071
 30
0.0
 40
0.6253750000000001
100
AcDbArc
 50
317.1304
 51
42.86999999999999
  0
ARC
  5
DBBE
330
DA1C
100
AcDbEntity
  8
1
  6
Continuous
100
AcDbCircle
 10
445.9148429999998
 20
272.5311009999999
 30
0.0
 40
0.5225300000000001
100
AcDbArc
 50
222.8699999999999
 51
317.1304
  0
ARC
  5
DBBF
330
DA1C
100
AcDbEntity
  8
1
  6
Continuous
100
AcDbCircle
 10
445.9148429999998
 20
272.6710409999999
 30
0.0
 40
0.5225300000000001
100
AcDbArc
 50
42.86999999999999
 51
108.2079999999999
  0
ARC
  5
DBC0
330
DA1C
100
AcDbEntity
  8
1
  6
Continuous
100
AcDbCircle
 10
445.0902179999998
 20
272.601071
 30
0.0
 40
0.6253750000000001
100
AcDbArc
 50
137.1299999999999
 51
222.8699999999999
  0
ARC
  5
DBC1
330
DA1C
100
AcDbEntity
  8
1
  6
Continuous
100
AcDbCircle
 10
444.939466
 20
272.601071
 30
0.0
 40
0.6253750000000001
100
AcDbArc
 50
317.1304
 51
327.1503
  0
ARC
  5
DBC2
330
DA1C
100
AcDbEntity
  8
1
  6
Continuous
100
AcDbCircle
 10
445.0148429999998
 20
272.5311009999999
 30
0.0
 40
0.5225300000000001
100
AcDbArc
 50
222.8699999999999
 51
317.1304
  0
ARC
  5
DBC3
330
DA1C
100
AcDbEntity
  8
1
  6
Continuous
100
AcDbCircle
 10
445.0148429999998
 20
272.6710409999999
 30
0.0
 40
0.5225300000000001
100
AcDbArc
 50
103.0139999999999
 51
137.1299999999999
  0
LINE
  5
DBC4
330
DA1C
100
AcDbEntity
  8
1
  6
Continuous
100
AcDbLine
 10
446.479798
 20
279.227551
 30
0.0
 11
444.479793
 21
279.227551
 31
0.0
  0
LINE
  5
DBC5
330
DA1C
100
AcDbEntity
  8
1
  6
Continuous
100
AcDbLine
 10
446.4648429999998
 20
280.601066
 30
0.0
 11
444.4648429999999
 21
280.601066
 31
0.0
  0
LINE
  5
DBC6
330
DA1C
100
AcDbEntity
  8
1
  6
Continuous
100
AcDbLine
 10
446.4648429999998
 20
281.385071
 30
0.0
 11
446.4648429999998
 21
279.8100959999998
 31
0.0
  0
LINE
  5
DBC7
330
DA1C
100
AcDbEntity
  8
1
  6
Continuous
100
AcDbLine
 10
446.4630829999999
 20
276.6010709999998
 30
0.0
 11
444.466593
 21
277.376371
 31
0.0
  0
LINE
  5
DBC8
330
DA1C
100
AcDbEntity
  8
1
  6
Continuous
100
AcDbLine
 10
446.479798
 20
277.9745709999999
 30
0.0
 11
444.479793
 21
277.9745709999999
 31
0.0
  0
LINE
  5
DBC9
330
DA1C
100
AcDbEntity
  8
1
  6
Continuous
100
AcDbLine
 10
446.4665979999998
 20
276.6010709999998
 30
0.0
 11
444.466593
 21
275.8612209999999
 31
0.0
  0
LINE
  5
DBCA
330
DA1C
100
AcDbEntity
  8
1
  6
Continuous
100
AcDbLine
 10
445.070043
 20
277.1365709999999
 30
0.0
 11
445.070043
 21
276.083071
 31
0.0
  0
LINE
  5
DBCB
330
DA1C
100
AcDbEntity
  8
1
  6
Continuous
100
AcDbLine
 10
445.4648429999998
 20
274.9143209999999
 30
0.0
 11
445.4648429999998
 21
274.287771
 31
0.0
  0
LINE
  5
DBCC
330
DA1C
100
AcDbEntity
  8
1
  6
Continuous
100
AcDbLine
 10
445.4648429999998
 20
279.227551
 30
0.0
 11
445.4648429999998
 21
277.9745709999999
 31
0.0
  0
ARC
  5
DBCD
330
DA1C
100
AcDbEntity
  8
1
  6
Continuous
100
AcDbCircle
 10
633.589962
 20
315.2808289999999
 30
0.0
 40
200.0
100
AcDbArc
 50
182.841123
 51
183.233444
  0
ARC
  5
DBCE
330
DA1C
100
AcDbEntity
  8
1
  6
Continuous
100
AcDbCircle
 10
447.0899619999998
 20
332.2808289999999
 30
0.0
 40
3.1
100
AcDbArc
 50
205.887785
 51
244.112215
  0
LINE
  5
DBCF
330
DA1C
100
AcDbEntity
  8
1
  6
Continuous
100
AcDbLine
 10
442.089962
 20
329.3938289999999
 30
0.0
 11
442.089962
 21
335.1678289999999
 31
0.0
  0
ARC
  5
DBD0
330
DA1C
100
AcDbEntity
  8
2
  6
Continuous
100
AcDbCircle
 10
447.0899619999998
 20
332.2808289999999
 30
0.0
 40
10.18799999999999
100
AcDbArc
 50
106.8615909999999
 51
253.1384089999999
  0
LINE
  5
DBD1
330
DA1C
100
AcDbEntity
  8
1
  6
Continuous
100
AcDbLine
 10
429.589962
 20
342.3844589999998
 30
0.0
 11
429.589962
 21
322.1771989999999
 31
0.0
  0
ARC
  5
DBD2
330
DA1C
100
AcDbEntity
  8
1
  6
Continuous
100
AcDbCircle
 10
447.0899619999998
 20
332.2808289999999
 30
0.0
 40
11.0
100
AcDbArc
 50
117.5801989999998
 51
242.419801
  0
ARC
  5
DBD3
330
DA1C
100
AcDbEntity
  8
1
  6
Continuous
100
AcDbCircle
 10
447.0899619999998
 20
332.2808289999999
 30
0.0
 40
3.1
100
AcDbArc
 50
115.8877849999998
 51
154.1122149999999
  0
LINE
  5
DBD4
330
DA1C
100
AcDbEntity
  8
1
  6
Continuous
100
AcDbLine
 10
445.606138
 20
332.2808289999999
 30
0.0
 11
445.605232
 21
332.2778649999999
 31
0.0
  0
LINE
  5
DBD5
330
DA1C
100
AcDbEntity
  8
1
  6
Continuous
100
AcDbLine
 10
445.606138
 20
332.2808289999999
 30
0.0
 11
445.605232
 21
332.2837939999997
 31
0.0
  0
LINE
  5
DBD6
330
DA1C
100
AcDbEntity
  8
1
  6
Continuous
100
AcDbLine
 10
445.605232
 20
332.2778649999999
 30
0.0
 11
444.3010440000001
 21
330.9273379999999
 31
0.0
  0
LINE
  5
DBD7
330
DA1C
100
AcDbEntity
  8
1
  6
Continuous
100
AcDbLine
 10
444.3010440000001
 20
333.6343199999999
 30
0.0
 11
445.605232
 21
332.2837939999997
 31
0.0
  0
ARC
  5
DBD8
330
DA1C
100
AcDbEntity
  8
1
  6
Continuous
100
AcDbCircle
 10
450.0921449999998
 20
285.9666139999998
 30
0.0
 40
0.044452
100
AcDbArc
 50
352.2069999999998
 51
90.0
  0
ARC
  5
DBD9
330
DA1C
100
AcDbEntity
  8
1
  6
Continuous
100
AcDbCircle
 10
447.1662549999998
 20
285.9666139999998
 30
0.0
 40
0.044452
100
AcDbArc
 50
90.0
 51
187.793
  0
ARC
  5
DBDA
330
DA1C
100
AcDbEntity
  8
1
  6
Continuous
100
AcDbCircle
 10
444.8962769999998
 20
286.6784629999999
 30
0.0
 40
5.732929999999998
100
AcDbArc
 50
324.4619999999998
 51
35.5377
  0
LINE
  5
DBDB
330
DA1C
100
AcDbEntity
  8
1
  6
Continuous
100
AcDbLine
 10
448.6296509999998
 20
285.566932
 30
0.0
 11
448.6296509999998
 21
285.7888779999999
 31
0.0
  0
ARC
  5
DBDC
330
DA1C
100
AcDbEntity
  8
1
  6
Continuous
100
AcDbCircle
 10
449.8837329999998
 20
285.7888779999999
 30
0.0
 40
0.222261
100
AcDbArc
 50
270.0
 51
349.8959999999998
  0
ARC
  5
DBDD
330
DA1C
100
AcDbEntity
  8
1
  6
Continuous
100
AcDbCircle
 10
447.3746669999998
 20
285.7888779999999
 30
0.0
 40
0.222261
100
AcDbArc
 50
190.1039999999999
 51
270.0
  0
ARC
  5
DBDE
330
DA1C
100
AcDbEntity
  8
1
  6
Continuous
100
AcDbCircle
 10
444.8962769999998
 20
286.6784629999999
 30
0.0
 40
5.288524999999999
100
AcDbArc
 50
349.8959999999998
 51
352.2069999999998
  0
ARC
  5
DBDF
330
DA1C
100
AcDbEntity
  8
1
  6
Continuous
100
AcDbCircle
 10
452.362123
 20
286.6784629999999
 30
0.0
 40
5.288524999999999
100
AcDbArc
 50
187.793
 51
190.1039999999999
  0
LINE
  5
DBE0
330
DA1C
100
AcDbEntity
  8
1
  6
Continuous
100
AcDbLine
 10
450.0921449999998
 20
286.011725
 30
0.0
 11
447.1662549999998
 21
286.011725
 31
0.0
  0
LINE
  5
DBE1
330
DA1C
100
AcDbEntity
  8
1
  6
Continuous
100
AcDbLine
 10
449.162861
 20
285.566932
 30
0.0
 11
449.8837329999998
 21
285.566932
 31
0.0
  0
LINE
  5
DBE2
330
DA1C
100
AcDbEntity
  8
1
  6
Continuous
100
AcDbLine
 10
449.8810259999998
 20
284.6782479999999
 30
0.0
 11
448.8515969999999
 21
284.6782479999999
 31
0.0
  0
LINE
  5
DBE3
330
DA1C
100
AcDbEntity
  8
1
  6
Continuous
100
AcDbLine
 10
448.6296509999998
 20
284.4563029999998
 30
0.0
 11
447.5632309999999
 21
284.4563029999998
 31
0.0
  0
LINE
  5
DBE4
330
DA1C
100
AcDbEntity
  8
1
  6
Continuous
100
AcDbLine
 10
447.3746669999998
 20
285.566932
 30
0.0
 11
448.6296509999998
 21
285.566932
 31
0.0
  0
LINE
  5
DBE5
330
DA1C
100
AcDbEntity
  8
1
  6
Continuous
100
AcDbLine
 10
450.090341
 20
285.1230409999999
 30
0.0
 11
447.307903
 21
285.1230409999999
 31
0.0
  0
ARC
  5
DBE6
330
DA1C
100
AcDbEntity
  8
1
  6
Continuous
100
AcDbCircle
 10
448.9218629999998
 20
278.8266959999999
 30
0.0
 40
0.76574
100
AcDbArc
 50
311.0679
 51
48.932
  0
ARC
  5
DBE7
330
DA1C
100
AcDbEntity
  8
1
  6
Continuous
100
AcDbCircle
 10
448.5253429999998
 20
278.8266959999999
 30
0.0
 40
0.76574
100
AcDbArc
 50
131.0679999999997
 51
228.932
  0
ARC
  5
DBE8
330
DA1C
100
AcDbEntity
  8
1
  6
Continuous
100
AcDbCircle
 10
448.723603
 20
279.0542259999999
 30
0.0
 40
1.067529999999997
100
AcDbArc
 50
228.932
 51
311.0679
  0
ARC
  5
DBE9
330
DA1C
100
AcDbEntity
  8
1
  6
Continuous
100
AcDbCircle
 10
448.723603
 20
278.599171
 30
0.0
 40
1.067529999999997
100
AcDbArc
 50
48.932
 51
131.0679999999997
  0
ARC
  5
DBEA
330
DA1C
100
AcDbEntity
  8
1
  6
Continuous
100
AcDbCircle
 10
448.454203
 20
271.674371
 30
0.0
 40
0.72
100
AcDbArc
 50
179.5819999999999
 51
281.6541
  0
ARC
  5
DBEB
330
DA1C
100
AcDbEntity
  8
1
  6
Continuous
100
AcDbCircle
 10
448.499638
 20
271.679621
 30
0.0
 40
0.76574
100
AcDbArc
 50
131.0679999999997
 51
186.5909999999999
  0
ARC
  5
DBEC
330
DA1C
100
AcDbEntity
  8
1
  6
Continuous
100
AcDbCircle
 10
448.697903
 20
271.452121
 30
0.0
 40
1.067529999999997
100
AcDbArc
 50
48.932
 51
131.0679999999997
  0
ARC
  5
DBED
330
DA1C
100
AcDbEntity
  8
1
  6
Continuous
100
AcDbCircle
 10
448.896163
 20
271.679621
 30
0.0
 40
0.76574
100
AcDbArc
 50
340.8072
 51
48.932
  0
ARC
  5
DBEE
330
DA1C
100
AcDbEntity
  8
1
  6
Continuous
100
AcDbCircle
 10
449.1347179999998
 20
271.5965709999999
 30
0.0
 40
0.513145
100
AcDbArc
 50
275.65924
 51
340.8072
  0
ARC
  5
DBEF
330
DA1C
100
AcDbEntity
  8
1
  6
Continuous
100
AcDbCircle
 10
448.297388
 20
276.6450209999998
 30
0.0
 40
0.513145
100
AcDbArc
 50
199.193
 51
264.341
  0
ARC
  5
DBF0
330
DA1C
100
AcDbEntity
  8
1
  6
Continuous
100
AcDbCircle
 10
449.1710179999998
 20
276.6450209999998
 30
0.0
 40
0.513145
100
AcDbArc
 50
275.65924
 51
340.8072
  0
ARC
  5
DBF1
330
DA1C
100
AcDbEntity
  8
1
  6
Continuous
100
AcDbCircle
 10
448.9324629999998
 20
276.728071
 30
0.0
 40
0.76574
100
AcDbArc
 50
340.8072
 51
48.932
  0
ARC
  5
DBF2
330
DA1C
100
AcDbEntity
  8
1
  6
Continuous
100
AcDbCircle
 10
448.5359429999999
 20
276.728071
 30
0.0
 40
0.76574
100
AcDbArc
 50
131.0679999999997
 51
199.193
  0
ARC
  5
DBF3
330
DA1C
100
AcDbEntity
  8
1
  6
Continuous
100
AcDbCircle
 10
448.7342029999998
 20
276.5005209999998
 30
0.0
 40
1.067529999999997
100
AcDbArc
 50
48.932
 51
131.0679999999997
  0
LINE
  5
DBF4
330
DA1C
100
AcDbEntity
  8
1
  6
Continuous
100
AcDbLine
 10
448.5959629999999
 20
268.990971
 30
0.0
 11
449.7664429999998
 21
269.664671
 31
0.0
  0
LINE
  5
DBF5
330
DA1C
100
AcDbEntity
  8
1
  6
Continuous
100
AcDbLine
 10
448.5923529999998
 20
268.990971
 30
0.0
 11
449.767703
 21
268.3123709999999
 31
0.0
  0
LINE
  5
DBF6
330
DA1C
100
AcDbEntity
  8
1
  6
Continuous
100
AcDbLine
 10
449.7518079999998
 20
270.389521
 30
0.0
 11
447.6503679999996
 21
270.389521
 31
0.0
  0
LINE
  5
DBF7
330
DA1C
100
AcDbEntity
  8
1
  6
Continuous
100
AcDbLine
 10
448.3015729999998
 20
270.969221
 30
0.0
 11
447.664843
 21
270.969221
 31
0.0
  0
LINE
  5
DBF8
330
DA1C
100
AcDbEntity
  8
1
  6
Continuous
100
AcDbLine
 10
448.5923579999997
 20
268.990971
 30
0.0
 11
447.6503679999996
 21
268.990971
 31
0.0
  0
LINE
  5
DBF9
330
DA1C
100
AcDbEntity
  8
1
  6
Continuous
100
AcDbLine
 10
449.7010879999998
 20
267.1250709999998
 30
0.0
 11
447.6575679999998
 21
267.9185209999999
 31
0.0
  0
LINE
  5
DBFA
330
DA1C
100
AcDbEntity
  8
1
  6
Continuous
100
AcDbLine
 10
449.7518079999998
 20
273.309771
 30
0.0
 11
447.6503679999996
 21
273.309771
 31
0.0
  0
LINE
  5
DBFB
330
DA1C
100
AcDbEntity
  8
1
  6
Continuous
100
AcDbLine
 10
449.7518079999998
 20
274.0127709999998
 30
0.0
 11
447.6503679999996
 21
274.0127709999998
 31
0.0
  0
LINE
  5
DBFC
330
DA1C
100
AcDbEntity
  8
1
  6
Continuous
100
AcDbLine
 10
448.599648
 20
271.672121
 30
0.0
 11
448.599648
 21
270.969221
 31
0.0
  0
LINE
  5
DBFD
330
DA1C
100
AcDbEntity
  8
1
  6
Continuous
100
AcDbLine
 10
449.7518079999998
 20
275.309771
 30
0.0
 11
447.6503679999996
 21
275.309771
 31
0.0
  0
LINE
  5
DBFE
330
DA1C
100
AcDbEntity
  8
1
  6
Continuous
100
AcDbLine
 10
449.6648429999998
 20
281.628676
 30
0.0
 11
449.6648429999998
 21
279.998256
 31
0.0
  0
LINE
  5
DBFF
330
DA1C
100
AcDbEntity
  8
1
  6
Continuous
100
AcDbLine
 10
449.6648429999998
 20
280.8170559999999
 30
0.0
 11
447.664843
 21
280.8170559999999
 31
0.0
  0
LINE
  5
DC00
330
DA1C
100
AcDbEntity
  8
1
  6
Continuous
100
AcDbLine
 10
448.7010879999998
 20
275.309771
 30
0.0
 11
448.7010879999998
 21
274.0127709999998
 31
0.0
  0
LINE
  5
DC01
330
DA1C
100
AcDbEntity
  8
1
  6
Continuous
100
AcDbLine
 10
449.704683
 20
267.1250709999998
 30
0.0
 11
447.657563
 21
266.3677709999999
 31
0.0
  0
LINE
  5
DC02
330
DA1C
100
AcDbEntity
  8
1
  6
Continuous
100
AcDbLine
 10
448.258998
 20
267.679371
 30
0.0
 11
448.258998
 21
266.5888209999998
 31
0.0
  0
LINE
  5
DC03
330
DA1C
100
AcDbEntity
  8
1
  6
Continuous
100
AcDbLine
 10
448.8515969999999
 20
284.2334549999998
 30
0.0
 11
449.800729
 21
284.2334549999998
 31
0.0
  0
LINE
  5
DC04
330
DA1C
100
AcDbEntity
  8
1
  6
Continuous
100
AcDbLine
 10
447.7978069999998
 20
284.007901
 30
0.0
 11
449.6708099999998
 21
283.5053659999999
 31
0.0
  0
LINE
  5
DC05
330
DA1C
100
AcDbEntity
  8
1
  6
Continuous
100
AcDbLine
 10
448.6296509999998
 20
282.866597
 30
0.0
 11
448.6296509999998
 21
283.785054
 31
0.0
  0
ARC
  5
DC06
330
DA1C
100
AcDbEntity
  8
1
  6
Continuous
100
AcDbCircle
 10
448.6296509999998
 20
284.0115099999998
 30
0.0
 40
1.145318999999998
100
AcDbArc
 50
242.2499999999998
 51
324.4619999999998
  0
ARC
  5
DC07
330
DA1C
100
AcDbEntity
  8
1
  6
Continuous
100
AcDbCircle
 10
448.6296509999998
 20
284.0115099999998
 30
0.0
 40
1.145318999999998
100
AcDbArc
 50
215.5379999999999
 51
225.699
  0
ARC
  5
DC08
330
DA1C
100
AcDbEntity
  8
1
  6
Continuous
100
AcDbCircle
 10
448.8515969999999
 20
284.4563029999998
 30
0.0
 40
0.222261
100
AcDbArc
 50
90.0
 51
270.0
  0
ARC
  5
DC09
330
DA1C
100
AcDbEntity
  8
1
  6
Continuous
100
AcDbCircle
 10
260.589962
 20
315.2808289999999
 30
0.0
 40
200.0
100
AcDbArc
 50
356.766556
 51
357.158877
  0
LINE
  5
DC0A
330
DA1C
100
AcDbEntity
  8
1
  6
Continuous
100
AcDbLine
 10
449.848546
 20
289.5664599999999
 30
0.0
 11
447.932237
 21
289.5664599999999
 31
0.0
  0
LINE
  5
DC0B
330
DA1C
100
AcDbEntity
  8
1
  6
Continuous
100
AcDbLine
 10
447.809536
 20
289.122569
 30
0.0
 11
449.4488639999998
 21
289.122569
 31
0.0
  0
LINE
  5
DC0C
330
DA1C
100
AcDbEntity
  8
1
  6
Continuous
100
AcDbLine
 10
449.725845
 20
288.677776
 30
0.0
 11
447.533458
 21
288.677776
 31
0.0
  0
LINE
  5
DC0D
330
DA1C
100
AcDbEntity
  8
1
  6
Continuous
100
AcDbLine
 10
449.162861
 20
287.7890929999999
 30
0.0
 11
450.010945
 21
287.7890929999999
 31
0.0
  0
LINE
  5
DC0E
330
DA1C
100
AcDbEntity
  8
1
  6
Continuous
100
AcDbLine
 10
448.6296509999998
 20
286.9004089999999
 30
0.0
 11
448.6296509999998
 21
287.3442999999999
 31
0.0
  0
ARC
  5
DC0F
330
DA1C
100
AcDbEntity
  8
1
  6
Continuous
100
AcDbCircle
 10
448.6296509999998
 20
289.344515
 30
0.0
 40
1.145318999999998
100
AcDbArc
 50
35.5377
 51
76.5374
  0
ARC
  5
DC10
330
DA1C
100
AcDbEntity
  8
1
  6
Continuous
100
AcDbCircle
 10
448.6296509999998
 20
289.344515
 30
0.0
 40
1.145318999999998
100
AcDbArc
 50
90.0
 51
144.462
  0
ARC
  5
DC11
330
DA1C
100
AcDbEntity
  8
1
  6
Continuous
100
AcDbCircle
 10
449.4488639999998
 20
288.8997219999998
 30
0.0
 40
0.222261
100
AcDbArc
 50
26.0144
 51
90.0
  0
ARC
  5
DC12
330
DA1C
100
AcDbEntity
  8
1
  6
Continuous
100
AcDbCircle
 10
444.8962769999998
 20
286.6784629999999
 30
0.0
 40
5.288524999999999
100
AcDbArc
 50
22.94399999999999
 51
26.0144
  0
ARC
  5
DC13
330
DA1C
100
AcDbEntity
  8
1
  6
Continuous
100
AcDbCircle
 10
449.725845
 20
288.721985
 30
0.0
 40
0.044452
100
AcDbArc
 50
270.0
 51
22.94399999999999
  0
ARC
  5
DC14
330
DA1C
100
AcDbEntity
  8
1
  6
Continuous
100
AcDbCircle
 10
447.809536
 20
288.8997219999998
 30
0.0
 40
0.222261
100
AcDbArc
 50
90.0
 51
153.986
  0
ARC
  5
DC15
330
DA1C
100
AcDbEntity
  8
1
  6
Continuous
100
AcDbCircle
 10
450.010945
 20
287.833301
 30
0.0
 40
0.044452
100
AcDbArc
 50
270.0
 51
12.7289
  0
ARC
  5
DC16
330
DA1C
100
AcDbEntity
  8
1
  6
Continuous
100
AcDbCircle
 10
444.8962769999998
 20
286.6784629999999
 30
0.0
 40
5.288524999999999
100
AcDbArc
 50
12.7289
 51
13.2681
  0
ARC
  5
DC17
330
DA1C
100
AcDbEntity
  8
1
  6
Continuous
100
AcDbCircle
 10
444.8962769999998
 20
286.6784629999999
 30
0.0
 40
5.288524999999999
100
AcDbArc
 50
13.2681
 51
15.2575
  0
ARC
  5
DC18
330
DA1C
100
AcDbEntity
  8
1
  6
Continuous
100
AcDbCircle
 10
449.783587
 20
288.0110379999999
 30
0.0
 40
0.222261
100
AcDbArc
 50
15.2575
 51
90.0
  0
ARC
  5
DC19
330
DA1C
100
AcDbEntity
  8
1
  6
Continuous
100
AcDbCircle
 10
447.474813
 20
288.0110379999999
 30
0.0
 40
0.222261
100
AcDbArc
 50
90.0
 51
164.7419999999998
  0
ARC
  5
DC1A
330
DA1C
100
AcDbEntity
  8
1
  6
Continuous
100
AcDbCircle
 10
452.362123
 20
286.6784629999999
 30
0.0
 40
5.288524999999999
100
AcDbArc
 50
164.7419999999998
 51
164.794
  0
ARC
  5
DC1B
330
DA1C
100
AcDbEntity
  8
1
  6
Continuous
100
AcDbCircle
 10
452.362123
 20
286.6784629999999
 30
0.0
 40
5.288524999999999
100
AcDbArc
 50
164.794
 51
167.2709999999999
  0
ARC
  5
DC1C
330
DA1C
100
AcDbEntity
  8
1
  6
Continuous
100
AcDbCircle
 10
447.247455
 20
287.833301
 30
0.0
 40
0.044452
100
AcDbArc
 50
167.2709999999999
 51
270.0
  0
LINE
  5
DC1D
330
DA1C
100
AcDbEntity
  8
1
  6
Continuous
100
AcDbLine
 10
449.783587
 20
288.2338859999999
 30
0.0
 11
447.474813
 21
288.2338859999999
 31
0.0
  0
LINE
  5
DC1E
330
DA1C
100
AcDbEntity
  8
1
  6
Continuous
100
AcDbLine
 10
447.247455
 20
287.7890929999999
 30
0.0
 11
448.096441
 21
287.7890929999999
 31
0.0
  0
LINE
  5
DC1F
330
DA1C
100
AcDbEntity
  8
1
  6
Continuous
100
AcDbLine
 10
450.142669
 20
287.3442999999999
 30
0.0
 11
447.1157309999998
 21
287.3442999999999
 31
0.0
  0
LINE
  5
DC20
330
DA1C
100
AcDbEntity
  8
1
  6
Continuous
100
AcDbLine
 10
450.1796599999996
 20
286.9004089999999
 30
0.0
 11
447.0787399999998
 21
286.9004089999999
 31
0.0
  0
ARC
  5
DC21
330
DA1C
100
AcDbEntity
  8
1
  6
Continuous
100
AcDbCircle
 10
447.533458
 20
288.721985
 30
0.0
 40
0.044452
100
AcDbArc
 50
157.056
 51
270.0
  0
ARC
  5
DC22
330
DA1C
100
AcDbEntity
  8
1
  6
Continuous
100
AcDbCircle
 10
452.362123
 20
286.6784629999999
 30
0.0
 40
5.288524999999999
100
AcDbArc
 50
153.986
 51
157.056
  0
LINE
  5
DC23
330
DA1C
100
AcDbEntity
  8
1
  6
Continuous
100
AcDbLine
 10
450.1796599999996
 20
286.455616
 30
0.0
 11
447.0787399999998
 21
286.455616
 31
0.0
  0
LINE
  5
DC24
330
DA1C
100
AcDbEntity
  8
1
  6
Continuous
100
AcDbLine
 10
452.089962
 20
329.3938289999999
 30
0.0
 11
452.089962
 21
335.1678289999999
 31
0.0
  0
LINE
  5
DC25
330
DA1C
100
AcDbEntity
  8
1
  6
Continuous
100
AcDbLine
 10
448.4434529999998
 20
329.491912
 30
0.0
 11
447.092926
 21
330.7961
 31
0.0
  0
ARC
  5
DC26
330
DA1C
100
AcDbEntity
  8
1
  6
Continuous
100
AcDbCircle
 10
447.0899619999998
 20
332.2808289999999
 30
0.0
 40
3.1
100
AcDbArc
 50
295.887785
 51
334.1122149999999
  0
ARC
  5
DC27
330
DA1C
100
AcDbEntity
  8
2
  6
Continuous
100
AcDbCircle
 10
447.0899619999998
 20
332.2808289999999
 30
0.0
 40
10.18799999999999
100
AcDbArc
 50
286.8615909999999
 51
73.13840899999998
  0
LINE
  5
DC28
330
DA1C
100
AcDbEntity
  8
1
  6
Continuous
100
AcDbLine
 10
464.589962
 20
342.3844589999998
 30
0.0
 11
464.589962
 21
322.1771989999999
 31
0.0
  0
ARC
  5
DC29
330
DA1C
100
AcDbEntity
  8
1
  6
Continuous
100
AcDbCircle
 10
447.0899619999998
 20
332.2808289999999
 30
0.0
 40
11.0
100
AcDbArc
 50
297.5801989999999
 51
62.419801
  0
LINE
  5
DC2A
330
DA1C
100
AcDbEntity
  8
1
  6
Continuous
100
AcDbLine
 10
447.0899619999998
 20
312.07357
 30
0.0
 11
464.589962
 21
322.1771989999999
 31
0.0
  0
LINE
  5
DC2B
330
DA1C
100
AcDbEntity
  8
1
  6
Continuous
100
AcDbLine
 10
452.089962
 20
329.3938289999999
 30
0.0
 11
447.0899619999998
 21
326.5068289999998
 31
0.0
  0
LINE
  5
DC2C
330
DA1C
100
AcDbEntity
  8
1
  6
Continuous
100
AcDbLine
 10
447.0899619999998
 20
333.7646529999997
 30
0.0
 11
447.0869969999998
 21
333.765559
 31
0.0
  0
LINE
  5
DC2D
330
DA1C
100
AcDbEntity
  8
1
  6
Continuous
100
AcDbLine
 10
447.0899619999998
 20
333.7646529999997
 30
0.0
 11
447.092926
 21
333.765559
 31
0.0
  0
LINE
  5
DC2E
330
DA1C
100
AcDbEntity
  8
1
  6
Continuous
100
AcDbLine
 10
447.092926
 20
333.765559
 30
0.0
 11
448.4434529999998
 21
335.069747
 31
0.0
  0
LINE
  5
DC2F
330
DA1C
100
AcDbEntity
  8
1
  6
Continuous
100
AcDbLine
 10
448.5737849999998
 20
332.2808289999999
 30
0.0
 11
448.5746909999998
 21
332.2837939999997
 31
0.0
  0
LINE
  5
DC30
330
DA1C
100
AcDbEntity
  8
1
  6
Continuous
100
AcDbLine
 10
448.5737849999998
 20
332.2808289999999
 30
0.0
 11
448.5746909999998
 21
332.2778649999999
 31
0.0
  0
LINE
  5
DC31
330
DA1C
100
AcDbEntity
  8
1
  6
Continuous
100
AcDbLine
 10
447.0899619999998
 20
330.797006
 30
0.0
 11
447.092926
 21
330.7961
 31
0.0
  0
LINE
  5
DC32
330
DA1C
100
AcDbEntity
  8
1
  6
Continuous
100
AcDbLine
 10
447.0899619999998
 20
330.797006
 30
0.0
 11
447.0869969999998
 21
330.7961
 31
0.0
  0
LINE
  5
DC33
330
DA1C
100
AcDbEntity
  8
1
  6
Continuous
100
AcDbLine
 10
447.0899619999998
 20
338.053829
 30
0.0
 11
452.089962
 21
335.1678289999999
 31
0.0
  0
LINE
  5
DC34
330
DA1C
100
AcDbEntity
  8
1
  6
Continuous
100
AcDbLine
 10
449.8788789999998
 20
330.9273379999999
 30
0.0
 11
448.5746909999998
 21
332.2778649999999
 31
0.0
  0
LINE
  5
DC35
330
DA1C
100
AcDbEntity
  8
1
  6
Continuous
100
AcDbLine
 10
448.5746909999998
 20
332.2837939999997
 30
0.0
 11
449.8788789999998
 21
333.6343199999999
 31
0.0
  0
ARC
  5
DC36
330
DA1C
100
AcDbEntity
  8
1
  6
Continuous
100
AcDbCircle
 10
447.0899619999998
 20
332.2808289999999
 30
0.0
 40
3.1
100
AcDbArc
 50
25.887785
 51
64.112215
  0
LINE
  5
DC37
330
DA1C
100
AcDbEntity
  8
2
  6
Continuous
100
AcDbLine
 10
257.133666
 20
502.651494
 30
0.0
 11
240.8336659999999
 21
494.563456
 31
0.0
  0
LINE
  5
DC38
330
DA1C
100
AcDbEntity
  8
2
  6
Continuous
100
AcDbLine
 10
240.8336659999999
 20
500.553732
 30
0.0
 11
257.133666
 21
492.465694
 31
0.0
  0
LINE
  5
DC39
330
DA1C
100
AcDbEntity
  8
1
  6
Continuous
100
AcDbLine
 10
257.133666
 20
492.465694
 30
0.0
 11
236.3336659999999
 21
492.465694
 31
0.0
  0
LINE
  5
DC3A
330
DA1C
100
AcDbEntity
  8
1
  6
Continuous
100
AcDbLine
 10
257.133666
 20
502.651494
 30
0.0
 11
236.3336659999999
 21
502.651494
 31
0.0
  0
LINE
  5
DC3B
330
DA1C
100
AcDbEntity
  8
1
  6
Continuous
100
AcDbLine
 10
257.133666
 20
486.558594
 30
0.0
 11
236.3336659999999
 21
486.558594
 31
0.0
  0
LINE
  5
DC3C
330
DA1C
100
AcDbEntity
  8
1
  6
Continuous
100
AcDbLine
 10
257.133666
 20
508.558594
 30
0.0
 11
236.3336659999999
 21
508.558594
 31
0.0
  0
LINE
  5
DC3D
330
DA1C
100
AcDbEntity
  8
2
  6
Continuous
100
AcDbLine
 10
257.945666
 20
487.3705939999998
 30
0.0
 11
240.740091
 21
487.3705939999998
 31
0.0
  0
LINE
  5
DC3E
330
DA1C
100
AcDbEntity
  8
2
  6
Continuous
100
AcDbLine
 10
257.945666
 20
507.746594
 30
0.0
 11
240.740091
 21
507.746594
 31
0.0
  0
LINE
  5
DC3F
330
DA1C
100
AcDbEntity
  8
4
  6
CENTER
100
AcDbLine
 10
271.683666
 20
497.558594
 30
0.0
 11
182.633666
 21
497.558594
 31
0.0
  0
ARC
  5
DC40
330
DA1C
100
AcDbEntity
  8
1
  6
Continuous
100
AcDbCircle
 10
41.499999
 20
355.92401
 30
0.0
 40
2.0
100
AcDbArc
 50
122.3923649999999
 51
180.0
  0
ARC
  5
DC41
330
DA1C
100
AcDbEntity
  8
1
  6
Continuous
100
AcDbCircle
 10
71.499999
 20
355.92401
 30
0.0
 40
2.0
100
AcDbArc
 50
0.0
 51
57.60763499999999
  0
LINE
  5
DC42
330
DA1C
100
AcDbEntity
  8
1
  6
Continuous
100
AcDbLine
 10
236.3336659999999
 20
356.2808289999999
 30
0.0
 11
240.8336659999999
 21
356.2808289999999
 31
0.0
  0
LINE
  5
DC43
330
DA1C
100
AcDbEntity
  8
1
  6
Continuous
100
AcDbLine
 10
231.333666
 20
361.242743
 30
0.0
 11
231.333666
 21
356.843227
 31
0.0
  0
ARC
  5
DC44
330
DA1C
100
AcDbEntity
  8
1
  6
Continuous
100
AcDbCircle
 10
232.5176899999999
 20
360.280829
 30
0.0
 40
2.0
100
AcDbArc
 50
90.0
 51
151.386961
  0
LINE
  5
DC45
330
DA1C
100
AcDbEntity
  8
1
  6
Continuous
100
AcDbLine
 10
232.5176899999999
 20
362.280829
 30
0.0
 11
236.3336659999999
 21
362.280829
 31
0.0
  0
LINE
  5
DC46
330
DA1C
100
AcDbEntity
  8
1
  6
Continuous
100
AcDbLine
 10
221.733666
 20
484.058594
 30
0.0
 11
190.5730209999999
 21
484.058594
 31
0.0
  0
LINE
  5
DC47
330
DA1C
100
AcDbEntity
  8
1
  6
Continuous
100
AcDbLine
 10
221.733666
 20
511.0585939999999
 30
0.0
 11
190.5730209999999
 21
511.0585939999999
 31
0.0
  0
LINE
  5
DC48
330
DA1C
100
AcDbEntity
  8
1
  6
Continuous
100
AcDbLine
 10
188.264924
 20
489.558594
 30
0.0
 11
187.7605309999999
 21
489.558594
 31
0.0
  0
LINE
  5
DC49
330
DA1C
100
AcDbEntity
  8
1
  6
Continuous
100
AcDbLine
 10
188.264924
 20
505.558594
 30
0.0
 11
187.7605309999999
 21
505.558594
 31
0.0
  0
LINE
  5
DC4A
330
DA1C
100
AcDbEntity
  8
1
  6
Continuous
100
AcDbLine
 10
189.3460609999999
 20
486.0585939999999
 30
0.0
 11
188.8366959999999
 21
486.0585939999999
 31
0.0
  0
LINE
  5
DC4B
330
DA1C
100
AcDbEntity
  8
1
  6
Continuous
100
AcDbLine
 10
189.3460609999999
 20
509.058594
 30
0.0
 11
188.8366959999999
 21
509.058594
 31
0.0
  0
LINE
  5
DC4C
330
DA1C
100
AcDbEntity
  8
1
  6
Continuous
100
AcDbLine
 10
221.783666
 20
484.058594
 30
0.0
 11
231.333666
 21
480.558594
 31
0.0
  0
LINE
  5
DC4D
330
DA1C
100
AcDbEntity
  8
1
  6
Continuous
100
AcDbLine
 10
231.333666
 20
469.5585939999999
 30
0.0
 11
231.333666
 21
525.5585940000002
 31
0.0
  0
LINE
  5
DC4E
330
DA1C
100
AcDbEntity
  8
1
  6
Continuous
100
AcDbLine
 10
236.3336659999999
 20
467.558594
 30
0.0
 11
236.3336659999999
 21
527.558594
 31
0.0
  0
LINE
  5
DC4F
330
DA1C
100
AcDbEntity
  8
1
  6
Continuous
100
AcDbLine
 10
235.333666
 20
467.558594
 30
0.0
 11
235.333666
 21
527.558594
 31
0.0
  0
ARC
  5
DC50
330
DA1C
100
AcDbEntity
  8
1
  6
Continuous
100
AcDbCircle
 10
233.333666
 20
469.5585939999999
 30
0.0
 40
2.0
100
AcDbArc
 50
180.0
 51
270.0
  0
LINE
  5
DC51
330
DA1C
100
AcDbEntity
  8
1
  6
Continuous
100
AcDbLine
 10
236.3336659999999
 20
467.558594
 30
0.0
 11
233.333666
 21
467.558594
 31
0.0
  0
LINE
  5
DC52
330
DA1C
100
AcDbEntity
  8
1
  6
Continuous
100
AcDbLine
 10
221.783666
 20
511.0585939999999
 30
0.0
 11
231.333666
 21
514.5585940000001
 31
0.0
  0
LINE
  5
DC53
330
DA1C
100
AcDbEntity
  8
1
  6
Continuous
100
AcDbLine
 10
221.783666
 20
484.058594
 30
0.0
 11
221.783666
 21
511.0585939999999
 31
0.0
  0
LINE
  5
DC54
330
DA1C
100
AcDbEntity
  8
1
  6
Continuous
100
AcDbLine
 10
221.733666
 20
484.058594
 30
0.0
 11
221.733666
 21
511.0585939999999
 31
0.0
  0
LINE
  5
DC55
330
DA1C
100
AcDbEntity
  8
1
  6
Continuous
100
AcDbLine
 10
240.740091
 20
508.558594
 30
0.0
 11
240.740091
 21
502.651494
 31
0.0
  0
LINE
  5
DC56
330
DA1C
100
AcDbEntity
  8
2
  6
Continuous
100
AcDbLine
 10
239.333666
 20
486.558594
 30
0.0
 11
240.740091
 21
487.3705939999998
 31
0.0
  0
LINE
  5
DC57
330
DA1C
100
AcDbEntity
  8
1
  6
Continuous
100
AcDbLine
 10
236.3336659999999
 20
500.8085939999999
 30
0.0
 11
240.8336659999999
 21
500.8085939999999
 31
0.0
  0
LINE
  5
DC58
330
DA1C
100
AcDbEntity
  8
1
  6
Continuous
100
AcDbLine
 10
236.3336659999999
 20
494.308594
 30
0.0
 11
240.8336659999999
 21
494.308594
 31
0.0
  0
LINE
  5
DC59
330
DA1C
100
AcDbEntity
  8
1
  6
Continuous
100
AcDbLine
 10
240.740091
 20
492.465694
 30
0.0
 11
240.740091
 21
486.558594
 31
0.0
  0
LINE
  5
DC5A
330
DA1C
100
AcDbEntity
  8
1
  6
Continuous
100
AcDbLine
 10
240.8336659999999
 20
500.8085939999999
 30
0.0
 11
240.8336659999999
 21
494.308594
 31
0.0
  0
LINE
  5
DC5B
330
DA1C
100
AcDbEntity
  8
2
  6
Continuous
100
AcDbLine
 10
239.333666
 20
508.558594
 30
0.0
 11
240.740091
 21
507.746594
 31
0.0
  0
ARC
  5
DC5C
330
DA1C
100
AcDbEntity
  8
1
  6
Continuous
100
AcDbCircle
 10
233.333666
 20
525.5585940000002
 30
0.0
 40
2.0
100
AcDbArc
 50
90.0
 51
180.0
  0
LINE
  5
DC5D
330
DA1C
100
AcDbEntity
  8
1
  6
Continuous
100
AcDbLine
 10
236.3336659999999
 20
527.558594
 30
0.0
 11
233.333666
 21
527.558594
 31
0.0
  0
LINE
  5
DC5E
330
DA1C
100
AcDbEntity
  8
1
  6
Continuous
100
AcDbLine
 10
295.7385319999999
 20
352.4880889999997
 30
0.0
 11
291.864606
 21
352.4880889999997
 31
0.0
  0
LINE
  5
DC5F
330
DA1C
100
AcDbEntity
  8
1
  6
Continuous
100
AcDbLine
 10
288.801571
 20
513.5585940000002
 30
0.0
 11
288.801571
 21
481.558594
 31
0.0
  0
LINE
  5
DC60
330
DA1C
100
AcDbEntity
  8
1
  6
Continuous
100
AcDbLine
 10
287.1015709999999
 20
515.058594
 30
0.0
 11
287.1015709999999
 21
480.058594
 31
0.0
  0
LINE
  5
DC61
330
DA1C
100
AcDbEntity
  8
1
  6
Continuous
100
AcDbLine
 10
288.501571
 20
480.058594
 30
0.0
 11
288.501571
 21
515.058594
 31
0.0
  0
ARC
  5
DC62
330
DA1C
100
AcDbEntity
  8
1
  6
Continuous
100
AcDbCircle
 10
324.822632
 20
488.808594
 30
0.0
 40
34.52106099999999
100
AcDbArc
 50
165.317147
 51
194.6828529999999
  0
ARC
  5
DC63
330
DA1C
100
AcDbEntity
  8
1
  6
Continuous
100
AcDbCircle
 10
262.7805099999998
 20
488.808594
 30
0.0
 40
34.52106099999999
100
AcDbArc
 50
345.317147
 51
14.68285299999999
  0
LINE
  5
DC64
330
DA1C
100
AcDbEntity
  8
1
  6
Continuous
100
AcDbLine
 10
298.801571
 20
513.5585940000002
 30
0.0
 11
298.801571
 21
481.558594
 31
0.0
  0
LINE
  5
DC65
330
DA1C
100
AcDbEntity
  8
1
  6
Continuous
100
AcDbLine
 10
297.301571
 20
515.058594
 30
0.0
 11
297.301571
 21
480.058594
 31
0.0
  0
LINE
  5
DC66
330
DA1C
100
AcDbEntity
  8
1
  6
Continuous
100
AcDbLine
 10
290.301571
 20
515.058594
 30
0.0
 11
290.301571
 21
480.058594
 31
0.0
  0
LINE
  5
DC67
330
DA1C
100
AcDbEntity
  8
1
  6
Continuous
100
AcDbLine
 10
287.1015709999999
 20
480.058594
 30
0.0
 11
288.501571
 21
480.058594
 31
0.0
  0
LINE
  5
DC68
330
DA1C
100
AcDbEntity
  8
1
  6
Continuous
100
AcDbLine
 10
290.301571
 20
480.058594
 30
0.0
 11
297.301571
 21
480.058594
 31
0.0
  0
LINE
  5
DC69
330
DA1C
100
AcDbEntity
  8
1
  6
Continuous
100
AcDbLine
 10
288.801571
 20
481.558594
 30
0.0
 11
290.301571
 21
481.558594
 31
0.0
  0
LINE
  5
DC6A
330
DA1C
100
AcDbEntity
  8
1
  6
Continuous
100
AcDbLine
 10
298.801571
 20
481.558594
 30
0.0
 11
297.301571
 21
481.558594
 31
0.0
  0
LINE
  5
DC6B
330
DA1C
100
AcDbEntity
  8
1
  6
Continuous
100
AcDbLine
 10
287.1015709999999
 20
515.058594
 30
0.0
 11
288.501571
 21
515.058594
 31
0.0
  0
LINE
  5
DC6C
330
DA1C
100
AcDbEntity
  8
4
  6
CENTER
100
AcDbLine
 10
283.801571
 20
497.558594
 30
0.0
 11
303.801571
 21
497.558594
 31
0.0
  0
LINE
  5
DC6D
330
DA1C
100
AcDbEntity
  8
1
  6
Continuous
100
AcDbLine
 10
257.133666
 20
508.558594
 30
0.0
 11
257.133666
 21
502.651494
 31
0.0
  0
LINE
  5
DC6E
330
DA1C
100
AcDbEntity
  8
1
  6
Continuous
100
AcDbLine
 10
258.683666
 20
507.008594
 30
0.0
 11
258.683666
 21
488.108594
 31
0.0
  0
LINE
  5
DC6F
330
DA1C
100
AcDbEntity
  8
1
  6
Continuous
100
AcDbLine
 10
266.433666
 20
504.434687
 30
0.0
 11
258.733666
 21
504.434687
 31
0.0
  0
ARC
  5
DC70
330
DA1C
100
AcDbEntity
  8
1
  6
Continuous
100
AcDbCircle
 10
266.433666
 20
504.1346869999999
 30
0.0
 40
0.3
100
AcDbArc
 50
0.0
 51
90.0
  0
LINE
  5
DC71
330
DA1C
100
AcDbEntity
  8
1
  6
Continuous
100
AcDbLine
 10
266.433666
 20
497.558594
 30
0.0
 11
258.733666
 21
497.558594
 31
0.0
  0
LINE
  5
DC72
330
DA1C
100
AcDbEntity
  8
2
  6
Continuous
100
AcDbLine
 10
266.433666
 20
504.434687
 30
0.0
 11
258.733666
 21
497.558594
 31
0.0
  0
LINE
  5
DC73
330
DA1C
100
AcDbEntity
  8
2
  6
Continuous
100
AcDbLine
 10
266.433666
 20
497.558594
 30
0.0
 11
258.733666
 21
504.434687
 31
0.0
  0
ARC
  5
DC74
330
DA1C
100
AcDbEntity
  8
1
  6
Continuous
100
AcDbCircle
 10
266.383666
 20
490.9825009999996
 30
0.0
 40
0.3
100
AcDbArc
 50
270.0
 51
0.0
  0
LINE
  5
DC75
330
DA1C
100
AcDbEntity
  8
1
  6
Continuous
100
AcDbLine
 10
266.433666
 20
490.682501
 30
0.0
 11
258.733666
 21
490.682501
 31
0.0
  0
LINE
  5
DC76
330
DA1C
100
AcDbEntity
  8
2
  6
Continuous
100
AcDbLine
 10
258.733666
 20
497.558594
 30
0.0
 11
266.433666
 21
490.682501
 31
0.0
  0
LINE
  5
DC77
330
DA1C
100
AcDbEntity
  8
2
  6
Continuous
100
AcDbLine
 10
258.733666
 20
490.682501
 30
0.0
 11
266.433666
 21
497.558594
 31
0.0
  0
LINE
  5
DC78
330
DA1C
100
AcDbEntity
  8
1
  6
Continuous
100
AcDbLine
 10
266.733666
 20
504.1346869999999
 30
0.0
 11
266.733666
 21
490.9825009999996
 31
0.0
  0
LINE
  5
DC79
330
DA1C
100
AcDbEntity
  8
1
  6
Continuous
100
AcDbLine
 10
257.133666
 20
492.465694
 30
0.0
 11
257.133666
 21
486.558594
 31
0.0
  0
ARC
  5
DC7A
330
DA1C
100
AcDbEntity
  8
1
  6
Continuous
100
AcDbCircle
 10
246.92632
 20
497.558594
 30
0.0
 40
11.407346
100
AcDbArc
 50
333.483346
 51
26.516654
  0
LINE
  5
DC7B
330
DA1C
100
AcDbEntity
  8
1
  6
Continuous
100
AcDbLine
 10
257.133666
 20
486.558594
 30
0.0
 11
258.683666
 21
488.108594
 31
0.0
  0
LINE
  5
DC7C
330
DA1C
100
AcDbEntity
  8
1
  6
Continuous
100
AcDbLine
 10
286.801571
 20
504.318124
 30
0.0
 11
287.1015709999999
 21
504.618124
 31
0.0
  0
LINE
  5
DC7D
330
DA1C
100
AcDbEntity
  8
1
  6
Continuous
100
AcDbLine
 10
286.801571
 20
504.318124
 30
0.0
 11
287.1015709999999
 21
504.0181239999998
 31
0.0
  0
LINE
  5
DC7E
330
DA1C
100
AcDbEntity
  8
1
  6
Continuous
100
AcDbLine
 10
286.801571
 20
497.5686239999998
 30
0.0
 11
287.1015709999999
 21
497.2686239999998
 31
0.0
  0
LINE
  5
DC7F
330
DA1C
100
AcDbEntity
  8
1
  6
Continuous
100
AcDbLine
 10
286.801571
 20
497.5686239999998
 30
0.0
 11
287.1015709999999
 21
497.868624
 31
0.0
  0
LINE
  5
DC80
330
DA1C
100
AcDbEntity
  8
1
  6
Continuous
100
AcDbLine
 10
286.801571
 20
490.799084
 30
0.0
 11
287.1015709999999
 21
491.0990939999998
 31
0.0
  0
LINE
  5
DC81
330
DA1C
100
AcDbEntity
  8
1
  6
Continuous
100
AcDbLine
 10
286.801571
 20
490.799084
 30
0.0
 11
287.1015709999999
 21
490.4990839999999
 31
0.0
  0
LINE
  5
DC82
330
DA1C
100
AcDbEntity
  8
1
  6
Continuous
100
AcDbLine
 10
287.1015709999999
 20
486.621444
 30
0.0
 11
286.801571
 21
486.621444
 31
0.0
  0
LINE
  5
DC83
330
DA1C
100
AcDbEntity
  8
1
  6
Continuous
100
AcDbLine
 10
286.801571
 20
486.621444
 30
0.0
 11
287.1015709999999
 21
485.463294
 31
0.0
  0
LINE
  5
DC84
330
DA1C
100
AcDbEntity
  8
1
  6
Continuous
100
AcDbLine
 10
257.133666
 20
508.558594
 30
0.0
 11
258.683666
 21
507.008594
 31
0.0
  0
LINE
  5
DC85
330
DA1C
100
AcDbEntity
  8
1
  6
Continuous
100
AcDbLine
 10
286.801571
 20
508.4957440000001
 30
0.0
 11
287.1015709999999
 21
509.653894
 31
0.0
  0
LINE
  5
DC86
330
DA1C
100
AcDbEntity
  8
1
  6
Continuous
100
AcDbLine
 10
287.1015709999999
 20
508.4957440000001
 30
0.0
 11
286.801571
 21
508.4957440000001
 31
0.0
  0
ARC
  5
DC87
330
DA1C
100
AcDbEntity
  8
1
  6
Continuous
100
AcDbCircle
 10
324.822632
 20
506.308594
 30
0.0
 40
34.52106099999999
100
AcDbArc
 50
165.317147
 51
194.6828529999999
  0
ARC
  5
DC88
330
DA1C
100
AcDbEntity
  8
1
  6
Continuous
100
AcDbCircle
 10
262.7805099999998
 20
506.308594
 30
0.0
 40
34.52106099999999
100
AcDbArc
 50
345.317147
 51
14.68285299999999
  0
LINE
  5
DC89
330
DA1C
100
AcDbEntity
  8
1
  6
Continuous
100
AcDbLine
 10
288.501571
 20
490.4990839999999
 30
0.0
 11
288.801571
 21
490.799084
 31
0.0
  0
LINE
  5
DC8A
330
DA1C
100
AcDbEntity
  8
1
  6
Continuous
100
AcDbLine
 10
288.801571
 20
490.799084
 30
0.0
 11
288.501571
 21
491.0990939999998
 31
0.0
  0
LINE
  5
DC8B
330
DA1C
100
AcDbEntity
  8
1
  6
Continuous
100
AcDbLine
 10
288.801571
 20
504.318124
 30
0.0
 11
288.501571
 21
504.0181239999998
 31
0.0
  0
LINE
  5
DC8C
330
DA1C
100
AcDbEntity
  8
1
  6
Continuous
100
AcDbLine
 10
288.501571
 20
504.618124
 30
0.0
 11
288.801571
 21
504.318124
 31
0.0
  0
LINE
  5
DC8D
330
DA1C
100
AcDbEntity
  8
1
  6
Continuous
100
AcDbLine
 10
288.501571
 20
497.848544
 30
0.0
 11
288.801571
 21
497.5485439999998
 31
0.0
  0
LINE
  5
DC8E
330
DA1C
100
AcDbEntity
  8
1
  6
Continuous
100
AcDbLine
 10
288.801571
 20
497.5485439999998
 30
0.0
 11
288.501571
 21
497.2485439999998
 31
0.0
  0
LINE
  5
DC8F
330
DA1C
100
AcDbEntity
  8
1
  6
Continuous
100
AcDbLine
 10
288.501571
 20
486.621444
 30
0.0
 11
288.801571
 21
486.621444
 31
0.0
  0
LINE
  5
DC90
330
DA1C
100
AcDbEntity
  8
1
  6
Continuous
100
AcDbLine
 10
288.801571
 20
486.621444
 30
0.0
 11
288.501571
 21
485.463294
 31
0.0
  0
LINE
  5
DC91
330
DA1C
100
AcDbEntity
  8
1
  6
Continuous
100
AcDbLine
 10
291.4289029999998
 20
497.558594
 30
0.0
 11
296.1742389999999
 21
497.558594
 31
0.0
  0
LINE
  5
DC92
330
DA1C
100
AcDbEntity
  8
1
  6
Continuous
100
AcDbLine
 10
288.801571
 20
508.4957440000001
 30
0.0
 11
288.501571
 21
509.653894
 31
0.0
  0
LINE
  5
DC93
330
DA1C
100
AcDbEntity
  8
1
  6
Continuous
100
AcDbLine
 10
288.501571
 20
508.4957440000001
 30
0.0
 11
288.801571
 21
508.4957440000001
 31
0.0
  0
LINE
  5
DC94
330
DA1C
100
AcDbEntity
  8
1
  6
Continuous
100
AcDbLine
 10
290.301571
 20
515.058594
 30
0.0
 11
297.301571
 21
515.058594
 31
0.0
  0
LINE
  5
DC95
330
DA1C
100
AcDbEntity
  8
1
  6
Continuous
100
AcDbLine
 10
288.801571
 20
513.5585940000002
 30
0.0
 11
290.301571
 21
513.5585940000002
 31
0.0
  0
LINE
  5
DC96
330
DA1C
100
AcDbEntity
  8
1
  6
Continuous
100
AcDbLine
 10
298.801571
 20
513.5585940000002
 30
0.0
 11
297.301571
 21
513.5585940000002
 31
0.0
  0
LINE
  5
DC97
330
DA1C
100
AcDbEntity
  8
1
  6
Continuous
100
AcDbLine
 10
334.8067349999999
 20
486.5586159999998
 30
0.0
 11
334.8067349999999
 21
508.558616
 31
0.0
  0
LINE
  5
DC98
330
DA1C
100
AcDbEntity
  8
1
  6
Continuous
100
AcDbLine
 10
331.806735
 20
486.5586159999998
 30
0.0
 11
331.806735
 21
508.558616
 31
0.0
  0
LINE
  5
DC99
330
DA1C
100
AcDbEntity
  8
1
  6
Continuous
100
AcDbLine
 10
326.07059
 20
486.5586159999998
 30
0.0
 11
326.07059
 21
508.558616
 31
0.0
  0
LINE
  5
DC9A
330
DA1C
100
AcDbEntity
  8
1
  6
Continuous
100
AcDbLine
 10
328.07059
 20
486.5586159999998
 30
0.0
 11
328.07059
 21
508.558616
 31
0.0
  0
LINE
  5
DC9B
330
DA1C
100
AcDbEntity
  8
4
  6
CENTER
100
AcDbLine
 10
339.806735
 20
497.5586159999998
 30
0.0
 11
321.0705899999999
 21
497.5586159999998
 31
0.0
  0
LINE
  5
DC9C
330
DA1C
100
AcDbEntity
  8
1
  6
Continuous
100
AcDbLine
 10
334.8067349999999
 20
486.5586159999998
 30
0.0
 11
331.806735
 21
486.5586159999998
 31
0.0
  0
LINE
  5
DC9D
330
DA1C
100
AcDbEntity
  8
1
  6
Continuous
100
AcDbLine
 10
328.07059
 20
486.5586159999998
 30
0.0
 11
326.07059
 21
486.5586159999998
 31
0.0
  0
LINE
  5
DC9E
330
DA1C
100
AcDbEntity
  8
1
  6
Continuous
100
AcDbLine
 10
334.8067349999999
 20
508.558616
 30
0.0
 11
331.806735
 21
508.558616
 31
0.0
  0
LINE
  5
DC9F
330
DA1C
100
AcDbEntity
  8
1
  6
Continuous
100
AcDbLine
 10
328.07059
 20
508.558616
 30
0.0
 11
326.07059
 21
508.558616
 31
0.0
  0
LINE
  5
DCA0
330
DA1C
100
AcDbEntity
  8
1
  6
Continuous
100
AcDbLine
 10
365.4771629999999
 20
505.5586369999998
 30
0.0
 11
367.0771629999999
 21
505.5586369999998
 31
0.0
  0
LINE
  5
DCA1
330
DA1C
100
AcDbEntity
  8
4
  6
CENTER
100
AcDbLine
 10
377.5771629999999
 20
497.558637
 30
0.0
 11
360.4771629999997
 21
497.558637
 31
0.0
  0
LINE
  5
DCA2
330
DA1C
100
AcDbEntity
  8
1
  6
Continuous
100
AcDbLine
 10
365.4771629999999
 20
489.558637
 30
0.0
 11
367.0771629999999
 21
489.558637
 31
0.0
  0
LINE
  5
DCA3
330
DA1C
100
AcDbEntity
  8
1
  6
Continuous
100
AcDbLine
 10
365.4771629999999
 20
505.5586369999998
 30
0.0
 11
365.4771629999999
 21
489.558637
 31
0.0
  0
LINE
  5
DCA4
330
DA1C
100
AcDbEntity
  8
1
  6
Continuous
100
AcDbLine
 10
372.577163
 20
502.5546799999998
 30
0.0
 11
372.577163
 21
492.5546799999998
 31
0.0
  0
LINE
  5
DCA5
330
DA1C
100
AcDbEntity
  8
1
  6
Continuous
100
AcDbLine
 10
369.0234549999997
 20
497.55468
 30
0.0
 11
372.130871
 21
497.55468
 31
0.0
  0
ARC
  5
DCA6
330
DA1C
100
AcDbEntity
  8
1
  6
Continuous
100
AcDbCircle
 10
375.802455
 20
500.0546799999998
 30
0.0
 40
7.225291999999996
100
AcDbArc
 50
159.7567339999999
 51
200.243266
  0
ARC
  5
DCA7
330
DA1C
100
AcDbEntity
  8
1
  6
Continuous
100
AcDbCircle
 10
375.802455
 20
495.0546799999997
 30
0.0
 40
7.225291999999996
100
AcDbArc
 50
159.7567339999999
 51
200.243266
  0
LINE
  5
DCA8
330
DA1C
100
AcDbEntity
  8
1
  6
Continuous
100
AcDbLine
 10
372.577163
 20
502.5546799999998
 30
0.0
 11
368.577163
 21
502.5546799999998
 31
0.0
  0
LINE
  5
DCA9
330
DA1C
100
AcDbEntity
  8
1
  6
Continuous
100
AcDbLine
 10
372.577163
 20
492.5546799999998
 30
0.0
 11
368.577163
 21
492.5546799999998
 31
0.0
  0
ARC
  5
DCAA
330
DA1C
100
AcDbEntity
  8
1
  6
Continuous
100
AcDbCircle
 10
365.351871
 20
500.0546799999998
 30
0.0
 40
7.225291999999996
100
AcDbArc
 50
339.756734
 51
20.24326599999999
  0
ARC
  5
DCAB
330
DA1C
100
AcDbEntity
  8
1
  6
Continuous
100
AcDbCircle
 10
365.351871
 20
495.0546799999997
 30
0.0
 40
7.225291999999996
100
AcDbArc
 50
339.756734
 51
20.24326599999999
  0
LINE
  5
DCAC
330
DA1C
100
AcDbEntity
  8
1
  6
Continuous
100
AcDbLine
 10
368.577163
 20
503.658637
 30
0.0
 11
367.0771629999999
 21
503.658637
 31
0.0
  0
LINE
  5
DCAD
330
DA1C
100
AcDbEntity
  8
1
  6
Continuous
100
AcDbLine
 10
368.577163
 20
491.458637
 30
0.0
 11
367.0771629999999
 21
491.458637
 31
0.0
  0
LINE
  5
DCAE
330
DA1C
100
AcDbEntity
  8
1
  6
Continuous
100
AcDbLine
 10
368.577163
 20
491.458637
 30
0.0
 11
368.577163
 21
503.658637
 31
0.0
  0
LINE
  5
DCAF
330
DA1C
100
AcDbEntity
  8
1
  6
Continuous
100
AcDbLine
 10
367.0771629999999
 20
496.0546799999998
 30
0.0
 11
368.577163
 21
497.55468
 31
0.0
  0
LINE
  5
DCB0
330
DA1C
100
AcDbEntity
  8
1
  6
Continuous
100
AcDbLine
 10
367.0771629999999
 20
497.558637
 30
0.0
 11
368.577163
 21
499.0586369999999
 31
0.0
  0
LINE
  5
DCB1
330
DA1C
100
AcDbEntity
  8
1
  6
Continuous
100
AcDbLine
 10
367.0771629999999
 20
505.5586369999998
 30
0.0
 11
367.0771629999999
 21
489.558637
 31
0.0
  0
LINE
  5
DCB2
330
DA1C
100
AcDbEntity
  8
4
  6
CENTER
100
AcDbLine
 10
453.829506
 20
352.2808289999999
 30
0.0
 11
441.589962
 21
352.2808289999999
 31
0.0
  0
LINE
  5
DCB3
330
DA1C
100
AcDbEntity
  8
1
  6
Continuous
100
AcDbLine
 10
603.8783550000001
 20
349.780829
 30
0.0
 11
602.3153170000001
 21
352.4880889999997
 31
0.0
  0
LINE
  5
DCB4
330
DA1C
100
AcDbEntity
  8
1
  6
Continuous
100
AcDbLine
 10
596.8783550000003
 20
349.780829
 30
0.0
 11
598.4413919999998
 21
352.4880889999997
 31
0.0
  0
LINE
  5
DCB5
330
DA1C
100
AcDbEntity
  8
1
  6
Continuous
100
AcDbLine
 10
521.60276
 20
337.284787
 30
0.0
 11
521.60276
 21
327.283787
 31
0.0
  0
ARC
  5
DCB6
330
DA1C
100
AcDbEntity
  8
1
  6
Continuous
100
AcDbCircle
 10
531.163709
 20
332.2847869999999
 30
0.0
 40
9.560949
100
AcDbArc
 50
162.4247879999998
 51
197.5752119999999
  0
ARC
  5
DCB7
330
DA1C
100
AcDbEntity
  8
1
  6
Continuous
100
AcDbCircle
 10
516.0418110000001
 20
332.2847869999999
 30
0.0
 40
9.560949
100
AcDbArc
 50
342.4247879999999
 51
17.575212
  0
LINE
  5
DCB8
330
DA1C
100
AcDbEntity
  8
1
  6
Continuous
100
AcDbLine
 10
528.70276
 20
340.2808289999999
 30
0.0
 11
528.70276
 21
324.2808289999999
 31
0.0
  0
LINE
  5
DCB9
330
DA1C
100
AcDbEntity
  8
1
  6
Continuous
100
AcDbLine
 10
527.10276
 20
340.2808289999999
 30
0.0
 11
527.10276
 21
324.2808289999999
 31
0.0
  0
LINE
  5
DCBA
330
DA1C
100
AcDbEntity
  8
1
  6
Continuous
100
AcDbLine
 10
525.60276
 20
326.180829
 30
0.0
 11
525.60276
 21
338.380829
 31
0.0
  0
LINE
  5
DCBB
330
DA1C
100
AcDbEntity
  8
1
  6
Continuous
100
AcDbLine
 10
525.60276
 20
326.5073259999998
 30
0.0
 11
525.60276
 21
338.054332
 31
0.0
  0
LINE
  5
DCBC
330
DA1C
100
AcDbEntity
  8
1
  6
Continuous
100
AcDbLine
 10
525.60276
 20
326.180829
 30
0.0
 11
527.10276
 21
326.180829
 31
0.0
  0
LINE
  5
DCBD
330
DA1C
100
AcDbEntity
  8
1
  6
Continuous
100
AcDbLine
 10
522.0490519999998
 20
329.3977869999999
 30
0.0
 11
525.156469
 21
329.3977869999999
 31
0.0
  0
ARC
  5
DCBE
330
DA1C
100
AcDbEntity
  8
1
  6
Continuous
100
AcDbCircle
 10
523.0467599999998
 20
327.954787
 30
0.0
 40
2.55582
100
AcDbArc
 50
325.6159999999998
 51
325.647143
  0
ARC
  5
DCBF
330
DA1C
100
AcDbEntity
  8
1
  6
Continuous
100
AcDbCircle
 10
524.1587599999998
 20
327.954787
 30
0.0
 40
2.55582
100
AcDbArc
 50
214.3528569999999
 51
214.3839999999999
  0
LINE
  5
DCC0
330
DA1C
100
AcDbEntity
  8
1
  6
Continuous
100
AcDbLine
 10
522.0490519999998
 20
326.510787
 30
0.0
 11
525.156469
 21
326.510787
 31
0.0
  0
ARC
  5
DCC1
330
DA1C
100
AcDbEntity
  8
1
  6
Continuous
100
AcDbCircle
 10
524.1587400000002
 20
327.9537869999999
 30
0.0
 40
2.555979999999999
100
AcDbArc
 50
145.6283629999998
 51
205.6283629999998
  0
LINE
  5
DCC2
330
DA1C
100
AcDbEntity
  8
1
  6
Continuous
100
AcDbLine
 10
521.60276
 20
327.283787
 30
0.0
 11
522.0490519999998
 21
326.510787
 31
0.0
  0
ARC
  5
DCC3
330
DA1C
100
AcDbEntity
  8
1
  6
Continuous
100
AcDbCircle
 10
523.046781
 20
327.9537869999999
 30
0.0
 40
2.555979999999999
100
AcDbArc
 50
334.371637
 51
34.371637
  0
LINE
  5
DCC4
330
DA1C
100
AcDbEntity
  8
1
  6
Continuous
100
AcDbLine
 10
525.60276
 20
327.283787
 30
0.0
 11
525.156469
 21
326.510787
 31
0.0
  0
LINE
  5
DCC5
330
DA1C
100
AcDbEntity
  8
1
  6
Continuous
100
AcDbLine
 10
528.70276
 20
324.2808289999999
 30
0.0
 11
527.10276
 21
324.2808289999999
 31
0.0
  0
LINE
  5
DCC6
330
DA1C
100
AcDbEntity
  8
1
  6
Continuous
100
AcDbLine
 10
525.60276
 20
338.380829
 30
0.0
 11
527.10276
 21
338.380829
 31
0.0
  0
LINE
  5
DCC7
330
DA1C
100
AcDbEntity
  8
1
  6
Continuous
100
AcDbLine
 10
527.10276
 20
333.784787
 30
0.0
 11
525.60276
 21
332.2847869999999
 31
0.0
  0
LINE
  5
DCC8
330
DA1C
100
AcDbEntity
  8
1
  6
Continuous
100
AcDbLine
 10
527.10276
 20
332.2808289999999
 30
0.0
 11
525.60276
 21
330.780829
 31
0.0
  0
LINE
  5
DCC9
330
DA1C
100
AcDbEntity
  8
4
  6
CENTER
100
AcDbLine
 10
516.6027599999996
 20
332.2808289999999
 30
0.0
 11
533.7027599999998
 21
332.2808289999999
 31
0.0
  0
LINE
  5
DCCA
330
DA1C
100
AcDbEntity
  8
1
  6
Continuous
100
AcDbLine
 10
521.60276
 20
337.284787
 30
0.0
 11
522.0490519999998
 21
338.057787
 31
0.0
  0
ARC
  5
DCCB
330
DA1C
100
AcDbEntity
  8
1
  6
Continuous
100
AcDbCircle
 10
524.1587400000002
 20
336.6147869999999
 30
0.0
 40
2.555979999999999
100
AcDbArc
 50
154.371637
 51
214.371637
  0
LINE
  5
DCCC
330
DA1C
100
AcDbEntity
  8
1
  6
Continuous
100
AcDbLine
 10
522.0490519999998
 20
338.057787
 30
0.0
 11
525.156469
 21
338.057787
 31
0.0
  0
LINE
  5
DCCD
330
DA1C
100
AcDbEntity
  8
1
  6
Continuous
100
AcDbLine
 10
522.0490519999998
 20
335.1717869999998
 30
0.0
 11
525.156469
 21
335.1717869999998
 31
0.0
  0
LINE
  5
DCCE
330
DA1C
100
AcDbEntity
  8
1
  6
Continuous
100
AcDbLine
 10
525.60276
 20
337.284787
 30
0.0
 11
525.156469
 21
338.057787
 31
0.0
  0
ARC
  5
DCCF
330
DA1C
100
AcDbEntity
  8
1
  6
Continuous
100
AcDbCircle
 10
523.046781
 20
336.6147869999999
 30
0.0
 40
2.555979999999999
100
AcDbArc
 50
325.6283629999999
 51
25.628363
  0
LINE
  5
DCD0
330
DA1C
100
AcDbEntity
  8
1
  6
Continuous
100
AcDbLine
 10
528.70276
 20
340.2808289999999
 30
0.0
 11
527.10276
 21
340.2808289999999
 31
0.0
  0
LINE
  5
DCD1
330
DA1C
100
AcDbEntity
  8
1
  6
Continuous
100
AcDbLine
 10
559.3731889999998
 20
321.2808289999999
 30
0.0
 11
559.3731889999998
 21
343.280829
 31
0.0
  0
LINE
  5
DCD2
330
DA1C
100
AcDbEntity
  8
1
  6
Continuous
100
AcDbLine
 10
562.3731889999998
 20
321.2808289999999
 30
0.0
 11
562.3731889999998
 21
343.280829
 31
0.0
  0
LINE
  5
DCD3
330
DA1C
100
AcDbEntity
  8
1
  6
Continuous
100
AcDbLine
 10
568.109334
 20
321.2808289999999
 30
0.0
 11
568.109334
 21
343.280829
 31
0.0
  0
LINE
  5
DCD4
330
DA1C
100
AcDbEntity
  8
1
  6
Continuous
100
AcDbLine
 10
566.1093339999998
 20
321.2808289999999
 30
0.0
 11
566.1093339999998
 21
343.280829
 31
0.0
  0
LINE
  5
DCD5
330
DA1C
100
AcDbEntity
  8
1
  6
Continuous
100
AcDbLine
 10
559.3731889999998
 20
321.2808289999999
 30
0.0
 11
562.3731889999998
 21
321.2808289999999
 31
0.0
  0
LINE
  5
DCD6
330
DA1C
100
AcDbEntity
  8
1
  6
Continuous
100
AcDbLine
 10
566.1093339999998
 20
321.2808289999999
 30
0.0
 11
568.109334
 21
321.2808289999999
 31
0.0
  0
LINE
  5
DCD7
330
DA1C
100
AcDbEntity
  8
4
  6
CENTER
100
AcDbLine
 10
554.3731889999998
 20
332.2808289999999
 30
0.0
 11
573.109334
 21
332.2808289999999
 31
0.0
  0
LINE
  5
DCD8
330
DA1C
100
AcDbEntity
  8
1
  6
Continuous
100
AcDbLine
 10
559.3731889999998
 20
343.280829
 30
0.0
 11
562.3731889999998
 21
343.280829
 31
0.0
  0
LINE
  5
DCD9
330
DA1C
100
AcDbEntity
  8
1
  6
Continuous
100
AcDbLine
 10
566.1093339999998
 20
343.280829
 30
0.0
 11
568.109334
 21
343.280829
 31
0.0
  0
LINE
  5
DCDA
330
DA1C
100
AcDbEntity
  8
1
  6
Continuous
100
AcDbLine
 10
607.0783549999998
 20
349.780829
 30
0.0
 11
605.678355
 21
349.780829
 31
0.0
  0
LINE
  5
DCDB
330
DA1C
100
AcDbEntity
  8
1
  6
Continuous
100
AcDbLine
 10
607.0783549999998
 20
314.7808289999999
 30
0.0
 11
605.678355
 21
314.7808289999999
 31
0.0
  0
LINE
  5
DCDC
330
DA1C
100
AcDbEntity
  8
4
  6
CENTER
100
AcDbLine
 10
611.978355
 20
332.2808289999999
 30
0.0
 11
590.3783550000001
 21
332.2808289999999
 31
0.0
  0
LINE
  5
DCDD
330
DA1C
100
AcDbEntity
  8
1
  6
Continuous
100
AcDbLine
 10
605.3783550000003
 20
348.2808289999999
 30
0.0
 11
605.3783550000003
 21
316.280829
 31
0.0
  0
LINE
  5
DCDE
330
DA1C
100
AcDbEntity
  8
1
  6
Continuous
100
AcDbLine
 10
605.678355
 20
314.7808289999999
 30
0.0
 11
605.678355
 21
349.780829
 31
0.0
  0
ARC
  5
DCDF
330
DA1C
100
AcDbEntity
  8
1
  6
Continuous
100
AcDbCircle
 10
558.0381599999998
 20
332.2808289999999
 30
0.0
 40
45.84019399999998
100
AcDbArc
 50
347.266894
 51
12.733106
  0
ARC
  5
DCE0
330
DA1C
100
AcDbEntity
  8
1
  6
Continuous
100
AcDbCircle
 10
642.7185490000002
 20
332.2808289999999
 30
0.0
 40
45.84019399999998
100
AcDbArc
 50
167.266894
 51
192.733106
  0
LINE
  5
DCE1
330
DA1C
100
AcDbEntity
  8
1
  6
Continuous
100
AcDbLine
 10
596.8783550000003
 20
314.7808289999999
 30
0.0
 11
596.8783550000003
 21
349.780829
 31
0.0
  0
LINE
  5
DCE2
330
DA1C
100
AcDbEntity
  8
1
  6
Continuous
100
AcDbLine
 10
603.8783550000001
 20
314.7808289999999
 30
0.0
 11
603.8783550000001
 21
349.780829
 31
0.0
  0
LINE
  5
DCE3
330
DA1C
100
AcDbEntity
  8
1
  6
Continuous
100
AcDbLine
 10
595.3783550000001
 20
316.280829
 30
0.0
 11
595.3783550000001
 21
348.2808289999999
 31
0.0
  0
LINE
  5
DCE4
330
DA1C
100
AcDbEntity
  8
1
  6
Continuous
100
AcDbLine
 10
595.3783550000001
 20
316.280829
 30
0.0
 11
596.8783550000003
 21
316.280829
 31
0.0
  0
LINE
  5
DCE5
330
DA1C
100
AcDbEntity
  8
1
  6
Continuous
100
AcDbLine
 10
605.3783550000003
 20
316.280829
 30
0.0
 11
603.8783550000001
 21
316.280829
 31
0.0
  0
LINE
  5
DCE6
330
DA1C
100
AcDbEntity
  8
1
  6
Continuous
100
AcDbLine
 10
598.4413909999998
 20
312.07357
 30
0.0
 11
602.3153179999998
 21
312.07357
 31
0.0
  0
LINE
  5
DCE7
330
DA1C
100
AcDbEntity
  8
1
  6
Continuous
100
AcDbLine
 10
598.0056860000002
 20
322.1771989999999
 30
0.0
 11
602.751023
 21
322.1771989999999
 31
0.0
  0
ARC
  5
DCE8
330
DA1C
100
AcDbEntity
  8
1
  6
Continuous
100
AcDbCircle
 10
591.9955589999997
 20
317.1253849999998
 30
0.0
 40
11.882796
100
AcDbArc
 50
345.2736279999998
 51
25.159327
  0
ARC
  5
DCE9
330
DA1C
100
AcDbEntity
  8
1
  6
Continuous
100
AcDbCircle
 10
608.76115
 20
317.1253849999998
 30
0.0
 40
11.882796
100
AcDbArc
 50
154.840673
 51
194.726372
  0
LINE
  5
DCEA
330
DA1C
100
AcDbEntity
  8
1
  6
Continuous
100
AcDbLine
 10
605.3783550000003
 20
321.343679
 30
0.0
 11
605.678355
 21
320.1855289999999
 31
0.0
  0
LINE
  5
DCEB
330
DA1C
100
AcDbEntity
  8
1
  6
Continuous
100
AcDbLine
 10
605.678355
 20
321.343679
 30
0.0
 11
605.3783550000003
 21
321.343679
 31
0.0
  0
LINE
  5
DCEC
330
DA1C
100
AcDbEntity
  8
1
  6
Continuous
100
AcDbLine
 10
605.3783550000003
 20
325.521319
 30
0.0
 11
605.678355
 21
325.821329
 31
0.0
  0
LINE
  5
DCED
330
DA1C
100
AcDbEntity
  8
1
  6
Continuous
100
AcDbLine
 10
605.678355
 20
325.2213189999999
 30
0.0
 11
605.3783550000003
 21
325.521319
 31
0.0
  0
LINE
  5
DCEE
330
DA1C
100
AcDbEntity
  8
1
  6
Continuous
100
AcDbLine
 10
603.8783550000001
 20
314.7808289999999
 30
0.0
 11
602.3153170000001
 21
312.073569
 31
0.0
  0
LINE
  5
DCEF
330
DA1C
100
AcDbEntity
  8
1
  6
Continuous
100
AcDbLine
 10
596.8783550000003
 20
314.7808289999999
 30
0.0
 11
598.4413919999998
 21
312.073569
 31
0.0
  0
LINE
  5
DCF0
330
DA1C
100
AcDbEntity
  8
1
  6
Continuous
100
AcDbLine
 10
595.3783550000001
 20
348.2808289999999
 30
0.0
 11
596.8783550000003
 21
348.2808289999999
 31
0.0
  0
LINE
  5
DCF1
330
DA1C
100
AcDbEntity
  8
1
  6
Continuous
100
AcDbLine
 10
605.3783550000003
 20
348.2808289999999
 30
0.0
 11
603.8783550000001
 21
348.2808289999999
 31
0.0
  0
LINE
  5
DCF2
330
DA1C
100
AcDbEntity
  8
1
  6
Continuous
100
AcDbLine
 10
598.0056860000002
 20
342.3844589999998
 30
0.0
 11
602.751023
 21
342.3844589999998
 31
0.0
  0
ARC
  5
DCF3
330
DA1C
100
AcDbEntity
  8
1
  6
Continuous
100
AcDbCircle
 10
591.9955589999997
 20
347.4362740000001
 30
0.0
 40
11.882796
100
AcDbArc
 50
334.8406729999999
 51
14.726371
  0
ARC
  5
DCF4
330
DA1C
100
AcDbEntity
  8
1
  6
Continuous
100
AcDbCircle
 10
608.76115
 20
347.4362740000001
 30
0.0
 40
11.882796
100
AcDbArc
 50
165.2736289999998
 51
205.159327
  0
LINE
  5
DCF5
330
DA1C
100
AcDbEntity
  8
1
  6
Continuous
100
AcDbLine
 10
605.3783550000003
 20
332.2707789999999
 30
0.0
 11
605.678355
 21
331.9707789999998
 31
0.0
  0
LINE
  5
DCF6
330
DA1C
100
AcDbEntity
  8
1
  6
Continuous
100
AcDbLine
 10
605.678355
 20
332.570779
 30
0.0
 11
605.3783550000003
 21
332.2707789999999
 31
0.0
  0
LINE
  5
DCF7
330
DA1C
100
AcDbEntity
  8
1
  6
Continuous
100
AcDbLine
 10
605.678355
 20
343.217979
 30
0.0
 11
605.3783550000003
 21
343.217979
 31
0.0
  0
LINE
  5
DCF8
330
DA1C
100
AcDbEntity
  8
1
  6
Continuous
100
AcDbLine
 10
605.3783550000003
 20
343.217979
 30
0.0
 11
605.678355
 21
344.3761289999998
 31
0.0
  0
LINE
  5
DCF9
330
DA1C
100
AcDbEntity
  8
1
  6
Continuous
100
AcDbLine
 10
605.678355
 20
339.3403589999999
 30
0.0
 11
605.3783550000003
 21
339.0403589999999
 31
0.0
  0
LINE
  5
DCFA
330
DA1C
100
AcDbEntity
  8
1
  6
Continuous
100
AcDbLine
 10
605.3783550000003
 20
339.0403589999999
 30
0.0
 11
605.678355
 21
338.740359
 31
0.0
  0
LINE
  5
DCFB
330
DA1C
100
AcDbEntity
  8
1
  6
Continuous
100
AcDbLine
 10
607.0783549999998
 20
349.780829
 30
0.0
 11
607.0783549999998
 21
314.7808289999999
 31
0.0
  0
LINE
  5
DCFC
330
DA1C
100
AcDbEntity
  8
1
  6
Continuous
100
AcDbLine
 10
607.3783550000001
 20
321.343679
 30
0.0
 11
607.0783549999998
 21
320.1855289999999
 31
0.0
  0
LINE
  5
DCFD
330
DA1C
100
AcDbEntity
  8
1
  6
Continuous
100
AcDbLine
 10
607.0783549999998
 20
321.343679
 30
0.0
 11
607.3783550000001
 21
321.343679
 31
0.0
  0
LINE
  5
DCFE
330
DA1C
100
AcDbEntity
  8
1
  6
Continuous
100
AcDbLine
 10
607.3783550000001
 20
325.521319
 30
0.0
 11
607.0783549999998
 21
325.2213189999999
 31
0.0
  0
LINE
  5
DCFF
330
DA1C
100
AcDbEntity
  8
1
  6
Continuous
100
AcDbLine
 10
607.3783550000001
 20
325.521319
 30
0.0
 11
607.0783549999998
 21
325.821329
 31
0.0
  0
LINE
  5
DD00
330
DA1C
100
AcDbEntity
  8
1
  6
Continuous
100
AcDbLine
 10
607.3783550000001
 20
332.290859
 30
0.0
 11
607.0783549999998
 21
332.5908589999999
 31
0.0
  0
LINE
  5
DD01
330
DA1C
100
AcDbEntity
  8
1
  6
Continuous
100
AcDbLine
 10
607.3783550000001
 20
332.290859
 30
0.0
 11
607.0783549999998
 21
331.990859
 31
0.0
  0
LINE
  5
DD02
330
DA1C
100
AcDbEntity
  8
1
  6
Continuous
100
AcDbLine
 10
607.0783549999998
 20
343.217979
 30
0.0
 11
607.3783550000001
 21
343.217979
 31
0.0
  0
LINE
  5
DD03
330
DA1C
100
AcDbEntity
  8
1
  6
Continuous
100
AcDbLine
 10
607.3783550000001
 20
343.217979
 30
0.0
 11
607.0783549999998
 21
344.3761289999998
 31
0.0
  0
LINE
  5
DD04
330
DA1C
100
AcDbEntity
  8
1
  6
Continuous
100
AcDbLine
 10
607.3783550000001
 20
339.0403589999999
 30
0.0
 11
607.0783549999998
 21
338.740359
 31
0.0
  0
LINE
  5
DD05
330
DA1C
100
AcDbEntity
  8
1
  6
Continuous
100
AcDbLine
 10
607.3783550000001
 20
339.0403589999999
 30
0.0
 11
607.0783549999998
 21
339.3403589999999
 31
0.0
  0
LINE
  5
DD06
330
DA1C
100
AcDbEntity
  8
1
  6
Continuous
100
AcDbLine
 10
598.4413919999998
 20
352.4880889999997
 30
0.0
 11
602.3153170000001
 21
352.4880889999997
 31
0.0
  0
LINE
  5
DD07
330
DA1C
100
AcDbEntity
  8
1
  6
Continuous
100
AcDbLine
 10
258.733666
 20
505.308594
 30
0.0
 11
258.733666
 21
489.808594
 31
0.0
  0
ARC
  5
DD08
330
DA1C
100
AcDbEntity
  8
1
  6
Continuous
100
AcDbCircle
 10
258.5336659999999
 20
505.308594
 30
0.0
 40
0.2
100
AcDbArc
 50
0.0
 51
41.40962199999999
  0
ARC
  5
DD09
330
DA1C
100
AcDbEntity
  8
1
  6
Continuous
100
AcDbCircle
 10
258.5336659999999
 20
489.808594
 30
0.0
 40
0.2
100
AcDbArc
 50
318.5903779999998
 51
0.0
  0
LINE
  5
DD0A
330
DA1C
100
AcDbEntity
  8
1
  6
Continuous
100
AcDbLine
 10
258.733666
 20
339.156922
 30
0.0
 11
258.733666
 21
325.404736
 31
0.0
  0
ARC
  5
DD0B
330
DA1C
100
AcDbEntity
  8
1
  6
Continuous
100
AcDbCircle
 10
258.5336659999999
 20
340.0308289999999
 30
0.0
 40
0.2
100
AcDbArc
 50
0.0
 51
41.40962199999999
  0
LINE
  5
DD0C
330
DA1C
100
AcDbEntity
  8
1
  6
Continuous
100
AcDbLine
 10
258.733666
 20
340.0308289999999
 30
0.0
 11
258.733666
 21
324.530829
 31
0.0
  0
ARC
  5
DD0D
330
DA1C
100
AcDbEntity
  8
1
  6
Continuous
100
AcDbCircle
 10
258.5336659999999
 20
324.530829
 30
0.0
 40
0.2
100
AcDbArc
 50
318.5903779999998
 51
0.0
  0
LINE
  5
DD0E
330
DA1C
100
AcDbEntity
  8
1
  6
Continuous
100
AcDbLine
 10
258.733666
 20
84.72864099999998
 30
0.0
 11
258.733666
 21
70.976455
 31
0.0
  0
ARC
  5
DD0F
330
DA1C
100
AcDbEntity
  8
1
  6
Continuous
100
AcDbCircle
 10
258.5336659999999
 20
85.602548
 30
0.0
 40
0.2
100
AcDbArc
 50
0.0
 51
41.40962199999999
  0
LINE
  5
DD10
330
DA1C
100
AcDbEntity
  8
1
  6
Continuous
100
AcDbLine
 10
258.733666
 20
85.602548
 30
0.0
 11
258.733666
 21
70.102548
 31
0.0
  0
ARC
  5
DD11
330
DA1C
100
AcDbEntity
  8
1
  6
Continuous
100
AcDbCircle
 10
258.5336659999999
 20
70.102548
 30
0.0
 40
0.2
100
AcDbArc
 50
318.5903779999998
 51
0.0
  0
ARC
  5
DD12
330
DA1C
100
AcDbEntity
  8
1
  6
Continuous
100
AcDbCircle
 10
248.233666
 20
497.558594
 30
0.0
 40
61.0
100
AcDbArc
 50
172.4640909999999
 51
187.535909
  0
ARC
  5
DD13
330
DA1C
100
AcDbEntity
  8
1
  6
Continuous
100
AcDbCircle
 10
248.233666
 20
497.558594
 30
0.0
 40
60.5
100
AcDbArc
 50
169.042393
 51
190.957607
  0
ARC
  5
DD14
330
DA1C
100
AcDbEntity
  8
1
  6
Continuous
100
AcDbCircle
 10
248.233666
 20
497.558594
 30
0.0
 40
60.0
100
AcDbArc
 50
167.7683659999999
 51
168.949935
  0
ARC
  5
DD15
330
DA1C
100
AcDbEntity
  8
1
  6
Continuous
100
AcDbCircle
 10
190.5730209999999
 20
510.058594
 30
0.0
 40
1.0
100
AcDbArc
 50
90.0
 51
167.7683659999999
  0
ARC
  5
DD16
330
DA1C
100
AcDbEntity
  8
1
  6
Continuous
100
AcDbCircle
 10
190.5730209999999
 20
485.058594
 30
0.0
 40
1.0
100
AcDbArc
 50
192.231634
 51
270.0
  0
ARC
  5
DD17
330
DA1C
100
AcDbEntity
  8
1
  6
Continuous
100
AcDbCircle
 10
248.233666
 20
497.558594
 30
0.0
 40
60.0
100
AcDbArc
 50
191.0500649999999
 51
192.231634
  0
ARC
  5
DD18
330
DA1C
100
AcDbEntity
  8
1
  6
Continuous
100
AcDbCircle
 10
248.233666
 20
77.852548
 30
0.0
 40
60.5
100
AcDbArc
 50
169.042393
 51
190.957607
  0
LINE
  5
DD19
330
DA1C
100
AcDbEntity
  8
1
  6
Continuous
100
AcDbLine
 10
189.3460609999999
 20
66.352548
 30
0.0
 11
188.8366959999999
 21
66.352548
 31
0.0
  0
ARC
  5
DD1A
330
DA1C
100
AcDbEntity
  8
1
  6
Continuous
100
AcDbCircle
 10
248.233666
 20
77.852548
 30
0.0
 40
61.0
100
AcDbArc
 50
172.4640909999999
 51
187.535909
  0
LINE
  5
DD1B
330
DA1C
100
AcDbEntity
  8
1
  6
Continuous
100
AcDbLine
 10
188.264924
 20
69.85254799999998
 30
0.0
 11
187.7605309999999
 21
69.85254799999998
 31
0.0
  0
LINE
  5
DD1C
330
DA1C
100
AcDbEntity
  8
1
  6
Continuous
100
AcDbLine
 10
188.264924
 20
85.85254799999999
 30
0.0
 11
187.7605309999999
 21
85.85254799999999
 31
0.0
  0
LINE
  5
DD1D
330
DA1C
100
AcDbEntity
  8
1
  6
Continuous
100
AcDbLine
 10
189.3460609999999
 20
89.352548
 30
0.0
 11
188.8366959999999
 21
89.352548
 31
0.0
  0
ARC
  5
DD1E
330
DA1C
100
AcDbEntity
  8
1
  6
Continuous
100
AcDbCircle
 10
256.233666
 20
77.852548
 30
0.0
 40
60.0
100
AcDbArc
 50
173.0154499999999
 51
186.98455
  0
ARC
  5
DD1F
330
DA1C
100
AcDbEntity
  8
1
  6
Continuous
100
AcDbCircle
 10
197.671506
 20
85.02704799999998
 30
0.0
 40
1.0
100
AcDbArc
 50
90.0
 51
173.0154499999999
  0
ARC
  5
DD20
330
DA1C
100
AcDbEntity
  8
1
  6
Continuous
100
AcDbCircle
 10
197.671506
 20
70.67804800000001
 30
0.0
 40
1.0
100
AcDbArc
 50
186.98455
 51
270.0
  0
ARC
  5
DD21
330
DA1C
100
AcDbEntity
  8
1
  6
Continuous
100
AcDbCircle
 10
248.233666
 20
77.852548
 30
0.0
 40
60.0
100
AcDbArc
 50
167.7683659999999
 51
192.231634
  0
ARC
  5
DD22
330
DA1C
100
AcDbEntity
  8
1
  6
Continuous
100
AcDbCircle
 10
190.5730209999999
 20
65.352548
 30
0.0
 40
1.0
100
AcDbArc
 50
192.231634
 51
270.0
  0
ARC
  5
DD23
330
DA1C
100
AcDbEntity
  8
1
  6
Continuous
100
AcDbCircle
 10
190.5730209999999
 20
90.352548
 30
0.0
 40
1.0
100
AcDbArc
 50
90.0
 51
167.7683659999999
  0
LINE
  5
DD24
330
DA1C
100
AcDbEntity
  8
1
  6
Continuous
100
AcDbLine
 10
197.0087849999999
 20
85.77591400000001
 30
0.0
 11
189.945272
 21
91.13096400000001
 31
0.0
  0
LINE
  5
DD25
330
DA1C
100
AcDbEntity
  8
1
  6
Continuous
100
AcDbLine
 10
197.0087849999999
 20
69.929181
 30
0.0
 11
189.945272
 21
64.57413100000001
 31
0.0
  0
LINE
  5
DD26
330
DA1C
100
AcDbEntity
  8
1
  6
Continuous
100
AcDbLine
 10
187.733666
 20
330.2808289999999
 30
0.0
 11
187.233666
 21
329.7808289999999
 31
0.0
  0
LINE
  5
DD27
330
DA1C
100
AcDbEntity
  8
1
  6
Continuous
100
AcDbLine
 10
188.8366959999999
 20
346.5992769999999
 30
0.0
 11
188.8366959999999
 21
315.2808289999999
 31
0.0
  0
LINE
  5
DD28
330
DA1C
100
AcDbEntity
  8
1
  6
Continuous
100
AcDbLine
 10
189.3460609999999
 20
346.5992769999999
 30
0.0
 11
189.3460609999999
 21
315.2808289999999
 31
0.0
  0
LINE
  5
DD29
330
DA1C
100
AcDbEntity
  8
1
  6
Continuous
100
AcDbLine
 10
187.233666
 20
329.7808289999999
 30
0.0
 11
187.733666
 21
329.2808289999999
 31
0.0
  0
LINE
  5
DD2A
330
DA1C
100
AcDbEntity
  8
1
  6
Continuous
100
AcDbLine
 10
187.733666
 20
329.2808289999999
 30
0.0
 11
187.233666
 21
328.780829
 31
0.0
  0
LINE
  5
DD2B
330
DA1C
100
AcDbEntity
  8
1
  6
Continuous
100
AcDbLine
 10
187.233666
 20
328.780829
 30
0.0
 11
187.733666
 21
328.2808289999999
 31
0.0
  0
LINE
  5
DD2C
330
DA1C
100
AcDbEntity
  8
1
  6
Continuous
100
AcDbLine
 10
187.733666
 20
328.2808289999999
 30
0.0
 11
187.233666
 21
327.7808289999999
 31
0.0
  0
LINE
  5
DD2D
330
DA1C
100
AcDbEntity
  8
1
  6
Continuous
100
AcDbLine
 10
187.233666
 20
327.7808289999999
 30
0.0
 11
187.733666
 21
327.2808289999999
 31
0.0
  0
LINE
  5
DD2E
330
DA1C
100
AcDbEntity
  8
1
  6
Continuous
100
AcDbLine
 10
187.733666
 20
327.2808289999999
 30
0.0
 11
187.233666
 21
326.780829
 31
0.0
  0
LINE
  5
DD2F
330
DA1C
100
AcDbEntity
  8
1
  6
Continuous
100
AcDbLine
 10
187.233666
 20
326.780829
 30
0.0
 11
187.733666
 21
326.2808289999999
 31
0.0
  0
LINE
  5
DD30
330
DA1C
100
AcDbEntity
  8
1
  6
Continuous
100
AcDbLine
 10
187.733666
 20
326.2808289999999
 30
0.0
 11
187.233666
 21
325.7808289999999
 31
0.0
  0
LINE
  5
DD31
330
DA1C
100
AcDbEntity
  8
1
  6
Continuous
100
AcDbLine
 10
187.733666
 20
325.2808289999999
 30
0.0
 11
187.233666
 21
324.780829
 31
0.0
  0
LINE
  5
DD32
330
DA1C
100
AcDbEntity
  8
1
  6
Continuous
100
AcDbLine
 10
187.233666
 20
324.780829
 30
0.0
 11
187.733666
 21
324.2808289999999
 31
0.0
  0
LINE
  5
DD33
330
DA1C
100
AcDbEntity
  8
1
  6
Continuous
100
AcDbLine
 10
187.733666
 20
324.2808289999999
 30
0.0
 11
187.233666
 21
323.7808289999999
 31
0.0
  0
LINE
  5
DD34
330
DA1C
100
AcDbEntity
  8
1
  6
Continuous
100
AcDbLine
 10
187.233666
 20
323.7808289999999
 30
0.0
 11
187.733666
 21
323.2808289999999
 31
0.0
  0
LINE
  5
DD35
330
DA1C
100
AcDbEntity
  8
1
  6
Continuous
100
AcDbLine
 10
187.733666
 20
323.2808289999999
 30
0.0
 11
187.233666
 21
322.780829
 31
0.0
  0
LINE
  5
DD36
330
DA1C
100
AcDbEntity
  8
1
  6
Continuous
100
AcDbLine
 10
187.233666
 20
322.780829
 30
0.0
 11
187.733666
 21
322.2808289999999
 31
0.0
  0
LINE
  5
DD37
330
DA1C
100
AcDbEntity
  8
1
  6
Continuous
100
AcDbLine
 10
187.733666
 20
322.2808289999999
 30
0.0
 11
187.233666
 21
321.7808289999999
 31
0.0
  0
LINE
  5
DD38
330
DA1C
100
AcDbEntity
  8
1
  6
Continuous
100
AcDbLine
 10
187.233666
 20
321.7808289999999
 30
0.0
 11
187.733666
 21
321.2808289999999
 31
0.0
  0
LINE
  5
DD39
330
DA1C
100
AcDbEntity
  8
1
  6
Continuous
100
AcDbLine
 10
187.733666
 20
321.2808289999999
 30
0.0
 11
187.233666
 21
320.780829
 31
0.0
  0
LINE
  5
DD3A
330
DA1C
100
AcDbEntity
  8
1
  6
Continuous
100
AcDbLine
 10
187.233666
 20
320.780829
 30
0.0
 11
187.733666
 21
320.280829
 31
0.0
  0
LINE
  5
DD3B
330
DA1C
100
AcDbEntity
  8
1
  6
Continuous
100
AcDbLine
 10
187.733666
 20
320.280829
 30
0.0
 11
187.233666
 21
319.7808289999999
 31
0.0
  0
LINE
  5
DD3C
330
DA1C
100
AcDbEntity
  8
1
  6
Continuous
100
AcDbLine
 10
187.233666
 20
319.7808289999999
 30
0.0
 11
187.733666
 21
319.2808289999998
 31
0.0
  0
LINE
  5
DD3D
330
DA1C
100
AcDbEntity
  8
1
  6
Continuous
100
AcDbLine
 10
187.733666
 20
319.2808289999998
 30
0.0
 11
187.233666
 21
318.7808289999999
 31
0.0
  0
LINE
  5
DD3E
330
DA1C
100
AcDbEntity
  8
1
  6
Continuous
100
AcDbLine
 10
187.233666
 20
318.7808289999999
 30
0.0
 11
187.733666
 21
318.280829
 31
0.0
  0
LINE
  5
DD3F
330
DA1C
100
AcDbEntity
  8
1
  6
Continuous
100
AcDbLine
 10
187.733666
 20
315.2808289999999
 30
0.0
 11
189.3460609999999
 21
315.2808289999999
 31
0.0
  0
LINE
  5
DD40
330
DA1C
100
AcDbEntity
  8
1
  6
Continuous
100
AcDbLine
 10
187.733666
 20
318.280829
 30
0.0
 11
187.733666
 21
315.2808289999999
 31
0.0
  0
LINE
  5
DD41
330
DA1C
100
AcDbEntity
  8
1
  6
Continuous
100
AcDbLine
 10
187.233666
 20
325.7808289999999
 30
0.0
 11
187.733666
 21
325.2808289999999
 31
0.0
  0
ARC
  5
DD42
330
DA1C
100
AcDbEntity
  8
1
  6
Continuous
100
AcDbCircle
 10
188.733666
 20
348.2808289999999
 30
0.0
 40
1.0
100
AcDbArc
 50
90.0
 51
180.0
  0
LINE
  5
DD43
330
DA1C
100
AcDbEntity
  8
1
  6
Continuous
100
AcDbLine
 10
189.3460609999999
 20
346.5992769999999
 30
0.0
 11
190.1421839999999
 21
345.444977
 31
0.0
  0
ARC
  5
DD44
330
DA1C
100
AcDbEntity
  8
1
  6
Continuous
100
AcDbCircle
 10
190.7721399999998
 20
344.36757
 30
0.0
 40
1.0
100
AcDbArc
 50
90.0
 51
180.0
  0
LINE
  5
DD45
330
DA1C
100
AcDbEntity
  8
1
  6
Continuous
100
AcDbLine
 10
188.8366959999999
 20
346.5992769999999
 30
0.0
 11
189.3460609999999
 21
346.5992769999999
 31
0.0
  0
LINE
  5
DD46
330
DA1C
100
AcDbEntity
  8
1
  6
Continuous
100
AcDbLine
 10
188.8366959999999
 20
346.5992769999999
 30
0.0
 11
188.418109
 21
348.4154849999998
 31
0.0
  0
LINE
  5
DD47
330
DA1C
100
AcDbEntity
  8
1
  6
Continuous
100
AcDbLine
 10
187.733666
 20
348.2808289999999
 30
0.0
 11
187.733666
 21
330.2808289999999
 31
0.0
  0
LINE
  5
DD48
330
DA1C
100
AcDbEntity
  8
1
  6
Continuous
100
AcDbLine
 10
657.846258
 20
322.530829
 30
0.0
 11
635.7962579999997
 21
322.530829
 31
0.0
  0
LINE
  5
DD49
330
DA1C
100
AcDbEntity
  8
1
  6
Continuous
100
AcDbLine
 10
657.846258
 20
342.0308289999999
 30
0.0
 11
635.7962579999997
 21
342.0308289999999
 31
0.0
  0
LINE
  5
DD4A
330
DA1C
100
AcDbEntity
  8
4
  6
CENTER
100
AcDbLine
 10
709.893552
 20
332.2808289999999
 30
0.0
 11
622.496258
 21
332.2808289999999
 31
0.0
  0
LINE
  5
DD4B
330
DA1C
100
AcDbEntity
  8
1
  6
Continuous
100
AcDbLine
 10
706.9462579999998
 20
328.780829
 30
0.0
 11
706.4462579999998
 21
328.2808289999999
 31
0.0
  0
LINE
  5
DD4C
330
DA1C
100
AcDbEntity
  8
1
  6
Continuous
100
AcDbLine
 10
705.3432279999998
 20
346.5992769999999
 30
0.0
 11
705.3432279999998
 21
315.2808289999999
 31
0.0
  0
LINE
  5
DD4D
330
DA1C
100
AcDbEntity
  8
1
  6
Continuous
100
AcDbLine
 10
704.8338629999998
 20
346.5992769999999
 30
0.0
 11
704.8338629999998
 21
315.2808289999999
 31
0.0
  0
LINE
  5
DD4E
330
DA1C
100
AcDbEntity
  8
1
  6
Continuous
100
AcDbLine
 10
672.396258
 20
318.4193209999999
 30
0.0
 11
672.396258
 21
346.152693
 31
0.0
  0
LINE
  5
DD4F
330
DA1C
100
AcDbEntity
  8
1
  6
Continuous
100
AcDbLine
 10
672.4462579999998
 20
318.280829
 30
0.0
 11
672.4462579999998
 21
346.2808289999999
 31
0.0
  0
LINE
  5
DD50
330
DA1C
100
AcDbEntity
  8
1
  6
Continuous
100
AcDbLine
 10
658.846258
 20
362.280829
 30
0.0
 11
658.846258
 21
302.2808289999999
 31
0.0
  0
LINE
  5
DD51
330
DA1C
100
AcDbEntity
  8
1
  6
Continuous
100
AcDbLine
 10
657.846258
 20
362.280829
 30
0.0
 11
657.846258
 21
302.2808289999999
 31
0.0
  0
LINE
  5
DD52
330
DA1C
100
AcDbEntity
  8
1
  6
Continuous
100
AcDbLine
 10
662.846258
 20
355.9912569999998
 30
0.0
 11
662.846258
 21
308.570401
 31
0.0
  0
LINE
  5
DD53
330
DA1C
100
AcDbEntity
  8
1
  6
Continuous
100
AcDbLine
 10
684.9462579999998
 20
222.9671209999999
 30
0.0
 11
684.9462579999998
 21
220.280829
 31
0.0
  0
LINE
  5
DD54
330
DA1C
100
AcDbEntity
  8
1
  6
Continuous
100
AcDbLine
 10
705.2342369999997
 20
298.4195859999999
 30
0.0
 11
698.101207
 21
214.112217
 31
0.0
  0
ARC
  5
DD55
330
DA1C
100
AcDbEntity
  8
1
  6
Continuous
100
AcDbCircle
 10
692.9462579999998
 20
220.280829
 30
0.0
 40
8.0
100
AcDbArc
 50
180.0
 51
270.0
  0
LINE
  5
DD56
330
DA1C
100
AcDbEntity
  8
1
  6
Continuous
100
AcDbLine
 10
696.1083269999996
 20
212.280829
 30
0.0
 11
692.9462579999998
 21
212.280829
 31
0.0
  0
ARC
  5
DD57
330
DA1C
100
AcDbEntity
  8
1
  6
Continuous
100
AcDbCircle
 10
696.1083269999996
 20
214.280829
 30
0.0
 40
2.0
100
AcDbArc
 50
270.0
 51
355.1638689999998
  0
ARC
  5
DD58
330
DA1C
100
AcDbEntity
  8
1
  6
Continuous
100
AcDbCircle
 10
505.9462579999998
 20
315.2808289999999
 30
0.0
 40
200.0
100
AcDbArc
 50
355.1638689999998
 51
0.0
  0
LINE
  5
DD59
330
DA1C
100
AcDbEntity
  8
1
  6
Continuous
100
AcDbLine
 10
706.4462579999998
 20
328.2808289999999
 30
0.0
 11
706.9462579999998
 21
327.7808289999999
 31
0.0
  0
LINE
  5
DD5A
330
DA1C
100
AcDbEntity
  8
1
  6
Continuous
100
AcDbLine
 10
706.9462579999998
 20
327.7808289999999
 30
0.0
 11
706.4462579999998
 21
327.2808289999999
 31
0.0
  0
LINE
  5
DD5B
330
DA1C
100
AcDbEntity
  8
1
  6
Continuous
100
AcDbLine
 10
706.4462579999998
 20
327.2808289999999
 30
0.0
 11
706.9462579999998
 21
326.780829
 31
0.0
  0
LINE
  5
DD5C
330
DA1C
100
AcDbEntity
  8
1
  6
Continuous
100
AcDbLine
 10
706.9462579999998
 20
326.780829
 30
0.0
 11
706.4462579999998
 21
326.2808289999999
 31
0.0
  0
LINE
  5
DD5D
330
DA1C
100
AcDbEntity
  8
1
  6
Continuous
100
AcDbLine
 10
706.4462579999998
 20
326.2808289999999
 30
0.0
 11
706.9462579999998
 21
325.7808289999999
 31
0.0
  0
LINE
  5
DD5E
330
DA1C
100
AcDbEntity
  8
1
  6
Continuous
100
AcDbLine
 10
706.4462579999998
 20
325.2808289999999
 30
0.0
 11
706.9462579999998
 21
324.780829
 31
0.0
  0
LINE
  5
DD5F
330
DA1C
100
AcDbEntity
  8
1
  6
Continuous
100
AcDbLine
 10
706.9462579999998
 20
324.780829
 30
0.0
 11
706.4462579999998
 21
324.2808289999999
 31
0.0
  0
LINE
  5
DD60
330
DA1C
100
AcDbEntity
  8
1
  6
Continuous
100
AcDbLine
 10
706.4462579999998
 20
324.2808289999999
 30
0.0
 11
706.9462579999998
 21
323.7808289999999
 31
0.0
  0
LINE
  5
DD61
330
DA1C
100
AcDbEntity
  8
1
  6
Continuous
100
AcDbLine
 10
706.9462579999998
 20
323.7808289999999
 30
0.0
 11
706.4462579999998
 21
323.2808289999999
 31
0.0
  0
LINE
  5
DD62
330
DA1C
100
AcDbEntity
  8
1
  6
Continuous
100
AcDbLine
 10
706.4462579999998
 20
323.2808289999999
 30
0.0
 11
706.9462579999998
 21
322.780829
 31
0.0
  0
LINE
  5
DD63
330
DA1C
100
AcDbEntity
  8
1
  6
Continuous
100
AcDbLine
 10
706.9462579999998
 20
322.780829
 30
0.0
 11
706.4462579999998
 21
322.2808289999999
 31
0.0
  0
LINE
  5
DD64
330
DA1C
100
AcDbEntity
  8
1
  6
Continuous
100
AcDbLine
 10
706.4462579999998
 20
322.2808289999999
 30
0.0
 11
706.9462579999998
 21
321.7808289999999
 31
0.0
  0
LINE
  5
DD65
330
DA1C
100
AcDbEntity
  8
1
  6
Continuous
100
AcDbLine
 10
706.9462579999998
 20
321.7808289999999
 30
0.0
 11
706.4462579999998
 21
321.2808289999999
 31
0.0
  0
LINE
  5
DD66
330
DA1C
100
AcDbEntity
  8
1
  6
Continuous
100
AcDbLine
 10
706.4462579999998
 20
321.2808289999999
 30
0.0
 11
706.9462579999998
 21
320.780829
 31
0.0
  0
LINE
  5
DD67
330
DA1C
100
AcDbEntity
  8
1
  6
Continuous
100
AcDbLine
 10
706.9462579999998
 20
320.780829
 30
0.0
 11
706.4462579999998
 21
320.280829
 31
0.0
  0
LINE
  5
DD68
330
DA1C
100
AcDbEntity
  8
1
  6
Continuous
100
AcDbLine
 10
706.4462579999998
 20
320.280829
 30
0.0
 11
706.9462579999998
 21
319.7808289999999
 31
0.0
  0
LINE
  5
DD69
330
DA1C
100
AcDbEntity
  8
1
  6
Continuous
100
AcDbLine
 10
706.9462579999998
 20
319.7808289999999
 30
0.0
 11
706.4462579999998
 21
319.2808289999998
 31
0.0
  0
LINE
  5
DD6A
330
DA1C
100
AcDbEntity
  8
1
  6
Continuous
100
AcDbLine
 10
706.4462579999998
 20
319.2808289999998
 30
0.0
 11
706.9462579999998
 21
318.7808289999999
 31
0.0
  0
LINE
  5
DD6B
330
DA1C
100
AcDbEntity
  8
1
  6
Continuous
100
AcDbLine
 10
706.9462579999998
 20
318.7808289999999
 30
0.0
 11
706.4462579999998
 21
318.280829
 31
0.0
  0
LINE
  5
DD6C
330
DA1C
100
AcDbEntity
  8
1
  6
Continuous
100
AcDbLine
 10
706.4462579999998
 20
315.2808289999999
 30
0.0
 11
704.8338629999998
 21
315.2808289999999
 31
0.0
  0
LINE
  5
DD6D
330
DA1C
100
AcDbEntity
  8
1
  6
Continuous
100
AcDbLine
 10
706.4462579999998
 20
318.280829
 30
0.0
 11
706.4462579999998
 21
315.2808289999999
 31
0.0
  0
LINE
  5
DD6E
330
DA1C
100
AcDbEntity
  8
1
  6
Continuous
100
AcDbLine
 10
706.9462579999998
 20
325.7808289999999
 30
0.0
 11
706.4462579999998
 21
325.2808289999999
 31
0.0
  0
LINE
  5
DD6F
330
DA1C
100
AcDbEntity
  8
1
  6
Continuous
100
AcDbLine
 10
690.9462579999998
 20
315.1374149999999
 30
0.0
 11
690.9462579999998
 21
234.351897
 31
0.0
  0
ARC
  5
DD70
330
DA1C
100
AcDbEntity
  8
1
  6
Continuous
100
AcDbCircle
 10
692.9462579999998
 20
222.9671209999999
 30
0.0
 40
8.0
100
AcDbArc
 50
135.0
 51
180.0
  0
LINE
  5
DD71
330
DA1C
100
AcDbEntity
  8
1
  6
Continuous
100
AcDbLine
 10
687.289404
 20
228.623975
 30
0.0
 11
689.481792
 21
230.816363
 31
0.0
  0
ARC
  5
DD72
330
DA1C
100
AcDbEntity
  8
1
  6
Continuous
100
AcDbCircle
 10
685.9462579999998
 20
234.351897
 30
0.0
 40
5.0
100
AcDbArc
 50
315.0
 51
0.0
  0
LINE
  5
DD73
330
DA1C
100
AcDbEntity
  8
1
  6
Continuous
100
AcDbLine
 10
663.4157229999997
 20
308.570401
 30
0.0
 11
672.3846299999999
 21
321.988687
 31
0.0
  0
LINE
  5
DD74
330
DA1C
100
AcDbEntity
  8
1
  6
Continuous
100
AcDbLine
 10
672.3352589999998
 20
318.1799919999999
 30
0.0
 11
663.4182369999997
 21
303.323513
 31
0.0
  0
ARC
  5
DD75
330
DA1C
100
AcDbEntity
  8
1
  6
Continuous
100
AcDbCircle
 10
684.9462579999998
 20
315.1374149999999
 30
0.0
 40
6.0
100
AcDbArc
 50
0.0
 51
84.88268499999998
  0
LINE
  5
DD76
330
DA1C
100
AcDbEntity
  8
1
  6
Continuous
100
AcDbLine
 10
672.4462579999998
 20
318.280829
 30
0.0
 11
689.288006
 21
316.7726129999999
 31
0.0
  0
ARC
  5
DD77
330
DA1C
100
AcDbEntity
  8
1
  6
Continuous
100
AcDbCircle
 10
687.9500759999999
 20
301.832401
 30
0.0
 40
15.0
100
AcDbArc
 50
79.148036
 51
84.88268499999998
  0
LINE
  5
DD78
330
DA1C
100
AcDbEntity
  8
1
  6
Continuous
100
AcDbLine
 10
672.4462579999998
 20
322.2808289999999
 30
0.0
 11
685.4814299999998
 21
321.1135
 31
0.0
  0
ARC
  5
DD79
330
DA1C
100
AcDbEntity
  8
1
  6
Continuous
100
AcDbCircle
 10
671.896258
 20
318.4193209999999
 30
0.0
 40
0.5
100
AcDbArc
 50
329.036243
 51
0.0
  0
LINE
  5
DD7A
330
DA1C
100
AcDbEntity
  8
1
  6
Continuous
100
AcDbLine
 10
672.4462579999998
 20
322.2808289999999
 30
0.0
 11
672.396258
 21
322.2808289999999
 31
0.0
  0
LINE
  5
DD7B
330
DA1C
100
AcDbEntity
  8
1
  6
Continuous
100
AcDbLine
 10
657.846258
 20
308.280829
 30
0.0
 11
653.346258
 21
308.280829
 31
0.0
  0
LINE
  5
DD7C
330
DA1C
100
AcDbEntity
  8
1
  6
Continuous
100
AcDbLine
 10
657.846258
 20
314.7808289999999
 30
0.0
 11
653.346258
 21
314.7808289999999
 31
0.0
  0
LINE
  5
DD7D
330
DA1C
100
AcDbEntity
  8
1
  6
Continuous
100
AcDbLine
 10
662.846258
 20
303.318915
 30
0.0
 11
662.846258
 21
307.718431
 31
0.0
  0
LINE
  5
DD7E
330
DA1C
100
AcDbEntity
  8
1
  6
Continuous
100
AcDbLine
 10
661.662234
 20
302.2808289999999
 30
0.0
 11
657.846258
 21
302.2808289999999
 31
0.0
  0
ARC
  5
DD7F
330
DA1C
100
AcDbEntity
  8
1
  6
Continuous
100
AcDbCircle
 10
661.662234
 20
304.2808289999999
 30
0.0
 40
2.0
100
AcDbArc
 50
270.0
 51
331.402214
  0
LINE
  5
DD80
330
DA1C
100
AcDbEntity
  8
1
  6
Continuous
100
AcDbLine
 10
653.346258
 20
314.7808289999999
 30
0.0
 11
653.346258
 21
308.280829
 31
0.0
  0
LINE
  5
DD81
330
DA1C
100
AcDbEntity
  8
1
  6
Continuous
100
AcDbLine
 10
703.407784
 20
345.36757
 30
0.0
 11
692.903316
 21
345.36757
 31
0.0
  0
LINE
  5
DD82
330
DA1C
100
AcDbEntity
  8
1
  6
Continuous
100
AcDbLine
 10
705.4462579999998
 20
349.2808289999999
 30
0.0
 11
692.903316
 21
349.2808289999999
 31
0.0
  0
LINE
  5
DD83
330
DA1C
100
AcDbEntity
  8
1
  6
Continuous
100
AcDbLine
 10
706.4462579999998
 20
330.2808289999999
 30
0.0
 11
706.9462579999998
 21
329.7808289999999
 31
0.0
  0
ARC
  5
DD84
330
DA1C
100
AcDbEntity
  8
1
  6
Continuous
100
AcDbCircle
 10
705.4462579999998
 20
348.2808289999999
 30
0.0
 40
1.0
100
AcDbArc
 50
0.0
 51
90.0
  0
LINE
  5
DD85
330
DA1C
100
AcDbEntity
  8
1
  6
Continuous
100
AcDbLine
 10
704.8338629999998
 20
346.5992769999999
 30
0.0
 11
704.0377399999997
 21
345.444977
 31
0.0
  0
LINE
  5
DD86
330
DA1C
100
AcDbEntity
  8
1
  6
Continuous
100
AcDbLine
 10
705.3432279999998
 20
346.5992769999999
 30
0.0
 11
704.8338629999998
 21
346.5992769999999
 31
0.0
  0
LINE
  5
DD87
330
DA1C
100
AcDbEntity
  8
1
  6
Continuous
100
AcDbLine
 10
705.3432279999998
 20
346.5992769999999
 30
0.0
 11
705.7618149999998
 21
348.4154849999998
 31
0.0
  0
LINE
  5
DD88
330
DA1C
100
AcDbEntity
  8
1
  6
Continuous
100
AcDbLine
 10
706.4462579999998
 20
348.2808289999999
 30
0.0
 11
706.4462579999998
 21
330.2808289999999
 31
0.0
  0
LINE
  5
DD89
330
DA1C
100
AcDbEntity
  8
1
  6
Continuous
100
AcDbLine
 10
706.4462579999998
 20
329.2808289999999
 30
0.0
 11
706.9462579999998
 21
328.780829
 31
0.0
  0
LINE
  5
DD8A
330
DA1C
100
AcDbEntity
  8
1
  6
Continuous
100
AcDbLine
 10
706.9462579999998
 20
329.7808289999999
 30
0.0
 11
706.4462579999998
 21
329.2808289999999
 31
0.0
  0
ARC
  5
DD8B
330
DA1C
100
AcDbEntity
  8
1
  6
Continuous
100
AcDbCircle
 10
703.407784
 20
344.36757
 30
0.0
 40
1.0
100
AcDbArc
 50
0.0
 51
90.0
  0
LINE
  5
DD8C
330
DA1C
100
AcDbEntity
  8
1
  6
Continuous
100
AcDbLine
 10
672.335195
 20
346.3921389999999
 30
0.0
 11
663.4179820000001
 21
361.238612
 31
0.0
  0
LINE
  5
DD8D
330
DA1C
100
AcDbEntity
  8
1
  6
Continuous
100
AcDbLine
 10
663.4157229999997
 20
355.9912569999998
 30
0.0
 11
672.3846299999999
 21
342.572971
 31
0.0
  0
LINE
  5
DD8E
330
DA1C
100
AcDbEntity
  8
1
  6
Continuous
100
AcDbLine
 10
691.397829
 20
349.1668549999998
 30
0.0
 11
672.4462579999998
 21
346.2808289999999
 31
0.0
  0
LINE
  5
DD8F
330
DA1C
100
AcDbEntity
  8
1
  6
Continuous
100
AcDbLine
 10
691.9869650000001
 20
345.298197
 30
0.0
 11
673.035394
 21
342.412171
 31
0.0
  0
ARC
  5
DD90
330
DA1C
100
AcDbEntity
  8
1
  6
Continuous
100
AcDbCircle
 10
692.903316
 20
339.280829
 30
0.0
 40
6.086740999999999
100
AcDbArc
 50
90.0
 51
98.65872100000002
  0
ARC
  5
DD91
330
DA1C
100
AcDbEntity
  8
1
  6
Continuous
100
AcDbCircle
 10
692.903316
 20
339.280829
 30
0.0
 40
10.0
100
AcDbArc
 50
90.0
 51
98.65872100000002
  0
ARC
  5
DD92
330
DA1C
100
AcDbEntity
  8
1
  6
Continuous
100
AcDbCircle
 10
671.896258
 20
346.152693
 30
0.0
 40
0.5
100
AcDbArc
 50
0.0
 51
28.747914
  0
LINE
  5
DD93
330
DA1C
100
AcDbEntity
  8
1
  6
Continuous
100
AcDbLine
 10
672.4462579999998
 20
344.7808289999999
 30
0.0
 11
672.396258
 21
344.7808289999999
 31
0.0
  0
LINE
  5
DD94
330
DA1C
100
AcDbEntity
  8
1
  6
Continuous
100
AcDbLine
 10
672.4462579999998
 20
341.95024
 30
0.0
 11
672.396258
 21
341.95024
 31
0.0
  0
LINE
  5
DD95
330
DA1C
100
AcDbEntity
  8
1
  6
Continuous
100
AcDbLine
 10
653.346258
 20
356.2808289999999
 30
0.0
 11
653.346258
 21
349.780829
 31
0.0
  0
LINE
  5
DD96
330
DA1C
100
AcDbEntity
  8
1
  6
Continuous
100
AcDbLine
 10
657.846258
 20
349.780829
 30
0.0
 11
653.346258
 21
349.780829
 31
0.0
  0
LINE
  5
DD97
330
DA1C
100
AcDbEntity
  8
1
  6
Continuous
100
AcDbLine
 10
657.846258
 20
356.2808289999999
 30
0.0
 11
653.346258
 21
356.2808289999999
 31
0.0
  0
LINE
  5
DD98
330
DA1C
100
AcDbEntity
  8
1
  6
Continuous
100
AcDbLine
 10
661.662234
 20
362.280829
 30
0.0
 11
657.846258
 21
362.280829
 31
0.0
  0
ARC
  5
DD99
330
DA1C
100
AcDbEntity
  8
1
  6
Continuous
100
AcDbCircle
 10
661.662234
 20
360.280829
 30
0.0
 40
2.0
100
AcDbArc
 50
28.613039
 51
90.0
  0
LINE
  5
DD9A
330
DA1C
100
AcDbEntity
  8
1
  6
Continuous
100
AcDbLine
 10
662.846258
 20
361.242743
 30
0.0
 11
662.846258
 21
356.843227
 31
0.0
  0
LINE
  5
DD9B
330
DA1C
100
AcDbEntity
  8
1
  6
Continuous
100
AcDbLine
 10
635.4462579999998
 20
340.0308289999999
 30
0.0
 11
635.4462579999998
 21
324.530829
 31
0.0
  0
LINE
  5
DD9C
330
DA1C
100
AcDbEntity
  8
1
  6
Continuous
100
AcDbLine
 10
635.4462579999998
 20
339.156922
 30
0.0
 11
635.4462579999998
 21
325.404736
 31
0.0
  0
LINE
  5
DD9D
330
DA1C
100
AcDbEntity
  8
1
  6
Continuous
100
AcDbLine
 10
635.496258
 20
341.7308290000002
 30
0.0
 11
635.496258
 21
322.830829
 31
0.0
  0
LINE
  5
DD9E
330
DA1C
100
AcDbEntity
  8
1
  6
Continuous
100
AcDbLine
 10
627.4462579999998
 20
338.8569219999999
 30
0.0
 11
627.4462579999998
 21
325.7047359999999
 31
0.0
  0
LINE
  5
DD9F
330
DA1C
100
AcDbEntity
  8
2
  6
Continuous
100
AcDbLine
 10
635.4462579999998
 20
325.404736
 30
0.0
 11
627.7462579999999
 21
332.2808289999999
 31
0.0
  0
LINE
  5
DDA0
330
DA1C
100
AcDbEntity
  8
2
  6
Continuous
100
AcDbLine
 10
635.4462579999998
 20
332.2808289999999
 30
0.0
 11
627.7462579999999
 21
325.404736
 31
0.0
  0
ARC
  5
DDA1
330
DA1C
100
AcDbEntity
  8
1
  6
Continuous
100
AcDbCircle
 10
635.6462579999997
 20
324.530829
 30
0.0
 40
0.2
100
AcDbArc
 50
180.0
 51
221.409622
  0
LINE
  5
DDA2
330
DA1C
100
AcDbEntity
  8
1
  6
Continuous
100
AcDbLine
 10
627.7462579999999
 20
325.404736
 30
0.0
 11
635.4462579999998
 21
325.404736
 31
0.0
  0
ARC
  5
DDA3
330
DA1C
100
AcDbEntity
  8
1
  6
Continuous
100
AcDbCircle
 10
627.7462579999999
 20
325.7047359999999
 30
0.0
 40
0.3
100
AcDbArc
 50
180.0
 51
270.0
  0
LINE
  5
DDA4
330
DA1C
100
AcDbEntity
  8
1
  6
Continuous
100
AcDbLine
 10
635.7962579999997
 20
322.530829
 30
0.0
 11
635.496258
 21
322.830829
 31
0.0
  0
ARC
  5
DDA5
330
DA1C
100
AcDbEntity
  8
1
  6
Continuous
100
AcDbCircle
 10
635.6462579999997
 20
340.0308289999999
 30
0.0
 40
0.2
100
AcDbArc
 50
138.5903779999999
 51
180.0
  0
LINE
  5
DDA6
330
DA1C
100
AcDbEntity
  8
1
  6
Continuous
100
AcDbLine
 10
627.7462579999999
 20
339.156922
 30
0.0
 11
635.4462579999998
 21
339.156922
 31
0.0
  0
LINE
  5
DDA7
330
DA1C
100
AcDbEntity
  8
1
  6
Continuous
100
AcDbLine
 10
627.7462579999999
 20
332.2808289999999
 30
0.0
 11
635.4462579999998
 21
332.2808289999999
 31
0.0
  0
LINE
  5
DDA8
330
DA1C
100
AcDbEntity
  8
2
  6
Continuous
100
AcDbLine
 10
627.7462579999999
 20
332.2808289999999
 30
0.0
 11
635.4462579999998
 21
339.156922
 31
0.0
  0
LINE
  5
DDA9
330
DA1C
100
AcDbEntity
  8
2
  6
Continuous
100
AcDbLine
 10
627.7462579999999
 20
339.156922
 30
0.0
 11
635.4462579999998
 21
332.2808289999999
 31
0.0
  0
ARC
  5
DDAA
330
DA1C
100
AcDbEntity
  8
1
  6
Continuous
100
AcDbCircle
 10
627.7462579999999
 20
338.8569219999999
 30
0.0
 40
0.3
100
AcDbArc
 50
90.0
 51
180.0
  0
LINE
  5
DDAB
330
DA1C
100
AcDbEntity
  8
1
  6
Continuous
100
AcDbLine
 10
635.7962579999997
 20
342.0308289999999
 30
0.0
 11
635.496258
 21
341.7308290000002
 31
0.0
  0
LINE
  5
DDAC
330
DA1C
100
AcDbEntity
  8
1
  6
Continuous
100
AcDbLine
 10
56.788674
 20
329.7808289999999
 30
0.0
 11
56.211324
 21
329.7808289999999
 31
0.0
  0
LINE
  5
DDAD
330
DA1C
100
AcDbEntity
  8
1
  6
Continuous
100
AcDbLine
 10
57.077349
 20
329.2808289999999
 30
0.0
 11
55.92264899999999
 21
329.2808289999999
 31
0.0
  0
LINE
  5
DDAE
330
DA1C
100
AcDbEntity
  8
1
  6
Continuous
100
AcDbLine
 10
57.36602399999998
 20
328.780829
 30
0.0
 11
55.633974
 21
328.780829
 31
0.0
  0
LINE
  5
DDAF
330
DA1C
100
AcDbEntity
  8
1
  6
Continuous
100
AcDbLine
 10
58.23205
 20
327.2808289999999
 30
0.0
 11
54.767948
 21
327.2808289999999
 31
0.0
  0
LINE
  5
DDB0
330
DA1C
100
AcDbEntity
  8
1
  6
Continuous
100
AcDbLine
 10
57.94337500000001
 20
327.7808289999999
 30
0.0
 11
55.056623
 21
327.7808289999999
 31
0.0
  0
LINE
  5
DDB1
330
DA1C
100
AcDbEntity
  8
1
  6
Continuous
100
AcDbLine
 10
57.6547
 20
328.2808289999999
 30
0.0
 11
55.345298
 21
328.2808289999999
 31
0.0
  0
LINE
  5
DDB2
330
DA1C
100
AcDbEntity
  8
1
  6
Continuous
100
AcDbLine
 10
58.520725
 20
326.780829
 30
0.0
 11
54.47927299999999
 21
326.780829
 31
0.0
  0
LINE
  5
DDB3
330
DA1C
100
AcDbEntity
  8
1
  6
Continuous
100
AcDbLine
 10
58.80939999999998
 20
326.2808289999999
 30
0.0
 11
54.190598
 21
326.2808289999999
 31
0.0
  0
LINE
  5
DDB4
330
DA1C
100
AcDbEntity
  8
1
  6
Continuous
100
AcDbLine
 10
59.098075
 20
325.7808289999999
 30
0.0
 11
53.90192299999998
 21
325.7808289999999
 31
0.0
  0
LINE
  5
DDB5
330
DA1C
100
AcDbEntity
  8
1
  6
Continuous
100
AcDbLine
 10
60.83012599999999
 20
322.780829
 30
0.0
 11
52.169872
 21
322.780829
 31
0.0
  0
LINE
  5
DDB6
330
DA1C
100
AcDbEntity
  8
1
  6
Continuous
100
AcDbLine
 10
60.541451
 20
323.2808289999999
 30
0.0
 11
52.45854699999998
 21
323.2808289999999
 31
0.0
  0
LINE
  5
DDB7
330
DA1C
100
AcDbEntity
  8
1
  6
Continuous
100
AcDbLine
 10
60.25277599999999
 20
323.7808289999999
 30
0.0
 11
52.747222
 21
323.7808289999999
 31
0.0
  0
LINE
  5
DDB8
330
DA1C
100
AcDbEntity
  8
1
  6
Continuous
100
AcDbLine
 10
59.38674999999999
 20
325.2808289999999
 30
0.0
 11
53.613248
 21
325.2808289999999
 31
0.0
  0
LINE
  5
DDB9
330
DA1C
100
AcDbEntity
  8
1
  6
Continuous
100
AcDbLine
 10
59.675425
 20
324.780829
 30
0.0
 11
53.324573
 21
324.780829
 31
0.0
  0
LINE
  5
DDBA
330
DA1C
100
AcDbEntity
  8
1
  6
Continuous
100
AcDbLine
 10
59.964101
 20
324.2808289999999
 30
0.0
 11
53.03589699999999
 21
324.2808289999999
 31
0.0
  0
LINE
  5
DDBB
330
DA1C
100
AcDbEntity
  8
1
  6
Continuous
100
AcDbLine
 10
61.118801
 20
322.2808289999999
 30
0.0
 11
51.881197
 21
322.2808289999999
 31
0.0
  0
LINE
  5
DDBC
330
DA1C
100
AcDbEntity
  8
1
  6
Continuous
100
AcDbLine
 10
61.407476
 20
321.7808289999999
 30
0.0
 11
59.28388100000001
 21
321.7808289999999
 31
0.0
  0
LINE
  5
DDBD
330
DA1C
100
AcDbEntity
  8
1
  6
Continuous
100
AcDbLine
 10
61.696151
 20
321.2808289999999
 30
0.0
 11
60.37298199999999
 21
321.2808289999999
 31
0.0
  0
LINE
  5
DDBE
330
DA1C
100
AcDbEntity
  8
1
  6
Continuous
100
AcDbLine
 10
61.984826
 20
320.780829
 30
0.0
 11
61.163689
 21
320.780829
 31
0.0
  0
LINE
  5
DDBF
330
DA1C
100
AcDbEntity
  8
1
  6
Continuous
100
AcDbLine
 10
62.273502
 20
320.280829
 30
0.0
 11
61.791502
 21
320.280829
 31
0.0
  0
LINE
  5
DDC0
330
DA1C
100
AcDbEntity
  8
1
  6
Continuous
100
AcDbLine
 10
62.562177
 20
319.7808289999999
 30
0.0
 11
62.309474
 21
319.7808289999999
 31
0.0
  0
LINE
  5
DDC1
330
DA1C
100
AcDbEntity
  8
1
  6
Continuous
100
AcDbLine
 10
62.85085200000001
 20
319.2808289999998
 30
0.0
 11
62.74499699999999
 21
319.2808289999998
 31
0.0
  0
LINE
  5
DDC2
330
DA1C
100
AcDbEntity
  8
1
  6
Continuous
100
AcDbLine
 10
63.139527
 20
318.7808289999999
 30
0.0
 11
63.11437699999999
 21
318.7808289999999
 31
0.0
  0
LINE
  5
DDC3
330
DA1C
100
AcDbEntity
  8
1
  6
Continuous
100
AcDbLine
 10
53.71611699999998
 20
321.7808289999999
 30
0.0
 11
51.592522
 21
321.7808289999999
 31
0.0
  0
LINE
  5
DDC4
330
DA1C
100
AcDbEntity
  8
1
  6
Continuous
100
AcDbLine
 10
52.62701599999999
 20
321.2808289999999
 30
0.0
 11
51.303847
 21
321.2808289999999
 31
0.0
  0
LINE
  5
DDC5
330
DA1C
100
AcDbEntity
  8
1
  6
Continuous
100
AcDbLine
 10
49.860471
 20
318.7808289999999
 30
0.0
 11
49.885621
 21
318.7808289999999
 31
0.0
  0
LINE
  5
DDC6
330
DA1C
100
AcDbEntity
  8
1
  6
Continuous
100
AcDbLine
 10
50.149146
 20
319.2808289999998
 30
0.0
 11
50.255001
 21
319.2808289999998
 31
0.0
  0
LINE
  5
DDC7
330
DA1C
100
AcDbEntity
  8
1
  6
Continuous
100
AcDbLine
 10
50.437821
 20
319.7808289999999
 30
0.0
 11
50.690524
 21
319.7808289999999
 31
0.0
  0
LINE
  5
DDC8
330
DA1C
100
AcDbEntity
  8
1
  6
Continuous
100
AcDbLine
 10
50.72649699999999
 20
320.280829
 30
0.0
 11
51.20849599999999
 21
320.280829
 31
0.0
  0
LINE
  5
DDC9
330
DA1C
100
AcDbEntity
  8
1
  6
Continuous
100
AcDbLine
 10
51.01517199999999
 20
320.780829
 30
0.0
 11
51.836309
 21
320.780829
 31
0.0
  0
ARC
  5
DDCA
330
DA1C
100
AcDbEntity
  8
1
  6
Continuous
100
AcDbCircle
 10
45.499999
 20
315.7808289999999
 30
0.0
 40
0.5
100
AcDbArc
 50
180.0
 51
270.0
  0
ARC
  5
DDCB
330
DA1C
100
AcDbEntity
  8
1
  6
Continuous
100
AcDbCircle
 10
67.499999
 20
315.7808289999999
 30
0.0
 40
0.5
100
AcDbArc
 50
270.0
 51
0.0
  0
ENDSEC
  0
SECTION
  2
OBJECTS
  0
DICTIONARY
  5
DA0A
330
0
100
AcDbDictionary
281
     1
  3
ACAD_CIP_PREVIOUS_PRODUCT_INFO
350
DE31
  3
ACAD_COLOR
350
DE13
  3
ACAD_DETAILVIEWSTYLE
350
DE2C
  3
ACAD_GROUP
350
DA0B
  3
ACAD_LAYOUT
350
DA17
  3
ACAD_MATERIAL
350
DDE1
  3
ACAD_MLEADERSTYLE
350
DE28
  3
ACAD_MLINESTYLE
350
DA14
  3
ACAD_PLOTSETTINGS
350
DA16
  3
ACAD_PLOTSTYLENAME
350
DDDF
  3
ACAD_SCALELIST
350
DE16
  3
ACAD_SECTIONVIEWSTYLE
350
DE2A
  3
ACAD_TABLESTYLE
350
DE14
  3
ACAD_VISUALSTYLE
350
DDFA
  3
ACDB_RECOMPOSE_DATA
350
DE4F
  3
AcDbVariableDictionary
350
DE42
  3
DWGPROPS
350
DE50
  0
DICTIONARY
  5
DE32
330
DA0E
100
AcDbDictionary
280
     1
281
     1
  3
ADSK_XREC_LAYER_RECONCILED
360
DE33
  0
DICTIONARY
  5
DE34
330
DA24
100
AcDbDictionary
280
     1
281
     1
  3
ADSK_XREC_LAYER_RECONCILED
360
DE35
  0
DICTIONARY
  5
DE36
330
DA25
100
AcDbDictionary
280
     1
281
     1
  3
ADSK_XREC_LAYER_RECONCILED
360
DE37
  0
DICTIONARY
  5
DE38
330
DA26
100
AcDbDictionary
280
     1
281
     1
  3
ADSK_XREC_LAYER_RECONCILED
360
DE39
  0
DICTIONARY
  5
DE3A
330
DA27
100
AcDbDictionary
280
     1
281
     1
  3
ADSK_XREC_LAYER_RECONCILED
360
DE3B
  0
DICTIONARY
  5
DE3C
330
DA28
100
AcDbDictionary
280
     1
281
     1
  3
ADSK_XREC_LAYER_RECONCILED
360
DE3D
  0
DICTIONARY
  5
DE3E
330
DA29
100
AcDbDictionary
280
     1
281
     1
  3
ADSK_XREC_LAYER_RECONCILED
360
DE3F
  0
DICTIONARY
  5
DE40
330
DA2A
100
AcDbDictionary
280
     1
281
     1
  3
ADSK_XREC_LAYER_RECONCILED
360
DE41
  0
DICTIONARY
  5
DDDA
330
DA1C
100
AcDbDictionary
281
     1
  3
ACAD_LAYOUTSELFREF
350
DDDB
  0
DICTIONARY
  5
DDD8
330
DA18
100
AcDbDictionary
281
     1
  3
ACAD_LAYOUTSELFREF
350
DDD9
  0
XRECORD
  5
DE31
102
{ACAD_REACTORS
330
DA0A
102
}
330
DA0A
100
AcDbXrecord
280
     1
300
ACDLT
300
2014
300
ACDLT_F_S
  0
DICTIONARY
  5
DE13
102
{ACAD_REACTORS
330
DA0A
102
}
330
DA0A
100
AcDbDictionary
281
     1
  0
DICTIONARY
  5
DE2C
102
{ACAD_REACTORS
330
DA0A
102
}
330
DA0A
100
AcDbDictionary
281
     1
  3
Imperial24
350
DE2D
  0
DICTIONARY
  5
DA0B
102
{ACAD_REACTORS
330
DA0A
102
}
330
DA0A
100
AcDbDictionary
281
     1
  0
DICTIONARY
  5
DA17
102
{ACAD_REACTORS
330
DA0A
102
}
330
DA0A
100
AcDbDictionary
281
     1
  3
Model
350
DE2E
  3
レイアウト1
350
DE2F
  0
DICTIONARY
  5
DDE1
102
{ACAD_REACTORS
330
DA0A
102
}
330
DA0A
100
AcDbDictionary
281
     1
  3
ByBlock
350
DDEA
  3
ByLayer
350
DDE2
  3
Global
350
DDF2
  0
DICTIONARY
  5
DE28
102
{ACAD_REACTORS
330
DA0A
102
}
330
DA0A
100
AcDbDictionary
281
     1
  3
Standard
350
DE29
  0
DICTIONARY
  5
DA14
102
{ACAD_REACTORS
330
DA0A
102
}
330
DA0A
100
AcDbDictionary
281
     1
  3
STANDARD
350
DA15
  0
DICTIONARY
  5
DA16
102
{ACAD_REACTORS
330
DA0A
102
}
330
DA0A
100
AcDbDictionary
281
     1
  0
ACDBDICTIONARYWDFLT
  5
DDDF
102
{ACAD_REACTORS
330
DA0A
102
}
330
DA0A
100
AcDbDictionary
281
     1
  3
Normal
350
DDE0
100
AcDbDictionaryWithDefault
340
DDE0
  0
DICTIONARY
  5
DE16
102
{ACAD_REACTORS
330
DA0A
102
}
330
DA0A
100
AcDbDictionary
281
     1
  3
A0
350
DE17
  3
A1
350
DE18
  3
A2
350
DE19
  3
A3
350
DE1A
  3
A4
350
DE1B
  3
A5
350
DE1C
  3
A6
350
DE1D
  3
A7
350
DE1E
  3
A8
350
DE1F
  3
A9
350
DE20
  3
B0
350
DE21
  3
B1
350
DE22
  3
B2
350
DE23
  3
B3
350
DE24
  3
B4
350
DE25
  3
B5
350
DE26
  3
B6
350
DE27
  0
DICTIONARY
  5
DE2A
102
{ACAD_REACTORS
330
DA0A
102
}
330
DA0A
100
AcDbDictionary
281
     1
  3
Imperial24
350
DE2B
  0
DICTIONARY
  5
DE14
102
{ACAD_REACTORS
330
DA0A
102
}
330
DA0A
100
AcDbDictionary
281
     1
  3
Standard
350
DE15
  0
DICTIONARY
  5
DDFA
102
{ACAD_REACTORS
330
DA0A
102
}
330
DA0A
100
AcDbDictionary
281
     1
  3
2dWireframe
350
DE00
  3
Basic
350
DDFF
  3
Brighten
350
DE06
  3
ColorChange
350
DE0A
  3
Conceptual
350
DE03
  3
Dim
350
DE05
  3
EdgeColorOff
350
DE12
  3
Facepattern
350
DE09
  3
Flat
350
DDFB
  3
FlatWithEdges
350
DDFC
  3
Gouraud
350
DDFD
  3
GouraudWithEdges
350
DDFE
  3
Hidden
350
DE02
  3
JitterOff
350
DE10
  3
Linepattern
350
DE08
  3
OverhangOff
350
DE11
  3
Realistic
350
DE04
  3
Shaded
350
DE0F
  3
Shaded with edges
350
DE0E
  3
Shades of Gray
350
DE0B
  3
Sketchy
350
DE0C
  3
Thicken
350
DE07
  3
Wireframe
350
DE01
  3
X-Ray
350
DE0D
  0
XRECORD
  5
DE4F
102
{ACAD_REACTORS
330
DA0A
102
}
330
DA0A
100
AcDbXrecord
280
     1
 90
        1
330
DE15
  0
DICTIONARY
  5
DE42
102
{ACAD_REACTORS
330
DA0A
102
}
330
DA0A
100
AcDbDictionary
281
     1
  3
CANNOSCALE
350
DE47
  3
CMLEADERSTYLE
350
DE44
  3
CTABLESTYLE
350
DE43
  3
CVIEWDETAILSTYLE
350
DE45
  3
CVIEWSECTIONSTYLE
350
DE46
  3
DIMASSOC
350
DE4A
  3
INDEXCTL
350
DE49
  3
SORTENTS
350
DE48
  3
XCLIPFRAME
350
DE4B
  0
XRECORD
  5
DE50
102
{ACAD_REACTORS
330
DA0A
102
}
330
DA0A
100
AcDbXrecord
280
     1
  1
DWGPROPS COOKIE
  2

  3

  4

  6

  7

  8
Yoshitsune
  9

300
=
301
=
302
=
303
=
304
=
305
=
306
=
307
=
308
=
309
=
 40
0.0045655787037037
 41
2451439.547425926
 42
2457192.641369005
  1

 90
        0
  0
XRECORD
  5
DE33
102
{ACAD_REACTORS
330
DE32
102
}
330
DE32
100
AcDbXrecord
280
     1
290
     1
  0
XRECORD
  5
DE35
102
{ACAD_REACTORS
330
DE34
102
}
330
DE34
100
AcDbXrecord
280
     1
290
     1
  0
XRECORD
  5
DE37
102
{ACAD_REACTORS
330
DE36
102
}
330
DE36
100
AcDbXrecord
280
     1
290
     1
  0
XRECORD
  5
DE39
102
{ACAD_REACTORS
330
DE38
102
}
330
DE38
100
AcDbXrecord
280
     1
290
     1
  0
XRECORD
  5
DE3B
102
{ACAD_REACTORS
330
DE3A
102
}
330
DE3A
100
AcDbXrecord
280
     1
290
     1
  0
XRECORD
  5
DE3D
102
{ACAD_REACTORS
330
DE3C
102
}
330
DE3C
100
AcDbXrecord
280
     1
290
     1
  0
XRECORD
  5
DE3F
102
{ACAD_REACTORS
330
DE3E
102
}
330
DE3E
100
AcDbXrecord
280
     1
290
     1
  0
XRECORD
  5
DE41
102
{ACAD_REACTORS
330
DE40
102
}
330
DE40
100
AcDbXrecord
280
     1
290
     1
  0
XRECORD
  5
DDDB
102
{ACAD_REACTORS
330
DDDA
102
}
330
DDDA
100
AcDbXrecord
280
     1
340
DA1C
  0
XRECORD
  5
DDD9
102
{ACAD_REACTORS
330
DDD8
102
}
330
DDD8
100
AcDbXrecord
280
     1
340
DA18
  0
ACDBDETAILVIEWSTYLE
  5
DE2D
102
{ACAD_XDICTIONARY
360
DE88
102
}
102
{ACAD_REACTORS
330
DE2C
102
}
330
DE2C
100
AcDbModelDocViewStyle
 70
     0
  3
Imperial24
290
     0
100
AcDbDetailViewStyle
 70
     0
 71
     0
 90
        3
 71
     1
340
DA0F
 40
0.24
340
0
 40
0.24
300

 40
0.36
280
     3
 71
     2
340
DA13
 90
       25
 71
     3
340
DA0F
 40
0.24
 90
        1
 40
0.75
 90
        1
300
%<\AcVar ViewType \f "%tc1">% %<\AcVar ViewDetailId>%\PSCALE %<\AcVar ViewScale \f "%sn">%
 71
     4
340
DA13
 90
       25
340
DA13
 90
       25
280
     0
  0
LAYOUT
  5
DE2E
102
{ACAD_XDICTIONARY
360
DE8A
102
}
102
{ACAD_REACTORS
330
DA17
102
}
330
DA17
100
AcDbPlotSettings
  1

  2
Canon LBP9100C
  4

  6

 40
0.0
 41
0.0
 42
0.0
 43
0.0
 44
0.0
 45
0.0
 46
0.0
 47
0.0
 48
0.0
 49
0.0
140
0.0
141
0.0
142
1.0
143
1.0
 70
  1712
 72
     0
 73
     0
 74
     0
  7

 75
     0
147
1.0
148
0.0
149
0.0
100
AcDbLayout
  1
Model
 70
     1
 71
     0
 10
0.0
 20
0.0
 11
12.0
 21
9.0
 12
0.0
 22
0.0
 32
0.0
 14
0.0
 24
0.0
 34
0.0
 15
0.0
 25
0.0
 35
0.0
146
0.0
 13
0.0
 23
0.0
 33
0.0
 16
1.0
 26
0.0
 36
0.0
 17
0.0
 27
1.0
 37
0.0
 76
     0
330
DA1C
331
DDD7
  0
LAYOUT
  5
DE2F
102
{ACAD_XDICTIONARY
360
DE8C
102
}
102
{ACAD_REACTORS
330
DA17
102
}
330
DA17
100
AcDbPlotSettings
  1

  2
Canon LBP9100C
  4

  6

 40
0.0
 41
0.0
 42
0.0
 43
0.0
 44
0.0
 45
0.0
 46
0.0
 47
0.0
 48
0.0
 49
0.0
140
0.0
141
0.0
142
1.0
143
1.0
 70
   688
 72
     0
 73
     0
 74
     5
  7

 75
    16
147
1.0
148
0.0
149
0.0
100
AcDbLayout
  1
レイアウト1
 70
     0
 71
     1
 10
0.0
 20
0.0
 11
420.0
 21
297.0
 12
0.0
 22
0.0
 32
0.0
 14
1.000000000000000E+20
 24
1.000000000000000E+20
 34
1.000000000000000E+20
 15
-1.000000000000000E+20
 25
-1.000000000000000E+20
 35
-1.000000000000000E+20
146
0.0
 13
0.0
 23
0.0
 33
0.0
 16
1.0
 26
0.0
 36
0.0
 17
0.0
 27
1.0
 37
0.0
 76
     0
330
DA18
  0
MATERIAL
  5
DDEA
102
{ACAD_XDICTIONARY
360
DDEB
102
}
102
{ACAD_REACTORS
330
DDE1
102
}
330
DDE1
100
AcDbMaterial
  1
ByBlock
 72
     0
 43
0.0208333333333333
 43
0.0
 43
0.0
 43
0.0
 43
0.0
 43
0.0208333333333333
 43
0.0
 43
0.0
 43
0.0
 43
0.0
 43
1.0
 43
0.0
 43
0.0
 43
0.0
 43
0.0
 43
1.0
 77
     0
 47
0.0208333333333333
 47
0.0
 47
0.0
 47
0.0
 47
0.0
 47
0.0208333333333333
 47
0.0
 47
0.0
 47
0.0
 47
0.0
 47
1.0
 47
0.0
 47
0.0
 47
0.0
 47
0.0
 47
1.0
171
     0
 49
0.0208333333333333
 49
0.0
 49
0.0
 49
0.0
 49
0.0
 49
0.0208333333333333
 49
0.0
 49
0.0
 49
0.0
 49
0.0
 49
1.0
 49
0.0
 49
0.0
 49
0.0
 49
0.0
 49
1.0
175
     0
142
0.0208333333333333
142
0.0
142
0.0
142
0.0
142
0.0
142
0.0208333333333333
142
0.0
142
0.0
142
0.0
142
0.0
142
1.0
142
0.0
142
0.0
142
0.0
142
0.0
142
1.0
179
     0
144
0.0208333333333333
144
0.0
144
0.0
144
0.0
144
0.0
144
0.0208333333333333
144
0.0
144
0.0
144
0.0
144
0.0
144
1.0
144
0.0
144
0.0
144
0.0
144
0.0
144
1.0
147
0.0208333333333333
147
0.0
147
0.0
147
0.0
147
0.0
147
0.0208333333333333
147
0.0
147
0.0
147
0.0
147
0.0
147
1.0
147
0.0
147
0.0
147
0.0
147
0.0
147
1.0
  0
MATERIAL
  5
DDE2
102
{ACAD_XDICTIONARY
360
DDE3
102
}
102
{ACAD_REACTORS
330
DDE1
102
}
330
DDE1
100
AcDbMaterial
  1
ByLayer
 72
     0
 43
0.0208333333333333
 43
0.0
 43
0.0
 43
0.0
 43
0.0
 43
0.0208333333333333
 43
0.0
 43
0.0
 43
0.0
 43
0.0
 43
1.0
 43
0.0
 43
0.0
 43
0.0
 43
0.0
 43
1.0
 77
     0
 47
0.0208333333333333
 47
0.0
 47
0.0
 47
0.0
 47
0.0
 47
0.0208333333333333
 47
0.0
 47
0.0
 47
0.0
 47
0.0
 47
1.0
 47
0.0
 47
0.0
 47
0.0
 47
0.0
 47
1.0
171
     0
 49
0.0208333333333333
 49
0.0
 49
0.0
 49
0.0
 49
0.0
 49
0.0208333333333333
 49
0.0
 49
0.0
 49
0.0
 49
0.0
 49
1.0
 49
0.0
 49
0.0
 49
0.0
 49
0.0
 49
1.0
175
     0
142
0.0208333333333333
142
0.0
142
0.0
142
0.0
142
0.0
142
0.0208333333333333
142
0.0
142
0.0
142
0.0
142
0.0
142
1.0
142
0.0
142
0.0
142
0.0
142
0.0
142
1.0
179
     0
144
0.0208333333333333
144
0.0
144
0.0
144
0.0
144
0.0
144
0.0208333333333333
144
0.0
144
0.0
144
0.0
144
0.0
144
1.0
144
0.0
144
0.0
144
0.0
144
0.0
144
1.0
147
0.0208333333333333
147
0.0
147
0.0
147
0.0
147
0.0
147
0.0208333333333333
147
0.0
147
0.0
147
0.0
147
0.0
147
1.0
147
0.0
147
0.0
147
0.0
147
0.0
147
1.0
  0
MATERIAL
  5
DDF2
102
{ACAD_XDICTIONARY
360
DDF3
102
}
102
{ACAD_REACTORS
330
DDE1
102
}
330
DDE1
100
AcDbMaterial
  1
Global
 72
     0
 43
0.0208333333333333
 43
0.0
 43
0.0
 43
0.0
 43
0.0
 43
0.0208333333333333
 43
0.0
 43
0.0
 43
0.0
 43
0.0
 43
1.0
 43
0.0
 43
0.0
 43
0.0
 43
0.0
 43
1.0
 77
     0
 47
0.0208333333333333
 47
0.0
 47
0.0
 47
0.0
 47
0.0
 47
0.0208333333333333
 47
0.0
 47
0.0
 47
0.0
 47
0.0
 47
1.0
 47
0.0
 47
0.0
 47
0.0
 47
0.0
 47
1.0
171
     0
 49
0.0208333333333333
 49
0.0
 49
0.0
 49
0.0
 49
0.0
 49
0.0208333333333333
 49
0.0
 49
0.0
 49
0.0
 49
0.0
 49
1.0
 49
0.0
 49
0.0
 49
0.0
 49
0.0
 49
1.0
175
     0
142
0.0208333333333333
142
0.0
142
0.0
142
0.0
142
0.0
142
0.0208333333333333
142
0.0
142
0.0
142
0.0
142
0.0
142
1.0
142
0.0
142
0.0
142
0.0
142
0.0
142
1.0
179
     0
144
0.0208333333333333
144
0.0
144
0.0
144
0.0
144
0.0
144
0.0208333333333333
144
0.0
144
0.0
144
0.0
144
0.0
144
1.0
144
0.0
144
0.0
144
0.0
144
0.0
144
1.0
147
0.0208333333333333
147
0.0
147
0.0
147
0.0
147
0.0
147
0.0208333333333333
147
0.0
147
0.0
147
0.0
147
0.0
147
1.0
147
0.0
147
0.0
147
0.0
147
0.0
147
1.0
  0
MLEADERSTYLE
  5
DE29
102
{ACAD_REACTORS
330
DE28
102
}
330
DE28
100
AcDbMLeaderStyle
170
     2
171
     1
172
     0
 90
        2
 40
0.0
 41
0.0
173
     1
 91
-1056964608
340
DA11
 92
       -2
290
     1
 42
0.09
291
     1
 43
0.36
  3
Standard
 44
0.18
300

342
DA0F
174
     1
178
     6
175
     1
176
     0
 93
-1056964608
 45
0.18
292
     0
297
     0
 46
0.18
 94
-1056964608
 47
1.0
 49
1.0
140
1.0
293
     1
141
0.0
294
     1
177
     0
142
1.0
295
     0
296
     0
143
0.125
1001
ACAD_MLEADERVER
1070
     2
  0
MLINESTYLE
  5
DA15
102
{ACAD_REACTORS
330
DA14
102
}
330
DA14
100
AcDbMlineStyle
  2
STANDARD
 70
     0
  3

 62
   256
 51
90.0
 52
90.0
 71
     2
 49
0.5
 62
   256
  6
BYLAYER
 49
-0.5
 62
   256
  6
BYLAYER
  0
ACDBPLACEHOLDER
  5
DDE0
102
{ACAD_REACTORS
330
DDDF
102
}
330
DDDF
  0
SCALE
  5
DE17
102
{ACAD_REACTORS
330
DE16
102
}
330
DE16
100
AcDbScale
 70
     0
300
1:1
140
1.0
141
1.0
290
     1
  0
SCALE
  5
DE18
102
{ACAD_REACTORS
330
DE16
102
}
330
DE16
100
AcDbScale
 70
     0
300
1/128" = 1'-0"
140
0.0078125
141
12.0
290
     0
  0
SCALE
  5
DE19
102
{ACAD_REACTORS
330
DE16
102
}
330
DE16
100
AcDbScale
 70
     0
300
1/64" = 1'-0"
140
0.015625
141
12.0
290
     0
  0
SCALE
  5
DE1A
102
{ACAD_REACTORS
330
DE16
102
}
330
DE16
100
AcDbScale
 70
     0
300
1/32" = 1'-0"
140
0.03125
141
12.0
290
     0
  0
SCALE
  5
DE1B
102
{ACAD_REACTORS
330
DE16
102
}
330
DE16
100
AcDbScale
 70
     0
300
1/16" = 1'-0"
140
0.0625
141
12.0
290
     0
  0
SCALE
  5
DE1C
102
{ACAD_REACTORS
330
DE16
102
}
330
DE16
100
AcDbScale
 70
     0
300
3/32" = 1'-0"
140
0.09375
141
12.0
290
     0
  0
SCALE
  5
DE1D
102
{ACAD_REACTORS
330
DE16
102
}
330
DE16
100
AcDbScale
 70
     0
300
1/8" = 1'-0"
140
0.125
141
12.0
290
     0
  0
SCALE
  5
DE1E
102
{ACAD_REACTORS
330
DE16
102
}
330
DE16
100
AcDbScale
 70
     0
300
3/16" = 1'-0"
140
0.1875
141
12.0
290
     0
  0
SCALE
  5
DE1F
102
{ACAD_REACTORS
330
DE16
102
}
330
DE16
100
AcDbScale
 70
     0
300
1/4" = 1'-0"
140
0.25
141
12.0
290
     0
  0
SCALE
  5
DE20
102
{ACAD_REACTORS
330
DE16
102
}
330
DE16
100
AcDbScale
 70
     0
300
3/8" = 1'-0"
140
0.375
141
12.0
290
     0
  0
SCALE
  5
DE21
102
{ACAD_REACTORS
330
DE16
102
}
330
DE16
100
AcDbScale
 70
     0
300
1/2" = 1'-0"
140
0.5
141
12.0
290
     0
  0
SCALE
  5
DE22
102
{ACAD_REACTORS
330
DE16
102
}
330
DE16
100
AcDbScale
 70
     0
300
3/4" = 1'-0"
140
0.75
141
12.0
290
     0
  0
SCALE
  5
DE23
102
{ACAD_REACTORS
330
DE16
102
}
330
DE16
100
AcDbScale
 70
     0
300
1" = 1'-0"
140
1.0
141
12.0
290
     0
  0
SCALE
  5
DE24
102
{ACAD_REACTORS
330
DE16
102
}
330
DE16
100
AcDbScale
 70
     0
300
1-1/2" = 1'-0"
140
1.5
141
12.0
290
     0
  0
SCALE
  5
DE25
102
{ACAD_REACTORS
330
DE16
102
}
330
DE16
100
AcDbScale
 70
     0
300
3" = 1'-0"
140
3.0
141
12.0
290
     0
  0
SCALE
  5
DE26
102
{ACAD_REACTORS
330
DE16
102
}
330
DE16
100
AcDbScale
 70
     0
300
6" = 1'-0"
140
6.0
141
12.0
290
     0
  0
SCALE
  5
DE27
102
{ACAD_REACTORS
330
DE16
102
}
330
DE16
100
AcDbScale
 70
     0
300
1'-0" = 1'-0"
140
12.0
141
12.0
290
     0
  0
ACDBSECTIONVIEWSTYLE
  5
DE2B
102
{ACAD_XDICTIONARY
360
DE86
102
}
102
{ACAD_REACTORS
330
DE2A
102
}
330
DE2A
100
AcDbModelDocViewStyle
 70
     0
  3
Imperial24
290
     0
100
AcDbSectionViewStyle
 70
     0
 71
     0
 90
       78
 71
     1
340
DA0F
 40
0.24
340
0
340
0
 40
0.24
300
I, O, Q, S, X, Z
 40
0.48
 90
        3
 40
0.18
 90
        1
 71
     2
340
DA13
 90
       25
340
DA13
 90
       50
 40
0.24
 40
0.0
 40
0.24
 71
     3
340
DA0F
 40
0.24
 90
        1
 40
0.75
 90
        1
300
%<\AcVar ViewType \f "%tc1">% %<\AcVar ViewSectionStartId>%-%<\AcVar ViewSectionEndId>%\PSCALE %<\AcVar ViewScale \f "%sn">%
 71
     4
300
ANSI31
 40
1.0
 90
        0
290
     0
290
     0
 90
        6
 40
0.0
 40
1.570796326794896
 40
0.2617993877991494
 40
1.308996938995747
 40
-0.2617993877991494
 40
1.832595714594046
  0
TABLESTYLE
  5
DE15
102
{ACAD_XDICTIONARY
360
DE4D
102
}
102
{ACAD_REACTORS
330
DE14
102
}
330
DE14
100
AcDbTableStyle
  3
Standard
 70
     0
 71
     0
 40
0.06
 41
0.06
280
     0
281
     0
  7
STANDARD
140
0.18
170
     2
 62
     0
 63
     7
283
     0
274
    -2
284
     1
 64
     0
275
    -2
285
     1
 65
     0
276
    -2
286
     1
 66
     0
277
    -2
287
     1
 67
     0
278
    -2
288
     1
 68
     0
279
    -2
289
     1
 69
     0
  7
STANDARD
140
0.25
170
     5
 62
     0
 63
     7
283
     0
274
    -2
284
     1
 64
     0
275
    -2
285
     1
 65
     0
276
    -2
286
     1
 66
     0
277
    -2
287
     1
 67
     0
278
    -2
288
     1
 68
     0
279
    -2
289
     1
 69
     0
  7
STANDARD
140
0.18
170
     5
 62
     0
 63
     7
283
     0
274
    -2
284
     1
 64
     0
275
    -2
285
     1
 65
     0
276
    -2
286
     1
 66
     0
277
    -2
287
     1
 67
     0
278
    -2
288
     1
 68
     0
279
    -2
289
     1
 69
     0
  0
VISUALSTYLE
  5
DE00
102
{ACAD_XDICTIONARY
360
DE5E
102
}
102
{ACAD_REACTORS
330
DDFA
102
}
330
DDFA
100
AcDbVisualStyle
  2
2dWireframe
 70
     4
 71
     0
 72
     2
 73
     0
 90
        0
 40
-0.6
 41
-30.0
 62
     5
 63
     7
 74
     1
 91
        4
 64
     7
 65
   257
 75
     1
175
     1
 42
1.0
 92
        0
 66
   257
 43
1.0
 76
     1
 77
     6
 78
     2
 67
     7
 79
     5
170
     0
171
     0
290
     0
174
     0
 93
        1
 44
0.0
173
     0
291
     0
 45
0.0
1001
ACAD
1000
AcDbSavedByObjectVersion
1070
     0
  0
VISUALSTYLE
  5
DDFF
102
{ACAD_XDICTIONARY
360
DE5C
102
}
102
{ACAD_REACTORS
330
DDFA
102
}
330
DDFA
100
AcDbVisualStyle
  2
Basic
 70
     7
 71
     1
 72
     0
 73
     1
 90
        0
 40
-0.6
 41
-30.0
 62
     5
 63
     7
 74
     0
 91
        4
 64
     7
 65
   257
 75
     1
175
     1
 42
1.0
 92
        8
 66
     7
 43
1.0
 76
     1
 77
     6
 78
     2
 67
     7
 79
     5
170
     0
171
     0
290
     0
174
     0
 93
        1
 44
0.0
173
     0
291
     1
 45
0.0
1001
ACAD
1000
AcDbSavedByObjectVersion
1070
     0
  0
VISUALSTYLE
  5
DE06
102
{ACAD_XDICTIONARY
360
DE6A
102
}
102
{ACAD_REACTORS
330
DDFA
102
}
330
DDFA
100
AcDbVisualStyle
  2
Brighten
 70
    12
 71
     2
 72
     2
 73
     0
 90
        0
 40
-0.6
 41
-30.0
 62
     5
 63
     7
 74
     1
 91
        4
 64
     7
 65
   257
 75
     1
175
     1
 42
1.0
 92
        8
 66
     7
 43
1.0
 76
     1
 77
     6
 78
     2
 67
     7
 79
     5
170
     0
171
     0
290
     0
174
     0
 93
        1
 44
50.0
173
     0
291
     1
 45
0.0
1001
ACAD
1000
AcDbSavedByObjectVersion
1070
     0
  0
VISUALSTYLE
  5
DE0A
102
{ACAD_XDICTIONARY
360
DE72
102
}
102
{ACAD_REACTORS
330
DDFA
102
}
330
DDFA
100
AcDbVisualStyle
  2
ColorChange
 70
    16
 71
     2
 72
     2
 73
     3
 90
        0
 40
-0.6
 41
-30.0
 62
     5
 63
     8
 74
     1
 91
        4
 64
     7
 65
   257
 75
     1
175
     1
 42
1.0
 92
        8
 66
     8
 43
1.0
 76
     1
 77
     6
 78
     2
 67
     7
 79
     5
170
     0
171
     0
290
     0
174
     0
 93
        1
 44
0.0
173
     0
291
     1
 45
0.0
1001
ACAD
1000
AcDbSavedByObjectVersion
1070
     0
  0
VISUALSTYLE
  5
DE03
102
{ACAD_XDICTIONARY
360
DE64
102
}
102
{ACAD_REACTORS
330
DDFA
102
}
330
DDFA
100
AcDbVisualStyle
  2
Conceptual
 70
     9
 71
     3
 72
     2
 73
     0
 90
        0
 40
-0.6
 41
-30.0
 62
     5
 63
     7
 74
     2
 91
        2
 64
     7
 65
   257
 75
     1
175
     1
 42
179.0
 92
        8
 66
     7
 43
1.0
 76
     1
 77
     6
 78
     2
 67
     7
 79
     3
170
     0
171
     0
290
     0
174
     0
 93
        1
 44
0.0
173
     0
291
     0
 45
0.0
1001
ACAD
1000
AcDbSavedByObjectVersion
1070
     0
  0
VISUALSTYLE
  5
DE05
102
{ACAD_XDICTIONARY
360
DE68
102
}
102
{ACAD_REACTORS
330
DDFA
102
}
330
DDFA
100
AcDbVisualStyle
  2
Dim
 70
    11
 71
     2
 72
     2
 73
     0
 90
        0
 40
-0.6
 41
-30.0
 62
     5
 63
     7
 74
     1
 91
        4
 64
     7
 65
   257
 75
     1
175
     1
 42
1.0
 92
        8
 66
     7
 43
1.0
 76
     1
 77
     6
 78
     2
 67
     7
 79
     5
170
     0
171
     0
290
     0
174
     0
 93
        1
 44
-50.0
173
     0
291
     1
 45
0.0
1001
ACAD
1000
AcDbSavedByObjectVersion
1070
     0
  0
VISUALSTYLE
  5
DE12
102
{ACAD_XDICTIONARY
360
DE82
102
}
102
{ACAD_REACTORS
330
DDFA
102
}
330
DDFA
100
AcDbVisualStyle
  2
EdgeColorOff
 70
    22
 71
     2
 72
     2
 73
     0
 90
        0
 40
-0.6
 41
-30.0
 62
     5
 63
     7
 74
     1
 91
        4
 64
     7
 65
   257
 75
     1
175
     1
 42
1.0
 92
        8
 66
     7
 43
1.0
 76
     1
 77
     6
 78
     2
 67
     7
 79
     5
170
     0
171
     0
290
     0
174
     0
 93
        1
 44
0.0
173
     0
291
     1
 45
0.0
1001
ACAD
1000
AcDbSavedByObjectVersion
1070
     0
  0
VISUALSTYLE
  5
DE09
102
{ACAD_XDICTIONARY
360
DE70
102
}
102
{ACAD_REACTORS
330
DDFA
102
}
330
DDFA
100
AcDbVisualStyle
  2
Facepattern
 70
    15
 71
     2
 72
     2
 73
     0
 90
        0
 40
-0.6
 41
-30.0
 62
     5
 63
     7
 74
     1
 91
        4
 64
     7
 65
   257
 75
     1
175
     1
 42
1.0
 92
        8
 66
     7
 43
1.0
 76
     1
 77
     6
 78
     2
 67
     7
 79
     5
170
     0
171
     0
290
     0
174
     0
 93
        1
 44
0.0
173
     0
291
     1
 45
0.0
1001
ACAD
1000
AcDbSavedByObjectVersion
1070
     0
  0
VISUALSTYLE
  5
DDFB
102
{ACAD_XDICTIONARY
360
DE54
102
}
102
{ACAD_REACTORS
330
DDFA
102
}
330
DDFA
100
AcDbVisualStyle
  2
Flat
 70
     0
 71
     2
 72
     1
 73
     1
 90
        2
 40
-0.6
 41
30.0
 62
     5
 63
     7
 74
     0
 91
        0
 64
     7
 65
   257
 75
     1
175
     1
 42
1.0
 92
        8
 66
     7
 43
1.0
 76
     1
 77
     6
 78
     2
 67
     7
 79
     5
170
     0
171
     0
290
     0
174
     0
 93
       13
 44
0.0
173
     0
291
     1
 45
0.0
1001
ACAD
1000
AcDbSavedByObjectVersion
1070
     0
  0
VISUALSTYLE
  5
DDFC
102
{ACAD_XDICTIONARY
360
DE56
102
}
102
{ACAD_REACTORS
330
DDFA
102
}
330
DDFA
100
AcDbVisualStyle
  2
FlatWithEdges
 70
     1
 71
     2
 72
     1
 73
     1
 90
        2
 40
-0.6
 41
30.0
 62
     5
 63
     7
 74
     1
 91
        0
 64
     7
 65
   257
 75
     1
175
     1
 42
1.0
 92
        0
 66
   257
 43
1.0
 76
     1
 77
     6
 78
     2
 67
     7
 79
     5
170
     0
171
     0
290
     0
174
     0
 93
       13
 44
0.0
173
     0
291
     1
 45
0.0
1001
ACAD
1000
AcDbSavedByObjectVersion
1070
     0
  0
VISUALSTYLE
  5
DDFD
102
{ACAD_XDICTIONARY
360
DE58
102
}
102
{ACAD_REACTORS
330
DDFA
102
}
330
DDFA
100
AcDbVisualStyle
  2
Gouraud
 70
     2
 71
     2
 72
     2
 73
     1
 90
        2
 40
-0.6
 41
30.0
 62
     5
 63
     7
 74
     0
 91
        0
 64
     7
 65
   257
 75
     1
175
     1
 42
1.0
 92
        0
 66
     7
 43
1.0
 76
     1
 77
     6
 78
     2
 67
     7
 79
     5
170
     0
171
     0
290
     0
174
     0
 93
       13
 44
0.0
173
     0
291
     1
 45
0.0
1001
ACAD
1000
AcDbSavedByObjectVersion
1070
     0
  0
VISUALSTYLE
  5
DDFE
102
{ACAD_XDICTIONARY
360
DE5A
102
}
102
{ACAD_REACTORS
330
DDFA
102
}
330
DDFA
100
AcDbVisualStyle
  2
GouraudWithEdges
 70
     3
 71
     2
 72
     2
 73
     1
 90
        2
 40
-0.6
 41
30.0
 62
     5
 63
     7
 74
     1
 91
        0
 64
     7
 65
   257
 75
     1
175
     1
 42
1.0
 92
        0
 66
   257
 43
1.0
 76
     1
 77
     6
 78
     2
 67
     7
 79
     5
170
     0
171
     0
290
     0
174
     0
 93
       13
 44
0.0
173
     0
291
     1
 45
0.0
1001
ACAD
1000
AcDbSavedByObjectVersion
1070
     0
  0
VISUALSTYLE
  5
DE02
102
{ACAD_XDICTIONARY
360
DE62
102
}
102
{ACAD_REACTORS
330
DDFA
102
}
330
DDFA
100
AcDbVisualStyle
  2
Hidden
 70
     6
 71
     1
 72
     2
 73
     2
 90
        0
 40
-0.6
 41
-30.0
 62
     5
 63
     7
 74
     2
 91
        2
 64
     7
 65
   257
 75
     2
175
     1
 42
40.0
 92
        0
 66
   257
 43
1.0
 76
     1
 77
     6
 78
     2
 67
     7
 79
     3
170
     0
171
     0
290
     0
174
     0
 93
        1
 44
0.0
173
     0
291
     0
 45
0.0
1001
ACAD
1000
AcDbSavedByObjectVersion
1070
     0
  0
VISUALSTYLE
  5
DE10
102
{ACAD_XDICTIONARY
360
DE7E
102
}
102
{ACAD_REACTORS
330
DDFA
102
}
330
DDFA
100
AcDbVisualStyle
  2
JitterOff
 70
    20
 71
     2
 72
     2
 73
     0
 90
        0
 40
-0.6
 41
-30.0
 62
     5
 63
     7
 74
     1
 91
        4
 64
     7
 65
   257
 75
     1
175
     1
 42
1.0
 92
       10
 66
     7
 43
1.0
 76
     1
 77
     6
 78
     2
 67
     7
 79
     5
170
     0
171
     0
290
     0
174
     0
 93
        1
 44
0.0
173
     0
291
     1
 45
0.0
1001
ACAD
1000
AcDbSavedByObjectVersion
1070
     0
  0
VISUALSTYLE
  5
DE08
102
{ACAD_XDICTIONARY
360
DE6E
102
}
102
{ACAD_REACTORS
330
DDFA
102
}
330
DDFA
100
AcDbVisualStyle
  2
Linepattern
 70
    14
 71
     2
 72
     2
 73
     0
 90
        0
 40
-0.6
 41
-30.0
 62
     5
 63
     7
 74
     1
 91
        4
 64
     7
 65
   257
 75
     7
175
     7
 42
1.0
 92
        8
 66
     7
 43
1.0
 76
     1
 77
     6
 78
     2
 67
     7
 79
     5
170
     0
171
     0
290
     0
174
     0
 93
        1
 44
0.0
173
     0
291
     1
 45
0.0
1001
ACAD
1000
AcDbSavedByObjectVersion
1070
     0
  0
VISUALSTYLE
  5
DE11
102
{ACAD_XDICTIONARY
360
DE80
102
}
102
{ACAD_REACTORS
330
DDFA
102
}
330
DDFA
100
AcDbVisualStyle
  2
OverhangOff
 70
    21
 71
     2
 72
     2
 73
     0
 90
        0
 40
-0.6
 41
-30.0
 62
     5
 63
     7
 74
     1
 91
        4
 64
     7
 65
   257
 75
     1
175
     1
 42
1.0
 92
        9
 66
     7
 43
1.0
 76
     1
 77
     6
 78
     2
 67
     7
 79
     5
170
     0
171
     0
290
     0
174
     0
 93
        1
 44
0.0
173
     0
291
     1
 45
0.0
1001
ACAD
1000
AcDbSavedByObjectVersion
1070
     0
  0
VISUALSTYLE
  5
DE04
102
{ACAD_XDICTIONARY
360
DE66
102
}
102
{ACAD_REACTORS
330
DDFA
102
}
330
DDFA
100
AcDbVisualStyle
  2
Realistic
 70
     8
 71
     2
 72
     3
 73
     0
 90
        2
 40
-0.6
 41
30.0
 62
     5
 63
     7
 74
     0
 91
        0
 64
     7
 65
   257
 75
     1
175
     1
 42
1.0
 92
        8
 66
   257
 43
1.0
 76
     1
 77
     6
 78
     2
 67
     7
 79
     3
170
     0
171
     0
290
     0
174
     0
 93
       13
 44
0.0
173
     0
291
     0
 45
0.0
1001
ACAD
1000
AcDbSavedByObjectVersion
1070
     0
  0
VISUALSTYLE
  5
DE0F
102
{ACAD_XDICTIONARY
360
DE7C
102
}
102
{ACAD_REACTORS
330
DDFA
102
}
330
DDFA
100
AcDbVisualStyle
  2
Shaded
 70
    27
 71
     2
 72
     2
 73
     1
 90
        2
 40
-0.6
 41
30.0
 62
     5
 63
     7
 74
     0
 91
        4
 64
     7
 65
   257
 75
     1
175
     1
 42
1.0
 92
        8
 66
   257
 43
1.0
 76
     1
 77
     6
 78
     2
 67
     8
 79
     3
170
     0
171
     0
290
     0
174
     0
 93
        5
 44
0.0
173
     0
291
     0
 45
0.0
1001
ACAD
1000
AcDbSavedByObjectVersion
1070
     0
  0
VISUALSTYLE
  5
DE0E
102
{ACAD_XDICTIONARY
360
DE7A
102
}
102
{ACAD_REACTORS
330
DDFA
102
}
330
DDFA
100
AcDbVisualStyle
  2
Shaded with edges
 70
    26
 71
     2
 72
     2
 73
     1
 90
        2
 40
-0.6
 41
30.0
 62
     5
 63
     7
 74
     1
 91
       10
 64
     7
 65
   257
 75
     2
175
     1
 42
1.0
 92
        8
 66
   257
 43
1.0
 76
     1
 77
     6
 78
     2
 67
     7
 79
     3
170
     0
171
     0
290
     0
174
     0
 93
        5
 44
0.0
173
     0
291
     0
 45
0.0
1001
ACAD
1000
AcDbSavedByObjectVersion
1070
     0
  0
VISUALSTYLE
  5
DE0B
102
{ACAD_XDICTIONARY
360
DE74
102
}
102
{ACAD_REACTORS
330
DDFA
102
}
330
DDFA
100
AcDbVisualStyle
  2
Shades of Gray
 70
    23
 71
     2
 72
     2
 73
     3
 90
        0
 40
-0.6
 41
-30.0
 62
     5
 63
     7
 74
     2
 91
        2
 64
     7
 65
     7
 75
     1
175
     1
 42
40.0
 92
        8
 66
     7
 43
1.0
 76
     1
 77
     6
 78
     2
 67
     7
 79
     3
170
     0
171
     0
290
     0
174
     0
 93
        1
 44
0.0
173
     0
291
     0
 45
0.0
1001
ACAD
1000
AcDbSavedByObjectVersion
1070
     0
  0
VISUALSTYLE
  5
DE0C
102
{ACAD_XDICTIONARY
360
DE76
102
}
102
{ACAD_REACTORS
330
DDFA
102
}
330
DDFA
100
AcDbVisualStyle
  2
Sketchy
 70
    24
 71
     1
 72
     2
 73
     2
 90
        0
 40
-0.6
 41
-30.0
 62
     5
 63
     7
 74
     2
 91
        2
 64
     7
 65
     7
 75
     1
175
     1
 42
40.0
 92
       11
 66
     7
 43
1.0
 76
     1
 77
     6
 78
     2
 67
     7
 79
     6
170
     0
171
     0
290
     0
174
     0
 93
        1
 44
0.0
173
     0
291
     0
 45
0.0
1001
ACAD
1000
AcDbSavedByObjectVersion
1070
     0
  0
VISUALSTYLE
  5
DE07
102
{ACAD_XDICTIONARY
360
DE6C
102
}
102
{ACAD_REACTORS
330
DDFA
102
}
330
DDFA
100
AcDbVisualStyle
  2
Thicken
 70
    13
 71
     2
 72
     2
 73
     0
 90
        0
 40
-0.6
 41
-30.0
 62
     5
 63
     7
 74
     1
 91
        4
 64
     7
 65
   257
 75
     1
175
     1
 42
1.0
 92
       12
 66
     7
 43
1.0
 76
     1
 77
     6
 78
     2
 67
     7
 79
     5
170
     0
171
     0
290
     0
174
     0
 93
        1
 44
0.0
173
     0
291
     1
 45
0.0
1001
ACAD
1000
AcDbSavedByObjectVersion
1070
     0
  0
VISUALSTYLE
  5
DE01
102
{ACAD_XDICTIONARY
360
DE60
102
}
102
{ACAD_REACTORS
330
DDFA
102
}
330
DDFA
100
AcDbVisualStyle
  2
Wireframe
 70
     5
 71
     0
 72
     2
 73
     0
 90
        0
 40
-0.6
 41
-30.0
 62
     5
 63
     7
 74
     1
 91
        4
 64
     7
 65
   257
 75
     1
175
     1
 42
1.0
 92
        0
 66
   257
 43
1.0
 76
     1
 77
     6
 78
     2
 67
     7
 79
     3
170
     0
171
     0
290
     0
174
     0
 93
        1
 44
0.0
173
     0
291
     0
 45
0.0
1001
ACAD
1000
AcDbSavedByObjectVersion
1070
     0
  0
VISUALSTYLE
  5
DE0D
102
{ACAD_XDICTIONARY
360
DE78
102
}
102
{ACAD_REACTORS
330
DDFA
102
}
330
DDFA
100
AcDbVisualStyle
  2
X-Ray
 70
    25
 71
     2
 72
     2
 73
     1
 90
        1
 40
0.5
 41
-30.0
 62
     5
 63
     7
 74
     1
 91
        0
 64
     7
 65
   257
 75
     1
175
     1
 42
1.0
 92
        8
 66
     7
 43
1.0
 76
     1
 77
     6
 78
     2
 67
     7
 79
     3
170
     0
171
     0
290
     0
174
     0
 93
       13
 44
0.0
173
     0
291
     0
 45
0.0
1001
ACAD
1000
AcDbSavedByObjectVersion
1070
     0
  0
DICTIONARYVAR
  5
DE47
102
{ACAD_REACTORS
330
DE42
102
}
330
DE42
100
DictionaryVariables
280
     0
  1
1:1
  0
DICTIONARYVAR
  5
DE44
102
{ACAD_REACTORS
330
DE42
102
}
330
DE42
100
DictionaryVariables
280
     0
  1
STANDARD
  0
DICTIONARYVAR
  5
DE43
102
{ACAD_REACTORS
330
DE42
102
}
330
DE42
100
DictionaryVariables
280
     0
  1
STANDARD
  0
DICTIONARYVAR
  5
DE45
102
{ACAD_REACTORS
330
DE42
102
}
330
DE42
100
DictionaryVariables
280
     0
  1
Imperial24
  0
DICTIONARYVAR
  5
DE46
102
{ACAD_REACTORS
330
DE42
102
}
330
DE42
100
DictionaryVariables
280
     0
  1
Imperial24
  0
DICTIONARYVAR
  5
DE4A
102
{ACAD_REACTORS
330
DE42
102
}
330
DE42
100
DictionaryVariables
280
     0
  1
1
  0
DICTIONARYVAR
  5
DE49
102
{ACAD_REACTORS
330
DE42
102
}
330
DE42
100
DictionaryVariables
280
     0
  1
0
  0
DICTIONARYVAR
  5
DE48
102
{ACAD_REACTORS
330
DE42
102
}
330
DE42
100
DictionaryVariables
280
     0
  1
127
  0
DICTIONARYVAR
  5
DE4B
102
{ACAD_REACTORS
330
DE42
102
}
330
DE42
100
DictionaryVariables
280
     0
  1
2
  0
DICTIONARY
  5
DE88
330
DE2D
100
AcDbDictionary
280
     1
281
     1
  3
ACAD_XREC_ROUNDTRIP
360
DE89
  0
DICTIONARY
  5
DE8A
330
DE2E
100
AcDbDictionary
280
     1
281
     1
  3
ACAD_XREC_ROUNDTRIP
360
DE8B
  0
DICTIONARY
  5
DE8C
330
DE2F
100
AcDbDictionary
280
     1
281
     1
  3
ACAD_XREC_ROUNDTRIP
360
DE8D
  0
DICTIONARY
  5
DDEB
330
DDEA
100
AcDbDictionary
280
     1
281
     1
  3
ACAD_XREC_ROUNDTRIP
360
DE52
  3
BUMPTILE
360
DDED
  3
DIFFUSETILE
360
DDEC
  3
OPACITYTILE
360
DDF0
  3
REFLECTIONTILE
360
DDEF
  3
REFRACTIONTILE
360
DDF1
  3
SPECULARTILE
360
DDEE
  0
DICTIONARY
  5
DDE3
330
DDE2
100
AcDbDictionary
280
     1
281
     1
  3
ACAD_XREC_ROUNDTRIP
360
DE51
  3
BUMPTILE
360
DDE5
  3
DIFFUSETILE
360
DDE4
  3
OPACITYTILE
360
DDE8
  3
REFLECTIONTILE
360
DDE7
  3
REFRACTIONTILE
360
DDE9
  3
SPECULARTILE
360
DDE6
  0
DICTIONARY
  5
DDF3
330
DDF2
100
AcDbDictionary
280
     1
281
     1
  3
ACAD_XREC_ROUNDTRIP
360
DE53
  3
BUMPTILE
360
DDF5
  3
DIFFUSETILE
360
DDF4
  3
OPACITYTILE
360
DDF8
  3
REFLECTIONTILE
360
DDF7
  3
REFRACTIONTILE
360
DDF9
  3
SPECULARTILE
360
DDF6
  0
DICTIONARY
  5
DE86
330
DE2B
100
AcDbDictionary
280
     1
281
     1
  3
ACAD_XREC_ROUNDTRIP
360
DE87
  0
DICTIONARY
  5
DE4D
330
DE15
100
AcDbDictionary
280
     1
281
     1
  3
ACAD_ROUNDTRIP_2008_TABLESTYLE_CELLSTYLEMAP
360
DE4E
  3
ACAD_XREC_ROUNDTRIP
360
DE84
  0
DICTIONARY
  5
DE5E
330
DE00
100
AcDbDictionary
280
     1
281
     1
  3
ACAD_XREC_ROUNDTRIP
360
DE5F
  0
DICTIONARY
  5
DE5C
330
DDFF
100
AcDbDictionary
280
     1
281
     1
  3
ACAD_XREC_ROUNDTRIP
360
DE5D
  0
DICTIONARY
  5
DE6A
330
DE06
100
AcDbDictionary
280
     1
281
     1
  3
ACAD_XREC_ROUNDTRIP
360
DE6B
  0
DICTIONARY
  5
DE72
330
DE0A
100
AcDbDictionary
280
     1
281
     1
  3
ACAD_XREC_ROUNDTRIP
360
DE73
  0
DICTIONARY
  5
DE64
330
DE03
100
AcDbDictionary
280
     1
281
     1
  3
ACAD_XREC_ROUNDTRIP
360
DE65
  0
DICTIONARY
  5
DE68
330
DE05
100
AcDbDictionary
280
     1
281
     1
  3
ACAD_XREC_ROUNDTRIP
360
DE69
  0
DICTIONARY
  5
DE82
330
DE12
100
AcDbDictionary
280
     1
281
     1
  3
ACAD_XREC_ROUNDTRIP
360
DE83
  0
DICTIONARY
  5
DE70
330
DE09
100
AcDbDictionary
280
     1
281
     1
  3
ACAD_XREC_ROUNDTRIP
360
DE71
  0
DICTIONARY
  5
DE54
330
DDFB
100
AcDbDictionary
280
     1
281
     1
  3
ACAD_XREC_ROUNDTRIP
360
DE55
  0
DICTIONARY
  5
DE56
330
DDFC
100
AcDbDictionary
280
     1
281
     1
  3
ACAD_XREC_ROUNDTRIP
360
DE57
  0
DICTIONARY
  5
DE58
330
DDFD
100
AcDbDictionary
280
     1
281
     1
  3
ACAD_XREC_ROUNDTRIP
360
DE59
  0
DICTIONARY
  5
DE5A
330
DDFE
100
AcDbDictionary
280
     1
281
     1
  3
ACAD_XREC_ROUNDTRIP
360
DE5B
  0
DICTIONARY
  5
DE62
330
DE02
100
AcDbDictionary
280
     1
281
     1
  3
ACAD_XREC_ROUNDTRIP
360
DE63
  0
DICTIONARY
  5
DE7E
330
DE10
100
AcDbDictionary
280
     1
281
     1
  3
ACAD_XREC_ROUNDTRIP
360
DE7F
  0
DICTIONARY
  5
DE6E
330
DE08
100
AcDbDictionary
280
     1
281
     1
  3
ACAD_XREC_ROUNDTRIP
360
DE6F
  0
DICTIONARY
  5
DE80
330
DE11
100
AcDbDictionary
280
     1
281
     1
  3
ACAD_XREC_ROUNDTRIP
360
DE81
  0
DICTIONARY
  5
DE66
330
DE04
100
AcDbDictionary
280
     1
281
     1
  3
ACAD_XREC_ROUNDTRIP
360
DE67
  0
DICTIONARY
  5
DE7C
330
DE0F
100
AcDbDictionary
280
     1
281
     1
  3
ACAD_XREC_ROUNDTRIP
360
DE7D
  0
DICTIONARY
  5
DE7A
330
DE0E
100
AcDbDictionary
280
     1
281
     1
  3
ACAD_XREC_ROUNDTRIP
360
DE7B
  0
DICTIONARY
  5
DE74
330
DE0B
100
AcDbDictionary
280
     1
281
     1
  3
ACAD_XREC_ROUNDTRIP
360
DE75
  0
DICTIONARY
  5
DE76
330
DE0C
100
AcDbDictionary
280
     1
281
     1
  3
ACAD_XREC_ROUNDTRIP
360
DE77
  0
DICTIONARY
  5
DE6C
330
DE07
100
AcDbDictionary
280
     1
281
     1
  3
ACAD_XREC_ROUNDTRIP
360
DE6D
  0
DICTIONARY
  5
DE60
330
DE01
100
AcDbDictionary
280
     1
281
     1
  3
ACAD_XREC_ROUNDTRIP
360
DE61
  0
DICTIONARY
  5
DE78
330
DE0D
100
AcDbDictionary
280
     1
281
     1
  3
ACAD_XREC_ROUNDTRIP
360
DE79
  0
XRECORD
  5
DE89
102
{ACAD_REACTORS
330
DE88
102
}
330
DE88
100
AcDbXrecord
280
     1
102
DISPLAYNAME
  1
Imperial24
102
FLAGS
 90
        0
  0
XRECORD
  5
DE8B
102
{ACAD_REACTORS
330
DE8A
102
}
330
DE8A
100
AcDbXrecord
280
     1
102
SHADEPLOT
 70
     0
102
SHADEPLOTRESLEVEL
 70
     2
102
SHADEPLOTCUSTOMDPI
 70
   300
  0
XRECORD
  5
DE8D
102
{ACAD_REACTORS
330
DE8C
102
}
330
DE8C
100
AcDbXrecord
280
     1
102
SHADEPLOT
 70
     0
102
SHADEPLOTRESLEVEL
 70
     2
102
SHADEPLOTCUSTOMDPI
 70
   300
  0
XRECORD
  5
DE52
102
{ACAD_REACTORS
330
DDEB
102
}
330
DDEB
100
AcDbXrecord
280
     1
102
MATERIAL
148
0.0
149
0.0
149
0.0
 93
        0
 94
      127
282
     0
 72
     0
 77
     0
171
     0
175
     0
179
     0
273
     0
  0
XRECORD
  5
DDED
102
{ACAD_REACTORS
330
DDEB
102
}
330
DDEB
100
AcDbXrecord
280
     1
270
     1
271
     1
  0
XRECORD
  5
DDEC
102
{ACAD_REACTORS
330
DDEB
102
}
330
DDEB
100
AcDbXrecord
280
     1
270
     1
271
     1
  0
XRECORD
  5
DDF0
102
{ACAD_REACTORS
330
DDEB
102
}
330
DDEB
100
AcDbXrecord
280
     1
270
     1
271
     1
  0
XRECORD
  5
DDEF
102
{ACAD_REACTORS
330
DDEB
102
}
330
DDEB
100
AcDbXrecord
280
     1
270
     1
271
     1
  0
XRECORD
  5
DDF1
102
{ACAD_REACTORS
330
DDEB
102
}
330
DDEB
100
AcDbXrecord
280
     1
270
     1
271
     1
  0
XRECORD
  5
DDEE
102
{ACAD_REACTORS
330
DDEB
102
}
330
DDEB
100
AcDbXrecord
280
     1
270
     1
271
     1
  0
XRECORD
  5
DE51
102
{ACAD_REACTORS
330
DDE3
102
}
330
DDE3
100
AcDbXrecord
280
     1
102
MATERIAL
148
0.0
149
0.0
149
0.0
 93
        0
 94
      127
282
     0
 72
     0
 77
     0
171
     0
175
     0
179
     0
273
     0
  0
XRECORD
  5
DDE5
102
{ACAD_REACTORS
330
DDE3
102
}
330
DDE3
100
AcDbXrecord
280
     1
270
     1
271
     1
  0
XRECORD
  5
DDE4
102
{ACAD_REACTORS
330
DDE3
102
}
330
DDE3
100
AcDbXrecord
280
     1
270
     1
271
     1
  0
XRECORD
  5
DDE8
102
{ACAD_REACTORS
330
DDE3
102
}
330
DDE3
100
AcDbXrecord
280
     1
270
     1
271
     1
  0
XRECORD
  5
DDE7
102
{ACAD_REACTORS
330
DDE3
102
}
330
DDE3
100
AcDbXrecord
280
     1
270
     1
271
     1
  0
XRECORD
  5
DDE9
102
{ACAD_REACTORS
330
DDE3
102
}
330
DDE3
100
AcDbXrecord
280
     1
270
     1
271
     1
  0
XRECORD
  5
DDE6
102
{ACAD_REACTORS
330
DDE3
102
}
330
DDE3
100
AcDbXrecord
280
     1
270
     1
271
     1
  0
XRECORD
  5
DE53
102
{ACAD_REACTORS
330
DDF3
102
}
330
DDF3
100
AcDbXrecord
280
     1
102
MATERIAL
148
0.0
149
0.0
149
0.0
 93
        0
 94
      127
282
     0
 72
     0
 77
     0
171
     0
175
     0
179
     0
273
     0
  0
XRECORD
  5
DDF5
102
{ACAD_REACTORS
330
DDF3
102
}
330
DDF3
100
AcDbXrecord
280
     1
270
     1
271
     1
  0
XRECORD
  5
DDF4
102
{ACAD_REACTORS
330
DDF3
102
}
330
DDF3
100
AcDbXrecord
280
     1
270
     1
271
     1
  0
XRECORD
  5
DDF8
102
{ACAD_REACTORS
330
DDF3
102
}
330
DDF3
100
AcDbXrecord
280
     1
270
     1
271
     1
  0
XRECORD
  5
DDF7
102
{ACAD_REACTORS
330
DDF3
102
}
330
DDF3
100
AcDbXrecord
280
     1
270
     1
271
     1
  0
XRECORD
  5
DDF9
102
{ACAD_REACTORS
330
DDF3
102
}
330
DDF3
100
AcDbXrecord
280
     1
270
     1
271
     1
  0
XRECORD
  5
DDF6
102
{ACAD_REACTORS
330
DDF3
102
}
330
DDF3
100
AcDbXrecord
280
     1
270
     1
271
     1
  0
XRECORD
  5
DE87
102
{ACAD_REACTORS
330
DE86
102
}
330
DE86
100
AcDbXrecord
280
     1
102
DISPLAYNAME
  1
Imperial24
102
FLAGS
 90
        0
  0
CELLSTYLEMAP
  5
DE4E
102
{ACAD_REACTORS
330
DE4D
102
}
330
DE4D
100
AcDbCellStyleMap
 90
        3
300
CELLSTYLE
  1
TABLEFORMAT_BEGIN
 90
        5
170
     1
 91
        0
 92
    32768
 62
   257
 93
        1
300
CONTENTFORMAT
  1
CONTENTFORMAT_BEGIN
 90
        0
 91
        0
 92
      512
 93
        0
300

 40
0.0
140
1.0
 94
        5
 62
     0
340
DA0F
144
0.25
309
CONTENTFORMAT_END
171
     0
 94
        0
309
TABLEFORMAT_END
  1
CELLSTYLE_BEGIN
 90
        1
 91
        1
300
_TITLE
309
CELLSTYLE_END
300
CELLSTYLE
  1
TABLEFORMAT_BEGIN
 90
        5
170
     1
 91
        0
 92
        0
 62
   257
 93
        1
300
CONTENTFORMAT
  1
CONTENTFORMAT_BEGIN
 90
        0
 91
        0
 92
      512
 93
        0
300

 40
0.0
140
1.0
 94
        5
 62
     0
340
DA0F
144
0.18
309
CONTENTFORMAT_END
171
     0
 94
        0
309
TABLEFORMAT_END
  1
CELLSTYLE_BEGIN
 90
        2
 91
        1
300
_HEADER
309
CELLSTYLE_END
300
CELLSTYLE
  1
TABLEFORMAT_BEGIN
 90
        5
170
     1
 91
        0
 92
        0
 62
   257
 93
        1
300
CONTENTFORMAT
  1
CONTENTFORMAT_BEGIN
 90
        0
 91
        0
 92
      512
 93
        0
300

 40
0.0
140
1.0
 94
        2
 62
     0
340
DA0F
144
0.18
309
CONTENTFORMAT_END
171
     0
 94
        0
309
TABLEFORMAT_END
  1
CELLSTYLE_BEGIN
 90
        3
 91
        2
300
_DATA
309
CELLSTYLE_END
  0
XRECORD
  5
DE84
102
{ACAD_REACTORS
330
DE4D
102
}
330
DE4D
100
AcDbXrecord
280
     1
102
ACAD_ROUNDTRIP_PRE2007_TABLESTYLE
 90
      512
 91
        0
  1

 92
      512
 93
        0
  2

 94
      512
 95
        0
  3

  0
XRECORD
  5
DE5F
102
{ACAD_REACTORS
330
DE5E
102
}
330
DE5E
100
AcDbXrecord
280
     1
102
RTVSPost2010Prop28
280
     1
102
RTVSPost2010PropOp28
 70
     1
102
RTVSPost2010Prop29
280
     1
102
RTVSPost2010PropOp29
 70
     1
102
RTVSPost2010Prop30
280
     0
102
RTVSPost2010PropOp30
 70
     1
102
RTVSPost2010Prop31
280
     0
102
RTVSPost2010PropOp31
 70
     1
102
RTVSPost2010Prop32
280
     0
102
RTVSPost2010PropOp32
 70
     1
102
RTVSPost2010Prop33
280
     0
102
RTVSPost2010PropOp33
 70
     1
102
RTVSPost2010Prop34
280
     0
102
RTVSPost2010PropOp34
 70
     1
102
RTVSPost2010Prop35
280
     0
102
RTVSPost2010PropOp35
 70
     1
102
RTVSPost2010Prop36
280
     0
102
RTVSPost2010PropOp36
 70
     1
102
RTVSPost2010Prop37
 90
       50
102
RTVSPost2010PropOp37
 70
     1
102
RTVSPost2010Prop38
140
0.0
102
RTVSPost2010PropOp38
 70
     1
102
RTVSPost2010Prop39
140
1.0
102
RTVSPost2010PropOp39
 70
     1
102
RTVSPost2010Prop40
 90
        0
102
RTVSPost2010PropOp40
 70
     1
102
RTVSPost2010Prop41ColorIndex
 90
       18
102
RTVSPost2010Prop41ColorRGB
 90
        0
102
RTVSPost2010PropOp41
 70
     1
102
RTVSPost2010Prop42
 90
       50
102
RTVSPost2010PropOp42
 70
     1
102
RTVSPost2010Prop43
 90
        3
102
RTVSPost2010PropOp43
 70
     1
102
RTVSPost2010Prop44ColorIndex
 90
        5
102
RTVSPost2010Prop44ColorRGB
 90
      255
102
RTVSPost2010PropOp44
 70
     1
102
RTVSPost2010Prop45
280
     0
102
RTVSPost2010PropOp45
 70
     1
102
RTVSPost2010Prop46
 90
       50
102
RTVSPost2010PropOp46
 70
     1
102
RTVSPost2010Prop47
 90
       50
102
RTVSPost2010PropOp47
 70
     1
102
RTVSPost2010Prop48
 90
       50
102
RTVSPost2010PropOp48
 70
     1
102
RTVSPost2010Prop49
280
     0
102
RTVSPost2010PropOp49
 70
     1
102
RTVSPost2010Prop50
 90
       50
102
RTVSPost2010PropOp50
 70
     1
102
RTVSPost2010Prop51ColorIndex
 90
      256
102
RTVSPost2010Prop51ColorRGB
 90
-16777216
102
RTVSPost2010PropOp51
 70
     0
102
RTVSPost2010Prop52
140
1.0
102
RTVSPost2010PropOp52
 70
     0
102
RTVSPost2010Prop53
 90
        2
102
RTVSPost2010PropOp53
 70
     1
102
RTVSPost2010Prop54
  1
strokes_ogs.tif
102
RTVSPost2010PropOp54
 70
     1
102
RTVSPost2010Prop55
280
     0
102
RTVSPost2010PropOp55
 70
     1
102
RTVSPost2010Prop56
140
1.0
102
RTVSPost2010PropOp56
 70
     1
102
RTVSPost2010Prop57
140
1.0
102
RTVSPost2010PropOp57
 70
     1
102
RTVSPropertyOp0
 70
     1
102
RTVSPropertyOp1
 70
     1
102
RTVSPropertyOp2
 70
     1
102
RTVSPropertyOp3
 70
     1
102
RTVSPropertyOp4
 70
     1
102
RTVSPropertyOp5
 70
     1
102
RTVSPropertyOp6
 70
     1
102
RTVSPropertyOp7
 70
     1
102
RTVSPropertyOp8
 70
     1
102
RTVSPropertyOp9
 70
     1
102
RTVSPropertyOp10
 70
     1
102
RTVSPropertyOp11
 70
     1
102
RTVSPropertyOp12
 70
     1
102
RTVSPropertyOp13
 70
     1
102
RTVSPropertyOp14
 70
     1
102
RTVSPropertyOp15
 70
     1
102
RTVSPropertyOp16
 70
     1
102
RTVSPropertyOp17
 70
     1
102
RTVSPropertyOp18
 70
     1
102
RTVSPropertyOp19
 70
     1
102
RTVSPropertyOp20
 70
     1
102
RTVSPropertyOp21
 70
     1
102
RTVSPropertyOp22
 70
     1
102
RTVSPropertyOp23
 70
     1
102
RTVSPropertyOp24
 70
     1
102
RTVSPropertyOp25
 70
     1
102
RTVSPropertyOp26
 70
     1
102
RTVSPropertyOp27
 70
     1
102
RTVSPropertyOp28
 70
     1
102
RTVSPropertyOp29
 70
     1
102
RTVSPropertyOp30
 70
     1
102
RTVSPropertyOp31
 70
     1
102
RTVSPropertyOp32
 70
     1
102
RTVSPropertyOp33
 70
     1
102
RTVSPropertyOp34
 70
     1
102
RTVSPropertyOp35
 70
     1
102
RTVSPropertyOp36
 70
     1
102
RTVSPropertyOp37
 70
     1
102
RTVSPropertyOp38
 70
     1
102
RTVSPropertyOp39
 70
     1
102
RTVSPropertyOp40
 70
     1
102
RTVSPropertyOp41
 70
     1
102
RTVSPropertyOp42
 70
     1
102
RTVSPropertyOp43
 70
     1
102
RTVSPropertyOp44
 70
     1
102
RTVSPropertyOp45
 70
     1
102
RTVSPropertyOp46
 70
     1
102
RTVSPropertyOp47
 70
     1
102
RTVSPropertyOp48
 70
     1
102
RTVSPropertyOp49
 70
     1
102
RTVSPropertyOp50
 70
     1
102
RTVSPropertyOp51
 70
     0
102
RTVSPropertyOp52
 70
     0
102
RTVSPropertyOp53
 70
     1
102
RTVSPropertyOp54
 70
     1
102
RTVSPropertyOp55
 70
     1
102
RTVSPropertyOp56
 70
     1
102
RTVSPropertyOp57
 70
     1
102
RTVSPropertyOp58
 70
     1
102
RTVSPropertyOp59
 70
     1
102
RTVSPropertyOp60
 70
     1
102
RTVSPropertyOp61
 70
     1
102
RTVSPropertyOp62
 70
     1
  0
XRECORD
  5
DE5D
102
{ACAD_REACTORS
330
DE5C
102
}
330
DE5C
100
AcDbXrecord
280
     1
102
RTVSPost2010Prop28
280
     0
102
RTVSPost2010PropOp28
 70
     1
102
RTVSPost2010Prop29
280
     1
102
RTVSPost2010PropOp29
 70
     1
102
RTVSPost2010Prop30
280
     1
102
RTVSPost2010PropOp30
 70
     1
102
RTVSPost2010Prop31
280
     0
102
RTVSPost2010PropOp31
 70
     1
102
RTVSPost2010Prop32
280
     0
102
RTVSPost2010PropOp32
 70
     1
102
RTVSPost2010Prop33
280
     0
102
RTVSPost2010PropOp33
 70
     1
102
RTVSPost2010Prop34
280
     0
102
RTVSPost2010PropOp34
 70
     1
102
RTVSPost2010Prop35
280
     0
102
RTVSPost2010PropOp35
 70
     1
102
RTVSPost2010Prop36
280
     0
102
RTVSPost2010PropOp36
 70
     1
102
RTVSPost2010Prop37
 90
       50
102
RTVSPost2010PropOp37
 70
     1
102
RTVSPost2010Prop38
140
0.0
102
RTVSPost2010PropOp38
 70
     1
102
RTVSPost2010Prop39
140
1.0
102
RTVSPost2010PropOp39
 70
     1
102
RTVSPost2010Prop40
 90
        0
102
RTVSPost2010PropOp40
 70
     1
102
RTVSPost2010Prop41ColorIndex
 90
       18
102
RTVSPost2010Prop41ColorRGB
 90
        0
102
RTVSPost2010PropOp41
 70
     1
102
RTVSPost2010Prop42
 90
       50
102
RTVSPost2010PropOp42
 70
     1
102
RTVSPost2010Prop43
 90
        3
102
RTVSPost2010PropOp43
 70
     1
102
RTVSPost2010Prop44ColorIndex
 90
        5
102
RTVSPost2010Prop44ColorRGB
 90
      255
102
RTVSPost2010PropOp44
 70
     1
102
RTVSPost2010Prop45
280
     0
102
RTVSPost2010PropOp45
 70
     1
102
RTVSPost2010Prop46
 90
       50
102
RTVSPost2010PropOp46
 70
     1
102
RTVSPost2010Prop47
 90
       50
102
RTVSPost2010PropOp47
 70
     1
102
RTVSPost2010Prop48
 90
       50
102
RTVSPost2010PropOp48
 70
     1
102
RTVSPost2010Prop49
280
     0
102
RTVSPost2010PropOp49
 70
     1
102
RTVSPost2010Prop50
 90
       50
102
RTVSPost2010PropOp50
 70
     1
102
RTVSPost2010Prop51ColorIndex
 90
      256
102
RTVSPost2010Prop51ColorRGB
 90
-16777216
102
RTVSPost2010PropOp51
 70
     0
102
RTVSPost2010Prop52
140
1.0
102
RTVSPost2010PropOp52
 70
     0
102
RTVSPost2010Prop53
 90
        2
102
RTVSPost2010PropOp53
 70
     1
102
RTVSPost2010Prop54
  1
strokes_ogs.tif
102
RTVSPost2010PropOp54
 70
     1
102
RTVSPost2010Prop55
280
     0
102
RTVSPost2010PropOp55
 70
     1
102
RTVSPost2010Prop56
140
1.0
102
RTVSPost2010PropOp56
 70
     1
102
RTVSPost2010Prop57
140
1.0
102
RTVSPost2010PropOp57
 70
     1
102
RTVSPropertyOp0
 70
     1
102
RTVSPropertyOp1
 70
     1
102
RTVSPropertyOp2
 70
     1
102
RTVSPropertyOp3
 70
     1
102
RTVSPropertyOp4
 70
     1
102
RTVSPropertyOp5
 70
     1
102
RTVSPropertyOp6
 70
     1
102
RTVSPropertyOp7
 70
     1
102
RTVSPropertyOp8
 70
     1
102
RTVSPropertyOp9
 70
     1
102
RTVSPropertyOp10
 70
     1
102
RTVSPropertyOp11
 70
     1
102
RTVSPropertyOp12
 70
     1
102
RTVSPropertyOp13
 70
     1
102
RTVSPropertyOp14
 70
     1
102
RTVSPropertyOp15
 70
     1
102
RTVSPropertyOp16
 70
     1
102
RTVSPropertyOp17
 70
     1
102
RTVSPropertyOp18
 70
     1
102
RTVSPropertyOp19
 70
     1
102
RTVSPropertyOp20
 70
     1
102
RTVSPropertyOp21
 70
     1
102
RTVSPropertyOp22
 70
     1
102
RTVSPropertyOp23
 70
     1
102
RTVSPropertyOp24
 70
     1
102
RTVSPropertyOp25
 70
     1
102
RTVSPropertyOp26
 70
     1
102
RTVSPropertyOp27
 70
     1
102
RTVSPropertyOp28
 70
     1
102
RTVSPropertyOp29
 70
     1
102
RTVSPropertyOp30
 70
     1
102
RTVSPropertyOp31
 70
     1
102
RTVSPropertyOp32
 70
     1
102
RTVSPropertyOp33
 70
     1
102
RTVSPropertyOp34
 70
     1
102
RTVSPropertyOp35
 70
     1
102
RTVSPropertyOp36
 70
     1
102
RTVSPropertyOp37
 70
     1
102
RTVSPropertyOp38
 70
     1
102
RTVSPropertyOp39
 70
     1
102
RTVSPropertyOp40
 70
     1
102
RTVSPropertyOp41
 70
     1
102
RTVSPropertyOp42
 70
     1
102
RTVSPropertyOp43
 70
     1
102
RTVSPropertyOp44
 70
     1
102
RTVSPropertyOp45
 70
     1
102
RTVSPropertyOp46
 70
     1
102
RTVSPropertyOp47
 70
     1
102
RTVSPropertyOp48
 70
     1
102
RTVSPropertyOp49
 70
     1
102
RTVSPropertyOp50
 70
     1
102
RTVSPropertyOp51
 70
     0
102
RTVSPropertyOp52
 70
     0
102
RTVSPropertyOp53
 70
     1
102
RTVSPropertyOp54
 70
     1
102
RTVSPropertyOp55
 70
     1
102
RTVSPropertyOp56
 70
     1
102
RTVSPropertyOp57
 70
     1
102
RTVSPropertyOp58
 70
     1
102
RTVSPropertyOp59
 70
     1
102
RTVSPropertyOp60
 70
     1
102
RTVSPropertyOp61
 70
     1
102
RTVSPropertyOp62
 70
     1
  0
XRECORD
  5
DE6B
102
{ACAD_REACTORS
330
DE6A
102
}
330
DE6A
100
AcDbXrecord
280
     1
102
RTVSPost2010Prop28
280
     0
102
RTVSPost2010PropOp28
 70
     1
102
RTVSPost2010Prop29
280
     1
102
RTVSPost2010PropOp29
 70
     1
102
RTVSPost2010Prop30
280
     1
102
RTVSPost2010PropOp30
 70
     1
102
RTVSPost2010Prop31
280
     0
102
RTVSPost2010PropOp31
 70
     1
102
RTVSPost2010Prop32
280
     0
102
RTVSPost2010PropOp32
 70
     1
102
RTVSPost2010Prop33
280
     0
102
RTVSPost2010PropOp33
 70
     1
102
RTVSPost2010Prop34
280
     0
102
RTVSPost2010PropOp34
 70
     1
102
RTVSPost2010Prop35
280
     0
102
RTVSPost2010PropOp35
 70
     1
102
RTVSPost2010Prop36
280
     0
102
RTVSPost2010PropOp36
 70
     1
102
RTVSPost2010Prop37
 90
       50
102
RTVSPost2010PropOp37
 70
     1
102
RTVSPost2010Prop38
140
0.0
102
RTVSPost2010PropOp38
 70
     1
102
RTVSPost2010Prop39
140
1.0
102
RTVSPost2010PropOp39
 70
     1
102
RTVSPost2010Prop40
 90
        0
102
RTVSPost2010PropOp40
 70
     1
102
RTVSPost2010Prop41ColorIndex
 90
       18
102
RTVSPost2010Prop41ColorRGB
 90
        0
102
RTVSPost2010PropOp41
 70
     1
102
RTVSPost2010Prop42
 90
       50
102
RTVSPost2010PropOp42
 70
     1
102
RTVSPost2010Prop43
 90
        3
102
RTVSPost2010PropOp43
 70
     1
102
RTVSPost2010Prop44ColorIndex
 90
        5
102
RTVSPost2010Prop44ColorRGB
 90
      255
102
RTVSPost2010PropOp44
 70
     1
102
RTVSPost2010Prop45
280
     0
102
RTVSPost2010PropOp45
 70
     1
102
RTVSPost2010Prop46
 90
       50
102
RTVSPost2010PropOp46
 70
     1
102
RTVSPost2010Prop47
 90
       50
102
RTVSPost2010PropOp47
 70
     1
102
RTVSPost2010Prop48
 90
       50
102
RTVSPost2010PropOp48
 70
     1
102
RTVSPost2010Prop49
280
     0
102
RTVSPost2010PropOp49
 70
     1
102
RTVSPost2010Prop50
 90
       50
102
RTVSPost2010PropOp50
 70
     1
102
RTVSPost2010Prop51ColorIndex
 90
      256
102
RTVSPost2010Prop51ColorRGB
 90
-16777216
102
RTVSPost2010PropOp51
 70
     0
102
RTVSPost2010Prop52
140
1.0
102
RTVSPost2010PropOp52
 70
     0
102
RTVSPost2010Prop53
 90
        2
102
RTVSPost2010PropOp53
 70
     1
102
RTVSPost2010Prop54
  1
strokes_ogs.tif
102
RTVSPost2010PropOp54
 70
     1
102
RTVSPost2010Prop55
280
     0
102
RTVSPost2010PropOp55
 70
     1
102
RTVSPost2010Prop56
140
1.0
102
RTVSPost2010PropOp56
 70
     1
102
RTVSPost2010Prop57
140
1.0
102
RTVSPost2010PropOp57
 70
     1
102
RTVSPropertyOp0
 70
     1
102
RTVSPropertyOp1
 70
     1
102
RTVSPropertyOp2
 70
     1
102
RTVSPropertyOp3
 70
     1
102
RTVSPropertyOp4
 70
     1
102
RTVSPropertyOp5
 70
     1
102
RTVSPropertyOp6
 70
     1
102
RTVSPropertyOp7
 70
     1
102
RTVSPropertyOp8
 70
     1
102
RTVSPropertyOp9
 70
     1
102
RTVSPropertyOp10
 70
     1
102
RTVSPropertyOp11
 70
     1
102
RTVSPropertyOp12
 70
     1
102
RTVSPropertyOp13
 70
     1
102
RTVSPropertyOp14
 70
     1
102
RTVSPropertyOp15
 70
     1
102
RTVSPropertyOp16
 70
     1
102
RTVSPropertyOp17
 70
     1
102
RTVSPropertyOp18
 70
     1
102
RTVSPropertyOp19
 70
     1
102
RTVSPropertyOp20
 70
     1
102
RTVSPropertyOp21
 70
     1
102
RTVSPropertyOp22
 70
     1
102
RTVSPropertyOp23
 70
     1
102
RTVSPropertyOp24
 70
     1
102
RTVSPropertyOp25
 70
     1
102
RTVSPropertyOp26
 70
     1
102
RTVSPropertyOp27
 70
     1
102
RTVSPropertyOp28
 70
     1
102
RTVSPropertyOp29
 70
     1
102
RTVSPropertyOp30
 70
     1
102
RTVSPropertyOp31
 70
     1
102
RTVSPropertyOp32
 70
     1
102
RTVSPropertyOp33
 70
     1
102
RTVSPropertyOp34
 70
     1
102
RTVSPropertyOp35
 70
     1
102
RTVSPropertyOp36
 70
     1
102
RTVSPropertyOp37
 70
     1
102
RTVSPropertyOp38
 70
     1
102
RTVSPropertyOp39
 70
     1
102
RTVSPropertyOp40
 70
     1
102
RTVSPropertyOp41
 70
     1
102
RTVSPropertyOp42
 70
     1
102
RTVSPropertyOp43
 70
     1
102
RTVSPropertyOp44
 70
     1
102
RTVSPropertyOp45
 70
     1
102
RTVSPropertyOp46
 70
     1
102
RTVSPropertyOp47
 70
     1
102
RTVSPropertyOp48
 70
     1
102
RTVSPropertyOp49
 70
     1
102
RTVSPropertyOp50
 70
     1
102
RTVSPropertyOp51
 70
     0
102
RTVSPropertyOp52
 70
     0
102
RTVSPropertyOp53
 70
     1
102
RTVSPropertyOp54
 70
     1
102
RTVSPropertyOp55
 70
     1
102
RTVSPropertyOp56
 70
     1
102
RTVSPropertyOp57
 70
     1
102
RTVSPropertyOp58
 70
     1
102
RTVSPropertyOp59
 70
     1
102
RTVSPropertyOp60
 70
     1
102
RTVSPropertyOp61
 70
     1
102
RTVSPropertyOp62
 70
     1
  0
XRECORD
  5
DE73
102
{ACAD_REACTORS
330
DE72
102
}
330
DE72
100
AcDbXrecord
280
     1
102
RTVSPost2010Prop28
280
     0
102
RTVSPost2010PropOp28
 70
     1
102
RTVSPost2010Prop29
280
     1
102
RTVSPost2010PropOp29
 70
     1
102
RTVSPost2010Prop30
280
     1
102
RTVSPost2010PropOp30
 70
     1
102
RTVSPost2010Prop31
280
     0
102
RTVSPost2010PropOp31
 70
     1
102
RTVSPost2010Prop32
280
     0
102
RTVSPost2010PropOp32
 70
     1
102
RTVSPost2010Prop33
280
     0
102
RTVSPost2010PropOp33
 70
     1
102
RTVSPost2010Prop34
280
     0
102
RTVSPost2010PropOp34
 70
     1
102
RTVSPost2010Prop35
280
     0
102
RTVSPost2010PropOp35
 70
     1
102
RTVSPost2010Prop36
280
     0
102
RTVSPost2010PropOp36
 70
     1
102
RTVSPost2010Prop37
 90
       50
102
RTVSPost2010PropOp37
 70
     1
102
RTVSPost2010Prop38
140
0.0
102
RTVSPost2010PropOp38
 70
     1
102
RTVSPost2010Prop39
140
1.0
102
RTVSPost2010PropOp39
 70
     1
102
RTVSPost2010Prop40
 90
        0
102
RTVSPost2010PropOp40
 70
     1
102
RTVSPost2010Prop41ColorIndex
 90
       18
102
RTVSPost2010Prop41ColorRGB
 90
        0
102
RTVSPost2010PropOp41
 70
     1
102
RTVSPost2010Prop42
 90
       50
102
RTVSPost2010PropOp42
 70
     1
102
RTVSPost2010Prop43
 90
        3
102
RTVSPost2010PropOp43
 70
     1
102
RTVSPost2010Prop44ColorIndex
 90
        5
102
RTVSPost2010Prop44ColorRGB
 90
      255
102
RTVSPost2010PropOp44
 70
     1
102
RTVSPost2010Prop45
280
     0
102
RTVSPost2010PropOp45
 70
     1
102
RTVSPost2010Prop46
 90
       50
102
RTVSPost2010PropOp46
 70
     1
102
RTVSPost2010Prop47
 90
       50
102
RTVSPost2010PropOp47
 70
     1
102
RTVSPost2010Prop48
 90
       50
102
RTVSPost2010PropOp48
 70
     1
102
RTVSPost2010Prop49
280
     0
102
RTVSPost2010PropOp49
 70
     1
102
RTVSPost2010Prop50
 90
       50
102
RTVSPost2010PropOp50
 70
     1
102
RTVSPost2010Prop51ColorIndex
 90
      256
102
RTVSPost2010Prop51ColorRGB
 90
-16777216
102
RTVSPost2010PropOp51
 70
     0
102
RTVSPost2010Prop52
140
1.0
102
RTVSPost2010PropOp52
 70
     0
102
RTVSPost2010Prop53
 90
        2
102
RTVSPost2010PropOp53
 70
     1
102
RTVSPost2010Prop54
  1
strokes_ogs.tif
102
RTVSPost2010PropOp54
 70
     1
102
RTVSPost2010Prop55
280
     0
102
RTVSPost2010PropOp55
 70
     1
102
RTVSPost2010Prop56
140
1.0
102
RTVSPost2010PropOp56
 70
     1
102
RTVSPost2010Prop57
140
1.0
102
RTVSPost2010PropOp57
 70
     1
102
RTVSPropertyOp0
 70
     1
102
RTVSPropertyOp1
 70
     1
102
RTVSPropertyOp2
 70
     1
102
RTVSPropertyOp3
 70
     1
102
RTVSPropertyOp4
 70
     1
102
RTVSPropertyOp5
 70
     1
102
RTVSPropertyOp6
 70
     1
102
RTVSPropertyOp7
 70
     1
102
RTVSPropertyOp8
 70
     1
102
RTVSPropertyOp9
 70
     1
102
RTVSPropertyOp10
 70
     1
102
RTVSPropertyOp11
 70
     1
102
RTVSPropertyOp12
 70
     1
102
RTVSPropertyOp13
 70
     1
102
RTVSPropertyOp14
 70
     1
102
RTVSPropertyOp15
 70
     1
102
RTVSPropertyOp16
 70
     1
102
RTVSPropertyOp17
 70
     1
102
RTVSPropertyOp18
 70
     1
102
RTVSPropertyOp19
 70
     1
102
RTVSPropertyOp20
 70
     1
102
RTVSPropertyOp21
 70
     1
102
RTVSPropertyOp22
 70
     1
102
RTVSPropertyOp23
 70
     1
102
RTVSPropertyOp24
 70
     1
102
RTVSPropertyOp25
 70
     1
102
RTVSPropertyOp26
 70
     1
102
RTVSPropertyOp27
 70
     1
102
RTVSPropertyOp28
 70
     1
102
RTVSPropertyOp29
 70
     1
102
RTVSPropertyOp30
 70
     1
102
RTVSPropertyOp31
 70
     1
102
RTVSPropertyOp32
 70
     1
102
RTVSPropertyOp33
 70
     1
102
RTVSPropertyOp34
 70
     1
102
RTVSPropertyOp35
 70
     1
102
RTVSPropertyOp36
 70
     1
102
RTVSPropertyOp37
 70
     1
102
RTVSPropertyOp38
 70
     1
102
RTVSPropertyOp39
 70
     1
102
RTVSPropertyOp40
 70
     1
102
RTVSPropertyOp41
 70
     1
102
RTVSPropertyOp42
 70
     1
102
RTVSPropertyOp43
 70
     1
102
RTVSPropertyOp44
 70
     1
102
RTVSPropertyOp45
 70
     1
102
RTVSPropertyOp46
 70
     1
102
RTVSPropertyOp47
 70
     1
102
RTVSPropertyOp48
 70
     1
102
RTVSPropertyOp49
 70
     1
102
RTVSPropertyOp50
 70
     1
102
RTVSPropertyOp51
 70
     0
102
RTVSPropertyOp52
 70
     0
102
RTVSPropertyOp53
 70
     1
102
RTVSPropertyOp54
 70
     1
102
RTVSPropertyOp55
 70
     1
102
RTVSPropertyOp56
 70
     1
102
RTVSPropertyOp57
 70
     1
102
RTVSPropertyOp58
 70
     1
102
RTVSPropertyOp59
 70
     1
102
RTVSPropertyOp60
 70
     1
102
RTVSPropertyOp61
 70
     1
102
RTVSPropertyOp62
 70
     1
  0
XRECORD
  5
DE65
102
{ACAD_REACTORS
330
DE64
102
}
330
DE64
100
AcDbXrecord
280
     1
102
RTVSPost2010Prop28
280
     0
102
RTVSPost2010PropOp28
 70
     1
102
RTVSPost2010Prop29
280
     1
102
RTVSPost2010PropOp29
 70
     1
102
RTVSPost2010Prop30
280
     1
102
RTVSPost2010PropOp30
 70
     1
102
RTVSPost2010Prop31
280
     0
102
RTVSPost2010PropOp31
 70
     1
102
RTVSPost2010Prop32
280
     0
102
RTVSPost2010PropOp32
 70
     1
102
RTVSPost2010Prop33
280
     0
102
RTVSPost2010PropOp33
 70
     1
102
RTVSPost2010Prop34
280
     0
102
RTVSPost2010PropOp34
 70
     1
102
RTVSPost2010Prop35
280
     0
102
RTVSPost2010PropOp35
 70
     1
102
RTVSPost2010Prop36
280
     0
102
RTVSPost2010PropOp36
 70
     1
102
RTVSPost2010Prop37
 90
       50
102
RTVSPost2010PropOp37
 70
     1
102
RTVSPost2010Prop38
140
0.0
102
RTVSPost2010PropOp38
 70
     1
102
RTVSPost2010Prop39
140
1.0
102
RTVSPost2010PropOp39
 70
     1
102
RTVSPost2010Prop40
 90
        0
102
RTVSPost2010PropOp40
 70
     1
102
RTVSPost2010Prop41ColorIndex
 90
       18
102
RTVSPost2010Prop41ColorRGB
 90
        0
102
RTVSPost2010PropOp41
 70
     1
102
RTVSPost2010Prop42
 90
       50
102
RTVSPost2010PropOp42
 70
     1
102
RTVSPost2010Prop43
 90
        3
102
RTVSPost2010PropOp43
 70
     1
102
RTVSPost2010Prop44ColorIndex
 90
        5
102
RTVSPost2010Prop44ColorRGB
 90
      255
102
RTVSPost2010PropOp44
 70
     1
102
RTVSPost2010Prop45
280
     0
102
RTVSPost2010PropOp45
 70
     1
102
RTVSPost2010Prop46
 90
       50
102
RTVSPost2010PropOp46
 70
     1
102
RTVSPost2010Prop47
 90
       50
102
RTVSPost2010PropOp47
 70
     1
102
RTVSPost2010Prop48
 90
       50
102
RTVSPost2010PropOp48
 70
     1
102
RTVSPost2010Prop49
280
     0
102
RTVSPost2010PropOp49
 70
     1
102
RTVSPost2010Prop50
 90
       50
102
RTVSPost2010PropOp50
 70
     1
102
RTVSPost2010Prop51ColorIndex
 90
      256
102
RTVSPost2010Prop51ColorRGB
 90
-16777216
102
RTVSPost2010PropOp51
 70
     0
102
RTVSPost2010Prop52
140
1.0
102
RTVSPost2010PropOp52
 70
     0
102
RTVSPost2010Prop53
 90
        2
102
RTVSPost2010PropOp53
 70
     1
102
RTVSPost2010Prop54
  1
strokes_ogs.tif
102
RTVSPost2010PropOp54
 70
     1
102
RTVSPost2010Prop55
280
     0
102
RTVSPost2010PropOp55
 70
     1
102
RTVSPost2010Prop56
140
1.0
102
RTVSPost2010PropOp56
 70
     1
102
RTVSPost2010Prop57
140
1.0
102
RTVSPost2010PropOp57
 70
     1
102
RTVSPropertyOp0
 70
     1
102
RTVSPropertyOp1
 70
     1
102
RTVSPropertyOp2
 70
     1
102
RTVSPropertyOp3
 70
     1
102
RTVSPropertyOp4
 70
     1
102
RTVSPropertyOp5
 70
     1
102
RTVSPropertyOp6
 70
     1
102
RTVSPropertyOp7
 70
     1
102
RTVSPropertyOp8
 70
     1
102
RTVSPropertyOp9
 70
     1
102
RTVSPropertyOp10
 70
     1
102
RTVSPropertyOp11
 70
     1
102
RTVSPropertyOp12
 70
     1
102
RTVSPropertyOp13
 70
     1
102
RTVSPropertyOp14
 70
     1
102
RTVSPropertyOp15
 70
     1
102
RTVSPropertyOp16
 70
     1
102
RTVSPropertyOp17
 70
     1
102
RTVSPropertyOp18
 70
     1
102
RTVSPropertyOp19
 70
     1
102
RTVSPropertyOp20
 70
     1
102
RTVSPropertyOp21
 70
     1
102
RTVSPropertyOp22
 70
     1
102
RTVSPropertyOp23
 70
     1
102
RTVSPropertyOp24
 70
     1
102
RTVSPropertyOp25
 70
     1
102
RTVSPropertyOp26
 70
     1
102
RTVSPropertyOp27
 70
     1
102
RTVSPropertyOp28
 70
     1
102
RTVSPropertyOp29
 70
     1
102
RTVSPropertyOp30
 70
     1
102
RTVSPropertyOp31
 70
     1
102
RTVSPropertyOp32
 70
     1
102
RTVSPropertyOp33
 70
     1
102
RTVSPropertyOp34
 70
     1
102
RTVSPropertyOp35
 70
     1
102
RTVSPropertyOp36
 70
     1
102
RTVSPropertyOp37
 70
     1
102
RTVSPropertyOp38
 70
     1
102
RTVSPropertyOp39
 70
     1
102
RTVSPropertyOp40
 70
     1
102
RTVSPropertyOp41
 70
     1
102
RTVSPropertyOp42
 70
     1
102
RTVSPropertyOp43
 70
     1
102
RTVSPropertyOp44
 70
     1
102
RTVSPropertyOp45
 70
     1
102
RTVSPropertyOp46
 70
     1
102
RTVSPropertyOp47
 70
     1
102
RTVSPropertyOp48
 70
     1
102
RTVSPropertyOp49
 70
     1
102
RTVSPropertyOp50
 70
     1
102
RTVSPropertyOp51
 70
     0
102
RTVSPropertyOp52
 70
     0
102
RTVSPropertyOp53
 70
     1
102
RTVSPropertyOp54
 70
     1
102
RTVSPropertyOp55
 70
     1
102
RTVSPropertyOp56
 70
     1
102
RTVSPropertyOp57
 70
     1
102
RTVSPropertyOp58
 70
     1
102
RTVSPropertyOp59
 70
     1
102
RTVSPropertyOp60
 70
     1
102
RTVSPropertyOp61
 70
     1
102
RTVSPropertyOp62
 70
     1
  0
XRECORD
  5
DE69
102
{ACAD_REACTORS
330
DE68
102
}
330
DE68
100
AcDbXrecord
280
     1
102
RTVSPost2010Prop28
280
     0
102
RTVSPost2010PropOp28
 70
     1
102
RTVSPost2010Prop29
280
     1
102
RTVSPost2010PropOp29
 70
     1
102
RTVSPost2010Prop30
280
     1
102
RTVSPost2010PropOp30
 70
     1
102
RTVSPost2010Prop31
280
     0
102
RTVSPost2010PropOp31
 70
     1
102
RTVSPost2010Prop32
280
     0
102
RTVSPost2010PropOp32
 70
     1
102
RTVSPost2010Prop33
280
     0
102
RTVSPost2010PropOp33
 70
     1
102
RTVSPost2010Prop34
280
     0
102
RTVSPost2010PropOp34
 70
     1
102
RTVSPost2010Prop35
280
     0
102
RTVSPost2010PropOp35
 70
     1
102
RTVSPost2010Prop36
280
     0
102
RTVSPost2010PropOp36
 70
     1
102
RTVSPost2010Prop37
 90
       50
102
RTVSPost2010PropOp37
 70
     1
102
RTVSPost2010Prop38
140
0.0
102
RTVSPost2010PropOp38
 70
     1
102
RTVSPost2010Prop39
140
1.0
102
RTVSPost2010PropOp39
 70
     1
102
RTVSPost2010Prop40
 90
        0
102
RTVSPost2010PropOp40
 70
     1
102
RTVSPost2010Prop41ColorIndex
 90
       18
102
RTVSPost2010Prop41ColorRGB
 90
        0
102
RTVSPost2010PropOp41
 70
     1
102
RTVSPost2010Prop42
 90
       50
102
RTVSPost2010PropOp42
 70
     1
102
RTVSPost2010Prop43
 90
        3
102
RTVSPost2010PropOp43
 70
     1
102
RTVSPost2010Prop44ColorIndex
 90
        5
102
RTVSPost2010Prop44ColorRGB
 90
      255
102
RTVSPost2010PropOp44
 70
     1
102
RTVSPost2010Prop45
280
     0
102
RTVSPost2010PropOp45
 70
     1
102
RTVSPost2010Prop46
 90
       50
102
RTVSPost2010PropOp46
 70
     1
102
RTVSPost2010Prop47
 90
       50
102
RTVSPost2010PropOp47
 70
     1
102
RTVSPost2010Prop48
 90
       50
102
RTVSPost2010PropOp48
 70
     1
102
RTVSPost2010Prop49
280
     0
102
RTVSPost2010PropOp49
 70
     1
102
RTVSPost2010Prop50
 90
       50
102
RTVSPost2010PropOp50
 70
     1
102
RTVSPost2010Prop51ColorIndex
 90
      256
102
RTVSPost2010Prop51ColorRGB
 90
-16777216
102
RTVSPost2010PropOp51
 70
     0
102
RTVSPost2010Prop52
140
1.0
102
RTVSPost2010PropOp52
 70
     0
102
RTVSPost2010Prop53
 90
        2
102
RTVSPost2010PropOp53
 70
     1
102
RTVSPost2010Prop54
  1
strokes_ogs.tif
102
RTVSPost2010PropOp54
 70
     1
102
RTVSPost2010Prop55
280
     0
102
RTVSPost2010PropOp55
 70
     1
102
RTVSPost2010Prop56
140
1.0
102
RTVSPost2010PropOp56
 70
     1
102
RTVSPost2010Prop57
140
1.0
102
RTVSPost2010PropOp57
 70
     1
102
RTVSPropertyOp0
 70
     1
102
RTVSPropertyOp1
 70
     1
102
RTVSPropertyOp2
 70
     1
102
RTVSPropertyOp3
 70
     1
102
RTVSPropertyOp4
 70
     1
102
RTVSPropertyOp5
 70
     1
102
RTVSPropertyOp6
 70
     1
102
RTVSPropertyOp7
 70
     1
102
RTVSPropertyOp8
 70
     1
102
RTVSPropertyOp9
 70
     1
102
RTVSPropertyOp10
 70
     1
102
RTVSPropertyOp11
 70
     1
102
RTVSPropertyOp12
 70
     1
102
RTVSPropertyOp13
 70
     1
102
RTVSPropertyOp14
 70
     1
102
RTVSPropertyOp15
 70
     1
102
RTVSPropertyOp16
 70
     1
102
RTVSPropertyOp17
 70
     1
102
RTVSPropertyOp18
 70
     1
102
RTVSPropertyOp19
 70
     1
102
RTVSPropertyOp20
 70
     1
102
RTVSPropertyOp21
 70
     1
102
RTVSPropertyOp22
 70
     1
102
RTVSPropertyOp23
 70
     1
102
RTVSPropertyOp24
 70
     1
102
RTVSPropertyOp25
 70
     1
102
RTVSPropertyOp26
 70
     1
102
RTVSPropertyOp27
 70
     1
102
RTVSPropertyOp28
 70
     1
102
RTVSPropertyOp29
 70
     1
102
RTVSPropertyOp30
 70
     1
102
RTVSPropertyOp31
 70
     1
102
RTVSPropertyOp32
 70
     1
102
RTVSPropertyOp33
 70
     1
102
RTVSPropertyOp34
 70
     1
102
RTVSPropertyOp35
 70
     1
102
RTVSPropertyOp36
 70
     1
102
RTVSPropertyOp37
 70
     1
102
RTVSPropertyOp38
 70
     1
102
RTVSPropertyOp39
 70
     1
102
RTVSPropertyOp40
 70
     1
102
RTVSPropertyOp41
 70
     1
102
RTVSPropertyOp42
 70
     1
102
RTVSPropertyOp43
 70
     1
102
RTVSPropertyOp44
 70
     1
102
RTVSPropertyOp45
 70
     1
102
RTVSPropertyOp46
 70
     1
102
RTVSPropertyOp47
 70
     1
102
RTVSPropertyOp48
 70
     1
102
RTVSPropertyOp49
 70
     1
102
RTVSPropertyOp50
 70
     1
102
RTVSPropertyOp51
 70
     0
102
RTVSPropertyOp52
 70
     0
102
RTVSPropertyOp53
 70
     1
102
RTVSPropertyOp54
 70
     1
102
RTVSPropertyOp55
 70
     1
102
RTVSPropertyOp56
 70
     1
102
RTVSPropertyOp57
 70
     1
102
RTVSPropertyOp58
 70
     1
102
RTVSPropertyOp59
 70
     1
102
RTVSPropertyOp60
 70
     1
102
RTVSPropertyOp61
 70
     1
102
RTVSPropertyOp62
 70
     1
  0
XRECORD
  5
DE83
102
{ACAD_REACTORS
330
DE82
102
}
330
DE82
100
AcDbXrecord
280
     1
102
RTVSPost2010Prop28
280
     0
102
RTVSPost2010PropOp28
 70
     1
102
RTVSPost2010Prop29
280
     1
102
RTVSPost2010PropOp29
 70
     1
102
RTVSPost2010Prop30
280
     1
102
RTVSPost2010PropOp30
 70
     1
102
RTVSPost2010Prop31
280
     0
102
RTVSPost2010PropOp31
 70
     1
102
RTVSPost2010Prop32
280
     0
102
RTVSPost2010PropOp32
 70
     1
102
RTVSPost2010Prop33
280
     0
102
RTVSPost2010PropOp33
 70
     1
102
RTVSPost2010Prop34
280
     0
102
RTVSPost2010PropOp34
 70
     1
102
RTVSPost2010Prop35
280
     0
102
RTVSPost2010PropOp35
 70
     1
102
RTVSPost2010Prop36
280
     0
102
RTVSPost2010PropOp36
 70
     1
102
RTVSPost2010Prop37
 90
       50
102
RTVSPost2010PropOp37
 70
     0
102
RTVSPost2010Prop38
140
0.0
102
RTVSPost2010PropOp38
 70
     0
102
RTVSPost2010Prop39
140
1.0
102
RTVSPost2010PropOp39
 70
     0
102
RTVSPost2010Prop40
 90
        0
102
RTVSPost2010PropOp40
 70
     0
102
RTVSPost2010Prop41ColorIndex
 90
       18
102
RTVSPost2010Prop41ColorRGB
 90
        0
102
RTVSPost2010PropOp41
 70
     0
102
RTVSPost2010Prop42
 90
       50
102
RTVSPost2010PropOp42
 70
     0
102
RTVSPost2010Prop43
 90
        3
102
RTVSPost2010PropOp43
 70
     0
102
RTVSPost2010Prop44ColorIndex
 90
        5
102
RTVSPost2010Prop44ColorRGB
 90
      255
102
RTVSPost2010PropOp44
 70
     0
102
RTVSPost2010Prop45
280
     0
102
RTVSPost2010PropOp45
 70
     1
102
RTVSPost2010Prop46
 90
       50
102
RTVSPost2010PropOp46
 70
     0
102
RTVSPost2010Prop47
 90
       50
102
RTVSPost2010PropOp47
 70
     0
102
RTVSPost2010Prop48
 90
       50
102
RTVSPost2010PropOp48
 70
     0
102
RTVSPost2010Prop49
280
     0
102
RTVSPost2010PropOp49
 70
     1
102
RTVSPost2010Prop50
 90
       50
102
RTVSPost2010PropOp50
 70
     0
102
RTVSPost2010Prop51ColorIndex
 90
      256
102
RTVSPost2010Prop51ColorRGB
 90
-16777216
102
RTVSPost2010PropOp51
 70
     0
102
RTVSPost2010Prop52
140
1.0
102
RTVSPost2010PropOp52
 70
     0
102
RTVSPost2010Prop53
 90
        2
102
RTVSPost2010PropOp53
 70
     0
102
RTVSPost2010Prop54
  1
strokes_ogs.tif
102
RTVSPost2010PropOp54
 70
     0
102
RTVSPost2010Prop55
280
     0
102
RTVSPost2010PropOp55
 70
     1
102
RTVSPost2010Prop56
140
1.0
102
RTVSPost2010PropOp56
 70
     0
102
RTVSPost2010Prop57
140
1.0
102
RTVSPost2010PropOp57
 70
     0
102
RTVSPropertyOp0
 70
     0
102
RTVSPropertyOp1
 70
     0
102
RTVSPropertyOp2
 70
     0
102
RTVSPropertyOp3
 70
     0
102
RTVSPropertyOp4
 70
     0
102
RTVSPropertyOp5
 70
     0
102
RTVSPropertyOp6
 70
     0
102
RTVSPropertyOp7
 70
     0
102
RTVSPropertyOp8
 70
     0
102
RTVSPropertyOp9
 70
     0
102
RTVSPropertyOp10
 70
     0
102
RTVSPropertyOp11
 70
     0
102
RTVSPropertyOp12
 70
     0
102
RTVSPropertyOp13
 70
     0
102
RTVSPropertyOp14
 70
     2
102
RTVSPropertyOp15
 70
     0
102
RTVSPropertyOp16
 70
     0
102
RTVSPropertyOp17
 70
     0
102
RTVSPropertyOp18
 70
     0
102
RTVSPropertyOp19
 70
     0
102
RTVSPropertyOp20
 70
     0
102
RTVSPropertyOp21
 70
     0
102
RTVSPropertyOp22
 70
     0
102
RTVSPropertyOp23
 70
     0
102
RTVSPropertyOp24
 70
     0
102
RTVSPropertyOp25
 70
     0
102
RTVSPropertyOp26
 70
     0
102
RTVSPropertyOp27
 70
     0
102
RTVSPropertyOp28
 70
     1
102
RTVSPropertyOp29
 70
     1
102
RTVSPropertyOp30
 70
     1
102
RTVSPropertyOp31
 70
     1
102
RTVSPropertyOp32
 70
     1
102
RTVSPropertyOp33
 70
     1
102
RTVSPropertyOp34
 70
     1
102
RTVSPropertyOp35
 70
     1
102
RTVSPropertyOp36
 70
     1
102
RTVSPropertyOp37
 70
     0
102
RTVSPropertyOp38
 70
     0
102
RTVSPropertyOp39
 70
     0
102
RTVSPropertyOp40
 70
     0
102
RTVSPropertyOp41
 70
     0
102
RTVSPropertyOp42
 70
     0
102
RTVSPropertyOp43
 70
     0
102
RTVSPropertyOp44
 70
     0
102
RTVSPropertyOp45
 70
     1
102
RTVSPropertyOp46
 70
     0
102
RTVSPropertyOp47
 70
     0
102
RTVSPropertyOp48
 70
     0
102
RTVSPropertyOp49
 70
     1
102
RTVSPropertyOp50
 70
     0
102
RTVSPropertyOp51
 70
     0
102
RTVSPropertyOp52
 70
     0
102
RTVSPropertyOp53
 70
     0
102
RTVSPropertyOp54
 70
     0
102
RTVSPropertyOp55
 70
     1
102
RTVSPropertyOp56
 70
     0
102
RTVSPropertyOp57
 70
     0
102
RTVSPropertyOp58
 70
     0
102
RTVSPropertyOp59
 70
     0
102
RTVSPropertyOp60
 70
     0
102
RTVSPropertyOp61
 70
     0
102
RTVSPropertyOp62
 70
     0
  0
XRECORD
  5
DE71
102
{ACAD_REACTORS
330
DE70
102
}
330
DE70
100
AcDbXrecord
280
     1
102
RTVSPost2010Prop28
280
     0
102
RTVSPost2010PropOp28
 70
     1
102
RTVSPost2010Prop29
280
     1
102
RTVSPost2010PropOp29
 70
     1
102
RTVSPost2010Prop30
280
     1
102
RTVSPost2010PropOp30
 70
     1
102
RTVSPost2010Prop31
280
     0
102
RTVSPost2010PropOp31
 70
     1
102
RTVSPost2010Prop32
280
     0
102
RTVSPost2010PropOp32
 70
     1
102
RTVSPost2010Prop33
280
     0
102
RTVSPost2010PropOp33
 70
     1
102
RTVSPost2010Prop34
280
     0
102
RTVSPost2010PropOp34
 70
     1
102
RTVSPost2010Prop35
280
     0
102
RTVSPost2010PropOp35
 70
     1
102
RTVSPost2010Prop36
280
     0
102
RTVSPost2010PropOp36
 70
     1
102
RTVSPost2010Prop37
 90
       50
102
RTVSPost2010PropOp37
 70
     1
102
RTVSPost2010Prop38
140
0.0
102
RTVSPost2010PropOp38
 70
     1
102
RTVSPost2010Prop39
140
1.0
102
RTVSPost2010PropOp39
 70
     1
102
RTVSPost2010Prop40
 90
        0
102
RTVSPost2010PropOp40
 70
     1
102
RTVSPost2010Prop41ColorIndex
 90
       18
102
RTVSPost2010Prop41ColorRGB
 90
        0
102
RTVSPost2010PropOp41
 70
     1
102
RTVSPost2010Prop42
 90
       50
102
RTVSPost2010PropOp42
 70
     1
102
RTVSPost2010Prop43
 90
        3
102
RTVSPost2010PropOp43
 70
     1
102
RTVSPost2010Prop44ColorIndex
 90
        5
102
RTVSPost2010Prop44ColorRGB
 90
      255
102
RTVSPost2010PropOp44
 70
     1
102
RTVSPost2010Prop45
280
     0
102
RTVSPost2010PropOp45
 70
     1
102
RTVSPost2010Prop46
 90
       50
102
RTVSPost2010PropOp46
 70
     1
102
RTVSPost2010Prop47
 90
       50
102
RTVSPost2010PropOp47
 70
     1
102
RTVSPost2010Prop48
 90
       50
102
RTVSPost2010PropOp48
 70
     1
102
RTVSPost2010Prop49
280
     0
102
RTVSPost2010PropOp49
 70
     1
102
RTVSPost2010Prop50
 90
       50
102
RTVSPost2010PropOp50
 70
     1
102
RTVSPost2010Prop51ColorIndex
 90
      256
102
RTVSPost2010Prop51ColorRGB
 90
-16777216
102
RTVSPost2010PropOp51
 70
     0
102
RTVSPost2010Prop52
140
1.0
102
RTVSPost2010PropOp52
 70
     0
102
RTVSPost2010Prop53
 90
        2
102
RTVSPost2010PropOp53
 70
     1
102
RTVSPost2010Prop54
  1
strokes_ogs.tif
102
RTVSPost2010PropOp54
 70
     1
102
RTVSPost2010Prop55
280
     0
102
RTVSPost2010PropOp55
 70
     1
102
RTVSPost2010Prop56
140
1.0
102
RTVSPost2010PropOp56
 70
     1
102
RTVSPost2010Prop57
140
1.0
102
RTVSPost2010PropOp57
 70
     1
102
RTVSPropertyOp0
 70
     1
102
RTVSPropertyOp1
 70
     1
102
RTVSPropertyOp2
 70
     1
102
RTVSPropertyOp3
 70
     1
102
RTVSPropertyOp4
 70
     1
102
RTVSPropertyOp5
 70
     1
102
RTVSPropertyOp6
 70
     1
102
RTVSPropertyOp7
 70
     1
102
RTVSPropertyOp8
 70
     1
102
RTVSPropertyOp9
 70
     1
102
RTVSPropertyOp10
 70
     1
102
RTVSPropertyOp11
 70
     1
102
RTVSPropertyOp12
 70
     1
102
RTVSPropertyOp13
 70
     1
102
RTVSPropertyOp14
 70
     1
102
RTVSPropertyOp15
 70
     1
102
RTVSPropertyOp16
 70
     1
102
RTVSPropertyOp17
 70
     1
102
RTVSPropertyOp18
 70
     1
102
RTVSPropertyOp19
 70
     1
102
RTVSPropertyOp20
 70
     1
102
RTVSPropertyOp21
 70
     1
102
RTVSPropertyOp22
 70
     1
102
RTVSPropertyOp23
 70
     1
102
RTVSPropertyOp24
 70
     1
102
RTVSPropertyOp25
 70
     1
102
RTVSPropertyOp26
 70
     1
102
RTVSPropertyOp27
 70
     1
102
RTVSPropertyOp28
 70
     1
102
RTVSPropertyOp29
 70
     1
102
RTVSPropertyOp30
 70
     1
102
RTVSPropertyOp31
 70
     1
102
RTVSPropertyOp32
 70
     1
102
RTVSPropertyOp33
 70
     1
102
RTVSPropertyOp34
 70
     1
102
RTVSPropertyOp35
 70
     1
102
RTVSPropertyOp36
 70
     1
102
RTVSPropertyOp37
 70
     1
102
RTVSPropertyOp38
 70
     1
102
RTVSPropertyOp39
 70
     1
102
RTVSPropertyOp40
 70
     1
102
RTVSPropertyOp41
 70
     1
102
RTVSPropertyOp42
 70
     1
102
RTVSPropertyOp43
 70
     1
102
RTVSPropertyOp44
 70
     1
102
RTVSPropertyOp45
 70
     1
102
RTVSPropertyOp46
 70
     1
102
RTVSPropertyOp47
 70
     1
102
RTVSPropertyOp48
 70
     1
102
RTVSPropertyOp49
 70
     1
102
RTVSPropertyOp50
 70
     1
102
RTVSPropertyOp51
 70
     0
102
RTVSPropertyOp52
 70
     0
102
RTVSPropertyOp53
 70
     1
102
RTVSPropertyOp54
 70
     1
102
RTVSPropertyOp55
 70
     1
102
RTVSPropertyOp56
 70
     1
102
RTVSPropertyOp57
 70
     1
102
RTVSPropertyOp58
 70
     1
102
RTVSPropertyOp59
 70
     1
102
RTVSPropertyOp60
 70
     1
102
RTVSPropertyOp61
 70
     1
102
RTVSPropertyOp62
 70
     1
  0
XRECORD
  5
DE55
102
{ACAD_REACTORS
330
DE54
102
}
330
DE54
100
AcDbXrecord
280
     1
102
RTVSPost2010Prop28
280
     0
102
RTVSPost2010PropOp28
 70
     1
102
RTVSPost2010Prop29
280
     1
102
RTVSPost2010PropOp29
 70
     1
102
RTVSPost2010Prop30
280
     1
102
RTVSPost2010PropOp30
 70
     1
102
RTVSPost2010Prop31
280
     0
102
RTVSPost2010PropOp31
 70
     1
102
RTVSPost2010Prop32
280
     0
102
RTVSPost2010PropOp32
 70
     1
102
RTVSPost2010Prop33
280
     0
102
RTVSPost2010PropOp33
 70
     1
102
RTVSPost2010Prop34
280
     0
102
RTVSPost2010PropOp34
 70
     1
102
RTVSPost2010Prop35
280
     0
102
RTVSPost2010PropOp35
 70
     1
102
RTVSPost2010Prop36
280
     0
102
RTVSPost2010PropOp36
 70
     1
102
RTVSPost2010Prop37
 90
       50
102
RTVSPost2010PropOp37
 70
     1
102
RTVSPost2010Prop38
140
0.0
102
RTVSPost2010PropOp38
 70
     1
102
RTVSPost2010Prop39
140
1.0
102
RTVSPost2010PropOp39
 70
     1
102
RTVSPost2010Prop40
 90
        0
102
RTVSPost2010PropOp40
 70
     1
102
RTVSPost2010Prop41ColorIndex
 90
       18
102
RTVSPost2010Prop41ColorRGB
 90
        0
102
RTVSPost2010PropOp41
 70
     1
102
RTVSPost2010Prop42
 90
       50
102
RTVSPost2010PropOp42
 70
     1
102
RTVSPost2010Prop43
 90
        3
102
RTVSPost2010PropOp43
 70
     1
102
RTVSPost2010Prop44ColorIndex
 90
        5
102
RTVSPost2010Prop44ColorRGB
 90
      255
102
RTVSPost2010PropOp44
 70
     1
102
RTVSPost2010Prop45
280
     0
102
RTVSPost2010PropOp45
 70
     1
102
RTVSPost2010Prop46
 90
       50
102
RTVSPost2010PropOp46
 70
     1
102
RTVSPost2010Prop47
 90
       50
102
RTVSPost2010PropOp47
 70
     1
102
RTVSPost2010Prop48
 90
       50
102
RTVSPost2010PropOp48
 70
     1
102
RTVSPost2010Prop49
280
     0
102
RTVSPost2010PropOp49
 70
     1
102
RTVSPost2010Prop50
 90
       50
102
RTVSPost2010PropOp50
 70
     1
102
RTVSPost2010Prop51ColorIndex
 90
      256
102
RTVSPost2010Prop51ColorRGB
 90
-16777216
102
RTVSPost2010PropOp51
 70
     0
102
RTVSPost2010Prop52
140
1.0
102
RTVSPost2010PropOp52
 70
     0
102
RTVSPost2010Prop53
 90
        2
102
RTVSPost2010PropOp53
 70
     1
102
RTVSPost2010Prop54
  1
strokes_ogs.tif
102
RTVSPost2010PropOp54
 70
     1
102
RTVSPost2010Prop55
280
     0
102
RTVSPost2010PropOp55
 70
     1
102
RTVSPost2010Prop56
140
1.0
102
RTVSPost2010PropOp56
 70
     1
102
RTVSPost2010Prop57
140
1.0
102
RTVSPost2010PropOp57
 70
     1
102
RTVSPropertyOp0
 70
     1
102
RTVSPropertyOp1
 70
     1
102
RTVSPropertyOp2
 70
     1
102
RTVSPropertyOp3
 70
     1
102
RTVSPropertyOp4
 70
     1
102
RTVSPropertyOp5
 70
     1
102
RTVSPropertyOp6
 70
     1
102
RTVSPropertyOp7
 70
     1
102
RTVSPropertyOp8
 70
     1
102
RTVSPropertyOp9
 70
     1
102
RTVSPropertyOp10
 70
     1
102
RTVSPropertyOp11
 70
     1
102
RTVSPropertyOp12
 70
     1
102
RTVSPropertyOp13
 70
     1
102
RTVSPropertyOp14
 70
     1
102
RTVSPropertyOp15
 70
     1
102
RTVSPropertyOp16
 70
     1
102
RTVSPropertyOp17
 70
     1
102
RTVSPropertyOp18
 70
     1
102
RTVSPropertyOp19
 70
     1
102
RTVSPropertyOp20
 70
     1
102
RTVSPropertyOp21
 70
     1
102
RTVSPropertyOp22
 70
     1
102
RTVSPropertyOp23
 70
     1
102
RTVSPropertyOp24
 70
     1
102
RTVSPropertyOp25
 70
     1
102
RTVSPropertyOp26
 70
     1
102
RTVSPropertyOp27
 70
     1
102
RTVSPropertyOp28
 70
     1
102
RTVSPropertyOp29
 70
     1
102
RTVSPropertyOp30
 70
     1
102
RTVSPropertyOp31
 70
     1
102
RTVSPropertyOp32
 70
     1
102
RTVSPropertyOp33
 70
     1
102
RTVSPropertyOp34
 70
     1
102
RTVSPropertyOp35
 70
     1
102
RTVSPropertyOp36
 70
     1
102
RTVSPropertyOp37
 70
     1
102
RTVSPropertyOp38
 70
     1
102
RTVSPropertyOp39
 70
     1
102
RTVSPropertyOp40
 70
     1
102
RTVSPropertyOp41
 70
     1
102
RTVSPropertyOp42
 70
     1
102
RTVSPropertyOp43
 70
     1
102
RTVSPropertyOp44
 70
     1
102
RTVSPropertyOp45
 70
     1
102
RTVSPropertyOp46
 70
     1
102
RTVSPropertyOp47
 70
     1
102
RTVSPropertyOp48
 70
     1
102
RTVSPropertyOp49
 70
     1
102
RTVSPropertyOp50
 70
     1
102
RTVSPropertyOp51
 70
     0
102
RTVSPropertyOp52
 70
     0
102
RTVSPropertyOp53
 70
     1
102
RTVSPropertyOp54
 70
     1
102
RTVSPropertyOp55
 70
     1
102
RTVSPropertyOp56
 70
     1
102
RTVSPropertyOp57
 70
     1
102
RTVSPropertyOp58
 70
     1
102
RTVSPropertyOp59
 70
     1
102
RTVSPropertyOp60
 70
     1
102
RTVSPropertyOp61
 70
     1
102
RTVSPropertyOp62
 70
     1
  0
XRECORD
  5
DE57
102
{ACAD_REACTORS
330
DE56
102
}
330
DE56
100
AcDbXrecord
280
     1
102
RTVSPost2010Prop28
280
     0
102
RTVSPost2010PropOp28
 70
     1
102
RTVSPost2010Prop29
280
     1
102
RTVSPost2010PropOp29
 70
     1
102
RTVSPost2010Prop30
280
     1
102
RTVSPost2010PropOp30
 70
     1
102
RTVSPost2010Prop31
280
     0
102
RTVSPost2010PropOp31
 70
     1
102
RTVSPost2010Prop32
280
     0
102
RTVSPost2010PropOp32
 70
     1
102
RTVSPost2010Prop33
280
     0
102
RTVSPost2010PropOp33
 70
     1
102
RTVSPost2010Prop34
280
     0
102
RTVSPost2010PropOp34
 70
     1
102
RTVSPost2010Prop35
280
     0
102
RTVSPost2010PropOp35
 70
     1
102
RTVSPost2010Prop36
280
     0
102
RTVSPost2010PropOp36
 70
     1
102
RTVSPost2010Prop37
 90
       50
102
RTVSPost2010PropOp37
 70
     1
102
RTVSPost2010Prop38
140
0.0
102
RTVSPost2010PropOp38
 70
     1
102
RTVSPost2010Prop39
140
1.0
102
RTVSPost2010PropOp39
 70
     1
102
RTVSPost2010Prop40
 90
        0
102
RTVSPost2010PropOp40
 70
     1
102
RTVSPost2010Prop41ColorIndex
 90
       18
102
RTVSPost2010Prop41ColorRGB
 90
        0
102
RTVSPost2010PropOp41
 70
     1
102
RTVSPost2010Prop42
 90
       50
102
RTVSPost2010PropOp42
 70
     1
102
RTVSPost2010Prop43
 90
        3
102
RTVSPost2010PropOp43
 70
     1
102
RTVSPost2010Prop44ColorIndex
 90
        5
102
RTVSPost2010Prop44ColorRGB
 90
      255
102
RTVSPost2010PropOp44
 70
     1
102
RTVSPost2010Prop45
280
     0
102
RTVSPost2010PropOp45
 70
     1
102
RTVSPost2010Prop46
 90
       50
102
RTVSPost2010PropOp46
 70
     1
102
RTVSPost2010Prop47
 90
       50
102
RTVSPost2010PropOp47
 70
     1
102
RTVSPost2010Prop48
 90
       50
102
RTVSPost2010PropOp48
 70
     1
102
RTVSPost2010Prop49
280
     0
102
RTVSPost2010PropOp49
 70
     1
102
RTVSPost2010Prop50
 90
       50
102
RTVSPost2010PropOp50
 70
     1
102
RTVSPost2010Prop51ColorIndex
 90
      256
102
RTVSPost2010Prop51ColorRGB
 90
-16777216
102
RTVSPost2010PropOp51
 70
     0
102
RTVSPost2010Prop52
140
1.0
102
RTVSPost2010PropOp52
 70
     0
102
RTVSPost2010Prop53
 90
        2
102
RTVSPost2010PropOp53
 70
     1
102
RTVSPost2010Prop54
  1
strokes_ogs.tif
102
RTVSPost2010PropOp54
 70
     1
102
RTVSPost2010Prop55
280
     0
102
RTVSPost2010PropOp55
 70
     1
102
RTVSPost2010Prop56
140
1.0
102
RTVSPost2010PropOp56
 70
     1
102
RTVSPost2010Prop57
140
1.0
102
RTVSPost2010PropOp57
 70
     1
102
RTVSPropertyOp0
 70
     1
102
RTVSPropertyOp1
 70
     1
102
RTVSPropertyOp2
 70
     1
102
RTVSPropertyOp3
 70
     1
102
RTVSPropertyOp4
 70
     1
102
RTVSPropertyOp5
 70
     1
102
RTVSPropertyOp6
 70
     1
102
RTVSPropertyOp7
 70
     1
102
RTVSPropertyOp8
 70
     1
102
RTVSPropertyOp9
 70
     1
102
RTVSPropertyOp10
 70
     1
102
RTVSPropertyOp11
 70
     1
102
RTVSPropertyOp12
 70
     1
102
RTVSPropertyOp13
 70
     1
102
RTVSPropertyOp14
 70
     1
102
RTVSPropertyOp15
 70
     1
102
RTVSPropertyOp16
 70
     1
102
RTVSPropertyOp17
 70
     1
102
RTVSPropertyOp18
 70
     1
102
RTVSPropertyOp19
 70
     1
102
RTVSPropertyOp20
 70
     1
102
RTVSPropertyOp21
 70
     1
102
RTVSPropertyOp22
 70
     1
102
RTVSPropertyOp23
 70
     1
102
RTVSPropertyOp24
 70
     1
102
RTVSPropertyOp25
 70
     1
102
RTVSPropertyOp26
 70
     1
102
RTVSPropertyOp27
 70
     1
102
RTVSPropertyOp28
 70
     1
102
RTVSPropertyOp29
 70
     1
102
RTVSPropertyOp30
 70
     1
102
RTVSPropertyOp31
 70
     1
102
RTVSPropertyOp32
 70
     1
102
RTVSPropertyOp33
 70
     1
102
RTVSPropertyOp34
 70
     1
102
RTVSPropertyOp35
 70
     1
102
RTVSPropertyOp36
 70
     1
102
RTVSPropertyOp37
 70
     1
102
RTVSPropertyOp38
 70
     1
102
RTVSPropertyOp39
 70
     1
102
RTVSPropertyOp40
 70
     1
102
RTVSPropertyOp41
 70
     1
102
RTVSPropertyOp42
 70
     1
102
RTVSPropertyOp43
 70
     1
102
RTVSPropertyOp44
 70
     1
102
RTVSPropertyOp45
 70
     1
102
RTVSPropertyOp46
 70
     1
102
RTVSPropertyOp47
 70
     1
102
RTVSPropertyOp48
 70
     1
102
RTVSPropertyOp49
 70
     1
102
RTVSPropertyOp50
 70
     1
102
RTVSPropertyOp51
 70
     0
102
RTVSPropertyOp52
 70
     0
102
RTVSPropertyOp53
 70
     1
102
RTVSPropertyOp54
 70
     1
102
RTVSPropertyOp55
 70
     1
102
RTVSPropertyOp56
 70
     1
102
RTVSPropertyOp57
 70
     1
102
RTVSPropertyOp58
 70
     1
102
RTVSPropertyOp59
 70
     1
102
RTVSPropertyOp60
 70
     1
102
RTVSPropertyOp61
 70
     1
102
RTVSPropertyOp62
 70
     1
  0
XRECORD
  5
DE59
102
{ACAD_REACTORS
330
DE58
102
}
330
DE58
100
AcDbXrecord
280
     1
102
RTVSPost2010Prop28
280
     0
102
RTVSPost2010PropOp28
 70
     1
102
RTVSPost2010Prop29
280
     1
102
RTVSPost2010PropOp29
 70
     1
102
RTVSPost2010Prop30
280
     1
102
RTVSPost2010PropOp30
 70
     1
102
RTVSPost2010Prop31
280
     0
102
RTVSPost2010PropOp31
 70
     1
102
RTVSPost2010Prop32
280
     0
102
RTVSPost2010PropOp32
 70
     1
102
RTVSPost2010Prop33
280
     0
102
RTVSPost2010PropOp33
 70
     1
102
RTVSPost2010Prop34
280
     0
102
RTVSPost2010PropOp34
 70
     1
102
RTVSPost2010Prop35
280
     0
102
RTVSPost2010PropOp35
 70
     1
102
RTVSPost2010Prop36
280
     0
102
RTVSPost2010PropOp36
 70
     1
102
RTVSPost2010Prop37
 90
       50
102
RTVSPost2010PropOp37
 70
     1
102
RTVSPost2010Prop38
140
0.0
102
RTVSPost2010PropOp38
 70
     1
102
RTVSPost2010Prop39
140
1.0
102
RTVSPost2010PropOp39
 70
     1
102
RTVSPost2010Prop40
 90
        0
102
RTVSPost2010PropOp40
 70
     1
102
RTVSPost2010Prop41ColorIndex
 90
       18
102
RTVSPost2010Prop41ColorRGB
 90
        0
102
RTVSPost2010PropOp41
 70
     1
102
RTVSPost2010Prop42
 90
       50
102
RTVSPost2010PropOp42
 70
     1
102
RTVSPost2010Prop43
 90
        3
102
RTVSPost2010PropOp43
 70
     1
102
RTVSPost2010Prop44ColorIndex
 90
        5
102
RTVSPost2010Prop44ColorRGB
 90
      255
102
RTVSPost2010PropOp44
 70
     1
102
RTVSPost2010Prop45
280
     0
102
RTVSPost2010PropOp45
 70
     1
102
RTVSPost2010Prop46
 90
       50
102
RTVSPost2010PropOp46
 70
     1
102
RTVSPost2010Prop47
 90
       50
102
RTVSPost2010PropOp47
 70
     1
102
RTVSPost2010Prop48
 90
       50
102
RTVSPost2010PropOp48
 70
     1
102
RTVSPost2010Prop49
280
     0
102
RTVSPost2010PropOp49
 70
     1
102
RTVSPost2010Prop50
 90
       50
102
RTVSPost2010PropOp50
 70
     1
102
RTVSPost2010Prop51ColorIndex
 90
      256
102
RTVSPost2010Prop51ColorRGB
 90
-16777216
102
RTVSPost2010PropOp51
 70
     0
102
RTVSPost2010Prop52
140
1.0
102
RTVSPost2010PropOp52
 70
     0
102
RTVSPost2010Prop53
 90
        2
102
RTVSPost2010PropOp53
 70
     1
102
RTVSPost2010Prop54
  1
strokes_ogs.tif
102
RTVSPost2010PropOp54
 70
     1
102
RTVSPost2010Prop55
280
     0
102
RTVSPost2010PropOp55
 70
     1
102
RTVSPost2010Prop56
140
1.0
102
RTVSPost2010PropOp56
 70
     1
102
RTVSPost2010Prop57
140
1.0
102
RTVSPost2010PropOp57
 70
     1
102
RTVSPropertyOp0
 70
     1
102
RTVSPropertyOp1
 70
     1
102
RTVSPropertyOp2
 70
     1
102
RTVSPropertyOp3
 70
     1
102
RTVSPropertyOp4
 70
     1
102
RTVSPropertyOp5
 70
     1
102
RTVSPropertyOp6
 70
     1
102
RTVSPropertyOp7
 70
     1
102
RTVSPropertyOp8
 70
     1
102
RTVSPropertyOp9
 70
     1
102
RTVSPropertyOp10
 70
     1
102
RTVSPropertyOp11
 70
     1
102
RTVSPropertyOp12
 70
     1
102
RTVSPropertyOp13
 70
     1
102
RTVSPropertyOp14
 70
     1
102
RTVSPropertyOp15
 70
     1
102
RTVSPropertyOp16
 70
     1
102
RTVSPropertyOp17
 70
     1
102
RTVSPropertyOp18
 70
     1
102
RTVSPropertyOp19
 70
     1
102
RTVSPropertyOp20
 70
     1
102
RTVSPropertyOp21
 70
     1
102
RTVSPropertyOp22
 70
     1
102
RTVSPropertyOp23
 70
     1
102
RTVSPropertyOp24
 70
     1
102
RTVSPropertyOp25
 70
     1
102
RTVSPropertyOp26
 70
     1
102
RTVSPropertyOp27
 70
     1
102
RTVSPropertyOp28
 70
     1
102
RTVSPropertyOp29
 70
     1
102
RTVSPropertyOp30
 70
     1
102
RTVSPropertyOp31
 70
     1
102
RTVSPropertyOp32
 70
     1
102
RTVSPropertyOp33
 70
     1
102
RTVSPropertyOp34
 70
     1
102
RTVSPropertyOp35
 70
     1
102
RTVSPropertyOp36
 70
     1
102
RTVSPropertyOp37
 70
     1
102
RTVSPropertyOp38
 70
     1
102
RTVSPropertyOp39
 70
     1
102
RTVSPropertyOp40
 70
     1
102
RTVSPropertyOp41
 70
     1
102
RTVSPropertyOp42
 70
     1
102
RTVSPropertyOp43
 70
     1
102
RTVSPropertyOp44
 70
     1
102
RTVSPropertyOp45
 70
     1
102
RTVSPropertyOp46
 70
     1
102
RTVSPropertyOp47
 70
     1
102
RTVSPropertyOp48
 70
     1
102
RTVSPropertyOp49
 70
     1
102
RTVSPropertyOp50
 70
     1
102
RTVSPropertyOp51
 70
     0
102
RTVSPropertyOp52
 70
     0
102
RTVSPropertyOp53
 70
     1
102
RTVSPropertyOp54
 70
     1
102
RTVSPropertyOp55
 70
     1
102
RTVSPropertyOp56
 70
     1
102
RTVSPropertyOp57
 70
     1
102
RTVSPropertyOp58
 70
     1
102
RTVSPropertyOp59
 70
     1
102
RTVSPropertyOp60
 70
     1
102
RTVSPropertyOp61
 70
     1
102
RTVSPropertyOp62
 70
     1
  0
XRECORD
  5
DE5B
102
{ACAD_REACTORS
330
DE5A
102
}
330
DE5A
100
AcDbXrecord
280
     1
102
RTVSPost2010Prop28
280
     0
102
RTVSPost2010PropOp28
 70
     1
102
RTVSPost2010Prop29
280
     1
102
RTVSPost2010PropOp29
 70
     1
102
RTVSPost2010Prop30
280
     1
102
RTVSPost2010PropOp30
 70
     1
102
RTVSPost2010Prop31
280
     0
102
RTVSPost2010PropOp31
 70
     1
102
RTVSPost2010Prop32
280
     0
102
RTVSPost2010PropOp32
 70
     1
102
RTVSPost2010Prop33
280
     0
102
RTVSPost2010PropOp33
 70
     1
102
RTVSPost2010Prop34
280
     0
102
RTVSPost2010PropOp34
 70
     1
102
RTVSPost2010Prop35
280
     0
102
RTVSPost2010PropOp35
 70
     1
102
RTVSPost2010Prop36
280
     0
102
RTVSPost2010PropOp36
 70
     1
102
RTVSPost2010Prop37
 90
       50
102
RTVSPost2010PropOp37
 70
     1
102
RTVSPost2010Prop38
140
0.0
102
RTVSPost2010PropOp38
 70
     1
102
RTVSPost2010Prop39
140
1.0
102
RTVSPost2010PropOp39
 70
     1
102
RTVSPost2010Prop40
 90
        0
102
RTVSPost2010PropOp40
 70
     1
102
RTVSPost2010Prop41ColorIndex
 90
       18
102
RTVSPost2010Prop41ColorRGB
 90
        0
102
RTVSPost2010PropOp41
 70
     1
102
RTVSPost2010Prop42
 90
       50
102
RTVSPost2010PropOp42
 70
     1
102
RTVSPost2010Prop43
 90
        3
102
RTVSPost2010PropOp43
 70
     1
102
RTVSPost2010Prop44ColorIndex
 90
        5
102
RTVSPost2010Prop44ColorRGB
 90
      255
102
RTVSPost2010PropOp44
 70
     1
102
RTVSPost2010Prop45
280
     0
102
RTVSPost2010PropOp45
 70
     1
102
RTVSPost2010Prop46
 90
       50
102
RTVSPost2010PropOp46
 70
     1
102
RTVSPost2010Prop47
 90
       50
102
RTVSPost2010PropOp47
 70
     1
102
RTVSPost2010Prop48
 90
       50
102
RTVSPost2010PropOp48
 70
     1
102
RTVSPost2010Prop49
280
     0
102
RTVSPost2010PropOp49
 70
     1
102
RTVSPost2010Prop50
 90
       50
102
RTVSPost2010PropOp50
 70
     1
102
RTVSPost2010Prop51ColorIndex
 90
      256
102
RTVSPost2010Prop51ColorRGB
 90
-16777216
102
RTVSPost2010PropOp51
 70
     0
102
RTVSPost2010Prop52
140
1.0
102
RTVSPost2010PropOp52
 70
     0
102
RTVSPost2010Prop53
 90
        2
102
RTVSPost2010PropOp53
 70
     1
102
RTVSPost2010Prop54
  1
strokes_ogs.tif
102
RTVSPost2010PropOp54
 70
     1
102
RTVSPost2010Prop55
280
     0
102
RTVSPost2010PropOp55
 70
     1
102
RTVSPost2010Prop56
140
1.0
102
RTVSPost2010PropOp56
 70
     1
102
RTVSPost2010Prop57
140
1.0
102
RTVSPost2010PropOp57
 70
     1
102
RTVSPropertyOp0
 70
     1
102
RTVSPropertyOp1
 70
     1
102
RTVSPropertyOp2
 70
     1
102
RTVSPropertyOp3
 70
     1
102
RTVSPropertyOp4
 70
     1
102
RTVSPropertyOp5
 70
     1
102
RTVSPropertyOp6
 70
     1
102
RTVSPropertyOp7
 70
     1
102
RTVSPropertyOp8
 70
     1
102
RTVSPropertyOp9
 70
     1
102
RTVSPropertyOp10
 70
     1
102
RTVSPropertyOp11
 70
     1
102
RTVSPropertyOp12
 70
     1
102
RTVSPropertyOp13
 70
     1
102
RTVSPropertyOp14
 70
     1
102
RTVSPropertyOp15
 70
     1
102
RTVSPropertyOp16
 70
     1
102
RTVSPropertyOp17
 70
     1
102
RTVSPropertyOp18
 70
     1
102
RTVSPropertyOp19
 70
     1
102
RTVSPropertyOp20
 70
     1
102
RTVSPropertyOp21
 70
     1
102
RTVSPropertyOp22
 70
     1
102
RTVSPropertyOp23
 70
     1
102
RTVSPropertyOp24
 70
     1
102
RTVSPropertyOp25
 70
     1
102
RTVSPropertyOp26
 70
     1
102
RTVSPropertyOp27
 70
     1
102
RTVSPropertyOp28
 70
     1
102
RTVSPropertyOp29
 70
     1
102
RTVSPropertyOp30
 70
     1
102
RTVSPropertyOp31
 70
     1
102
RTVSPropertyOp32
 70
     1
102
RTVSPropertyOp33
 70
     1
102
RTVSPropertyOp34
 70
     1
102
RTVSPropertyOp35
 70
     1
102
RTVSPropertyOp36
 70
     1
102
RTVSPropertyOp37
 70
     1
102
RTVSPropertyOp38
 70
     1
102
RTVSPropertyOp39
 70
     1
102
RTVSPropertyOp40
 70
     1
102
RTVSPropertyOp41
 70
     1
102
RTVSPropertyOp42
 70
     1
102
RTVSPropertyOp43
 70
     1
102
RTVSPropertyOp44
 70
     1
102
RTVSPropertyOp45
 70
     1
102
RTVSPropertyOp46
 70
     1
102
RTVSPropertyOp47
 70
     1
102
RTVSPropertyOp48
 70
     1
102
RTVSPropertyOp49
 70
     1
102
RTVSPropertyOp50
 70
     1
102
RTVSPropertyOp51
 70
     0
102
RTVSPropertyOp52
 70
     0
102
RTVSPropertyOp53
 70
     1
102
RTVSPropertyOp54
 70
     1
102
RTVSPropertyOp55
 70
     1
102
RTVSPropertyOp56
 70
     1
102
RTVSPropertyOp57
 70
     1
102
RTVSPropertyOp58
 70
     1
102
RTVSPropertyOp59
 70
     1
102
RTVSPropertyOp60
 70
     1
102
RTVSPropertyOp61
 70
     1
102
RTVSPropertyOp62
 70
     1
  0
XRECORD
  5
DE63
102
{ACAD_REACTORS
330
DE62
102
}
330
DE62
100
AcDbXrecord
280
     1
102
RTVSPost2010Prop28
280
     0
102
RTVSPost2010PropOp28
 70
     1
102
RTVSPost2010Prop29
280
     1
102
RTVSPost2010PropOp29
 70
     1
102
RTVSPost2010Prop30
280
     1
102
RTVSPost2010PropOp30
 70
     1
102
RTVSPost2010Prop31
280
     0
102
RTVSPost2010PropOp31
 70
     1
102
RTVSPost2010Prop32
280
     0
102
RTVSPost2010PropOp32
 70
     1
102
RTVSPost2010Prop33
280
     0
102
RTVSPost2010PropOp33
 70
     1
102
RTVSPost2010Prop34
280
     0
102
RTVSPost2010PropOp34
 70
     1
102
RTVSPost2010Prop35
280
     0
102
RTVSPost2010PropOp35
 70
     1
102
RTVSPost2010Prop36
280
     0
102
RTVSPost2010PropOp36
 70
     1
102
RTVSPost2010Prop37
 90
       50
102
RTVSPost2010PropOp37
 70
     1
102
RTVSPost2010Prop38
140
0.0
102
RTVSPost2010PropOp38
 70
     1
102
RTVSPost2010Prop39
140
1.0
102
RTVSPost2010PropOp39
 70
     1
102
RTVSPost2010Prop40
 90
        0
102
RTVSPost2010PropOp40
 70
     1
102
RTVSPost2010Prop41ColorIndex
 90
       18
102
RTVSPost2010Prop41ColorRGB
 90
        0
102
RTVSPost2010PropOp41
 70
     1
102
RTVSPost2010Prop42
 90
       50
102
RTVSPost2010PropOp42
 70
     1
102
RTVSPost2010Prop43
 90
        3
102
RTVSPost2010PropOp43
 70
     1
102
RTVSPost2010Prop44ColorIndex
 90
        5
102
RTVSPost2010Prop44ColorRGB
 90
      255
102
RTVSPost2010PropOp44
 70
     1
102
RTVSPost2010Prop45
280
     0
102
RTVSPost2010PropOp45
 70
     1
102
RTVSPost2010Prop46
 90
       50
102
RTVSPost2010PropOp46
 70
     1
102
RTVSPost2010Prop47
 90
       50
102
RTVSPost2010PropOp47
 70
     1
102
RTVSPost2010Prop48
 90
       50
102
RTVSPost2010PropOp48
 70
     1
102
RTVSPost2010Prop49
280
     0
102
RTVSPost2010PropOp49
 70
     1
102
RTVSPost2010Prop50
 90
       50
102
RTVSPost2010PropOp50
 70
     1
102
RTVSPost2010Prop51ColorIndex
 90
      256
102
RTVSPost2010Prop51ColorRGB
 90
-16777216
102
RTVSPost2010PropOp51
 70
     0
102
RTVSPost2010Prop52
140
1.0
102
RTVSPost2010PropOp52
 70
     0
102
RTVSPost2010Prop53
 90
        2
102
RTVSPost2010PropOp53
 70
     1
102
RTVSPost2010Prop54
  1
strokes_ogs.tif
102
RTVSPost2010PropOp54
 70
     1
102
RTVSPost2010Prop55
280
     0
102
RTVSPost2010PropOp55
 70
     1
102
RTVSPost2010Prop56
140
1.0
102
RTVSPost2010PropOp56
 70
     1
102
RTVSPost2010Prop57
140
1.0
102
RTVSPost2010PropOp57
 70
     1
102
RTVSPropertyOp0
 70
     1
102
RTVSPropertyOp1
 70
     1
102
RTVSPropertyOp2
 70
     1
102
RTVSPropertyOp3
 70
     1
102
RTVSPropertyOp4
 70
     1
102
RTVSPropertyOp5
 70
     1
102
RTVSPropertyOp6
 70
     1
102
RTVSPropertyOp7
 70
     1
102
RTVSPropertyOp8
 70
     1
102
RTVSPropertyOp9
 70
     1
102
RTVSPropertyOp10
 70
     1
102
RTVSPropertyOp11
 70
     1
102
RTVSPropertyOp12
 70
     1
102
RTVSPropertyOp13
 70
     1
102
RTVSPropertyOp14
 70
     1
102
RTVSPropertyOp15
 70
     1
102
RTVSPropertyOp16
 70
     1
102
RTVSPropertyOp17
 70
     1
102
RTVSPropertyOp18
 70
     1
102
RTVSPropertyOp19
 70
     1
102
RTVSPropertyOp20
 70
     1
102
RTVSPropertyOp21
 70
     1
102
RTVSPropertyOp22
 70
     1
102
RTVSPropertyOp23
 70
     1
102
RTVSPropertyOp24
 70
     1
102
RTVSPropertyOp25
 70
     1
102
RTVSPropertyOp26
 70
     1
102
RTVSPropertyOp27
 70
     1
102
RTVSPropertyOp28
 70
     1
102
RTVSPropertyOp29
 70
     1
102
RTVSPropertyOp30
 70
     1
102
RTVSPropertyOp31
 70
     1
102
RTVSPropertyOp32
 70
     1
102
RTVSPropertyOp33
 70
     1
102
RTVSPropertyOp34
 70
     1
102
RTVSPropertyOp35
 70
     1
102
RTVSPropertyOp36
 70
     1
102
RTVSPropertyOp37
 70
     1
102
RTVSPropertyOp38
 70
     1
102
RTVSPropertyOp39
 70
     1
102
RTVSPropertyOp40
 70
     1
102
RTVSPropertyOp41
 70
     1
102
RTVSPropertyOp42
 70
     1
102
RTVSPropertyOp43
 70
     1
102
RTVSPropertyOp44
 70
     1
102
RTVSPropertyOp45
 70
     1
102
RTVSPropertyOp46
 70
     1
102
RTVSPropertyOp47
 70
     1
102
RTVSPropertyOp48
 70
     1
102
RTVSPropertyOp49
 70
     1
102
RTVSPropertyOp50
 70
     1
102
RTVSPropertyOp51
 70
     0
102
RTVSPropertyOp52
 70
     0
102
RTVSPropertyOp53
 70
     1
102
RTVSPropertyOp54
 70
     1
102
RTVSPropertyOp55
 70
     1
102
RTVSPropertyOp56
 70
     1
102
RTVSPropertyOp57
 70
     1
102
RTVSPropertyOp58
 70
     1
102
RTVSPropertyOp59
 70
     1
102
RTVSPropertyOp60
 70
     1
102
RTVSPropertyOp61
 70
     1
102
RTVSPropertyOp62
 70
     1
  0
XRECORD
  5
DE7F
102
{ACAD_REACTORS
330
DE7E
102
}
330
DE7E
100
AcDbXrecord
280
     1
102
RTVSPost2010Prop28
280
     0
102
RTVSPost2010PropOp28
 70
     1
102
RTVSPost2010Prop29
280
     1
102
RTVSPost2010PropOp29
 70
     1
102
RTVSPost2010Prop30
280
     1
102
RTVSPost2010PropOp30
 70
     1
102
RTVSPost2010Prop31
280
     0
102
RTVSPost2010PropOp31
 70
     1
102
RTVSPost2010Prop32
280
     0
102
RTVSPost2010PropOp32
 70
     1
102
RTVSPost2010Prop33
280
     0
102
RTVSPost2010PropOp33
 70
     1
102
RTVSPost2010Prop34
280
     0
102
RTVSPost2010PropOp34
 70
     1
102
RTVSPost2010Prop35
280
     0
102
RTVSPost2010PropOp35
 70
     1
102
RTVSPost2010Prop36
280
     0
102
RTVSPost2010PropOp36
 70
     1
102
RTVSPost2010Prop37
 90
       50
102
RTVSPost2010PropOp37
 70
     0
102
RTVSPost2010Prop38
140
0.0
102
RTVSPost2010PropOp38
 70
     0
102
RTVSPost2010Prop39
140
1.0
102
RTVSPost2010PropOp39
 70
     0
102
RTVSPost2010Prop40
 90
        0
102
RTVSPost2010PropOp40
 70
     0
102
RTVSPost2010Prop41ColorIndex
 90
       18
102
RTVSPost2010Prop41ColorRGB
 90
        0
102
RTVSPost2010PropOp41
 70
     0
102
RTVSPost2010Prop42
 90
       50
102
RTVSPost2010PropOp42
 70
     0
102
RTVSPost2010Prop43
 90
        3
102
RTVSPost2010PropOp43
 70
     0
102
RTVSPost2010Prop44ColorIndex
 90
        5
102
RTVSPost2010Prop44ColorRGB
 90
      255
102
RTVSPost2010PropOp44
 70
     0
102
RTVSPost2010Prop45
280
     0
102
RTVSPost2010PropOp45
 70
     1
102
RTVSPost2010Prop46
 90
       50
102
RTVSPost2010PropOp46
 70
     0
102
RTVSPost2010Prop47
 90
       50
102
RTVSPost2010PropOp47
 70
     0
102
RTVSPost2010Prop48
 90
       50
102
RTVSPost2010PropOp48
 70
     0
102
RTVSPost2010Prop49
280
     0
102
RTVSPost2010PropOp49
 70
     1
102
RTVSPost2010Prop50
 90
       50
102
RTVSPost2010PropOp50
 70
     0
102
RTVSPost2010Prop51ColorIndex
 90
      256
102
RTVSPost2010Prop51ColorRGB
 90
-16777216
102
RTVSPost2010PropOp51
 70
     0
102
RTVSPost2010Prop52
140
1.0
102
RTVSPost2010PropOp52
 70
     0
102
RTVSPost2010Prop53
 90
        2
102
RTVSPost2010PropOp53
 70
     0
102
RTVSPost2010Prop54
  1
strokes_ogs.tif
102
RTVSPost2010PropOp54
 70
     0
102
RTVSPost2010Prop55
280
     0
102
RTVSPost2010PropOp55
 70
     1
102
RTVSPost2010Prop56
140
1.0
102
RTVSPost2010PropOp56
 70
     0
102
RTVSPost2010Prop57
140
1.0
102
RTVSPost2010PropOp57
 70
     0
102
RTVSPropertyOp0
 70
     0
102
RTVSPropertyOp1
 70
     0
102
RTVSPropertyOp2
 70
     0
102
RTVSPropertyOp3
 70
     0
102
RTVSPropertyOp4
 70
     0
102
RTVSPropertyOp5
 70
     0
102
RTVSPropertyOp6
 70
     0
102
RTVSPropertyOp7
 70
     0
102
RTVSPropertyOp8
 70
     0
102
RTVSPropertyOp9
 70
     0
102
RTVSPropertyOp10
 70
     0
102
RTVSPropertyOp11
 70
     0
102
RTVSPropertyOp12
 70
     0
102
RTVSPropertyOp13
 70
     0
102
RTVSPropertyOp14
 70
     2
102
RTVSPropertyOp15
 70
     0
102
RTVSPropertyOp16
 70
     0
102
RTVSPropertyOp17
 70
     0
102
RTVSPropertyOp18
 70
     0
102
RTVSPropertyOp19
 70
     0
102
RTVSPropertyOp20
 70
     0
102
RTVSPropertyOp21
 70
     0
102
RTVSPropertyOp22
 70
     0
102
RTVSPropertyOp23
 70
     0
102
RTVSPropertyOp24
 70
     0
102
RTVSPropertyOp25
 70
     0
102
RTVSPropertyOp26
 70
     0
102
RTVSPropertyOp27
 70
     0
102
RTVSPropertyOp28
 70
     1
102
RTVSPropertyOp29
 70
     1
102
RTVSPropertyOp30
 70
     1
102
RTVSPropertyOp31
 70
     1
102
RTVSPropertyOp32
 70
     1
102
RTVSPropertyOp33
 70
     1
102
RTVSPropertyOp34
 70
     1
102
RTVSPropertyOp35
 70
     1
102
RTVSPropertyOp36
 70
     1
102
RTVSPropertyOp37
 70
     0
102
RTVSPropertyOp38
 70
     0
102
RTVSPropertyOp39
 70
     0
102
RTVSPropertyOp40
 70
     0
102
RTVSPropertyOp41
 70
     0
102
RTVSPropertyOp42
 70
     0
102
RTVSPropertyOp43
 70
     0
102
RTVSPropertyOp44
 70
     0
102
RTVSPropertyOp45
 70
     1
102
RTVSPropertyOp46
 70
     0
102
RTVSPropertyOp47
 70
     0
102
RTVSPropertyOp48
 70
     0
102
RTVSPropertyOp49
 70
     1
102
RTVSPropertyOp50
 70
     0
102
RTVSPropertyOp51
 70
     0
102
RTVSPropertyOp52
 70
     0
102
RTVSPropertyOp53
 70
     0
102
RTVSPropertyOp54
 70
     0
102
RTVSPropertyOp55
 70
     1
102
RTVSPropertyOp56
 70
     0
102
RTVSPropertyOp57
 70
     0
102
RTVSPropertyOp58
 70
     0
102
RTVSPropertyOp59
 70
     0
102
RTVSPropertyOp60
 70
     0
102
RTVSPropertyOp61
 70
     0
102
RTVSPropertyOp62
 70
     0
  0
XRECORD
  5
DE6F
102
{ACAD_REACTORS
330
DE6E
102
}
330
DE6E
100
AcDbXrecord
280
     1
102
RTVSPost2010Prop28
280
     0
102
RTVSPost2010PropOp28
 70
     1
102
RTVSPost2010Prop29
280
     1
102
RTVSPost2010PropOp29
 70
     1
102
RTVSPost2010Prop30
280
     1
102
RTVSPost2010PropOp30
 70
     1
102
RTVSPost2010Prop31
280
     0
102
RTVSPost2010PropOp31
 70
     1
102
RTVSPost2010Prop32
280
     0
102
RTVSPost2010PropOp32
 70
     1
102
RTVSPost2010Prop33
280
     0
102
RTVSPost2010PropOp33
 70
     1
102
RTVSPost2010Prop34
280
     0
102
RTVSPost2010PropOp34
 70
     1
102
RTVSPost2010Prop35
280
     0
102
RTVSPost2010PropOp35
 70
     1
102
RTVSPost2010Prop36
280
     0
102
RTVSPost2010PropOp36
 70
     1
102
RTVSPost2010Prop37
 90
       50
102
RTVSPost2010PropOp37
 70
     1
102
RTVSPost2010Prop38
140
0.0
102
RTVSPost2010PropOp38
 70
     1
102
RTVSPost2010Prop39
140
1.0
102
RTVSPost2010PropOp39
 70
     1
102
RTVSPost2010Prop40
 90
        0
102
RTVSPost2010PropOp40
 70
     1
102
RTVSPost2010Prop41ColorIndex
 90
       18
102
RTVSPost2010Prop41ColorRGB
 90
        0
102
RTVSPost2010PropOp41
 70
     1
102
RTVSPost2010Prop42
 90
       50
102
RTVSPost2010PropOp42
 70
     1
102
RTVSPost2010Prop43
 90
        3
102
RTVSPost2010PropOp43
 70
     1
102
RTVSPost2010Prop44ColorIndex
 90
        5
102
RTVSPost2010Prop44ColorRGB
 90
      255
102
RTVSPost2010PropOp44
 70
     1
102
RTVSPost2010Prop45
280
     0
102
RTVSPost2010PropOp45
 70
     1
102
RTVSPost2010Prop46
 90
       50
102
RTVSPost2010PropOp46
 70
     1
102
RTVSPost2010Prop47
 90
       50
102
RTVSPost2010PropOp47
 70
     1
102
RTVSPost2010Prop48
 90
       50
102
RTVSPost2010PropOp48
 70
     1
102
RTVSPost2010Prop49
280
     0
102
RTVSPost2010PropOp49
 70
     1
102
RTVSPost2010Prop50
 90
       50
102
RTVSPost2010PropOp50
 70
     1
102
RTVSPost2010Prop51ColorIndex
 90
      256
102
RTVSPost2010Prop51ColorRGB
 90
-16777216
102
RTVSPost2010PropOp51
 70
     0
102
RTVSPost2010Prop52
140
1.0
102
RTVSPost2010PropOp52
 70
     0
102
RTVSPost2010Prop53
 90
        2
102
RTVSPost2010PropOp53
 70
     1
102
RTVSPost2010Prop54
  1
strokes_ogs.tif
102
RTVSPost2010PropOp54
 70
     1
102
RTVSPost2010Prop55
280
     0
102
RTVSPost2010PropOp55
 70
     1
102
RTVSPost2010Prop56
140
1.0
102
RTVSPost2010PropOp56
 70
     1
102
RTVSPost2010Prop57
140
1.0
102
RTVSPost2010PropOp57
 70
     1
102
RTVSPropertyOp0
 70
     1
102
RTVSPropertyOp1
 70
     1
102
RTVSPropertyOp2
 70
     1
102
RTVSPropertyOp3
 70
     1
102
RTVSPropertyOp4
 70
     1
102
RTVSPropertyOp5
 70
     1
102
RTVSPropertyOp6
 70
     1
102
RTVSPropertyOp7
 70
     1
102
RTVSPropertyOp8
 70
     1
102
RTVSPropertyOp9
 70
     1
102
RTVSPropertyOp10
 70
     1
102
RTVSPropertyOp11
 70
     1
102
RTVSPropertyOp12
 70
     1
102
RTVSPropertyOp13
 70
     1
102
RTVSPropertyOp14
 70
     1
102
RTVSPropertyOp15
 70
     1
102
RTVSPropertyOp16
 70
     1
102
RTVSPropertyOp17
 70
     1
102
RTVSPropertyOp18
 70
     1
102
RTVSPropertyOp19
 70
     1
102
RTVSPropertyOp20
 70
     1
102
RTVSPropertyOp21
 70
     1
102
RTVSPropertyOp22
 70
     1
102
RTVSPropertyOp23
 70
     1
102
RTVSPropertyOp24
 70
     1
102
RTVSPropertyOp25
 70
     1
102
RTVSPropertyOp26
 70
     1
102
RTVSPropertyOp27
 70
     1
102
RTVSPropertyOp28
 70
     1
102
RTVSPropertyOp29
 70
     1
102
RTVSPropertyOp30
 70
     1
102
RTVSPropertyOp31
 70
     1
102
RTVSPropertyOp32
 70
     1
102
RTVSPropertyOp33
 70
     1
102
RTVSPropertyOp34
 70
     1
102
RTVSPropertyOp35
 70
     1
102
RTVSPropertyOp36
 70
     1
102
RTVSPropertyOp37
 70
     1
102
RTVSPropertyOp38
 70
     1
102
RTVSPropertyOp39
 70
     1
102
RTVSPropertyOp40
 70
     1
102
RTVSPropertyOp41
 70
     1
102
RTVSPropertyOp42
 70
     1
102
RTVSPropertyOp43
 70
     1
102
RTVSPropertyOp44
 70
     1
102
RTVSPropertyOp45
 70
     1
102
RTVSPropertyOp46
 70
     1
102
RTVSPropertyOp47
 70
     1
102
RTVSPropertyOp48
 70
     1
102
RTVSPropertyOp49
 70
     1
102
RTVSPropertyOp50
 70
     1
102
RTVSPropertyOp51
 70
     0
102
RTVSPropertyOp52
 70
     0
102
RTVSPropertyOp53
 70
     1
102
RTVSPropertyOp54
 70
     1
102
RTVSPropertyOp55
 70
     1
102
RTVSPropertyOp56
 70
     1
102
RTVSPropertyOp57
 70
     1
102
RTVSPropertyOp58
 70
     1
102
RTVSPropertyOp59
 70
     1
102
RTVSPropertyOp60
 70
     1
102
RTVSPropertyOp61
 70
     1
102
RTVSPropertyOp62
 70
     1
  0
XRECORD
  5
DE81
102
{ACAD_REACTORS
330
DE80
102
}
330
DE80
100
AcDbXrecord
280
     1
102
RTVSPost2010Prop28
280
     0
102
RTVSPost2010PropOp28
 70
     1
102
RTVSPost2010Prop29
280
     1
102
RTVSPost2010PropOp29
 70
     1
102
RTVSPost2010Prop30
280
     1
102
RTVSPost2010PropOp30
 70
     1
102
RTVSPost2010Prop31
280
     0
102
RTVSPost2010PropOp31
 70
     1
102
RTVSPost2010Prop32
280
     0
102
RTVSPost2010PropOp32
 70
     1
102
RTVSPost2010Prop33
280
     0
102
RTVSPost2010PropOp33
 70
     1
102
RTVSPost2010Prop34
280
     0
102
RTVSPost2010PropOp34
 70
     1
102
RTVSPost2010Prop35
280
     0
102
RTVSPost2010PropOp35
 70
     1
102
RTVSPost2010Prop36
280
     0
102
RTVSPost2010PropOp36
 70
     1
102
RTVSPost2010Prop37
 90
       50
102
RTVSPost2010PropOp37
 70
     0
102
RTVSPost2010Prop38
140
0.0
102
RTVSPost2010PropOp38
 70
     0
102
RTVSPost2010Prop39
140
1.0
102
RTVSPost2010PropOp39
 70
     0
102
RTVSPost2010Prop40
 90
        0
102
RTVSPost2010PropOp40
 70
     0
102
RTVSPost2010Prop41ColorIndex
 90
       18
102
RTVSPost2010Prop41ColorRGB
 90
        0
102
RTVSPost2010PropOp41
 70
     0
102
RTVSPost2010Prop42
 90
       50
102
RTVSPost2010PropOp42
 70
     0
102
RTVSPost2010Prop43
 90
        3
102
RTVSPost2010PropOp43
 70
     0
102
RTVSPost2010Prop44ColorIndex
 90
        5
102
RTVSPost2010Prop44ColorRGB
 90
      255
102
RTVSPost2010PropOp44
 70
     0
102
RTVSPost2010Prop45
280
     0
102
RTVSPost2010PropOp45
 70
     1
102
RTVSPost2010Prop46
 90
       50
102
RTVSPost2010PropOp46
 70
     0
102
RTVSPost2010Prop47
 90
       50
102
RTVSPost2010PropOp47
 70
     0
102
RTVSPost2010Prop48
 90
       50
102
RTVSPost2010PropOp48
 70
     0
102
RTVSPost2010Prop49
280
     0
102
RTVSPost2010PropOp49
 70
     1
102
RTVSPost2010Prop50
 90
       50
102
RTVSPost2010PropOp50
 70
     0
102
RTVSPost2010Prop51ColorIndex
 90
      256
102
RTVSPost2010Prop51ColorRGB
 90
-16777216
102
RTVSPost2010PropOp51
 70
     0
102
RTVSPost2010Prop52
140
1.0
102
RTVSPost2010PropOp52
 70
     0
102
RTVSPost2010Prop53
 90
        2
102
RTVSPost2010PropOp53
 70
     0
102
RTVSPost2010Prop54
  1
strokes_ogs.tif
102
RTVSPost2010PropOp54
 70
     0
102
RTVSPost2010Prop55
280
     0
102
RTVSPost2010PropOp55
 70
     1
102
RTVSPost2010Prop56
140
1.0
102
RTVSPost2010PropOp56
 70
     0
102
RTVSPost2010Prop57
140
1.0
102
RTVSPost2010PropOp57
 70
     0
102
RTVSPropertyOp0
 70
     0
102
RTVSPropertyOp1
 70
     0
102
RTVSPropertyOp2
 70
     0
102
RTVSPropertyOp3
 70
     0
102
RTVSPropertyOp4
 70
     0
102
RTVSPropertyOp5
 70
     0
102
RTVSPropertyOp6
 70
     0
102
RTVSPropertyOp7
 70
     0
102
RTVSPropertyOp8
 70
     0
102
RTVSPropertyOp9
 70
     0
102
RTVSPropertyOp10
 70
     0
102
RTVSPropertyOp11
 70
     0
102
RTVSPropertyOp12
 70
     0
102
RTVSPropertyOp13
 70
     0
102
RTVSPropertyOp14
 70
     2
102
RTVSPropertyOp15
 70
     0
102
RTVSPropertyOp16
 70
     0
102
RTVSPropertyOp17
 70
     0
102
RTVSPropertyOp18
 70
     0
102
RTVSPropertyOp19
 70
     0
102
RTVSPropertyOp20
 70
     0
102
RTVSPropertyOp21
 70
     0
102
RTVSPropertyOp22
 70
     0
102
RTVSPropertyOp23
 70
     0
102
RTVSPropertyOp24
 70
     0
102
RTVSPropertyOp25
 70
     0
102
RTVSPropertyOp26
 70
     0
102
RTVSPropertyOp27
 70
     0
102
RTVSPropertyOp28
 70
     1
102
RTVSPropertyOp29
 70
     1
102
RTVSPropertyOp30
 70
     1
102
RTVSPropertyOp31
 70
     1
102
RTVSPropertyOp32
 70
     1
102
RTVSPropertyOp33
 70
     1
102
RTVSPropertyOp34
 70
     1
102
RTVSPropertyOp35
 70
     1
102
RTVSPropertyOp36
 70
     1
102
RTVSPropertyOp37
 70
     0
102
RTVSPropertyOp38
 70
     0
102
RTVSPropertyOp39
 70
     0
102
RTVSPropertyOp40
 70
     0
102
RTVSPropertyOp41
 70
     0
102
RTVSPropertyOp42
 70
     0
102
RTVSPropertyOp43
 70
     0
102
RTVSPropertyOp44
 70
     0
102
RTVSPropertyOp45
 70
     1
102
RTVSPropertyOp46
 70
     0
102
RTVSPropertyOp47
 70
     0
102
RTVSPropertyOp48
 70
     0
102
RTVSPropertyOp49
 70
     1
102
RTVSPropertyOp50
 70
     0
102
RTVSPropertyOp51
 70
     0
102
RTVSPropertyOp52
 70
     0
102
RTVSPropertyOp53
 70
     0
102
RTVSPropertyOp54
 70
     0
102
RTVSPropertyOp55
 70
     1
102
RTVSPropertyOp56
 70
     0
102
RTVSPropertyOp57
 70
     0
102
RTVSPropertyOp58
 70
     0
102
RTVSPropertyOp59
 70
     0
102
RTVSPropertyOp60
 70
     0
102
RTVSPropertyOp61
 70
     0
102
RTVSPropertyOp62
 70
     0
  0
XRECORD
  5
DE67
102
{ACAD_REACTORS
330
DE66
102
}
330
DE66
100
AcDbXrecord
280
     1
102
RTVSPost2010Prop28
280
     0
102
RTVSPost2010PropOp28
 70
     1
102
RTVSPost2010Prop29
280
     1
102
RTVSPost2010PropOp29
 70
     1
102
RTVSPost2010Prop30
280
     1
102
RTVSPost2010PropOp30
 70
     1
102
RTVSPost2010Prop31
280
     0
102
RTVSPost2010PropOp31
 70
     1
102
RTVSPost2010Prop32
280
     0
102
RTVSPost2010PropOp32
 70
     1
102
RTVSPost2010Prop33
280
     0
102
RTVSPost2010PropOp33
 70
     1
102
RTVSPost2010Prop34
280
     0
102
RTVSPost2010PropOp34
 70
     1
102
RTVSPost2010Prop35
280
     0
102
RTVSPost2010PropOp35
 70
     1
102
RTVSPost2010Prop36
280
     0
102
RTVSPost2010PropOp36
 70
     1
102
RTVSPost2010Prop37
 90
       50
102
RTVSPost2010PropOp37
 70
     1
102
RTVSPost2010Prop38
140
0.0
102
RTVSPost2010PropOp38
 70
     1
102
RTVSPost2010Prop39
140
1.0
102
RTVSPost2010PropOp39
 70
     1
102
RTVSPost2010Prop40
 90
        0
102
RTVSPost2010PropOp40
 70
     1
102
RTVSPost2010Prop41ColorIndex
 90
       18
102
RTVSPost2010Prop41ColorRGB
 90
        0
102
RTVSPost2010PropOp41
 70
     1
102
RTVSPost2010Prop42
 90
       50
102
RTVSPost2010PropOp42
 70
     1
102
RTVSPost2010Prop43
 90
        3
102
RTVSPost2010PropOp43
 70
     1
102
RTVSPost2010Prop44ColorIndex
 90
        5
102
RTVSPost2010Prop44ColorRGB
 90
      255
102
RTVSPost2010PropOp44
 70
     1
102
RTVSPost2010Prop45
280
     0
102
RTVSPost2010PropOp45
 70
     1
102
RTVSPost2010Prop46
 90
       50
102
RTVSPost2010PropOp46
 70
     1
102
RTVSPost2010Prop47
 90
       50
102
RTVSPost2010PropOp47
 70
     1
102
RTVSPost2010Prop48
 90
       50
102
RTVSPost2010PropOp48
 70
     1
102
RTVSPost2010Prop49
280
     0
102
RTVSPost2010PropOp49
 70
     1
102
RTVSPost2010Prop50
 90
       50
102
RTVSPost2010PropOp50
 70
     1
102
RTVSPost2010Prop51ColorIndex
 90
      256
102
RTVSPost2010Prop51ColorRGB
 90
-16777216
102
RTVSPost2010PropOp51
 70
     0
102
RTVSPost2010Prop52
140
1.0
102
RTVSPost2010PropOp52
 70
     0
102
RTVSPost2010Prop53
 90
        2
102
RTVSPost2010PropOp53
 70
     1
102
RTVSPost2010Prop54
  1
strokes_ogs.tif
102
RTVSPost2010PropOp54
 70
     1
102
RTVSPost2010Prop55
280
     0
102
RTVSPost2010PropOp55
 70
     1
102
RTVSPost2010Prop56
140
1.0
102
RTVSPost2010PropOp56
 70
     1
102
RTVSPost2010Prop57
140
1.0
102
RTVSPost2010PropOp57
 70
     1
102
RTVSPropertyOp0
 70
     1
102
RTVSPropertyOp1
 70
     1
102
RTVSPropertyOp2
 70
     1
102
RTVSPropertyOp3
 70
     1
102
RTVSPropertyOp4
 70
     1
102
RTVSPropertyOp5
 70
     1
102
RTVSPropertyOp6
 70
     1
102
RTVSPropertyOp7
 70
     1
102
RTVSPropertyOp8
 70
     1
102
RTVSPropertyOp9
 70
     1
102
RTVSPropertyOp10
 70
     1
102
RTVSPropertyOp11
 70
     1
102
RTVSPropertyOp12
 70
     1
102
RTVSPropertyOp13
 70
     1
102
RTVSPropertyOp14
 70
     1
102
RTVSPropertyOp15
 70
     1
102
RTVSPropertyOp16
 70
     1
102
RTVSPropertyOp17
 70
     1
102
RTVSPropertyOp18
 70
     1
102
RTVSPropertyOp19
 70
     1
102
RTVSPropertyOp20
 70
     1
102
RTVSPropertyOp21
 70
     1
102
RTVSPropertyOp22
 70
     1
102
RTVSPropertyOp23
 70
     1
102
RTVSPropertyOp24
 70
     1
102
RTVSPropertyOp25
 70
     1
102
RTVSPropertyOp26
 70
     1
102
RTVSPropertyOp27
 70
     1
102
RTVSPropertyOp28
 70
     1
102
RTVSPropertyOp29
 70
     1
102
RTVSPropertyOp30
 70
     1
102
RTVSPropertyOp31
 70
     1
102
RTVSPropertyOp32
 70
     1
102
RTVSPropertyOp33
 70
     1
102
RTVSPropertyOp34
 70
     1
102
RTVSPropertyOp35
 70
     1
102
RTVSPropertyOp36
 70
     1
102
RTVSPropertyOp37
 70
     1
102
RTVSPropertyOp38
 70
     1
102
RTVSPropertyOp39
 70
     1
102
RTVSPropertyOp40
 70
     1
102
RTVSPropertyOp41
 70
     1
102
RTVSPropertyOp42
 70
     1
102
RTVSPropertyOp43
 70
     1
102
RTVSPropertyOp44
 70
     1
102
RTVSPropertyOp45
 70
     1
102
RTVSPropertyOp46
 70
     1
102
RTVSPropertyOp47
 70
     1
102
RTVSPropertyOp48
 70
     1
102
RTVSPropertyOp49
 70
     1
102
RTVSPropertyOp50
 70
     1
102
RTVSPropertyOp51
 70
     0
102
RTVSPropertyOp52
 70
     0
102
RTVSPropertyOp53
 70
     1
102
RTVSPropertyOp54
 70
     1
102
RTVSPropertyOp55
 70
     1
102
RTVSPropertyOp56
 70
     1
102
RTVSPropertyOp57
 70
     1
102
RTVSPropertyOp58
 70
     1
102
RTVSPropertyOp59
 70
     1
102
RTVSPropertyOp60
 70
     1
102
RTVSPropertyOp61
 70
     1
102
RTVSPropertyOp62
 70
     1
  0
XRECORD
  5
DE7D
102
{ACAD_REACTORS
330
DE7C
102
}
330
DE7C
100
AcDbXrecord
280
     1
102
RTVSPost2010Prop28
280
     0
102
RTVSPost2010PropOp28
 70
     1
102
RTVSPost2010Prop29
280
     1
102
RTVSPost2010PropOp29
 70
     1
102
RTVSPost2010Prop30
280
     1
102
RTVSPost2010PropOp30
 70
     1
102
RTVSPost2010Prop31
280
     0
102
RTVSPost2010PropOp31
 70
     1
102
RTVSPost2010Prop32
280
     0
102
RTVSPost2010PropOp32
 70
     1
102
RTVSPost2010Prop33
280
     0
102
RTVSPost2010PropOp33
 70
     1
102
RTVSPost2010Prop34
280
     0
102
RTVSPost2010PropOp34
 70
     1
102
RTVSPost2010Prop35
280
     0
102
RTVSPost2010PropOp35
 70
     1
102
RTVSPost2010Prop36
280
     0
102
RTVSPost2010PropOp36
 70
     1
102
RTVSPost2010Prop37
 90
       50
102
RTVSPost2010PropOp37
 70
     1
102
RTVSPost2010Prop38
140
0.0
102
RTVSPost2010PropOp38
 70
     1
102
RTVSPost2010Prop39
140
1.0
102
RTVSPost2010PropOp39
 70
     1
102
RTVSPost2010Prop40
 90
        0
102
RTVSPost2010PropOp40
 70
     1
102
RTVSPost2010Prop41ColorIndex
 90
       18
102
RTVSPost2010Prop41ColorRGB
 90
        0
102
RTVSPost2010PropOp41
 70
     1
102
RTVSPost2010Prop42
 90
       50
102
RTVSPost2010PropOp42
 70
     1
102
RTVSPost2010Prop43
 90
        3
102
RTVSPost2010PropOp43
 70
     1
102
RTVSPost2010Prop44ColorIndex
 90
        5
102
RTVSPost2010Prop44ColorRGB
 90
      255
102
RTVSPost2010PropOp44
 70
     1
102
RTVSPost2010Prop45
280
     0
102
RTVSPost2010PropOp45
 70
     1
102
RTVSPost2010Prop46
 90
       50
102
RTVSPost2010PropOp46
 70
     1
102
RTVSPost2010Prop47
 90
       50
102
RTVSPost2010PropOp47
 70
     1
102
RTVSPost2010Prop48
 90
       50
102
RTVSPost2010PropOp48
 70
     1
102
RTVSPost2010Prop49
280
     0
102
RTVSPost2010PropOp49
 70
     1
102
RTVSPost2010Prop50
 90
       50
102
RTVSPost2010PropOp50
 70
     1
102
RTVSPost2010Prop51ColorIndex
 90
      256
102
RTVSPost2010Prop51ColorRGB
 90
-16777216
102
RTVSPost2010PropOp51
 70
     0
102
RTVSPost2010Prop52
140
1.0
102
RTVSPost2010PropOp52
 70
     0
102
RTVSPost2010Prop53
 90
        2
102
RTVSPost2010PropOp53
 70
     1
102
RTVSPost2010Prop54
  1
strokes_ogs.tif
102
RTVSPost2010PropOp54
 70
     1
102
RTVSPost2010Prop55
280
     0
102
RTVSPost2010PropOp55
 70
     1
102
RTVSPost2010Prop56
140
1.0
102
RTVSPost2010PropOp56
 70
     1
102
RTVSPost2010Prop57
140
1.0
102
RTVSPost2010PropOp57
 70
     1
102
RTVSPropertyOp0
 70
     1
102
RTVSPropertyOp1
 70
     1
102
RTVSPropertyOp2
 70
     1
102
RTVSPropertyOp3
 70
     1
102
RTVSPropertyOp4
 70
     1
102
RTVSPropertyOp5
 70
     1
102
RTVSPropertyOp6
 70
     1
102
RTVSPropertyOp7
 70
     1
102
RTVSPropertyOp8
 70
     1
102
RTVSPropertyOp9
 70
     1
102
RTVSPropertyOp10
 70
     1
102
RTVSPropertyOp11
 70
     1
102
RTVSPropertyOp12
 70
     1
102
RTVSPropertyOp13
 70
     1
102
RTVSPropertyOp14
 70
     1
102
RTVSPropertyOp15
 70
     1
102
RTVSPropertyOp16
 70
     1
102
RTVSPropertyOp17
 70
     1
102
RTVSPropertyOp18
 70
     1
102
RTVSPropertyOp19
 70
     1
102
RTVSPropertyOp20
 70
     1
102
RTVSPropertyOp21
 70
     1
102
RTVSPropertyOp22
 70
     1
102
RTVSPropertyOp23
 70
     1
102
RTVSPropertyOp24
 70
     1
102
RTVSPropertyOp25
 70
     1
102
RTVSPropertyOp26
 70
     1
102
RTVSPropertyOp27
 70
     1
102
RTVSPropertyOp28
 70
     1
102
RTVSPropertyOp29
 70
     1
102
RTVSPropertyOp30
 70
     1
102
RTVSPropertyOp31
 70
     1
102
RTVSPropertyOp32
 70
     1
102
RTVSPropertyOp33
 70
     1
102
RTVSPropertyOp34
 70
     1
102
RTVSPropertyOp35
 70
     1
102
RTVSPropertyOp36
 70
     1
102
RTVSPropertyOp37
 70
     1
102
RTVSPropertyOp38
 70
     1
102
RTVSPropertyOp39
 70
     1
102
RTVSPropertyOp40
 70
     1
102
RTVSPropertyOp41
 70
     1
102
RTVSPropertyOp42
 70
     1
102
RTVSPropertyOp43
 70
     1
102
RTVSPropertyOp44
 70
     1
102
RTVSPropertyOp45
 70
     1
102
RTVSPropertyOp46
 70
     1
102
RTVSPropertyOp47
 70
     1
102
RTVSPropertyOp48
 70
     1
102
RTVSPropertyOp49
 70
     1
102
RTVSPropertyOp50
 70
     1
102
RTVSPropertyOp51
 70
     0
102
RTVSPropertyOp52
 70
     0
102
RTVSPropertyOp53
 70
     1
102
RTVSPropertyOp54
 70
     1
102
RTVSPropertyOp55
 70
     1
102
RTVSPropertyOp56
 70
     1
102
RTVSPropertyOp57
 70
     1
102
RTVSPropertyOp58
 70
     1
102
RTVSPropertyOp59
 70
     1
102
RTVSPropertyOp60
 70
     1
102
RTVSPropertyOp61
 70
     1
102
RTVSPropertyOp62
 70
     1
  0
XRECORD
  5
DE7B
102
{ACAD_REACTORS
330
DE7A
102
}
330
DE7A
100
AcDbXrecord
280
     1
102
RTVSPost2010Prop28
280
     0
102
RTVSPost2010PropOp28
 70
     1
102
RTVSPost2010Prop29
280
     1
102
RTVSPost2010PropOp29
 70
     1
102
RTVSPost2010Prop30
280
     1
102
RTVSPost2010PropOp30
 70
     1
102
RTVSPost2010Prop31
280
     0
102
RTVSPost2010PropOp31
 70
     1
102
RTVSPost2010Prop32
280
     0
102
RTVSPost2010PropOp32
 70
     1
102
RTVSPost2010Prop33
280
     0
102
RTVSPost2010PropOp33
 70
     1
102
RTVSPost2010Prop34
280
     0
102
RTVSPost2010PropOp34
 70
     1
102
RTVSPost2010Prop35
280
     0
102
RTVSPost2010PropOp35
 70
     1
102
RTVSPost2010Prop36
280
     0
102
RTVSPost2010PropOp36
 70
     1
102
RTVSPost2010Prop37
 90
       50
102
RTVSPost2010PropOp37
 70
     1
102
RTVSPost2010Prop38
140
0.0
102
RTVSPost2010PropOp38
 70
     1
102
RTVSPost2010Prop39
140
1.0
102
RTVSPost2010PropOp39
 70
     1
102
RTVSPost2010Prop40
 90
        0
102
RTVSPost2010PropOp40
 70
     1
102
RTVSPost2010Prop41ColorIndex
 90
       18
102
RTVSPost2010Prop41ColorRGB
 90
        0
102
RTVSPost2010PropOp41
 70
     1
102
RTVSPost2010Prop42
 90
       50
102
RTVSPost2010PropOp42
 70
     1
102
RTVSPost2010Prop43
 90
        3
102
RTVSPost2010PropOp43
 70
     1
102
RTVSPost2010Prop44ColorIndex
 90
        5
102
RTVSPost2010Prop44ColorRGB
 90
      255
102
RTVSPost2010PropOp44
 70
     1
102
RTVSPost2010Prop45
280
     0
102
RTVSPost2010PropOp45
 70
     1
102
RTVSPost2010Prop46
 90
       50
102
RTVSPost2010PropOp46
 70
     1
102
RTVSPost2010Prop47
 90
       50
102
RTVSPost2010PropOp47
 70
     1
102
RTVSPost2010Prop48
 90
       50
102
RTVSPost2010PropOp48
 70
     1
102
RTVSPost2010Prop49
280
     0
102
RTVSPost2010PropOp49
 70
     1
102
RTVSPost2010Prop50
 90
       50
102
RTVSPost2010PropOp50
 70
     1
102
RTVSPost2010Prop51ColorIndex
 90
      256
102
RTVSPost2010Prop51ColorRGB
 90
-16777216
102
RTVSPost2010PropOp51
 70
     0
102
RTVSPost2010Prop52
140
1.0
102
RTVSPost2010PropOp52
 70
     0
102
RTVSPost2010Prop53
 90
        2
102
RTVSPost2010PropOp53
 70
     1
102
RTVSPost2010Prop54
  1
strokes_ogs.tif
102
RTVSPost2010PropOp54
 70
     1
102
RTVSPost2010Prop55
280
     0
102
RTVSPost2010PropOp55
 70
     1
102
RTVSPost2010Prop56
140
1.0
102
RTVSPost2010PropOp56
 70
     1
102
RTVSPost2010Prop57
140
1.0
102
RTVSPost2010PropOp57
 70
     1
102
RTVSPropertyOp0
 70
     1
102
RTVSPropertyOp1
 70
     1
102
RTVSPropertyOp2
 70
     1
102
RTVSPropertyOp3
 70
     1
102
RTVSPropertyOp4
 70
     1
102
RTVSPropertyOp5
 70
     1
102
RTVSPropertyOp6
 70
     1
102
RTVSPropertyOp7
 70
     1
102
RTVSPropertyOp8
 70
     1
102
RTVSPropertyOp9
 70
     1
102
RTVSPropertyOp10
 70
     1
102
RTVSPropertyOp11
 70
     1
102
RTVSPropertyOp12
 70
     1
102
RTVSPropertyOp13
 70
     1
102
RTVSPropertyOp14
 70
     1
102
RTVSPropertyOp15
 70
     1
102
RTVSPropertyOp16
 70
     1
102
RTVSPropertyOp17
 70
     1
102
RTVSPropertyOp18
 70
     1
102
RTVSPropertyOp19
 70
     1
102
RTVSPropertyOp20
 70
     1
102
RTVSPropertyOp21
 70
     1
102
RTVSPropertyOp22
 70
     1
102
RTVSPropertyOp23
 70
     1
102
RTVSPropertyOp24
 70
     1
102
RTVSPropertyOp25
 70
     1
102
RTVSPropertyOp26
 70
     1
102
RTVSPropertyOp27
 70
     1
102
RTVSPropertyOp28
 70
     1
102
RTVSPropertyOp29
 70
     1
102
RTVSPropertyOp30
 70
     1
102
RTVSPropertyOp31
 70
     1
102
RTVSPropertyOp32
 70
     1
102
RTVSPropertyOp33
 70
     1
102
RTVSPropertyOp34
 70
     1
102
RTVSPropertyOp35
 70
     1
102
RTVSPropertyOp36
 70
     1
102
RTVSPropertyOp37
 70
     1
102
RTVSPropertyOp38
 70
     1
102
RTVSPropertyOp39
 70
     1
102
RTVSPropertyOp40
 70
     1
102
RTVSPropertyOp41
 70
     1
102
RTVSPropertyOp42
 70
     1
102
RTVSPropertyOp43
 70
     1
102
RTVSPropertyOp44
 70
     1
102
RTVSPropertyOp45
 70
     1
102
RTVSPropertyOp46
 70
     1
102
RTVSPropertyOp47
 70
     1
102
RTVSPropertyOp48
 70
     1
102
RTVSPropertyOp49
 70
     1
102
RTVSPropertyOp50
 70
     1
102
RTVSPropertyOp51
 70
     0
102
RTVSPropertyOp52
 70
     0
102
RTVSPropertyOp53
 70
     1
102
RTVSPropertyOp54
 70
     1
102
RTVSPropertyOp55
 70
     1
102
RTVSPropertyOp56
 70
     1
102
RTVSPropertyOp57
 70
     1
102
RTVSPropertyOp58
 70
     1
102
RTVSPropertyOp59
 70
     1
102
RTVSPropertyOp60
 70
     1
102
RTVSPropertyOp61
 70
     1
102
RTVSPropertyOp62
 70
     1
  0
XRECORD
  5
DE75
102
{ACAD_REACTORS
330
DE74
102
}
330
DE74
100
AcDbXrecord
280
     1
102
RTVSPost2010Prop28
280
     0
102
RTVSPost2010PropOp28
 70
     1
102
RTVSPost2010Prop29
280
     1
102
RTVSPost2010PropOp29
 70
     1
102
RTVSPost2010Prop30
280
     1
102
RTVSPost2010PropOp30
 70
     1
102
RTVSPost2010Prop31
280
     0
102
RTVSPost2010PropOp31
 70
     1
102
RTVSPost2010Prop32
280
     0
102
RTVSPost2010PropOp32
 70
     1
102
RTVSPost2010Prop33
280
     0
102
RTVSPost2010PropOp33
 70
     1
102
RTVSPost2010Prop34
280
     0
102
RTVSPost2010PropOp34
 70
     1
102
RTVSPost2010Prop35
280
     0
102
RTVSPost2010PropOp35
 70
     1
102
RTVSPost2010Prop36
280
     0
102
RTVSPost2010PropOp36
 70
     1
102
RTVSPost2010Prop37
 90
       50
102
RTVSPost2010PropOp37
 70
     1
102
RTVSPost2010Prop38
140
0.0
102
RTVSPost2010PropOp38
 70
     1
102
RTVSPost2010Prop39
140
1.0
102
RTVSPost2010PropOp39
 70
     1
102
RTVSPost2010Prop40
 90
        0
102
RTVSPost2010PropOp40
 70
     1
102
RTVSPost2010Prop41ColorIndex
 90
       18
102
RTVSPost2010Prop41ColorRGB
 90
        0
102
RTVSPost2010PropOp41
 70
     1
102
RTVSPost2010Prop42
 90
       50
102
RTVSPost2010PropOp42
 70
     1
102
RTVSPost2010Prop43
 90
        3
102
RTVSPost2010PropOp43
 70
     1
102
RTVSPost2010Prop44ColorIndex
 90
        5
102
RTVSPost2010Prop44ColorRGB
 90
      255
102
RTVSPost2010PropOp44
 70
     1
102
RTVSPost2010Prop45
280
     0
102
RTVSPost2010PropOp45
 70
     1
102
RTVSPost2010Prop46
 90
       50
102
RTVSPost2010PropOp46
 70
     1
102
RTVSPost2010Prop47
 90
       50
102
RTVSPost2010PropOp47
 70
     1
102
RTVSPost2010Prop48
 90
       50
102
RTVSPost2010PropOp48
 70
     1
102
RTVSPost2010Prop49
280
     0
102
RTVSPost2010PropOp49
 70
     1
102
RTVSPost2010Prop50
 90
       50
102
RTVSPost2010PropOp50
 70
     1
102
RTVSPost2010Prop51ColorIndex
 90
      256
102
RTVSPost2010Prop51ColorRGB
 90
-16777216
102
RTVSPost2010PropOp51
 70
     0
102
RTVSPost2010Prop52
140
1.0
102
RTVSPost2010PropOp52
 70
     0
102
RTVSPost2010Prop53
 90
        2
102
RTVSPost2010PropOp53
 70
     1
102
RTVSPost2010Prop54
  1
strokes_ogs.tif
102
RTVSPost2010PropOp54
 70
     1
102
RTVSPost2010Prop55
280
     0
102
RTVSPost2010PropOp55
 70
     1
102
RTVSPost2010Prop56
140
1.0
102
RTVSPost2010PropOp56
 70
     1
102
RTVSPost2010Prop57
140
1.0
102
RTVSPost2010PropOp57
 70
     1
102
RTVSPropertyOp0
 70
     1
102
RTVSPropertyOp1
 70
     1
102
RTVSPropertyOp2
 70
     1
102
RTVSPropertyOp3
 70
     1
102
RTVSPropertyOp4
 70
     1
102
RTVSPropertyOp5
 70
     1
102
RTVSPropertyOp6
 70
     1
102
RTVSPropertyOp7
 70
     1
102
RTVSPropertyOp8
 70
     1
102
RTVSPropertyOp9
 70
     1
102
RTVSPropertyOp10
 70
     1
102
RTVSPropertyOp11
 70
     1
102
RTVSPropertyOp12
 70
     1
102
RTVSPropertyOp13
 70
     1
102
RTVSPropertyOp14
 70
     1
102
RTVSPropertyOp15
 70
     1
102
RTVSPropertyOp16
 70
     1
102
RTVSPropertyOp17
 70
     1
102
RTVSPropertyOp18
 70
     1
102
RTVSPropertyOp19
 70
     1
102
RTVSPropertyOp20
 70
     1
102
RTVSPropertyOp21
 70
     1
102
RTVSPropertyOp22
 70
     1
102
RTVSPropertyOp23
 70
     1
102
RTVSPropertyOp24
 70
     1
102
RTVSPropertyOp25
 70
     1
102
RTVSPropertyOp26
 70
     1
102
RTVSPropertyOp27
 70
     1
102
RTVSPropertyOp28
 70
     1
102
RTVSPropertyOp29
 70
     1
102
RTVSPropertyOp30
 70
     1
102
RTVSPropertyOp31
 70
     1
102
RTVSPropertyOp32
 70
     1
102
RTVSPropertyOp33
 70
     1
102
RTVSPropertyOp34
 70
     1
102
RTVSPropertyOp35
 70
     1
102
RTVSPropertyOp36
 70
     1
102
RTVSPropertyOp37
 70
     1
102
RTVSPropertyOp38
 70
     1
102
RTVSPropertyOp39
 70
     1
102
RTVSPropertyOp40
 70
     1
102
RTVSPropertyOp41
 70
     1
102
RTVSPropertyOp42
 70
     1
102
RTVSPropertyOp43
 70
     1
102
RTVSPropertyOp44
 70
     1
102
RTVSPropertyOp45
 70
     1
102
RTVSPropertyOp46
 70
     1
102
RTVSPropertyOp47
 70
     1
102
RTVSPropertyOp48
 70
     1
102
RTVSPropertyOp49
 70
     1
102
RTVSPropertyOp50
 70
     1
102
RTVSPropertyOp51
 70
     0
102
RTVSPropertyOp52
 70
     0
102
RTVSPropertyOp53
 70
     1
102
RTVSPropertyOp54
 70
     1
102
RTVSPropertyOp55
 70
     1
102
RTVSPropertyOp56
 70
     1
102
RTVSPropertyOp57
 70
     1
102
RTVSPropertyOp58
 70
     1
102
RTVSPropertyOp59
 70
     1
102
RTVSPropertyOp60
 70
     1
102
RTVSPropertyOp61
 70
     1
102
RTVSPropertyOp62
 70
     1
  0
XRECORD
  5
DE77
102
{ACAD_REACTORS
330
DE76
102
}
330
DE76
100
AcDbXrecord
280
     1
102
RTVSPost2010Prop28
280
     0
102
RTVSPost2010PropOp28
 70
     1
102
RTVSPost2010Prop29
280
     1
102
RTVSPost2010PropOp29
 70
     1
102
RTVSPost2010Prop30
280
     1
102
RTVSPost2010PropOp30
 70
     1
102
RTVSPost2010Prop31
280
     0
102
RTVSPost2010PropOp31
 70
     1
102
RTVSPost2010Prop32
280
     0
102
RTVSPost2010PropOp32
 70
     1
102
RTVSPost2010Prop33
280
     0
102
RTVSPost2010PropOp33
 70
     1
102
RTVSPost2010Prop34
280
     0
102
RTVSPost2010PropOp34
 70
     1
102
RTVSPost2010Prop35
280
     0
102
RTVSPost2010PropOp35
 70
     1
102
RTVSPost2010Prop36
280
     0
102
RTVSPost2010PropOp36
 70
     1
102
RTVSPost2010Prop37
 90
       50
102
RTVSPost2010PropOp37
 70
     1
102
RTVSPost2010Prop38
140
0.0
102
RTVSPost2010PropOp38
 70
     1
102
RTVSPost2010Prop39
140
1.0
102
RTVSPost2010PropOp39
 70
     1
102
RTVSPost2010Prop40
 90
        0
102
RTVSPost2010PropOp40
 70
     1
102
RTVSPost2010Prop41ColorIndex
 90
       18
102
RTVSPost2010Prop41ColorRGB
 90
        0
102
RTVSPost2010PropOp41
 70
     1
102
RTVSPost2010Prop42
 90
       50
102
RTVSPost2010PropOp42
 70
     1
102
RTVSPost2010Prop43
 90
        3
102
RTVSPost2010PropOp43
 70
     1
102
RTVSPost2010Prop44ColorIndex
 90
        5
102
RTVSPost2010Prop44ColorRGB
 90
      255
102
RTVSPost2010PropOp44
 70
     1
102
RTVSPost2010Prop45
280
     0
102
RTVSPost2010PropOp45
 70
     1
102
RTVSPost2010Prop46
 90
       50
102
RTVSPost2010PropOp46
 70
     1
102
RTVSPost2010Prop47
 90
       50
102
RTVSPost2010PropOp47
 70
     1
102
RTVSPost2010Prop48
 90
       50
102
RTVSPost2010PropOp48
 70
     1
102
RTVSPost2010Prop49
280
     0
102
RTVSPost2010PropOp49
 70
     1
102
RTVSPost2010Prop50
 90
       50
102
RTVSPost2010PropOp50
 70
     1
102
RTVSPost2010Prop51ColorIndex
 90
      256
102
RTVSPost2010Prop51ColorRGB
 90
-16777216
102
RTVSPost2010PropOp51
 70
     0
102
RTVSPost2010Prop52
140
1.0
102
RTVSPost2010PropOp52
 70
     0
102
RTVSPost2010Prop53
 90
        2
102
RTVSPost2010PropOp53
 70
     1
102
RTVSPost2010Prop54
  1
strokes_ogs.tif
102
RTVSPost2010PropOp54
 70
     1
102
RTVSPost2010Prop55
280
     0
102
RTVSPost2010PropOp55
 70
     1
102
RTVSPost2010Prop56
140
1.0
102
RTVSPost2010PropOp56
 70
     1
102
RTVSPost2010Prop57
140
1.0
102
RTVSPost2010PropOp57
 70
     1
102
RTVSPropertyOp0
 70
     1
102
RTVSPropertyOp1
 70
     1
102
RTVSPropertyOp2
 70
     1
102
RTVSPropertyOp3
 70
     1
102
RTVSPropertyOp4
 70
     1
102
RTVSPropertyOp5
 70
     1
102
RTVSPropertyOp6
 70
     1
102
RTVSPropertyOp7
 70
     1
102
RTVSPropertyOp8
 70
     1
102
RTVSPropertyOp9
 70
     1
102
RTVSPropertyOp10
 70
     1
102
RTVSPropertyOp11
 70
     1
102
RTVSPropertyOp12
 70
     1
102
RTVSPropertyOp13
 70
     1
102
RTVSPropertyOp14
 70
     1
102
RTVSPropertyOp15
 70
     1
102
RTVSPropertyOp16
 70
     1
102
RTVSPropertyOp17
 70
     1
102
RTVSPropertyOp18
 70
     1
102
RTVSPropertyOp19
 70
     1
102
RTVSPropertyOp20
 70
     1
102
RTVSPropertyOp21
 70
     1
102
RTVSPropertyOp22
 70
     1
102
RTVSPropertyOp23
 70
     1
102
RTVSPropertyOp24
 70
     1
102
RTVSPropertyOp25
 70
     1
102
RTVSPropertyOp26
 70
     1
102
RTVSPropertyOp27
 70
     1
102
RTVSPropertyOp28
 70
     1
102
RTVSPropertyOp29
 70
     1
102
RTVSPropertyOp30
 70
     1
102
RTVSPropertyOp31
 70
     1
102
RTVSPropertyOp32
 70
     1
102
RTVSPropertyOp33
 70
     1
102
RTVSPropertyOp34
 70
     1
102
RTVSPropertyOp35
 70
     1
102
RTVSPropertyOp36
 70
     1
102
RTVSPropertyOp37
 70
     1
102
RTVSPropertyOp38
 70
     1
102
RTVSPropertyOp39
 70
     1
102
RTVSPropertyOp40
 70
     1
102
RTVSPropertyOp41
 70
     1
102
RTVSPropertyOp42
 70
     1
102
RTVSPropertyOp43
 70
     1
102
RTVSPropertyOp44
 70
     1
102
RTVSPropertyOp45
 70
     1
102
RTVSPropertyOp46
 70
     1
102
RTVSPropertyOp47
 70
     1
102
RTVSPropertyOp48
 70
     1
102
RTVSPropertyOp49
 70
     1
102
RTVSPropertyOp50
 70
     1
102
RTVSPropertyOp51
 70
     0
102
RTVSPropertyOp52
 70
     0
102
RTVSPropertyOp53
 70
     1
102
RTVSPropertyOp54
 70
     1
102
RTVSPropertyOp55
 70
     1
102
RTVSPropertyOp56
 70
     1
102
RTVSPropertyOp57
 70
     1
102
RTVSPropertyOp58
 70
     1
102
RTVSPropertyOp59
 70
     1
102
RTVSPropertyOp60
 70
     1
102
RTVSPropertyOp61
 70
     1
102
RTVSPropertyOp62
 70
     1
  0
XRECORD
  5
DE6D
102
{ACAD_REACTORS
330
DE6C
102
}
330
DE6C
100
AcDbXrecord
280
     1
102
RTVSPost2010Prop28
280
     0
102
RTVSPost2010PropOp28
 70
     1
102
RTVSPost2010Prop29
280
     1
102
RTVSPost2010PropOp29
 70
     1
102
RTVSPost2010Prop30
280
     1
102
RTVSPost2010PropOp30
 70
     1
102
RTVSPost2010Prop31
280
     0
102
RTVSPost2010PropOp31
 70
     1
102
RTVSPost2010Prop32
280
     0
102
RTVSPost2010PropOp32
 70
     1
102
RTVSPost2010Prop33
280
     0
102
RTVSPost2010PropOp33
 70
     1
102
RTVSPost2010Prop34
280
     0
102
RTVSPost2010PropOp34
 70
     1
102
RTVSPost2010Prop35
280
     0
102
RTVSPost2010PropOp35
 70
     1
102
RTVSPost2010Prop36
280
     0
102
RTVSPost2010PropOp36
 70
     1
102
RTVSPost2010Prop37
 90
       50
102
RTVSPost2010PropOp37
 70
     1
102
RTVSPost2010Prop38
140
0.0
102
RTVSPost2010PropOp38
 70
     1
102
RTVSPost2010Prop39
140
1.0
102
RTVSPost2010PropOp39
 70
     1
102
RTVSPost2010Prop40
 90
        0
102
RTVSPost2010PropOp40
 70
     1
102
RTVSPost2010Prop41ColorIndex
 90
       18
102
RTVSPost2010Prop41ColorRGB
 90
        0
102
RTVSPost2010PropOp41
 70
     1
102
RTVSPost2010Prop42
 90
       50
102
RTVSPost2010PropOp42
 70
     1
102
RTVSPost2010Prop43
 90
        3
102
RTVSPost2010PropOp43
 70
     1
102
RTVSPost2010Prop44ColorIndex
 90
        5
102
RTVSPost2010Prop44ColorRGB
 90
      255
102
RTVSPost2010PropOp44
 70
     1
102
RTVSPost2010Prop45
280
     0
102
RTVSPost2010PropOp45
 70
     1
102
RTVSPost2010Prop46
 90
       50
102
RTVSPost2010PropOp46
 70
     1
102
RTVSPost2010Prop47
 90
       50
102
RTVSPost2010PropOp47
 70
     1
102
RTVSPost2010Prop48
 90
       50
102
RTVSPost2010PropOp48
 70
     1
102
RTVSPost2010Prop49
280
     0
102
RTVSPost2010PropOp49
 70
     1
102
RTVSPost2010Prop50
 90
       50
102
RTVSPost2010PropOp50
 70
     1
102
RTVSPost2010Prop51ColorIndex
 90
      256
102
RTVSPost2010Prop51ColorRGB
 90
-16777216
102
RTVSPost2010PropOp51
 70
     0
102
RTVSPost2010Prop52
140
1.0
102
RTVSPost2010PropOp52
 70
     0
102
RTVSPost2010Prop53
 90
        2
102
RTVSPost2010PropOp53
 70
     1
102
RTVSPost2010Prop54
  1
strokes_ogs.tif
102
RTVSPost2010PropOp54
 70
     1
102
RTVSPost2010Prop55
280
     0
102
RTVSPost2010PropOp55
 70
     1
102
RTVSPost2010Prop56
140
1.0
102
RTVSPost2010PropOp56
 70
     1
102
RTVSPost2010Prop57
140
1.0
102
RTVSPost2010PropOp57
 70
     1
102
RTVSPropertyOp0
 70
     1
102
RTVSPropertyOp1
 70
     1
102
RTVSPropertyOp2
 70
     1
102
RTVSPropertyOp3
 70
     1
102
RTVSPropertyOp4
 70
     1
102
RTVSPropertyOp5
 70
     1
102
RTVSPropertyOp6
 70
     1
102
RTVSPropertyOp7
 70
     1
102
RTVSPropertyOp8
 70
     1
102
RTVSPropertyOp9
 70
     1
102
RTVSPropertyOp10
 70
     1
102
RTVSPropertyOp11
 70
     1
102
RTVSPropertyOp12
 70
     1
102
RTVSPropertyOp13
 70
     1
102
RTVSPropertyOp14
 70
     1
102
RTVSPropertyOp15
 70
     1
102
RTVSPropertyOp16
 70
     1
102
RTVSPropertyOp17
 70
     1
102
RTVSPropertyOp18
 70
     1
102
RTVSPropertyOp19
 70
     1
102
RTVSPropertyOp20
 70
     1
102
RTVSPropertyOp21
 70
     1
102
RTVSPropertyOp22
 70
     1
102
RTVSPropertyOp23
 70
     1
102
RTVSPropertyOp24
 70
     1
102
RTVSPropertyOp25
 70
     1
102
RTVSPropertyOp26
 70
     1
102
RTVSPropertyOp27
 70
     1
102
RTVSPropertyOp28
 70
     1
102
RTVSPropertyOp29
 70
     1
102
RTVSPropertyOp30
 70
     1
102
RTVSPropertyOp31
 70
     1
102
RTVSPropertyOp32
 70
     1
102
RTVSPropertyOp33
 70
     1
102
RTVSPropertyOp34
 70
     1
102
RTVSPropertyOp35
 70
     1
102
RTVSPropertyOp36
 70
     1
102
RTVSPropertyOp37
 70
     1
102
RTVSPropertyOp38
 70
     1
102
RTVSPropertyOp39
 70
     1
102
RTVSPropertyOp40
 70
     1
102
RTVSPropertyOp41
 70
     1
102
RTVSPropertyOp42
 70
     1
102
RTVSPropertyOp43
 70
     1
102
RTVSPropertyOp44
 70
     1
102
RTVSPropertyOp45
 70
     1
102
RTVSPropertyOp46
 70
     1
102
RTVSPropertyOp47
 70
     1
102
RTVSPropertyOp48
 70
     1
102
RTVSPropertyOp49
 70
     1
102
RTVSPropertyOp50
 70
     1
102
RTVSPropertyOp51
 70
     0
102
RTVSPropertyOp52
 70
     0
102
RTVSPropertyOp53
 70
     1
102
RTVSPropertyOp54
 70
     1
102
RTVSPropertyOp55
 70
     1
102
RTVSPropertyOp56
 70
     1
102
RTVSPropertyOp57
 70
     1
102
RTVSPropertyOp58
 70
     1
102
RTVSPropertyOp59
 70
     1
102
RTVSPropertyOp60
 70
     1
102
RTVSPropertyOp61
 70
     1
102
RTVSPropertyOp62
 70
     1
  0
XRECORD
  5
DE61
102
{ACAD_REACTORS
330
DE60
102
}
330
DE60
100
AcDbXrecord
280
     1
102
RTVSPost2010Prop28
280
     0
102
RTVSPost2010PropOp28
 70
     1
102
RTVSPost2010Prop29
280
     1
102
RTVSPost2010PropOp29
 70
     1
102
RTVSPost2010Prop30
280
     1
102
RTVSPost2010PropOp30
 70
     1
102
RTVSPost2010Prop31
280
     0
102
RTVSPost2010PropOp31
 70
     1
102
RTVSPost2010Prop32
280
     0
102
RTVSPost2010PropOp32
 70
     1
102
RTVSPost2010Prop33
280
     0
102
RTVSPost2010PropOp33
 70
     1
102
RTVSPost2010Prop34
280
     0
102
RTVSPost2010PropOp34
 70
     1
102
RTVSPost2010Prop35
280
     0
102
RTVSPost2010PropOp35
 70
     1
102
RTVSPost2010Prop36
280
     0
102
RTVSPost2010PropOp36
 70
     1
102
RTVSPost2010Prop37
 90
       50
102
RTVSPost2010PropOp37
 70
     1
102
RTVSPost2010Prop38
140
0.0
102
RTVSPost2010PropOp38
 70
     1
102
RTVSPost2010Prop39
140
1.0
102
RTVSPost2010PropOp39
 70
     1
102
RTVSPost2010Prop40
 90
        0
102
RTVSPost2010PropOp40
 70
     1
102
RTVSPost2010Prop41ColorIndex
 90
       18
102
RTVSPost2010Prop41ColorRGB
 90
        0
102
RTVSPost2010PropOp41
 70
     1
102
RTVSPost2010Prop42
 90
       50
102
RTVSPost2010PropOp42
 70
     1
102
RTVSPost2010Prop43
 90
        3
102
RTVSPost2010PropOp43
 70
     1
102
RTVSPost2010Prop44ColorIndex
 90
        5
102
RTVSPost2010Prop44ColorRGB
 90
      255
102
RTVSPost2010PropOp44
 70
     1
102
RTVSPost2010Prop45
280
     0
102
RTVSPost2010PropOp45
 70
     1
102
RTVSPost2010Prop46
 90
       50
102
RTVSPost2010PropOp46
 70
     1
102
RTVSPost2010Prop47
 90
       50
102
RTVSPost2010PropOp47
 70
     1
102
RTVSPost2010Prop48
 90
       50
102
RTVSPost2010PropOp48
 70
     1
102
RTVSPost2010Prop49
280
     0
102
RTVSPost2010PropOp49
 70
     1
102
RTVSPost2010Prop50
 90
       50
102
RTVSPost2010PropOp50
 70
     1
102
RTVSPost2010Prop51ColorIndex
 90
      256
102
RTVSPost2010Prop51ColorRGB
 90
-16777216
102
RTVSPost2010PropOp51
 70
     0
102
RTVSPost2010Prop52
140
1.0
102
RTVSPost2010PropOp52
 70
     0
102
RTVSPost2010Prop53
 90
        2
102
RTVSPost2010PropOp53
 70
     1
102
RTVSPost2010Prop54
  1
strokes_ogs.tif
102
RTVSPost2010PropOp54
 70
     1
102
RTVSPost2010Prop55
280
     0
102
RTVSPost2010PropOp55
 70
     1
102
RTVSPost2010Prop56
140
1.0
102
RTVSPost2010PropOp56
 70
     1
102
RTVSPost2010Prop57
140
1.0
102
RTVSPost2010PropOp57
 70
     1
102
RTVSPropertyOp0
 70
     1
102
RTVSPropertyOp1
 70
     1
102
RTVSPropertyOp2
 70
     1
102
RTVSPropertyOp3
 70
     1
102
RTVSPropertyOp4
 70
     1
102
RTVSPropertyOp5
 70
     1
102
RTVSPropertyOp6
 70
     1
102
RTVSPropertyOp7
 70
     1
102
RTVSPropertyOp8
 70
     1
102
RTVSPropertyOp9
 70
     1
102
RTVSPropertyOp10
 70
     1
102
RTVSPropertyOp11
 70
     1
102
RTVSPropertyOp12
 70
     1
102
RTVSPropertyOp13
 70
     1
102
RTVSPropertyOp14
 70
     1
102
RTVSPropertyOp15
 70
     1
102
RTVSPropertyOp16
 70
     1
102
RTVSPropertyOp17
 70
     1
102
RTVSPropertyOp18
 70
     1
102
RTVSPropertyOp19
 70
     1
102
RTVSPropertyOp20
 70
     1
102
RTVSPropertyOp21
 70
     1
102
RTVSPropertyOp22
 70
     1
102
RTVSPropertyOp23
 70
     1
102
RTVSPropertyOp24
 70
     1
102
RTVSPropertyOp25
 70
     1
102
RTVSPropertyOp26
 70
     1
102
RTVSPropertyOp27
 70
     1
102
RTVSPropertyOp28
 70
     1
102
RTVSPropertyOp29
 70
     1
102
RTVSPropertyOp30
 70
     1
102
RTVSPropertyOp31
 70
     1
102
RTVSPropertyOp32
 70
     1
102
RTVSPropertyOp33
 70
     1
102
RTVSPropertyOp34
 70
     1
102
RTVSPropertyOp35
 70
     1
102
RTVSPropertyOp36
 70
     1
102
RTVSPropertyOp37
 70
     1
102
RTVSPropertyOp38
 70
     1
102
RTVSPropertyOp39
 70
     1
102
RTVSPropertyOp40
 70
     1
102
RTVSPropertyOp41
 70
     1
102
RTVSPropertyOp42
 70
     1
102
RTVSPropertyOp43
 70
     1
102
RTVSPropertyOp44
 70
     1
102
RTVSPropertyOp45
 70
     1
102
RTVSPropertyOp46
 70
     1
102
RTVSPropertyOp47
 70
     1
102
RTVSPropertyOp48
 70
     1
102
RTVSPropertyOp49
 70
     1
102
RTVSPropertyOp50
 70
     1
102
RTVSPropertyOp51
 70
     0
102
RTVSPropertyOp52
 70
     0
102
RTVSPropertyOp53
 70
     1
102
RTVSPropertyOp54
 70
     1
102
RTVSPropertyOp55
 70
     1
102
RTVSPropertyOp56
 70
     1
102
RTVSPropertyOp57
 70
     1
102
RTVSPropertyOp58
 70
     1
102
RTVSPropertyOp59
 70
     1
102
RTVSPropertyOp60
 70
     1
102
RTVSPropertyOp61
 70
     1
102
RTVSPropertyOp62
 70
     1
  0
XRECORD
  5
DE79
102
{ACAD_REACTORS
330
DE78
102
}
330
DE78
100
AcDbXrecord
280
     1
102
RTVSPost2010Prop28
280
     0
102
RTVSPost2010PropOp28
 70
     1
102
RTVSPost2010Prop29
280
     1
102
RTVSPost2010PropOp29
 70
     1
102
RTVSPost2010Prop30
280
     1
102
RTVSPost2010PropOp30
 70
     1
102
RTVSPost2010Prop31
280
     0
102
RTVSPost2010PropOp31
 70
     1
102
RTVSPost2010Prop32
280
     0
102
RTVSPost2010PropOp32
 70
     1
102
RTVSPost2010Prop33
280
     0
102
RTVSPost2010PropOp33
 70
     1
102
RTVSPost2010Prop34
280
     0
102
RTVSPost2010PropOp34
 70
     1
102
RTVSPost2010Prop35
280
     0
102
RTVSPost2010PropOp35
 70
     1
102
RTVSPost2010Prop36
280
     0
102
RTVSPost2010PropOp36
 70
     1
102
RTVSPost2010Prop37
 90
       50
102
RTVSPost2010PropOp37
 70
     1
102
RTVSPost2010Prop38
140
0.0
102
RTVSPost2010PropOp38
 70
     1
102
RTVSPost2010Prop39
140
1.0
102
RTVSPost2010PropOp39
 70
     1
102
RTVSPost2010Prop40
 90
        0
102
RTVSPost2010PropOp40
 70
     1
102
RTVSPost2010Prop41ColorIndex
 90
       18
102
RTVSPost2010Prop41ColorRGB
 90
        0
102
RTVSPost2010PropOp41
 70
     1
102
RTVSPost2010Prop42
 90
       50
102
RTVSPost2010PropOp42
 70
     1
102
RTVSPost2010Prop43
 90
        3
102
RTVSPost2010PropOp43
 70
     1
102
RTVSPost2010Prop44ColorIndex
 90
        5
102
RTVSPost2010Prop44ColorRGB
 90
      255
102
RTVSPost2010PropOp44
 70
     1
102
RTVSPost2010Prop45
280
     0
102
RTVSPost2010PropOp45
 70
     1
102
RTVSPost2010Prop46
 90
       50
102
RTVSPost2010PropOp46
 70
     1
102
RTVSPost2010Prop47
 90
       50
102
RTVSPost2010PropOp47
 70
     1
102
RTVSPost2010Prop48
 90
       50
102
RTVSPost2010PropOp48
 70
     1
102
RTVSPost2010Prop49
280
     0
102
RTVSPost2010PropOp49
 70
     1
102
RTVSPost2010Prop50
 90
       50
102
RTVSPost2010PropOp50
 70
     1
102
RTVSPost2010Prop51ColorIndex
 90
      256
102
RTVSPost2010Prop51ColorRGB
 90
-16777216
102
RTVSPost2010PropOp51
 70
     0
102
RTVSPost2010Prop52
140
1.0
102
RTVSPost2010PropOp52
 70
     0
102
RTVSPost2010Prop53
 90
        2
102
RTVSPost2010PropOp53
 70
     1
102
RTVSPost2010Prop54
  1
strokes_ogs.tif
102
RTVSPost2010PropOp54
 70
     1
102
RTVSPost2010Prop55
280
     0
102
RTVSPost2010PropOp55
 70
     1
102
RTVSPost2010Prop56
140
1.0
102
RTVSPost2010PropOp56
 70
     1
102
RTVSPost2010Prop57
140
1.0
102
RTVSPost2010PropOp57
 70
     1
102
RTVSPropertyOp0
 70
     1
102
RTVSPropertyOp1
 70
     1
102
RTVSPropertyOp2
 70
     1
102
RTVSPropertyOp3
 70
     1
102
RTVSPropertyOp4
 70
     1
102
RTVSPropertyOp5
 70
     1
102
RTVSPropertyOp6
 70
     1
102
RTVSPropertyOp7
 70
     1
102
RTVSPropertyOp8
 70
     1
102
RTVSPropertyOp9
 70
     1
102
RTVSPropertyOp10
 70
     1
102
RTVSPropertyOp11
 70
     1
102
RTVSPropertyOp12
 70
     1
102
RTVSPropertyOp13
 70
     1
102
RTVSPropertyOp14
 70
     1
102
RTVSPropertyOp15
 70
     1
102
RTVSPropertyOp16
 70
     1
102
RTVSPropertyOp17
 70
     1
102
RTVSPropertyOp18
 70
     1
102
RTVSPropertyOp19
 70
     1
102
RTVSPropertyOp20
 70
     1
102
RTVSPropertyOp21
 70
     1
102
RTVSPropertyOp22
 70
     1
102
RTVSPropertyOp23
 70
     1
102
RTVSPropertyOp24
 70
     1
102
RTVSPropertyOp25
 70
     1
102
RTVSPropertyOp26
 70
     1
102
RTVSPropertyOp27
 70
     1
102
RTVSPropertyOp28
 70
     1
102
RTVSPropertyOp29
 70
     1
102
RTVSPropertyOp30
 70
     1
102
RTVSPropertyOp31
 70
     1
102
RTVSPropertyOp32
 70
     1
102
RTVSPropertyOp33
 70
     1
102
RTVSPropertyOp34
 70
     1
102
RTVSPropertyOp35
 70
     1
102
RTVSPropertyOp36
 70
     1
102
RTVSPropertyOp37
 70
     1
102
RTVSPropertyOp38
 70
     1
102
RTVSPropertyOp39
 70
     1
102
RTVSPropertyOp40
 70
     1
102
RTVSPropertyOp41
 70
     1
102
RTVSPropertyOp42
 70
     1
102
RTVSPropertyOp43
 70
     1
102
RTVSPropertyOp44
 70
     1
102
RTVSPropertyOp45
 70
     1
102
RTVSPropertyOp46
 70
     1
102
RTVSPropertyOp47
 70
     1
102
RTVSPropertyOp48
 70
     1
102
RTVSPropertyOp49
 70
     1
102
RTVSPropertyOp50
 70
     1
102
RTVSPropertyOp51
 70
     0
102
RTVSPropertyOp52
 70
     0
102
RTVSPropertyOp53
 70
     1
102
RTVSPropertyOp54
 70
     1
102
RTVSPropertyOp55
 70
     1
102
RTVSPropertyOp56
 70
     1
102
RTVSPropertyOp57
 70
     1
102
RTVSPropertyOp58
 70
     1
102
RTVSPropertyOp59
 70
     1
102
RTVSPropertyOp60
 70
     1
102
RTVSPropertyOp61
 70
     1
102
RTVSPropertyOp62
 70
     1
  0
ENDSEC
  0
EOF
