  0
SECTION
  2
HEADER
  9
$ACADVER
  1
AC1015
  9
$ACADMAINTVER
 70
    20
  9
$DWGCODEPAGE
  3
ANSI_932
  9
$INSBASE
 10
0.0
 20
0.0
 30
0.0
  9
$EXTMIN
 10
10.0
 20
10.000001
 30
0.0
  9
$EXTMAX
 10
755.4928069999997
 20
403.500962
 30
0.0
  9
$LIMMIN
 10
0.0
 20
0.0
  9
$LIMMAX
 10
792.0
 20
546.0
  9
$ORTHOMODE
 70
     1
  9
$REGENMODE
 70
     1
  9
$FILLMODE
 70
     1
  9
$QTEXTMODE
 70
     0
  9
$MIRRTEXT
 70
     1
  9
$LTSCALE
 40
20.0
  9
$ATTMODE
 70
     1
  9
$TEXTSIZE
 40
5.0
  9
$TRACEWID
 40
1.0
  9
$TEXTSTYLE
  7
STANDARD
  9
$CLAYER
  8
0
  9
$CELTYPE
  6
BYLAYER
  9
$CECOLOR
 62
   256
  9
$CELTSCALE
 40
1.0
  9
$DISPSILH
 70
     0
  9
$DIMSCALE
 40
1.0
  9
$DIMASZ
 40
2.5
  9
$DIMEXO
 40
1.0
  9
$DIMDLI
 40
10.0
  9
$DIMRND
 40
0.0
  9
$DIMDLE
 40
0.0
  9
$DIMEXE
 40
1.0
  9
$DIMTP
 40
0.0
  9
$DIMTM
 40
0.0
  9
$DIMTXT
 40
3.2
  9
$DIMCEN
 40
0.0
  9
$DIMTSZ
 40
0.0
  9
$DIMTOL
 70
     0
  9
$DIMLIM
 70
     0
  9
$DIMTIH
 70
     0
  9
$DIMTOH
 70
     0
  9
$DIMSE1
 70
     0
  9
$DIMSE2
 70
     0
  9
$DIMTAD
 70
     3
  9
$DIMZIN
 70
     8
  9
$DIMBLK
  1

  9
$DIMASO
 70
     1
  9
$DIMSHO
 70
     1
  9
$DIMPOST
  1

  9
$DIMAPOST
  1

  9
$DIMALT
 70
     0
  9
$DIMALTD
 70
     2
  9
$DIMALTF
 40
25.4
  9
$DIMLFAC
 40
1.0
  9
$DIMTOFL
 70
     1
  9
$DIMTVP
 40
0.0
  9
$DIMTIX
 70
     0
  9
$DIMSOXD
 70
     0
  9
$DIMSAH
 70
     1
  9
$DIMBLK1
  1
OPEN
  9
$DIMBLK2
  1
OPEN
  9
$DIMSTYLE
  2
STANDARD
  9
$DIMCLRD
 70
     0
  9
$DIMCLRE
 70
     0
  9
$DIMCLRT
 70
     0
  9
$DIMTFAC
 40
1.0
  9
$DIMGAP
 40
1.0
  9
$DIMJUST
 70
     0
  9
$DIMSD1
 70
     0
  9
$DIMSD2
 70
     0
  9
$DIMTOLJ
 70
     1
  9
$DIMTZIN
 70
     0
  9
$DIMALTZ
 70
     0
  9
$DIMALTTZ
 70
     0
  9
$DIMUPT
 70
     0
  9
$DIMDEC
 70
     4
  9
$DIMTDEC
 70
     4
  9
$DIMALTU
 70
     2
  9
$DIMALTTD
 70
     2
  9
$DIMTXSTY
  7
STANDARD
  9
$DIMAUNIT
 70
     0
  9
$DIMADEC
 70
     0
  9
$DIMALTRND
 40
0.0
  9
$DIMAZIN
 70
     0
  9
$DIMDSEP
 70
    46
  9
$DIMATFIT
 70
     3
  9
$DIMFRAC
 70
     0
  9
$DIMLDRBLK
  1
OPEN
  9
$DIMLUNIT
 70
     2
  9
$DIMLWD
 70
    -2
  9
$DIMLWE
 70
    -2
  9
$DIMTMOVE
 70
     0
  9
$LUNITS
 70
     2
  9
$LUPREC
 70
     4
  9
$SKETCHINC
 40
1.0
  9
$FILLETRAD
 40
1.0
  9
$AUNITS
 70
     0
  9
$AUPREC
 70
     2
  9
$MENU
  1
.
  9
$ELEVATION
 40
0.0
  9
$PELEVATION
 40
0.0
  9
$THICKNESS
 40
0.0
  9
$LIMCHECK
 70
     0
  9
$CHAMFERA
 40
10.0
  9
$CHAMFERB
 40
10.0
  9
$CHAMFERC
 40
0.0
  9
$CHAMFERD
 40
0.0
  9
$SKPOLY
 70
     0
  9
$TDCREATE
 40
2451417.572269560
  9
$TDUCREATE
 40
2451417.197269560
  9
$TDUPDATE
 40
2457192.641389202
  9
$TDUUPDATE
 40
2457192.266389202
  9
$TDINDWG
 40
0.0017328819
  9
$TDUSRTIMER
 40
0.0017325810
  9
$USRTIMER
 70
     1
  9
$ANGBASE
 50
0.0
  9
$ANGDIR
 70
     0
  9
$PDMODE
 70
     0
  9
$PDSIZE
 40
0.0
  9
$PLINEWID
 40
0.0
  9
$SPLFRAME
 70
     0
  9
$SPLINETYPE
 70
     6
  9
$SPLINESEGS
 70
     8
  9
$HANDSEED
  5
107E1
  9
$SURFTAB1
 70
     6
  9
$SURFTAB2
 70
     6
  9
$SURFTYPE
 70
     6
  9
$SURFU
 70
     6
  9
$SURFV
 70
     6
  9
$UCSBASE
  2

  9
$UCSNAME
  2

  9
$UCSORG
 10
0.0
 20
0.0
 30
0.0
  9
$UCSXDIR
 10
1.0
 20
0.0
 30
0.0
  9
$UCSYDIR
 10
0.0
 20
1.0
 30
0.0
  9
$UCSORTHOREF
  2

  9
$UCSORTHOVIEW
 70
     0
  9
$UCSORGTOP
 10
0.0
 20
0.0
 30
0.0
  9
$UCSORGBOTTOM
 10
0.0
 20
0.0
 30
0.0
  9
$UCSORGLEFT
 10
0.0
 20
0.0
 30
0.0
  9
$UCSORGRIGHT
 10
0.0
 20
0.0
 30
0.0
  9
$UCSORGFRONT
 10
0.0
 20
0.0
 30
0.0
  9
$UCSORGBACK
 10
0.0
 20
0.0
 30
0.0
  9
$PUCSBASE
  2

  9
$PUCSNAME
  2

  9
$PUCSORG
 10
0.0
 20
0.0
 30
0.0
  9
$PUCSXDIR
 10
1.0
 20
0.0
 30
0.0
  9
$PUCSYDIR
 10
0.0
 20
1.0
 30
0.0
  9
$PUCSORTHOREF
  2

  9
$PUCSORTHOVIEW
 70
     0
  9
$PUCSORGTOP
 10
0.0
 20
0.0
 30
0.0
  9
$PUCSORGBOTTOM
 10
0.0
 20
0.0
 30
0.0
  9
$PUCSORGLEFT
 10
0.0
 20
0.0
 30
0.0
  9
$PUCSORGRIGHT
 10
0.0
 20
0.0
 30
0.0
  9
$PUCSORGFRONT
 10
0.0
 20
0.0
 30
0.0
  9
$PUCSORGBACK
 10
0.0
 20
0.0
 30
0.0
  9
$USERI1
 70
     0
  9
$USERI2
 70
     0
  9
$USERI3
 70
     0
  9
$USERI4
 70
     0
  9
$USERI5
 70
     0
  9
$USERR1
 40
0.0
  9
$USERR2
 40
0.0
  9
$USERR3
 40
0.0
  9
$USERR4
 40
0.0
  9
$USERR5
 40
0.0
  9
$WORLDVIEW
 70
     1
  9
$SHADEDGE
 70
     3
  9
$SHADEDIF
 70
    70
  9
$TILEMODE
 70
     1
  9
$MAXACTVP
 70
    16
  9
$PINSBASE
 10
0.0
 20
0.0
 30
0.0
  9
$PLIMCHECK
 70
     0
  9
$PEXTMIN
 10
1.000000000000000E+20
 20
1.000000000000000E+20
 30
1.000000000000000E+20
  9
$PEXTMAX
 10
-1.000000000000000E+20
 20
-1.000000000000000E+20
 30
-1.000000000000000E+20
  9
$PLIMMIN
 10
0.0
 20
0.0
  9
$PLIMMAX
 10
420.0
 20
297.0
  9
$UNITMODE
 70
     0
  9
$VISRETAIN
 70
     0
  9
$PLINEGEN
 70
     0
  9
$PSLTSCALE
 70
     0
  9
$TREEDEPTH
 70
  3020
  9
$CMLSTYLE
  2
STANDARD
  9
$CMLJUST
 70
     0
  9
$CMLSCALE
 40
1.0
  9
$PROXYGRAPHICS
 70
     1
  9
$MEASUREMENT
 70
     0
  9
$CELWEIGHT
370
    -1
  9
$ENDCAPS
280
     0
  9
$JOINSTYLE
280
     0
  9
$LWDISPLAY
290
     0
  9
$INSUNITS
 70
     0
  9
$HYPERLINKBASE
  1

  9
$STYLESHEET
  1

  9
$XEDIT
290
     1
  9
$CEPSNTYPE
380
     0
  9
$PSTYLEMODE
290
     1
  9
$FINGERPRINTGUID
  2
{8D407409-DC8B-49D6-B4D1-2F68536D2C3E}
  9
$VERSIONGUID
  2
{0D7BF444-8ABD-419F-A573-8FED5B0B185D}
  9
$EXTNAMES
290
     1
  9
$PSVPSCALE
 40
0.0
  9
$OLESTARTUP
290
     0
  0
ENDSEC
  0
SECTION
  2
CLASSES
  0
CLASS
  1
ACDBDICTIONARYWDFLT
  2
AcDbDictionaryWithDefault
  3
ObjectDBX Classes
 90
        0
280
     0
281
     0
  0
CLASS
  1
ACDBPLACEHOLDER
  2
AcDbPlaceHolder
  3
ObjectDBX Classes
 90
        0
280
     0
281
     0
  0
CLASS
  1
LAYOUT
  2
AcDbLayout
  3
ObjectDBX Classes
 90
        0
280
     0
281
     0
  0
CLASS
  1
DICTIONARYVAR
  2
AcDbDictionaryVar
  3
ObjectDBX Classes
 90
        0
280
     0
281
     0
  0
CLASS
  1
MATERIAL
  2
AcDbMaterial
  3
ObjectDBX Classes
 90
     1153
280
     0
281
     0
  0
CLASS
  1
VISUALSTYLE
  2
AcDbVisualStyle
  3
ObjectDBX Classes
 90
     4095
280
     0
281
     0
  0
CLASS
  1
TABLESTYLE
  2
AcDbTableStyle
  3
ObjectDBX Classes
 90
     4095
280
     0
281
     0
  0
CLASS
  1
SCALE
  2
AcDbScale
  3
ObjectDBX Classes
 90
     1153
280
     0
281
     0
  0
CLASS
  1
MLEADERSTYLE
  2
AcDbMLeaderStyle
  3
ACDB_MLEADERSTYLE_CLASS
 90
     4095
280
     0
281
     0
  0
CLASS
  1
ACDBSECTIONVIEWSTYLE
  2
AcDbSectionViewStyle
  3
ObjectDBX Classes
 90
     1025
280
     0
281
     0
  0
CLASS
  1
ACDBDETAILVIEWSTYLE
  2
AcDbDetailViewStyle
  3
ObjectDBX Classes
 90
     1025
280
     0
281
     0
  0
CLASS
  1
CELLSTYLEMAP
  2
AcDbCellStyleMap
  3
ObjectDBX Classes
 90
     1152
280
     0
281
     0
  0
ENDSEC
  0
SECTION
  2
TABLES
  0
TABLE
  2
VPORT
  5
102D7
330
0
100
AcDbSymbolTable
 70
     1
  0
VPORT
  5
1072A
330
102D7
100
AcDbSymbolTableRecord
100
AcDbViewportTableRecord
  2
*ACTIVE
 70
     0
 10
0.0
 20
0.0
 11
1.0
 21
1.0
 12
511.1060988522407
 22
206.7453472634606
 13
0.0
 23
0.0
 14
10.0
 24
10.0
 15
10.0
 25
10.0
 16
0.0
 26
0.0
 36
1.0
 17
0.0
 27
0.0
 37
0.0
 40
428.5665603485719
 41
1.899603698811096
 42
50.0
 43
0.0
 44
0.0
 50
0.0
 51
0.0
 71
     0
 72
   100
 73
     1
 74
     0
 75
     0
 76
     0
 77
     0
 78
     0
281
     0
 65
     1
110
0.0
120
0.0
130
0.0
111
1.0
121
0.0
131
0.0
112
0.0
122
1.0
132
0.0
 79
     0
146
0.0
1001
ACAD_NAV_VCDISPLAY
1070
     3
  0
ENDTAB
  0
TABLE
  2
LTYPE
  5
102D4
330
0
100
AcDbSymbolTable
 70
     4
  0
LTYPE
  5
102E2
330
102D4
100
AcDbSymbolTableRecord
100
AcDbLinetypeTableRecord
  2
BYBLOCK
 70
     0
  3

 72
    65
 73
     0
 40
0.0
  0
LTYPE
  5
102E3
330
102D4
100
AcDbSymbolTableRecord
100
AcDbLinetypeTableRecord
  2
BYLAYER
 70
     0
  3

 72
    65
 73
     0
 40
0.0
  0
LTYPE
  5
102E4
330
102D4
100
AcDbSymbolTableRecord
100
AcDbLinetypeTableRecord
  2
CONTINUOUS
 70
     0
  3
Solid line
 72
    65
 73
     0
 40
0.0
  0
LTYPE
  5
102F2
330
102D4
100
AcDbSymbolTableRecord
100
AcDbLinetypeTableRecord
  2
DASHED
 70
     0
  3
__ __ __ __ __ __ __ __ __ __ __ __ __ __ __ __
 72
    65
 73
     2
 40
0.75
 49
0.5
 74
     0
 49
-0.25
 74
     0
  0
LTYPE
  5
102F3
330
102D4
100
AcDbSymbolTableRecord
100
AcDbLinetypeTableRecord
  2
CENTER
 70
     0
  3
____ _ ____ _ ____ _ ____ _ ____ _ ____ _ ____ 
 72
    65
 73
     4
 40
2.0
 49
1.25
 74
     0
 49
-0.25
 74
     0
 49
0.25
 74
     0
 49
-0.25
 74
     0
  0
LTYPE
  5
102F4
330
102D4
100
AcDbSymbolTableRecord
100
AcDbLinetypeTableRecord
  2
PHANTOM
 70
     0
  3
______  __  __  ______  __  __  ______  __  __ 
 72
    65
 73
     6
 40
2.5
 49
1.25
 74
     0
 49
-0.25
 74
     0
 49
0.25
 74
     0
 49
-0.25
 74
     0
 49
0.25
 74
     0
 49
-0.25
 74
     0
  0
ENDTAB
  0
TABLE
  2
LAYER
  5
102D1
330
0
100
AcDbSymbolTable
 70
     8
  0
LAYER
  5
102DF
102
{ACAD_XDICTIONARY
360
10785
102
}
330
102D1
100
AcDbSymbolTableRecord
100
AcDbLayerTableRecord
  2
0
 70
     0
 62
     7
  6
CONTINUOUS
370
    -3
390
10733
  0
LAYER
  5
102F5
102
{ACAD_XDICTIONARY
360
10787
102
}
330
102D1
100
AcDbSymbolTableRecord
100
AcDbLayerTableRecord
  2
4
 70
     0
 62
     1
  6
CENTER
370
    -3
390
10733
  0
LAYER
  5
102F6
102
{ACAD_XDICTIONARY
360
10789
102
}
330
102D1
100
AcDbSymbolTableRecord
100
AcDbLayerTableRecord
  2
5
 70
     0
 62
     6
  6
PHANTOM
370
    -3
390
10733
  0
LAYER
  5
102F7
102
{ACAD_XDICTIONARY
360
1078B
102
}
330
102D1
100
AcDbSymbolTableRecord
100
AcDbLayerTableRecord
  2
1
 70
     0
 62
     7
  6
CONTINUOUS
370
    -3
390
10733
  0
LAYER
  5
102F8
102
{ACAD_XDICTIONARY
360
1078D
102
}
330
102D1
100
AcDbSymbolTableRecord
100
AcDbLayerTableRecord
  2
2
 70
     0
 62
     4
  6
CONTINUOUS
370
    -3
390
10733
  0
LAYER
  5
102F9
102
{ACAD_XDICTIONARY
360
1078F
102
}
330
102D1
100
AcDbSymbolTableRecord
100
AcDbLayerTableRecord
  2
3
 70
     0
 62
     2
  6
DASHED
370
    -3
390
10733
  0
LAYER
  5
102FA
102
{ACAD_XDICTIONARY
360
10791
102
}
330
102D1
100
AcDbSymbolTableRecord
100
AcDbLayerTableRecord
  2
6
 70
     0
 62
     5
  6
CONTINUOUS
370
    -3
390
10733
  0
LAYER
  5
102FB
102
{ACAD_XDICTIONARY
360
10793
102
}
330
102D1
100
AcDbSymbolTableRecord
100
AcDbLayerTableRecord
  2
7
 70
     0
 62
     3
  6
CONTINUOUS
370
    -3
390
10733
  0
ENDTAB
  0
TABLE
  2
STYLE
  5
102D2
330
0
100
AcDbSymbolTable
 70
     1
  0
STYLE
  5
102E0
330
102D2
100
AcDbSymbolTableRecord
100
AcDbTextStyleTableRecord
  2
STANDARD
 70
     0
 40
0.0
 41
1.0
 50
0.0
 71
     0
 42
5.0
  3
txt
  4

  0
ENDTAB
  0
TABLE
  2
VIEW
  5
102D5
330
0
100
AcDbSymbolTable
 70
     0
  0
ENDTAB
  0
TABLE
  2
UCS
  5
102D6
330
0
100
AcDbSymbolTable
 70
     0
  0
ENDTAB
  0
TABLE
  2
APPID
  5
102D8
330
0
100
AcDbSymbolTable
 70
     3
  0
APPID
  5
102E1
330
102D8
100
AcDbSymbolTableRecord
100
AcDbRegAppTableRecord
  2
ACAD
 70
     0
  0
APPID
  5
1079F
330
102D8
100
AcDbSymbolTableRecord
100
AcDbRegAppTableRecord
  2
ACAD_NAV_VCDISPLAY
 70
     0
  0
APPID
  5
107D8
330
102D8
100
AcDbSymbolTableRecord
100
AcDbRegAppTableRecord
  2
ACAD_MLEADERVER
 70
     0
  0
ENDTAB
  0
TABLE
  2
DIMSTYLE
  5
102D9
330
0
100
AcDbSymbolTable
 70
     1
100
AcDbDimStyleTable
 71
     0
  0
DIMSTYLE
105
102FD
330
102D9
100
AcDbSymbolTableRecord
100
AcDbDimStyleTableRecord
  2
STANDARD
 70
     0
 41
2.5
 42
1.0
 43
10.0
 44
1.0
 73
     0
 74
     0
 77
     3
 78
     8
140
3.2
141
0.0
147
1.0
172
     1
173
     1
284
     8
285
     8
286
     8
340
102E0
  0
ENDTAB
  0
TABLE
  2
BLOCK_RECORD
  5
102D0
330
0
100
AcDbSymbolTable
 70
     1
  0
BLOCK_RECORD
  5
102ED
102
{ACAD_XDICTIONARY
360
1072D
102
}
330
102D0
100
AcDbSymbolTableRecord
100
AcDbBlockTableRecord
  2
*MODEL_SPACE
340
10781
  0
BLOCK_RECORD
  5
102E9
102
{ACAD_XDICTIONARY
360
1072B
102
}
330
102D0
100
AcDbSymbolTableRecord
100
AcDbBlockTableRecord
  2
*PAPER_SPACE
340
10782
  0
BLOCK_RECORD
  5
10305
330
102D0
100
AcDbSymbolTableRecord
100
AcDbBlockTableRecord
  2
_OPEN
340
0
  0
ENDTAB
  0
ENDSEC
  0
SECTION
  2
BLOCKS
  0
BLOCK
  5
102EE
330
102ED
100
AcDbEntity
  8
0
100
AcDbBlockBegin
  2
*MODEL_SPACE
 70
     0
 10
0.0
 20
0.0
 30
0.0
  3
*MODEL_SPACE
  1

  0
ENDBLK
  5
102EF
330
102ED
100
AcDbEntity
  8
0
100
AcDbBlockEnd
  0
BLOCK
  5
102EA
330
102E9
100
AcDbEntity
 67
     1
  8
0
100
AcDbBlockBegin
  2
*PAPER_SPACE
 70
     0
 10
0.0
 20
0.0
 30
0.0
  3
*PAPER_SPACE
  1

  0
ENDBLK
  5
102EB
330
102E9
100
AcDbEntity
 67
     1
  8
0
100
AcDbBlockEnd
  0
BLOCK
  5
10306
330
10305
100
AcDbEntity
  8
0
100
AcDbBlockBegin
  2
_OPEN
 70
     0
 10
0.0
 20
0.0
 30
0.0
  3
_OPEN
  1

  0
LINE
  5
10307
330
10305
100
AcDbEntity
  8
0
  6
ByBlock
 62
     0
100
AcDbLine
 10
-1.0
 20
0.166667
 30
0.0
 11
0.0
 21
0.0
 31
0.0
  0
LINE
  5
10308
330
10305
100
AcDbEntity
  8
0
  6
ByBlock
 62
     0
100
AcDbLine
 10
0.0
 20
0.0
 30
0.0
 11
-1.0
 21
-0.166667
 31
0.0
  0
LINE
  5
10309
330
10305
100
AcDbEntity
  8
0
  6
ByBlock
 62
     0
100
AcDbLine
 10
0.0
 20
0.0
 30
0.0
 11
-1.0
 21
0.0
 31
0.0
  0
ENDBLK
  5
1030A
330
10305
100
AcDbEntity
  8
0
100
AcDbBlockEnd
  0
ENDSEC
  0
SECTION
  2
ENTITIES
  0
LINE
  5
1030B
330
102ED
100
AcDbEntity
  8
1
  6
Continuous
100
AcDbLine
 10
62.662121
 20
233.4348809999999
 30
0.0
 11
58.256999
 21
166.064429
 31
0.0
  0
LINE
  5
1030C
330
102ED
100
AcDbEntity
  8
1
  6
Continuous
100
AcDbLine
 10
38.514469
 20
233.4348809999999
 30
0.0
 11
42.91959099999997
 21
166.064429
 31
0.0
  0
LINE
  5
1030D
330
102ED
100
AcDbEntity
  8
4
  6
CENTER
100
AcDbLine
 10
50.588295
 20
158.484326
 30
0.0
 11
50.588295
 21
302.878798
 31
0.0
  0
TEXT
  5
1030E
330
102ED
100
AcDbEntity
  8
7
  6
Continuous
100
AcDbText
 10
10.0
 20
26.000001
 30
0.0
 40
3.0
  1
CODE No.13211
100
AcDbText
  0
TEXT
  5
1030F
330
102ED
100
AcDbEntity
  8
7
  6
Continuous
100
AcDbText
 10
10.0
 20
18.000001
 30
0.0
 40
3.0
  1
TYPE No.THA-330B-2K(5Y7/1-C)
100
AcDbText
  0
TEXT
  5
10310
330
102ED
100
AcDbEntity
  8
1
  6
Continuous
100
AcDbText
 10
10.0
 20
10.000001
 30
0.0
 40
1.399999999999999
  1
LAYER
100
AcDbText
  0
TEXT
  5
10311
330
102ED
100
AcDbEntity
  8
5
  6
PHANTOM
100
AcDbText
 10
25.97951099999999
 20
10.048738
 30
0.0
 40
1.399999999999999
  1
5
100
AcDbText
  0
TEXT
  5
10312
330
102ED
100
AcDbEntity
  8
6
  6
Continuous
100
AcDbText
 10
27.979511
 20
10.048738
 30
0.0
 40
1.399999999999999
  1
6
100
AcDbText
  0
TEXT
  5
10313
330
102ED
100
AcDbEntity
  8
2
  6
Continuous
100
AcDbText
 10
19.97951099999999
 20
10.048738
 30
0.0
 40
1.399999999999999
  1
2
100
AcDbText
  0
TEXT
  5
10314
330
102ED
100
AcDbEntity
  8
3
  6
DASHED
100
AcDbText
 10
21.979511
 20
10.048738
 30
0.0
 40
1.399999999999999
  1
3
100
AcDbText
  0
TEXT
  5
10315
330
102ED
100
AcDbEntity
  8
4
  6
CENTER
100
AcDbText
 10
23.97951099999999
 20
10.048738
 30
0.0
 40
1.399999999999999
  1
4
100
AcDbText
  0
TEXT
  5
10316
330
102ED
100
AcDbEntity
  8
7
  6
Continuous
100
AcDbText
 10
29.97951099999999
 20
10.048738
 30
0.0
 40
1.399999999999999
  1
7
100
AcDbText
  0
TEXT
  5
10317
330
102ED
100
AcDbEntity
  8
1
  6
Continuous
100
AcDbText
 10
17.97951099999998
 20
10.048738
 30
0.0
 40
1.399999999999999
  1
1
100
AcDbText
  0
ARC
  5
10318
330
102ED
100
AcDbEntity
  8
1
  6
Continuous
100
AcDbCircle
 10
50.588295
 20
188.484326
 30
0.0
 40
25.0
100
AcDbArc
 50
255.720595
 51
284.279405
  0
ARC
  5
10319
330
102ED
100
AcDbEntity
  8
1
  6
Continuous
100
AcDbCircle
 10
44.915329
 20
166.194924
 30
0.0
 40
2.0
100
AcDbArc
 50
183.741048
 51
255.720595
  0
ARC
  5
1031A
330
102ED
100
AcDbEntity
  8
1
  6
Continuous
100
AcDbCircle
 10
56.261261
 20
166.194924
 30
0.0
 40
2.0
100
AcDbArc
 50
284.279405
 51
356.258952
  0
LINE
  5
1031B
330
102ED
100
AcDbEntity
  8
1
  6
Continuous
100
AcDbLine
 10
205.687276
 20
85.053573
 30
0.0
 11
213.507768
 21
88.55357299999999
 31
0.0
  0
LINE
  5
1031C
330
102ED
100
AcDbEntity
  8
1
  6
Continuous
100
AcDbLine
 10
213.507768
 20
94.55357300000001
 30
0.0
 11
213.507768
 21
50.553573
 31
0.0
  0
LINE
  5
1031D
330
102ED
100
AcDbEntity
  8
1
  6
Continuous
100
AcDbLine
 10
217.007768
 20
96.553573
 30
0.0
 11
217.007768
 21
48.553573
 31
0.0
  0
LINE
  5
1031E
330
102ED
100
AcDbEntity
  8
1
  6
Continuous
100
AcDbLine
 10
218.007768
 20
96.553573
 30
0.0
 11
218.007768
 21
48.553573
 31
0.0
  0
ARC
  5
1031F
330
102ED
100
AcDbEntity
  8
1
  6
Continuous
100
AcDbCircle
 10
186.007768
 20
70.88507299999998
 30
0.0
 40
6.0
100
AcDbArc
 50
270.0
 51
0.0
  0
ARC
  5
10320
330
102ED
100
AcDbEntity
  8
1
  6
Continuous
100
AcDbCircle
 10
186.007768
 20
74.22207299999998
 30
0.0
 40
6.0
100
AcDbArc
 50
0.0
 51
90.0
  0
LINE
  5
10321
330
102ED
100
AcDbEntity
  8
1
  6
Continuous
100
AcDbLine
 10
205.687276
 20
85.053573
 30
0.0
 11
176.0393819999999
 21
85.053573
 31
0.0
  0
LINE
  5
10322
330
102ED
100
AcDbEntity
  8
1
  6
Continuous
100
AcDbLine
 10
205.687276
 20
60.053573
 30
0.0
 11
176.0393819999999
 21
60.053573
 31
0.0
  0
LINE
  5
10323
330
102ED
100
AcDbEntity
  8
4
  6
CENTER
100
AcDbLine
 10
245.054307
 20
72.553573
 30
0.0
 11
167.9077679999998
 21
72.553573
 31
0.0
  0
LINE
  5
10324
330
102ED
100
AcDbEntity
  8
1
  6
Continuous
100
AcDbLine
 10
187.0077679999999
 20
64.968994
 30
0.0
 11
187.0077679999999
 21
60.053573
 31
0.0
  0
LINE
  5
10325
330
102ED
100
AcDbEntity
  8
1
  6
Continuous
100
AcDbLine
 10
186.007768
 20
64.88507299999999
 30
0.0
 11
181.3858339999999
 21
64.88507299999999
 31
0.0
  0
LINE
  5
10326
330
102ED
100
AcDbEntity
  8
1
  6
Continuous
100
AcDbLine
 10
187.0077679999999
 20
77.553573
 30
0.0
 11
187.0077679999999
 21
67.553573
 31
0.0
  0
LINE
  5
10327
330
102ED
100
AcDbEntity
  8
1
  6
Continuous
100
AcDbLine
 10
186.007768
 20
80.22207299999998
 30
0.0
 11
181.3858339999999
 21
80.22207299999998
 31
0.0
  0
LINE
  5
10328
330
102ED
100
AcDbEntity
  8
1
  6
Continuous
100
AcDbLine
 10
187.0077679999999
 20
85.053573
 30
0.0
 11
187.0077679999999
 21
80.138153
 31
0.0
  0
LINE
  5
10329
330
102ED
100
AcDbEntity
  8
2
  6
Continuous
100
AcDbLine
 10
231.4197679999999
 20
82.741573
 30
0.0
 11
219.907768
 21
82.741573
 31
0.0
  0
LINE
  5
1032A
330
102ED
100
AcDbEntity
  8
1
  6
Continuous
100
AcDbLine
 10
230.607768
 20
77.646473
 30
0.0
 11
218.007768
 21
77.646473
 31
0.0
  0
LINE
  5
1032B
330
102ED
100
AcDbEntity
  8
1
  6
Continuous
100
AcDbLine
 10
230.607768
 20
83.55357299999999
 30
0.0
 11
219.007768
 21
83.55357299999999
 31
0.0
  0
LINE
  5
1032C
330
102ED
100
AcDbEntity
  8
2
  6
Continuous
100
AcDbLine
 10
231.4197679999999
 20
62.365573
 30
0.0
 11
219.907768
 21
62.365573
 31
0.0
  0
LINE
  5
1032D
330
102ED
100
AcDbEntity
  8
1
  6
Continuous
100
AcDbLine
 10
230.607768
 20
67.46067299999999
 30
0.0
 11
218.007768
 21
67.46067299999999
 31
0.0
  0
LINE
  5
1032E
330
102ED
100
AcDbEntity
  8
1
  6
Continuous
100
AcDbLine
 10
230.607768
 20
61.553573
 30
0.0
 11
219.007768
 21
61.553573
 31
0.0
  0
LINE
  5
1032F
330
102ED
100
AcDbEntity
  8
2
  6
Continuous
100
AcDbLine
 10
218.007768
 20
77.646473
 30
0.0
 11
230.607768
 21
67.46067299999999
 31
0.0
  0
LINE
  5
10330
330
102ED
100
AcDbEntity
  8
2
  6
Continuous
100
AcDbLine
 10
230.607768
 20
77.646473
 30
0.0
 11
218.007768
 21
67.46067299999999
 31
0.0
  0
LINE
  5
10331
330
102ED
100
AcDbEntity
  8
1
  6
Continuous
100
AcDbLine
 10
219.907768
 20
67.46067299999999
 30
0.0
 11
219.907768
 21
61.553573
 31
0.0
  0
LINE
  5
10332
330
102ED
100
AcDbEntity
  8
1
  6
Continuous
100
AcDbLine
 10
205.687276
 20
60.053573
 30
0.0
 11
205.687276
 21
85.053573
 31
0.0
  0
LINE
  5
10333
330
102ED
100
AcDbEntity
  8
1
  6
Continuous
100
AcDbLine
 10
205.507768
 20
60.053573
 30
0.0
 11
205.507768
 21
85.053573
 31
0.0
  0
LINE
  5
10334
330
102ED
100
AcDbEntity
  8
1
  6
Continuous
100
AcDbLine
 10
205.687276
 20
60.053573
 30
0.0
 11
213.507768
 21
56.553573
 31
0.0
  0
ARC
  5
10335
330
102ED
100
AcDbEntity
  8
1
  6
Continuous
100
AcDbCircle
 10
219.007768
 20
60.553573
 30
0.0
 40
1.0
100
AcDbArc
 50
90.0
 51
180.0
  0
LINE
  5
10336
330
102ED
100
AcDbEntity
  8
2
  6
Continuous
100
AcDbLine
 10
218.501342
 20
61.553573
 30
0.0
 11
219.907768
 21
62.365573
 31
0.0
  0
LINE
  5
10337
330
102ED
100
AcDbEntity
  8
1
  6
Continuous
100
AcDbLine
 10
215.507768
 20
48.553573
 30
0.0
 11
217.007768
 21
48.553573
 31
0.0
  0
LINE
  5
10338
330
102ED
100
AcDbEntity
  8
1
  6
Continuous
100
AcDbLine
 10
218.007768
 20
48.553573
 30
0.0
 11
217.007768
 21
48.553573
 31
0.0
  0
ARC
  5
10339
330
102ED
100
AcDbEntity
  8
1
  6
Continuous
100
AcDbCircle
 10
215.507768
 20
50.553573
 30
0.0
 40
2.0
100
AcDbArc
 50
222.3553149999999
 51
270.0
  0
ARC
  5
1033A
330
102ED
100
AcDbEntity
  8
1
  6
Continuous
100
AcDbCircle
 10
215.507768
 20
50.553573
 30
0.0
 40
2.0
100
AcDbArc
 50
180.0
 51
222.3553149999999
  0
LINE
  5
1033B
330
102ED
100
AcDbEntity
  8
1
  6
Continuous
100
AcDbLine
 10
192.007768
 20
74.22207299999998
 30
0.0
 11
192.007768
 21
70.88507299999998
 31
0.0
  0
LINE
  5
1033C
330
102ED
100
AcDbEntity
  8
1
  6
Continuous
100
AcDbLine
 10
219.907768
 20
83.55357299999999
 30
0.0
 11
219.907768
 21
77.646473
 31
0.0
  0
ARC
  5
1033D
330
102ED
100
AcDbEntity
  8
1
  6
Continuous
100
AcDbCircle
 10
219.007768
 20
84.55357300000001
 30
0.0
 40
1.0
100
AcDbArc
 50
180.0
 51
270.0
  0
LINE
  5
1033E
330
102ED
100
AcDbEntity
  8
1
  6
Continuous
100
AcDbLine
 10
219.507768
 20
74.803573
 30
0.0
 11
218.007768
 21
74.803573
 31
0.0
  0
LINE
  5
1033F
330
102ED
100
AcDbEntity
  8
2
  6
Continuous
100
AcDbLine
 10
218.501342
 20
83.55357299999999
 30
0.0
 11
219.907768
 21
82.741573
 31
0.0
  0
LINE
  5
10340
330
102ED
100
AcDbEntity
  8
1
  6
Continuous
100
AcDbLine
 10
219.507768
 20
70.303573
 30
0.0
 11
218.007768
 21
70.303573
 31
0.0
  0
LINE
  5
10341
330
102ED
100
AcDbEntity
  8
1
  6
Continuous
100
AcDbLine
 10
219.507768
 20
70.303573
 30
0.0
 11
219.507768
 21
74.803573
 31
0.0
  0
LINE
  5
10342
330
102ED
100
AcDbEntity
  8
1
  6
Continuous
100
AcDbLine
 10
230.607768
 20
67.46067299999999
 30
0.0
 11
230.607768
 21
61.553573
 31
0.0
  0
LINE
  5
10343
330
102ED
100
AcDbEntity
  8
1
  6
Continuous
100
AcDbLine
 10
232.307768
 20
65.753573
 30
0.0
 11
232.307768
 21
79.35357299999998
 31
0.0
  0
LINE
  5
10344
330
102ED
100
AcDbEntity
  8
1
  6
Continuous
100
AcDbLine
 10
232.107768
 20
82.05357300000001
 30
0.0
 11
232.107768
 21
63.053573
 31
0.0
  0
ARC
  5
10345
330
102ED
100
AcDbEntity
  8
1
  6
Continuous
100
AcDbCircle
 10
232.107768
 20
65.753573
 30
0.0
 40
0.2
100
AcDbArc
 50
270.0
 51
0.0
  0
LINE
  5
10346
330
102ED
100
AcDbEntity
  8
1
  6
Continuous
100
AcDbLine
 10
230.607768
 20
61.553573
 30
0.0
 11
232.107768
 21
63.053573
 31
0.0
  0
ARC
  5
10347
330
102ED
100
AcDbEntity
  8
1
  6
Continuous
100
AcDbCircle
 10
237.007768
 20
77.71545299999998
 30
0.0
 40
0.3
100
AcDbArc
 50
0.0
 51
90.0
  0
ARC
  5
10348
330
102ED
100
AcDbEntity
  8
1
  6
Continuous
100
AcDbCircle
 10
237.007768
 20
67.391694
 30
0.0
 40
0.3
100
AcDbArc
 50
270.0
 51
0.0
  0
LINE
  5
10349
330
102ED
100
AcDbEntity
  8
1
  6
Continuous
100
AcDbLine
 10
237.307768
 20
77.71545299999998
 30
0.0
 11
237.307768
 21
67.391694
 31
0.0
  0
ARC
  5
1034A
330
102ED
100
AcDbEntity
  8
1
  6
Continuous
100
AcDbCircle
 10
232.107768
 20
79.35357299999998
 30
0.0
 40
0.2
100
AcDbArc
 50
0.0
 51
90.0
  0
LINE
  5
1034B
330
102ED
100
AcDbEntity
  8
1
  6
Continuous
100
AcDbLine
 10
230.607768
 20
83.55357299999999
 30
0.0
 11
232.107768
 21
82.05357300000001
 31
0.0
  0
LINE
  5
1034C
330
102ED
100
AcDbEntity
  8
1
  6
Continuous
100
AcDbLine
 10
230.607768
 20
83.55357299999999
 30
0.0
 11
230.607768
 21
77.646473
 31
0.0
  0
ARC
  5
1034D
330
102ED
100
AcDbEntity
  8
1
  6
Continuous
100
AcDbCircle
 10
222.711891
 20
72.553573
 30
0.0
 40
9.395877
100
AcDbArc
 50
327.177679
 51
32.822321
  0
LINE
  5
1034E
330
102ED
100
AcDbEntity
  8
1
  6
Continuous
100
AcDbLine
 10
237.007768
 20
78.01545299999998
 30
0.0
 11
232.307768
 21
78.01545299999998
 31
0.0
  0
LINE
  5
1034F
330
102ED
100
AcDbEntity
  8
2
  6
Continuous
100
AcDbLine
 10
232.307768
 20
67.09169399999999
 30
0.0
 11
237.007768
 21
72.553573
 31
0.0
  0
LINE
  5
10350
330
102ED
100
AcDbEntity
  8
2
  6
Continuous
100
AcDbLine
 10
232.307768
 20
72.553573
 30
0.0
 11
237.007768
 21
67.09169399999999
 31
0.0
  0
LINE
  5
10351
330
102ED
100
AcDbEntity
  8
1
  6
Continuous
100
AcDbLine
 10
237.007768
 20
72.553573
 30
0.0
 11
232.307768
 21
72.553573
 31
0.0
  0
LINE
  5
10352
330
102ED
100
AcDbEntity
  8
1
  6
Continuous
100
AcDbLine
 10
237.007768
 20
67.09169399999999
 30
0.0
 11
232.307768
 21
67.09169399999999
 31
0.0
  0
LINE
  5
10353
330
102ED
100
AcDbEntity
  8
2
  6
Continuous
100
AcDbLine
 10
237.007768
 20
78.01545299999998
 30
0.0
 11
232.307768
 21
72.553573
 31
0.0
  0
LINE
  5
10354
330
102ED
100
AcDbEntity
  8
2
  6
Continuous
100
AcDbLine
 10
237.007768
 20
72.553573
 30
0.0
 11
232.307768
 21
78.01545299999998
 31
0.0
  0
LINE
  5
10355
330
102ED
100
AcDbEntity
  8
1
  6
Continuous
100
AcDbLine
 10
215.507768
 20
96.553573
 30
0.0
 11
217.007768
 21
96.553573
 31
0.0
  0
LINE
  5
10356
330
102ED
100
AcDbEntity
  8
1
  6
Continuous
100
AcDbLine
 10
218.007768
 20
96.553573
 30
0.0
 11
217.007768
 21
96.553573
 31
0.0
  0
ARC
  5
10357
330
102ED
100
AcDbEntity
  8
1
  6
Continuous
100
AcDbCircle
 10
215.507768
 20
94.55357300000001
 30
0.0
 40
2.0
100
AcDbArc
 50
90.0
 51
137.644685
  0
ARC
  5
10358
330
102ED
100
AcDbEntity
  8
1
  6
Continuous
100
AcDbCircle
 10
215.507768
 20
94.55357300000001
 30
0.0
 40
2.0
100
AcDbArc
 50
137.644685
 51
180.0
  0
LINE
  5
10359
330
102ED
100
AcDbEntity
  8
4
  6
CENTER
100
AcDbLine
 10
141.5209619999999
 20
210.9843259999999
 30
0.0
 11
16.471681
 21
283.181562
 31
0.0
  0
LINE
  5
1035A
330
102ED
100
AcDbEntity
  8
5
  6
PHANTOM
100
AcDbLine
 10
70.57496500000002
 20
238.003364
 30
0.0
 11
131.122048
 21
208.133085
 31
0.0
  0
LINE
  5
1035B
330
102ED
100
AcDbEntity
  8
5
  6
PHANTOM
100
AcDbLine
 10
82.64879099999998
 20
258.9158439999998
 30
0.0
 11
138.7907519999999
 21
221.41567
 31
0.0
  0
ARC
  5
1035C
330
102ED
100
AcDbEntity
  8
5
  6
PHANTOM
100
AcDbCircle
 10
-28.43927299999997
 20
92.60456299999999
 30
0.0
 40
200.0
100
AcDbArc
 50
56.258952
 51
58.99540300000001
  0
LINE
  5
1035D
330
102ED
100
AcDbEntity
  8
1
  6
Continuous
100
AcDbLine
 10
66.588295
 20
280.4548889999999
 30
0.0
 11
66.588295
 21
246.513763
 31
0.0
  0
LINE
  5
1035E
330
102ED
100
AcDbEntity
  8
1
  6
Continuous
100
AcDbLine
 10
63.08829499999998
 20
246.4843259999999
 30
0.0
 11
63.08829499999998
 21
275.8169409999998
 31
0.0
  0
LINE
  5
1035F
330
102ED
100
AcDbEntity
  8
1
  6
Continuous
100
AcDbLine
 10
61.338295
 20
277.942134
 30
0.0
 11
61.338295
 21
246.4843259999999
 31
0.0
  0
LINE
  5
10360
330
102ED
100
AcDbEntity
  8
1
  6
Continuous
100
AcDbLine
 10
34.588295
 20
280.4548889999999
 30
0.0
 11
34.588295
 21
246.513763
 31
0.0
  0
LINE
  5
10361
330
102ED
100
AcDbEntity
  8
1
  6
Continuous
100
AcDbLine
 10
38.088295
 20
246.4843259999999
 30
0.0
 11
38.088295
 21
275.8169409999998
 31
0.0
  0
LINE
  5
10362
330
102ED
100
AcDbEntity
  8
1
  6
Continuous
100
AcDbLine
 10
39.838295
 20
277.942134
 30
0.0
 11
39.838295
 21
246.4843259999999
 31
0.0
  0
ARC
  5
10363
330
102ED
100
AcDbEntity
  8
1
  6
Continuous
100
AcDbCircle
 10
50.588295
 20
263.4843259999997
 30
0.0
 40
24.0
100
AcDbArc
 50
301.302234
 51
238.6977659999999
  0
ARC
  5
10364
330
102ED
100
AcDbEntity
  8
5
  6
PHANTOM
100
AcDbCircle
 10
159.060727
 20
417.3640889999998
 30
0.0
 40
200.0
100
AcDbArc
 50
241.306618
 51
243.741048
  0
LINE
  5
10365
330
102ED
100
AcDbEntity
  8
1
  6
Continuous
100
AcDbLine
 10
63.08829499999998
 20
253.3804589999999
 30
0.0
 11
66.34428299999999
 21
246.138513
 31
0.0
  0
LINE
  5
10366
330
102ED
100
AcDbEntity
  8
4
  6
CENTER
100
AcDbLine
 10
79.588295
 20
263.4843259999997
 30
0.0
 11
21.58829499999999
 21
263.4843259999997
 31
0.0
  0
ARC
  5
10367
330
102ED
100
AcDbEntity
  8
1
  6
Continuous
100
AcDbCircle
 10
-136.911705
 20
246.4843259999999
 30
0.0
 40
200.0
100
AcDbArc
 50
356.258952
 51
0.0
  0
ARC
  5
10368
330
102ED
100
AcDbEntity
  8
1
  6
Continuous
100
AcDbCircle
 10
238.0882949999999
 20
246.4843259999999
 30
0.0
 40
200.0
100
AcDbArc
 50
180.0
 51
183.741048
  0
LINE
  5
10369
330
102ED
100
AcDbEntity
  8
1
  6
Continuous
100
AcDbLine
 10
47.701544
 20
256.4843259999999
 30
0.0
 11
53.475046
 21
256.4843259999999
 31
0.0
  0
LINE
  5
1036A
330
102ED
100
AcDbEntity
  8
1
  6
Continuous
100
AcDbLine
 10
47.412869
 20
255.984326
 30
0.0
 11
53.76372199999998
 21
255.984326
 31
0.0
  0
LINE
  5
1036B
330
102ED
100
AcDbEntity
  8
1
  6
Continuous
100
AcDbLine
 10
47.12419299999999
 20
255.4843259999999
 30
0.0
 11
54.052397
 21
255.4843259999999
 31
0.0
  0
LINE
  5
1036C
330
102ED
100
AcDbEntity
  8
1
  6
Continuous
100
AcDbLine
 10
46.835518
 20
254.9843259999999
 30
0.0
 11
54.34107199999999
 21
254.9843259999999
 31
0.0
  0
LINE
  5
1036D
330
102ED
100
AcDbEntity
  8
1
  6
Continuous
100
AcDbLine
 10
46.546843
 20
254.4843259999999
 30
0.0
 11
54.629747
 21
254.4843259999999
 31
0.0
  0
LINE
  5
1036E
330
102ED
100
AcDbEntity
  8
1
  6
Continuous
100
AcDbLine
 10
46.25816799999999
 20
253.984326
 30
0.0
 11
54.918422
 21
253.984326
 31
0.0
  0
LINE
  5
1036F
330
102ED
100
AcDbEntity
  8
1
  6
Continuous
100
AcDbLine
 10
45.969493
 20
253.4843259999999
 30
0.0
 11
50.588295
 21
253.4843259999999
 31
0.0
  0
LINE
  5
10370
330
102ED
100
AcDbEntity
  8
1
  6
Continuous
100
AcDbLine
 10
43.66009199999999
 20
249.4843259999999
 30
0.0
 11
50.588295
 21
261.4843259999997
 31
0.0
  0
ARC
  5
10371
330
102ED
100
AcDbEntity
  8
1
  6
Continuous
100
AcDbCircle
 10
50.588295
 20
245.484326
 30
0.0
 40
8.0
100
AcDbArc
 50
12.83958799999999
 51
167.160412
  0
LINE
  5
10372
330
102ED
100
AcDbEntity
  8
1
  6
Continuous
100
AcDbLine
 10
45.680818
 20
252.9843259999999
 30
0.0
 11
47.80441299999998
 21
252.9843259999999
 31
0.0
  0
LINE
  5
10373
330
102ED
100
AcDbEntity
  8
1
  6
Continuous
100
AcDbLine
 10
45.392143
 20
252.4843259999999
 30
0.0
 11
46.71531199999999
 21
252.4843259999999
 31
0.0
  0
LINE
  5
10374
330
102ED
100
AcDbEntity
  8
1
  6
Continuous
100
AcDbLine
 10
45.10346799999999
 20
251.984326
 30
0.0
 11
45.92460599999999
 21
251.984326
 31
0.0
  0
LINE
  5
10375
330
102ED
100
AcDbEntity
  8
1
  6
Continuous
100
AcDbLine
 10
44.81479199999998
 20
251.4843259999999
 30
0.0
 11
45.29679199999999
 21
251.4843259999999
 31
0.0
  0
LINE
  5
10376
330
102ED
100
AcDbEntity
  8
1
  6
Continuous
100
AcDbLine
 10
44.526117
 20
250.9843259999999
 30
0.0
 11
44.77882
 21
250.9843259999999
 31
0.0
  0
LINE
  5
10377
330
102ED
100
AcDbEntity
  8
1
  6
Continuous
100
AcDbLine
 10
44.237442
 20
250.4843259999999
 30
0.0
 11
44.343297
 21
250.4843259999999
 31
0.0
  0
LINE
  5
10378
330
102ED
100
AcDbEntity
  8
1
  6
Continuous
100
AcDbLine
 10
44.093105
 20
250.2343259999999
 30
0.0
 11
44.15109799999998
 21
250.2343259999999
 31
0.0
  0
LINE
  5
10379
330
102ED
100
AcDbEntity
  8
1
  6
Continuous
100
AcDbLine
 10
43.948767
 20
249.984326
 30
0.0
 11
43.973917
 21
249.984326
 31
0.0
  0
LINE
  5
1037A
330
102ED
100
AcDbEntity
  8
1
  6
Continuous
100
AcDbLine
 10
43.804429
 20
249.734326
 30
0.0
 11
43.810574
 21
249.734326
 31
0.0
  0
ARC
  5
1037B
330
102ED
100
AcDbEntity
  8
1
  6
Continuous
100
AcDbCircle
 10
41.81333099999998
 20
247.4843259999999
 30
0.0
 40
1.0
100
AcDbArc
 50
270.0
 51
347.160412
  0
ARC
  5
1037C
330
102ED
100
AcDbEntity
  8
1
  6
Continuous
100
AcDbCircle
 10
36.588295
 20
246.513763
 30
0.0
 40
2.0
100
AcDbArc
 50
180.0
 51
230.478804
  0
LINE
  5
1037D
330
102ED
100
AcDbEntity
  8
1
  6
Continuous
100
AcDbLine
 10
38.088295
 20
253.3804589999999
 30
0.0
 11
34.80283699999999
 21
246.0729649999999
 31
0.0
  0
LINE
  5
1037E
330
102ED
100
AcDbEntity
  8
1
  6
Continuous
100
AcDbLine
 10
38.088295
 20
246.4843259999999
 30
0.0
 11
41.81333099999998
 21
246.4843259999999
 31
0.0
  0
LINE
  5
1037F
330
102ED
100
AcDbEntity
  8
1
  6
Continuous
100
AcDbLine
 10
50.29962000000001
 20
260.9843259999997
 30
0.0
 11
50.87697
 21
260.9843259999997
 31
0.0
  0
LINE
  5
10380
330
102ED
100
AcDbEntity
  8
1
  6
Continuous
100
AcDbLine
 10
50.010945
 20
260.4843259999999
 30
0.0
 11
51.16564499999999
 21
260.4843259999999
 31
0.0
  0
LINE
  5
10381
330
102ED
100
AcDbEntity
  8
1
  6
Continuous
100
AcDbLine
 10
49.72227
 20
259.9843259999999
 30
0.0
 11
51.45432
 21
259.9843259999999
 31
0.0
  0
LINE
  5
10382
330
102ED
100
AcDbEntity
  8
1
  6
Continuous
100
AcDbLine
 10
49.43359499999999
 20
259.4843259999997
 30
0.0
 11
51.74299600000001
 21
259.4843259999997
 31
0.0
  0
LINE
  5
10383
330
102ED
100
AcDbEntity
  8
1
  6
Continuous
100
AcDbLine
 10
49.144919
 20
258.9843259999997
 30
0.0
 11
52.031671
 21
258.9843259999997
 31
0.0
  0
LINE
  5
10384
330
102ED
100
AcDbEntity
  8
1
  6
Continuous
100
AcDbLine
 10
48.85624400000001
 20
258.4843259999999
 30
0.0
 11
52.320346
 21
258.4843259999999
 31
0.0
  0
LINE
  5
10385
330
102ED
100
AcDbEntity
  8
1
  6
Continuous
100
AcDbLine
 10
48.567569
 20
257.9843259999999
 30
0.0
 11
52.609021
 21
257.9843259999999
 31
0.0
  0
LINE
  5
10386
330
102ED
100
AcDbEntity
  8
1
  6
Continuous
100
AcDbLine
 10
48.278894
 20
257.4843259999997
 30
0.0
 11
52.89769599999999
 21
257.4843259999997
 31
0.0
  0
LINE
  5
10387
330
102ED
100
AcDbEntity
  8
1
  6
Continuous
100
AcDbLine
 10
47.990219
 20
256.9843259999997
 30
0.0
 11
53.186371
 21
256.9843259999997
 31
0.0
  0
LINE
  5
10388
330
102ED
100
AcDbEntity
  8
1
  6
Continuous
100
AcDbLine
 10
50.588295
 20
253.4843259999999
 30
0.0
 11
55.207097
 21
253.4843259999999
 31
0.0
  0
LINE
  5
10389
330
102ED
100
AcDbEntity
  8
1
  6
Continuous
100
AcDbLine
 10
53.372177
 20
252.9843259999999
 30
0.0
 11
55.49577199999998
 21
252.9843259999999
 31
0.0
  0
LINE
  5
1038A
330
102ED
100
AcDbEntity
  8
1
  6
Continuous
100
AcDbLine
 10
54.461278
 20
252.4843259999999
 30
0.0
 11
55.78444799999999
 21
252.4843259999999
 31
0.0
  0
LINE
  5
1038B
330
102ED
100
AcDbEntity
  8
1
  6
Continuous
100
AcDbLine
 10
55.251985
 20
251.984326
 30
0.0
 11
56.073123
 21
251.984326
 31
0.0
  0
LINE
  5
1038C
330
102ED
100
AcDbEntity
  8
1
  6
Continuous
100
AcDbLine
 10
55.879798
 20
251.4843259999999
 30
0.0
 11
56.361798
 21
251.4843259999999
 31
0.0
  0
LINE
  5
1038D
330
102ED
100
AcDbEntity
  8
1
  6
Continuous
100
AcDbLine
 10
56.39776999999998
 20
250.9843259999999
 30
0.0
 11
56.650473
 21
250.9843259999999
 31
0.0
  0
LINE
  5
1038E
330
102ED
100
AcDbEntity
  8
1
  6
Continuous
100
AcDbLine
 10
56.833293
 20
250.4843259999999
 30
0.0
 11
56.93914799999999
 21
250.4843259999999
 31
0.0
  0
LINE
  5
1038F
330
102ED
100
AcDbEntity
  8
1
  6
Continuous
100
AcDbLine
 10
57.025492
 20
250.2343259999999
 30
0.0
 11
57.083486
 21
250.2343259999999
 31
0.0
  0
LINE
  5
10390
330
102ED
100
AcDbEntity
  8
1
  6
Continuous
100
AcDbLine
 10
57.20267299999999
 20
249.984326
 30
0.0
 11
57.227823
 21
249.984326
 31
0.0
  0
LINE
  5
10391
330
102ED
100
AcDbEntity
  8
1
  6
Continuous
100
AcDbLine
 10
57.366016
 20
249.734326
 30
0.0
 11
57.372161
 21
249.734326
 31
0.0
  0
LINE
  5
10392
330
102ED
100
AcDbEntity
  8
1
  6
Continuous
100
AcDbLine
 10
59.36325899999999
 20
246.4843259999999
 30
0.0
 11
63.08829499999998
 21
246.4843259999999
 31
0.0
  0
ARC
  5
10393
330
102ED
100
AcDbEntity
  8
1
  6
Continuous
100
AcDbCircle
 10
59.36325899999999
 20
247.4843259999999
 30
0.0
 40
1.0
100
AcDbArc
 50
192.839588
 51
270.0
  0
LINE
  5
10394
330
102ED
100
AcDbEntity
  8
1
  6
Continuous
100
AcDbLine
 10
50.588295
 20
261.4843259999997
 30
0.0
 11
57.516498
 21
249.4843259999999
 31
0.0
  0
ARC
  5
10395
330
102ED
100
AcDbEntity
  8
1
  6
Continuous
100
AcDbCircle
 10
64.588295
 20
246.513763
 30
0.0
 40
2.0
100
AcDbArc
 50
309.5211959999998
 51
0.0
  0
LINE
  5
10396
330
102ED
100
AcDbEntity
  8
1
  6
Continuous
100
AcDbLine
 10
66.234148
 20
280.5851769999998
 30
0.0
 11
63.08829499999998
 21
273.588193
 31
0.0
  0
ARC
  5
10397
330
102ED
100
AcDbEntity
  8
1
  6
Continuous
100
AcDbCircle
 10
50.588295
 20
256.4843259999999
 30
0.0
 40
24.0
100
AcDbArc
 50
61.49256900000001
 51
118.507431
  0
ARC
  5
10398
330
102ED
100
AcDbEntity
  8
1
  6
Continuous
100
AcDbCircle
 10
36.588295
 20
280.4548889999999
 30
0.0
 40
2.0
100
AcDbArc
 50
129.521196
 51
180.0
  0
LINE
  5
10399
330
102ED
100
AcDbEntity
  8
1
  6
Continuous
100
AcDbLine
 10
34.831662
 20
280.8315749999998
 30
0.0
 11
38.088295
 21
273.588193
 31
0.0
  0
ARC
  5
1039A
330
102ED
100
AcDbEntity
  8
1
  6
Continuous
100
AcDbCircle
 10
40.088295
 20
275.8169409999998
 30
0.0
 40
2.0
100
AcDbArc
 50
118.507431
 51
180.0
  0
ARC
  5
1039B
330
102ED
100
AcDbEntity
  8
1
  6
Continuous
100
AcDbCircle
 10
61.08829499999998
 20
275.8169409999998
 30
0.0
 40
2.0
100
AcDbArc
 50
0.0
 51
61.49256900000001
  0
ARC
  5
1039C
330
102ED
100
AcDbEntity
  8
1
  6
Continuous
100
AcDbCircle
 10
64.588295
 20
280.4548889999999
 30
0.0
 40
2.0
100
AcDbArc
 50
0.0
 51
50.478804
  0
ARC
  5
1039D
330
102ED
100
AcDbEntity
  8
5
  6
PHANTOM
100
AcDbCircle
 10
137.6798709999999
 20
219.752558
 30
0.0
 40
2.0
100
AcDbArc
 50
344.2794049999998
 51
56.258952
  0
ARC
  5
1039E
330
102ED
100
AcDbEntity
  8
5
  6
PHANTOM
100
AcDbCircle
 10
132.0069049999998
 20
209.926692
 30
0.0
 40
2.0
100
AcDbArc
 50
243.741048
 51
315.720595
  0
ARC
  5
1039F
330
102ED
100
AcDbEntity
  8
5
  6
PHANTOM
100
AcDbCircle
 10
115.5402
 20
225.9843259999999
 30
0.0
 40
25.0
100
AcDbArc
 50
315.720595
 51
344.2794049999998
  0
LINE
  5
103A0
330
102ED
100
AcDbEntity
  8
4
  6
CENTER
100
AcDbLine
 10
461.3748849999998
 20
303.0843259999999
 30
0.0
 11
461.3748849999998
 21
157.798321
 31
0.0
  0
LINE
  5
103A1
330
102ED
100
AcDbEntity
  8
1
  6
Continuous
100
AcDbLine
 10
473.448711
 20
233.4348809999999
 30
0.0
 11
469.0435889999998
 21
166.064429
 31
0.0
  0
LINE
  5
103A2
330
102ED
100
AcDbEntity
  8
1
  6
Continuous
100
AcDbLine
 10
449.3010589999998
 20
233.4348809999999
 30
0.0
 11
453.7061809999998
 21
166.064429
 31
0.0
  0
LINE
  5
103A3
330
102ED
100
AcDbEntity
  8
4
  6
CENTER
100
AcDbLine
 10
327.5150779999999
 20
72.553574
 30
0.0
 11
312.876481
 21
72.553574
 31
0.0
  0
ARC
  5
103A4
330
102ED
100
AcDbEntity
  8
1
  6
Continuous
100
AcDbCircle
 10
304.959339
 20
65.053574
 30
0.0
 40
32.055667
100
AcDbArc
 50
166.4692029999999
 51
193.530797
  0
ARC
  5
103A5
330
102ED
100
AcDbEntity
  8
1
  6
Continuous
100
AcDbCircle
 10
244.848004
 20
65.053574
 30
0.0
 40
32.055667
100
AcDbArc
 50
346.469203
 51
13.530797
  0
LINE
  5
103A6
330
102ED
100
AcDbEntity
  8
1
  6
Continuous
100
AcDbLine
 10
271.4036709999999
 20
86.55357399999996
 30
0.0
 11
271.4036709999999
 21
58.55357399999999
 31
0.0
  0
LINE
  5
103A7
330
102ED
100
AcDbEntity
  8
1
  6
Continuous
100
AcDbLine
 10
272.9036709999999
 20
57.553574
 30
0.0
 11
272.9036709999999
 21
87.55357399999999
 31
0.0
  0
LINE
  5
103A8
330
102ED
100
AcDbEntity
  8
1
  6
Continuous
100
AcDbLine
 10
276.9036709999999
 20
57.553574
 30
0.0
 11
276.9036709999999
 21
87.55357399999999
 31
0.0
  0
LINE
  5
103A9
330
102ED
100
AcDbEntity
  8
1
  6
Continuous
100
AcDbLine
 10
269.9036709999999
 20
84.553574
 30
0.0
 11
269.9036709999999
 21
60.553573
 31
0.0
  0
LINE
  5
103AA
330
102ED
100
AcDbEntity
  8
1
  6
Continuous
100
AcDbLine
 10
278.4036709999999
 20
58.55357399999999
 30
0.0
 11
278.4036709999999
 21
86.55357399999996
 31
0.0
  0
ARC
  5
103AB
330
102ED
100
AcDbEntity
  8
1
  6
Continuous
100
AcDbCircle
 10
270.6536709999999
 20
60.553573
 30
0.0
 40
0.75
100
AcDbArc
 50
180.0
 51
0.0
  0
LINE
  5
103AC
330
102ED
100
AcDbEntity
  8
1
  6
Continuous
100
AcDbLine
 10
276.9036709999999
 20
58.55357399999999
 30
0.0
 11
278.4036709999999
 21
58.55357399999999
 31
0.0
  0
LINE
  5
103AD
330
102ED
100
AcDbEntity
  8
1
  6
Continuous
100
AcDbLine
 10
278.4036709999999
 20
61.20458000000001
 30
0.0
 11
276.9036709999999
 21
61.20458000000001
 31
0.0
  0
LINE
  5
103AE
330
102ED
100
AcDbEntity
  8
1
  6
Continuous
100
AcDbLine
 10
278.4036709999999
 20
59.59524399999999
 30
0.0
 11
276.9036709999999
 21
59.59524399999999
 31
0.0
  0
LINE
  5
103AF
330
102ED
100
AcDbEntity
  8
1
  6
Continuous
100
AcDbLine
 10
276.9036709999999
 20
57.553574
 30
0.0
 11
272.9036709999999
 21
57.553574
 31
0.0
  0
LINE
  5
103B0
330
102ED
100
AcDbEntity
  8
1
  6
Continuous
100
AcDbLine
 10
271.4036709999999
 20
58.55357399999999
 30
0.0
 11
272.9036709999999
 21
58.55357399999999
 31
0.0
  0
ARC
  5
103B1
330
102ED
100
AcDbEntity
  8
1
  6
Continuous
100
AcDbCircle
 10
270.6536709999999
 20
84.553574
 30
0.0
 40
0.75
100
AcDbArc
 50
0.0
 51
180.0
  0
LINE
  5
103B2
330
102ED
100
AcDbEntity
  8
1
  6
Continuous
100
AcDbLine
 10
269.9036709999999
 20
72.553573
 30
0.0
 11
271.4036709999999
 21
74.053573
 31
0.0
  0
LINE
  5
103B3
330
102ED
100
AcDbEntity
  8
1
  6
Continuous
100
AcDbLine
 10
269.9036709999999
 20
71.053573
 30
0.0
 11
271.4036709999999
 21
72.553573
 31
0.0
  0
LINE
  5
103B4
330
102ED
100
AcDbEntity
  8
4
  6
CENTER
100
AcDbLine
 10
266.9036709999999
 20
72.553573
 30
0.0
 11
281.4036709999999
 21
72.553573
 31
0.0
  0
LINE
  5
103B5
330
102ED
100
AcDbEntity
  8
1
  6
Continuous
100
AcDbLine
 10
276.9036709999999
 20
86.55357399999996
 30
0.0
 11
278.4036709999999
 21
86.55357399999996
 31
0.0
  0
LINE
  5
103B6
330
102ED
100
AcDbEntity
  8
1
  6
Continuous
100
AcDbLine
 10
278.4036709999999
 20
85.51190400000001
 30
0.0
 11
276.9036709999999
 21
85.51190400000001
 31
0.0
  0
LINE
  5
103B7
330
102ED
100
AcDbEntity
  8
1
  6
Continuous
100
AcDbLine
 10
278.4036709999999
 20
83.902569
 30
0.0
 11
276.9036709999999
 21
83.902569
 31
0.0
  0
LINE
  5
103B8
330
102ED
100
AcDbEntity
  8
1
  6
Continuous
100
AcDbLine
 10
276.9036709999999
 20
87.55357399999999
 30
0.0
 11
272.9036709999999
 21
87.55357399999999
 31
0.0
  0
LINE
  5
103B9
330
102ED
100
AcDbEntity
  8
1
  6
Continuous
100
AcDbLine
 10
271.4036709999999
 20
86.55357399999996
 30
0.0
 11
272.9036709999999
 21
86.55357399999996
 31
0.0
  0
LINE
  5
103BA
330
102ED
100
AcDbEntity
  8
1
  6
Continuous
100
AcDbLine
 10
273.793399
 20
72.553573
 30
0.0
 11
276.0139429999999
 21
72.553574
 31
0.0
  0
ARC
  5
103BB
330
102ED
100
AcDbEntity
  8
1
  6
Continuous
100
AcDbCircle
 10
304.959339
 20
80.05357399999999
 30
0.0
 40
32.055667
100
AcDbArc
 50
166.4692029999999
 51
193.530797
  0
ARC
  5
103BC
330
102ED
100
AcDbEntity
  8
1
  6
Continuous
100
AcDbCircle
 10
244.848004
 20
80.05357399999999
 30
0.0
 40
32.055667
100
AcDbArc
 50
346.469203
 51
13.530797
  0
LINE
  5
103BD
330
102ED
100
AcDbEntity
  8
1
  6
Continuous
100
AcDbLine
 10
319.076481
 20
81.55357399999997
 30
0.0
 11
319.076481
 21
63.55357399999999
 31
0.0
  0
LINE
  5
103BE
330
102ED
100
AcDbEntity
  8
1
  6
Continuous
100
AcDbLine
 10
315.876481
 20
81.55357399999997
 30
0.0
 11
315.876481
 21
63.55357399999999
 31
0.0
  0
LINE
  5
103BF
330
102ED
100
AcDbEntity
  8
1
  6
Continuous
100
AcDbLine
 10
319.076481
 20
63.55357399999999
 30
0.0
 11
315.876481
 21
63.55357399999999
 31
0.0
  0
LINE
  5
103C0
330
102ED
100
AcDbEntity
  8
1
  6
Continuous
100
AcDbLine
 10
319.076481
 20
81.55357399999997
 30
0.0
 11
315.876481
 21
81.55357399999997
 31
0.0
  0
LINE
  5
103C1
330
102ED
100
AcDbEntity
  8
1
  6
Continuous
100
AcDbLine
 10
343.104555
 20
80.553574
 30
0.0
 11
343.104555
 21
64.553574
 31
0.0
  0
LINE
  5
103C2
330
102ED
100
AcDbEntity
  8
1
  6
Continuous
100
AcDbLine
 10
341.9045549999997
 20
80.553574
 30
0.0
 11
341.9045549999997
 21
64.553574
 31
0.0
  0
LINE
  5
103C3
330
102ED
100
AcDbEntity
  8
1
  6
Continuous
100
AcDbLine
 10
324.5150779999999
 20
81.55357399999997
 30
0.0
 11
324.5150779999999
 21
63.55357399999999
 31
0.0
  0
LINE
  5
103C4
330
102ED
100
AcDbEntity
  8
1
  6
Continuous
100
AcDbLine
 10
322.9150779999998
 20
81.55357399999997
 30
0.0
 11
322.9150779999998
 21
63.55357399999999
 31
0.0
  0
LINE
  5
103C5
330
102ED
100
AcDbEntity
  8
1
  6
Continuous
100
AcDbLine
 10
324.5150779999999
 20
63.55357399999999
 30
0.0
 11
322.9150779999998
 21
63.55357399999999
 31
0.0
  0
LINE
  5
103C6
330
102ED
100
AcDbEntity
  8
1
  6
Continuous
100
AcDbLine
 10
343.104555
 20
64.553574
 30
0.0
 11
341.9045549999997
 21
64.553574
 31
0.0
  0
LINE
  5
103C7
330
102ED
100
AcDbEntity
  8
1
  6
Continuous
100
AcDbLine
 10
324.5150779999999
 20
81.55357399999997
 30
0.0
 11
322.9150779999998
 21
81.55357399999997
 31
0.0
  0
LINE
  5
103C8
330
102ED
100
AcDbEntity
  8
1
  6
Continuous
100
AcDbLine
 10
344.4045549999998
 20
73.85357399999998
 30
0.0
 11
343.104555
 21
72.553574
 31
0.0
  0
LINE
  5
103C9
330
102ED
100
AcDbEntity
  8
1
  6
Continuous
100
AcDbLine
 10
344.4045549999998
 20
72.553574
 30
0.0
 11
343.104555
 21
71.253574
 31
0.0
  0
LINE
  5
103CA
330
102ED
100
AcDbEntity
  8
1
  6
Continuous
100
AcDbLine
 10
344.4045549999998
 20
77.15357400000002
 30
0.0
 11
343.104555
 21
77.15357400000002
 31
0.0
  0
LINE
  5
103CB
330
102ED
100
AcDbEntity
  8
1
  6
Continuous
100
AcDbLine
 10
344.4045549999998
 20
67.953574
 30
0.0
 11
343.104555
 21
67.953574
 31
0.0
  0
LINE
  5
103CC
330
102ED
100
AcDbEntity
  8
1
  6
Continuous
100
AcDbLine
 10
344.4045549999998
 20
67.953574
 30
0.0
 11
344.4045549999998
 21
77.15357400000002
 31
0.0
  0
LINE
  5
103CD
330
102ED
100
AcDbEntity
  8
1
  6
Continuous
100
AcDbLine
 10
343.104555
 20
80.553574
 30
0.0
 11
341.9045549999997
 21
80.553574
 31
0.0
  0
ARC
  5
103CE
330
102ED
100
AcDbEntity
  8
1
  6
Continuous
100
AcDbCircle
 10
342.1295779999999
 20
74.553574
 30
0.0
 40
5.774976999999998
100
AcDbArc
 50
339.7375
 51
20.2625
  0
ARC
  5
103CF
330
102ED
100
AcDbEntity
  8
1
  6
Continuous
100
AcDbCircle
 10
350.1795319999998
 20
74.553574
 30
0.0
 40
5.774976999999998
100
AcDbArc
 50
159.7375
 51
200.2625
  0
LINE
  5
103D0
330
102ED
100
AcDbEntity
  8
1
  6
Continuous
100
AcDbLine
 10
344.761935
 20
72.553574
 30
0.0
 11
347.547175
 21
72.553574
 31
0.0
  0
LINE
  5
103D1
330
102ED
100
AcDbEntity
  8
1
  6
Continuous
100
AcDbLine
 10
347.9045549999999
 20
76.55357399999998
 30
0.0
 11
344.4045549999998
 21
76.55357399999998
 31
0.0
  0
LINE
  5
103D2
330
102ED
100
AcDbEntity
  8
1
  6
Continuous
100
AcDbLine
 10
347.9045549999999
 20
68.55357399999999
 30
0.0
 11
344.4045549999998
 21
68.55357399999999
 31
0.0
  0
LINE
  5
103D3
330
102ED
100
AcDbEntity
  8
1
  6
Continuous
100
AcDbLine
 10
347.9045549999999
 20
76.55357399999998
 30
0.0
 11
347.9045549999999
 21
68.55357399999999
 31
0.0
  0
ARC
  5
103D4
330
102ED
100
AcDbEntity
  8
1
  6
Continuous
100
AcDbCircle
 10
350.1795319999998
 20
70.553574
 30
0.0
 40
5.774976999999998
100
AcDbArc
 50
159.7375
 51
200.2625
  0
ARC
  5
103D5
330
102ED
100
AcDbEntity
  8
1
  6
Continuous
100
AcDbCircle
 10
342.1295779999999
 20
70.553574
 30
0.0
 40
5.774976999999998
100
AcDbArc
 50
339.7375
 51
20.2625
  0
LINE
  5
103D6
330
102ED
100
AcDbEntity
  8
4
  6
CENTER
100
AcDbLine
 10
350.9045549999997
 20
72.553574
 30
0.0
 11
338.9045549999999
 21
72.553574
 31
0.0
  0
ARC
  5
103D7
330
102ED
100
AcDbEntity
  8
1
  6
Continuous
100
AcDbCircle
 10
461.3748849999998
 20
178.484326
 30
0.0
 40
8.0
100
AcDbArc
 50
226.051292
 51
313.948708
  0
ARC
  5
103D8
330
102ED
100
AcDbEntity
  8
1
  6
Continuous
100
AcDbCircle
 10
461.3748849999998
 20
188.484326
 30
0.0
 40
25.0
100
AcDbArc
 50
255.720595
 51
284.279405
  0
ARC
  5
103D9
330
102ED
100
AcDbEntity
  8
1
  6
Continuous
100
AcDbCircle
 10
455.701919
 20
166.194924
 30
0.0
 40
2.0
100
AcDbArc
 50
183.741048
 51
255.720595
  0
ARC
  5
103DA
330
102ED
100
AcDbEntity
  8
1
  6
Continuous
100
AcDbCircle
 10
467.0478499999998
 20
166.194924
 30
0.0
 40
2.0
100
AcDbArc
 50
284.279405
 51
356.258952
  0
LINE
  5
103DB
330
102ED
100
AcDbEntity
  8
5
  6
PHANTOM
100
AcDbLine
 10
429.3143889999998
 20
258.9158439999998
 30
0.0
 11
373.172427
 21
221.41567
 31
0.0
  0
LINE
  5
103DC
330
102ED
100
AcDbEntity
  8
5
  6
PHANTOM
100
AcDbLine
 10
441.388215
 20
238.003364
 30
0.0
 11
380.841131
 21
208.133085
 31
0.0
  0
LINE
  5
103DD
330
102ED
100
AcDbEntity
  8
4
  6
CENTER
100
AcDbLine
 10
370.442218
 20
210.9843259999999
 30
0.0
 11
495.4914989999998
 21
283.181562
 31
0.0
  0
LINE
  5
103DE
330
102ED
100
AcDbEntity
  8
1
  6
Continuous
100
AcDbLine
 10
347.9045549999999
 20
267.484826
 30
0.0
 11
347.9045549999999
 21
259.484826
 31
0.0
  0
ARC
  5
103DF
330
102ED
100
AcDbEntity
  8
1
  6
Continuous
100
AcDbCircle
 10
352.0455999999999
 20
263.4843259999997
 30
0.0
 40
7.641045
100
AcDbArc
 50
162.407253
 51
197.592747
  0
ARC
  5
103E0
330
102ED
100
AcDbEntity
  8
1
  6
Continuous
100
AcDbCircle
 10
340.2635099999999
 20
263.4843259999997
 30
0.0
 40
7.641045
100
AcDbArc
 50
342.4072529999999
 51
17.59274699999998
  0
LINE
  5
103E1
330
102ED
100
AcDbEntity
  8
1
  6
Continuous
100
AcDbLine
 10
269.9036709999999
 20
263.4843259999997
 30
0.0
 11
271.4036709999999
 21
264.9843259999999
 31
0.0
  0
ARC
  5
103E2
330
102ED
100
AcDbEntity
  8
1
  6
Continuous
100
AcDbCircle
 10
234.3111149999999
 20
263.4843259999997
 30
0.0
 40
42.592555
100
AcDbArc
 50
348.268368
 51
11.731632
  0
ARC
  5
103E3
330
102ED
100
AcDbEntity
  8
1
  6
Continuous
100
AcDbCircle
 10
315.496226
 20
263.4843259999997
 30
0.0
 40
42.592555
100
AcDbArc
 50
168.2683679999998
 51
191.7316319999999
  0
LINE
  5
103E4
330
102ED
100
AcDbEntity
  8
1
  6
Continuous
100
AcDbLine
 10
278.4036709999999
 20
249.4843259999999
 30
0.0
 11
278.4036709999999
 21
277.4843259999999
 31
0.0
  0
LINE
  5
103E5
330
102ED
100
AcDbEntity
  8
1
  6
Continuous
100
AcDbLine
 10
271.4036709999999
 20
277.4843259999999
 30
0.0
 11
271.4036709999999
 21
249.4843259999999
 31
0.0
  0
LINE
  5
103E6
330
102ED
100
AcDbEntity
  8
1
  6
Continuous
100
AcDbLine
 10
276.9036709999999
 20
248.484324
 30
0.0
 11
276.9036709999999
 21
278.484328
 31
0.0
  0
LINE
  5
103E7
330
102ED
100
AcDbEntity
  8
1
  6
Continuous
100
AcDbLine
 10
272.9036709999999
 20
248.4843259999999
 30
0.0
 11
272.9036709999999
 21
278.4843259999997
 31
0.0
  0
LINE
  5
103E8
330
102ED
100
AcDbEntity
  8
1
  6
Continuous
100
AcDbLine
 10
269.9036709999999
 20
275.4843259999999
 30
0.0
 11
269.9036709999999
 21
251.4843259999999
 31
0.0
  0
LINE
  5
103E9
330
102ED
100
AcDbEntity
  8
1
  6
Continuous
100
AcDbLine
 10
344.4045549999998
 20
264.7843259999999
 30
0.0
 11
343.104555
 21
263.4843259999997
 31
0.0
  0
LINE
  5
103EA
330
102ED
100
AcDbEntity
  8
1
  6
Continuous
100
AcDbLine
 10
344.4045549999998
 20
258.865524
 30
0.0
 11
344.4045549999998
 21
268.1031279999999
 31
0.0
  0
LINE
  5
103EB
330
102ED
100
AcDbEntity
  8
1
  6
Continuous
100
AcDbLine
 10
341.9045549999997
 20
271.4843259999997
 30
0.0
 11
341.9045549999997
 21
255.4843259999999
 31
0.0
  0
LINE
  5
103EC
330
102ED
100
AcDbEntity
  8
1
  6
Continuous
100
AcDbLine
 10
343.104555
 20
271.4843259999997
 30
0.0
 11
343.104555
 21
255.4843259999999
 31
0.0
  0
LINE
  5
103ED
330
102ED
100
AcDbEntity
  8
1
  6
Continuous
100
AcDbLine
 10
322.9150779999998
 20
272.4843259999999
 30
0.0
 11
322.9150779999998
 21
254.4843259999999
 31
0.0
  0
LINE
  5
103EE
330
102ED
100
AcDbEntity
  8
1
  6
Continuous
100
AcDbLine
 10
324.5150779999999
 20
272.4843259999999
 30
0.0
 11
324.5150779999999
 21
254.4843259999999
 31
0.0
  0
LINE
  5
103EF
330
102ED
100
AcDbEntity
  8
1
  6
Continuous
100
AcDbLine
 10
315.876481
 20
272.4843259999999
 30
0.0
 11
315.876481
 21
254.4843259999999
 31
0.0
  0
LINE
  5
103F0
330
102ED
100
AcDbEntity
  8
1
  6
Continuous
100
AcDbLine
 10
319.076481
 20
272.4843259999999
 30
0.0
 11
319.076481
 21
254.4843259999999
 31
0.0
  0
LINE
  5
103F1
330
102ED
100
AcDbEntity
  8
4
  6
CENTER
100
AcDbLine
 10
327.5150779999999
 20
263.4843259999997
 30
0.0
 11
312.876481
 21
263.4843259999997
 31
0.0
  0
LINE
  5
103F2
330
102ED
100
AcDbEntity
  8
1
  6
Continuous
100
AcDbLine
 10
269.9036709999999
 20
261.9843259999999
 30
0.0
 11
271.4036709999999
 21
263.4843259999997
 31
0.0
  0
ARC
  5
103F3
330
102ED
100
AcDbEntity
  8
1
  6
Continuous
100
AcDbCircle
 10
270.6536709999999
 20
251.4843259999999
 30
0.0
 40
0.75
100
AcDbArc
 50
180.0
 51
0.0
  0
LINE
  5
103F4
330
102ED
100
AcDbEntity
  8
4
  6
CENTER
100
AcDbLine
 10
266.9036709999999
 20
263.4843259999997
 30
0.0
 11
281.4036709999999
 21
263.4843259999997
 31
0.0
  0
LINE
  5
103F5
330
102ED
100
AcDbEntity
  8
1
  6
Continuous
100
AcDbLine
 10
278.4036709999999
 20
257.7545989999999
 30
0.0
 11
276.9036709999999
 21
257.7545989999999
 31
0.0
  0
LINE
  5
103F6
330
102ED
100
AcDbEntity
  8
1
  6
Continuous
100
AcDbLine
 10
278.4036709999999
 20
255.286745
 30
0.0
 11
276.9036709999999
 21
255.286745
 31
0.0
  0
LINE
  5
103F7
330
102ED
100
AcDbEntity
  8
1
  6
Continuous
100
AcDbLine
 10
276.0139429999999
 20
254.824072
 30
0.0
 11
273.793399
 21
254.824072
 31
0.0
  0
LINE
  5
103F8
330
102ED
100
AcDbEntity
  8
1
  6
Continuous
100
AcDbLine
 10
275.5639259999999
 20
246.163818
 30
0.0
 11
276.9036719999999
 21
248.4843259999999
 31
0.0
  0
LINE
  5
103F9
330
102ED
100
AcDbEntity
  8
1
  6
Continuous
100
AcDbLine
 10
274.2434169999999
 20
246.163818
 30
0.0
 11
272.9036709999999
 21
248.4843259999999
 31
0.0
  0
LINE
  5
103FA
330
102ED
100
AcDbEntity
  8
1
  6
Continuous
100
AcDbLine
 10
275.5639259999999
 20
246.163818
 30
0.0
 11
274.243416
 21
246.163818
 31
0.0
  0
LINE
  5
103FB
330
102ED
100
AcDbEntity
  8
1
  6
Continuous
100
AcDbLine
 10
278.4036709999999
 20
249.4843259999999
 30
0.0
 11
276.9036709999999
 21
249.4843259999999
 31
0.0
  0
LINE
  5
103FC
330
102ED
100
AcDbEntity
  8
1
  6
Continuous
100
AcDbLine
 10
276.9036709999999
 20
249.4843259999999
 30
0.0
 11
278.4036709999999
 21
249.4843259999999
 31
0.0
  0
LINE
  5
103FD
330
102ED
100
AcDbEntity
  8
1
  6
Continuous
100
AcDbLine
 10
271.4036709999999
 20
249.4843259999999
 30
0.0
 11
272.9036709999999
 21
249.4843259999999
 31
0.0
  0
ARC
  5
103FE
330
102ED
100
AcDbEntity
  8
1
  6
Continuous
100
AcDbCircle
 10
265.9218839999999
 20
250.493945
 30
0.0
 40
10.98178699999998
100
AcDbArc
 50
346.759553
 51
23.222372
  0
ARC
  5
103FF
330
102ED
100
AcDbEntity
  8
1
  6
Continuous
100
AcDbCircle
 10
283.885458
 20
250.493945
 30
0.0
 40
10.98178699999998
100
AcDbArc
 50
156.7776279999999
 51
193.240431
  0
LINE
  5
10400
330
102ED
100
AcDbEntity
  8
1
  6
Continuous
100
AcDbLine
 10
319.076481
 20
254.4843259999999
 30
0.0
 11
315.876481
 21
254.4843259999999
 31
0.0
  0
ARC
  5
10401
330
102ED
100
AcDbEntity
  8
5
  6
PHANTOM
100
AcDbCircle
 10
374.283308
 20
219.752558
 30
0.0
 40
2.0
100
AcDbArc
 50
123.7410479999999
 51
195.720595
  0
ARC
  5
10402
330
102ED
100
AcDbEntity
  8
5
  6
PHANTOM
100
AcDbCircle
 10
396.42298
 20
225.9843259999999
 30
0.0
 40
25.0
100
AcDbArc
 50
195.720595
 51
224.2794049999997
  0
ARC
  5
10403
330
102ED
100
AcDbEntity
  8
5
  6
PHANTOM
100
AcDbCircle
 10
379.956274
 20
209.926692
 30
0.0
 40
2.0
100
AcDbArc
 50
224.2794049999997
 51
296.258952
  0
LINE
  5
10404
330
102ED
100
AcDbEntity
  8
1
  6
Continuous
100
AcDbLine
 10
324.5150779999999
 20
254.4843259999999
 30
0.0
 11
322.9150779999998
 21
254.4843259999999
 31
0.0
  0
ARC
  5
10405
330
102ED
100
AcDbEntity
  8
1
  6
Continuous
100
AcDbCircle
 10
346.4496419999999
 20
260.020826
 30
0.0
 40
2.045087
100
AcDbArc
 50
145.613799
 51
205.613799
  0
LINE
  5
10406
330
102ED
100
AcDbEntity
  8
1
  6
Continuous
100
AcDbLine
 10
344.761935
 20
261.174826
 30
0.0
 11
347.547175
 21
261.174826
 31
0.0
  0
LINE
  5
10407
330
102ED
100
AcDbEntity
  8
1
  6
Continuous
100
AcDbLine
 10
344.761935
 20
258.8658259999998
 30
0.0
 11
347.547175
 21
258.8658259999998
 31
0.0
  0
LINE
  5
10408
330
102ED
100
AcDbEntity
  8
1
  6
Continuous
100
AcDbLine
 10
344.4045549999998
 20
259.484826
 30
0.0
 11
344.761935
 21
258.8658259999998
 31
0.0
  0
LINE
  5
10409
330
102ED
100
AcDbEntity
  8
1
  6
Continuous
100
AcDbLine
 10
347.9045549999999
 20
259.484826
 30
0.0
 11
347.547175
 21
258.8658259999998
 31
0.0
  0
ARC
  5
1040A
330
102ED
100
AcDbEntity
  8
1
  6
Continuous
100
AcDbCircle
 10
345.8594689999998
 20
260.020826
 30
0.0
 40
2.045087
100
AcDbArc
 50
334.3862009999999
 51
34.386201
  0
LINE
  5
1040B
330
102ED
100
AcDbEntity
  8
1
  6
Continuous
100
AcDbLine
 10
344.4045549999998
 20
263.4843259999997
 30
0.0
 11
343.104555
 21
262.1843259999999
 31
0.0
  0
LINE
  5
1040C
330
102ED
100
AcDbEntity
  8
1
  6
Continuous
100
AcDbLine
 10
344.4045549999998
 20
258.8843259999998
 30
0.0
 11
343.104555
 21
258.8843259999998
 31
0.0
  0
LINE
  5
1040D
330
102ED
100
AcDbEntity
  8
1
  6
Continuous
100
AcDbLine
 10
343.104555
 20
255.4843259999999
 30
0.0
 11
341.9045549999997
 21
255.4843259999999
 31
0.0
  0
LINE
  5
1040E
330
102ED
100
AcDbEntity
  8
4
  6
CENTER
100
AcDbLine
 10
350.9045549999997
 20
263.4843259999997
 30
0.0
 11
338.9045549999999
 21
263.4843259999997
 31
0.0
  0
ARC
  5
1040F
330
102ED
100
AcDbEntity
  8
1
  6
Continuous
100
AcDbCircle
 10
270.6536709999999
 20
275.4843259999999
 30
0.0
 40
0.75
100
AcDbArc
 50
0.0
 51
180.0
  0
LINE
  5
10410
330
102ED
100
AcDbEntity
  8
1
  6
Continuous
100
AcDbLine
 10
275.5639259999999
 20
280.8048339999999
 30
0.0
 11
274.2434169999999
 21
280.8048339999999
 31
0.0
  0
ARC
  5
10411
330
102ED
100
AcDbEntity
  8
1
  6
Continuous
100
AcDbCircle
 10
265.9218839999999
 20
276.4747069999998
 30
0.0
 40
10.98178699999998
100
AcDbArc
 50
336.777628
 51
13.24044699999999
  0
ARC
  5
10412
330
102ED
100
AcDbEntity
  8
1
  6
Continuous
100
AcDbCircle
 10
283.885458
 20
276.4747069999998
 30
0.0
 40
10.98178699999998
100
AcDbArc
 50
166.7595689999999
 51
203.222372
  0
LINE
  5
10413
330
102ED
100
AcDbEntity
  8
1
  6
Continuous
100
AcDbLine
 10
278.4036709999999
 20
271.6819069999999
 30
0.0
 11
276.9036709999999
 21
271.6819069999999
 31
0.0
  0
LINE
  5
10414
330
102ED
100
AcDbEntity
  8
1
  6
Continuous
100
AcDbLine
 10
276.0139429999999
 20
272.1445799999999
 30
0.0
 11
273.793399
 21
272.1445799999999
 31
0.0
  0
LINE
  5
10415
330
102ED
100
AcDbEntity
  8
1
  6
Continuous
100
AcDbLine
 10
278.4036709999999
 20
269.2140529999999
 30
0.0
 11
276.9036709999999
 21
269.2140529999999
 31
0.0
  0
LINE
  5
10416
330
102ED
100
AcDbEntity
  8
1
  6
Continuous
100
AcDbLine
 10
278.4036709999999
 20
277.4843259999999
 30
0.0
 11
276.9036709999999
 21
277.4843259999999
 31
0.0
  0
LINE
  5
10417
330
102ED
100
AcDbEntity
  8
1
  6
Continuous
100
AcDbLine
 10
276.9036709999999
 20
277.4843259999999
 30
0.0
 11
278.4036709999999
 21
277.4843259999999
 31
0.0
  0
LINE
  5
10418
330
102ED
100
AcDbEntity
  8
1
  6
Continuous
100
AcDbLine
 10
271.4036709999999
 20
277.4843259999999
 30
0.0
 11
272.9036709999999
 21
277.4843259999999
 31
0.0
  0
LINE
  5
10419
330
102ED
100
AcDbEntity
  8
1
  6
Continuous
100
AcDbLine
 10
275.5639259999999
 20
280.8048339999999
 30
0.0
 11
276.9036719999999
 21
278.4843259999997
 31
0.0
  0
LINE
  5
1041A
330
102ED
100
AcDbEntity
  8
1
  6
Continuous
100
AcDbLine
 10
274.2434169999999
 20
280.8048339999999
 30
0.0
 11
272.9036709999999
 21
278.4843259999997
 31
0.0
  0
LINE
  5
1041B
330
102ED
100
AcDbEntity
  8
1
  6
Continuous
100
AcDbLine
 10
319.076481
 20
272.4843259999999
 30
0.0
 11
315.876481
 21
272.4843259999999
 31
0.0
  0
LINE
  5
1041C
330
102ED
100
AcDbEntity
  8
1
  6
Continuous
100
AcDbLine
 10
324.5150779999999
 20
272.4843259999999
 30
0.0
 11
322.9150779999998
 21
272.4843259999999
 31
0.0
  0
LINE
  5
1041D
330
102ED
100
AcDbEntity
  8
1
  6
Continuous
100
AcDbLine
 10
344.4045549999998
 20
267.484826
 30
0.0
 11
344.761935
 21
268.1038259999999
 31
0.0
  0
ARC
  5
1041E
330
102ED
100
AcDbEntity
  8
1
  6
Continuous
100
AcDbCircle
 10
346.4496419999999
 20
266.948826
 30
0.0
 40
2.045087
100
AcDbArc
 50
154.3862009999998
 51
214.3862009999998
  0
LINE
  5
1041F
330
102ED
100
AcDbEntity
  8
1
  6
Continuous
100
AcDbLine
 10
344.761935
 20
268.1038259999999
 30
0.0
 11
347.547175
 21
268.1038259999999
 31
0.0
  0
LINE
  5
10420
330
102ED
100
AcDbEntity
  8
1
  6
Continuous
100
AcDbLine
 10
344.761935
 20
265.7938259999998
 30
0.0
 11
347.547175
 21
265.7938259999998
 31
0.0
  0
LINE
  5
10421
330
102ED
100
AcDbEntity
  8
1
  6
Continuous
100
AcDbLine
 10
347.9045549999999
 20
267.484826
 30
0.0
 11
347.547175
 21
268.1038259999999
 31
0.0
  0
ARC
  5
10422
330
102ED
100
AcDbEntity
  8
1
  6
Continuous
100
AcDbCircle
 10
345.8594689999998
 20
266.948826
 30
0.0
 40
2.045087
100
AcDbArc
 50
325.6137989999999
 51
25.61379899999999
  0
LINE
  5
10423
330
102ED
100
AcDbEntity
  8
1
  6
Continuous
100
AcDbLine
 10
344.4045549999998
 20
268.0843259999999
 30
0.0
 11
343.104555
 21
268.0843259999999
 31
0.0
  0
LINE
  5
10424
330
102ED
100
AcDbEntity
  8
1
  6
Continuous
100
AcDbLine
 10
343.104555
 20
271.4843259999997
 30
0.0
 11
341.9045549999997
 21
271.4843259999997
 31
0.0
  0
LINE
  5
10425
330
102ED
100
AcDbEntity
  8
1
  6
Continuous
100
AcDbLine
 10
462.3708399999999
 20
263.4843259999997
 30
0.0
 11
462.5854809999998
 21
264.074047
 31
0.0
  0
LINE
  5
10426
330
102ED
100
AcDbEntity
  8
1
  6
Continuous
100
AcDbLine
 10
460.3789299999998
 20
263.4843259999997
 30
0.0
 11
460.1642889999998
 21
264.074047
 31
0.0
  0
LINE
  5
10427
330
102ED
100
AcDbEntity
  8
1
  6
Continuous
100
AcDbLine
 10
457.3748849999998
 20
261.1743259999999
 30
0.0
 11
457.3748849999998
 21
265.7933259999999
 31
0.0
  0
LINE
  5
10428
330
102ED
100
AcDbEntity
  8
1
  6
Continuous
100
AcDbLine
 10
465.3748849999998
 20
261.1743259999999
 30
0.0
 11
465.3748849999998
 21
265.7933259999999
 31
0.0
  0
CIRCLE
  5
10429
330
102ED
100
AcDbEntity
  8
1
  6
Continuous
100
AcDbCircle
 10
461.3748849999998
 20
263.4843259999997
 30
0.0
 40
4.0
  0
CIRCLE
  5
1042A
330
102ED
100
AcDbEntity
  8
1
  6
Continuous
100
AcDbCircle
 10
461.3748849999998
 20
263.4843259999997
 30
0.0
 40
3.1
  0
CIRCLE
  5
1042B
330
102ED
100
AcDbEntity
  8
1
  6
Continuous
100
AcDbCircle
 10
461.3748849999998
 20
263.4843259999997
 30
0.0
 40
15.0
  0
CIRCLE
  5
1042C
330
102ED
100
AcDbEntity
  8
1
  6
Continuous
100
AcDbCircle
 10
461.3748849999998
 20
263.4843259999997
 30
0.0
 40
9.0
  0
CIRCLE
  5
1042D
330
102ED
100
AcDbEntity
  8
1
  6
Continuous
100
AcDbCircle
 10
461.3748849999998
 20
263.4843259999997
 30
0.0
 40
8.0
  0
ARC
  5
1042E
330
102ED
100
AcDbEntity
  8
1
  6
Continuous
100
AcDbCircle
 10
461.3748849999998
 20
263.4843259999997
 30
0.0
 40
13.0
100
AcDbArc
 50
168.9125109999999
 51
191.087489
  0
ARC
  5
1042F
330
102ED
100
AcDbEntity
  8
1
  6
Continuous
100
AcDbCircle
 10
461.3748849999998
 20
263.4843259999997
 30
0.0
 40
11.3
100
AcDbArc
 50
167.218188
 51
192.7818119999997
  0
LINE
  5
10430
330
102ED
100
AcDbEntity
  8
1
  6
Continuous
100
AcDbLine
 10
446.3748849999998
 20
254.824072
 30
0.0
 11
446.3748849999998
 21
272.1445799999999
 31
0.0
  0
ARC
  5
10431
330
102ED
100
AcDbEntity
  8
1
  6
Continuous
100
AcDbCircle
 10
461.3748849999998
 20
263.4843259999997
 30
0.0
 40
14.0
100
AcDbArc
 50
155.841252
 51
204.158748
  0
ARC
  5
10432
330
102ED
100
AcDbEntity
  8
1
  6
Continuous
100
AcDbCircle
 10
461.3748849999998
 20
263.4843259999997
 30
0.0
 40
13.0
100
AcDbArc
 50
342.079787
 51
17.920213
  0
ARC
  5
10433
330
102ED
100
AcDbEntity
  8
1
  6
Continuous
100
AcDbCircle
 10
461.3748849999998
 20
263.4843259999997
 30
0.0
 40
11.3
100
AcDbArc
 50
339.2689149999998
 51
20.731085
  0
LINE
  5
10434
330
102ED
100
AcDbEntity
  8
1
  6
Continuous
100
AcDbLine
 10
476.3748849999998
 20
254.824072
 30
0.0
 11
476.3748849999998
 21
272.1445799999999
 31
0.0
  0
ARC
  5
10435
330
102ED
100
AcDbEntity
  8
1
  6
Continuous
100
AcDbCircle
 10
461.3748849999998
 20
263.4843259999997
 30
0.0
 40
14.0
100
AcDbArc
 50
335.8412519999999
 51
24.158748
  0
ARC
  5
10436
330
102ED
100
AcDbEntity
  8
1
  6
Continuous
100
AcDbCircle
 10
461.3748849999998
 20
263.4843259999997
 30
0.0
 40
11.0
100
AcDbArc
 50
297.5801989999999
 51
62.419801
  0
ARC
  5
10437
330
102ED
100
AcDbEntity
  8
2
  6
Continuous
100
AcDbCircle
 10
461.3748849999998
 20
263.4843259999997
 30
0.0
 40
10.18799999999999
100
AcDbArc
 50
286.8615909999999
 51
73.13840899999998
  0
ARC
  5
10438
330
102ED
100
AcDbEntity
  8
1
  6
Continuous
100
AcDbCircle
 10
461.3748849999998
 20
263.4843259999997
 30
0.0
 40
11.0
100
AcDbArc
 50
117.5801989999998
 51
242.419801
  0
ARC
  5
10439
330
102ED
100
AcDbEntity
  8
2
  6
Continuous
100
AcDbCircle
 10
461.3748849999998
 20
263.4843259999997
 30
0.0
 40
10.18799999999999
100
AcDbArc
 50
106.8615909999999
 51
253.1384089999999
  0
CIRCLE
  5
1043A
330
102ED
100
AcDbEntity
  8
1
  6
Continuous
100
AcDbCircle
 10
461.3748849999998
 20
263.4843259999997
 30
0.0
 40
24.0
  0
LINE
  5
1043B
330
102ED
100
AcDbEntity
  8
4
  6
CENTER
100
AcDbLine
 10
490.3748849999998
 20
263.4843259999997
 30
0.0
 11
432.3748849999998
 21
263.4843259999997
 31
0.0
  0
LINE
  5
1043C
330
102ED
100
AcDbEntity
  8
1
  6
Continuous
100
AcDbLine
 10
446.3748849999998
 20
254.824072
 30
0.0
 11
461.3748849999998
 21
246.163818
 31
0.0
  0
LINE
  5
1043D
330
102ED
100
AcDbEntity
  8
1
  6
Continuous
100
AcDbLine
 10
460.707579
 20
219.2991109999999
 30
0.0
 11
458.7110889999998
 21
220.074411
 31
0.0
  0
ARC
  5
1043E
330
102ED
100
AcDbEntity
  8
1
  6
Continuous
100
AcDbCircle
 10
462.978699
 20
219.1985609999999
 30
0.0
 40
1.067529999999997
100
AcDbArc
 50
48.932
 51
131.0679999999997
  0
ARC
  5
1043F
330
102ED
100
AcDbEntity
  8
1
  6
Continuous
100
AcDbCircle
 10
462.7804389999998
 20
219.4261109999999
 30
0.0
 40
0.76574
100
AcDbArc
 50
131.0679999999997
 51
199.193
  0
ARC
  5
10440
330
102ED
100
AcDbEntity
  8
1
  6
Continuous
100
AcDbCircle
 10
463.176959
 20
219.4261109999999
 30
0.0
 40
0.76574
100
AcDbArc
 50
340.8072
 51
48.932
  0
LINE
  5
10441
330
102ED
100
AcDbEntity
  8
1
  6
Continuous
100
AcDbLine
 10
451.7957319999998
 20
233.5979989999999
 30
0.0
 11
455.2307589999998
 21
181.063849
 31
0.0
  0
LINE
  5
10442
330
102ED
100
AcDbEntity
  8
1
  6
Continuous
100
AcDbLine
 10
470.9540379999999
 20
233.5979989999999
 30
0.0
 11
467.5190109999999
 21
181.063849
 31
0.0
  0
LINE
  5
10443
330
102ED
100
AcDbEntity
  8
1
  6
Continuous
100
AcDbLine
 10
457.725432
 20
178.726967
 30
0.0
 11
465.024338
 21
178.726967
 31
0.0
  0
LINE
  5
10444
330
102ED
100
AcDbEntity
  8
1
  6
Continuous
100
AcDbLine
 10
454.4840129999998
 20
192.484326
 30
0.0
 11
468.2657559999998
 21
192.484326
 31
0.0
  0
ARC
  5
10445
330
102ED
100
AcDbEntity
  8
1
  6
Continuous
100
AcDbCircle
 10
457.725432
 20
181.226967
 30
0.0
 40
2.5
100
AcDbArc
 50
183.741048
 51
270.0
  0
ARC
  5
10446
330
102ED
100
AcDbEntity
  8
1
  6
Continuous
100
AcDbCircle
 10
465.024338
 20
181.226967
 30
0.0
 40
2.5
100
AcDbArc
 50
270.0
 51
356.258952
  0
LINE
  5
10447
330
102ED
100
AcDbEntity
  8
1
  6
Continuous
100
AcDbLine
 10
463.949179
 20
209.8231109999999
 30
0.0
 11
461.9020589999998
 21
209.065811
 31
0.0
  0
LINE
  5
10448
330
102ED
100
AcDbEntity
  8
1
  6
Continuous
100
AcDbLine
 10
463.996304
 20
218.0078109999997
 30
0.0
 11
461.894864
 21
218.0078109999997
 31
0.0
  0
LINE
  5
10449
330
102ED
100
AcDbEntity
  8
1
  6
Continuous
100
AcDbLine
 10
463.996304
 20
216.710811
 30
0.0
 11
461.894864
 21
216.710811
 31
0.0
  0
LINE
  5
1044A
330
102ED
100
AcDbEntity
  8
1
  6
Continuous
100
AcDbLine
 10
463.996304
 20
216.0078109999997
 30
0.0
 11
461.894864
 21
216.0078109999997
 31
0.0
  0
LINE
  5
1044B
330
102ED
100
AcDbEntity
  8
1
  6
Continuous
100
AcDbLine
 10
463.945584
 20
209.8231109999999
 30
0.0
 11
461.9020639999998
 21
210.616561
 31
0.0
  0
LINE
  5
1044C
330
102ED
100
AcDbEntity
  8
1
  6
Continuous
100
AcDbLine
 10
462.836854
 20
211.6890109999999
 30
0.0
 11
461.894864
 21
211.6890109999999
 31
0.0
  0
LINE
  5
1044D
330
102ED
100
AcDbEntity
  8
1
  6
Continuous
100
AcDbLine
 10
463.996304
 20
213.0875609999999
 30
0.0
 11
461.894864
 21
213.0875609999999
 31
0.0
  0
ARC
  5
1044E
330
102ED
100
AcDbEntity
  8
1
  6
Continuous
100
AcDbCircle
 10
462.942399
 20
214.150161
 30
0.0
 40
1.067529999999997
100
AcDbArc
 50
48.932
 51
131.0679999999997
  0
ARC
  5
1044F
330
102ED
100
AcDbEntity
  8
1
  6
Continuous
100
AcDbCircle
 10
462.6986989999998
 20
214.3724109999999
 30
0.0
 40
0.72
100
AcDbArc
 50
179.5819999999999
 51
281.6541
  0
LINE
  5
10450
330
102ED
100
AcDbEntity
  8
1
  6
Continuous
100
AcDbLine
 10
454.091694
 20
198.484326
 30
0.0
 11
468.658076
 21
198.484326
 31
0.0
  0
LINE
  5
10451
330
102ED
100
AcDbEntity
  8
1
  6
Continuous
100
AcDbLine
 10
457.941091
 20
202.4843259999999
 30
0.0
 11
458.410892
 21
202.4843259999999
 31
0.0
  0
ARC
  5
10452
330
102ED
100
AcDbEntity
  8
1
  6
Continuous
100
AcDbCircle
 10
458.410892
 20
201.844326
 30
0.0
 40
0.6400000000000004
100
AcDbArc
 50
222.7718659999999
 51
90.0
  0
LINE
  5
10453
330
102ED
100
AcDbEntity
  8
1
  6
Continuous
100
AcDbLine
 10
457.941091
 20
202.4843259999999
 30
0.0
 11
457.941091
 21
200.484326
 31
0.0
  0
LINE
  5
10454
330
102ED
100
AcDbEntity
  8
1
  6
Continuous
100
AcDbLine
 10
459.365806
 20
201.089526
 30
0.0
 11
460.4193059999998
 21
201.089526
 31
0.0
  0
LINE
  5
10455
330
102ED
100
AcDbEntity
  8
1
  6
Continuous
100
AcDbLine
 10
459.9013059999998
 20
202.486081
 30
0.0
 11
460.6411559999998
 21
200.486076
 31
0.0
  0
LINE
  5
10456
330
102ED
100
AcDbEntity
  8
1
  6
Continuous
100
AcDbLine
 10
459.9013059999998
 20
202.4825659999999
 30
0.0
 11
459.1260059999997
 21
200.486076
 31
0.0
  0
LINE
  5
10457
330
102ED
100
AcDbEntity
  8
1
  6
Continuous
100
AcDbLine
 10
461.508143
 20
202.4843259999999
 30
0.0
 11
461.508143
 21
200.484326
 31
0.0
  0
LINE
  5
10458
330
102ED
100
AcDbEntity
  8
1
  6
Continuous
100
AcDbLine
 10
460.7241379999998
 20
202.4843259999999
 30
0.0
 11
462.2991129999999
 21
202.4843259999999
 31
0.0
  0
LINE
  5
10459
330
102ED
100
AcDbEntity
  8
1
  6
Continuous
100
AcDbLine
 10
459.7093389999998
 20
217.6123609999999
 30
0.0
 11
459.7093389999998
 21
216.9858109999999
 31
0.0
  0
LINE
  5
1045A
330
102ED
100
AcDbEntity
  8
1
  6
Continuous
100
AcDbLine
 10
459.314539
 20
219.834611
 30
0.0
 11
459.314539
 21
218.7811109999999
 31
0.0
  0
LINE
  5
1045B
330
102ED
100
AcDbEntity
  8
1
  6
Continuous
100
AcDbLine
 10
460.711094
 20
219.2991109999999
 30
0.0
 11
458.7110889999998
 21
218.559261
 31
0.0
  0
LINE
  5
1045C
330
102ED
100
AcDbEntity
  8
1
  6
Continuous
100
AcDbLine
 10
462.5034939999999
 20
210.3774109999998
 30
0.0
 11
462.5034939999999
 21
209.286861
 31
0.0
  0
LINE
  5
1045D
330
102ED
100
AcDbEntity
  8
1
  6
Continuous
100
AcDbLine
 10
462.5460689999998
 20
213.667261
 30
0.0
 11
461.9093389999998
 21
213.667261
 31
0.0
  0
ARC
  5
1045E
330
102ED
100
AcDbEntity
  8
1
  6
Continuous
100
AcDbCircle
 10
462.541884
 20
219.3430609999999
 30
0.0
 40
0.513145
100
AcDbArc
 50
199.193
 51
264.341
  0
ARC
  5
1045F
330
102ED
100
AcDbEntity
  8
1
  6
Continuous
100
AcDbCircle
 10
462.7441339999998
 20
214.3776609999999
 30
0.0
 40
0.76574
100
AcDbArc
 50
131.0679999999997
 51
186.5909999999999
  0
ARC
  5
10460
330
102ED
100
AcDbEntity
  8
1
  6
Continuous
100
AcDbCircle
 10
459.2593389999996
 20
215.369081
 30
0.0
 40
0.5225300000000001
100
AcDbArc
 50
103.0139999999999
 51
137.1299999999999
  0
ARC
  5
10461
330
102ED
100
AcDbEntity
  8
1
  6
Continuous
100
AcDbCircle
 10
459.2593389999996
 20
215.229141
 30
0.0
 40
0.5225300000000001
100
AcDbArc
 50
222.8699999999999
 51
317.1304
  0
ARC
  5
10462
330
102ED
100
AcDbEntity
  8
1
  6
Continuous
100
AcDbCircle
 10
459.183962
 20
215.2991109999999
 30
0.0
 40
0.6253750000000001
100
AcDbArc
 50
317.1304
 51
327.1503
  0
ARC
  5
10463
330
102ED
100
AcDbEntity
  8
1
  6
Continuous
100
AcDbCircle
 10
459.3347139999996
 20
215.2991109999999
 30
0.0
 40
0.6253750000000001
100
AcDbArc
 50
137.1299999999999
 51
222.8699999999999
  0
ARC
  5
10464
330
102ED
100
AcDbEntity
  8
1
  6
Continuous
100
AcDbCircle
 10
460.1593389999998
 20
215.369081
 30
0.0
 40
0.5225300000000001
100
AcDbArc
 50
42.86999999999999
 51
108.2079999999999
  0
ARC
  5
10465
330
102ED
100
AcDbEntity
  8
1
  6
Continuous
100
AcDbCircle
 10
460.1593389999998
 20
215.229141
 30
0.0
 40
0.5225300000000001
100
AcDbArc
 50
222.8699999999999
 51
317.1304
  0
ARC
  5
10466
330
102ED
100
AcDbEntity
  8
1
  6
Continuous
100
AcDbCircle
 10
460.083964
 20
215.2991109999999
 30
0.0
 40
0.6253750000000001
100
AcDbArc
 50
317.1304
 51
42.86999999999999
  0
ARC
  5
10467
330
102ED
100
AcDbEntity
  8
1
  6
Continuous
100
AcDbCircle
 10
460.2347139999998
 20
215.2991109999999
 30
0.0
 40
0.6253750000000001
100
AcDbArc
 50
212.8499999999999
 51
222.8699999999999
  0
LINE
  5
10468
330
102ED
100
AcDbEntity
  8
1
  6
Continuous
100
AcDbLine
 10
459.7093389999998
 20
215.252591
 30
0.0
 11
459.7093389999998
 21
214.959881
 31
0.0
  0
LINE
  5
10469
330
102ED
100
AcDbEntity
  8
1
  6
Continuous
100
AcDbLine
 10
459.7093389999998
 20
213.4036189999999
 30
0.0
 11
459.7093389999998
 21
213.1109089999999
 31
0.0
  0
ARC
  5
1046A
330
102ED
100
AcDbEntity
  8
1
  6
Continuous
100
AcDbCircle
 10
460.2347139999998
 20
213.450139
 30
0.0
 40
0.6253750000000001
100
AcDbArc
 50
212.8499999999999
 51
222.8699999999999
  0
ARC
  5
1046B
330
102ED
100
AcDbEntity
  8
1
  6
Continuous
100
AcDbCircle
 10
460.083964
 20
213.450139
 30
0.0
 40
0.6253750000000001
100
AcDbArc
 50
317.1304
 51
42.86999999999999
  0
ARC
  5
1046C
330
102ED
100
AcDbEntity
  8
1
  6
Continuous
100
AcDbCircle
 10
460.1593389999998
 20
213.3801689999998
 30
0.0
 40
0.5225300000000001
100
AcDbArc
 50
222.8699999999999
 51
317.1304
  0
ARC
  5
1046D
330
102ED
100
AcDbEntity
  8
1
  6
Continuous
100
AcDbCircle
 10
460.1593389999998
 20
213.5201089999999
 30
0.0
 40
0.5225300000000001
100
AcDbArc
 50
42.86999999999999
 51
108.2079999999999
  0
ARC
  5
1046E
330
102ED
100
AcDbEntity
  8
1
  6
Continuous
100
AcDbCircle
 10
459.3347139999996
 20
213.450139
 30
0.0
 40
0.6253750000000001
100
AcDbArc
 50
137.1299999999999
 51
222.8699999999999
  0
ARC
  5
1046F
330
102ED
100
AcDbEntity
  8
1
  6
Continuous
100
AcDbCircle
 10
459.183962
 20
213.450139
 30
0.0
 40
0.6253750000000001
100
AcDbArc
 50
317.1304
 51
327.1503
  0
ARC
  5
10470
330
102ED
100
AcDbEntity
  8
1
  6
Continuous
100
AcDbCircle
 10
459.2593389999996
 20
213.3801689999998
 30
0.0
 40
0.5225300000000001
100
AcDbArc
 50
222.8699999999999
 51
317.1304
  0
ARC
  5
10471
330
102ED
100
AcDbEntity
  8
1
  6
Continuous
100
AcDbCircle
 10
459.2593389999996
 20
213.5201089999999
 30
0.0
 40
0.5225300000000001
100
AcDbArc
 50
103.0139999999999
 51
137.1299999999999
  0
ARC
  5
10472
330
102ED
100
AcDbEntity
  8
1
  6
Continuous
100
AcDbCircle
 10
459.3214389999998
 20
211.584114
 30
0.0
 40
0.62634
100
AcDbArc
 50
225.9269999999999
 51
270.0
  0
ARC
  5
10473
330
102ED
100
AcDbEntity
  8
1
  6
Continuous
100
AcDbCircle
 10
460.0972389999998
 20
211.584114
 30
0.0
 40
0.62634
100
AcDbArc
 50
270.0
 51
314.0724999999998
  0
LINE
  5
10474
330
102ED
100
AcDbEntity
  8
1
  6
Continuous
100
AcDbLine
 10
460.0972389999998
 20
210.957764
 30
0.0
 11
459.3214389999998
 21
210.957764
 31
0.0
  0
ARC
  5
10475
330
102ED
100
AcDbEntity
  8
1
  6
Continuous
100
AcDbCircle
 10
459.288679
 20
211.550264
 30
0.0
 40
0.57924
100
AcDbArc
 50
134.072
 51
225.9269999999999
  0
ARC
  5
10476
330
102ED
100
AcDbEntity
  8
1
  6
Continuous
100
AcDbCircle
 10
459.3214389999998
 20
211.516414
 30
0.0
 40
0.62634
100
AcDbArc
 50
90.0
 51
134.072
  0
ARC
  5
10477
330
102ED
100
AcDbEntity
  8
1
  6
Continuous
100
AcDbCircle
 10
460.129999
 20
211.550264
 30
0.0
 40
0.57924
100
AcDbArc
 50
314.0724999999998
 51
45.92799999999999
  0
ARC
  5
10478
330
102ED
100
AcDbEntity
  8
1
  6
Continuous
100
AcDbCircle
 10
460.0972389999998
 20
211.516414
 30
0.0
 40
0.62634
100
AcDbArc
 50
45.92799999999999
 51
90.0
  0
LINE
  5
10479
330
102ED
100
AcDbEntity
  8
1
  6
Continuous
100
AcDbLine
 10
460.0972389999998
 20
212.1427639999998
 30
0.0
 11
459.3214389999998
 21
212.1427639999998
 31
0.0
  0
LINE
  5
1047A
330
102ED
100
AcDbEntity
  8
1
  6
Continuous
100
AcDbLine
 10
459.7093389999998
 20
209.745062
 30
0.0
 11
459.7093389999998
 21
209.118512
 31
0.0
  0
ARC
  5
1047B
330
102ED
100
AcDbEntity
  8
1
  6
Continuous
100
AcDbCircle
 10
460.1596429999998
 20
207.5310879999999
 30
0.0
 40
0.5225300000000001
100
AcDbArc
 50
42.86999999999999
 51
114.2769999999999
  0
ARC
  5
1047C
330
102ED
100
AcDbEntity
  8
1
  6
Continuous
100
AcDbCircle
 10
460.1596429999998
 20
207.391148
 30
0.0
 40
0.5225300000000001
100
AcDbArc
 50
222.8699999999999
 51
317.1304
  0
ARC
  5
1047D
330
102ED
100
AcDbEntity
  8
1
  6
Continuous
100
AcDbCircle
 10
460.0842679999998
 20
207.461118
 30
0.0
 40
0.6253750000000001
100
AcDbArc
 50
317.1304
 51
42.86999999999999
  0
LINE
  5
1047E
330
102ED
100
AcDbEntity
  8
1
  6
Continuous
100
AcDbLine
 10
458.7096429999999
 20
208.0546929999999
 30
0.0
 11
458.7096429999999
 21
206.8675429999999
 31
0.0
  0
LINE
  5
1047F
330
102ED
100
AcDbEntity
  8
1
  6
Continuous
100
AcDbLine
 10
458.7096429999999
 20
208.0546929999999
 30
0.0
 11
459.8027629999998
 21
207.0091779999999
 31
0.0
  0
CIRCLE
  5
10480
330
102ED
100
AcDbEntity
  8
1
  6
Continuous
100
AcDbCircle
 10
463.291008
 20
200.5243259999998
 30
0.0
 40
0.04
  0
LINE
  5
10481
330
102ED
100
AcDbEntity
  8
1
  6
Continuous
100
AcDbLine
 10
464.017944
 20
202.4843259999999
 30
0.0
 11
464.017944
 21
200.484326
 31
0.0
  0
LINE
  5
10482
330
102ED
100
AcDbEntity
  8
1
  6
Continuous
100
AcDbLine
 10
464.017944
 20
202.4843259999999
 30
0.0
 11
464.487745
 21
202.4843259999999
 31
0.0
  0
ARC
  5
10483
330
102ED
100
AcDbEntity
  8
1
  6
Continuous
100
AcDbCircle
 10
464.487745
 20
201.844326
 30
0.0
 40
0.6400000000000004
100
AcDbArc
 50
222.7718659999999
 51
90.0
  0
LINE
  5
10484
330
102ED
100
AcDbEntity
  8
1
  6
Continuous
100
AcDbLine
 10
462.945584
 20
218.0078109999997
 30
0.0
 11
462.945584
 21
216.710811
 31
0.0
  0
LINE
  5
10485
330
102ED
100
AcDbEntity
  8
1
  6
Continuous
100
AcDbLine
 10
462.8441439999998
 20
214.3701609999999
 30
0.0
 11
462.8441439999998
 21
213.667261
 31
0.0
  0
LINE
  5
10486
330
102ED
100
AcDbEntity
  8
1
  6
Continuous
100
AcDbLine
 10
462.8368489999998
 20
211.6890109999999
 30
0.0
 11
464.0121989999998
 21
211.0104109999999
 31
0.0
  0
LINE
  5
10487
330
102ED
100
AcDbEntity
  8
1
  6
Continuous
100
AcDbLine
 10
462.840459
 20
211.6890109999999
 30
0.0
 11
464.0109389999998
 21
212.362711
 31
0.0
  0
ARC
  5
10488
330
102ED
100
AcDbEntity
  8
1
  6
Continuous
100
AcDbCircle
 10
463.4155139999998
 20
219.3430609999999
 30
0.0
 40
0.513145
100
AcDbArc
 50
275.65924
 51
340.8072
  0
ARC
  5
10489
330
102ED
100
AcDbEntity
  8
1
  6
Continuous
100
AcDbCircle
 10
463.3792139999997
 20
214.294611
 30
0.0
 40
0.513145
100
AcDbArc
 50
275.65924
 51
340.8072
  0
ARC
  5
1048A
330
102ED
100
AcDbEntity
  8
1
  6
Continuous
100
AcDbCircle
 10
463.140659
 20
214.3776609999999
 30
0.0
 40
0.76574
100
AcDbArc
 50
340.8072
 51
48.932
  0
ARC
  5
1048B
330
102ED
100
AcDbEntity
  8
1
  6
Continuous
100
AcDbCircle
 10
273.8748849999999
 20
246.4843259999999
 30
0.0
 40
200.0
100
AcDbArc
 50
356.258952
 51
358.9954029999997
  0
ARC
  5
1048C
330
102ED
100
AcDbEntity
  8
1
  6
Continuous
100
AcDbCircle
 10
648.8748849999998
 20
246.4843259999999
 30
0.0
 40
200.0
100
AcDbArc
 50
181.0045969999999
 51
183.741048
  0
ARC
  5
1048D
330
102ED
100
AcDbEntity
  8
1
  6
Continuous
100
AcDbCircle
 10
462.874147
 20
226.7095509999998
 30
0.0
 40
1.145318999999998
100
AcDbArc
 50
242.2499999999998
 51
324.4619999999998
  0
LINE
  5
1048E
330
102ED
100
AcDbEntity
  8
1
  6
Continuous
100
AcDbLine
 10
462.042303
 20
226.7059419999999
 30
0.0
 11
463.915305
 21
226.2034069999999
 31
0.0
  0
LINE
  5
1048F
330
102ED
100
AcDbEntity
  8
1
  6
Continuous
100
AcDbLine
 10
463.909339
 20
223.5150959999999
 30
0.0
 11
461.9093389999998
 21
223.5150959999999
 31
0.0
  0
LINE
  5
10490
330
102ED
100
AcDbEntity
  8
1
  6
Continuous
100
AcDbLine
 10
464.334836
 20
227.8210819999999
 30
0.0
 11
461.5523989999998
 21
227.8210819999999
 31
0.0
  0
LINE
  5
10491
330
102ED
100
AcDbEntity
  8
1
  6
Continuous
100
AcDbLine
 10
461.619163
 20
228.264973
 30
0.0
 11
462.874147
 21
228.264973
 31
0.0
  0
LINE
  5
10492
330
102ED
100
AcDbEntity
  8
1
  6
Continuous
100
AcDbLine
 10
462.874147
 20
227.1543439999999
 30
0.0
 11
461.8077259999998
 21
227.1543439999999
 31
0.0
  0
LINE
  5
10493
330
102ED
100
AcDbEntity
  8
1
  6
Continuous
100
AcDbLine
 10
464.3366409999998
 20
228.709766
 30
0.0
 11
461.410751
 21
228.709766
 31
0.0
  0
LINE
  5
10494
330
102ED
100
AcDbEntity
  8
1
  6
Continuous
100
AcDbLine
 10
464.424156
 20
229.153656
 30
0.0
 11
461.323236
 21
229.153656
 31
0.0
  0
LINE
  5
10495
330
102ED
100
AcDbEntity
  8
1
  6
Continuous
100
AcDbLine
 10
464.424156
 20
229.5984489999999
 30
0.0
 11
461.323236
 21
229.5984489999999
 31
0.0
  0
LINE
  5
10496
330
102ED
100
AcDbEntity
  8
1
  6
Continuous
100
AcDbLine
 10
464.387165
 20
230.04234
 30
0.0
 11
461.3602269999996
 21
230.04234
 31
0.0
  0
LINE
  5
10497
330
102ED
100
AcDbEntity
  8
1
  6
Continuous
100
AcDbLine
 10
464.028082
 20
230.9319259999998
 30
0.0
 11
461.7193089999998
 21
230.9319259999998
 31
0.0
  0
ARC
  5
10498
330
102ED
100
AcDbEntity
  8
1
  6
Continuous
100
AcDbCircle
 10
462.874147
 20
232.0425549999999
 30
0.0
 40
1.145318999999998
100
AcDbArc
 50
90.0
 51
144.462
  0
LINE
  5
10499
330
102ED
100
AcDbEntity
  8
1
  6
Continuous
100
AcDbLine
 10
463.97034
 20
231.3758169999999
 30
0.0
 11
461.7779529999999
 21
231.3758169999999
 31
0.0
  0
LINE
  5
1049A
330
102ED
100
AcDbEntity
  8
1
  6
Continuous
100
AcDbLine
 10
462.0540319999998
 20
231.8206099999999
 30
0.0
 11
463.6933599999998
 21
231.8206099999999
 31
0.0
  0
LINE
  5
1049B
330
102ED
100
AcDbEntity
  8
1
  6
Continuous
100
AcDbLine
 10
464.093042
 20
232.2645009999999
 30
0.0
 11
462.1767329999998
 21
232.2645009999999
 31
0.0
  0
ARC
  5
1049C
330
102ED
100
AcDbEntity
  8
1
  6
Continuous
100
AcDbCircle
 10
462.9680989999997
 20
221.7522659999999
 30
0.0
 40
1.067529999999997
100
AcDbArc
 50
228.932
 51
311.0679
  0
ARC
  5
1049D
330
102ED
100
AcDbEntity
  8
1
  6
Continuous
100
AcDbCircle
 10
462.9680989999997
 20
221.2972109999999
 30
0.0
 40
1.067529999999997
100
AcDbArc
 50
48.932
 51
131.0679999999997
  0
ARC
  5
1049E
330
102ED
100
AcDbEntity
  8
1
  6
Continuous
100
AcDbCircle
 10
466.606619
 20
229.376504
 30
0.0
 40
5.732929999999998
100
AcDbArc
 50
144.462
 51
215.5379999999999
  0
ARC
  5
1049F
330
102ED
100
AcDbEntity
  8
1
  6
Continuous
100
AcDbCircle
 10
462.874147
 20
226.7095509999998
 30
0.0
 40
1.145318999999998
100
AcDbArc
 50
215.5379999999999
 51
225.699
  0
LINE
  5
104A0
330
102ED
100
AcDbEntity
  8
1
  6
Continuous
100
AcDbLine
 10
460.7093389999998
 20
224.0831109999998
 30
0.0
 11
460.7093389999998
 21
222.5081359999999
 31
0.0
  0
LINE
  5
104A1
330
102ED
100
AcDbEntity
  8
1
  6
Continuous
100
AcDbLine
 10
460.7093389999998
 20
223.2991059999999
 30
0.0
 11
458.7093389999998
 21
223.2991059999999
 31
0.0
  0
ARC
  5
104A2
330
102ED
100
AcDbEntity
  8
1
  6
Continuous
100
AcDbCircle
 10
466.606619
 20
229.376504
 30
0.0
 40
5.288524999999999
100
AcDbArc
 50
187.793
 51
190.1039999999999
  0
ARC
  5
104A3
330
102ED
100
AcDbEntity
  8
1
  6
Continuous
100
AcDbCircle
 10
461.410751
 20
228.6646549999999
 30
0.0
 40
0.044452
100
AcDbArc
 50
90.0
 51
187.793
  0
ARC
  5
104A4
330
102ED
100
AcDbEntity
  8
1
  6
Continuous
100
AcDbCircle
 10
461.619163
 20
228.486918
 30
0.0
 40
0.222261
100
AcDbArc
 50
190.1039999999999
 51
270.0
  0
ARC
  5
104A5
330
102ED
100
AcDbEntity
  8
1
  6
Continuous
100
AcDbCircle
 10
466.606619
 20
229.376504
 30
0.0
 40
5.288524999999999
100
AcDbArc
 50
153.986
 51
157.056
  0
ARC
  5
104A6
330
102ED
100
AcDbEntity
  8
1
  6
Continuous
100
AcDbCircle
 10
461.7779529999999
 20
231.4200259999998
 30
0.0
 40
0.044452
100
AcDbArc
 50
157.056
 51
270.0
  0
LINE
  5
104A7
330
102ED
100
AcDbEntity
  8
1
  6
Continuous
100
AcDbLine
 10
461.49195
 20
230.487133
 30
0.0
 11
462.340937
 21
230.487133
 31
0.0
  0
ARC
  5
104A8
330
102ED
100
AcDbEntity
  8
1
  6
Continuous
100
AcDbCircle
 10
461.49195
 20
230.531342
 30
0.0
 40
0.044452
100
AcDbArc
 50
167.2709999999999
 51
270.0
  0
ARC
  5
104A9
330
102ED
100
AcDbEntity
  8
1
  6
Continuous
100
AcDbCircle
 10
466.606619
 20
229.376504
 30
0.0
 40
5.288524999999999
100
AcDbArc
 50
164.794
 51
167.2709999999999
  0
ARC
  5
104AA
330
102ED
100
AcDbEntity
  8
1
  6
Continuous
100
AcDbCircle
 10
466.606619
 20
229.376504
 30
0.0
 40
5.288524999999999
100
AcDbArc
 50
164.7419999999998
 51
164.794
  0
ARC
  5
104AB
330
102ED
100
AcDbEntity
  8
1
  6
Continuous
100
AcDbCircle
 10
461.7193089999998
 20
230.709079
 30
0.0
 40
0.222261
100
AcDbArc
 50
90.0
 51
164.7419999999998
  0
ARC
  5
104AC
330
102ED
100
AcDbEntity
  8
1
  6
Continuous
100
AcDbCircle
 10
462.0540319999998
 20
231.5977619999999
 30
0.0
 40
0.222261
100
AcDbArc
 50
90.0
 51
153.986
  0
LINE
  5
104AD
330
102ED
100
AcDbEntity
  8
1
  6
Continuous
100
AcDbLine
 10
459.7093389999998
 20
221.925591
 30
0.0
 11
459.7093389999998
 21
220.6726109999999
 31
0.0
  0
LINE
  5
104AE
330
102ED
100
AcDbEntity
  8
1
  6
Continuous
100
AcDbLine
 10
460.7242939999999
 20
220.6726109999999
 30
0.0
 11
458.7242889999997
 21
220.6726109999999
 31
0.0
  0
LINE
  5
104AF
330
102ED
100
AcDbEntity
  8
1
  6
Continuous
100
AcDbLine
 10
460.7242939999999
 20
221.925591
 30
0.0
 11
458.7242889999997
 21
221.925591
 31
0.0
  0
ARC
  5
104B0
330
102ED
100
AcDbEntity
  8
1
  6
Continuous
100
AcDbCircle
 10
462.7698389999998
 20
221.5247359999999
 30
0.0
 40
0.76574
100
AcDbArc
 50
131.0679999999997
 51
228.932
  0
ARC
  5
104B1
330
102ED
100
AcDbEntity
  8
1
  6
Continuous
100
AcDbCircle
 10
648.8748849999998
 20
246.4843259999999
 30
0.0
 40
197.5
100
AcDbArc
 50
181.405574
 51
183.741048
  0
ARC
  5
104B2
330
102ED
100
AcDbEntity
  8
1
  6
Continuous
100
AcDbCircle
 10
459.140773
 20
229.376504
 30
0.0
 40
5.732929999999998
100
AcDbArc
 50
324.4619999999998
 51
35.5377
  0
ARC
  5
104B3
330
102ED
100
AcDbEntity
  8
1
  6
Continuous
100
AcDbCircle
 10
463.0960919999998
 20
227.1543439999999
 30
0.0
 40
0.222261
100
AcDbArc
 50
90.0
 51
270.0
  0
LINE
  5
104B4
330
102ED
100
AcDbEntity
  8
1
  6
Continuous
100
AcDbLine
 10
462.874147
 20
225.564637
 30
0.0
 11
462.874147
 21
226.4830939999999
 31
0.0
  0
LINE
  5
104B5
330
102ED
100
AcDbEntity
  8
1
  6
Continuous
100
AcDbLine
 10
463.0960919999998
 20
226.9314959999999
 30
0.0
 11
464.045224
 21
226.9314959999999
 31
0.0
  0
LINE
  5
104B6
330
102ED
100
AcDbEntity
  8
1
  6
Continuous
100
AcDbLine
 10
463.909339
 20
224.326716
 30
0.0
 11
463.909339
 21
222.6962959999999
 31
0.0
  0
LINE
  5
104B7
330
102ED
100
AcDbEntity
  8
1
  6
Continuous
100
AcDbLine
 10
464.1255219999998
 20
227.3762889999999
 30
0.0
 11
463.0960919999998
 21
227.3762889999999
 31
0.0
  0
LINE
  5
104B8
330
102ED
100
AcDbEntity
  8
1
  6
Continuous
100
AcDbLine
 10
463.4073569999998
 20
228.264973
 30
0.0
 11
464.1282279999998
 21
228.264973
 31
0.0
  0
ARC
  5
104B9
330
102ED
100
AcDbEntity
  8
1
  6
Continuous
100
AcDbCircle
 10
464.3366409999998
 20
228.6646549999999
 30
0.0
 40
0.044452
100
AcDbArc
 50
352.2069999999998
 51
90.0
  0
ARC
  5
104BA
330
102ED
100
AcDbEntity
  8
1
  6
Continuous
100
AcDbCircle
 10
459.140773
 20
229.376504
 30
0.0
 40
5.288524999999999
100
AcDbArc
 50
349.8959999999998
 51
352.2069999999998
  0
ARC
  5
104BB
330
102ED
100
AcDbEntity
  8
1
  6
Continuous
100
AcDbCircle
 10
464.1282279999998
 20
228.486918
 30
0.0
 40
0.222261
100
AcDbArc
 50
270.0
 51
349.8959999999998
  0
LINE
  5
104BC
330
102ED
100
AcDbEntity
  8
1
  6
Continuous
100
AcDbLine
 10
462.874147
 20
228.264973
 30
0.0
 11
462.874147
 21
228.486918
 31
0.0
  0
ARC
  5
104BD
330
102ED
100
AcDbEntity
  8
1
  6
Continuous
100
AcDbCircle
 10
464.028082
 20
230.709079
 30
0.0
 40
0.222261
100
AcDbArc
 50
15.2575
 51
90.0
  0
ARC
  5
104BE
330
102ED
100
AcDbEntity
  8
1
  6
Continuous
100
AcDbCircle
 10
459.140773
 20
229.376504
 30
0.0
 40
5.288524999999999
100
AcDbArc
 50
13.2681
 51
15.2575
  0
ARC
  5
104BF
330
102ED
100
AcDbEntity
  8
1
  6
Continuous
100
AcDbCircle
 10
459.140773
 20
229.376504
 30
0.0
 40
5.288524999999999
100
AcDbArc
 50
12.7289
 51
13.2681
  0
ARC
  5
104C0
330
102ED
100
AcDbEntity
  8
1
  6
Continuous
100
AcDbCircle
 10
464.255441
 20
230.531342
 30
0.0
 40
0.044452
100
AcDbArc
 50
270.0
 51
12.7289
  0
ARC
  5
104C1
330
102ED
100
AcDbEntity
  8
1
  6
Continuous
100
AcDbCircle
 10
463.97034
 20
231.4200259999998
 30
0.0
 40
0.044452
100
AcDbArc
 50
270.0
 51
22.94399999999999
  0
ARC
  5
104C2
330
102ED
100
AcDbEntity
  8
1
  6
Continuous
100
AcDbCircle
 10
459.140773
 20
229.376504
 30
0.0
 40
5.288524999999999
100
AcDbArc
 50
22.94399999999999
 51
26.0144
  0
ARC
  5
104C3
330
102ED
100
AcDbEntity
  8
1
  6
Continuous
100
AcDbCircle
 10
463.6933599999998
 20
231.5977619999999
 30
0.0
 40
0.222261
100
AcDbArc
 50
26.0144
 51
90.0
  0
ARC
  5
104C4
330
102ED
100
AcDbEntity
  8
1
  6
Continuous
100
AcDbCircle
 10
462.874147
 20
232.0425549999999
 30
0.0
 40
1.145318999999998
100
AcDbArc
 50
35.5377
 51
76.5374
  0
LINE
  5
104C5
330
102ED
100
AcDbEntity
  8
1
  6
Continuous
100
AcDbLine
 10
462.874147
 20
229.5984489999999
 30
0.0
 11
462.874147
 21
230.04234
 31
0.0
  0
LINE
  5
104C6
330
102ED
100
AcDbEntity
  8
1
  6
Continuous
100
AcDbLine
 10
463.4073569999998
 20
230.487133
 30
0.0
 11
464.255441
 21
230.487133
 31
0.0
  0
ARC
  5
104C7
330
102ED
100
AcDbEntity
  8
1
  6
Continuous
100
AcDbCircle
 10
463.166359
 20
221.5247359999999
 30
0.0
 40
0.76574
100
AcDbArc
 50
311.0679
 51
48.932
  0
ARC
  5
104C8
330
102ED
100
AcDbEntity
  8
1
  6
Continuous
100
AcDbCircle
 10
273.8748849999999
 20
246.4843259999999
 30
0.0
 40
197.5
100
AcDbArc
 50
356.258952
 51
358.594426
  0
LINE
  5
104C9
330
102ED
100
AcDbEntity
  8
1
  6
Continuous
100
AcDbLine
 10
465.3748849999998
 20
261.1753259999999
 30
0.0
 11
461.3748849999998
 21
258.865326
 31
0.0
  0
LINE
  5
104CA
330
102ED
100
AcDbEntity
  8
1
  6
Continuous
100
AcDbLine
 10
463.3427379999998
 20
262.1104429999999
 30
0.0
 11
462.5854809999998
 21
262.8946049999999
 31
0.0
  0
ARC
  5
104CB
330
102ED
100
AcDbEntity
  8
1
  6
Continuous
100
AcDbCircle
 10
461.3748849999998
 20
263.4843259999997
 30
0.0
 40
2.399999999999999
100
AcDbArc
 50
304.921342
 51
325.078658
  0
ARC
  5
104CC
330
102ED
100
AcDbEntity
  8
1
  6
Continuous
100
AcDbCircle
 10
461.3748849999998
 20
263.4843259999997
 30
0.0
 40
11.5
100
AcDbArc
 50
192.555858
 51
339.645594
  0
LINE
  5
104CD
330
102ED
100
AcDbEntity
  8
4
  6
CENTER
100
AcDbLine
 10
466.8709059999998
 20
247.4843259999999
 30
0.0
 11
456.3748849999998
 21
247.4843259999999
 31
0.0
  0
ARC
  5
104CE
330
102ED
100
AcDbEntity
  8
1
  6
Continuous
100
AcDbCircle
 10
461.3748849999998
 20
247.4843259999999
 30
0.0
 40
3.7
100
AcDbArc
 50
180.0
 51
0.0
  0
ARC
  5
104CF
330
102ED
100
AcDbEntity
  8
1
  6
Continuous
100
AcDbCircle
 10
461.3748849999998
 20
263.4843259999997
 30
0.0
 40
10.18799999999999
100
AcDbArc
 50
253.1384089999999
 51
286.8615909999999
  0
ARC
  5
104D0
330
102ED
100
AcDbEntity
  8
2
  6
Continuous
100
AcDbCircle
 10
461.3748849999998
 20
263.4843259999997
 30
0.0
 40
11.0
100
AcDbArc
 50
242.419801
 51
297.5801989999999
  0
LINE
  5
104D1
330
102ED
100
AcDbEntity
  8
1
  6
Continuous
100
AcDbLine
 10
466.4677719999998
 20
253.7343259999999
 30
0.0
 11
456.2819969999998
 21
253.7343259999999
 31
0.0
  0
ARC
  5
104D2
330
102ED
100
AcDbEntity
  8
1
  6
Continuous
100
AcDbCircle
 10
461.3748849999998
 20
247.4843259999999
 30
0.0
 40
3.5
100
AcDbArc
 50
170.4059319999998
 51
9.594068
  0
ARC
  5
104D3
330
102ED
100
AcDbEntity
  8
1
  6
Continuous
100
AcDbCircle
 10
461.3748849999998
 20
263.4843259999997
 30
0.0
 40
14.0
100
AcDbArc
 50
215.841252
 51
324.158748
  0
LINE
  5
104D4
330
102ED
100
AcDbEntity
  8
1
  6
Continuous
100
AcDbLine
 10
476.3748849999998
 20
254.824072
 30
0.0
 11
461.3748849999998
 21
246.163818
 31
0.0
  0
LINE
  5
104D5
330
102ED
100
AcDbEntity
  8
1
  6
Continuous
100
AcDbLine
 10
462.7487679999998
 20
261.516473
 30
0.0
 11
461.9646059999998
 21
262.27373
 31
0.0
  0
LINE
  5
104D6
330
102ED
100
AcDbEntity
  8
1
  6
Continuous
100
AcDbLine
 10
462.3708399999999
 20
263.4843259999997
 30
0.0
 11
462.5854809999998
 21
262.8946049999999
 31
0.0
  0
LINE
  5
104D7
330
102ED
100
AcDbEntity
  8
1
  6
Continuous
100
AcDbLine
 10
461.3748849999998
 20
262.4883709999999
 30
0.0
 11
461.9646059999998
 21
262.27373
 31
0.0
  0
LINE
  5
104D8
330
102ED
100
AcDbEntity
  8
1
  6
Continuous
100
AcDbLine
 10
460.001002
 20
261.516473
 30
0.0
 11
460.7851639999998
 21
262.27373
 31
0.0
  0
LINE
  5
104D9
330
102ED
100
AcDbEntity
  8
1
  6
Continuous
100
AcDbLine
 10
460.3789299999998
 20
263.4843259999997
 30
0.0
 11
460.1642889999998
 21
262.8946049999999
 31
0.0
  0
LINE
  5
104DA
330
102ED
100
AcDbEntity
  8
1
  6
Continuous
100
AcDbLine
 10
459.407032
 20
262.1104429999999
 30
0.0
 11
460.1642889999998
 21
262.8946049999999
 31
0.0
  0
ARC
  5
104DB
330
102ED
100
AcDbEntity
  8
1
  6
Continuous
100
AcDbCircle
 10
461.3748849999998
 20
263.4843259999997
 30
0.0
 40
2.399999999999999
100
AcDbArc
 50
214.921342
 51
235.0786579999998
  0
LINE
  5
104DC
330
102ED
100
AcDbEntity
  8
1
  6
Continuous
100
AcDbLine
 10
461.3748849999998
 20
262.4883709999999
 30
0.0
 11
460.7851639999998
 21
262.27373
 31
0.0
  0
LINE
  5
104DD
330
102ED
100
AcDbEntity
  8
1
  6
Continuous
100
AcDbLine
 10
457.3748849999998
 20
261.1743259999999
 30
0.0
 11
461.3748849999998
 21
258.865326
 31
0.0
  0
LINE
  5
104DE
330
102ED
100
AcDbEntity
  8
1
  6
Continuous
100
AcDbLine
 10
448.6175339999999
 20
260.9843259999997
 30
0.0
 11
450.354903
 21
260.9843259999997
 31
0.0
  0
ARC
  5
104DF
330
102ED
100
AcDbEntity
  8
1
  6
Continuous
100
AcDbCircle
 10
450.116555
 20
256.9843259999997
 30
0.0
 40
1.7
100
AcDbArc
 50
153.057137
 51
266.942863
  0
LINE
  5
104E0
330
102ED
100
AcDbEntity
  8
1
  6
Continuous
100
AcDbLine
 10
457.6748849999996
 20
247.4843259999999
 30
0.0
 11
457.6748849999996
 21
248.300014
 31
0.0
  0
ARC
  5
104E1
330
102ED
100
AcDbEntity
  8
1
  6
Continuous
100
AcDbCircle
 10
458.4168449999999
 20
247.9843259999999
 30
0.0
 40
0.5
100
AcDbArc
 50
161.254793
 51
170.4059319999998
  0
LINE
  5
104E2
330
102ED
100
AcDbEntity
  8
1
  6
Continuous
100
AcDbLine
 10
457.8748849999998
 20
246.2843259999999
 30
0.0
 11
457.8748849999998
 21
248.1845439999999
 31
0.0
  0
ARC
  5
104E3
330
102ED
100
AcDbEntity
  8
1
  6
Continuous
100
AcDbCircle
 10
461.3748849999998
 20
263.4843259999997
 30
0.0
 40
16.12829999999998
100
AcDbArc
 50
256.737637
 51
257.4665319999999
  0
LINE
  5
104E4
330
102ED
100
AcDbEntity
  8
1
  6
Continuous
100
AcDbLine
 10
465.0748849999998
 20
247.4843259999999
 30
0.0
 11
465.0748849999998
 21
248.300014
 31
0.0
  0
ARC
  5
104E5
330
102ED
100
AcDbEntity
  8
1
  6
Continuous
100
AcDbCircle
 10
464.3329249999998
 20
247.9843259999999
 30
0.0
 40
0.5
100
AcDbArc
 50
9.594068
 51
18.745207
  0
LINE
  5
104E6
330
102ED
100
AcDbEntity
  8
1
  6
Continuous
100
AcDbLine
 10
464.8748849999998
 20
246.2843259999999
 30
0.0
 11
464.8748849999998
 21
248.1845439999999
 31
0.0
  0
ARC
  5
104E7
330
102ED
100
AcDbEntity
  8
1
  6
Continuous
100
AcDbCircle
 10
461.3748849999998
 20
263.4843259999997
 30
0.0
 40
16.12829999999998
100
AcDbArc
 50
282.533468
 51
283.262363
  0
LINE
  5
104E8
330
102ED
100
AcDbEntity
  8
1
  6
Continuous
100
AcDbLine
 10
471.943234
 20
259.4843259999997
 30
0.0
 11
473.7442019999998
 21
259.4843259999997
 31
0.0
  0
ARC
  5
104E9
330
102ED
100
AcDbEntity
  8
1
  6
Continuous
100
AcDbCircle
 10
472.6332150000001
 20
256.9843259999997
 30
0.0
 40
1.7
100
AcDbArc
 50
273.057137
 51
26.942863
  0
LINE
  5
104EA
330
102ED
100
AcDbEntity
  8
1
  6
Continuous
100
AcDbLine
 10
461.3748849999998
 20
280.8048339999999
 30
0.0
 11
446.3748849999998
 21
272.1445799999999
 31
0.0
  0
LINE
  5
104EB
330
102ED
100
AcDbEntity
  8
1
  6
Continuous
100
AcDbLine
 10
461.3748849999998
 20
268.1033259999999
 30
0.0
 11
465.3748849999998
 21
265.7933259999999
 31
0.0
  0
ARC
  5
104EC
330
102ED
100
AcDbEntity
  8
1
  6
Continuous
100
AcDbCircle
 10
461.3748849999998
 20
263.4843259999997
 30
0.0
 40
2.399999999999999
100
AcDbArc
 50
34.92134199999998
 51
55.078658
  0
LINE
  5
104ED
330
102ED
100
AcDbEntity
  8
1
  6
Continuous
100
AcDbLine
 10
463.3427379999998
 20
264.858209
 30
0.0
 11
462.5854809999998
 21
264.074047
 31
0.0
  0
ARC
  5
104EE
330
102ED
100
AcDbEntity
  8
1
  6
Continuous
100
AcDbCircle
 10
461.3748849999998
 20
263.4843259999997
 30
0.0
 40
11.5
100
AcDbArc
 50
20.354406
 51
167.4441419999999
  0
LINE
  5
104EF
330
102ED
100
AcDbEntity
  8
4
  6
CENTER
100
AcDbLine
 10
466.3748849999998
 20
279.4843259999999
 30
0.0
 11
455.912991
 21
279.4843259999999
 31
0.0
  0
ARC
  5
104F0
330
102ED
100
AcDbEntity
  8
1
  6
Continuous
100
AcDbCircle
 10
461.3748849999998
 20
279.4843259999999
 30
0.0
 40
3.7
100
AcDbArc
 50
0.0
 51
180.0
  0
ARC
  5
104F1
330
102ED
100
AcDbEntity
  8
1
  6
Continuous
100
AcDbCircle
 10
461.3748849999998
 20
263.4843259999997
 30
0.0
 40
10.18799999999999
100
AcDbArc
 50
73.13840899999998
 51
106.8615909999999
  0
ARC
  5
104F2
330
102ED
100
AcDbEntity
  8
2
  6
Continuous
100
AcDbCircle
 10
461.3748849999998
 20
263.4843259999997
 30
0.0
 40
11.0
100
AcDbArc
 50
62.419801
 51
117.5801989999998
  0
LINE
  5
104F3
330
102ED
100
AcDbEntity
  8
1
  6
Continuous
100
AcDbLine
 10
466.4677719999998
 20
273.2343259999999
 30
0.0
 11
456.2819969999998
 21
273.2343259999999
 31
0.0
  0
ARC
  5
104F4
330
102ED
100
AcDbEntity
  8
1
  6
Continuous
100
AcDbCircle
 10
461.3748849999998
 20
279.4843259999999
 30
0.0
 40
3.5
100
AcDbArc
 50
350.405932
 51
189.5940679999999
  0
ARC
  5
104F5
330
102ED
100
AcDbEntity
  8
1
  6
Continuous
100
AcDbCircle
 10
461.3748849999998
 20
263.4843259999997
 30
0.0
 40
14.0
100
AcDbArc
 50
35.84125199999999
 51
144.158748
  0
LINE
  5
104F6
330
102ED
100
AcDbEntity
  8
1
  6
Continuous
100
AcDbLine
 10
461.3748849999998
 20
280.8048339999999
 30
0.0
 11
476.3748849999998
 21
272.1445799999999
 31
0.0
  0
ARC
  5
104F7
330
102ED
100
AcDbEntity
  8
1
  6
Continuous
100
AcDbCircle
 10
461.3748849999998
 20
263.4843259999997
 30
0.0
 40
2.399999999999999
100
AcDbArc
 50
124.921342
 51
145.0786579999999
  0
LINE
  5
104F8
330
102ED
100
AcDbEntity
  8
1
  6
Continuous
100
AcDbLine
 10
461.3748849999998
 20
268.1033259999999
 30
0.0
 11
457.3748849999998
 21
265.7933259999999
 31
0.0
  0
LINE
  5
104F9
330
102ED
100
AcDbEntity
  8
1
  6
Continuous
100
AcDbLine
 10
461.3748849999998
 20
264.4802809999998
 30
0.0
 11
461.9646059999998
 21
264.694922
 31
0.0
  0
LINE
  5
104FA
330
102ED
100
AcDbEntity
  8
1
  6
Continuous
100
AcDbLine
 10
461.3748849999998
 20
264.4802809999998
 30
0.0
 11
460.7851639999998
 21
264.694922
 31
0.0
  0
LINE
  5
104FB
330
102ED
100
AcDbEntity
  8
1
  6
Continuous
100
AcDbLine
 10
462.7487679999998
 20
265.4521789999999
 30
0.0
 11
461.9646059999998
 21
264.694922
 31
0.0
  0
LINE
  5
104FC
330
102ED
100
AcDbEntity
  8
1
  6
Continuous
100
AcDbLine
 10
460.001002
 20
265.4521789999999
 30
0.0
 11
460.7851639999998
 21
264.694922
 31
0.0
  0
LINE
  5
104FD
330
102ED
100
AcDbEntity
  8
1
  6
Continuous
100
AcDbLine
 10
459.407032
 20
264.858209
 30
0.0
 11
460.1642889999998
 21
264.074047
 31
0.0
  0
ARC
  5
104FE
330
102ED
100
AcDbEntity
  8
1
  6
Continuous
100
AcDbCircle
 10
450.116555
 20
269.9843259999997
 30
0.0
 40
1.7
100
AcDbArc
 50
93.057137
 51
206.9428629999999
  0
LINE
  5
104FF
330
102ED
100
AcDbEntity
  8
1
  6
Continuous
100
AcDbLine
 10
448.6175339999999
 20
265.9843259999997
 30
0.0
 11
450.354903
 21
265.9843259999997
 31
0.0
  0
LINE
  5
10500
330
102ED
100
AcDbEntity
  8
1
  6
Continuous
100
AcDbLine
 10
457.6748849999996
 20
279.4843259999999
 30
0.0
 11
457.6748849999996
 21
278.6686379999998
 31
0.0
  0
ARC
  5
10501
330
102ED
100
AcDbEntity
  8
1
  6
Continuous
100
AcDbCircle
 10
458.4168449999999
 20
278.9843259999999
 30
0.0
 40
0.5
100
AcDbArc
 50
189.5940679999999
 51
198.745207
  0
LINE
  5
10502
330
102ED
100
AcDbEntity
  8
1
  6
Continuous
100
AcDbLine
 10
457.8748849999998
 20
280.6843259999999
 30
0.0
 11
457.8748849999998
 21
278.784108
 31
0.0
  0
ARC
  5
10503
330
102ED
100
AcDbEntity
  8
1
  6
Continuous
100
AcDbCircle
 10
461.3748849999998
 20
263.4843259999997
 30
0.0
 40
16.12829999999998
100
AcDbArc
 50
102.533468
 51
103.262363
  0
LINE
  5
10504
330
102ED
100
AcDbEntity
  8
1
  6
Continuous
100
AcDbLine
 10
465.0748849999998
 20
279.4843259999999
 30
0.0
 11
465.0748849999998
 21
278.6686379999998
 31
0.0
  0
ARC
  5
10505
330
102ED
100
AcDbEntity
  8
1
  6
Continuous
100
AcDbCircle
 10
464.3329249999998
 20
278.9843259999999
 30
0.0
 40
0.5
100
AcDbArc
 50
341.254793
 51
350.405932
  0
LINE
  5
10506
330
102ED
100
AcDbEntity
  8
1
  6
Continuous
100
AcDbLine
 10
464.8748849999998
 20
280.6843259999999
 30
0.0
 11
464.8748849999998
 21
278.784108
 31
0.0
  0
ARC
  5
10507
330
102ED
100
AcDbEntity
  8
1
  6
Continuous
100
AcDbCircle
 10
461.3748849999998
 20
263.4843259999997
 30
0.0
 40
16.12829999999998
100
AcDbArc
 50
76.73763700000002
 51
77.466532
  0
ARC
  5
10508
330
102ED
100
AcDbEntity
  8
1
  6
Continuous
100
AcDbCircle
 10
472.6332150000001
 20
269.9843259999997
 30
0.0
 40
1.7
100
AcDbArc
 50
333.057137
 51
86.94286299999998
  0
LINE
  5
10509
330
102ED
100
AcDbEntity
  8
1
  6
Continuous
100
AcDbLine
 10
471.943234
 20
267.4843259999997
 30
0.0
 11
473.7442019999998
 21
267.4843259999997
 31
0.0
  0
LINE
  5
1050A
330
102ED
100
AcDbEntity
  8
1
  6
Continuous
100
AcDbLine
 10
205.687276
 20
367.000962
 30
0.0
 11
176.0393819999999
 21
367.000962
 31
0.0
  0
LINE
  5
1050B
330
102ED
100
AcDbEntity
  8
1
  6
Continuous
100
AcDbLine
 10
205.687276
 20
392.000962
 30
0.0
 11
176.0393819999999
 21
392.000962
 31
0.0
  0
LINE
  5
1050C
330
102ED
100
AcDbEntity
  8
4
  6
CENTER
100
AcDbLine
 10
245.054307
 20
379.500962
 30
0.0
 11
167.9077679999998
 21
379.500962
 31
0.0
  0
LINE
  5
1050D
330
102ED
100
AcDbEntity
  8
1
  6
Continuous
100
AcDbLine
 10
181.2077679999999
 20
367.000962
 30
0.0
 11
181.2077679999999
 21
392.000962
 31
0.0
  0
LINE
  5
1050E
330
102ED
100
AcDbEntity
  8
1
  6
Continuous
100
AcDbLine
 10
181.107768
 20
367.000962
 30
0.0
 11
181.107768
 21
392.000962
 31
0.0
  0
LINE
  5
1050F
330
102ED
100
AcDbEntity
  8
1
  6
Continuous
100
AcDbLine
 10
173.939026
 20
371.500962
 30
0.0
 11
173.4346329999999
 21
371.500962
 31
0.0
  0
LINE
  5
10510
330
102ED
100
AcDbEntity
  8
1
  6
Continuous
100
AcDbLine
 10
174.8786429999999
 20
368.750962
 30
0.0
 11
174.370489
 21
368.750962
 31
0.0
  0
LINE
  5
10511
330
102ED
100
AcDbEntity
  8
1
  6
Continuous
100
AcDbLine
 10
173.939026
 20
387.500962
 30
0.0
 11
173.4346329999999
 21
387.500962
 31
0.0
  0
LINE
  5
10512
330
102ED
100
AcDbEntity
  8
1
  6
Continuous
100
AcDbLine
 10
174.8786429999999
 20
390.250962
 30
0.0
 11
174.370489
 21
390.250962
 31
0.0
  0
LINE
  5
10513
330
102ED
100
AcDbEntity
  8
1
  6
Continuous
100
AcDbLine
 10
218.007768
 20
403.500962
 30
0.0
 11
218.007768
 21
355.500962
 31
0.0
  0
LINE
  5
10514
330
102ED
100
AcDbEntity
  8
1
  6
Continuous
100
AcDbLine
 10
217.007768
 20
403.500962
 30
0.0
 11
217.007768
 21
355.500962
 31
0.0
  0
LINE
  5
10515
330
102ED
100
AcDbEntity
  8
1
  6
Continuous
100
AcDbLine
 10
213.507768
 20
401.5009619999998
 30
0.0
 11
213.507768
 21
357.500962
 31
0.0
  0
LINE
  5
10516
330
102ED
100
AcDbEntity
  8
2
  6
Continuous
100
AcDbLine
 10
230.607768
 20
384.593862
 30
0.0
 11
218.007768
 21
374.4080619999999
 31
0.0
  0
LINE
  5
10517
330
102ED
100
AcDbEntity
  8
2
  6
Continuous
100
AcDbLine
 10
218.007768
 20
384.593862
 30
0.0
 11
230.607768
 21
374.4080619999999
 31
0.0
  0
LINE
  5
10518
330
102ED
100
AcDbEntity
  8
1
  6
Continuous
100
AcDbLine
 10
230.607768
 20
374.4080619999999
 30
0.0
 11
218.007768
 21
374.4080619999999
 31
0.0
  0
LINE
  5
10519
330
102ED
100
AcDbEntity
  8
1
  6
Continuous
100
AcDbLine
 10
230.607768
 20
384.593862
 30
0.0
 11
218.007768
 21
384.593862
 31
0.0
  0
LINE
  5
1051A
330
102ED
100
AcDbEntity
  8
2
  6
Continuous
100
AcDbLine
 10
231.4197679999999
 20
369.3129620000001
 30
0.0
 11
219.907768
 21
369.3129620000001
 31
0.0
  0
LINE
  5
1051B
330
102ED
100
AcDbEntity
  8
2
  6
Continuous
100
AcDbLine
 10
231.4197679999999
 20
389.6889619999998
 30
0.0
 11
219.907768
 21
389.6889619999998
 31
0.0
  0
LINE
  5
1051C
330
102ED
100
AcDbEntity
  8
1
  6
Continuous
100
AcDbLine
 10
230.607768
 20
368.500962
 30
0.0
 11
219.007768
 21
368.500962
 31
0.0
  0
LINE
  5
1051D
330
102ED
100
AcDbEntity
  8
1
  6
Continuous
100
AcDbLine
 10
230.607768
 20
390.500962
 30
0.0
 11
219.007768
 21
390.500962
 31
0.0
  0
LINE
  5
1051E
330
102ED
100
AcDbEntity
  8
1
  6
Continuous
100
AcDbLine
 10
205.507768
 20
367.000962
 30
0.0
 11
205.507768
 21
392.000962
 31
0.0
  0
LINE
  5
1051F
330
102ED
100
AcDbEntity
  8
1
  6
Continuous
100
AcDbLine
 10
219.907768
 20
374.4080619999999
 30
0.0
 11
219.907768
 21
368.500962
 31
0.0
  0
LINE
  5
10520
330
102ED
100
AcDbEntity
  8
1
  6
Continuous
100
AcDbLine
 10
205.687276
 20
367.000962
 30
0.0
 11
205.687276
 21
392.000962
 31
0.0
  0
LINE
  5
10521
330
102ED
100
AcDbEntity
  8
1
  6
Continuous
100
AcDbLine
 10
205.687276
 20
367.000962
 30
0.0
 11
213.507768
 21
363.500962
 31
0.0
  0
ARC
  5
10522
330
102ED
100
AcDbEntity
  8
1
  6
Continuous
100
AcDbCircle
 10
219.007768
 20
367.500962
 30
0.0
 40
1.0
100
AcDbArc
 50
90.0
 51
180.0
  0
LINE
  5
10523
330
102ED
100
AcDbEntity
  8
2
  6
Continuous
100
AcDbLine
 10
218.501342
 20
368.500962
 30
0.0
 11
219.907768
 21
369.3129620000001
 31
0.0
  0
ARC
  5
10524
330
102ED
100
AcDbEntity
  8
1
  6
Continuous
100
AcDbCircle
 10
215.507768
 20
357.500962
 30
0.0
 40
2.0
100
AcDbArc
 50
222.3553149999999
 51
270.0
  0
ARC
  5
10525
330
102ED
100
AcDbEntity
  8
1
  6
Continuous
100
AcDbCircle
 10
215.507768
 20
357.500962
 30
0.0
 40
2.0
100
AcDbArc
 50
180.0
 51
222.3553149999999
  0
LINE
  5
10526
330
102ED
100
AcDbEntity
  8
1
  6
Continuous
100
AcDbLine
 10
218.007768
 20
355.500962
 30
0.0
 11
217.007768
 21
355.500962
 31
0.0
  0
LINE
  5
10527
330
102ED
100
AcDbEntity
  8
1
  6
Continuous
100
AcDbLine
 10
215.507768
 20
355.500962
 30
0.0
 11
217.007768
 21
355.500962
 31
0.0
  0
LINE
  5
10528
330
102ED
100
AcDbEntity
  8
1
  6
Continuous
100
AcDbLine
 10
205.687276
 20
392.000962
 30
0.0
 11
213.507768
 21
395.500962
 31
0.0
  0
ARC
  5
10529
330
102ED
100
AcDbEntity
  8
1
  6
Continuous
100
AcDbCircle
 10
219.007768
 20
391.500962
 30
0.0
 40
1.0
100
AcDbArc
 50
180.0
 51
270.0
  0
LINE
  5
1052A
330
102ED
100
AcDbEntity
  8
2
  6
Continuous
100
AcDbLine
 10
218.501342
 20
390.500962
 30
0.0
 11
219.907768
 21
389.6889619999998
 31
0.0
  0
LINE
  5
1052B
330
102ED
100
AcDbEntity
  8
1
  6
Continuous
100
AcDbLine
 10
219.907768
 20
390.500962
 30
0.0
 11
219.907768
 21
384.593862
 31
0.0
  0
LINE
  5
1052C
330
102ED
100
AcDbEntity
  8
1
  6
Continuous
100
AcDbLine
 10
219.507768
 20
381.750962
 30
0.0
 11
218.007768
 21
381.750962
 31
0.0
  0
LINE
  5
1052D
330
102ED
100
AcDbEntity
  8
1
  6
Continuous
100
AcDbLine
 10
219.507768
 20
377.250962
 30
0.0
 11
218.007768
 21
377.250962
 31
0.0
  0
LINE
  5
1052E
330
102ED
100
AcDbEntity
  8
1
  6
Continuous
100
AcDbLine
 10
219.507768
 20
377.250962
 30
0.0
 11
219.507768
 21
381.750962
 31
0.0
  0
LINE
  5
1052F
330
102ED
100
AcDbEntity
  8
1
  6
Continuous
100
AcDbLine
 10
230.607768
 20
374.4080619999999
 30
0.0
 11
230.607768
 21
368.500962
 31
0.0
  0
ARC
  5
10530
330
102ED
100
AcDbEntity
  8
1
  6
Continuous
100
AcDbCircle
 10
237.007768
 20
374.339083
 30
0.0
 40
0.3
100
AcDbArc
 50
270.0
 51
0.0
  0
LINE
  5
10531
330
102ED
100
AcDbEntity
  8
1
  6
Continuous
100
AcDbLine
 10
232.307768
 20
372.700962
 30
0.0
 11
232.307768
 21
386.300962
 31
0.0
  0
LINE
  5
10532
330
102ED
100
AcDbEntity
  8
1
  6
Continuous
100
AcDbLine
 10
232.107768
 20
389.000962
 30
0.0
 11
232.107768
 21
370.000962
 31
0.0
  0
LINE
  5
10533
330
102ED
100
AcDbEntity
  8
1
  6
Continuous
100
AcDbLine
 10
230.607768
 20
368.500962
 30
0.0
 11
232.107768
 21
370.000962
 31
0.0
  0
ARC
  5
10534
330
102ED
100
AcDbEntity
  8
1
  6
Continuous
100
AcDbCircle
 10
232.107768
 20
372.700962
 30
0.0
 40
0.2
100
AcDbArc
 50
270.0
 51
0.0
  0
ARC
  5
10535
330
102ED
100
AcDbEntity
  8
1
  6
Continuous
100
AcDbCircle
 10
222.711891
 20
379.500962
 30
0.0
 40
9.395877
100
AcDbArc
 50
327.177679
 51
32.822321
  0
LINE
  5
10536
330
102ED
100
AcDbEntity
  8
1
  6
Continuous
100
AcDbLine
 10
230.607768
 20
390.500962
 30
0.0
 11
230.607768
 21
384.593862
 31
0.0
  0
LINE
  5
10537
330
102ED
100
AcDbEntity
  8
1
  6
Continuous
100
AcDbLine
 10
230.607768
 20
390.500962
 30
0.0
 11
232.107768
 21
389.000962
 31
0.0
  0
ARC
  5
10538
330
102ED
100
AcDbEntity
  8
1
  6
Continuous
100
AcDbCircle
 10
232.107768
 20
386.300962
 30
0.0
 40
0.2
100
AcDbArc
 50
0.0
 51
90.0
  0
LINE
  5
10539
330
102ED
100
AcDbEntity
  8
1
  6
Continuous
100
AcDbLine
 10
237.307768
 20
384.662842
 30
0.0
 11
237.307768
 21
374.339083
 31
0.0
  0
ARC
  5
1053A
330
102ED
100
AcDbEntity
  8
1
  6
Continuous
100
AcDbCircle
 10
237.007768
 20
384.662842
 30
0.0
 40
0.3
100
AcDbArc
 50
0.0
 51
90.0
  0
LINE
  5
1053B
330
102ED
100
AcDbEntity
  8
2
  6
Continuous
100
AcDbLine
 10
237.007768
 20
379.500962
 30
0.0
 11
232.307768
 21
384.9628419999999
 31
0.0
  0
LINE
  5
1053C
330
102ED
100
AcDbEntity
  8
2
  6
Continuous
100
AcDbLine
 10
237.007768
 20
384.9628419999999
 30
0.0
 11
232.307768
 21
379.500962
 31
0.0
  0
LINE
  5
1053D
330
102ED
100
AcDbEntity
  8
1
  6
Continuous
100
AcDbLine
 10
237.007768
 20
374.0390829999999
 30
0.0
 11
232.307768
 21
374.0390829999999
 31
0.0
  0
LINE
  5
1053E
330
102ED
100
AcDbEntity
  8
1
  6
Continuous
100
AcDbLine
 10
237.007768
 20
379.500962
 30
0.0
 11
232.307768
 21
379.500962
 31
0.0
  0
LINE
  5
1053F
330
102ED
100
AcDbEntity
  8
2
  6
Continuous
100
AcDbLine
 10
232.307768
 20
379.500962
 30
0.0
 11
237.007768
 21
374.0390829999999
 31
0.0
  0
LINE
  5
10540
330
102ED
100
AcDbEntity
  8
2
  6
Continuous
100
AcDbLine
 10
232.307768
 20
374.0390829999999
 30
0.0
 11
237.007768
 21
379.500962
 31
0.0
  0
LINE
  5
10541
330
102ED
100
AcDbEntity
  8
1
  6
Continuous
100
AcDbLine
 10
237.007768
 20
384.9628419999999
 30
0.0
 11
232.307768
 21
384.9628419999999
 31
0.0
  0
ARC
  5
10542
330
102ED
100
AcDbEntity
  8
1
  6
Continuous
100
AcDbCircle
 10
215.507768
 20
401.5009619999998
 30
0.0
 40
2.0
100
AcDbArc
 50
137.644685
 51
180.0
  0
ARC
  5
10543
330
102ED
100
AcDbEntity
  8
1
  6
Continuous
100
AcDbCircle
 10
215.507768
 20
401.5009619999998
 30
0.0
 40
2.0
100
AcDbArc
 50
90.0
 51
137.644685
  0
LINE
  5
10544
330
102ED
100
AcDbEntity
  8
1
  6
Continuous
100
AcDbLine
 10
218.007768
 20
403.500962
 30
0.0
 11
217.007768
 21
403.500962
 31
0.0
  0
LINE
  5
10545
330
102ED
100
AcDbEntity
  8
1
  6
Continuous
100
AcDbLine
 10
215.507768
 20
403.500962
 30
0.0
 11
217.007768
 21
403.500962
 31
0.0
  0
LINE
  5
10546
330
102ED
100
AcDbEntity
  8
4
  6
CENTER
100
AcDbLine
 10
327.5150779999999
 20
379.500962
 30
0.0
 11
312.876481
 21
379.500962
 31
0.0
  0
ARC
  5
10547
330
102ED
100
AcDbEntity
  8
1
  6
Continuous
100
AcDbCircle
 10
304.959339
 20
372.000962
 30
0.0
 40
32.055667
100
AcDbArc
 50
166.4692029999999
 51
193.530797
  0
ARC
  5
10548
330
102ED
100
AcDbEntity
  8
1
  6
Continuous
100
AcDbCircle
 10
244.848004
 20
372.000962
 30
0.0
 40
32.055667
100
AcDbArc
 50
346.469203
 51
13.530797
  0
LINE
  5
10549
330
102ED
100
AcDbEntity
  8
1
  6
Continuous
100
AcDbLine
 10
271.4036709999999
 20
393.500962
 30
0.0
 11
271.4036709999999
 21
365.500962
 31
0.0
  0
LINE
  5
1054A
330
102ED
100
AcDbEntity
  8
1
  6
Continuous
100
AcDbLine
 10
272.9036709999999
 20
364.500962
 30
0.0
 11
272.9036709999999
 21
394.500962
 31
0.0
  0
LINE
  5
1054B
330
102ED
100
AcDbEntity
  8
1
  6
Continuous
100
AcDbLine
 10
276.9036709999999
 20
364.500962
 30
0.0
 11
276.9036709999999
 21
394.500962
 31
0.0
  0
LINE
  5
1054C
330
102ED
100
AcDbEntity
  8
1
  6
Continuous
100
AcDbLine
 10
278.4036709999999
 20
365.500962
 30
0.0
 11
278.4036709999999
 21
393.500962
 31
0.0
  0
LINE
  5
1054D
330
102ED
100
AcDbEntity
  8
1
  6
Continuous
100
AcDbLine
 10
269.9036709999999
 20
391.500962
 30
0.0
 11
269.9036709999999
 21
367.500962
 31
0.0
  0
ARC
  5
1054E
330
102ED
100
AcDbEntity
  8
1
  6
Continuous
100
AcDbCircle
 10
270.6536709999999
 20
367.500962
 30
0.0
 40
0.75
100
AcDbArc
 50
180.0
 51
0.0
  0
LINE
  5
1054F
330
102ED
100
AcDbEntity
  8
1
  6
Continuous
100
AcDbLine
 10
276.9036709999999
 20
364.500962
 30
0.0
 11
272.9036709999999
 21
364.500962
 31
0.0
  0
LINE
  5
10550
330
102ED
100
AcDbEntity
  8
1
  6
Continuous
100
AcDbLine
 10
271.4036709999999
 20
365.500962
 30
0.0
 11
272.9036709999999
 21
365.500962
 31
0.0
  0
LINE
  5
10551
330
102ED
100
AcDbEntity
  8
1
  6
Continuous
100
AcDbLine
 10
276.9036709999999
 20
365.500962
 30
0.0
 11
278.4036709999999
 21
365.500962
 31
0.0
  0
LINE
  5
10552
330
102ED
100
AcDbEntity
  8
1
  6
Continuous
100
AcDbLine
 10
278.4036709999999
 20
368.151968
 30
0.0
 11
276.9036709999999
 21
368.151968
 31
0.0
  0
LINE
  5
10553
330
102ED
100
AcDbEntity
  8
1
  6
Continuous
100
AcDbLine
 10
278.4036709999999
 20
366.5426319999999
 30
0.0
 11
276.9036709999999
 21
366.5426319999999
 31
0.0
  0
ARC
  5
10554
330
102ED
100
AcDbEntity
  8
1
  6
Continuous
100
AcDbCircle
 10
270.6536709999999
 20
391.500962
 30
0.0
 40
0.75
100
AcDbArc
 50
0.0
 51
180.0
  0
LINE
  5
10555
330
102ED
100
AcDbEntity
  8
1
  6
Continuous
100
AcDbLine
 10
269.9036709999999
 20
379.500962
 30
0.0
 11
271.4036709999999
 21
381.000962
 31
0.0
  0
LINE
  5
10556
330
102ED
100
AcDbEntity
  8
1
  6
Continuous
100
AcDbLine
 10
269.9036709999999
 20
378.000962
 30
0.0
 11
271.4036709999999
 21
379.500962
 31
0.0
  0
LINE
  5
10557
330
102ED
100
AcDbEntity
  8
4
  6
CENTER
100
AcDbLine
 10
266.9036709999999
 20
379.500962
 30
0.0
 11
281.4036709999999
 21
379.500962
 31
0.0
  0
LINE
  5
10558
330
102ED
100
AcDbEntity
  8
1
  6
Continuous
100
AcDbLine
 10
276.9036709999999
 20
394.500962
 30
0.0
 11
272.9036709999999
 21
394.500962
 31
0.0
  0
LINE
  5
10559
330
102ED
100
AcDbEntity
  8
1
  6
Continuous
100
AcDbLine
 10
271.4036709999999
 20
393.500962
 30
0.0
 11
272.9036709999999
 21
393.500962
 31
0.0
  0
LINE
  5
1055A
330
102ED
100
AcDbEntity
  8
1
  6
Continuous
100
AcDbLine
 10
276.9036709999999
 20
393.500962
 30
0.0
 11
278.4036709999999
 21
393.500962
 31
0.0
  0
LINE
  5
1055B
330
102ED
100
AcDbEntity
  8
1
  6
Continuous
100
AcDbLine
 10
278.4036709999999
 20
392.459292
 30
0.0
 11
276.9036709999999
 21
392.459292
 31
0.0
  0
LINE
  5
1055C
330
102ED
100
AcDbEntity
  8
1
  6
Continuous
100
AcDbLine
 10
278.4036709999999
 20
390.8499569999997
 30
0.0
 11
276.9036709999999
 21
390.8499569999997
 31
0.0
  0
LINE
  5
1055D
330
102ED
100
AcDbEntity
  8
1
  6
Continuous
100
AcDbLine
 10
273.793399
 20
379.500962
 30
0.0
 11
276.0139429999999
 21
379.500962
 31
0.0
  0
ARC
  5
1055E
330
102ED
100
AcDbEntity
  8
1
  6
Continuous
100
AcDbCircle
 10
304.959339
 20
387.000962
 30
0.0
 40
32.055667
100
AcDbArc
 50
166.4692029999999
 51
193.530797
  0
ARC
  5
1055F
330
102ED
100
AcDbEntity
  8
1
  6
Continuous
100
AcDbCircle
 10
244.848004
 20
387.000962
 30
0.0
 40
32.055667
100
AcDbArc
 50
346.469203
 51
13.530797
  0
LINE
  5
10560
330
102ED
100
AcDbEntity
  8
1
  6
Continuous
100
AcDbLine
 10
319.076481
 20
388.500962
 30
0.0
 11
319.076481
 21
370.500962
 31
0.0
  0
LINE
  5
10561
330
102ED
100
AcDbEntity
  8
1
  6
Continuous
100
AcDbLine
 10
315.876481
 20
388.500962
 30
0.0
 11
315.876481
 21
370.500962
 31
0.0
  0
LINE
  5
10562
330
102ED
100
AcDbEntity
  8
1
  6
Continuous
100
AcDbLine
 10
319.076481
 20
370.500962
 30
0.0
 11
315.876481
 21
370.500962
 31
0.0
  0
LINE
  5
10563
330
102ED
100
AcDbEntity
  8
1
  6
Continuous
100
AcDbLine
 10
319.076481
 20
388.500962
 30
0.0
 11
315.876481
 21
388.500962
 31
0.0
  0
LINE
  5
10564
330
102ED
100
AcDbEntity
  8
1
  6
Continuous
100
AcDbLine
 10
324.5150779999999
 20
388.500962
 30
0.0
 11
324.5150779999999
 21
370.500962
 31
0.0
  0
LINE
  5
10565
330
102ED
100
AcDbEntity
  8
1
  6
Continuous
100
AcDbLine
 10
322.9150779999998
 20
388.500962
 30
0.0
 11
322.9150779999998
 21
370.500962
 31
0.0
  0
LINE
  5
10566
330
102ED
100
AcDbEntity
  8
1
  6
Continuous
100
AcDbLine
 10
343.104555
 20
387.500962
 30
0.0
 11
343.104555
 21
371.500962
 31
0.0
  0
LINE
  5
10567
330
102ED
100
AcDbEntity
  8
1
  6
Continuous
100
AcDbLine
 10
341.9045549999997
 20
387.500962
 30
0.0
 11
341.9045549999997
 21
371.500962
 31
0.0
  0
LINE
  5
10568
330
102ED
100
AcDbEntity
  8
1
  6
Continuous
100
AcDbLine
 10
324.5150779999999
 20
370.500962
 30
0.0
 11
322.9150779999998
 21
370.500962
 31
0.0
  0
LINE
  5
10569
330
102ED
100
AcDbEntity
  8
1
  6
Continuous
100
AcDbLine
 10
343.104555
 20
371.500962
 30
0.0
 11
341.9045549999997
 21
371.500962
 31
0.0
  0
LINE
  5
1056A
330
102ED
100
AcDbEntity
  8
1
  6
Continuous
100
AcDbLine
 10
324.5150779999999
 20
388.500962
 30
0.0
 11
322.9150779999998
 21
388.500962
 31
0.0
  0
LINE
  5
1056B
330
102ED
100
AcDbEntity
  8
1
  6
Continuous
100
AcDbLine
 10
347.9045549999999
 20
383.500962
 30
0.0
 11
344.4045549999998
 21
383.500962
 31
0.0
  0
ARC
  5
1056C
330
102ED
100
AcDbEntity
  8
1
  6
Continuous
100
AcDbCircle
 10
342.1295779999999
 20
377.500962
 30
0.0
 40
5.774976999999998
100
AcDbArc
 50
339.7375
 51
20.2625
  0
ARC
  5
1056D
330
102ED
100
AcDbEntity
  8
1
  6
Continuous
100
AcDbCircle
 10
350.1795319999998
 20
377.500962
 30
0.0
 40
5.774976999999998
100
AcDbArc
 50
159.7375
 51
200.2625
  0
LINE
  5
1056E
330
102ED
100
AcDbEntity
  8
1
  6
Continuous
100
AcDbLine
 10
347.9045549999999
 20
375.500962
 30
0.0
 11
344.4045549999998
 21
375.500962
 31
0.0
  0
LINE
  5
1056F
330
102ED
100
AcDbEntity
  8
1
  6
Continuous
100
AcDbLine
 10
344.761935
 20
379.500962
 30
0.0
 11
347.547175
 21
379.500962
 31
0.0
  0
LINE
  5
10570
330
102ED
100
AcDbEntity
  8
1
  6
Continuous
100
AcDbLine
 10
347.9045549999999
 20
383.500962
 30
0.0
 11
347.9045549999999
 21
375.500962
 31
0.0
  0
ARC
  5
10571
330
102ED
100
AcDbEntity
  8
1
  6
Continuous
100
AcDbCircle
 10
350.1795319999998
 20
381.500962
 30
0.0
 40
5.774976999999998
100
AcDbArc
 50
159.7375
 51
200.2625
  0
ARC
  5
10572
330
102ED
100
AcDbEntity
  8
1
  6
Continuous
100
AcDbCircle
 10
342.1295779999999
 20
381.500962
 30
0.0
 40
5.774976999999998
100
AcDbArc
 50
339.7375
 51
20.2625
  0
LINE
  5
10573
330
102ED
100
AcDbEntity
  8
1
  6
Continuous
100
AcDbLine
 10
343.104555
 20
387.500962
 30
0.0
 11
341.9045549999997
 21
387.500962
 31
0.0
  0
LINE
  5
10574
330
102ED
100
AcDbEntity
  8
1
  6
Continuous
100
AcDbLine
 10
344.4045549999998
 20
374.9009619999998
 30
0.0
 11
344.4045549999998
 21
384.1009619999999
 31
0.0
  0
LINE
  5
10575
330
102ED
100
AcDbEntity
  8
1
  6
Continuous
100
AcDbLine
 10
344.4045549999998
 20
374.9009619999998
 30
0.0
 11
343.104555
 21
374.9009619999998
 31
0.0
  0
LINE
  5
10576
330
102ED
100
AcDbEntity
  8
1
  6
Continuous
100
AcDbLine
 10
344.4045549999998
 20
384.1009619999999
 30
0.0
 11
343.104555
 21
384.1009619999999
 31
0.0
  0
LINE
  5
10577
330
102ED
100
AcDbEntity
  8
1
  6
Continuous
100
AcDbLine
 10
344.4045549999998
 20
379.500962
 30
0.0
 11
343.104555
 21
378.200962
 31
0.0
  0
LINE
  5
10578
330
102ED
100
AcDbEntity
  8
1
  6
Continuous
100
AcDbLine
 10
344.4045549999998
 20
380.800962
 30
0.0
 11
343.104555
 21
379.500962
 31
0.0
  0
LINE
  5
10579
330
102ED
100
AcDbEntity
  8
4
  6
CENTER
100
AcDbLine
 10
350.9045549999997
 20
379.500962
 30
0.0
 11
338.9045549999999
 21
379.500962
 31
0.0
  0
ARC
  5
1057A
330
102ED
100
AcDbEntity
  8
1
  6
Continuous
100
AcDbCircle
 10
233.9077679999999
 20
379.500962
 30
0.0
 40
61.0
100
AcDbArc
 50
172.4640909999999
 51
187.535909
  0
ARC
  5
1057B
330
102ED
100
AcDbEntity
  8
1
  6
Continuous
100
AcDbCircle
 10
233.9077679999999
 20
72.553573
 30
0.0
 40
61.0
100
AcDbArc
 50
172.4640909999999
 51
187.535909
  0
ARC
  5
1057C
330
102ED
100
AcDbEntity
  8
1
  6
Continuous
100
AcDbCircle
 10
233.9077679999999
 20
72.553573
 30
0.0
 40
60.5
100
AcDbArc
 50
169.764998
 51
190.2350019999999
  0
LINE
  5
1057D
330
102ED
100
AcDbEntity
  8
1
  6
Continuous
100
AcDbLine
 10
173.939026
 20
64.553573
 30
0.0
 11
173.4346329999999
 21
64.553573
 31
0.0
  0
LINE
  5
1057E
330
102ED
100
AcDbEntity
  8
1
  6
Continuous
100
AcDbLine
 10
174.8786429999999
 20
61.803573
 30
0.0
 11
174.370489
 21
61.803573
 31
0.0
  0
LINE
  5
1057F
330
102ED
100
AcDbEntity
  8
1
  6
Continuous
100
AcDbLine
 10
173.939026
 20
80.553573
 30
0.0
 11
173.4346329999999
 21
80.553573
 31
0.0
  0
LINE
  5
10580
330
102ED
100
AcDbEntity
  8
1
  6
Continuous
100
AcDbLine
 10
174.8786429999999
 20
83.30357300000001
 30
0.0
 11
174.370489
 21
83.30357300000001
 31
0.0
  0
ARC
  5
10581
330
102ED
100
AcDbEntity
  8
1
  6
Continuous
100
AcDbCircle
 10
234.007768
 20
72.553573
 30
0.0
 40
60.0
100
AcDbArc
 50
168.760227
 51
191.2397729999999
  0
ARC
  5
10582
330
102ED
100
AcDbEntity
  8
1
  6
Continuous
100
AcDbCircle
 10
240.007768
 20
72.553573
 30
0.0
 40
60.0
100
AcDbArc
 50
173.510252
 51
186.4897479999999
  0
ARC
  5
10583
330
102ED
100
AcDbEntity
  8
1
  6
Continuous
100
AcDbCircle
 10
181.3858339999999
 20
79.22207299999998
 30
0.0
 40
1.0
100
AcDbArc
 50
90.0
 51
173.510252
  0
ARC
  5
10584
330
102ED
100
AcDbEntity
  8
1
  6
Continuous
100
AcDbCircle
 10
181.3858339999999
 20
65.88507299999999
 30
0.0
 40
1.0
100
AcDbArc
 50
186.4897479999999
 51
270.0
  0
ARC
  5
10585
330
102ED
100
AcDbEntity
  8
1
  6
Continuous
100
AcDbCircle
 10
233.9077679999999
 20
379.500962
 30
0.0
 40
60.5
100
AcDbArc
 50
169.764998
 51
190.2350019999999
  0
ARC
  5
10586
330
102ED
100
AcDbEntity
  8
1
  6
Continuous
100
AcDbCircle
 10
233.9077679999999
 20
379.500962
 30
0.0
 40
60.0
100
AcDbArc
 50
168.760227
 51
169.678776
  0
ARC
  5
10587
330
102ED
100
AcDbEntity
  8
1
  6
Continuous
100
AcDbCircle
 10
176.0393819999999
 20
391.000962
 30
0.0
 40
1.0
100
AcDbArc
 50
90.0
 51
168.760227
  0
ARC
  5
10588
330
102ED
100
AcDbEntity
  8
1
  6
Continuous
100
AcDbCircle
 10
176.0393819999999
 20
368.000962
 30
0.0
 40
1.0
100
AcDbArc
 50
191.2397729999999
 51
270.0
  0
ARC
  5
10589
330
102ED
100
AcDbEntity
  8
1
  6
Continuous
100
AcDbCircle
 10
233.9077679999999
 20
379.500962
 30
0.0
 40
60.0
100
AcDbArc
 50
190.321224
 51
191.2397729999999
  0
ARC
  5
1058A
330
102ED
100
AcDbEntity
  8
1
  6
Continuous
100
AcDbCircle
 10
176.139382
 20
84.053573
 30
0.0
 40
1.0
100
AcDbArc
 50
90.0
 51
168.760227
  0
ARC
  5
1058B
330
102ED
100
AcDbEntity
  8
1
  6
Continuous
100
AcDbCircle
 10
176.139382
 20
61.053573
 30
0.0
 40
1.0
100
AcDbArc
 50
191.2397729999999
 51
270.0
  0
ARC
  5
1058C
330
102ED
100
AcDbEntity
  8
1
  6
Continuous
100
AcDbCircle
 10
233.9077679999999
 20
72.553573
 30
0.0
 40
60.0
100
AcDbArc
 50
168.760227
 51
169.678776
  0
ARC
  5
1058D
330
102ED
100
AcDbEntity
  8
1
  6
Continuous
100
AcDbCircle
 10
176.0393819999999
 20
84.053573
 30
0.0
 40
1.0
100
AcDbArc
 50
90.0
 51
168.760227
  0
ARC
  5
1058E
330
102ED
100
AcDbEntity
  8
1
  6
Continuous
100
AcDbCircle
 10
176.0393819999999
 20
61.053573
 30
0.0
 40
1.0
100
AcDbArc
 50
191.2397729999999
 51
270.0
  0
ARC
  5
1058F
330
102ED
100
AcDbEntity
  8
1
  6
Continuous
100
AcDbCircle
 10
233.9077679999999
 20
72.553573
 30
0.0
 40
60.0
100
AcDbArc
 50
190.321224
 51
191.2397729999999
  0
LINE
  5
10590
330
102ED
100
AcDbEntity
  8
1
  6
Continuous
100
AcDbLine
 10
175.50492
 20
84.826527
 30
0.0
 11
180.7198849999998
 21
79.96807099999998
 31
0.0
  0
LINE
  5
10591
330
102ED
100
AcDbEntity
  8
1
  6
Continuous
100
AcDbLine
 10
180.7198849999998
 20
65.139076
 30
0.0
 11
175.50492
 21
60.28061999999999
 31
0.0
  0
LINE
  5
10592
330
102ED
100
AcDbEntity
  8
1
  6
Continuous
100
AcDbLine
 10
742.8892179999997
 20
165.3248659999999
 30
0.0
 11
748.1053000000001
 21
230.538297
 31
0.0
  0
ARC
  5
10593
330
102ED
100
AcDbEntity
  8
1
  6
Continuous
100
AcDbCircle
 10
736.7420029999997
 20
172.999045
 30
0.0
 40
6.0
100
AcDbArc
 50
135.0
 51
180.0
  0
ARC
  5
10594
330
102ED
100
AcDbEntity
  8
1
  6
Continuous
100
AcDbCircle
 10
737.7420029999997
 20
170.484326
 30
0.0
 40
7.0
100
AcDbArc
 50
180.0
 51
270.0
  0
LINE
  5
10595
330
102ED
100
AcDbEntity
  8
1
  6
Continuous
100
AcDbLine
 10
740.8955849999999
 20
163.484326
 30
0.0
 11
737.7420029999997
 21
163.484326
 31
0.0
  0
ARC
  5
10596
330
102ED
100
AcDbEntity
  8
1
  6
Continuous
100
AcDbCircle
 10
740.8955849999999
 20
165.4843259999998
 30
0.0
 40
2.0
100
AcDbArc
 50
270.0
 51
355.426945
  0
LINE
  5
10597
330
102ED
100
AcDbEntity
  8
1
  6
Continuous
100
AcDbLine
 10
730.7420029999997
 20
172.999045
 30
0.0
 11
730.7420029999997
 21
170.484326
 31
0.0
  0
LINE
  5
10598
330
102ED
100
AcDbEntity
  8
1
  6
Continuous
100
AcDbLine
 10
690.6420030000001
 20
272.9843259999999
 30
0.0
 11
690.6420030000001
 21
253.984326
 31
0.0
  0
LINE
  5
10599
330
102ED
100
AcDbEntity
  8
2
  6
Continuous
100
AcDbLine
 10
685.742003
 20
268.946206
 30
0.0
 11
690.4420029999997
 21
263.4843259999997
 31
0.0
  0
LINE
  5
1059A
330
102ED
100
AcDbEntity
  8
2
  6
Continuous
100
AcDbLine
 10
685.742003
 20
263.4843259999997
 30
0.0
 11
690.4420029999997
 21
268.946206
 31
0.0
  0
LINE
  5
1059B
330
102ED
100
AcDbEntity
  8
1
  6
Continuous
100
AcDbLine
 10
690.4420029999997
 20
256.684326
 30
0.0
 11
690.4420029999997
 21
270.2843259999997
 31
0.0
  0
LINE
  5
1059C
330
102ED
100
AcDbEntity
  8
1
  6
Continuous
100
AcDbLine
 10
685.4420029999999
 20
268.646206
 30
0.0
 11
685.4420029999999
 21
258.322447
 31
0.0
  0
LINE
  5
1059D
330
102ED
100
AcDbEntity
  8
1
  6
Continuous
100
AcDbLine
 10
717.1920029999999
 20
277.2906129999999
 30
0.0
 11
717.1920029999999
 21
249.678039
 31
0.0
  0
LINE
  5
1059E
330
102ED
100
AcDbEntity
  8
1
  6
Continuous
100
AcDbLine
 10
717.2420029999998
 20
249.4843259999999
 30
0.0
 11
717.2420029999998
 21
277.4843259999999
 31
0.0
  0
LINE
  5
1059F
330
102ED
100
AcDbEntity
  8
1
  6
Continuous
100
AcDbLine
 10
709.2420029999998
 20
285.4843259999999
 30
0.0
 11
709.2420029999998
 21
241.484326
 31
0.0
  0
LINE
  5
105A0
330
102ED
100
AcDbEntity
  8
1
  6
Continuous
100
AcDbLine
 10
705.7420030000002
 20
287.4843259999999
 30
0.0
 11
705.7420030000002
 21
239.484326
 31
0.0
  0
LINE
  5
105A1
330
102ED
100
AcDbEntity
  8
1
  6
Continuous
100
AcDbLine
 10
704.7420029999998
 20
287.4843259999999
 30
0.0
 11
704.7420029999998
 21
239.484326
 31
0.0
  0
LINE
  5
105A2
330
102ED
100
AcDbEntity
  8
1
  6
Continuous
100
AcDbLine
 10
741.5420029999997
 20
280.4843259999996
 30
0.0
 11
741.5420029999997
 21
246.4843259999999
 31
0.0
  0
LINE
  5
105A3
330
102ED
100
AcDbEntity
  8
1
  6
Continuous
100
AcDbLine
 10
741.642003
 20
280.4843259999996
 30
0.0
 11
741.642003
 21
246.7843259999999
 31
0.0
  0
LINE
  5
105A4
330
102ED
100
AcDbEntity
  8
1
  6
Continuous
100
AcDbLine
 10
749.342003
 20
279.4843259999999
 30
0.0
 11
749.342003
 21
246.4843259999999
 31
0.0
  0
LINE
  5
105A5
330
102ED
100
AcDbEntity
  8
1
  6
Continuous
100
AcDbLine
 10
748.3792809999998
 20
277.9976259999999
 30
0.0
 11
748.3792809999998
 21
246.4843259999999
 31
0.0
  0
LINE
  5
105A6
330
102ED
100
AcDbEntity
  8
1
  6
Continuous
100
AcDbLine
 10
747.8711269999998
 20
277.9976259999999
 30
0.0
 11
747.8711269999998
 21
246.4843259999999
 31
0.0
  0
ARC
  5
105A7
330
102ED
100
AcDbEntity
  8
1
  6
Continuous
100
AcDbCircle
 10
729.7420029999997
 20
246.1628339999998
 30
0.0
 40
6.0
100
AcDbArc
 50
0.0
 51
84.559668
  0
LINE
  5
105A8
330
102ED
100
AcDbEntity
  8
4
  6
CENTER
100
AcDbLine
 10
755.4928069999997
 20
263.4843259999997
 30
0.0
 11
681.9160920000001
 21
263.4843259999997
 31
0.0
  0
LINE
  5
105A9
330
102ED
100
AcDbEntity
  8
1
  6
Continuous
100
AcDbLine
 10
735.5303
 20
247.7425839999999
 30
0.0
 11
717.2420029999998
 21
249.4843259999999
 31
0.0
  0
LINE
  5
105AA
330
102ED
100
AcDbEntity
  8
1
  6
Continuous
100
AcDbLine
 10
735.7420029999997
 20
246.1628339999998
 30
0.0
 11
735.7420029999997
 21
182.9696079999999
 31
0.0
  0
ARC
  5
105AB
330
102ED
100
AcDbEntity
  8
1
  6
Continuous
100
AcDbCircle
 10
729.7420029999997
 20
182.9696079999999
 30
0.0
 40
6.0
100
AcDbArc
 50
315.0
 51
0.0
  0
LINE
  5
105AC
330
102ED
100
AcDbEntity
  8
1
  6
Continuous
100
AcDbLine
 10
732.499362
 20
177.2416859999999
 30
0.0
 11
733.984643
 21
178.726967
 31
0.0
  0
ARC
  5
105AD
330
102ED
100
AcDbEntity
  8
1
  6
Continuous
100
AcDbCircle
 10
548.742003
 20
246.4843259999999
 30
0.0
 40
200.0
100
AcDbArc
 50
355.426945
 51
0.0
  0
LINE
  5
105AE
330
102ED
100
AcDbEntity
  8
1
  6
Continuous
100
AcDbLine
 10
741.5420029999997
 20
246.4843259999999
 30
0.0
 11
749.342003
 21
246.4843259999999
 31
0.0
  0
LINE
  5
105AF
330
102ED
100
AcDbEntity
  8
1
  6
Continuous
100
AcDbLine
 10
749.842003
 20
249.984326
 30
0.0
 11
749.342003
 21
249.4843259999999
 31
0.0
  0
LINE
  5
105B0
330
102ED
100
AcDbEntity
  8
1
  6
Continuous
100
AcDbLine
 10
749.342003
 20
250.4843259999999
 30
0.0
 11
749.842003
 21
249.984326
 31
0.0
  0
LINE
  5
105B1
330
102ED
100
AcDbEntity
  8
1
  6
Continuous
100
AcDbLine
 10
749.842003
 20
250.9843259999999
 30
0.0
 11
749.342003
 21
250.4843259999999
 31
0.0
  0
LINE
  5
105B2
330
102ED
100
AcDbEntity
  8
1
  6
Continuous
100
AcDbLine
 10
749.342003
 20
251.4843259999999
 30
0.0
 11
749.842003
 21
250.9843259999999
 31
0.0
  0
LINE
  5
105B3
330
102ED
100
AcDbEntity
  8
1
  6
Continuous
100
AcDbLine
 10
749.842003
 20
251.984326
 30
0.0
 11
749.342003
 21
251.4843259999999
 31
0.0
  0
LINE
  5
105B4
330
102ED
100
AcDbEntity
  8
1
  6
Continuous
100
AcDbLine
 10
749.342003
 20
252.4843259999999
 30
0.0
 11
749.842003
 21
251.984326
 31
0.0
  0
LINE
  5
105B5
330
102ED
100
AcDbEntity
  8
1
  6
Continuous
100
AcDbLine
 10
749.842003
 20
252.9843259999999
 30
0.0
 11
749.342003
 21
252.4843259999999
 31
0.0
  0
LINE
  5
105B6
330
102ED
100
AcDbEntity
  8
1
  6
Continuous
100
AcDbLine
 10
749.342003
 20
253.4843259999999
 30
0.0
 11
749.842003
 21
252.9843259999999
 31
0.0
  0
LINE
  5
105B7
330
102ED
100
AcDbEntity
  8
1
  6
Continuous
100
AcDbLine
 10
749.842003
 20
253.984326
 30
0.0
 11
749.342003
 21
253.4843259999999
 31
0.0
  0
LINE
  5
105B8
330
102ED
100
AcDbEntity
  8
1
  6
Continuous
100
AcDbLine
 10
749.342003
 20
254.4843259999999
 30
0.0
 11
749.842003
 21
253.984326
 31
0.0
  0
LINE
  5
105B9
330
102ED
100
AcDbEntity
  8
1
  6
Continuous
100
AcDbLine
 10
749.842003
 20
254.9843259999999
 30
0.0
 11
749.342003
 21
254.4843259999999
 31
0.0
  0
LINE
  5
105BA
330
102ED
100
AcDbEntity
  8
1
  6
Continuous
100
AcDbLine
 10
749.342003
 20
255.4843259999999
 30
0.0
 11
749.842003
 21
254.9843259999999
 31
0.0
  0
LINE
  5
105BB
330
102ED
100
AcDbEntity
  8
1
  6
Continuous
100
AcDbLine
 10
749.842003
 20
255.984326
 30
0.0
 11
749.342003
 21
255.4843259999999
 31
0.0
  0
LINE
  5
105BC
330
102ED
100
AcDbEntity
  8
1
  6
Continuous
100
AcDbLine
 10
749.342003
 20
256.4843259999999
 30
0.0
 11
749.842003
 21
255.984326
 31
0.0
  0
LINE
  5
105BD
330
102ED
100
AcDbEntity
  8
1
  6
Continuous
100
AcDbLine
 10
749.842003
 20
256.9843259999997
 30
0.0
 11
749.342003
 21
256.4843259999999
 31
0.0
  0
LINE
  5
105BE
330
102ED
100
AcDbEntity
  8
1
  6
Continuous
100
AcDbLine
 10
749.342003
 20
257.4843259999997
 30
0.0
 11
749.842003
 21
256.9843259999997
 31
0.0
  0
LINE
  5
105BF
330
102ED
100
AcDbEntity
  8
1
  6
Continuous
100
AcDbLine
 10
749.842003
 20
257.9843259999999
 30
0.0
 11
749.342003
 21
257.4843259999997
 31
0.0
  0
LINE
  5
105C0
330
102ED
100
AcDbEntity
  8
1
  6
Continuous
100
AcDbLine
 10
749.342003
 20
258.4843259999999
 30
0.0
 11
749.842003
 21
257.9843259999999
 31
0.0
  0
LINE
  5
105C1
330
102ED
100
AcDbEntity
  8
1
  6
Continuous
100
AcDbLine
 10
749.842003
 20
258.9843259999997
 30
0.0
 11
749.342003
 21
258.4843259999999
 31
0.0
  0
LINE
  5
105C2
330
102ED
100
AcDbEntity
  8
1
  6
Continuous
100
AcDbLine
 10
749.342003
 20
259.4843259999997
 30
0.0
 11
749.842003
 21
258.9843259999997
 31
0.0
  0
LINE
  5
105C3
330
102ED
100
AcDbEntity
  8
1
  6
Continuous
100
AcDbLine
 10
749.842003
 20
259.9843259999999
 30
0.0
 11
749.342003
 21
259.4843259999997
 31
0.0
  0
LINE
  5
105C4
330
102ED
100
AcDbEntity
  8
1
  6
Continuous
100
AcDbLine
 10
749.342003
 20
260.4843259999999
 30
0.0
 11
749.842003
 21
259.9843259999999
 31
0.0
  0
LINE
  5
105C5
330
102ED
100
AcDbEntity
  8
1
  6
Continuous
100
AcDbLine
 10
749.842003
 20
260.9843259999997
 30
0.0
 11
749.342003
 21
260.4843259999999
 31
0.0
  0
LINE
  5
105C6
330
102ED
100
AcDbEntity
  8
1
  6
Continuous
100
AcDbLine
 10
749.342003
 20
261.4843259999997
 30
0.0
 11
749.842003
 21
260.9843259999997
 31
0.0
  0
ARC
  5
105C7
330
102ED
100
AcDbEntity
  8
1
  6
Continuous
100
AcDbCircle
 10
741.942003
 20
246.7843259999999
 30
0.0
 40
0.3
100
AcDbArc
 50
180.0
 51
270.0
  0
LINE
  5
105C8
330
102ED
100
AcDbEntity
  8
1
  6
Continuous
100
AcDbLine
 10
690.8920030000001
 20
253.7343259999999
 30
0.0
 11
704.7420029999998
 21
253.7343259999999
 31
0.0
  0
LINE
  5
105C9
330
102ED
100
AcDbEntity
  8
1
  6
Continuous
100
AcDbLine
 10
717.062494
 20
249.342277
 30
0.0
 11
708.723967
 21
240.1412769999998
 31
0.0
  0
ARC
  5
105CA
330
102ED
100
AcDbEntity
  8
1
  6
Continuous
100
AcDbCircle
 10
707.2420029999998
 20
241.484326
 30
0.0
 40
2.0
100
AcDbArc
 50
270.0
 51
317.644685
  0
LINE
  5
105CB
330
102ED
100
AcDbEntity
  8
1
  6
Continuous
100
AcDbLine
 10
707.2420029999998
 20
239.484326
 30
0.0
 11
705.7420030000002
 21
239.484326
 31
0.0
  0
LINE
  5
105CC
330
102ED
100
AcDbEntity
  8
1
  6
Continuous
100
AcDbLine
 10
704.7420029999998
 20
239.484326
 30
0.0
 11
705.7420030000002
 21
239.484326
 31
0.0
  0
ARC
  5
105CD
330
102ED
100
AcDbEntity
  8
1
  6
Continuous
100
AcDbCircle
 10
707.2420029999998
 20
241.484326
 30
0.0
 40
2.0
100
AcDbArc
 50
317.644685
 51
0.0
  0
LINE
  5
105CE
330
102ED
100
AcDbEntity
  8
1
  6
Continuous
100
AcDbLine
 10
717.1114929999996
 20
253.253462
 30
0.0
 11
713.5816779999997
 21
249.8186529999999
 31
0.0
  0
ARC
  5
105CF
330
102ED
100
AcDbEntity
  8
1
  6
Continuous
100
AcDbCircle
 10
716.6920029999999
 20
249.678039
 30
0.0
 40
0.5
100
AcDbArc
 50
317.8151449999999
 51
0.0
  0
LINE
  5
105D0
330
102ED
100
AcDbEntity
  8
1
  6
Continuous
100
AcDbLine
 10
717.2420029999998
 20
254.4843259999999
 30
0.0
 11
717.1920029999999
 21
254.4843259999999
 31
0.0
  0
LINE
  5
105D1
330
102ED
100
AcDbEntity
  8
1
  6
Continuous
100
AcDbLine
 10
730.310857
 20
252.135806
 30
0.0
 11
717.609728
 21
253.345438
 31
0.0
  0
LINE
  5
105D2
330
102ED
100
AcDbEntity
  8
1
  6
Continuous
100
AcDbLine
 10
703.2420029999998
 20
243.9843259999999
 30
0.0
 11
703.2420029999998
 21
248.4843259999999
 31
0.0
  0
LINE
  5
105D3
330
102ED
100
AcDbEntity
  8
1
  6
Continuous
100
AcDbLine
 10
703.2420029999998
 20
248.4843259999999
 30
0.0
 11
704.7420029999998
 21
248.4843259999999
 31
0.0
  0
LINE
  5
105D4
330
102ED
100
AcDbEntity
  8
1
  6
Continuous
100
AcDbLine
 10
703.2420029999998
 20
243.9843259999999
 30
0.0
 11
704.7420029999998
 21
243.9843259999999
 31
0.0
  0
LINE
  5
105D5
330
102ED
100
AcDbEntity
  8
1
  6
Continuous
100
AcDbLine
 10
712.936509
 20
249.1908489999999
 30
0.0
 11
710.2420030000001
 21
246.568867
 31
0.0
  0
ARC
  5
105D6
330
102ED
100
AcDbEntity
  8
1
  6
Continuous
100
AcDbCircle
 10
685.742003
 20
258.322447
 30
0.0
 40
0.3
100
AcDbArc
 50
180.0
 51
270.0
  0
LINE
  5
105D7
330
102ED
100
AcDbEntity
  8
1
  6
Continuous
100
AcDbLine
 10
690.8920030000001
 20
253.7343259999999
 30
0.0
 11
690.6420030000001
 21
253.984326
 31
0.0
  0
ARC
  5
105D8
330
102ED
100
AcDbEntity
  8
1
  6
Continuous
100
AcDbCircle
 10
690.6420030000001
 20
256.684326
 30
0.0
 40
0.2
100
AcDbArc
 50
180.0
 51
270.0
  0
LINE
  5
105D9
330
102ED
100
AcDbEntity
  8
2
  6
Continuous
100
AcDbLine
 10
690.4420029999997
 20
258.022447
 30
0.0
 11
685.742003
 21
263.4843259999997
 31
0.0
  0
LINE
  5
105DA
330
102ED
100
AcDbEntity
  8
2
  6
Continuous
100
AcDbLine
 10
690.4420029999997
 20
263.4843259999997
 30
0.0
 11
685.742003
 21
258.022447
 31
0.0
  0
LINE
  5
105DB
330
102ED
100
AcDbEntity
  8
1
  6
Continuous
100
AcDbLine
 10
685.742003
 20
263.4843259999997
 30
0.0
 11
690.4420029999997
 21
263.4843259999997
 31
0.0
  0
LINE
  5
105DC
330
102ED
100
AcDbEntity
  8
1
  6
Continuous
100
AcDbLine
 10
685.742003
 20
258.022447
 30
0.0
 11
690.4420029999997
 21
258.022447
 31
0.0
  0
LINE
  5
105DD
330
102ED
100
AcDbEntity
  8
1
  6
Continuous
100
AcDbLine
 10
736.5717089999996
 20
276.5619939999999
 30
0.0
 11
717.8275489999997
 21
273.678277
 31
0.0
  0
LINE
  5
105DE
330
102ED
100
AcDbEntity
  8
1
  6
Continuous
100
AcDbLine
 10
735.986163
 20
280.368043
 30
0.0
 11
717.2420029999998
 21
277.4843259999999
 31
0.0
  0
LINE
  5
105DF
330
102ED
100
AcDbEntity
  8
1
  6
Continuous
100
AcDbLine
 10
748.3420029999997
 20
280.4843259999996
 30
0.0
 11
741.642003
 21
280.4843259999996
 31
0.0
  0
LINE
  5
105E0
330
102ED
100
AcDbEntity
  8
1
  6
Continuous
100
AcDbLine
 10
741.642003
 20
276.6334989999999
 30
0.0
 11
747.8711269999998
 21
276.6334989999999
 31
0.0
  0
ARC
  5
105E1
330
102ED
100
AcDbEntity
  8
1
  6
Continuous
100
AcDbCircle
 10
748.3420029999997
 20
279.4843259999999
 30
0.0
 40
1.0
100
AcDbArc
 50
0.0
 51
90.0
  0
LINE
  5
105E2
330
102ED
100
AcDbEntity
  8
1
  6
Continuous
100
AcDbLine
 10
741.642003
 20
278.8843259999998
 30
0.0
 11
741.5420029999997
 21
278.8843259999998
 31
0.0
  0
LINE
  5
105E3
330
102ED
100
AcDbEntity
  8
1
  6
Continuous
100
AcDbLine
 10
741.642003
 20
276.3513209999999
 30
0.0
 11
741.5420029999997
 21
276.3513209999999
 31
0.0
  0
LINE
  5
105E4
330
102ED
100
AcDbEntity
  8
1
  6
Continuous
100
AcDbLine
 10
741.642003
 20
278.52429
 30
0.0
 11
741.5420029999997
 21
278.52429
 31
0.0
  0
LINE
  5
105E5
330
102ED
100
AcDbEntity
  8
1
  6
Continuous
100
AcDbLine
 10
741.642003
 20
278.117634
 30
0.0
 11
741.5420029999997
 21
278.117634
 31
0.0
  0
ARC
  5
105E6
330
102ED
100
AcDbEntity
  8
1
  6
Continuous
100
AcDbCircle
 10
737.5067349999997
 20
270.4843259999999
 30
0.0
 40
10.0
100
AcDbArc
 50
90.0
 51
98.746162
  0
LINE
  5
105E7
330
102ED
100
AcDbEntity
  8
1
  6
Continuous
100
AcDbLine
 10
741.5420029999997
 20
280.4843259999996
 30
0.0
 11
737.5067349999997
 21
280.4843259999996
 31
0.0
  0
LINE
  5
105E8
330
102ED
100
AcDbEntity
  8
1
  6
Continuous
100
AcDbLine
 10
741.5420029999997
 20
276.6334989999999
 30
0.0
 11
737.5067349999997
 21
276.6334989999999
 31
0.0
  0
ARC
  5
105E9
330
102ED
100
AcDbEntity
  8
1
  6
Continuous
100
AcDbCircle
 10
737.5067349999997
 20
270.4843259999999
 30
0.0
 40
6.149172
100
AcDbArc
 50
90.0
 51
98.746162
  0
LINE
  5
105EA
330
102ED
100
AcDbEntity
  8
1
  6
Continuous
100
AcDbLine
 10
690.8920030000001
 20
273.2343259999999
 30
0.0
 11
704.7420029999998
 21
273.2343259999999
 31
0.0
  0
LINE
  5
105EB
330
102ED
100
AcDbEntity
  8
1
  6
Continuous
100
AcDbLine
 10
708.723967
 20
286.8273759999999
 30
0.0
 11
717.062494
 21
277.6263759999998
 31
0.0
  0
ARC
  5
105EC
330
102ED
100
AcDbEntity
  8
1
  6
Continuous
100
AcDbCircle
 10
707.2420029999998
 20
285.4843259999999
 30
0.0
 40
2.0
100
AcDbArc
 50
0.0
 51
42.35531499999999
  0
LINE
  5
105ED
330
102ED
100
AcDbEntity
  8
1
  6
Continuous
100
AcDbLine
 10
713.5816779999997
 20
277.1499989999999
 30
0.0
 11
717.1114929999996
 21
273.71519
 31
0.0
  0
ARC
  5
105EE
330
102ED
100
AcDbEntity
  8
1
  6
Continuous
100
AcDbCircle
 10
716.6920029999999
 20
277.2906129999999
 30
0.0
 40
0.5
100
AcDbArc
 50
0.0
 51
42.18485499999998
  0
LINE
  5
105EF
330
102ED
100
AcDbEntity
  8
1
  6
Continuous
100
AcDbLine
 10
717.1920029999999
 20
274.9843259999999
 30
0.0
 11
717.2420029999998
 21
274.9843259999999
 31
0.0
  0
LINE
  5
105F0
330
102ED
100
AcDbEntity
  8
1
  6
Continuous
100
AcDbLine
 10
703.2420029999998
 20
282.9843259999999
 30
0.0
 11
703.2420029999998
 21
278.4843259999997
 31
0.0
  0
LINE
  5
105F1
330
102ED
100
AcDbEntity
  8
1
  6
Continuous
100
AcDbLine
 10
703.2420029999998
 20
278.4843259999997
 30
0.0
 11
704.7420029999998
 21
278.4843259999997
 31
0.0
  0
LINE
  5
105F2
330
102ED
100
AcDbEntity
  8
1
  6
Continuous
100
AcDbLine
 10
703.2420029999998
 20
282.9843259999999
 30
0.0
 11
704.7420029999998
 21
282.9843259999999
 31
0.0
  0
LINE
  5
105F3
330
102ED
100
AcDbEntity
  8
1
  6
Continuous
100
AcDbLine
 10
710.2420030000001
 20
280.399785
 30
0.0
 11
712.936509
 21
277.7778029999999
 31
0.0
  0
ARC
  5
105F4
330
102ED
100
AcDbEntity
  8
1
  6
Continuous
100
AcDbCircle
 10
707.2420029999998
 20
285.4843259999999
 30
0.0
 40
2.0
100
AcDbArc
 50
42.35531499999999
 51
90.0
  0
LINE
  5
105F5
330
102ED
100
AcDbEntity
  8
1
  6
Continuous
100
AcDbLine
 10
707.2420029999998
 20
287.4843259999999
 30
0.0
 11
705.7420030000002
 21
287.4843259999999
 31
0.0
  0
LINE
  5
105F6
330
102ED
100
AcDbEntity
  8
1
  6
Continuous
100
AcDbLine
 10
704.7420029999998
 20
287.4843259999999
 30
0.0
 11
705.7420030000002
 21
287.4843259999999
 31
0.0
  0
ARC
  5
105F7
330
102ED
100
AcDbEntity
  8
1
  6
Continuous
100
AcDbCircle
 10
685.742003
 20
268.646206
 30
0.0
 40
0.3
100
AcDbArc
 50
90.0
 51
180.0
  0
LINE
  5
105F8
330
102ED
100
AcDbEntity
  8
1
  6
Continuous
100
AcDbLine
 10
690.6420030000001
 20
272.9843259999999
 30
0.0
 11
690.8920030000001
 21
273.2343259999999
 31
0.0
  0
ARC
  5
105F9
330
102ED
100
AcDbEntity
  8
1
  6
Continuous
100
AcDbCircle
 10
690.6420030000001
 20
270.2843259999997
 30
0.0
 40
0.2
100
AcDbArc
 50
90.0
 51
180.0
  0
LINE
  5
105FA
330
102ED
100
AcDbEntity
  8
1
  6
Continuous
100
AcDbLine
 10
685.742003
 20
268.946206
 30
0.0
 11
690.4420029999997
 21
268.946206
 31
0.0
  0
LINE
  5
105FB
330
102ED
100
AcDbEntity
  8
1
  6
Continuous
100
AcDbLine
 10
652.846099
 20
263.4843259999997
 30
0.0
 11
651.3460989999997
 21
261.9843259999999
 31
0.0
  0
ARC
  5
105FC
330
102ED
100
AcDbEntity
  8
1
  6
Continuous
100
AcDbCircle
 10
688.4386549999996
 20
263.4843259999997
 30
0.0
 40
42.592555
100
AcDbArc
 50
168.2683679999998
 51
191.7316319999999
  0
ARC
  5
105FD
330
102ED
100
AcDbEntity
  8
1
  6
Continuous
100
AcDbCircle
 10
607.253544
 20
263.4843259999997
 30
0.0
 40
42.592555
100
AcDbArc
 50
348.268368
 51
11.731632
  0
LINE
  5
105FE
330
102ED
100
AcDbEntity
  8
1
  6
Continuous
100
AcDbLine
 10
644.346099
 20
249.4843259999999
 30
0.0
 11
644.346099
 21
277.4843259999999
 31
0.0
  0
LINE
  5
105FF
330
102ED
100
AcDbEntity
  8
1
  6
Continuous
100
AcDbLine
 10
651.3460989999997
 20
277.4843259999999
 30
0.0
 11
651.3460989999997
 21
249.4843259999999
 31
0.0
  0
LINE
  5
10600
330
102ED
100
AcDbEntity
  8
1
  6
Continuous
100
AcDbLine
 10
645.8460989999998
 20
248.484324
 30
0.0
 11
645.8460989999998
 21
278.484328
 31
0.0
  0
LINE
  5
10601
330
102ED
100
AcDbEntity
  8
1
  6
Continuous
100
AcDbLine
 10
649.8460989999998
 20
248.4843259999999
 30
0.0
 11
649.8460989999998
 21
278.4843259999997
 31
0.0
  0
LINE
  5
10602
330
102ED
100
AcDbEntity
  8
1
  6
Continuous
100
AcDbLine
 10
652.846099
 20
275.4843259999999
 30
0.0
 11
652.846099
 21
251.4843259999999
 31
0.0
  0
LINE
  5
10603
330
102ED
100
AcDbEntity
  8
1
  6
Continuous
100
AcDbLine
 10
574.8452150000002
 20
267.484826
 30
0.0
 11
574.8452150000002
 21
259.484826
 31
0.0
  0
ARC
  5
10604
330
102ED
100
AcDbEntity
  8
1
  6
Continuous
100
AcDbCircle
 10
570.7041699999997
 20
263.4843259999997
 30
0.0
 40
7.641045
100
AcDbArc
 50
342.4072529999999
 51
17.59274699999998
  0
ARC
  5
10605
330
102ED
100
AcDbEntity
  8
1
  6
Continuous
100
AcDbCircle
 10
582.48626
 20
263.4843259999997
 30
0.0
 40
7.641045
100
AcDbArc
 50
162.407253
 51
197.592747
  0
LINE
  5
10606
330
102ED
100
AcDbEntity
  8
1
  6
Continuous
100
AcDbLine
 10
578.3452150000001
 20
262.1843259999999
 30
0.0
 11
579.645215
 21
263.4843259999997
 31
0.0
  0
LINE
  5
10607
330
102ED
100
AcDbEntity
  8
1
  6
Continuous
100
AcDbLine
 10
578.3452150000001
 20
258.865524
 30
0.0
 11
578.3452150000001
 21
268.1031279999999
 31
0.0
  0
LINE
  5
10608
330
102ED
100
AcDbEntity
  8
1
  6
Continuous
100
AcDbLine
 10
580.8452150000001
 20
271.4843259999997
 30
0.0
 11
580.8452150000001
 21
255.4843259999999
 31
0.0
  0
LINE
  5
10609
330
102ED
100
AcDbEntity
  8
1
  6
Continuous
100
AcDbLine
 10
579.645215
 20
271.4843259999997
 30
0.0
 11
579.645215
 21
255.4843259999999
 31
0.0
  0
LINE
  5
1060A
330
102ED
100
AcDbEntity
  8
1
  6
Continuous
100
AcDbLine
 10
599.834692
 20
272.4843259999999
 30
0.0
 11
599.834692
 21
254.4843259999999
 31
0.0
  0
LINE
  5
1060B
330
102ED
100
AcDbEntity
  8
1
  6
Continuous
100
AcDbLine
 10
598.234692
 20
272.4843259999999
 30
0.0
 11
598.234692
 21
254.4843259999999
 31
0.0
  0
LINE
  5
1060C
330
102ED
100
AcDbEntity
  8
1
  6
Continuous
100
AcDbLine
 10
606.8732889999997
 20
272.4843259999999
 30
0.0
 11
606.8732889999997
 21
254.4843259999999
 31
0.0
  0
LINE
  5
1060D
330
102ED
100
AcDbEntity
  8
1
  6
Continuous
100
AcDbLine
 10
603.6732889999998
 20
272.4843259999999
 30
0.0
 11
603.6732889999998
 21
254.4843259999999
 31
0.0
  0
LINE
  5
1060E
330
102ED
100
AcDbEntity
  8
4
  6
CENTER
100
AcDbLine
 10
595.234692
 20
263.4843259999997
 30
0.0
 11
609.8732889999999
 21
263.4843259999997
 31
0.0
  0
LINE
  5
1060F
330
102ED
100
AcDbEntity
  8
1
  6
Continuous
100
AcDbLine
 10
652.846099
 20
264.9843259999999
 30
0.0
 11
651.3460989999997
 21
263.4843259999997
 31
0.0
  0
ARC
  5
10610
330
102ED
100
AcDbEntity
  8
1
  6
Continuous
100
AcDbCircle
 10
652.0960989999998
 20
251.4843259999999
 30
0.0
 40
0.75
100
AcDbArc
 50
180.0
 51
0.0
  0
LINE
  5
10611
330
102ED
100
AcDbEntity
  8
4
  6
CENTER
100
AcDbLine
 10
655.846099
 20
263.4843259999997
 30
0.0
 11
641.3460989999999
 21
263.4843259999997
 31
0.0
  0
LINE
  5
10612
330
102ED
100
AcDbEntity
  8
1
  6
Continuous
100
AcDbLine
 10
644.346099
 20
257.7545989999999
 30
0.0
 11
645.8460989999998
 21
257.7545989999999
 31
0.0
  0
LINE
  5
10613
330
102ED
100
AcDbEntity
  8
1
  6
Continuous
100
AcDbLine
 10
644.346099
 20
255.286745
 30
0.0
 11
645.8460989999998
 21
255.286745
 31
0.0
  0
LINE
  5
10614
330
102ED
100
AcDbEntity
  8
1
  6
Continuous
100
AcDbLine
 10
646.735827
 20
254.824072
 30
0.0
 11
648.9563709999997
 21
254.824072
 31
0.0
  0
LINE
  5
10615
330
102ED
100
AcDbEntity
  8
1
  6
Continuous
100
AcDbLine
 10
647.185844
 20
246.163818
 30
0.0
 11
645.8460979999999
 21
248.4843259999999
 31
0.0
  0
LINE
  5
10616
330
102ED
100
AcDbEntity
  8
1
  6
Continuous
100
AcDbLine
 10
648.5063529999997
 20
246.163818
 30
0.0
 11
649.8460989999998
 21
248.4843259999999
 31
0.0
  0
LINE
  5
10617
330
102ED
100
AcDbEntity
  8
1
  6
Continuous
100
AcDbLine
 10
647.185844
 20
246.163818
 30
0.0
 11
648.5063539999997
 21
246.163818
 31
0.0
  0
LINE
  5
10618
330
102ED
100
AcDbEntity
  8
1
  6
Continuous
100
AcDbLine
 10
644.346099
 20
249.4843259999999
 30
0.0
 11
645.8460989999998
 21
249.4843259999999
 31
0.0
  0
LINE
  5
10619
330
102ED
100
AcDbEntity
  8
1
  6
Continuous
100
AcDbLine
 10
645.8460989999998
 20
249.4843259999999
 30
0.0
 11
644.346099
 21
249.4843259999999
 31
0.0
  0
LINE
  5
1061A
330
102ED
100
AcDbEntity
  8
1
  6
Continuous
100
AcDbLine
 10
651.3460989999997
 20
249.4843259999999
 30
0.0
 11
649.8460989999998
 21
249.4843259999999
 31
0.0
  0
ARC
  5
1061B
330
102ED
100
AcDbEntity
  8
1
  6
Continuous
100
AcDbCircle
 10
656.827886
 20
250.493945
 30
0.0
 40
10.98178699999998
100
AcDbArc
 50
156.7776279999999
 51
193.240447
  0
ARC
  5
1061C
330
102ED
100
AcDbEntity
  8
1
  6
Continuous
100
AcDbCircle
 10
638.864312
 20
250.493945
 30
0.0
 40
10.98178699999998
100
AcDbArc
 50
346.759569
 51
23.222372
  0
LINE
  5
1061D
330
102ED
100
AcDbEntity
  8
1
  6
Continuous
100
AcDbLine
 10
603.6732889999998
 20
254.4843259999999
 30
0.0
 11
606.8732889999997
 21
254.4843259999999
 31
0.0
  0
LINE
  5
1061E
330
102ED
100
AcDbEntity
  8
1
  6
Continuous
100
AcDbLine
 10
598.234692
 20
254.4843259999999
 30
0.0
 11
599.834692
 21
254.4843259999999
 31
0.0
  0
LINE
  5
1061F
330
102ED
100
AcDbEntity
  8
1
  6
Continuous
100
AcDbLine
 10
574.8452150000002
 20
259.484826
 30
0.0
 11
575.202595
 21
258.8658259999998
 31
0.0
  0
ARC
  5
10620
330
102ED
100
AcDbEntity
  8
1
  6
Continuous
100
AcDbCircle
 10
576.890301
 20
260.020826
 30
0.0
 40
2.045087
100
AcDbArc
 50
145.613799
 51
205.613799
  0
LINE
  5
10621
330
102ED
100
AcDbEntity
  8
1
  6
Continuous
100
AcDbLine
 10
579.645215
 20
255.4843259999999
 30
0.0
 11
580.8452150000001
 21
255.4843259999999
 31
0.0
  0
ARC
  5
10622
330
102ED
100
AcDbEntity
  8
1
  6
Continuous
100
AcDbCircle
 10
576.300128
 20
260.020826
 30
0.0
 40
2.045087
100
AcDbArc
 50
334.3862009999999
 51
34.386201
  0
LINE
  5
10623
330
102ED
100
AcDbEntity
  8
1
  6
Continuous
100
AcDbLine
 10
578.3452150000001
 20
259.484826
 30
0.0
 11
577.987835
 21
258.8658259999998
 31
0.0
  0
LINE
  5
10624
330
102ED
100
AcDbEntity
  8
1
  6
Continuous
100
AcDbLine
 10
578.3452150000001
 20
263.4843259999997
 30
0.0
 11
579.645215
 21
264.7843259999999
 31
0.0
  0
LINE
  5
10625
330
102ED
100
AcDbEntity
  8
1
  6
Continuous
100
AcDbLine
 10
578.3452150000001
 20
258.8843259999998
 30
0.0
 11
579.645215
 21
258.8843259999998
 31
0.0
  0
LINE
  5
10626
330
102ED
100
AcDbEntity
  8
4
  6
CENTER
100
AcDbLine
 10
571.8452150000001
 20
263.4843259999997
 30
0.0
 11
583.8452150000001
 21
263.4843259999997
 31
0.0
  0
LINE
  5
10627
330
102ED
100
AcDbEntity
  8
1
  6
Continuous
100
AcDbLine
 10
577.987835
 20
261.174826
 30
0.0
 11
575.202595
 21
261.174826
 31
0.0
  0
LINE
  5
10628
330
102ED
100
AcDbEntity
  8
1
  6
Continuous
100
AcDbLine
 10
577.987835
 20
258.8658259999998
 30
0.0
 11
575.202595
 21
258.8658259999998
 31
0.0
  0
ARC
  5
10629
330
102ED
100
AcDbEntity
  8
1
  6
Continuous
100
AcDbCircle
 10
652.0960989999998
 20
275.4843259999999
 30
0.0
 40
0.75
100
AcDbArc
 50
0.0
 51
180.0
  0
LINE
  5
1062A
330
102ED
100
AcDbEntity
  8
1
  6
Continuous
100
AcDbLine
 10
647.185844
 20
280.8048339999999
 30
0.0
 11
648.5063529999997
 21
280.8048339999999
 31
0.0
  0
ARC
  5
1062B
330
102ED
100
AcDbEntity
  8
1
  6
Continuous
100
AcDbCircle
 10
656.827886
 20
276.4747069999998
 30
0.0
 40
10.98178699999998
100
AcDbArc
 50
166.759553
 51
203.222372
  0
ARC
  5
1062C
330
102ED
100
AcDbEntity
  8
1
  6
Continuous
100
AcDbCircle
 10
638.864312
 20
276.4747069999998
 30
0.0
 40
10.98178699999998
100
AcDbArc
 50
336.777628
 51
13.24043099999999
  0
LINE
  5
1062D
330
102ED
100
AcDbEntity
  8
1
  6
Continuous
100
AcDbLine
 10
644.346099
 20
271.6819069999999
 30
0.0
 11
645.8460989999998
 21
271.6819069999999
 31
0.0
  0
LINE
  5
1062E
330
102ED
100
AcDbEntity
  8
1
  6
Continuous
100
AcDbLine
 10
646.735827
 20
272.1445799999999
 30
0.0
 11
648.9563709999997
 21
272.1445799999999
 31
0.0
  0
LINE
  5
1062F
330
102ED
100
AcDbEntity
  8
1
  6
Continuous
100
AcDbLine
 10
644.346099
 20
269.2140529999999
 30
0.0
 11
645.8460989999998
 21
269.2140529999999
 31
0.0
  0
LINE
  5
10630
330
102ED
100
AcDbEntity
  8
1
  6
Continuous
100
AcDbLine
 10
644.346099
 20
277.4843259999999
 30
0.0
 11
645.8460989999998
 21
277.4843259999999
 31
0.0
  0
LINE
  5
10631
330
102ED
100
AcDbEntity
  8
1
  6
Continuous
100
AcDbLine
 10
645.8460989999998
 20
277.4843259999999
 30
0.0
 11
644.346099
 21
277.4843259999999
 31
0.0
  0
LINE
  5
10632
330
102ED
100
AcDbEntity
  8
1
  6
Continuous
100
AcDbLine
 10
651.3460989999997
 20
277.4843259999999
 30
0.0
 11
649.8460989999998
 21
277.4843259999999
 31
0.0
  0
LINE
  5
10633
330
102ED
100
AcDbEntity
  8
1
  6
Continuous
100
AcDbLine
 10
647.185844
 20
280.8048339999999
 30
0.0
 11
645.8460979999999
 21
278.4843259999997
 31
0.0
  0
LINE
  5
10634
330
102ED
100
AcDbEntity
  8
1
  6
Continuous
100
AcDbLine
 10
648.5063529999997
 20
280.8048339999999
 30
0.0
 11
649.8460989999998
 21
278.4843259999997
 31
0.0
  0
LINE
  5
10635
330
102ED
100
AcDbEntity
  8
1
  6
Continuous
100
AcDbLine
 10
603.6732889999998
 20
272.4843259999999
 30
0.0
 11
606.8732889999997
 21
272.4843259999999
 31
0.0
  0
LINE
  5
10636
330
102ED
100
AcDbEntity
  8
1
  6
Continuous
100
AcDbLine
 10
598.234692
 20
272.4843259999999
 30
0.0
 11
599.834692
 21
272.4843259999999
 31
0.0
  0
LINE
  5
10637
330
102ED
100
AcDbEntity
  8
1
  6
Continuous
100
AcDbLine
 10
574.8452150000002
 20
267.484826
 30
0.0
 11
575.202595
 21
268.1038259999999
 31
0.0
  0
ARC
  5
10638
330
102ED
100
AcDbEntity
  8
1
  6
Continuous
100
AcDbCircle
 10
576.890301
 20
266.948826
 30
0.0
 40
2.045087
100
AcDbArc
 50
154.3862009999998
 51
214.3862009999998
  0
LINE
  5
10639
330
102ED
100
AcDbEntity
  8
1
  6
Continuous
100
AcDbLine
 10
579.645215
 20
271.4843259999997
 30
0.0
 11
580.8452150000001
 21
271.4843259999997
 31
0.0
  0
LINE
  5
1063A
330
102ED
100
AcDbEntity
  8
1
  6
Continuous
100
AcDbLine
 10
578.3452150000001
 20
267.484826
 30
0.0
 11
577.987835
 21
268.1038259999999
 31
0.0
  0
ARC
  5
1063B
330
102ED
100
AcDbEntity
  8
1
  6
Continuous
100
AcDbCircle
 10
576.300128
 20
266.948826
 30
0.0
 40
2.045087
100
AcDbArc
 50
325.6137989999999
 51
25.61379899999999
  0
LINE
  5
1063C
330
102ED
100
AcDbEntity
  8
1
  6
Continuous
100
AcDbLine
 10
578.3452150000001
 20
268.0843259999999
 30
0.0
 11
579.645215
 21
268.0843259999999
 31
0.0
  0
LINE
  5
1063D
330
102ED
100
AcDbEntity
  8
1
  6
Continuous
100
AcDbLine
 10
577.987835
 20
268.1038259999999
 30
0.0
 11
575.202595
 21
268.1038259999999
 31
0.0
  0
LINE
  5
1063E
330
102ED
100
AcDbEntity
  8
1
  6
Continuous
100
AcDbLine
 10
577.987835
 20
265.7938259999998
 30
0.0
 11
575.202595
 21
265.7938259999998
 31
0.0
  0
ARC
  5
1063F
330
102ED
100
AcDbEntity
  8
1
  6
Continuous
100
AcDbCircle
 10
186.007768
 20
172.999045
 30
0.0
 40
6.0
100
AcDbArc
 50
0.0
 51
45.0
  0
LINE
  5
10640
330
102ED
100
AcDbEntity
  8
1
  6
Continuous
100
AcDbLine
 10
179.860553
 20
165.3248659999999
 30
0.0
 11
174.644471
 21
230.538297
 31
0.0
  0
ARC
  5
10641
330
102ED
100
AcDbEntity
  8
1
  6
Continuous
100
AcDbCircle
 10
185.007768
 20
170.484326
 30
0.0
 40
7.0
100
AcDbArc
 50
270.0
 51
0.0
  0
LINE
  5
10642
330
102ED
100
AcDbEntity
  8
1
  6
Continuous
100
AcDbLine
 10
192.007768
 20
172.999045
 30
0.0
 11
192.007768
 21
170.484326
 31
0.0
  0
ARC
  5
10643
330
102ED
100
AcDbEntity
  8
1
  6
Continuous
100
AcDbCircle
 10
181.854186
 20
165.4843259999998
 30
0.0
 40
2.0
100
AcDbArc
 50
184.573055
 51
270.0
  0
LINE
  5
10644
330
102ED
100
AcDbEntity
  8
1
  6
Continuous
100
AcDbLine
 10
181.854186
 20
163.484326
 30
0.0
 11
185.007768
 21
163.484326
 31
0.0
  0
LINE
  5
10645
330
102ED
100
AcDbEntity
  8
1
  6
Continuous
100
AcDbLine
 10
174.878644
 20
277.9976259999999
 30
0.0
 11
174.878644
 21
246.4843259999999
 31
0.0
  0
LINE
  5
10646
330
102ED
100
AcDbEntity
  8
1
  6
Continuous
100
AcDbLine
 10
174.37049
 20
277.9976259999999
 30
0.0
 11
174.37049
 21
246.4843259999999
 31
0.0
  0
LINE
  5
10647
330
102ED
100
AcDbEntity
  8
1
  6
Continuous
100
AcDbLine
 10
173.407768
 20
279.4843259999999
 30
0.0
 11
173.407768
 21
246.4843259999999
 31
0.0
  0
LINE
  5
10648
330
102ED
100
AcDbEntity
  8
1
  6
Continuous
100
AcDbLine
 10
181.107768
 20
280.4843259999996
 30
0.0
 11
181.107768
 21
246.7843259999999
 31
0.0
  0
LINE
  5
10649
330
102ED
100
AcDbEntity
  8
1
  6
Continuous
100
AcDbLine
 10
181.2077679999999
 20
280.4843259999996
 30
0.0
 11
181.2077679999999
 21
246.4843259999999
 31
0.0
  0
LINE
  5
1064A
330
102ED
100
AcDbEntity
  8
1
  6
Continuous
100
AcDbLine
 10
218.007768
 20
287.4843259999999
 30
0.0
 11
218.007768
 21
239.484326
 31
0.0
  0
LINE
  5
1064B
330
102ED
100
AcDbEntity
  8
1
  6
Continuous
100
AcDbLine
 10
217.007768
 20
287.4843259999999
 30
0.0
 11
217.007768
 21
239.484326
 31
0.0
  0
LINE
  5
1064C
330
102ED
100
AcDbEntity
  8
1
  6
Continuous
100
AcDbLine
 10
213.507768
 20
285.4843259999999
 30
0.0
 11
213.507768
 21
241.484326
 31
0.0
  0
LINE
  5
1064D
330
102ED
100
AcDbEntity
  8
1
  6
Continuous
100
AcDbLine
 10
205.507768
 20
249.4843259999999
 30
0.0
 11
205.507768
 21
277.4843259999999
 31
0.0
  0
LINE
  5
1064E
330
102ED
100
AcDbEntity
  8
1
  6
Continuous
100
AcDbLine
 10
205.5577679999999
 20
277.2906129999999
 30
0.0
 11
205.5577679999999
 21
249.678039
 31
0.0
  0
LINE
  5
1064F
330
102ED
100
AcDbEntity
  8
1
  6
Continuous
100
AcDbLine
 10
237.307768
 20
268.646206
 30
0.0
 11
237.307768
 21
258.322447
 31
0.0
  0
LINE
  5
10650
330
102ED
100
AcDbEntity
  8
1
  6
Continuous
100
AcDbLine
 10
232.307768
 20
256.684326
 30
0.0
 11
232.307768
 21
270.2843259999997
 31
0.0
  0
LINE
  5
10651
330
102ED
100
AcDbEntity
  8
2
  6
Continuous
100
AcDbLine
 10
237.007768
 20
263.4843259999997
 30
0.0
 11
232.307768
 21
268.946206
 31
0.0
  0
LINE
  5
10652
330
102ED
100
AcDbEntity
  8
2
  6
Continuous
100
AcDbLine
 10
237.007768
 20
268.946206
 30
0.0
 11
232.307768
 21
263.4843259999997
 31
0.0
  0
LINE
  5
10653
330
102ED
100
AcDbEntity
  8
1
  6
Continuous
100
AcDbLine
 10
232.107768
 20
272.9843259999999
 30
0.0
 11
232.107768
 21
253.984326
 31
0.0
  0
LINE
  5
10654
330
102ED
100
AcDbEntity
  8
1
  6
Continuous
100
AcDbLine
 10
231.857768
 20
253.7343259999999
 30
0.0
 11
218.007768
 21
253.7343259999999
 31
0.0
  0
LINE
  5
10655
330
102ED
100
AcDbEntity
  8
4
  6
CENTER
100
AcDbLine
 10
167.2569639999998
 20
263.4843259999997
 30
0.0
 11
240.8336789999999
 21
263.4843259999997
 31
0.0
  0
LINE
  5
10656
330
102ED
100
AcDbEntity
  8
1
  6
Continuous
100
AcDbLine
 10
237.007768
 20
258.022447
 30
0.0
 11
232.307768
 21
258.022447
 31
0.0
  0
LINE
  5
10657
330
102ED
100
AcDbEntity
  8
1
  6
Continuous
100
AcDbLine
 10
237.007768
 20
263.4843259999997
 30
0.0
 11
232.307768
 21
263.4843259999997
 31
0.0
  0
LINE
  5
10658
330
102ED
100
AcDbEntity
  8
2
  6
Continuous
100
AcDbLine
 10
232.307768
 20
263.4843259999997
 30
0.0
 11
237.007768
 21
258.022447
 31
0.0
  0
LINE
  5
10659
330
102ED
100
AcDbEntity
  8
2
  6
Continuous
100
AcDbLine
 10
232.307768
 20
258.022447
 30
0.0
 11
237.007768
 21
263.4843259999997
 31
0.0
  0
ARC
  5
1065A
330
102ED
100
AcDbEntity
  8
1
  6
Continuous
100
AcDbCircle
 10
237.007768
 20
258.322447
 30
0.0
 40
0.3
100
AcDbArc
 50
270.0
 51
0.0
  0
ARC
  5
1065B
330
102ED
100
AcDbEntity
  8
1
  6
Continuous
100
AcDbCircle
 10
232.107768
 20
256.684326
 30
0.0
 40
0.2
100
AcDbArc
 50
270.0
 51
0.0
  0
LINE
  5
1065C
330
102ED
100
AcDbEntity
  8
1
  6
Continuous
100
AcDbLine
 10
231.857768
 20
253.7343259999999
 30
0.0
 11
232.107768
 21
253.984326
 31
0.0
  0
LINE
  5
1065D
330
102ED
100
AcDbEntity
  8
1
  6
Continuous
100
AcDbLine
 10
187.0077679999999
 20
246.1628339999998
 30
0.0
 11
187.0077679999999
 21
182.9696079999999
 31
0.0
  0
ARC
  5
1065E
330
102ED
100
AcDbEntity
  8
1
  6
Continuous
100
AcDbCircle
 10
193.007768
 20
182.9696079999999
 30
0.0
 40
6.0
100
AcDbArc
 50
180.0
 51
225.0
  0
LINE
  5
1065F
330
102ED
100
AcDbEntity
  8
1
  6
Continuous
100
AcDbLine
 10
190.2504089999999
 20
177.2416859999999
 30
0.0
 11
188.765128
 21
178.726967
 31
0.0
  0
LINE
  5
10660
330
102ED
100
AcDbEntity
  8
1
  6
Continuous
100
AcDbLine
 10
187.219471
 20
247.7425839999999
 30
0.0
 11
205.507768
 21
249.4843259999999
 31
0.0
  0
ARC
  5
10661
330
102ED
100
AcDbEntity
  8
1
  6
Continuous
100
AcDbCircle
 10
193.007768
 20
246.1628339999998
 30
0.0
 40
6.0
100
AcDbArc
 50
95.44033199999999
 51
180.0
  0
LINE
  5
10662
330
102ED
100
AcDbEntity
  8
1
  6
Continuous
100
AcDbLine
 10
205.687277
 20
249.342277
 30
0.0
 11
214.0258039999999
 21
240.1412769999998
 31
0.0
  0
ARC
  5
10663
330
102ED
100
AcDbEntity
  8
1
  6
Continuous
100
AcDbCircle
 10
215.507768
 20
241.484326
 30
0.0
 40
2.0
100
AcDbArc
 50
180.0
 51
222.3553149999999
  0
LINE
  5
10664
330
102ED
100
AcDbEntity
  8
1
  6
Continuous
100
AcDbLine
 10
218.007768
 20
239.484326
 30
0.0
 11
217.007768
 21
239.484326
 31
0.0
  0
LINE
  5
10665
330
102ED
100
AcDbEntity
  8
1
  6
Continuous
100
AcDbLine
 10
215.507768
 20
239.484326
 30
0.0
 11
217.007768
 21
239.484326
 31
0.0
  0
ARC
  5
10666
330
102ED
100
AcDbEntity
  8
1
  6
Continuous
100
AcDbCircle
 10
215.507768
 20
241.484326
 30
0.0
 40
2.0
100
AcDbArc
 50
222.3553149999999
 51
270.0
  0
LINE
  5
10667
330
102ED
100
AcDbEntity
  8
1
  6
Continuous
100
AcDbLine
 10
192.4389139999999
 20
252.135806
 30
0.0
 11
205.140043
 21
253.345438
 31
0.0
  0
LINE
  5
10668
330
102ED
100
AcDbEntity
  8
1
  6
Continuous
100
AcDbLine
 10
209.813262
 20
249.1908489999999
 30
0.0
 11
212.507768
 21
246.568867
 31
0.0
  0
LINE
  5
10669
330
102ED
100
AcDbEntity
  8
1
  6
Continuous
100
AcDbLine
 10
219.507768
 20
243.9843259999999
 30
0.0
 11
218.007768
 21
243.9843259999999
 31
0.0
  0
LINE
  5
1066A
330
102ED
100
AcDbEntity
  8
1
  6
Continuous
100
AcDbLine
 10
219.507768
 20
248.4843259999999
 30
0.0
 11
218.007768
 21
248.4843259999999
 31
0.0
  0
LINE
  5
1066B
330
102ED
100
AcDbEntity
  8
1
  6
Continuous
100
AcDbLine
 10
219.507768
 20
243.9843259999999
 30
0.0
 11
219.507768
 21
248.4843259999999
 31
0.0
  0
LINE
  5
1066C
330
102ED
100
AcDbEntity
  8
1
  6
Continuous
100
AcDbLine
 10
205.507768
 20
254.4843259999999
 30
0.0
 11
205.5577679999999
 21
254.4843259999999
 31
0.0
  0
ARC
  5
1066D
330
102ED
100
AcDbEntity
  8
1
  6
Continuous
100
AcDbCircle
 10
206.0577679999999
 20
249.678039
 30
0.0
 40
0.5
100
AcDbArc
 50
180.0
 51
222.1848549999999
  0
LINE
  5
1066E
330
102ED
100
AcDbEntity
  8
1
  6
Continuous
100
AcDbLine
 10
205.638278
 20
253.253462
 30
0.0
 11
209.1680929999998
 21
249.8186529999999
 31
0.0
  0
ARC
  5
1066F
330
102ED
100
AcDbEntity
  8
1
  6
Continuous
100
AcDbCircle
 10
374.007768
 20
246.4843259999999
 30
0.0
 40
200.0
100
AcDbArc
 50
180.0
 51
184.573055
  0
ARC
  5
10670
330
102ED
100
AcDbEntity
  8
1
  6
Continuous
100
AcDbCircle
 10
180.8077679999999
 20
246.7843259999999
 30
0.0
 40
0.3
100
AcDbArc
 50
270.0
 51
0.0
  0
LINE
  5
10671
330
102ED
100
AcDbEntity
  8
1
  6
Continuous
100
AcDbLine
 10
173.407768
 20
261.4843259999997
 30
0.0
 11
172.907768
 21
260.9843259999997
 31
0.0
  0
LINE
  5
10672
330
102ED
100
AcDbEntity
  8
1
  6
Continuous
100
AcDbLine
 10
172.907768
 20
260.9843259999997
 30
0.0
 11
173.407768
 21
260.4843259999999
 31
0.0
  0
LINE
  5
10673
330
102ED
100
AcDbEntity
  8
1
  6
Continuous
100
AcDbLine
 10
173.407768
 20
260.4843259999999
 30
0.0
 11
172.907768
 21
259.9843259999999
 31
0.0
  0
LINE
  5
10674
330
102ED
100
AcDbEntity
  8
1
  6
Continuous
100
AcDbLine
 10
172.907768
 20
259.9843259999999
 30
0.0
 11
173.407768
 21
259.4843259999997
 31
0.0
  0
LINE
  5
10675
330
102ED
100
AcDbEntity
  8
1
  6
Continuous
100
AcDbLine
 10
173.407768
 20
259.4843259999997
 30
0.0
 11
172.907768
 21
258.9843259999997
 31
0.0
  0
LINE
  5
10676
330
102ED
100
AcDbEntity
  8
1
  6
Continuous
100
AcDbLine
 10
172.907768
 20
258.9843259999997
 30
0.0
 11
173.407768
 21
258.4843259999999
 31
0.0
  0
LINE
  5
10677
330
102ED
100
AcDbEntity
  8
1
  6
Continuous
100
AcDbLine
 10
173.407768
 20
258.4843259999999
 30
0.0
 11
172.907768
 21
257.9843259999999
 31
0.0
  0
LINE
  5
10678
330
102ED
100
AcDbEntity
  8
1
  6
Continuous
100
AcDbLine
 10
172.907768
 20
257.9843259999999
 30
0.0
 11
173.407768
 21
257.4843259999997
 31
0.0
  0
LINE
  5
10679
330
102ED
100
AcDbEntity
  8
1
  6
Continuous
100
AcDbLine
 10
173.407768
 20
257.4843259999997
 30
0.0
 11
172.907768
 21
256.9843259999997
 31
0.0
  0
LINE
  5
1067A
330
102ED
100
AcDbEntity
  8
1
  6
Continuous
100
AcDbLine
 10
172.907768
 20
256.9843259999997
 30
0.0
 11
173.407768
 21
256.4843259999999
 31
0.0
  0
LINE
  5
1067B
330
102ED
100
AcDbEntity
  8
1
  6
Continuous
100
AcDbLine
 10
173.407768
 20
256.4843259999999
 30
0.0
 11
172.907768
 21
255.984326
 31
0.0
  0
LINE
  5
1067C
330
102ED
100
AcDbEntity
  8
1
  6
Continuous
100
AcDbLine
 10
172.907768
 20
255.984326
 30
0.0
 11
173.407768
 21
255.4843259999999
 31
0.0
  0
LINE
  5
1067D
330
102ED
100
AcDbEntity
  8
1
  6
Continuous
100
AcDbLine
 10
173.407768
 20
255.4843259999999
 30
0.0
 11
172.907768
 21
254.9843259999999
 31
0.0
  0
LINE
  5
1067E
330
102ED
100
AcDbEntity
  8
1
  6
Continuous
100
AcDbLine
 10
172.907768
 20
254.9843259999999
 30
0.0
 11
173.407768
 21
254.4843259999999
 31
0.0
  0
LINE
  5
1067F
330
102ED
100
AcDbEntity
  8
1
  6
Continuous
100
AcDbLine
 10
173.407768
 20
254.4843259999999
 30
0.0
 11
172.907768
 21
253.984326
 31
0.0
  0
LINE
  5
10680
330
102ED
100
AcDbEntity
  8
1
  6
Continuous
100
AcDbLine
 10
172.907768
 20
253.984326
 30
0.0
 11
173.407768
 21
253.4843259999999
 31
0.0
  0
LINE
  5
10681
330
102ED
100
AcDbEntity
  8
1
  6
Continuous
100
AcDbLine
 10
173.407768
 20
253.4843259999999
 30
0.0
 11
172.907768
 21
252.9843259999999
 31
0.0
  0
LINE
  5
10682
330
102ED
100
AcDbEntity
  8
1
  6
Continuous
100
AcDbLine
 10
172.907768
 20
252.9843259999999
 30
0.0
 11
173.407768
 21
252.4843259999999
 31
0.0
  0
LINE
  5
10683
330
102ED
100
AcDbEntity
  8
1
  6
Continuous
100
AcDbLine
 10
173.407768
 20
252.4843259999999
 30
0.0
 11
172.907768
 21
251.984326
 31
0.0
  0
LINE
  5
10684
330
102ED
100
AcDbEntity
  8
1
  6
Continuous
100
AcDbLine
 10
172.907768
 20
251.984326
 30
0.0
 11
173.407768
 21
251.4843259999999
 31
0.0
  0
LINE
  5
10685
330
102ED
100
AcDbEntity
  8
1
  6
Continuous
100
AcDbLine
 10
173.407768
 20
251.4843259999999
 30
0.0
 11
172.907768
 21
250.9843259999999
 31
0.0
  0
LINE
  5
10686
330
102ED
100
AcDbEntity
  8
1
  6
Continuous
100
AcDbLine
 10
172.907768
 20
250.9843259999999
 30
0.0
 11
173.407768
 21
250.4843259999999
 31
0.0
  0
LINE
  5
10687
330
102ED
100
AcDbEntity
  8
1
  6
Continuous
100
AcDbLine
 10
173.407768
 20
250.4843259999999
 30
0.0
 11
172.907768
 21
249.984326
 31
0.0
  0
LINE
  5
10688
330
102ED
100
AcDbEntity
  8
1
  6
Continuous
100
AcDbLine
 10
172.907768
 20
249.984326
 30
0.0
 11
173.407768
 21
249.4843259999999
 31
0.0
  0
LINE
  5
10689
330
102ED
100
AcDbEntity
  8
1
  6
Continuous
100
AcDbLine
 10
181.2077679999999
 20
246.4843259999999
 30
0.0
 11
173.407768
 21
246.4843259999999
 31
0.0
  0
LINE
  5
1068A
330
102ED
100
AcDbEntity
  8
1
  6
Continuous
100
AcDbLine
 10
231.857768
 20
273.2343259999999
 30
0.0
 11
218.007768
 21
273.2343259999999
 31
0.0
  0
LINE
  5
1068B
330
102ED
100
AcDbEntity
  8
1
  6
Continuous
100
AcDbLine
 10
237.007768
 20
268.946206
 30
0.0
 11
232.307768
 21
268.946206
 31
0.0
  0
ARC
  5
1068C
330
102ED
100
AcDbEntity
  8
1
  6
Continuous
100
AcDbCircle
 10
237.007768
 20
268.646206
 30
0.0
 40
0.3
100
AcDbArc
 50
0.0
 51
90.0
  0
ARC
  5
1068D
330
102ED
100
AcDbEntity
  8
1
  6
Continuous
100
AcDbCircle
 10
232.107768
 20
270.2843259999997
 30
0.0
 40
0.2
100
AcDbArc
 50
0.0
 51
90.0
  0
LINE
  5
1068E
330
102ED
100
AcDbEntity
  8
1
  6
Continuous
100
AcDbLine
 10
232.107768
 20
272.9843259999999
 30
0.0
 11
231.857768
 21
273.2343259999999
 31
0.0
  0
LINE
  5
1068F
330
102ED
100
AcDbEntity
  8
1
  6
Continuous
100
AcDbLine
 10
186.763608
 20
280.368043
 30
0.0
 11
205.507768
 21
277.4843259999999
 31
0.0
  0
LINE
  5
10690
330
102ED
100
AcDbEntity
  8
1
  6
Continuous
100
AcDbLine
 10
186.178062
 20
276.5619939999999
 30
0.0
 11
204.9222219999998
 21
273.678277
 31
0.0
  0
ARC
  5
10691
330
102ED
100
AcDbEntity
  8
1
  6
Continuous
100
AcDbCircle
 10
215.507768
 20
285.4843259999999
 30
0.0
 40
2.0
100
AcDbArc
 50
137.644685
 51
180.0
  0
LINE
  5
10692
330
102ED
100
AcDbEntity
  8
1
  6
Continuous
100
AcDbLine
 10
214.0258039999999
 20
286.8273759999999
 30
0.0
 11
205.687277
 21
277.6263759999998
 31
0.0
  0
LINE
  5
10693
330
102ED
100
AcDbEntity
  8
1
  6
Continuous
100
AcDbLine
 10
212.507768
 20
280.399785
 30
0.0
 11
209.813262
 21
277.7778029999999
 31
0.0
  0
LINE
  5
10694
330
102ED
100
AcDbEntity
  8
1
  6
Continuous
100
AcDbLine
 10
219.507768
 20
282.9843259999999
 30
0.0
 11
218.007768
 21
282.9843259999999
 31
0.0
  0
LINE
  5
10695
330
102ED
100
AcDbEntity
  8
1
  6
Continuous
100
AcDbLine
 10
219.507768
 20
278.4843259999997
 30
0.0
 11
218.007768
 21
278.4843259999997
 31
0.0
  0
LINE
  5
10696
330
102ED
100
AcDbEntity
  8
1
  6
Continuous
100
AcDbLine
 10
219.507768
 20
282.9843259999999
 30
0.0
 11
219.507768
 21
278.4843259999997
 31
0.0
  0
LINE
  5
10697
330
102ED
100
AcDbEntity
  8
1
  6
Continuous
100
AcDbLine
 10
205.5577679999999
 20
274.9843259999999
 30
0.0
 11
205.507768
 21
274.9843259999999
 31
0.0
  0
ARC
  5
10698
330
102ED
100
AcDbEntity
  8
1
  6
Continuous
100
AcDbCircle
 10
206.0577679999999
 20
277.2906129999999
 30
0.0
 40
0.5
100
AcDbArc
 50
137.815145
 51
180.0
  0
LINE
  5
10699
330
102ED
100
AcDbEntity
  8
1
  6
Continuous
100
AcDbLine
 10
209.1680929999998
 20
277.1499989999999
 30
0.0
 11
205.638278
 21
273.71519
 31
0.0
  0
LINE
  5
1069A
330
102ED
100
AcDbEntity
  8
1
  6
Continuous
100
AcDbLine
 10
218.007768
 20
287.4843259999999
 30
0.0
 11
217.007768
 21
287.4843259999999
 31
0.0
  0
LINE
  5
1069B
330
102ED
100
AcDbEntity
  8
1
  6
Continuous
100
AcDbLine
 10
215.507768
 20
287.4843259999999
 30
0.0
 11
217.007768
 21
287.4843259999999
 31
0.0
  0
ARC
  5
1069C
330
102ED
100
AcDbEntity
  8
1
  6
Continuous
100
AcDbCircle
 10
215.507768
 20
285.4843259999999
 30
0.0
 40
2.0
100
AcDbArc
 50
90.0
 51
137.644685
  0
ARC
  5
1069D
330
102ED
100
AcDbEntity
  8
1
  6
Continuous
100
AcDbCircle
 10
185.2430359999999
 20
270.4843259999999
 30
0.0
 40
6.149172
100
AcDbArc
 50
81.25383799999999
 51
90.0
  0
LINE
  5
1069E
330
102ED
100
AcDbEntity
  8
1
  6
Continuous
100
AcDbLine
 10
181.2077679999999
 20
276.6334989999999
 30
0.0
 11
185.2430359999999
 21
276.6334989999999
 31
0.0
  0
LINE
  5
1069F
330
102ED
100
AcDbEntity
  8
1
  6
Continuous
100
AcDbLine
 10
181.2077679999999
 20
280.4843259999996
 30
0.0
 11
185.2430359999999
 21
280.4843259999996
 31
0.0
  0
ARC
  5
106A0
330
102ED
100
AcDbEntity
  8
1
  6
Continuous
100
AcDbCircle
 10
185.2430359999999
 20
270.4843259999999
 30
0.0
 40
10.0
100
AcDbArc
 50
81.25383799999999
 51
90.0
  0
LINE
  5
106A1
330
102ED
100
AcDbEntity
  8
1
  6
Continuous
100
AcDbLine
 10
181.107768
 20
278.117634
 30
0.0
 11
181.2077679999999
 21
278.117634
 31
0.0
  0
LINE
  5
106A2
330
102ED
100
AcDbEntity
  8
1
  6
Continuous
100
AcDbLine
 10
181.107768
 20
278.52429
 30
0.0
 11
181.2077679999999
 21
278.52429
 31
0.0
  0
LINE
  5
106A3
330
102ED
100
AcDbEntity
  8
1
  6
Continuous
100
AcDbLine
 10
181.107768
 20
276.3513209999999
 30
0.0
 11
181.2077679999999
 21
276.3513209999999
 31
0.0
  0
LINE
  5
106A4
330
102ED
100
AcDbEntity
  8
1
  6
Continuous
100
AcDbLine
 10
181.107768
 20
278.8843259999998
 30
0.0
 11
181.2077679999999
 21
278.8843259999998
 31
0.0
  0
ARC
  5
106A5
330
102ED
100
AcDbEntity
  8
1
  6
Continuous
100
AcDbCircle
 10
174.407768
 20
279.4843259999999
 30
0.0
 40
1.0
100
AcDbArc
 50
90.0
 51
180.0
  0
LINE
  5
106A6
330
102ED
100
AcDbEntity
  8
1
  6
Continuous
100
AcDbLine
 10
181.107768
 20
276.6334989999999
 30
0.0
 11
174.878644
 21
276.6334989999999
 31
0.0
  0
LINE
  5
106A7
330
102ED
100
AcDbEntity
  8
1
  6
Continuous
100
AcDbLine
 10
174.407768
 20
280.4843259999996
 30
0.0
 11
181.107768
 21
280.4843259999996
 31
0.0
  0
ARC
  5
106A8
330
102ED
100
AcDbEntity
  8
5
  6
PHANTOM
100
AcDbCircle
 10
59.36325899999999
 20
265.0843259999999
 30
0.0
 40
1.0
100
AcDbArc
 50
192.839588
 51
270.0
  0
ARC
  5
106A9
330
102ED
100
AcDbEntity
  8
5
  6
PHANTOM
100
AcDbCircle
 10
41.81333
 20
265.0843259999999
 30
0.0
 40
1.0
100
AcDbArc
 50
270.0
 51
347.160412
  0
LINE
  5
106AA
330
102ED
100
AcDbEntity
  8
5
  6
PHANTOM
100
AcDbLine
 10
38.088295
 20
264.084326
 30
0.0
 11
38.088295
 21
293.4169409999999
 31
0.0
  0
LINE
  5
106AB
330
102ED
100
AcDbEntity
  8
5
  6
PHANTOM
100
AcDbLine
 10
63.08829499999998
 20
264.084326
 30
0.0
 11
63.08829499999998
 21
293.4169409999999
 31
0.0
  0
LINE
  5
106AC
330
102ED
100
AcDbEntity
  8
5
  6
PHANTOM
100
AcDbLine
 10
39.838295
 20
295.542134
 30
0.0
 11
39.838295
 21
264.084326
 31
0.0
  0
LINE
  5
106AD
330
102ED
100
AcDbEntity
  8
5
  6
PHANTOM
100
AcDbLine
 10
61.338295
 20
295.542134
 30
0.0
 11
61.338295
 21
264.084326
 31
0.0
  0
ARC
  5
106AE
330
102ED
100
AcDbEntity
  8
5
  6
PHANTOM
100
AcDbCircle
 10
50.588295
 20
263.0843259999999
 30
0.0
 40
8.0
100
AcDbArc
 50
12.83958799999999
 51
167.160412
  0
LINE
  5
106AF
330
102ED
100
AcDbEntity
  8
5
  6
PHANTOM
100
AcDbLine
 10
38.088295
 20
264.084326
 30
0.0
 11
41.81333
 21
264.084326
 31
0.0
  0
LINE
  5
106B0
330
102ED
100
AcDbEntity
  8
5
  6
PHANTOM
100
AcDbLine
 10
59.36325899999999
 20
264.084326
 30
0.0
 11
63.08829499999998
 21
264.084326
 31
0.0
  0
ARC
  5
106B1
330
102ED
100
AcDbEntity
  8
5
  6
PHANTOM
100
AcDbCircle
 10
50.588295
 20
274.0843259999999
 30
0.0
 40
24.0
100
AcDbArc
 50
61.49256900000001
 51
118.507431
  0
ARC
  5
106B2
330
102ED
100
AcDbEntity
  8
5
  6
PHANTOM
100
AcDbCircle
 10
40.088295
 20
293.4169409999999
 30
0.0
 40
2.0
100
AcDbArc
 50
118.507431
 51
180.0
  0
ARC
  5
106B3
330
102ED
100
AcDbEntity
  8
5
  6
PHANTOM
100
AcDbCircle
 10
61.08829499999998
 20
293.4169409999999
 30
0.0
 40
2.0
100
AcDbArc
 50
0.0
 51
61.49256900000001
  0
LINE
  5
106B4
330
102ED
100
AcDbEntity
  8
1
  6
Continuous
100
AcDbLine
 10
459.5871059999998
 20
206.1719159999999
 30
0.0
 11
460.447229
 21
205.385422
 31
0.0
  0
LINE
  5
106B5
330
102ED
100
AcDbEntity
  8
1
  6
Continuous
100
AcDbLine
 10
459.7082499999998
 20
206.268718
 30
0.0
 11
458.7996669999998
 21
205.5185219999999
 31
0.0
  0
LINE
  5
106B6
330
102ED
100
AcDbEntity
  8
1
  6
Continuous
100
AcDbLine
 10
460.7096429999998
 20
206.268091
 30
0.0
 11
458.7096429999999
 21
206.268091
 31
0.0
  0
LINE
  5
106B7
330
102ED
100
AcDbEntity
  8
5
  6
PHANTOM
100
AcDbLine
 10
450.6248849999998
 20
295.542134
 30
0.0
 11
450.6248849999998
 21
284.942134
 31
0.0
  0
LINE
  5
106B8
330
102ED
100
AcDbEntity
  8
5
  6
PHANTOM
100
AcDbLine
 10
448.8748849999998
 20
283.972127
 30
0.0
 11
448.8748849999998
 21
293.4169409999999
 31
0.0
  0
LINE
  5
106B9
330
102ED
100
AcDbEntity
  8
5
  6
PHANTOM
100
AcDbLine
 10
472.1248849999998
 20
295.542134
 30
0.0
 11
472.1248849999998
 21
284.942134
 31
0.0
  0
LINE
  5
106BA
330
102ED
100
AcDbEntity
  8
5
  6
PHANTOM
100
AcDbLine
 10
473.8748849999998
 20
283.972127
 30
0.0
 11
473.8748849999998
 21
293.4169409999999
 31
0.0
  0
ARC
  5
106BB
330
102ED
100
AcDbEntity
  8
5
  6
PHANTOM
100
AcDbCircle
 10
461.3748849999998
 20
274.0843259999999
 30
0.0
 40
24.0
100
AcDbArc
 50
61.49256900000001
 51
118.507431
  0
ARC
  5
106BC
330
102ED
100
AcDbEntity
  8
5
  6
PHANTOM
100
AcDbCircle
 10
450.8748849999998
 20
293.4169409999999
 30
0.0
 40
2.0
100
AcDbArc
 50
118.507431
 51
180.0
  0
ARC
  5
106BD
330
102ED
100
AcDbEntity
  8
5
  6
PHANTOM
100
AcDbCircle
 10
471.8748849999998
 20
293.4169409999999
 30
0.0
 40
2.0
100
AcDbArc
 50
0.0
 51
61.49256900000001
  0
LINE
  5
106BE
330
102ED
100
AcDbEntity
  8
1
  6
Continuous
100
AcDbLine
 10
52.83380699999999
 20
379.000925
 30
0.0
 11
75.60525300000001
 21
379.000925
 31
0.0
  0
LINE
  5
106BF
330
102ED
100
AcDbEntity
  8
1
  6
Continuous
100
AcDbLine
 10
52.83380699999999
 20
380.2009249999999
 30
0.0
 11
76.241077
 21
380.2009249999999
 31
0.0
  0
LINE
  5
106C0
330
102ED
100
AcDbEntity
  8
1
  6
Continuous
100
AcDbLine
 10
56.333807
 20
382.600925
 30
0.0
 11
73.83380699999998
 21
382.600925
 31
0.0
  0
LINE
  5
106C1
330
102ED
100
AcDbEntity
  8
1
  6
Continuous
100
AcDbLine
 10
56.333807
 20
376.4009249999999
 30
0.0
 11
72.83380699999998
 21
376.4009249999999
 31
0.0
  0
LINE
  5
106C2
330
102ED
100
AcDbEntity
  8
4
  6
CENTER
100
AcDbLine
 10
23.333807
 20
379.500925
 30
0.0
 11
77.622715
 21
379.500925
 31
0.0
  0
LINE
  5
106C3
330
102ED
100
AcDbEntity
  8
1
  6
Continuous
100
AcDbLine
 10
33.572124
 20
368.946225
 30
0.0
 11
29.501757
 21
375.0517759999997
 31
0.0
  0
LINE
  5
106C4
330
102ED
100
AcDbEntity
  8
1
  6
Continuous
100
AcDbLine
 10
28.669706
 20
374.497076
 30
0.0
 11
32.740074
 21
368.391525
 31
0.0
  0
LINE
  5
106C5
330
102ED
100
AcDbEntity
  8
1
  6
Continuous
100
AcDbLine
 10
30.833807
 20
383.500925
 30
0.0
 11
33.833807
 21
383.500925
 31
0.0
  0
LINE
  5
106C6
330
102ED
100
AcDbEntity
  8
1
  6
Continuous
100
AcDbLine
 10
30.833807
 20
375.500925
 30
0.0
 11
33.833807
 21
375.500925
 31
0.0
  0
LINE
  5
106C7
330
102ED
100
AcDbEntity
  8
1
  6
Continuous
100
AcDbLine
 10
33.572124
 20
390.055625
 30
0.0
 11
29.501757
 21
383.9500739999999
 31
0.0
  0
LINE
  5
106C8
330
102ED
100
AcDbEntity
  8
1
  6
Continuous
100
AcDbLine
 10
28.669706
 20
384.504774
 30
0.0
 11
32.740074
 21
390.610325
 31
0.0
  0
ARC
  5
106C9
330
102ED
100
AcDbEntity
  8
1
  6
Continuous
100
AcDbCircle
 10
30.333807
 20
383.395374
 30
0.0
 40
1.0
100
AcDbArc
 50
146.3099319999997
 51
180.0
  0
LINE
  5
106CA
330
102ED
100
AcDbEntity
  8
1
  6
Continuous
100
AcDbLine
 10
29.333807
 20
375.606476
 30
0.0
 11
29.333807
 21
383.395374
 31
0.0
  0
ARC
  5
106CB
330
102ED
100
AcDbEntity
  8
1
  6
Continuous
100
AcDbCircle
 10
30.333807
 20
375.606476
 30
0.0
 40
1.0
100
AcDbArc
 50
180.0
 51
213.690068
  0
ARC
  5
106CC
330
102ED
100
AcDbEntity
  8
1
  6
Continuous
100
AcDbCircle
 10
30.833807
 20
383.0009249999998
 30
0.0
 40
0.5
100
AcDbArc
 50
90.0
 51
180.0
  0
ARC
  5
106CD
330
102ED
100
AcDbEntity
  8
1
  6
Continuous
100
AcDbCircle
 10
30.333807
 20
375.606476
 30
0.0
 40
2.0
100
AcDbArc
 50
180.0
 51
213.690068
  0
ARC
  5
106CE
330
102ED
100
AcDbEntity
  8
1
  6
Continuous
100
AcDbCircle
 10
30.333807
 20
383.395374
 30
0.0
 40
2.0
100
AcDbArc
 50
146.3099319999997
 51
180.0
  0
ARC
  5
106CF
330
102ED
100
AcDbEntity
  8
1
  6
Continuous
100
AcDbCircle
 10
30.833807
 20
376.0009249999998
 30
0.0
 40
0.5
100
AcDbArc
 50
180.0
 51
270.0
  0
LINE
  5
106D0
330
102ED
100
AcDbEntity
  8
1
  6
Continuous
100
AcDbLine
 10
30.333807
 20
383.0009249999998
 30
0.0
 11
30.333807
 21
376.0009249999998
 31
0.0
  0
LINE
  5
106D1
330
102ED
100
AcDbEntity
  8
1
  6
Continuous
100
AcDbLine
 10
28.333807
 20
383.395374
 30
0.0
 11
28.333807
 21
375.606476
 31
0.0
  0
LINE
  5
106D2
330
102ED
100
AcDbEntity
  8
1
  6
Continuous
100
AcDbLine
 10
49.333807
 20
376.2509249999998
 30
0.0
 11
39.26714
 21
368.700925
 31
0.0
  0
LINE
  5
106D3
330
102ED
100
AcDbEntity
  8
1
  6
Continuous
100
AcDbLine
 10
39.86714
 20
367.900925
 30
0.0
 11
49.333807
 21
375.000925
 31
0.0
  0
ARC
  5
106D4
330
102ED
100
AcDbEntity
  8
1
  6
Continuous
100
AcDbCircle
 10
32.801192
 20
379.500925
 30
0.0
 40
10.032628
100
AcDbArc
 50
324.4619999999998
 51
35.53799999999998
  0
ARC
  5
106D5
330
102ED
100
AcDbEntity
  8
1
  6
Continuous
100
AcDbCircle
 10
45.866422
 20
379.500925
 30
0.0
 40
10.032628
100
AcDbArc
 50
144.462
 51
215.5377
  0
ARC
  5
106D6
330
102ED
100
AcDbEntity
  8
1
  6
Continuous
100
AcDbCircle
 10
38.66714
 20
369.500925
 30
0.0
 40
1.0
100
AcDbArc
 50
270.0
 51
306.8698979999999
  0
ARC
  5
106D7
330
102ED
100
AcDbEntity
  8
1
  6
Continuous
100
AcDbCircle
 10
38.66714
 20
369.500925
 30
0.0
 40
2.0
100
AcDbArc
 50
270.0
 51
306.8698979999999
  0
ARC
  5
106D8
330
102ED
100
AcDbEntity
  8
1
  6
Continuous
100
AcDbCircle
 10
39.33301699999999
 20
374.8353349999999
 30
0.0
 40
2.004309
100
AcDbArc
 50
270.0
 51
324.4619999999998
  0
ARC
  5
106D9
330
102ED
100
AcDbEntity
  8
1
  6
Continuous
100
AcDbCircle
 10
39.33301699999999
 20
374.8353349999999
 30
0.0
 40
2.004309
100
AcDbArc
 50
215.5377
 51
256.5374
  0
ARC
  5
106DA
330
102ED
100
AcDbEntity
  8
1
  6
Continuous
100
AcDbCircle
 10
34.40417399999999
 20
369.500925
 30
0.0
 40
1.0
100
AcDbArc
 50
213.690068
 51
270.0
  0
ARC
  5
106DB
330
102ED
100
AcDbEntity
  8
1
  6
Continuous
100
AcDbCircle
 10
34.40417399999999
 20
369.500925
 30
0.0
 40
2.0
100
AcDbArc
 50
213.690068
 51
270.0
  0
LINE
  5
106DC
330
102ED
100
AcDbEntity
  8
1
  6
Continuous
100
AcDbLine
 10
38.66714
 20
368.500925
 30
0.0
 11
34.40417399999999
 21
368.500925
 31
0.0
  0
LINE
  5
106DD
330
102ED
100
AcDbEntity
  8
1
  6
Continuous
100
AcDbLine
 10
34.40417399999999
 20
367.500925
 30
0.0
 11
38.66714
 21
367.500925
 31
0.0
  0
LINE
  5
106DE
330
102ED
100
AcDbEntity
  8
1
  6
Continuous
100
AcDbLine
 10
39.26714
 20
390.300925
 30
0.0
 11
49.333807
 21
382.7509249999998
 31
0.0
  0
LINE
  5
106DF
330
102ED
100
AcDbEntity
  8
1
  6
Continuous
100
AcDbLine
 10
39.86714
 20
391.100925
 30
0.0
 11
49.333807
 21
384.0009249999998
 31
0.0
  0
ARC
  5
106E0
330
102ED
100
AcDbEntity
  8
1
  6
Continuous
100
AcDbCircle
 10
38.66714
 20
389.500925
 30
0.0
 40
1.0
100
AcDbArc
 50
53.130102
 51
90.0
  0
ARC
  5
106E1
330
102ED
100
AcDbEntity
  8
1
  6
Continuous
100
AcDbCircle
 10
38.66714
 20
389.500925
 30
0.0
 40
2.0
100
AcDbArc
 50
53.130102
 51
90.0
  0
LINE
  5
106E2
330
102ED
100
AcDbEntity
  8
1
  6
Continuous
100
AcDbLine
 10
36.620502
 20
379.890908
 30
0.0
 11
42.047112
 21
379.890908
 31
0.0
  0
LINE
  5
106E3
330
102ED
100
AcDbEntity
  8
1
  6
Continuous
100
AcDbLine
 10
37.199951
 20
374.4469309999999
 30
0.0
 11
40.55349099999999
 21
374.4469309999999
 31
0.0
  0
LINE
  5
106E4
330
102ED
100
AcDbEntity
  8
1
  6
Continuous
100
AcDbLine
 10
40.768219
 20
375.2237399999998
 30
0.0
 11
37.899395
 21
375.2237399999998
 31
0.0
  0
LINE
  5
106E5
330
102ED
100
AcDbEntity
  8
1
  6
Continuous
100
AcDbLine
 10
37.41467800000001
 20
376.0021269999999
 30
0.0
 11
41.251356
 21
376.0021269999999
 31
0.0
  0
LINE
  5
106E6
330
102ED
100
AcDbEntity
  8
1
  6
Continuous
100
AcDbLine
 10
38.39989899999999
 20
377.5573239999998
 30
0.0
 11
36.91575199999999
 21
377.5573239999998
 31
0.0
  0
LINE
  5
106E7
330
102ED
100
AcDbEntity
  8
1
  6
Continuous
100
AcDbLine
 10
39.33301699999999
 20
379.11252
 30
0.0
 11
39.33301699999999
 21
378.335712
 31
0.0
  0
ARC
  5
106E8
330
102ED
100
AcDbEntity
  8
1
  6
Continuous
100
AcDbCircle
 10
37.899395
 20
375.613723
 30
0.0
 40
0.388957
100
AcDbArc
 50
206.0144
 51
270.0
  0
ARC
  5
106E9
330
102ED
100
AcDbEntity
  8
1
  6
Continuous
100
AcDbCircle
 10
45.866422
 20
379.500925
 30
0.0
 40
9.254918999999999
100
AcDbArc
 50
202.944
 51
206.0144
  0
ARC
  5
106EA
330
102ED
100
AcDbEntity
  8
1
  6
Continuous
100
AcDbCircle
 10
37.41467800000001
 20
375.924762
 30
0.0
 40
0.077791
100
AcDbArc
 50
90.0
 51
202.944
  0
ARC
  5
106EB
330
102ED
100
AcDbEntity
  8
1
  6
Continuous
100
AcDbCircle
 10
40.768219
 20
375.613723
 30
0.0
 40
0.388957
100
AcDbArc
 50
270.0
 51
333.9859999999998
  0
ARC
  5
106EC
330
102ED
100
AcDbEntity
  8
1
  6
Continuous
100
AcDbCircle
 10
36.91575199999999
 20
377.479959
 30
0.0
 40
0.077791
100
AcDbArc
 50
90.0
 51
192.7289
  0
ARC
  5
106ED
330
102ED
100
AcDbEntity
  8
1
  6
Continuous
100
AcDbCircle
 10
45.866422
 20
379.500925
 30
0.0
 40
9.254918999999999
100
AcDbArc
 50
192.7289
 51
193.2680999999999
  0
ARC
  5
106EE
330
102ED
100
AcDbEntity
  8
1
  6
Continuous
100
AcDbCircle
 10
45.866422
 20
379.500925
 30
0.0
 40
9.254918999999999
100
AcDbArc
 50
193.2680999999999
 51
195.2574999999999
  0
ARC
  5
106EF
330
102ED
100
AcDbEntity
  8
1
  6
Continuous
100
AcDbCircle
 10
37.31362999999999
 20
377.16892
 30
0.0
 40
0.388957
100
AcDbArc
 50
195.2574999999999
 51
270.0
  0
ARC
  5
106F0
330
102ED
100
AcDbEntity
  8
1
  6
Continuous
100
AcDbCircle
 10
41.353983
 20
377.16892
 30
0.0
 40
0.388957
100
AcDbArc
 50
270.0
 51
344.7419999999997
  0
ARC
  5
106F1
330
102ED
100
AcDbEntity
  8
1
  6
Continuous
100
AcDbCircle
 10
32.801192
 20
379.500925
 30
0.0
 40
9.254918999999999
100
AcDbArc
 50
344.7419999999997
 51
344.794
  0
ARC
  5
106F2
330
102ED
100
AcDbEntity
  8
1
  6
Continuous
100
AcDbCircle
 10
32.801192
 20
379.500925
 30
0.0
 40
9.254918999999999
100
AcDbArc
 50
344.794
 51
347.2709999999997
  0
ARC
  5
106F3
330
102ED
100
AcDbEntity
  8
1
  6
Continuous
100
AcDbCircle
 10
41.751861
 20
377.479959
 30
0.0
 40
0.077791
100
AcDbArc
 50
347.2709999999997
 51
90.0
  0
LINE
  5
106F4
330
102ED
100
AcDbEntity
  8
1
  6
Continuous
100
AcDbLine
 10
37.31362999999999
 20
376.778936
 30
0.0
 11
41.353983
 21
376.778936
 31
0.0
  0
LINE
  5
106F5
330
102ED
100
AcDbEntity
  8
1
  6
Continuous
100
AcDbLine
 10
41.751861
 20
377.5573239999998
 30
0.0
 11
40.26613499999998
 21
377.5573239999998
 31
0.0
  0
LINE
  5
106F6
330
102ED
100
AcDbEntity
  8
1
  6
Continuous
100
AcDbLine
 10
36.68523599999998
 20
378.335712
 30
0.0
 11
41.982378
 21
378.335712
 31
0.0
  0
LINE
  5
106F7
330
102ED
100
AcDbEntity
  8
1
  6
Continuous
100
AcDbLine
 10
36.620502
 20
379.11252
 30
0.0
 11
42.047112
 21
379.11252
 31
0.0
  0
ARC
  5
106F8
330
102ED
100
AcDbEntity
  8
1
  6
Continuous
100
AcDbCircle
 10
41.251356
 20
375.924762
 30
0.0
 40
0.077791
100
AcDbArc
 50
337.0559999999999
 51
90.0
  0
ARC
  5
106F9
330
102ED
100
AcDbEntity
  8
1
  6
Continuous
100
AcDbCircle
 10
32.801192
 20
379.500925
 30
0.0
 40
9.254918999999999
100
AcDbArc
 50
333.9859999999998
 51
337.0559999999999
  0
LINE
  5
106FA
330
102ED
100
AcDbEntity
  8
1
  6
Continuous
100
AcDbLine
 10
38.39989899999999
 20
381.4461049999999
 30
0.0
 11
37.138375
 21
381.4461049999999
 31
0.0
  0
LINE
  5
106FB
330
102ED
100
AcDbEntity
  8
1
  6
Continuous
100
AcDbLine
 10
39.33301699999999
 20
381.4461049999999
 30
0.0
 11
39.33301699999999
 21
381.0577
 31
0.0
  0
LINE
  5
106FC
330
102ED
100
AcDbEntity
  8
1
  6
Continuous
100
AcDbLine
 10
37.14311099999999
 20
383.0013009999997
 30
0.0
 11
38.94461299999999
 21
383.0013009999997
 31
0.0
  0
LINE
  5
106FD
330
102ED
100
AcDbEntity
  8
1
  6
Continuous
100
AcDbLine
 10
38.94461299999999
 20
383.779689
 30
0.0
 11
37.283631
 21
383.779689
 31
0.0
  0
LINE
  5
106FE
330
102ED
100
AcDbEntity
  8
1
  6
Continuous
100
AcDbLine
 10
39.33301699999999
 20
383.3897059999998
 30
0.0
 11
41.19925300000001
 21
383.3897059999998
 31
0.0
  0
LINE
  5
106FF
330
102ED
100
AcDbEntity
  8
1
  6
Continuous
100
AcDbLine
 10
40.788744
 20
384.1744089999999
 30
0.0
 11
37.51098999999999
 21
385.053845
 31
0.0
  0
LINE
  5
10700
330
102ED
100
AcDbEntity
  8
1
  6
Continuous
100
AcDbLine
 10
39.33301699999999
 20
386.171692
 30
0.0
 11
39.33301699999999
 21
384.564392
 31
0.0
  0
ARC
  5
10701
330
102ED
100
AcDbEntity
  8
1
  6
Continuous
100
AcDbCircle
 10
38.94461299999999
 20
383.3897059999998
 30
0.0
 40
0.388957
100
AcDbArc
 50
270.0
 51
90.0
  0
ARC
  5
10702
330
102ED
100
AcDbEntity
  8
1
  6
Continuous
100
AcDbCircle
 10
39.33301699999999
 20
384.1680929999998
 30
0.0
 40
2.004309
100
AcDbArc
 50
62.24999999999999
 51
144.462
  0
ARC
  5
10703
330
102ED
100
AcDbEntity
  8
1
  6
Continuous
100
AcDbCircle
 10
39.33301699999999
 20
384.1680929999998
 30
0.0
 40
2.004309
100
AcDbArc
 50
35.53799999999998
 51
45.69899999999999
  0
ARC
  5
10704
330
102ED
100
AcDbEntity
  8
1
  6
Continuous
100
AcDbCircle
 10
37.138375
 20
381.0577
 30
0.0
 40
0.388957
100
AcDbArc
 50
90.0
 51
169.896
  0
ARC
  5
10705
330
102ED
100
AcDbEntity
  8
1
  6
Continuous
100
AcDbCircle
 10
45.866422
 20
379.500925
 30
0.0
 40
9.254918999999999
100
AcDbArc
 50
169.896
 51
172.2069999999999
  0
ARC
  5
10706
330
102ED
100
AcDbEntity
  8
1
  6
Continuous
100
AcDbCircle
 10
36.773653
 20
380.7466609999997
 30
0.0
 40
0.077791
100
AcDbArc
 50
172.2069999999999
 51
270.0
  0
ARC
  5
10707
330
102ED
100
AcDbEntity
  8
1
  6
Continuous
100
AcDbCircle
 10
41.529239
 20
381.0577
 30
0.0
 40
0.388957
100
AcDbArc
 50
10.10399999999999
 51
90.0
  0
ARC
  5
10708
330
102ED
100
AcDbEntity
  8
1
  6
Continuous
100
AcDbCircle
 10
41.89396
 20
380.7466609999997
 30
0.0
 40
0.077791
100
AcDbArc
 50
270.0
 51
7.792999999999999
  0
ARC
  5
10709
330
102ED
100
AcDbEntity
  8
1
  6
Continuous
100
AcDbCircle
 10
32.801192
 20
379.500925
 30
0.0
 40
9.254918999999999
100
AcDbArc
 50
7.792999999999999
 51
10.10399999999999
  0
LINE
  5
1070A
330
102ED
100
AcDbEntity
  8
1
  6
Continuous
100
AcDbLine
 10
36.773653
 20
380.667717
 30
0.0
 11
41.89396
 21
380.667717
 31
0.0
  0
LINE
  5
1070B
330
102ED
100
AcDbEntity
  8
1
  6
Continuous
100
AcDbLine
 10
41.529239
 20
381.4461049999999
 30
0.0
 11
39.33301699999999
 21
381.4461049999999
 31
0.0
  0
LINE
  5
1070C
330
102ED
100
AcDbEntity
  8
1
  6
Continuous
100
AcDbLine
 10
36.776811
 20
382.222914
 30
0.0
 11
41.646076
 21
382.222914
 31
0.0
  0
ARC
  5
1070D
330
102ED
100
AcDbEntity
  8
1
  6
Continuous
100
AcDbCircle
 10
34.40417399999999
 20
389.500925
 30
0.0
 40
1.0
100
AcDbArc
 50
90.0
 51
146.3099319999997
  0
ARC
  5
1070E
330
102ED
100
AcDbEntity
  8
1
  6
Continuous
100
AcDbCircle
 10
34.40417399999999
 20
389.500925
 30
0.0
 40
2.0
100
AcDbArc
 50
90.0
 51
146.3099319999997
  0
ARC
  5
1070F
330
102ED
100
AcDbEntity
  8
1
  6
Continuous
100
AcDbCircle
 10
33.833807
 20
383.0009249999998
 30
0.0
 40
0.5
100
AcDbArc
 50
0.0
 51
90.0
  0
ARC
  5
10710
330
102ED
100
AcDbEntity
  8
1
  6
Continuous
100
AcDbCircle
 10
33.833807
 20
376.0009249999998
 30
0.0
 40
0.5
100
AcDbArc
 50
270.0
 51
0.0
  0
LINE
  5
10711
330
102ED
100
AcDbEntity
  8
1
  6
Continuous
100
AcDbLine
 10
34.333807
 20
383.0009249999998
 30
0.0
 11
34.333807
 21
376.0009249999998
 31
0.0
  0
LINE
  5
10712
330
102ED
100
AcDbEntity
  8
1
  6
Continuous
100
AcDbLine
 10
34.40417399999999
 20
390.5009249999998
 30
0.0
 11
38.66714
 21
390.5009249999998
 31
0.0
  0
LINE
  5
10713
330
102ED
100
AcDbEntity
  8
1
  6
Continuous
100
AcDbLine
 10
34.40417399999999
 20
391.500925
 30
0.0
 11
38.66714
 21
391.500925
 31
0.0
  0
ARC
  5
10714
330
102ED
100
AcDbEntity
  8
1
  6
Continuous
100
AcDbCircle
 10
56.03380699999998
 20
375.300925
 30
0.0
 40
0.3
100
AcDbArc
 50
270.0
 51
0.0
  0
ARC
  5
10715
330
102ED
100
AcDbEntity
  8
1
  6
Continuous
100
AcDbCircle
 10
56.03380699999998
 20
383.7009249999999
 30
0.0
 40
0.3
100
AcDbArc
 50
0.0
 51
90.0
  0
LINE
  5
10716
330
102ED
100
AcDbEntity
  8
1
  6
Continuous
100
AcDbLine
 10
56.333807
 20
376.4009249999999
 30
0.0
 11
56.333807
 21
375.300925
 31
0.0
  0
LINE
  5
10717
330
102ED
100
AcDbEntity
  8
1
  6
Continuous
100
AcDbLine
 10
56.333807
 20
383.7009249999999
 30
0.0
 11
56.333807
 21
382.600925
 31
0.0
  0
LINE
  5
10718
330
102ED
100
AcDbEntity
  8
1
  6
Continuous
100
AcDbLine
 10
52.83380699999999
 20
380.2009249999999
 30
0.0
 11
52.83380699999999
 21
379.000925
 31
0.0
  0
LINE
  5
10719
330
102ED
100
AcDbEntity
  8
1
  6
Continuous
100
AcDbLine
 10
49.333807
 20
376.2509249999998
 30
0.0
 11
49.333807
 21
382.7509249999998
 31
0.0
  0
LINE
  5
1071A
330
102ED
100
AcDbEntity
  8
1
  6
Continuous
100
AcDbLine
 10
49.333807
 20
384.0009249999998
 30
0.0
 11
56.03380699999998
 21
384.0009249999998
 31
0.0
  0
LINE
  5
1071B
330
102ED
100
AcDbEntity
  8
1
  6
Continuous
100
AcDbLine
 10
49.333807
 20
375.000925
 30
0.0
 11
56.03380699999998
 21
375.000925
 31
0.0
  0
LINE
  5
1071C
330
102ED
100
AcDbEntity
  8
1
  6
Continuous
100
AcDbLine
 10
72.83380699999998
 20
376.4009249999999
 30
0.0
 11
76.17590099999998
 21
379.5362719999998
 31
0.0
  0
LINE
  5
1071D
330
102ED
100
AcDbEntity
  8
1
  6
Continuous
100
AcDbLine
 10
73.83380699999998
 20
382.600925
 30
0.0
 11
76.186825
 21
380.2550129999998
 31
0.0
  0
ARC
  5
1071E
330
102ED
100
AcDbEntity
  8
1
  6
Continuous
100
AcDbCircle
 10
75.83380699999998
 20
379.9009249999999
 30
0.0
 40
0.5
100
AcDbArc
 50
313.1718549999998
 51
45.08664600000001
  0
ENDSEC
  0
SECTION
  2
OBJECTS
  0
DICTIONARY
  5
102DB
330
0
100
AcDbDictionary
281
     1
  3
ACAD_CIP_PREVIOUS_PRODUCT_INFO
350
10784
  3
ACAD_COLOR
350
10766
  3
ACAD_DETAILVIEWSTYLE
350
1077F
  3
ACAD_GROUP
350
102DC
  3
ACAD_LAYOUT
350
102E8
  3
ACAD_MATERIAL
350
10734
  3
ACAD_MLEADERSTYLE
350
1077B
  3
ACAD_MLINESTYLE
350
102E5
  3
ACAD_PLOTSETTINGS
350
102E7
  3
ACAD_PLOTSTYLENAME
350
10732
  3
ACAD_SCALELIST
350
10769
  3
ACAD_SECTIONVIEWSTYLE
350
1077D
  3
ACAD_TABLESTYLE
350
10767
  3
ACAD_VISUALSTYLE
350
1074D
  3
ACDB_RECOMPOSE_DATA
350
107A2
  3
AcDbVariableDictionary
350
10795
  3
DWGPROPS
350
107A3
  0
DICTIONARY
  5
10785
330
102DF
100
AcDbDictionary
280
     1
281
     1
  3
ADSK_XREC_LAYER_RECONCILED
360
10786
  0
DICTIONARY
  5
10787
330
102F5
100
AcDbDictionary
280
     1
281
     1
  3
ADSK_XREC_LAYER_RECONCILED
360
10788
  0
DICTIONARY
  5
10789
330
102F6
100
AcDbDictionary
280
     1
281
     1
  3
ADSK_XREC_LAYER_RECONCILED
360
1078A
  0
DICTIONARY
  5
1078B
330
102F7
100
AcDbDictionary
280
     1
281
     1
  3
ADSK_XREC_LAYER_RECONCILED
360
1078C
  0
DICTIONARY
  5
1078D
330
102F8
100
AcDbDictionary
280
     1
281
     1
  3
ADSK_XREC_LAYER_RECONCILED
360
1078E
  0
DICTIONARY
  5
1078F
330
102F9
100
AcDbDictionary
280
     1
281
     1
  3
ADSK_XREC_LAYER_RECONCILED
360
10790
  0
DICTIONARY
  5
10791
330
102FA
100
AcDbDictionary
280
     1
281
     1
  3
ADSK_XREC_LAYER_RECONCILED
360
10792
  0
DICTIONARY
  5
10793
330
102FB
100
AcDbDictionary
280
     1
281
     1
  3
ADSK_XREC_LAYER_RECONCILED
360
10794
  0
DICTIONARY
  5
1072D
330
102ED
100
AcDbDictionary
281
     1
  3
ACAD_LAYOUTSELFREF
350
1072E
  0
DICTIONARY
  5
1072B
330
102E9
100
AcDbDictionary
281
     1
  3
ACAD_LAYOUTSELFREF
350
1072C
  0
XRECORD
  5
10784
102
{ACAD_REACTORS
330
102DB
102
}
330
102DB
100
AcDbXrecord
280
     1
300
ACDLT
300
2014
300
ACDLT_F_S
  0
DICTIONARY
  5
10766
102
{ACAD_REACTORS
330
102DB
102
}
330
102DB
100
AcDbDictionary
281
     1
  0
DICTIONARY
  5
1077F
102
{ACAD_REACTORS
330
102DB
102
}
330
102DB
100
AcDbDictionary
281
     1
  3
Imperial24
350
10780
  0
DICTIONARY
  5
102DC
102
{ACAD_REACTORS
330
102DB
102
}
330
102DB
100
AcDbDictionary
281
     1
  0
DICTIONARY
  5
102E8
102
{ACAD_REACTORS
330
102DB
102
}
330
102DB
100
AcDbDictionary
281
     1
  3
Model
350
10781
  3
レイアウト1
350
10782
  0
DICTIONARY
  5
10734
102
{ACAD_REACTORS
330
102DB
102
}
330
102DB
100
AcDbDictionary
281
     1
  3
ByBlock
350
1073D
  3
ByLayer
350
10735
  3
Global
350
10745
  0
DICTIONARY
  5
1077B
102
{ACAD_REACTORS
330
102DB
102
}
330
102DB
100
AcDbDictionary
281
     1
  3
Standard
350
1077C
  0
DICTIONARY
  5
102E5
102
{ACAD_REACTORS
330
102DB
102
}
330
102DB
100
AcDbDictionary
281
     1
  3
STANDARD
350
102E6
  0
DICTIONARY
  5
102E7
102
{ACAD_REACTORS
330
102DB
102
}
330
102DB
100
AcDbDictionary
281
     1
  0
ACDBDICTIONARYWDFLT
  5
10732
102
{ACAD_REACTORS
330
102DB
102
}
330
102DB
100
AcDbDictionary
281
     1
  3
Normal
350
10733
100
AcDbDictionaryWithDefault
340
10733
  0
DICTIONARY
  5
10769
102
{ACAD_REACTORS
330
102DB
102
}
330
102DB
100
AcDbDictionary
281
     1
  3
A0
350
1076A
  3
A1
350
1076B
  3
A2
350
1076C
  3
A3
350
1076D
  3
A4
350
1076E
  3
A5
350
1076F
  3
A6
350
10770
  3
A7
350
10771
  3
A8
350
10772
  3
A9
350
10773
  3
B0
350
10774
  3
B1
350
10775
  3
B2
350
10776
  3
B3
350
10777
  3
B4
350
10778
  3
B5
350
10779
  3
B6
350
1077A
  0
DICTIONARY
  5
1077D
102
{ACAD_REACTORS
330
102DB
102
}
330
102DB
100
AcDbDictionary
281
     1
  3
Imperial24
350
1077E
  0
DICTIONARY
  5
10767
102
{ACAD_REACTORS
330
102DB
102
}
330
102DB
100
AcDbDictionary
281
     1
  3
Standard
350
10768
  0
DICTIONARY
  5
1074D
102
{ACAD_REACTORS
330
102DB
102
}
330
102DB
100
AcDbDictionary
281
     1
  3
2dWireframe
350
10753
  3
Basic
350
10752
  3
Brighten
350
10759
  3
ColorChange
350
1075D
  3
Conceptual
350
10756
  3
Dim
350
10758
  3
EdgeColorOff
350
10765
  3
Facepattern
350
1075C
  3
Flat
350
1074E
  3
FlatWithEdges
350
1074F
  3
Gouraud
350
10750
  3
GouraudWithEdges
350
10751
  3
Hidden
350
10755
  3
JitterOff
350
10763
  3
Linepattern
350
1075B
  3
OverhangOff
350
10764
  3
Realistic
350
10757
  3
Shaded
350
10762
  3
Shaded with edges
350
10761
  3
Shades of Gray
350
1075E
  3
Sketchy
350
1075F
  3
Thicken
350
1075A
  3
Wireframe
350
10754
  3
X-Ray
350
10760
  0
XRECORD
  5
107A2
102
{ACAD_REACTORS
330
102DB
102
}
330
102DB
100
AcDbXrecord
280
     1
 90
        1
330
10768
  0
DICTIONARY
  5
10795
102
{ACAD_REACTORS
330
102DB
102
}
330
102DB
100
AcDbDictionary
281
     1
  3
CANNOSCALE
350
1079A
  3
CMLEADERSTYLE
350
10797
  3
CTABLESTYLE
350
10796
  3
CVIEWDETAILSTYLE
350
10798
  3
CVIEWSECTIONSTYLE
350
10799
  3
DIMASSOC
350
1079D
  3
INDEXCTL
350
1079C
  3
SORTENTS
350
1079B
  3
XCLIPFRAME
350
1079E
  0
XRECORD
  5
107A3
102
{ACAD_REACTORS
330
102DB
102
}
330
102DB
100
AcDbXrecord
280
     1
  1
DWGPROPS COOKIE
  2

  3

  4

  6

  7

  8
Yoshitsune
  9

300
=
301
=
302
=
303
=
304
=
305
=
306
=
307
=
308
=
309
=
 40
0.0017321875
 41
2451417.57226956
 42
2457192.641389202
  1

 90
        0
  0
XRECORD
  5
10786
102
{ACAD_REACTORS
330
10785
102
}
330
10785
100
AcDbXrecord
280
     1
290
     1
  0
XRECORD
  5
10788
102
{ACAD_REACTORS
330
10787
102
}
330
10787
100
AcDbXrecord
280
     1
290
     1
  0
XRECORD
  5
1078A
102
{ACAD_REACTORS
330
10789
102
}
330
10789
100
AcDbXrecord
280
     1
290
     1
  0
XRECORD
  5
1078C
102
{ACAD_REACTORS
330
1078B
102
}
330
1078B
100
AcDbXrecord
280
     1
290
     1
  0
XRECORD
  5
1078E
102
{ACAD_REACTORS
330
1078D
102
}
330
1078D
100
AcDbXrecord
280
     1
290
     1
  0
XRECORD
  5
10790
102
{ACAD_REACTORS
330
1078F
102
}
330
1078F
100
AcDbXrecord
280
     1
290
     1
  0
XRECORD
  5
10792
102
{ACAD_REACTORS
330
10791
102
}
330
10791
100
AcDbXrecord
280
     1
290
     1
  0
XRECORD
  5
10794
102
{ACAD_REACTORS
330
10793
102
}
330
10793
100
AcDbXrecord
280
     1
290
     1
  0
XRECORD
  5
1072E
102
{ACAD_REACTORS
330
1072D
102
}
330
1072D
100
AcDbXrecord
280
     1
340
102ED
  0
XRECORD
  5
1072C
102
{ACAD_REACTORS
330
1072B
102
}
330
1072B
100
AcDbXrecord
280
     1
340
102E9
  0
ACDBDETAILVIEWSTYLE
  5
10780
102
{ACAD_XDICTIONARY
360
107DB
102
}
102
{ACAD_REACTORS
330
1077F
102
}
330
1077F
100
AcDbModelDocViewStyle
 70
     0
  3
Imperial24
290
     0
100
AcDbDetailViewStyle
 70
     0
 71
     0
 90
        3
 71
     1
340
102E0
 40
0.24
340
0
 40
0.24
300

 40
0.36
280
     3
 71
     2
340
102E4
 90
       25
 71
     3
340
102E0
 40
0.24
 90
        1
 40
0.75
 90
        1
300
%<\AcVar ViewType \f "%tc1">% %<\AcVar ViewDetailId>%\PSCALE %<\AcVar ViewScale \f "%sn">%
 71
     4
340
102E4
 90
       25
340
102E4
 90
       25
280
     0
  0
LAYOUT
  5
10781
102
{ACAD_XDICTIONARY
360
107DD
102
}
102
{ACAD_REACTORS
330
102E8
102
}
330
102E8
100
AcDbPlotSettings
  1

  2
Canon LBP9100C
  4

  6

 40
0.0
 41
0.0
 42
0.0
 43
0.0
 44
0.0
 45
0.0
 46
0.0
 47
0.0
 48
0.0
 49
0.0
140
0.0
141
0.0
142
1.0
143
1.0
 70
  1712
 72
     0
 73
     0
 74
     0
  7

 75
     0
147
1.0
148
0.0
149
0.0
100
AcDbLayout
  1
Model
 70
     1
 71
     0
 10
0.0
 20
0.0
 11
12.0
 21
9.0
 12
0.0
 22
0.0
 32
0.0
 14
0.0
 24
0.0
 34
0.0
 15
0.0
 25
0.0
 35
0.0
146
0.0
 13
0.0
 23
0.0
 33
0.0
 16
1.0
 26
0.0
 36
0.0
 17
0.0
 27
1.0
 37
0.0
 76
     0
330
102ED
331
1072A
  0
LAYOUT
  5
10782
102
{ACAD_XDICTIONARY
360
107DF
102
}
102
{ACAD_REACTORS
330
102E8
102
}
330
102E8
100
AcDbPlotSettings
  1

  2
Canon LBP9100C
  4

  6

 40
0.0
 41
0.0
 42
0.0
 43
0.0
 44
0.0
 45
0.0
 46
0.0
 47
0.0
 48
0.0
 49
0.0
140
0.0
141
0.0
142
1.0
143
1.0
 70
   688
 72
     0
 73
     0
 74
     5
  7

 75
    16
147
1.0
148
0.0
149
0.0
100
AcDbLayout
  1
レイアウト1
 70
     0
 71
     1
 10
0.0
 20
0.0
 11
420.0
 21
297.0
 12
0.0
 22
0.0
 32
0.0
 14
1.000000000000000E+20
 24
1.000000000000000E+20
 34
1.000000000000000E+20
 15
-1.000000000000000E+20
 25
-1.000000000000000E+20
 35
-1.000000000000000E+20
146
0.0
 13
0.0
 23
0.0
 33
0.0
 16
1.0
 26
0.0
 36
0.0
 17
0.0
 27
1.0
 37
0.0
 76
     0
330
102E9
  0
MATERIAL
  5
1073D
102
{ACAD_XDICTIONARY
360
1073E
102
}
102
{ACAD_REACTORS
330
10734
102
}
330
10734
100
AcDbMaterial
  1
ByBlock
 72
     0
 43
0.0208333333333333
 43
0.0
 43
0.0
 43
0.0
 43
0.0
 43
0.0208333333333333
 43
0.0
 43
0.0
 43
0.0
 43
0.0
 43
1.0
 43
0.0
 43
0.0
 43
0.0
 43
0.0
 43
1.0
 77
     0
 47
0.0208333333333333
 47
0.0
 47
0.0
 47
0.0
 47
0.0
 47
0.0208333333333333
 47
0.0
 47
0.0
 47
0.0
 47
0.0
 47
1.0
 47
0.0
 47
0.0
 47
0.0
 47
0.0
 47
1.0
171
     0
 49
0.0208333333333333
 49
0.0
 49
0.0
 49
0.0
 49
0.0
 49
0.0208333333333333
 49
0.0
 49
0.0
 49
0.0
 49
0.0
 49
1.0
 49
0.0
 49
0.0
 49
0.0
 49
0.0
 49
1.0
175
     0
142
0.0208333333333333
142
0.0
142
0.0
142
0.0
142
0.0
142
0.0208333333333333
142
0.0
142
0.0
142
0.0
142
0.0
142
1.0
142
0.0
142
0.0
142
0.0
142
0.0
142
1.0
179
     0
144
0.0208333333333333
144
0.0
144
0.0
144
0.0
144
0.0
144
0.0208333333333333
144
0.0
144
0.0
144
0.0
144
0.0
144
1.0
144
0.0
144
0.0
144
0.0
144
0.0
144
1.0
147
0.0208333333333333
147
0.0
147
0.0
147
0.0
147
0.0
147
0.0208333333333333
147
0.0
147
0.0
147
0.0
147
0.0
147
1.0
147
0.0
147
0.0
147
0.0
147
0.0
147
1.0
  0
MATERIAL
  5
10735
102
{ACAD_XDICTIONARY
360
10736
102
}
102
{ACAD_REACTORS
330
10734
102
}
330
10734
100
AcDbMaterial
  1
ByLayer
 72
     0
 43
0.0208333333333333
 43
0.0
 43
0.0
 43
0.0
 43
0.0
 43
0.0208333333333333
 43
0.0
 43
0.0
 43
0.0
 43
0.0
 43
1.0
 43
0.0
 43
0.0
 43
0.0
 43
0.0
 43
1.0
 77
     0
 47
0.0208333333333333
 47
0.0
 47
0.0
 47
0.0
 47
0.0
 47
0.0208333333333333
 47
0.0
 47
0.0
 47
0.0
 47
0.0
 47
1.0
 47
0.0
 47
0.0
 47
0.0
 47
0.0
 47
1.0
171
     0
 49
0.0208333333333333
 49
0.0
 49
0.0
 49
0.0
 49
0.0
 49
0.0208333333333333
 49
0.0
 49
0.0
 49
0.0
 49
0.0
 49
1.0
 49
0.0
 49
0.0
 49
0.0
 49
0.0
 49
1.0
175
     0
142
0.0208333333333333
142
0.0
142
0.0
142
0.0
142
0.0
142
0.0208333333333333
142
0.0
142
0.0
142
0.0
142
0.0
142
1.0
142
0.0
142
0.0
142
0.0
142
0.0
142
1.0
179
     0
144
0.0208333333333333
144
0.0
144
0.0
144
0.0
144
0.0
144
0.0208333333333333
144
0.0
144
0.0
144
0.0
144
0.0
144
1.0
144
0.0
144
0.0
144
0.0
144
0.0
144
1.0
147
0.0208333333333333
147
0.0
147
0.0
147
0.0
147
0.0
147
0.0208333333333333
147
0.0
147
0.0
147
0.0
147
0.0
147
1.0
147
0.0
147
0.0
147
0.0
147
0.0
147
1.0
  0
MATERIAL
  5
10745
102
{ACAD_XDICTIONARY
360
10746
102
}
102
{ACAD_REACTORS
330
10734
102
}
330
10734
100
AcDbMaterial
  1
Global
 72
     0
 43
0.0208333333333333
 43
0.0
 43
0.0
 43
0.0
 43
0.0
 43
0.0208333333333333
 43
0.0
 43
0.0
 43
0.0
 43
0.0
 43
1.0
 43
0.0
 43
0.0
 43
0.0
 43
0.0
 43
1.0
 77
     0
 47
0.0208333333333333
 47
0.0
 47
0.0
 47
0.0
 47
0.0
 47
0.0208333333333333
 47
0.0
 47
0.0
 47
0.0
 47
0.0
 47
1.0
 47
0.0
 47
0.0
 47
0.0
 47
0.0
 47
1.0
171
     0
 49
0.0208333333333333
 49
0.0
 49
0.0
 49
0.0
 49
0.0
 49
0.0208333333333333
 49
0.0
 49
0.0
 49
0.0
 49
0.0
 49
1.0
 49
0.0
 49
0.0
 49
0.0
 49
0.0
 49
1.0
175
     0
142
0.0208333333333333
142
0.0
142
0.0
142
0.0
142
0.0
142
0.0208333333333333
142
0.0
142
0.0
142
0.0
142
0.0
142
1.0
142
0.0
142
0.0
142
0.0
142
0.0
142
1.0
179
     0
144
0.0208333333333333
144
0.0
144
0.0
144
0.0
144
0.0
144
0.0208333333333333
144
0.0
144
0.0
144
0.0
144
0.0
144
1.0
144
0.0
144
0.0
144
0.0
144
0.0
144
1.0
147
0.0208333333333333
147
0.0
147
0.0
147
0.0
147
0.0
147
0.0208333333333333
147
0.0
147
0.0
147
0.0
147
0.0
147
1.0
147
0.0
147
0.0
147
0.0
147
0.0
147
1.0
  0
MLEADERSTYLE
  5
1077C
102
{ACAD_REACTORS
330
1077B
102
}
330
1077B
100
AcDbMLeaderStyle
170
     2
171
     1
172
     0
 90
        2
 40
0.0
 41
0.0
173
     1
 91
-1056964608
340
102E2
 92
       -2
290
     1
 42
0.09
291
     1
 43
0.36
  3
Standard
 44
0.18
300

342
102E0
174
     1
178
     6
175
     1
176
     0
 93
-1056964608
 45
0.18
292
     0
297
     0
 46
0.18
 94
-1056964608
 47
1.0
 49
1.0
140
1.0
293
     1
141
0.0
294
     1
177
     0
142
1.0
295
     0
296
     0
143
0.125
1001
ACAD_MLEADERVER
1070
     2
  0
MLINESTYLE
  5
102E6
102
{ACAD_REACTORS
330
102E5
102
}
330
102E5
100
AcDbMlineStyle
  2
STANDARD
 70
     0
  3

 62
   256
 51
90.0
 52
90.0
 71
     2
 49
0.5
 62
   256
  6
BYLAYER
 49
-0.5
 62
   256
  6
BYLAYER
  0
ACDBPLACEHOLDER
  5
10733
102
{ACAD_REACTORS
330
10732
102
}
330
10732
  0
SCALE
  5
1076A
102
{ACAD_REACTORS
330
10769
102
}
330
10769
100
AcDbScale
 70
     0
300
1:1
140
1.0
141
1.0
290
     1
  0
SCALE
  5
1076B
102
{ACAD_REACTORS
330
10769
102
}
330
10769
100
AcDbScale
 70
     0
300
1/128" = 1'-0"
140
0.0078125
141
12.0
290
     0
  0
SCALE
  5
1076C
102
{ACAD_REACTORS
330
10769
102
}
330
10769
100
AcDbScale
 70
     0
300
1/64" = 1'-0"
140
0.015625
141
12.0
290
     0
  0
SCALE
  5
1076D
102
{ACAD_REACTORS
330
10769
102
}
330
10769
100
AcDbScale
 70
     0
300
1/32" = 1'-0"
140
0.03125
141
12.0
290
     0
  0
SCALE
  5
1076E
102
{ACAD_REACTORS
330
10769
102
}
330
10769
100
AcDbScale
 70
     0
300
1/16" = 1'-0"
140
0.0625
141
12.0
290
     0
  0
SCALE
  5
1076F
102
{ACAD_REACTORS
330
10769
102
}
330
10769
100
AcDbScale
 70
     0
300
3/32" = 1'-0"
140
0.09375
141
12.0
290
     0
  0
SCALE
  5
10770
102
{ACAD_REACTORS
330
10769
102
}
330
10769
100
AcDbScale
 70
     0
300
1/8" = 1'-0"
140
0.125
141
12.0
290
     0
  0
SCALE
  5
10771
102
{ACAD_REACTORS
330
10769
102
}
330
10769
100
AcDbScale
 70
     0
300
3/16" = 1'-0"
140
0.1875
141
12.0
290
     0
  0
SCALE
  5
10772
102
{ACAD_REACTORS
330
10769
102
}
330
10769
100
AcDbScale
 70
     0
300
1/4" = 1'-0"
140
0.25
141
12.0
290
     0
  0
SCALE
  5
10773
102
{ACAD_REACTORS
330
10769
102
}
330
10769
100
AcDbScale
 70
     0
300
3/8" = 1'-0"
140
0.375
141
12.0
290
     0
  0
SCALE
  5
10774
102
{ACAD_REACTORS
330
10769
102
}
330
10769
100
AcDbScale
 70
     0
300
1/2" = 1'-0"
140
0.5
141
12.0
290
     0
  0
SCALE
  5
10775
102
{ACAD_REACTORS
330
10769
102
}
330
10769
100
AcDbScale
 70
     0
300
3/4" = 1'-0"
140
0.75
141
12.0
290
     0
  0
SCALE
  5
10776
102
{ACAD_REACTORS
330
10769
102
}
330
10769
100
AcDbScale
 70
     0
300
1" = 1'-0"
140
1.0
141
12.0
290
     0
  0
SCALE
  5
10777
102
{ACAD_REACTORS
330
10769
102
}
330
10769
100
AcDbScale
 70
     0
300
1-1/2" = 1'-0"
140
1.5
141
12.0
290
     0
  0
SCALE
  5
10778
102
{ACAD_REACTORS
330
10769
102
}
330
10769
100
AcDbScale
 70
     0
300
3" = 1'-0"
140
3.0
141
12.0
290
     0
  0
SCALE
  5
10779
102
{ACAD_REACTORS
330
10769
102
}
330
10769
100
AcDbScale
 70
     0
300
6" = 1'-0"
140
6.0
141
12.0
290
     0
  0
SCALE
  5
1077A
102
{ACAD_REACTORS
330
10769
102
}
330
10769
100
AcDbScale
 70
     0
300
1'-0" = 1'-0"
140
12.0
141
12.0
290
     0
  0
ACDBSECTIONVIEWSTYLE
  5
1077E
102
{ACAD_XDICTIONARY
360
107D9
102
}
102
{ACAD_REACTORS
330
1077D
102
}
330
1077D
100
AcDbModelDocViewStyle
 70
     0
  3
Imperial24
290
     0
100
AcDbSectionViewStyle
 70
     0
 71
     0
 90
       78
 71
     1
340
102E0
 40
0.24
340
0
340
0
 40
0.24
300
I, O, Q, S, X, Z
 40
0.48
 90
        3
 40
0.18
 90
        1
 71
     2
340
102E4
 90
       25
340
102E4
 90
       50
 40
0.24
 40
0.0
 40
0.24
 71
     3
340
102E0
 40
0.24
 90
        1
 40
0.75
 90
        1
300
%<\AcVar ViewType \f "%tc1">% %<\AcVar ViewSectionStartId>%-%<\AcVar ViewSectionEndId>%\PSCALE %<\AcVar ViewScale \f "%sn">%
 71
     4
300
ANSI31
 40
1.0
 90
        0
290
     0
290
     0
 90
        6
 40
0.0
 40
1.570796326794896
 40
0.2617993877991494
 40
1.308996938995747
 40
-0.2617993877991494
 40
1.832595714594046
  0
TABLESTYLE
  5
10768
102
{ACAD_XDICTIONARY
360
107A0
102
}
102
{ACAD_REACTORS
330
10767
102
}
330
10767
100
AcDbTableStyle
  3
Standard
 70
     0
 71
     0
 40
0.06
 41
0.06
280
     0
281
     0
  7
STANDARD
140
0.18
170
     2
 62
     0
 63
     7
283
     0
274
    -2
284
     1
 64
     0
275
    -2
285
     1
 65
     0
276
    -2
286
     1
 66
     0
277
    -2
287
     1
 67
     0
278
    -2
288
     1
 68
     0
279
    -2
289
     1
 69
     0
  7
STANDARD
140
0.25
170
     5
 62
     0
 63
     7
283
     0
274
    -2
284
     1
 64
     0
275
    -2
285
     1
 65
     0
276
    -2
286
     1
 66
     0
277
    -2
287
     1
 67
     0
278
    -2
288
     1
 68
     0
279
    -2
289
     1
 69
     0
  7
STANDARD
140
0.18
170
     5
 62
     0
 63
     7
283
     0
274
    -2
284
     1
 64
     0
275
    -2
285
     1
 65
     0
276
    -2
286
     1
 66
     0
277
    -2
287
     1
 67
     0
278
    -2
288
     1
 68
     0
279
    -2
289
     1
 69
     0
  0
VISUALSTYLE
  5
10753
102
{ACAD_XDICTIONARY
360
107B1
102
}
102
{ACAD_REACTORS
330
1074D
102
}
330
1074D
100
AcDbVisualStyle
  2
2dWireframe
 70
     4
 71
     0
 72
     2
 73
     0
 90
        0
 40
-0.6
 41
-30.0
 62
     5
 63
     7
 74
     1
 91
        4
 64
     7
 65
   257
 75
     1
175
     1
 42
1.0
 92
        0
 66
   257
 43
1.0
 76
     1
 77
     6
 78
     2
 67
     7
 79
     5
170
     0
171
     0
290
     0
174
     0
 93
        1
 44
0.0
173
     0
291
     0
 45
0.0
1001
ACAD
1000
AcDbSavedByObjectVersion
1070
     0
  0
VISUALSTYLE
  5
10752
102
{ACAD_XDICTIONARY
360
107AF
102
}
102
{ACAD_REACTORS
330
1074D
102
}
330
1074D
100
AcDbVisualStyle
  2
Basic
 70
     7
 71
     1
 72
     0
 73
     1
 90
        0
 40
-0.6
 41
-30.0
 62
     5
 63
     7
 74
     0
 91
        4
 64
     7
 65
   257
 75
     1
175
     1
 42
1.0
 92
        8
 66
     7
 43
1.0
 76
     1
 77
     6
 78
     2
 67
     7
 79
     5
170
     0
171
     0
290
     0
174
     0
 93
        1
 44
0.0
173
     0
291
     1
 45
0.0
1001
ACAD
1000
AcDbSavedByObjectVersion
1070
     0
  0
VISUALSTYLE
  5
10759
102
{ACAD_XDICTIONARY
360
107BD
102
}
102
{ACAD_REACTORS
330
1074D
102
}
330
1074D
100
AcDbVisualStyle
  2
Brighten
 70
    12
 71
     2
 72
     2
 73
     0
 90
        0
 40
-0.6
 41
-30.0
 62
     5
 63
     7
 74
     1
 91
        4
 64
     7
 65
   257
 75
     1
175
     1
 42
1.0
 92
        8
 66
     7
 43
1.0
 76
     1
 77
     6
 78
     2
 67
     7
 79
     5
170
     0
171
     0
290
     0
174
     0
 93
        1
 44
50.0
173
     0
291
     1
 45
0.0
1001
ACAD
1000
AcDbSavedByObjectVersion
1070
     0
  0
VISUALSTYLE
  5
1075D
102
{ACAD_XDICTIONARY
360
107C5
102
}
102
{ACAD_REACTORS
330
1074D
102
}
330
1074D
100
AcDbVisualStyle
  2
ColorChange
 70
    16
 71
     2
 72
     2
 73
     3
 90
        0
 40
-0.6
 41
-30.0
 62
     5
 63
     8
 74
     1
 91
        4
 64
     7
 65
   257
 75
     1
175
     1
 42
1.0
 92
        8
 66
     8
 43
1.0
 76
     1
 77
     6
 78
     2
 67
     7
 79
     5
170
     0
171
     0
290
     0
174
     0
 93
        1
 44
0.0
173
     0
291
     1
 45
0.0
1001
ACAD
1000
AcDbSavedByObjectVersion
1070
     0
  0
VISUALSTYLE
  5
10756
102
{ACAD_XDICTIONARY
360
107B7
102
}
102
{ACAD_REACTORS
330
1074D
102
}
330
1074D
100
AcDbVisualStyle
  2
Conceptual
 70
     9
 71
     3
 72
     2
 73
     0
 90
        0
 40
-0.6
 41
-30.0
 62
     5
 63
     7
 74
     2
 91
        2
 64
     7
 65
   257
 75
     1
175
     1
 42
179.0
 92
        8
 66
     7
 43
1.0
 76
     1
 77
     6
 78
     2
 67
     7
 79
     3
170
     0
171
     0
290
     0
174
     0
 93
        1
 44
0.0
173
     0
291
     0
 45
0.0
1001
ACAD
1000
AcDbSavedByObjectVersion
1070
     0
  0
VISUALSTYLE
  5
10758
102
{ACAD_XDICTIONARY
360
107BB
102
}
102
{ACAD_REACTORS
330
1074D
102
}
330
1074D
100
AcDbVisualStyle
  2
Dim
 70
    11
 71
     2
 72
     2
 73
     0
 90
        0
 40
-0.6
 41
-30.0
 62
     5
 63
     7
 74
     1
 91
        4
 64
     7
 65
   257
 75
     1
175
     1
 42
1.0
 92
        8
 66
     7
 43
1.0
 76
     1
 77
     6
 78
     2
 67
     7
 79
     5
170
     0
171
     0
290
     0
174
     0
 93
        1
 44
-50.0
173
     0
291
     1
 45
0.0
1001
ACAD
1000
AcDbSavedByObjectVersion
1070
     0
  0
VISUALSTYLE
  5
10765
102
{ACAD_XDICTIONARY
360
107D5
102
}
102
{ACAD_REACTORS
330
1074D
102
}
330
1074D
100
AcDbVisualStyle
  2
EdgeColorOff
 70
    22
 71
     2
 72
     2
 73
     0
 90
        0
 40
-0.6
 41
-30.0
 62
     5
 63
     7
 74
     1
 91
        4
 64
     7
 65
   257
 75
     1
175
     1
 42
1.0
 92
        8
 66
     7
 43
1.0
 76
     1
 77
     6
 78
     2
 67
     7
 79
     5
170
     0
171
     0
290
     0
174
     0
 93
        1
 44
0.0
173
     0
291
     1
 45
0.0
1001
ACAD
1000
AcDbSavedByObjectVersion
1070
     0
  0
VISUALSTYLE
  5
1075C
102
{ACAD_XDICTIONARY
360
107C3
102
}
102
{ACAD_REACTORS
330
1074D
102
}
330
1074D
100
AcDbVisualStyle
  2
Facepattern
 70
    15
 71
     2
 72
     2
 73
     0
 90
        0
 40
-0.6
 41
-30.0
 62
     5
 63
     7
 74
     1
 91
        4
 64
     7
 65
   257
 75
     1
175
     1
 42
1.0
 92
        8
 66
     7
 43
1.0
 76
     1
 77
     6
 78
     2
 67
     7
 79
     5
170
     0
171
     0
290
     0
174
     0
 93
        1
 44
0.0
173
     0
291
     1
 45
0.0
1001
ACAD
1000
AcDbSavedByObjectVersion
1070
     0
  0
VISUALSTYLE
  5
1074E
102
{ACAD_XDICTIONARY
360
107A7
102
}
102
{ACAD_REACTORS
330
1074D
102
}
330
1074D
100
AcDbVisualStyle
  2
Flat
 70
     0
 71
     2
 72
     1
 73
     1
 90
        2
 40
-0.6
 41
30.0
 62
     5
 63
     7
 74
     0
 91
        0
 64
     7
 65
   257
 75
     1
175
     1
 42
1.0
 92
        8
 66
     7
 43
1.0
 76
     1
 77
     6
 78
     2
 67
     7
 79
     5
170
     0
171
     0
290
     0
174
     0
 93
       13
 44
0.0
173
     0
291
     1
 45
0.0
1001
ACAD
1000
AcDbSavedByObjectVersion
1070
     0
  0
VISUALSTYLE
  5
1074F
102
{ACAD_XDICTIONARY
360
107A9
102
}
102
{ACAD_REACTORS
330
1074D
102
}
330
1074D
100
AcDbVisualStyle
  2
FlatWithEdges
 70
     1
 71
     2
 72
     1
 73
     1
 90
        2
 40
-0.6
 41
30.0
 62
     5
 63
     7
 74
     1
 91
        0
 64
     7
 65
   257
 75
     1
175
     1
 42
1.0
 92
        0
 66
   257
 43
1.0
 76
     1
 77
     6
 78
     2
 67
     7
 79
     5
170
     0
171
     0
290
     0
174
     0
 93
       13
 44
0.0
173
     0
291
     1
 45
0.0
1001
ACAD
1000
AcDbSavedByObjectVersion
1070
     0
  0
VISUALSTYLE
  5
10750
102
{ACAD_XDICTIONARY
360
107AB
102
}
102
{ACAD_REACTORS
330
1074D
102
}
330
1074D
100
AcDbVisualStyle
  2
Gouraud
 70
     2
 71
     2
 72
     2
 73
     1
 90
        2
 40
-0.6
 41
30.0
 62
     5
 63
     7
 74
     0
 91
        0
 64
     7
 65
   257
 75
     1
175
     1
 42
1.0
 92
        0
 66
     7
 43
1.0
 76
     1
 77
     6
 78
     2
 67
     7
 79
     5
170
     0
171
     0
290
     0
174
     0
 93
       13
 44
0.0
173
     0
291
     1
 45
0.0
1001
ACAD
1000
AcDbSavedByObjectVersion
1070
     0
  0
VISUALSTYLE
  5
10751
102
{ACAD_XDICTIONARY
360
107AD
102
}
102
{ACAD_REACTORS
330
1074D
102
}
330
1074D
100
AcDbVisualStyle
  2
GouraudWithEdges
 70
     3
 71
     2
 72
     2
 73
     1
 90
        2
 40
-0.6
 41
30.0
 62
     5
 63
     7
 74
     1
 91
        0
 64
     7
 65
   257
 75
     1
175
     1
 42
1.0
 92
        0
 66
   257
 43
1.0
 76
     1
 77
     6
 78
     2
 67
     7
 79
     5
170
     0
171
     0
290
     0
174
     0
 93
       13
 44
0.0
173
     0
291
     1
 45
0.0
1001
ACAD
1000
AcDbSavedByObjectVersion
1070
     0
  0
VISUALSTYLE
  5
10755
102
{ACAD_XDICTIONARY
360
107B5
102
}
102
{ACAD_REACTORS
330
1074D
102
}
330
1074D
100
AcDbVisualStyle
  2
Hidden
 70
     6
 71
     1
 72
     2
 73
     2
 90
        0
 40
-0.6
 41
-30.0
 62
     5
 63
     7
 74
     2
 91
        2
 64
     7
 65
   257
 75
     2
175
     1
 42
40.0
 92
        0
 66
   257
 43
1.0
 76
     1
 77
     6
 78
     2
 67
     7
 79
     3
170
     0
171
     0
290
     0
174
     0
 93
        1
 44
0.0
173
     0
291
     0
 45
0.0
1001
ACAD
1000
AcDbSavedByObjectVersion
1070
     0
  0
VISUALSTYLE
  5
10763
102
{ACAD_XDICTIONARY
360
107D1
102
}
102
{ACAD_REACTORS
330
1074D
102
}
330
1074D
100
AcDbVisualStyle
  2
JitterOff
 70
    20
 71
     2
 72
     2
 73
     0
 90
        0
 40
-0.6
 41
-30.0
 62
     5
 63
     7
 74
     1
 91
        4
 64
     7
 65
   257
 75
     1
175
     1
 42
1.0
 92
       10
 66
     7
 43
1.0
 76
     1
 77
     6
 78
     2
 67
     7
 79
     5
170
     0
171
     0
290
     0
174
     0
 93
        1
 44
0.0
173
     0
291
     1
 45
0.0
1001
ACAD
1000
AcDbSavedByObjectVersion
1070
     0
  0
VISUALSTYLE
  5
1075B
102
{ACAD_XDICTIONARY
360
107C1
102
}
102
{ACAD_REACTORS
330
1074D
102
}
330
1074D
100
AcDbVisualStyle
  2
Linepattern
 70
    14
 71
     2
 72
     2
 73
     0
 90
        0
 40
-0.6
 41
-30.0
 62
     5
 63
     7
 74
     1
 91
        4
 64
     7
 65
   257
 75
     7
175
     7
 42
1.0
 92
        8
 66
     7
 43
1.0
 76
     1
 77
     6
 78
     2
 67
     7
 79
     5
170
     0
171
     0
290
     0
174
     0
 93
        1
 44
0.0
173
     0
291
     1
 45
0.0
1001
ACAD
1000
AcDbSavedByObjectVersion
1070
     0
  0
VISUALSTYLE
  5
10764
102
{ACAD_XDICTIONARY
360
107D3
102
}
102
{ACAD_REACTORS
330
1074D
102
}
330
1074D
100
AcDbVisualStyle
  2
OverhangOff
 70
    21
 71
     2
 72
     2
 73
     0
 90
        0
 40
-0.6
 41
-30.0
 62
     5
 63
     7
 74
     1
 91
        4
 64
     7
 65
   257
 75
     1
175
     1
 42
1.0
 92
        9
 66
     7
 43
1.0
 76
     1
 77
     6
 78
     2
 67
     7
 79
     5
170
     0
171
     0
290
     0
174
     0
 93
        1
 44
0.0
173
     0
291
     1
 45
0.0
1001
ACAD
1000
AcDbSavedByObjectVersion
1070
     0
  0
VISUALSTYLE
  5
10757
102
{ACAD_XDICTIONARY
360
107B9
102
}
102
{ACAD_REACTORS
330
1074D
102
}
330
1074D
100
AcDbVisualStyle
  2
Realistic
 70
     8
 71
     2
 72
     3
 73
     0
 90
        2
 40
-0.6
 41
30.0
 62
     5
 63
     7
 74
     0
 91
        0
 64
     7
 65
   257
 75
     1
175
     1
 42
1.0
 92
        8
 66
   257
 43
1.0
 76
     1
 77
     6
 78
     2
 67
     7
 79
     3
170
     0
171
     0
290
     0
174
     0
 93
       13
 44
0.0
173
     0
291
     0
 45
0.0
1001
ACAD
1000
AcDbSavedByObjectVersion
1070
     0
  0
VISUALSTYLE
  5
10762
102
{ACAD_XDICTIONARY
360
107CF
102
}
102
{ACAD_REACTORS
330
1074D
102
}
330
1074D
100
AcDbVisualStyle
  2
Shaded
 70
    27
 71
     2
 72
     2
 73
     1
 90
        2
 40
-0.6
 41
30.0
 62
     5
 63
     7
 74
     0
 91
        4
 64
     7
 65
   257
 75
     1
175
     1
 42
1.0
 92
        8
 66
   257
 43
1.0
 76
     1
 77
     6
 78
     2
 67
     8
 79
     3
170
     0
171
     0
290
     0
174
     0
 93
        5
 44
0.0
173
     0
291
     0
 45
0.0
1001
ACAD
1000
AcDbSavedByObjectVersion
1070
     0
  0
VISUALSTYLE
  5
10761
102
{ACAD_XDICTIONARY
360
107CD
102
}
102
{ACAD_REACTORS
330
1074D
102
}
330
1074D
100
AcDbVisualStyle
  2
Shaded with edges
 70
    26
 71
     2
 72
     2
 73
     1
 90
        2
 40
-0.6
 41
30.0
 62
     5
 63
     7
 74
     1
 91
       10
 64
     7
 65
   257
 75
     2
175
     1
 42
1.0
 92
        8
 66
   257
 43
1.0
 76
     1
 77
     6
 78
     2
 67
     7
 79
     3
170
     0
171
     0
290
     0
174
     0
 93
        5
 44
0.0
173
     0
291
     0
 45
0.0
1001
ACAD
1000
AcDbSavedByObjectVersion
1070
     0
  0
VISUALSTYLE
  5
1075E
102
{ACAD_XDICTIONARY
360
107C7
102
}
102
{ACAD_REACTORS
330
1074D
102
}
330
1074D
100
AcDbVisualStyle
  2
Shades of Gray
 70
    23
 71
     2
 72
     2
 73
     3
 90
        0
 40
-0.6
 41
-30.0
 62
     5
 63
     7
 74
     2
 91
        2
 64
     7
 65
     7
 75
     1
175
     1
 42
40.0
 92
        8
 66
     7
 43
1.0
 76
     1
 77
     6
 78
     2
 67
     7
 79
     3
170
     0
171
     0
290
     0
174
     0
 93
        1
 44
0.0
173
     0
291
     0
 45
0.0
1001
ACAD
1000
AcDbSavedByObjectVersion
1070
     0
  0
VISUALSTYLE
  5
1075F
102
{ACAD_XDICTIONARY
360
107C9
102
}
102
{ACAD_REACTORS
330
1074D
102
}
330
1074D
100
AcDbVisualStyle
  2
Sketchy
 70
    24
 71
     1
 72
     2
 73
     2
 90
        0
 40
-0.6
 41
-30.0
 62
     5
 63
     7
 74
     2
 91
        2
 64
     7
 65
     7
 75
     1
175
     1
 42
40.0
 92
       11
 66
     7
 43
1.0
 76
     1
 77
     6
 78
     2
 67
     7
 79
     6
170
     0
171
     0
290
     0
174
     0
 93
        1
 44
0.0
173
     0
291
     0
 45
0.0
1001
ACAD
1000
AcDbSavedByObjectVersion
1070
     0
  0
VISUALSTYLE
  5
1075A
102
{ACAD_XDICTIONARY
360
107BF
102
}
102
{ACAD_REACTORS
330
1074D
102
}
330
1074D
100
AcDbVisualStyle
  2
Thicken
 70
    13
 71
     2
 72
     2
 73
     0
 90
        0
 40
-0.6
 41
-30.0
 62
     5
 63
     7
 74
     1
 91
        4
 64
     7
 65
   257
 75
     1
175
     1
 42
1.0
 92
       12
 66
     7
 43
1.0
 76
     1
 77
     6
 78
     2
 67
     7
 79
     5
170
     0
171
     0
290
     0
174
     0
 93
        1
 44
0.0
173
     0
291
     1
 45
0.0
1001
ACAD
1000
AcDbSavedByObjectVersion
1070
     0
  0
VISUALSTYLE
  5
10754
102
{ACAD_XDICTIONARY
360
107B3
102
}
102
{ACAD_REACTORS
330
1074D
102
}
330
1074D
100
AcDbVisualStyle
  2
Wireframe
 70
     5
 71
     0
 72
     2
 73
     0
 90
        0
 40
-0.6
 41
-30.0
 62
     5
 63
     7
 74
     1
 91
        4
 64
     7
 65
   257
 75
     1
175
     1
 42
1.0
 92
        0
 66
   257
 43
1.0
 76
     1
 77
     6
 78
     2
 67
     7
 79
     3
170
     0
171
     0
290
     0
174
     0
 93
        1
 44
0.0
173
     0
291
     0
 45
0.0
1001
ACAD
1000
AcDbSavedByObjectVersion
1070
     0
  0
VISUALSTYLE
  5
10760
102
{ACAD_XDICTIONARY
360
107CB
102
}
102
{ACAD_REACTORS
330
1074D
102
}
330
1074D
100
AcDbVisualStyle
  2
X-Ray
 70
    25
 71
     2
 72
     2
 73
     1
 90
        1
 40
0.5
 41
-30.0
 62
     5
 63
     7
 74
     1
 91
        0
 64
     7
 65
   257
 75
     1
175
     1
 42
1.0
 92
        8
 66
     7
 43
1.0
 76
     1
 77
     6
 78
     2
 67
     7
 79
     3
170
     0
171
     0
290
     0
174
     0
 93
       13
 44
0.0
173
     0
291
     0
 45
0.0
1001
ACAD
1000
AcDbSavedByObjectVersion
1070
     0
  0
DICTIONARYVAR
  5
1079A
102
{ACAD_REACTORS
330
10795
102
}
330
10795
100
DictionaryVariables
280
     0
  1
1:1
  0
DICTIONARYVAR
  5
10797
102
{ACAD_REACTORS
330
10795
102
}
330
10795
100
DictionaryVariables
280
     0
  1
STANDARD
  0
DICTIONARYVAR
  5
10796
102
{ACAD_REACTORS
330
10795
102
}
330
10795
100
DictionaryVariables
280
     0
  1
STANDARD
  0
DICTIONARYVAR
  5
10798
102
{ACAD_REACTORS
330
10795
102
}
330
10795
100
DictionaryVariables
280
     0
  1
Imperial24
  0
DICTIONARYVAR
  5
10799
102
{ACAD_REACTORS
330
10795
102
}
330
10795
100
DictionaryVariables
280
     0
  1
Imperial24
  0
DICTIONARYVAR
  5
1079D
102
{ACAD_REACTORS
330
10795
102
}
330
10795
100
DictionaryVariables
280
     0
  1
1
  0
DICTIONARYVAR
  5
1079C
102
{ACAD_REACTORS
330
10795
102
}
330
10795
100
DictionaryVariables
280
     0
  1
0
  0
DICTIONARYVAR
  5
1079B
102
{ACAD_REACTORS
330
10795
102
}
330
10795
100
DictionaryVariables
280
     0
  1
127
  0
DICTIONARYVAR
  5
1079E
102
{ACAD_REACTORS
330
10795
102
}
330
10795
100
DictionaryVariables
280
     0
  1
2
  0
DICTIONARY
  5
107DB
330
10780
100
AcDbDictionary
280
     1
281
     1
  3
ACAD_XREC_ROUNDTRIP
360
107DC
  0
DICTIONARY
  5
107DD
330
10781
100
AcDbDictionary
280
     1
281
     1
  3
ACAD_XREC_ROUNDTRIP
360
107DE
  0
DICTIONARY
  5
107DF
330
10782
100
AcDbDictionary
280
     1
281
     1
  3
ACAD_XREC_ROUNDTRIP
360
107E0
  0
DICTIONARY
  5
1073E
330
1073D
100
AcDbDictionary
280
     1
281
     1
  3
ACAD_XREC_ROUNDTRIP
360
107A5
  3
BUMPTILE
360
10740
  3
DIFFUSETILE
360
1073F
  3
OPACITYTILE
360
10743
  3
REFLECTIONTILE
360
10742
  3
REFRACTIONTILE
360
10744
  3
SPECULARTILE
360
10741
  0
DICTIONARY
  5
10736
330
10735
100
AcDbDictionary
280
     1
281
     1
  3
ACAD_XREC_ROUNDTRIP
360
107A4
  3
BUMPTILE
360
10738
  3
DIFFUSETILE
360
10737
  3
OPACITYTILE
360
1073B
  3
REFLECTIONTILE
360
1073A
  3
REFRACTIONTILE
360
1073C
  3
SPECULARTILE
360
10739
  0
DICTIONARY
  5
10746
330
10745
100
AcDbDictionary
280
     1
281
     1
  3
ACAD_XREC_ROUNDTRIP
360
107A6
  3
BUMPTILE
360
10748
  3
DIFFUSETILE
360
10747
  3
OPACITYTILE
360
1074B
  3
REFLECTIONTILE
360
1074A
  3
REFRACTIONTILE
360
1074C
  3
SPECULARTILE
360
10749
  0
DICTIONARY
  5
107D9
330
1077E
100
AcDbDictionary
280
     1
281
     1
  3
ACAD_XREC_ROUNDTRIP
360
107DA
  0
DICTIONARY
  5
107A0
330
10768
100
AcDbDictionary
280
     1
281
     1
  3
ACAD_ROUNDTRIP_2008_TABLESTYLE_CELLSTYLEMAP
360
107A1
  3
ACAD_XREC_ROUNDTRIP
360
107D7
  0
DICTIONARY
  5
107B1
330
10753
100
AcDbDictionary
280
     1
281
     1
  3
ACAD_XREC_ROUNDTRIP
360
107B2
  0
DICTIONARY
  5
107AF
330
10752
100
AcDbDictionary
280
     1
281
     1
  3
ACAD_XREC_ROUNDTRIP
360
107B0
  0
DICTIONARY
  5
107BD
330
10759
100
AcDbDictionary
280
     1
281
     1
  3
ACAD_XREC_ROUNDTRIP
360
107BE
  0
DICTIONARY
  5
107C5
330
1075D
100
AcDbDictionary
280
     1
281
     1
  3
ACAD_XREC_ROUNDTRIP
360
107C6
  0
DICTIONARY
  5
107B7
330
10756
100
AcDbDictionary
280
     1
281
     1
  3
ACAD_XREC_ROUNDTRIP
360
107B8
  0
DICTIONARY
  5
107BB
330
10758
100
AcDbDictionary
280
     1
281
     1
  3
ACAD_XREC_ROUNDTRIP
360
107BC
  0
DICTIONARY
  5
107D5
330
10765
100
AcDbDictionary
280
     1
281
     1
  3
ACAD_XREC_ROUNDTRIP
360
107D6
  0
DICTIONARY
  5
107C3
330
1075C
100
AcDbDictionary
280
     1
281
     1
  3
ACAD_XREC_ROUNDTRIP
360
107C4
  0
DICTIONARY
  5
107A7
330
1074E
100
AcDbDictionary
280
     1
281
     1
  3
ACAD_XREC_ROUNDTRIP
360
107A8
  0
DICTIONARY
  5
107A9
330
1074F
100
AcDbDictionary
280
     1
281
     1
  3
ACAD_XREC_ROUNDTRIP
360
107AA
  0
DICTIONARY
  5
107AB
330
10750
100
AcDbDictionary
280
     1
281
     1
  3
ACAD_XREC_ROUNDTRIP
360
107AC
  0
DICTIONARY
  5
107AD
330
10751
100
AcDbDictionary
280
     1
281
     1
  3
ACAD_XREC_ROUNDTRIP
360
107AE
  0
DICTIONARY
  5
107B5
330
10755
100
AcDbDictionary
280
     1
281
     1
  3
ACAD_XREC_ROUNDTRIP
360
107B6
  0
DICTIONARY
  5
107D1
330
10763
100
AcDbDictionary
280
     1
281
     1
  3
ACAD_XREC_ROUNDTRIP
360
107D2
  0
DICTIONARY
  5
107C1
330
1075B
100
AcDbDictionary
280
     1
281
     1
  3
ACAD_XREC_ROUNDTRIP
360
107C2
  0
DICTIONARY
  5
107D3
330
10764
100
AcDbDictionary
280
     1
281
     1
  3
ACAD_XREC_ROUNDTRIP
360
107D4
  0
DICTIONARY
  5
107B9
330
10757
100
AcDbDictionary
280
     1
281
     1
  3
ACAD_XREC_ROUNDTRIP
360
107BA
  0
DICTIONARY
  5
107CF
330
10762
100
AcDbDictionary
280
     1
281
     1
  3
ACAD_XREC_ROUNDTRIP
360
107D0
  0
DICTIONARY
  5
107CD
330
10761
100
AcDbDictionary
280
     1
281
     1
  3
ACAD_XREC_ROUNDTRIP
360
107CE
  0
DICTIONARY
  5
107C7
330
1075E
100
AcDbDictionary
280
     1
281
     1
  3
ACAD_XREC_ROUNDTRIP
360
107C8
  0
DICTIONARY
  5
107C9
330
1075F
100
AcDbDictionary
280
     1
281
     1
  3
ACAD_XREC_ROUNDTRIP
360
107CA
  0
DICTIONARY
  5
107BF
330
1075A
100
AcDbDictionary
280
     1
281
     1
  3
ACAD_XREC_ROUNDTRIP
360
107C0
  0
DICTIONARY
  5
107B3
330
10754
100
AcDbDictionary
280
     1
281
     1
  3
ACAD_XREC_ROUNDTRIP
360
107B4
  0
DICTIONARY
  5
107CB
330
10760
100
AcDbDictionary
280
     1
281
     1
  3
ACAD_XREC_ROUNDTRIP
360
107CC
  0
XRECORD
  5
107DC
102
{ACAD_REACTORS
330
107DB
102
}
330
107DB
100
AcDbXrecord
280
     1
102
DISPLAYNAME
  1
Imperial24
102
FLAGS
 90
        0
  0
XRECORD
  5
107DE
102
{ACAD_REACTORS
330
107DD
102
}
330
107DD
100
AcDbXrecord
280
     1
102
SHADEPLOT
 70
     0
102
SHADEPLOTRESLEVEL
 70
     2
102
SHADEPLOTCUSTOMDPI
 70
   300
  0
XRECORD
  5
107E0
102
{ACAD_REACTORS
330
107DF
102
}
330
107DF
100
AcDbXrecord
280
     1
102
SHADEPLOT
 70
     0
102
SHADEPLOTRESLEVEL
 70
     2
102
SHADEPLOTCUSTOMDPI
 70
   300
  0
XRECORD
  5
107A5
102
{ACAD_REACTORS
330
1073E
102
}
330
1073E
100
AcDbXrecord
280
     1
102
MATERIAL
148
0.0
149
0.0
149
0.0
 93
        0
 94
      127
282
     0
 72
     0
 77
     0
171
     0
175
     0
179
     0
273
     0
  0
XRECORD
  5
10740
102
{ACAD_REACTORS
330
1073E
102
}
330
1073E
100
AcDbXrecord
280
     1
270
     1
271
     1
  0
XRECORD
  5
1073F
102
{ACAD_REACTORS
330
1073E
102
}
330
1073E
100
AcDbXrecord
280
     1
270
     1
271
     1
  0
XRECORD
  5
10743
102
{ACAD_REACTORS
330
1073E
102
}
330
1073E
100
AcDbXrecord
280
     1
270
     1
271
     1
  0
XRECORD
  5
10742
102
{ACAD_REACTORS
330
1073E
102
}
330
1073E
100
AcDbXrecord
280
     1
270
     1
271
     1
  0
XRECORD
  5
10744
102
{ACAD_REACTORS
330
1073E
102
}
330
1073E
100
AcDbXrecord
280
     1
270
     1
271
     1
  0
XRECORD
  5
10741
102
{ACAD_REACTORS
330
1073E
102
}
330
1073E
100
AcDbXrecord
280
     1
270
     1
271
     1
  0
XRECORD
  5
107A4
102
{ACAD_REACTORS
330
10736
102
}
330
10736
100
AcDbXrecord
280
     1
102
MATERIAL
148
0.0
149
0.0
149
0.0
 93
        0
 94
      127
282
     0
 72
     0
 77
     0
171
     0
175
     0
179
     0
273
     0
  0
XRECORD
  5
10738
102
{ACAD_REACTORS
330
10736
102
}
330
10736
100
AcDbXrecord
280
     1
270
     1
271
     1
  0
XRECORD
  5
10737
102
{ACAD_REACTORS
330
10736
102
}
330
10736
100
AcDbXrecord
280
     1
270
     1
271
     1
  0
XRECORD
  5
1073B
102
{ACAD_REACTORS
330
10736
102
}
330
10736
100
AcDbXrecord
280
     1
270
     1
271
     1
  0
XRECORD
  5
1073A
102
{ACAD_REACTORS
330
10736
102
}
330
10736
100
AcDbXrecord
280
     1
270
     1
271
     1
  0
XRECORD
  5
1073C
102
{ACAD_REACTORS
330
10736
102
}
330
10736
100
AcDbXrecord
280
     1
270
     1
271
     1
  0
XRECORD
  5
10739
102
{ACAD_REACTORS
330
10736
102
}
330
10736
100
AcDbXrecord
280
     1
270
     1
271
     1
  0
XRECORD
  5
107A6
102
{ACAD_REACTORS
330
10746
102
}
330
10746
100
AcDbXrecord
280
     1
102
MATERIAL
148
0.0
149
0.0
149
0.0
 93
        0
 94
      127
282
     0
 72
     0
 77
     0
171
     0
175
     0
179
     0
273
     0
  0
XRECORD
  5
10748
102
{ACAD_REACTORS
330
10746
102
}
330
10746
100
AcDbXrecord
280
     1
270
     1
271
     1
  0
XRECORD
  5
10747
102
{ACAD_REACTORS
330
10746
102
}
330
10746
100
AcDbXrecord
280
     1
270
     1
271
     1
  0
XRECORD
  5
1074B
102
{ACAD_REACTORS
330
10746
102
}
330
10746
100
AcDbXrecord
280
     1
270
     1
271
     1
  0
XRECORD
  5
1074A
102
{ACAD_REACTORS
330
10746
102
}
330
10746
100
AcDbXrecord
280
     1
270
     1
271
     1
  0
XRECORD
  5
1074C
102
{ACAD_REACTORS
330
10746
102
}
330
10746
100
AcDbXrecord
280
     1
270
     1
271
     1
  0
XRECORD
  5
10749
102
{ACAD_REACTORS
330
10746
102
}
330
10746
100
AcDbXrecord
280
     1
270
     1
271
     1
  0
XRECORD
  5
107DA
102
{ACAD_REACTORS
330
107D9
102
}
330
107D9
100
AcDbXrecord
280
     1
102
DISPLAYNAME
  1
Imperial24
102
FLAGS
 90
        0
  0
CELLSTYLEMAP
  5
107A1
102
{ACAD_REACTORS
330
107A0
102
}
330
107A0
100
AcDbCellStyleMap
 90
        3
300
CELLSTYLE
  1
TABLEFORMAT_BEGIN
 90
        5
170
     1
 91
        0
 92
    32768
 62
   257
 93
        1
300
CONTENTFORMAT
  1
CONTENTFORMAT_BEGIN
 90
        0
 91
        0
 92
      512
 93
        0
300

 40
0.0
140
1.0
 94
        5
 62
     0
340
102E0
144
0.25
309
CONTENTFORMAT_END
171
     0
 94
        0
309
TABLEFORMAT_END
  1
CELLSTYLE_BEGIN
 90
        1
 91
        1
300
_TITLE
309
CELLSTYLE_END
300
CELLSTYLE
  1
TABLEFORMAT_BEGIN
 90
        5
170
     1
 91
        0
 92
        0
 62
   257
 93
        1
300
CONTENTFORMAT
  1
CONTENTFORMAT_BEGIN
 90
        0
 91
        0
 92
      512
 93
        0
300

 40
0.0
140
1.0
 94
        5
 62
     0
340
102E0
144
0.18
309
CONTENTFORMAT_END
171
     0
 94
        0
309
TABLEFORMAT_END
  1
CELLSTYLE_BEGIN
 90
        2
 91
        1
300
_HEADER
309
CELLSTYLE_END
300
CELLSTYLE
  1
TABLEFORMAT_BEGIN
 90
        5
170
     1
 91
        0
 92
        0
 62
   257
 93
        1
300
CONTENTFORMAT
  1
CONTENTFORMAT_BEGIN
 90
        0
 91
        0
 92
      512
 93
        0
300

 40
0.0
140
1.0
 94
        2
 62
     0
340
102E0
144
0.18
309
CONTENTFORMAT_END
171
     0
 94
        0
309
TABLEFORMAT_END
  1
CELLSTYLE_BEGIN
 90
        3
 91
        2
300
_DATA
309
CELLSTYLE_END
  0
XRECORD
  5
107D7
102
{ACAD_REACTORS
330
107A0
102
}
330
107A0
100
AcDbXrecord
280
     1
102
ACAD_ROUNDTRIP_PRE2007_TABLESTYLE
 90
      512
 91
        0
  1

 92
      512
 93
        0
  2

 94
      512
 95
        0
  3

  0
XRECORD
  5
107B2
102
{ACAD_REACTORS
330
107B1
102
}
330
107B1
100
AcDbXrecord
280
     1
102
RTVSPost2010Prop28
280
     1
102
RTVSPost2010PropOp28
 70
     1
102
RTVSPost2010Prop29
280
     1
102
RTVSPost2010PropOp29
 70
     1
102
RTVSPost2010Prop30
280
     0
102
RTVSPost2010PropOp30
 70
     1
102
RTVSPost2010Prop31
280
     0
102
RTVSPost2010PropOp31
 70
     1
102
RTVSPost2010Prop32
280
     0
102
RTVSPost2010PropOp32
 70
     1
102
RTVSPost2010Prop33
280
     0
102
RTVSPost2010PropOp33
 70
     1
102
RTVSPost2010Prop34
280
     0
102
RTVSPost2010PropOp34
 70
     1
102
RTVSPost2010Prop35
280
     0
102
RTVSPost2010PropOp35
 70
     1
102
RTVSPost2010Prop36
280
     0
102
RTVSPost2010PropOp36
 70
     1
102
RTVSPost2010Prop37
 90
       50
102
RTVSPost2010PropOp37
 70
     1
102
RTVSPost2010Prop38
140
0.0
102
RTVSPost2010PropOp38
 70
     1
102
RTVSPost2010Prop39
140
1.0
102
RTVSPost2010PropOp39
 70
     1
102
RTVSPost2010Prop40
 90
        0
102
RTVSPost2010PropOp40
 70
     1
102
RTVSPost2010Prop41ColorIndex
 90
       18
102
RTVSPost2010Prop41ColorRGB
 90
        0
102
RTVSPost2010PropOp41
 70
     1
102
RTVSPost2010Prop42
 90
       50
102
RTVSPost2010PropOp42
 70
     1
102
RTVSPost2010Prop43
 90
        3
102
RTVSPost2010PropOp43
 70
     1
102
RTVSPost2010Prop44ColorIndex
 90
        5
102
RTVSPost2010Prop44ColorRGB
 90
      255
102
RTVSPost2010PropOp44
 70
     1
102
RTVSPost2010Prop45
280
     0
102
RTVSPost2010PropOp45
 70
     1
102
RTVSPost2010Prop46
 90
       50
102
RTVSPost2010PropOp46
 70
     1
102
RTVSPost2010Prop47
 90
       50
102
RTVSPost2010PropOp47
 70
     1
102
RTVSPost2010Prop48
 90
       50
102
RTVSPost2010PropOp48
 70
     1
102
RTVSPost2010Prop49
280
     0
102
RTVSPost2010PropOp49
 70
     1
102
RTVSPost2010Prop50
 90
       50
102
RTVSPost2010PropOp50
 70
     1
102
RTVSPost2010Prop51ColorIndex
 90
      256
102
RTVSPost2010Prop51ColorRGB
 90
-16777216
102
RTVSPost2010PropOp51
 70
     0
102
RTVSPost2010Prop52
140
1.0
102
RTVSPost2010PropOp52
 70
     0
102
RTVSPost2010Prop53
 90
        2
102
RTVSPost2010PropOp53
 70
     1
102
RTVSPost2010Prop54
  1
strokes_ogs.tif
102
RTVSPost2010PropOp54
 70
     1
102
RTVSPost2010Prop55
280
     0
102
RTVSPost2010PropOp55
 70
     1
102
RTVSPost2010Prop56
140
1.0
102
RTVSPost2010PropOp56
 70
     1
102
RTVSPost2010Prop57
140
1.0
102
RTVSPost2010PropOp57
 70
     1
102
RTVSPropertyOp0
 70
     1
102
RTVSPropertyOp1
 70
     1
102
RTVSPropertyOp2
 70
     1
102
RTVSPropertyOp3
 70
     1
102
RTVSPropertyOp4
 70
     1
102
RTVSPropertyOp5
 70
     1
102
RTVSPropertyOp6
 70
     1
102
RTVSPropertyOp7
 70
     1
102
RTVSPropertyOp8
 70
     1
102
RTVSPropertyOp9
 70
     1
102
RTVSPropertyOp10
 70
     1
102
RTVSPropertyOp11
 70
     1
102
RTVSPropertyOp12
 70
     1
102
RTVSPropertyOp13
 70
     1
102
RTVSPropertyOp14
 70
     1
102
RTVSPropertyOp15
 70
     1
102
RTVSPropertyOp16
 70
     1
102
RTVSPropertyOp17
 70
     1
102
RTVSPropertyOp18
 70
     1
102
RTVSPropertyOp19
 70
     1
102
RTVSPropertyOp20
 70
     1
102
RTVSPropertyOp21
 70
     1
102
RTVSPropertyOp22
 70
     1
102
RTVSPropertyOp23
 70
     1
102
RTVSPropertyOp24
 70
     1
102
RTVSPropertyOp25
 70
     1
102
RTVSPropertyOp26
 70
     1
102
RTVSPropertyOp27
 70
     1
102
RTVSPropertyOp28
 70
     1
102
RTVSPropertyOp29
 70
     1
102
RTVSPropertyOp30
 70
     1
102
RTVSPropertyOp31
 70
     1
102
RTVSPropertyOp32
 70
     1
102
RTVSPropertyOp33
 70
     1
102
RTVSPropertyOp34
 70
     1
102
RTVSPropertyOp35
 70
     1
102
RTVSPropertyOp36
 70
     1
102
RTVSPropertyOp37
 70
     1
102
RTVSPropertyOp38
 70
     1
102
RTVSPropertyOp39
 70
     1
102
RTVSPropertyOp40
 70
     1
102
RTVSPropertyOp41
 70
     1
102
RTVSPropertyOp42
 70
     1
102
RTVSPropertyOp43
 70
     1
102
RTVSPropertyOp44
 70
     1
102
RTVSPropertyOp45
 70
     1
102
RTVSPropertyOp46
 70
     1
102
RTVSPropertyOp47
 70
     1
102
RTVSPropertyOp48
 70
     1
102
RTVSPropertyOp49
 70
     1
102
RTVSPropertyOp50
 70
     1
102
RTVSPropertyOp51
 70
     0
102
RTVSPropertyOp52
 70
     0
102
RTVSPropertyOp53
 70
     1
102
RTVSPropertyOp54
 70
     1
102
RTVSPropertyOp55
 70
     1
102
RTVSPropertyOp56
 70
     1
102
RTVSPropertyOp57
 70
     1
102
RTVSPropertyOp58
 70
     1
102
RTVSPropertyOp59
 70
     1
102
RTVSPropertyOp60
 70
     1
102
RTVSPropertyOp61
 70
     1
102
RTVSPropertyOp62
 70
     1
  0
XRECORD
  5
107B0
102
{ACAD_REACTORS
330
107AF
102
}
330
107AF
100
AcDbXrecord
280
     1
102
RTVSPost2010Prop28
280
     0
102
RTVSPost2010PropOp28
 70
     1
102
RTVSPost2010Prop29
280
     1
102
RTVSPost2010PropOp29
 70
     1
102
RTVSPost2010Prop30
280
     1
102
RTVSPost2010PropOp30
 70
     1
102
RTVSPost2010Prop31
280
     0
102
RTVSPost2010PropOp31
 70
     1
102
RTVSPost2010Prop32
280
     0
102
RTVSPost2010PropOp32
 70
     1
102
RTVSPost2010Prop33
280
     0
102
RTVSPost2010PropOp33
 70
     1
102
RTVSPost2010Prop34
280
     0
102
RTVSPost2010PropOp34
 70
     1
102
RTVSPost2010Prop35
280
     0
102
RTVSPost2010PropOp35
 70
     1
102
RTVSPost2010Prop36
280
     0
102
RTVSPost2010PropOp36
 70
     1
102
RTVSPost2010Prop37
 90
       50
102
RTVSPost2010PropOp37
 70
     1
102
RTVSPost2010Prop38
140
0.0
102
RTVSPost2010PropOp38
 70
     1
102
RTVSPost2010Prop39
140
1.0
102
RTVSPost2010PropOp39
 70
     1
102
RTVSPost2010Prop40
 90
        0
102
RTVSPost2010PropOp40
 70
     1
102
RTVSPost2010Prop41ColorIndex
 90
       18
102
RTVSPost2010Prop41ColorRGB
 90
        0
102
RTVSPost2010PropOp41
 70
     1
102
RTVSPost2010Prop42
 90
       50
102
RTVSPost2010PropOp42
 70
     1
102
RTVSPost2010Prop43
 90
        3
102
RTVSPost2010PropOp43
 70
     1
102
RTVSPost2010Prop44ColorIndex
 90
        5
102
RTVSPost2010Prop44ColorRGB
 90
      255
102
RTVSPost2010PropOp44
 70
     1
102
RTVSPost2010Prop45
280
     0
102
RTVSPost2010PropOp45
 70
     1
102
RTVSPost2010Prop46
 90
       50
102
RTVSPost2010PropOp46
 70
     1
102
RTVSPost2010Prop47
 90
       50
102
RTVSPost2010PropOp47
 70
     1
102
RTVSPost2010Prop48
 90
       50
102
RTVSPost2010PropOp48
 70
     1
102
RTVSPost2010Prop49
280
     0
102
RTVSPost2010PropOp49
 70
     1
102
RTVSPost2010Prop50
 90
       50
102
RTVSPost2010PropOp50
 70
     1
102
RTVSPost2010Prop51ColorIndex
 90
      256
102
RTVSPost2010Prop51ColorRGB
 90
-16777216
102
RTVSPost2010PropOp51
 70
     0
102
RTVSPost2010Prop52
140
1.0
102
RTVSPost2010PropOp52
 70
     0
102
RTVSPost2010Prop53
 90
        2
102
RTVSPost2010PropOp53
 70
     1
102
RTVSPost2010Prop54
  1
strokes_ogs.tif
102
RTVSPost2010PropOp54
 70
     1
102
RTVSPost2010Prop55
280
     0
102
RTVSPost2010PropOp55
 70
     1
102
RTVSPost2010Prop56
140
1.0
102
RTVSPost2010PropOp56
 70
     1
102
RTVSPost2010Prop57
140
1.0
102
RTVSPost2010PropOp57
 70
     1
102
RTVSPropertyOp0
 70
     1
102
RTVSPropertyOp1
 70
     1
102
RTVSPropertyOp2
 70
     1
102
RTVSPropertyOp3
 70
     1
102
RTVSPropertyOp4
 70
     1
102
RTVSPropertyOp5
 70
     1
102
RTVSPropertyOp6
 70
     1
102
RTVSPropertyOp7
 70
     1
102
RTVSPropertyOp8
 70
     1
102
RTVSPropertyOp9
 70
     1
102
RTVSPropertyOp10
 70
     1
102
RTVSPropertyOp11
 70
     1
102
RTVSPropertyOp12
 70
     1
102
RTVSPropertyOp13
 70
     1
102
RTVSPropertyOp14
 70
     1
102
RTVSPropertyOp15
 70
     1
102
RTVSPropertyOp16
 70
     1
102
RTVSPropertyOp17
 70
     1
102
RTVSPropertyOp18
 70
     1
102
RTVSPropertyOp19
 70
     1
102
RTVSPropertyOp20
 70
     1
102
RTVSPropertyOp21
 70
     1
102
RTVSPropertyOp22
 70
     1
102
RTVSPropertyOp23
 70
     1
102
RTVSPropertyOp24
 70
     1
102
RTVSPropertyOp25
 70
     1
102
RTVSPropertyOp26
 70
     1
102
RTVSPropertyOp27
 70
     1
102
RTVSPropertyOp28
 70
     1
102
RTVSPropertyOp29
 70
     1
102
RTVSPropertyOp30
 70
     1
102
RTVSPropertyOp31
 70
     1
102
RTVSPropertyOp32
 70
     1
102
RTVSPropertyOp33
 70
     1
102
RTVSPropertyOp34
 70
     1
102
RTVSPropertyOp35
 70
     1
102
RTVSPropertyOp36
 70
     1
102
RTVSPropertyOp37
 70
     1
102
RTVSPropertyOp38
 70
     1
102
RTVSPropertyOp39
 70
     1
102
RTVSPropertyOp40
 70
     1
102
RTVSPropertyOp41
 70
     1
102
RTVSPropertyOp42
 70
     1
102
RTVSPropertyOp43
 70
     1
102
RTVSPropertyOp44
 70
     1
102
RTVSPropertyOp45
 70
     1
102
RTVSPropertyOp46
 70
     1
102
RTVSPropertyOp47
 70
     1
102
RTVSPropertyOp48
 70
     1
102
RTVSPropertyOp49
 70
     1
102
RTVSPropertyOp50
 70
     1
102
RTVSPropertyOp51
 70
     0
102
RTVSPropertyOp52
 70
     0
102
RTVSPropertyOp53
 70
     1
102
RTVSPropertyOp54
 70
     1
102
RTVSPropertyOp55
 70
     1
102
RTVSPropertyOp56
 70
     1
102
RTVSPropertyOp57
 70
     1
102
RTVSPropertyOp58
 70
     1
102
RTVSPropertyOp59
 70
     1
102
RTVSPropertyOp60
 70
     1
102
RTVSPropertyOp61
 70
     1
102
RTVSPropertyOp62
 70
     1
  0
XRECORD
  5
107BE
102
{ACAD_REACTORS
330
107BD
102
}
330
107BD
100
AcDbXrecord
280
     1
102
RTVSPost2010Prop28
280
     0
102
RTVSPost2010PropOp28
 70
     1
102
RTVSPost2010Prop29
280
     1
102
RTVSPost2010PropOp29
 70
     1
102
RTVSPost2010Prop30
280
     1
102
RTVSPost2010PropOp30
 70
     1
102
RTVSPost2010Prop31
280
     0
102
RTVSPost2010PropOp31
 70
     1
102
RTVSPost2010Prop32
280
     0
102
RTVSPost2010PropOp32
 70
     1
102
RTVSPost2010Prop33
280
     0
102
RTVSPost2010PropOp33
 70
     1
102
RTVSPost2010Prop34
280
     0
102
RTVSPost2010PropOp34
 70
     1
102
RTVSPost2010Prop35
280
     0
102
RTVSPost2010PropOp35
 70
     1
102
RTVSPost2010Prop36
280
     0
102
RTVSPost2010PropOp36
 70
     1
102
RTVSPost2010Prop37
 90
       50
102
RTVSPost2010PropOp37
 70
     1
102
RTVSPost2010Prop38
140
0.0
102
RTVSPost2010PropOp38
 70
     1
102
RTVSPost2010Prop39
140
1.0
102
RTVSPost2010PropOp39
 70
     1
102
RTVSPost2010Prop40
 90
        0
102
RTVSPost2010PropOp40
 70
     1
102
RTVSPost2010Prop41ColorIndex
 90
       18
102
RTVSPost2010Prop41ColorRGB
 90
        0
102
RTVSPost2010PropOp41
 70
     1
102
RTVSPost2010Prop42
 90
       50
102
RTVSPost2010PropOp42
 70
     1
102
RTVSPost2010Prop43
 90
        3
102
RTVSPost2010PropOp43
 70
     1
102
RTVSPost2010Prop44ColorIndex
 90
        5
102
RTVSPost2010Prop44ColorRGB
 90
      255
102
RTVSPost2010PropOp44
 70
     1
102
RTVSPost2010Prop45
280
     0
102
RTVSPost2010PropOp45
 70
     1
102
RTVSPost2010Prop46
 90
       50
102
RTVSPost2010PropOp46
 70
     1
102
RTVSPost2010Prop47
 90
       50
102
RTVSPost2010PropOp47
 70
     1
102
RTVSPost2010Prop48
 90
       50
102
RTVSPost2010PropOp48
 70
     1
102
RTVSPost2010Prop49
280
     0
102
RTVSPost2010PropOp49
 70
     1
102
RTVSPost2010Prop50
 90
       50
102
RTVSPost2010PropOp50
 70
     1
102
RTVSPost2010Prop51ColorIndex
 90
      256
102
RTVSPost2010Prop51ColorRGB
 90
-16777216
102
RTVSPost2010PropOp51
 70
     0
102
RTVSPost2010Prop52
140
1.0
102
RTVSPost2010PropOp52
 70
     0
102
RTVSPost2010Prop53
 90
        2
102
RTVSPost2010PropOp53
 70
     1
102
RTVSPost2010Prop54
  1
strokes_ogs.tif
102
RTVSPost2010PropOp54
 70
     1
102
RTVSPost2010Prop55
280
     0
102
RTVSPost2010PropOp55
 70
     1
102
RTVSPost2010Prop56
140
1.0
102
RTVSPost2010PropOp56
 70
     1
102
RTVSPost2010Prop57
140
1.0
102
RTVSPost2010PropOp57
 70
     1
102
RTVSPropertyOp0
 70
     1
102
RTVSPropertyOp1
 70
     1
102
RTVSPropertyOp2
 70
     1
102
RTVSPropertyOp3
 70
     1
102
RTVSPropertyOp4
 70
     1
102
RTVSPropertyOp5
 70
     1
102
RTVSPropertyOp6
 70
     1
102
RTVSPropertyOp7
 70
     1
102
RTVSPropertyOp8
 70
     1
102
RTVSPropertyOp9
 70
     1
102
RTVSPropertyOp10
 70
     1
102
RTVSPropertyOp11
 70
     1
102
RTVSPropertyOp12
 70
     1
102
RTVSPropertyOp13
 70
     1
102
RTVSPropertyOp14
 70
     1
102
RTVSPropertyOp15
 70
     1
102
RTVSPropertyOp16
 70
     1
102
RTVSPropertyOp17
 70
     1
102
RTVSPropertyOp18
 70
     1
102
RTVSPropertyOp19
 70
     1
102
RTVSPropertyOp20
 70
     1
102
RTVSPropertyOp21
 70
     1
102
RTVSPropertyOp22
 70
     1
102
RTVSPropertyOp23
 70
     1
102
RTVSPropertyOp24
 70
     1
102
RTVSPropertyOp25
 70
     1
102
RTVSPropertyOp26
 70
     1
102
RTVSPropertyOp27
 70
     1
102
RTVSPropertyOp28
 70
     1
102
RTVSPropertyOp29
 70
     1
102
RTVSPropertyOp30
 70
     1
102
RTVSPropertyOp31
 70
     1
102
RTVSPropertyOp32
 70
     1
102
RTVSPropertyOp33
 70
     1
102
RTVSPropertyOp34
 70
     1
102
RTVSPropertyOp35
 70
     1
102
RTVSPropertyOp36
 70
     1
102
RTVSPropertyOp37
 70
     1
102
RTVSPropertyOp38
 70
     1
102
RTVSPropertyOp39
 70
     1
102
RTVSPropertyOp40
 70
     1
102
RTVSPropertyOp41
 70
     1
102
RTVSPropertyOp42
 70
     1
102
RTVSPropertyOp43
 70
     1
102
RTVSPropertyOp44
 70
     1
102
RTVSPropertyOp45
 70
     1
102
RTVSPropertyOp46
 70
     1
102
RTVSPropertyOp47
 70
     1
102
RTVSPropertyOp48
 70
     1
102
RTVSPropertyOp49
 70
     1
102
RTVSPropertyOp50
 70
     1
102
RTVSPropertyOp51
 70
     0
102
RTVSPropertyOp52
 70
     0
102
RTVSPropertyOp53
 70
     1
102
RTVSPropertyOp54
 70
     1
102
RTVSPropertyOp55
 70
     1
102
RTVSPropertyOp56
 70
     1
102
RTVSPropertyOp57
 70
     1
102
RTVSPropertyOp58
 70
     1
102
RTVSPropertyOp59
 70
     1
102
RTVSPropertyOp60
 70
     1
102
RTVSPropertyOp61
 70
     1
102
RTVSPropertyOp62
 70
     1
  0
XRECORD
  5
107C6
102
{ACAD_REACTORS
330
107C5
102
}
330
107C5
100
AcDbXrecord
280
     1
102
RTVSPost2010Prop28
280
     0
102
RTVSPost2010PropOp28
 70
     1
102
RTVSPost2010Prop29
280
     1
102
RTVSPost2010PropOp29
 70
     1
102
RTVSPost2010Prop30
280
     1
102
RTVSPost2010PropOp30
 70
     1
102
RTVSPost2010Prop31
280
     0
102
RTVSPost2010PropOp31
 70
     1
102
RTVSPost2010Prop32
280
     0
102
RTVSPost2010PropOp32
 70
     1
102
RTVSPost2010Prop33
280
     0
102
RTVSPost2010PropOp33
 70
     1
102
RTVSPost2010Prop34
280
     0
102
RTVSPost2010PropOp34
 70
     1
102
RTVSPost2010Prop35
280
     0
102
RTVSPost2010PropOp35
 70
     1
102
RTVSPost2010Prop36
280
     0
102
RTVSPost2010PropOp36
 70
     1
102
RTVSPost2010Prop37
 90
       50
102
RTVSPost2010PropOp37
 70
     1
102
RTVSPost2010Prop38
140
0.0
102
RTVSPost2010PropOp38
 70
     1
102
RTVSPost2010Prop39
140
1.0
102
RTVSPost2010PropOp39
 70
     1
102
RTVSPost2010Prop40
 90
        0
102
RTVSPost2010PropOp40
 70
     1
102
RTVSPost2010Prop41ColorIndex
 90
       18
102
RTVSPost2010Prop41ColorRGB
 90
        0
102
RTVSPost2010PropOp41
 70
     1
102
RTVSPost2010Prop42
 90
       50
102
RTVSPost2010PropOp42
 70
     1
102
RTVSPost2010Prop43
 90
        3
102
RTVSPost2010PropOp43
 70
     1
102
RTVSPost2010Prop44ColorIndex
 90
        5
102
RTVSPost2010Prop44ColorRGB
 90
      255
102
RTVSPost2010PropOp44
 70
     1
102
RTVSPost2010Prop45
280
     0
102
RTVSPost2010PropOp45
 70
     1
102
RTVSPost2010Prop46
 90
       50
102
RTVSPost2010PropOp46
 70
     1
102
RTVSPost2010Prop47
 90
       50
102
RTVSPost2010PropOp47
 70
     1
102
RTVSPost2010Prop48
 90
       50
102
RTVSPost2010PropOp48
 70
     1
102
RTVSPost2010Prop49
280
     0
102
RTVSPost2010PropOp49
 70
     1
102
RTVSPost2010Prop50
 90
       50
102
RTVSPost2010PropOp50
 70
     1
102
RTVSPost2010Prop51ColorIndex
 90
      256
102
RTVSPost2010Prop51ColorRGB
 90
-16777216
102
RTVSPost2010PropOp51
 70
     0
102
RTVSPost2010Prop52
140
1.0
102
RTVSPost2010PropOp52
 70
     0
102
RTVSPost2010Prop53
 90
        2
102
RTVSPost2010PropOp53
 70
     1
102
RTVSPost2010Prop54
  1
strokes_ogs.tif
102
RTVSPost2010PropOp54
 70
     1
102
RTVSPost2010Prop55
280
     0
102
RTVSPost2010PropOp55
 70
     1
102
RTVSPost2010Prop56
140
1.0
102
RTVSPost2010PropOp56
 70
     1
102
RTVSPost2010Prop57
140
1.0
102
RTVSPost2010PropOp57
 70
     1
102
RTVSPropertyOp0
 70
     1
102
RTVSPropertyOp1
 70
     1
102
RTVSPropertyOp2
 70
     1
102
RTVSPropertyOp3
 70
     1
102
RTVSPropertyOp4
 70
     1
102
RTVSPropertyOp5
 70
     1
102
RTVSPropertyOp6
 70
     1
102
RTVSPropertyOp7
 70
     1
102
RTVSPropertyOp8
 70
     1
102
RTVSPropertyOp9
 70
     1
102
RTVSPropertyOp10
 70
     1
102
RTVSPropertyOp11
 70
     1
102
RTVSPropertyOp12
 70
     1
102
RTVSPropertyOp13
 70
     1
102
RTVSPropertyOp14
 70
     1
102
RTVSPropertyOp15
 70
     1
102
RTVSPropertyOp16
 70
     1
102
RTVSPropertyOp17
 70
     1
102
RTVSPropertyOp18
 70
     1
102
RTVSPropertyOp19
 70
     1
102
RTVSPropertyOp20
 70
     1
102
RTVSPropertyOp21
 70
     1
102
RTVSPropertyOp22
 70
     1
102
RTVSPropertyOp23
 70
     1
102
RTVSPropertyOp24
 70
     1
102
RTVSPropertyOp25
 70
     1
102
RTVSPropertyOp26
 70
     1
102
RTVSPropertyOp27
 70
     1
102
RTVSPropertyOp28
 70
     1
102
RTVSPropertyOp29
 70
     1
102
RTVSPropertyOp30
 70
     1
102
RTVSPropertyOp31
 70
     1
102
RTVSPropertyOp32
 70
     1
102
RTVSPropertyOp33
 70
     1
102
RTVSPropertyOp34
 70
     1
102
RTVSPropertyOp35
 70
     1
102
RTVSPropertyOp36
 70
     1
102
RTVSPropertyOp37
 70
     1
102
RTVSPropertyOp38
 70
     1
102
RTVSPropertyOp39
 70
     1
102
RTVSPropertyOp40
 70
     1
102
RTVSPropertyOp41
 70
     1
102
RTVSPropertyOp42
 70
     1
102
RTVSPropertyOp43
 70
     1
102
RTVSPropertyOp44
 70
     1
102
RTVSPropertyOp45
 70
     1
102
RTVSPropertyOp46
 70
     1
102
RTVSPropertyOp47
 70
     1
102
RTVSPropertyOp48
 70
     1
102
RTVSPropertyOp49
 70
     1
102
RTVSPropertyOp50
 70
     1
102
RTVSPropertyOp51
 70
     0
102
RTVSPropertyOp52
 70
     0
102
RTVSPropertyOp53
 70
     1
102
RTVSPropertyOp54
 70
     1
102
RTVSPropertyOp55
 70
     1
102
RTVSPropertyOp56
 70
     1
102
RTVSPropertyOp57
 70
     1
102
RTVSPropertyOp58
 70
     1
102
RTVSPropertyOp59
 70
     1
102
RTVSPropertyOp60
 70
     1
102
RTVSPropertyOp61
 70
     1
102
RTVSPropertyOp62
 70
     1
  0
XRECORD
  5
107B8
102
{ACAD_REACTORS
330
107B7
102
}
330
107B7
100
AcDbXrecord
280
     1
102
RTVSPost2010Prop28
280
     0
102
RTVSPost2010PropOp28
 70
     1
102
RTVSPost2010Prop29
280
     1
102
RTVSPost2010PropOp29
 70
     1
102
RTVSPost2010Prop30
280
     1
102
RTVSPost2010PropOp30
 70
     1
102
RTVSPost2010Prop31
280
     0
102
RTVSPost2010PropOp31
 70
     1
102
RTVSPost2010Prop32
280
     0
102
RTVSPost2010PropOp32
 70
     1
102
RTVSPost2010Prop33
280
     0
102
RTVSPost2010PropOp33
 70
     1
102
RTVSPost2010Prop34
280
     0
102
RTVSPost2010PropOp34
 70
     1
102
RTVSPost2010Prop35
280
     0
102
RTVSPost2010PropOp35
 70
     1
102
RTVSPost2010Prop36
280
     0
102
RTVSPost2010PropOp36
 70
     1
102
RTVSPost2010Prop37
 90
       50
102
RTVSPost2010PropOp37
 70
     1
102
RTVSPost2010Prop38
140
0.0
102
RTVSPost2010PropOp38
 70
     1
102
RTVSPost2010Prop39
140
1.0
102
RTVSPost2010PropOp39
 70
     1
102
RTVSPost2010Prop40
 90
        0
102
RTVSPost2010PropOp40
 70
     1
102
RTVSPost2010Prop41ColorIndex
 90
       18
102
RTVSPost2010Prop41ColorRGB
 90
        0
102
RTVSPost2010PropOp41
 70
     1
102
RTVSPost2010Prop42
 90
       50
102
RTVSPost2010PropOp42
 70
     1
102
RTVSPost2010Prop43
 90
        3
102
RTVSPost2010PropOp43
 70
     1
102
RTVSPost2010Prop44ColorIndex
 90
        5
102
RTVSPost2010Prop44ColorRGB
 90
      255
102
RTVSPost2010PropOp44
 70
     1
102
RTVSPost2010Prop45
280
     0
102
RTVSPost2010PropOp45
 70
     1
102
RTVSPost2010Prop46
 90
       50
102
RTVSPost2010PropOp46
 70
     1
102
RTVSPost2010Prop47
 90
       50
102
RTVSPost2010PropOp47
 70
     1
102
RTVSPost2010Prop48
 90
       50
102
RTVSPost2010PropOp48
 70
     1
102
RTVSPost2010Prop49
280
     0
102
RTVSPost2010PropOp49
 70
     1
102
RTVSPost2010Prop50
 90
       50
102
RTVSPost2010PropOp50
 70
     1
102
RTVSPost2010Prop51ColorIndex
 90
      256
102
RTVSPost2010Prop51ColorRGB
 90
-16777216
102
RTVSPost2010PropOp51
 70
     0
102
RTVSPost2010Prop52
140
1.0
102
RTVSPost2010PropOp52
 70
     0
102
RTVSPost2010Prop53
 90
        2
102
RTVSPost2010PropOp53
 70
     1
102
RTVSPost2010Prop54
  1
strokes_ogs.tif
102
RTVSPost2010PropOp54
 70
     1
102
RTVSPost2010Prop55
280
     0
102
RTVSPost2010PropOp55
 70
     1
102
RTVSPost2010Prop56
140
1.0
102
RTVSPost2010PropOp56
 70
     1
102
RTVSPost2010Prop57
140
1.0
102
RTVSPost2010PropOp57
 70
     1
102
RTVSPropertyOp0
 70
     1
102
RTVSPropertyOp1
 70
     1
102
RTVSPropertyOp2
 70
     1
102
RTVSPropertyOp3
 70
     1
102
RTVSPropertyOp4
 70
     1
102
RTVSPropertyOp5
 70
     1
102
RTVSPropertyOp6
 70
     1
102
RTVSPropertyOp7
 70
     1
102
RTVSPropertyOp8
 70
     1
102
RTVSPropertyOp9
 70
     1
102
RTVSPropertyOp10
 70
     1
102
RTVSPropertyOp11
 70
     1
102
RTVSPropertyOp12
 70
     1
102
RTVSPropertyOp13
 70
     1
102
RTVSPropertyOp14
 70
     1
102
RTVSPropertyOp15
 70
     1
102
RTVSPropertyOp16
 70
     1
102
RTVSPropertyOp17
 70
     1
102
RTVSPropertyOp18
 70
     1
102
RTVSPropertyOp19
 70
     1
102
RTVSPropertyOp20
 70
     1
102
RTVSPropertyOp21
 70
     1
102
RTVSPropertyOp22
 70
     1
102
RTVSPropertyOp23
 70
     1
102
RTVSPropertyOp24
 70
     1
102
RTVSPropertyOp25
 70
     1
102
RTVSPropertyOp26
 70
     1
102
RTVSPropertyOp27
 70
     1
102
RTVSPropertyOp28
 70
     1
102
RTVSPropertyOp29
 70
     1
102
RTVSPropertyOp30
 70
     1
102
RTVSPropertyOp31
 70
     1
102
RTVSPropertyOp32
 70
     1
102
RTVSPropertyOp33
 70
     1
102
RTVSPropertyOp34
 70
     1
102
RTVSPropertyOp35
 70
     1
102
RTVSPropertyOp36
 70
     1
102
RTVSPropertyOp37
 70
     1
102
RTVSPropertyOp38
 70
     1
102
RTVSPropertyOp39
 70
     1
102
RTVSPropertyOp40
 70
     1
102
RTVSPropertyOp41
 70
     1
102
RTVSPropertyOp42
 70
     1
102
RTVSPropertyOp43
 70
     1
102
RTVSPropertyOp44
 70
     1
102
RTVSPropertyOp45
 70
     1
102
RTVSPropertyOp46
 70
     1
102
RTVSPropertyOp47
 70
     1
102
RTVSPropertyOp48
 70
     1
102
RTVSPropertyOp49
 70
     1
102
RTVSPropertyOp50
 70
     1
102
RTVSPropertyOp51
 70
     0
102
RTVSPropertyOp52
 70
     0
102
RTVSPropertyOp53
 70
     1
102
RTVSPropertyOp54
 70
     1
102
RTVSPropertyOp55
 70
     1
102
RTVSPropertyOp56
 70
     1
102
RTVSPropertyOp57
 70
     1
102
RTVSPropertyOp58
 70
     1
102
RTVSPropertyOp59
 70
     1
102
RTVSPropertyOp60
 70
     1
102
RTVSPropertyOp61
 70
     1
102
RTVSPropertyOp62
 70
     1
  0
XRECORD
  5
107BC
102
{ACAD_REACTORS
330
107BB
102
}
330
107BB
100
AcDbXrecord
280
     1
102
RTVSPost2010Prop28
280
     0
102
RTVSPost2010PropOp28
 70
     1
102
RTVSPost2010Prop29
280
     1
102
RTVSPost2010PropOp29
 70
     1
102
RTVSPost2010Prop30
280
     1
102
RTVSPost2010PropOp30
 70
     1
102
RTVSPost2010Prop31
280
     0
102
RTVSPost2010PropOp31
 70
     1
102
RTVSPost2010Prop32
280
     0
102
RTVSPost2010PropOp32
 70
     1
102
RTVSPost2010Prop33
280
     0
102
RTVSPost2010PropOp33
 70
     1
102
RTVSPost2010Prop34
280
     0
102
RTVSPost2010PropOp34
 70
     1
102
RTVSPost2010Prop35
280
     0
102
RTVSPost2010PropOp35
 70
     1
102
RTVSPost2010Prop36
280
     0
102
RTVSPost2010PropOp36
 70
     1
102
RTVSPost2010Prop37
 90
       50
102
RTVSPost2010PropOp37
 70
     1
102
RTVSPost2010Prop38
140
0.0
102
RTVSPost2010PropOp38
 70
     1
102
RTVSPost2010Prop39
140
1.0
102
RTVSPost2010PropOp39
 70
     1
102
RTVSPost2010Prop40
 90
        0
102
RTVSPost2010PropOp40
 70
     1
102
RTVSPost2010Prop41ColorIndex
 90
       18
102
RTVSPost2010Prop41ColorRGB
 90
        0
102
RTVSPost2010PropOp41
 70
     1
102
RTVSPost2010Prop42
 90
       50
102
RTVSPost2010PropOp42
 70
     1
102
RTVSPost2010Prop43
 90
        3
102
RTVSPost2010PropOp43
 70
     1
102
RTVSPost2010Prop44ColorIndex
 90
        5
102
RTVSPost2010Prop44ColorRGB
 90
      255
102
RTVSPost2010PropOp44
 70
     1
102
RTVSPost2010Prop45
280
     0
102
RTVSPost2010PropOp45
 70
     1
102
RTVSPost2010Prop46
 90
       50
102
RTVSPost2010PropOp46
 70
     1
102
RTVSPost2010Prop47
 90
       50
102
RTVSPost2010PropOp47
 70
     1
102
RTVSPost2010Prop48
 90
       50
102
RTVSPost2010PropOp48
 70
     1
102
RTVSPost2010Prop49
280
     0
102
RTVSPost2010PropOp49
 70
     1
102
RTVSPost2010Prop50
 90
       50
102
RTVSPost2010PropOp50
 70
     1
102
RTVSPost2010Prop51ColorIndex
 90
      256
102
RTVSPost2010Prop51ColorRGB
 90
-16777216
102
RTVSPost2010PropOp51
 70
     0
102
RTVSPost2010Prop52
140
1.0
102
RTVSPost2010PropOp52
 70
     0
102
RTVSPost2010Prop53
 90
        2
102
RTVSPost2010PropOp53
 70
     1
102
RTVSPost2010Prop54
  1
strokes_ogs.tif
102
RTVSPost2010PropOp54
 70
     1
102
RTVSPost2010Prop55
280
     0
102
RTVSPost2010PropOp55
 70
     1
102
RTVSPost2010Prop56
140
1.0
102
RTVSPost2010PropOp56
 70
     1
102
RTVSPost2010Prop57
140
1.0
102
RTVSPost2010PropOp57
 70
     1
102
RTVSPropertyOp0
 70
     1
102
RTVSPropertyOp1
 70
     1
102
RTVSPropertyOp2
 70
     1
102
RTVSPropertyOp3
 70
     1
102
RTVSPropertyOp4
 70
     1
102
RTVSPropertyOp5
 70
     1
102
RTVSPropertyOp6
 70
     1
102
RTVSPropertyOp7
 70
     1
102
RTVSPropertyOp8
 70
     1
102
RTVSPropertyOp9
 70
     1
102
RTVSPropertyOp10
 70
     1
102
RTVSPropertyOp11
 70
     1
102
RTVSPropertyOp12
 70
     1
102
RTVSPropertyOp13
 70
     1
102
RTVSPropertyOp14
 70
     1
102
RTVSPropertyOp15
 70
     1
102
RTVSPropertyOp16
 70
     1
102
RTVSPropertyOp17
 70
     1
102
RTVSPropertyOp18
 70
     1
102
RTVSPropertyOp19
 70
     1
102
RTVSPropertyOp20
 70
     1
102
RTVSPropertyOp21
 70
     1
102
RTVSPropertyOp22
 70
     1
102
RTVSPropertyOp23
 70
     1
102
RTVSPropertyOp24
 70
     1
102
RTVSPropertyOp25
 70
     1
102
RTVSPropertyOp26
 70
     1
102
RTVSPropertyOp27
 70
     1
102
RTVSPropertyOp28
 70
     1
102
RTVSPropertyOp29
 70
     1
102
RTVSPropertyOp30
 70
     1
102
RTVSPropertyOp31
 70
     1
102
RTVSPropertyOp32
 70
     1
102
RTVSPropertyOp33
 70
     1
102
RTVSPropertyOp34
 70
     1
102
RTVSPropertyOp35
 70
     1
102
RTVSPropertyOp36
 70
     1
102
RTVSPropertyOp37
 70
     1
102
RTVSPropertyOp38
 70
     1
102
RTVSPropertyOp39
 70
     1
102
RTVSPropertyOp40
 70
     1
102
RTVSPropertyOp41
 70
     1
102
RTVSPropertyOp42
 70
     1
102
RTVSPropertyOp43
 70
     1
102
RTVSPropertyOp44
 70
     1
102
RTVSPropertyOp45
 70
     1
102
RTVSPropertyOp46
 70
     1
102
RTVSPropertyOp47
 70
     1
102
RTVSPropertyOp48
 70
     1
102
RTVSPropertyOp49
 70
     1
102
RTVSPropertyOp50
 70
     1
102
RTVSPropertyOp51
 70
     0
102
RTVSPropertyOp52
 70
     0
102
RTVSPropertyOp53
 70
     1
102
RTVSPropertyOp54
 70
     1
102
RTVSPropertyOp55
 70
     1
102
RTVSPropertyOp56
 70
     1
102
RTVSPropertyOp57
 70
     1
102
RTVSPropertyOp58
 70
     1
102
RTVSPropertyOp59
 70
     1
102
RTVSPropertyOp60
 70
     1
102
RTVSPropertyOp61
 70
     1
102
RTVSPropertyOp62
 70
     1
  0
XRECORD
  5
107D6
102
{ACAD_REACTORS
330
107D5
102
}
330
107D5
100
AcDbXrecord
280
     1
102
RTVSPost2010Prop28
280
     0
102
RTVSPost2010PropOp28
 70
     1
102
RTVSPost2010Prop29
280
     1
102
RTVSPost2010PropOp29
 70
     1
102
RTVSPost2010Prop30
280
     1
102
RTVSPost2010PropOp30
 70
     1
102
RTVSPost2010Prop31
280
     0
102
RTVSPost2010PropOp31
 70
     1
102
RTVSPost2010Prop32
280
     0
102
RTVSPost2010PropOp32
 70
     1
102
RTVSPost2010Prop33
280
     0
102
RTVSPost2010PropOp33
 70
     1
102
RTVSPost2010Prop34
280
     0
102
RTVSPost2010PropOp34
 70
     1
102
RTVSPost2010Prop35
280
     0
102
RTVSPost2010PropOp35
 70
     1
102
RTVSPost2010Prop36
280
     0
102
RTVSPost2010PropOp36
 70
     1
102
RTVSPost2010Prop37
 90
       50
102
RTVSPost2010PropOp37
 70
     0
102
RTVSPost2010Prop38
140
0.0
102
RTVSPost2010PropOp38
 70
     0
102
RTVSPost2010Prop39
140
1.0
102
RTVSPost2010PropOp39
 70
     0
102
RTVSPost2010Prop40
 90
        0
102
RTVSPost2010PropOp40
 70
     0
102
RTVSPost2010Prop41ColorIndex
 90
       18
102
RTVSPost2010Prop41ColorRGB
 90
        0
102
RTVSPost2010PropOp41
 70
     0
102
RTVSPost2010Prop42
 90
       50
102
RTVSPost2010PropOp42
 70
     0
102
RTVSPost2010Prop43
 90
        3
102
RTVSPost2010PropOp43
 70
     0
102
RTVSPost2010Prop44ColorIndex
 90
        5
102
RTVSPost2010Prop44ColorRGB
 90
      255
102
RTVSPost2010PropOp44
 70
     0
102
RTVSPost2010Prop45
280
     0
102
RTVSPost2010PropOp45
 70
     1
102
RTVSPost2010Prop46
 90
       50
102
RTVSPost2010PropOp46
 70
     0
102
RTVSPost2010Prop47
 90
       50
102
RTVSPost2010PropOp47
 70
     0
102
RTVSPost2010Prop48
 90
       50
102
RTVSPost2010PropOp48
 70
     0
102
RTVSPost2010Prop49
280
     0
102
RTVSPost2010PropOp49
 70
     1
102
RTVSPost2010Prop50
 90
       50
102
RTVSPost2010PropOp50
 70
     0
102
RTVSPost2010Prop51ColorIndex
 90
      256
102
RTVSPost2010Prop51ColorRGB
 90
-16777216
102
RTVSPost2010PropOp51
 70
     0
102
RTVSPost2010Prop52
140
1.0
102
RTVSPost2010PropOp52
 70
     0
102
RTVSPost2010Prop53
 90
        2
102
RTVSPost2010PropOp53
 70
     0
102
RTVSPost2010Prop54
  1
strokes_ogs.tif
102
RTVSPost2010PropOp54
 70
     0
102
RTVSPost2010Prop55
280
     0
102
RTVSPost2010PropOp55
 70
     1
102
RTVSPost2010Prop56
140
1.0
102
RTVSPost2010PropOp56
 70
     0
102
RTVSPost2010Prop57
140
1.0
102
RTVSPost2010PropOp57
 70
     0
102
RTVSPropertyOp0
 70
     0
102
RTVSPropertyOp1
 70
     0
102
RTVSPropertyOp2
 70
     0
102
RTVSPropertyOp3
 70
     0
102
RTVSPropertyOp4
 70
     0
102
RTVSPropertyOp5
 70
     0
102
RTVSPropertyOp6
 70
     0
102
RTVSPropertyOp7
 70
     0
102
RTVSPropertyOp8
 70
     0
102
RTVSPropertyOp9
 70
     0
102
RTVSPropertyOp10
 70
     0
102
RTVSPropertyOp11
 70
     0
102
RTVSPropertyOp12
 70
     0
102
RTVSPropertyOp13
 70
     0
102
RTVSPropertyOp14
 70
     2
102
RTVSPropertyOp15
 70
     0
102
RTVSPropertyOp16
 70
     0
102
RTVSPropertyOp17
 70
     0
102
RTVSPropertyOp18
 70
     0
102
RTVSPropertyOp19
 70
     0
102
RTVSPropertyOp20
 70
     0
102
RTVSPropertyOp21
 70
     0
102
RTVSPropertyOp22
 70
     0
102
RTVSPropertyOp23
 70
     0
102
RTVSPropertyOp24
 70
     0
102
RTVSPropertyOp25
 70
     0
102
RTVSPropertyOp26
 70
     0
102
RTVSPropertyOp27
 70
     0
102
RTVSPropertyOp28
 70
     1
102
RTVSPropertyOp29
 70
     1
102
RTVSPropertyOp30
 70
     1
102
RTVSPropertyOp31
 70
     1
102
RTVSPropertyOp32
 70
     1
102
RTVSPropertyOp33
 70
     1
102
RTVSPropertyOp34
 70
     1
102
RTVSPropertyOp35
 70
     1
102
RTVSPropertyOp36
 70
     1
102
RTVSPropertyOp37
 70
     0
102
RTVSPropertyOp38
 70
     0
102
RTVSPropertyOp39
 70
     0
102
RTVSPropertyOp40
 70
     0
102
RTVSPropertyOp41
 70
     0
102
RTVSPropertyOp42
 70
     0
102
RTVSPropertyOp43
 70
     0
102
RTVSPropertyOp44
 70
     0
102
RTVSPropertyOp45
 70
     1
102
RTVSPropertyOp46
 70
     0
102
RTVSPropertyOp47
 70
     0
102
RTVSPropertyOp48
 70
     0
102
RTVSPropertyOp49
 70
     1
102
RTVSPropertyOp50
 70
     0
102
RTVSPropertyOp51
 70
     0
102
RTVSPropertyOp52
 70
     0
102
RTVSPropertyOp53
 70
     0
102
RTVSPropertyOp54
 70
     0
102
RTVSPropertyOp55
 70
     1
102
RTVSPropertyOp56
 70
     0
102
RTVSPropertyOp57
 70
     0
102
RTVSPropertyOp58
 70
     0
102
RTVSPropertyOp59
 70
     0
102
RTVSPropertyOp60
 70
     0
102
RTVSPropertyOp61
 70
     0
102
RTVSPropertyOp62
 70
     0
  0
XRECORD
  5
107C4
102
{ACAD_REACTORS
330
107C3
102
}
330
107C3
100
AcDbXrecord
280
     1
102
RTVSPost2010Prop28
280
     0
102
RTVSPost2010PropOp28
 70
     1
102
RTVSPost2010Prop29
280
     1
102
RTVSPost2010PropOp29
 70
     1
102
RTVSPost2010Prop30
280
     1
102
RTVSPost2010PropOp30
 70
     1
102
RTVSPost2010Prop31
280
     0
102
RTVSPost2010PropOp31
 70
     1
102
RTVSPost2010Prop32
280
     0
102
RTVSPost2010PropOp32
 70
     1
102
RTVSPost2010Prop33
280
     0
102
RTVSPost2010PropOp33
 70
     1
102
RTVSPost2010Prop34
280
     0
102
RTVSPost2010PropOp34
 70
     1
102
RTVSPost2010Prop35
280
     0
102
RTVSPost2010PropOp35
 70
     1
102
RTVSPost2010Prop36
280
     0
102
RTVSPost2010PropOp36
 70
     1
102
RTVSPost2010Prop37
 90
       50
102
RTVSPost2010PropOp37
 70
     1
102
RTVSPost2010Prop38
140
0.0
102
RTVSPost2010PropOp38
 70
     1
102
RTVSPost2010Prop39
140
1.0
102
RTVSPost2010PropOp39
 70
     1
102
RTVSPost2010Prop40
 90
        0
102
RTVSPost2010PropOp40
 70
     1
102
RTVSPost2010Prop41ColorIndex
 90
       18
102
RTVSPost2010Prop41ColorRGB
 90
        0
102
RTVSPost2010PropOp41
 70
     1
102
RTVSPost2010Prop42
 90
       50
102
RTVSPost2010PropOp42
 70
     1
102
RTVSPost2010Prop43
 90
        3
102
RTVSPost2010PropOp43
 70
     1
102
RTVSPost2010Prop44ColorIndex
 90
        5
102
RTVSPost2010Prop44ColorRGB
 90
      255
102
RTVSPost2010PropOp44
 70
     1
102
RTVSPost2010Prop45
280
     0
102
RTVSPost2010PropOp45
 70
     1
102
RTVSPost2010Prop46
 90
       50
102
RTVSPost2010PropOp46
 70
     1
102
RTVSPost2010Prop47
 90
       50
102
RTVSPost2010PropOp47
 70
     1
102
RTVSPost2010Prop48
 90
       50
102
RTVSPost2010PropOp48
 70
     1
102
RTVSPost2010Prop49
280
     0
102
RTVSPost2010PropOp49
 70
     1
102
RTVSPost2010Prop50
 90
       50
102
RTVSPost2010PropOp50
 70
     1
102
RTVSPost2010Prop51ColorIndex
 90
      256
102
RTVSPost2010Prop51ColorRGB
 90
-16777216
102
RTVSPost2010PropOp51
 70
     0
102
RTVSPost2010Prop52
140
1.0
102
RTVSPost2010PropOp52
 70
     0
102
RTVSPost2010Prop53
 90
        2
102
RTVSPost2010PropOp53
 70
     1
102
RTVSPost2010Prop54
  1
strokes_ogs.tif
102
RTVSPost2010PropOp54
 70
     1
102
RTVSPost2010Prop55
280
     0
102
RTVSPost2010PropOp55
 70
     1
102
RTVSPost2010Prop56
140
1.0
102
RTVSPost2010PropOp56
 70
     1
102
RTVSPost2010Prop57
140
1.0
102
RTVSPost2010PropOp57
 70
     1
102
RTVSPropertyOp0
 70
     1
102
RTVSPropertyOp1
 70
     1
102
RTVSPropertyOp2
 70
     1
102
RTVSPropertyOp3
 70
     1
102
RTVSPropertyOp4
 70
     1
102
RTVSPropertyOp5
 70
     1
102
RTVSPropertyOp6
 70
     1
102
RTVSPropertyOp7
 70
     1
102
RTVSPropertyOp8
 70
     1
102
RTVSPropertyOp9
 70
     1
102
RTVSPropertyOp10
 70
     1
102
RTVSPropertyOp11
 70
     1
102
RTVSPropertyOp12
 70
     1
102
RTVSPropertyOp13
 70
     1
102
RTVSPropertyOp14
 70
     1
102
RTVSPropertyOp15
 70
     1
102
RTVSPropertyOp16
 70
     1
102
RTVSPropertyOp17
 70
     1
102
RTVSPropertyOp18
 70
     1
102
RTVSPropertyOp19
 70
     1
102
RTVSPropertyOp20
 70
     1
102
RTVSPropertyOp21
 70
     1
102
RTVSPropertyOp22
 70
     1
102
RTVSPropertyOp23
 70
     1
102
RTVSPropertyOp24
 70
     1
102
RTVSPropertyOp25
 70
     1
102
RTVSPropertyOp26
 70
     1
102
RTVSPropertyOp27
 70
     1
102
RTVSPropertyOp28
 70
     1
102
RTVSPropertyOp29
 70
     1
102
RTVSPropertyOp30
 70
     1
102
RTVSPropertyOp31
 70
     1
102
RTVSPropertyOp32
 70
     1
102
RTVSPropertyOp33
 70
     1
102
RTVSPropertyOp34
 70
     1
102
RTVSPropertyOp35
 70
     1
102
RTVSPropertyOp36
 70
     1
102
RTVSPropertyOp37
 70
     1
102
RTVSPropertyOp38
 70
     1
102
RTVSPropertyOp39
 70
     1
102
RTVSPropertyOp40
 70
     1
102
RTVSPropertyOp41
 70
     1
102
RTVSPropertyOp42
 70
     1
102
RTVSPropertyOp43
 70
     1
102
RTVSPropertyOp44
 70
     1
102
RTVSPropertyOp45
 70
     1
102
RTVSPropertyOp46
 70
     1
102
RTVSPropertyOp47
 70
     1
102
RTVSPropertyOp48
 70
     1
102
RTVSPropertyOp49
 70
     1
102
RTVSPropertyOp50
 70
     1
102
RTVSPropertyOp51
 70
     0
102
RTVSPropertyOp52
 70
     0
102
RTVSPropertyOp53
 70
     1
102
RTVSPropertyOp54
 70
     1
102
RTVSPropertyOp55
 70
     1
102
RTVSPropertyOp56
 70
     1
102
RTVSPropertyOp57
 70
     1
102
RTVSPropertyOp58
 70
     1
102
RTVSPropertyOp59
 70
     1
102
RTVSPropertyOp60
 70
     1
102
RTVSPropertyOp61
 70
     1
102
RTVSPropertyOp62
 70
     1
  0
XRECORD
  5
107A8
102
{ACAD_REACTORS
330
107A7
102
}
330
107A7
100
AcDbXrecord
280
     1
102
RTVSPost2010Prop28
280
     0
102
RTVSPost2010PropOp28
 70
     1
102
RTVSPost2010Prop29
280
     1
102
RTVSPost2010PropOp29
 70
     1
102
RTVSPost2010Prop30
280
     1
102
RTVSPost2010PropOp30
 70
     1
102
RTVSPost2010Prop31
280
     0
102
RTVSPost2010PropOp31
 70
     1
102
RTVSPost2010Prop32
280
     0
102
RTVSPost2010PropOp32
 70
     1
102
RTVSPost2010Prop33
280
     0
102
RTVSPost2010PropOp33
 70
     1
102
RTVSPost2010Prop34
280
     0
102
RTVSPost2010PropOp34
 70
     1
102
RTVSPost2010Prop35
280
     0
102
RTVSPost2010PropOp35
 70
     1
102
RTVSPost2010Prop36
280
     0
102
RTVSPost2010PropOp36
 70
     1
102
RTVSPost2010Prop37
 90
       50
102
RTVSPost2010PropOp37
 70
     1
102
RTVSPost2010Prop38
140
0.0
102
RTVSPost2010PropOp38
 70
     1
102
RTVSPost2010Prop39
140
1.0
102
RTVSPost2010PropOp39
 70
     1
102
RTVSPost2010Prop40
 90
        0
102
RTVSPost2010PropOp40
 70
     1
102
RTVSPost2010Prop41ColorIndex
 90
       18
102
RTVSPost2010Prop41ColorRGB
 90
        0
102
RTVSPost2010PropOp41
 70
     1
102
RTVSPost2010Prop42
 90
       50
102
RTVSPost2010PropOp42
 70
     1
102
RTVSPost2010Prop43
 90
        3
102
RTVSPost2010PropOp43
 70
     1
102
RTVSPost2010Prop44ColorIndex
 90
        5
102
RTVSPost2010Prop44ColorRGB
 90
      255
102
RTVSPost2010PropOp44
 70
     1
102
RTVSPost2010Prop45
280
     0
102
RTVSPost2010PropOp45
 70
     1
102
RTVSPost2010Prop46
 90
       50
102
RTVSPost2010PropOp46
 70
     1
102
RTVSPost2010Prop47
 90
       50
102
RTVSPost2010PropOp47
 70
     1
102
RTVSPost2010Prop48
 90
       50
102
RTVSPost2010PropOp48
 70
     1
102
RTVSPost2010Prop49
280
     0
102
RTVSPost2010PropOp49
 70
     1
102
RTVSPost2010Prop50
 90
       50
102
RTVSPost2010PropOp50
 70
     1
102
RTVSPost2010Prop51ColorIndex
 90
      256
102
RTVSPost2010Prop51ColorRGB
 90
-16777216
102
RTVSPost2010PropOp51
 70
     0
102
RTVSPost2010Prop52
140
1.0
102
RTVSPost2010PropOp52
 70
     0
102
RTVSPost2010Prop53
 90
        2
102
RTVSPost2010PropOp53
 70
     1
102
RTVSPost2010Prop54
  1
strokes_ogs.tif
102
RTVSPost2010PropOp54
 70
     1
102
RTVSPost2010Prop55
280
     0
102
RTVSPost2010PropOp55
 70
     1
102
RTVSPost2010Prop56
140
1.0
102
RTVSPost2010PropOp56
 70
     1
102
RTVSPost2010Prop57
140
1.0
102
RTVSPost2010PropOp57
 70
     1
102
RTVSPropertyOp0
 70
     1
102
RTVSPropertyOp1
 70
     1
102
RTVSPropertyOp2
 70
     1
102
RTVSPropertyOp3
 70
     1
102
RTVSPropertyOp4
 70
     1
102
RTVSPropertyOp5
 70
     1
102
RTVSPropertyOp6
 70
     1
102
RTVSPropertyOp7
 70
     1
102
RTVSPropertyOp8
 70
     1
102
RTVSPropertyOp9
 70
     1
102
RTVSPropertyOp10
 70
     1
102
RTVSPropertyOp11
 70
     1
102
RTVSPropertyOp12
 70
     1
102
RTVSPropertyOp13
 70
     1
102
RTVSPropertyOp14
 70
     1
102
RTVSPropertyOp15
 70
     1
102
RTVSPropertyOp16
 70
     1
102
RTVSPropertyOp17
 70
     1
102
RTVSPropertyOp18
 70
     1
102
RTVSPropertyOp19
 70
     1
102
RTVSPropertyOp20
 70
     1
102
RTVSPropertyOp21
 70
     1
102
RTVSPropertyOp22
 70
     1
102
RTVSPropertyOp23
 70
     1
102
RTVSPropertyOp24
 70
     1
102
RTVSPropertyOp25
 70
     1
102
RTVSPropertyOp26
 70
     1
102
RTVSPropertyOp27
 70
     1
102
RTVSPropertyOp28
 70
     1
102
RTVSPropertyOp29
 70
     1
102
RTVSPropertyOp30
 70
     1
102
RTVSPropertyOp31
 70
     1
102
RTVSPropertyOp32
 70
     1
102
RTVSPropertyOp33
 70
     1
102
RTVSPropertyOp34
 70
     1
102
RTVSPropertyOp35
 70
     1
102
RTVSPropertyOp36
 70
     1
102
RTVSPropertyOp37
 70
     1
102
RTVSPropertyOp38
 70
     1
102
RTVSPropertyOp39
 70
     1
102
RTVSPropertyOp40
 70
     1
102
RTVSPropertyOp41
 70
     1
102
RTVSPropertyOp42
 70
     1
102
RTVSPropertyOp43
 70
     1
102
RTVSPropertyOp44
 70
     1
102
RTVSPropertyOp45
 70
     1
102
RTVSPropertyOp46
 70
     1
102
RTVSPropertyOp47
 70
     1
102
RTVSPropertyOp48
 70
     1
102
RTVSPropertyOp49
 70
     1
102
RTVSPropertyOp50
 70
     1
102
RTVSPropertyOp51
 70
     0
102
RTVSPropertyOp52
 70
     0
102
RTVSPropertyOp53
 70
     1
102
RTVSPropertyOp54
 70
     1
102
RTVSPropertyOp55
 70
     1
102
RTVSPropertyOp56
 70
     1
102
RTVSPropertyOp57
 70
     1
102
RTVSPropertyOp58
 70
     1
102
RTVSPropertyOp59
 70
     1
102
RTVSPropertyOp60
 70
     1
102
RTVSPropertyOp61
 70
     1
102
RTVSPropertyOp62
 70
     1
  0
XRECORD
  5
107AA
102
{ACAD_REACTORS
330
107A9
102
}
330
107A9
100
AcDbXrecord
280
     1
102
RTVSPost2010Prop28
280
     0
102
RTVSPost2010PropOp28
 70
     1
102
RTVSPost2010Prop29
280
     1
102
RTVSPost2010PropOp29
 70
     1
102
RTVSPost2010Prop30
280
     1
102
RTVSPost2010PropOp30
 70
     1
102
RTVSPost2010Prop31
280
     0
102
RTVSPost2010PropOp31
 70
     1
102
RTVSPost2010Prop32
280
     0
102
RTVSPost2010PropOp32
 70
     1
102
RTVSPost2010Prop33
280
     0
102
RTVSPost2010PropOp33
 70
     1
102
RTVSPost2010Prop34
280
     0
102
RTVSPost2010PropOp34
 70
     1
102
RTVSPost2010Prop35
280
     0
102
RTVSPost2010PropOp35
 70
     1
102
RTVSPost2010Prop36
280
     0
102
RTVSPost2010PropOp36
 70
     1
102
RTVSPost2010Prop37
 90
       50
102
RTVSPost2010PropOp37
 70
     1
102
RTVSPost2010Prop38
140
0.0
102
RTVSPost2010PropOp38
 70
     1
102
RTVSPost2010Prop39
140
1.0
102
RTVSPost2010PropOp39
 70
     1
102
RTVSPost2010Prop40
 90
        0
102
RTVSPost2010PropOp40
 70
     1
102
RTVSPost2010Prop41ColorIndex
 90
       18
102
RTVSPost2010Prop41ColorRGB
 90
        0
102
RTVSPost2010PropOp41
 70
     1
102
RTVSPost2010Prop42
 90
       50
102
RTVSPost2010PropOp42
 70
     1
102
RTVSPost2010Prop43
 90
        3
102
RTVSPost2010PropOp43
 70
     1
102
RTVSPost2010Prop44ColorIndex
 90
        5
102
RTVSPost2010Prop44ColorRGB
 90
      255
102
RTVSPost2010PropOp44
 70
     1
102
RTVSPost2010Prop45
280
     0
102
RTVSPost2010PropOp45
 70
     1
102
RTVSPost2010Prop46
 90
       50
102
RTVSPost2010PropOp46
 70
     1
102
RTVSPost2010Prop47
 90
       50
102
RTVSPost2010PropOp47
 70
     1
102
RTVSPost2010Prop48
 90
       50
102
RTVSPost2010PropOp48
 70
     1
102
RTVSPost2010Prop49
280
     0
102
RTVSPost2010PropOp49
 70
     1
102
RTVSPost2010Prop50
 90
       50
102
RTVSPost2010PropOp50
 70
     1
102
RTVSPost2010Prop51ColorIndex
 90
      256
102
RTVSPost2010Prop51ColorRGB
 90
-16777216
102
RTVSPost2010PropOp51
 70
     0
102
RTVSPost2010Prop52
140
1.0
102
RTVSPost2010PropOp52
 70
     0
102
RTVSPost2010Prop53
 90
        2
102
RTVSPost2010PropOp53
 70
     1
102
RTVSPost2010Prop54
  1
strokes_ogs.tif
102
RTVSPost2010PropOp54
 70
     1
102
RTVSPost2010Prop55
280
     0
102
RTVSPost2010PropOp55
 70
     1
102
RTVSPost2010Prop56
140
1.0
102
RTVSPost2010PropOp56
 70
     1
102
RTVSPost2010Prop57
140
1.0
102
RTVSPost2010PropOp57
 70
     1
102
RTVSPropertyOp0
 70
     1
102
RTVSPropertyOp1
 70
     1
102
RTVSPropertyOp2
 70
     1
102
RTVSPropertyOp3
 70
     1
102
RTVSPropertyOp4
 70
     1
102
RTVSPropertyOp5
 70
     1
102
RTVSPropertyOp6
 70
     1
102
RTVSPropertyOp7
 70
     1
102
RTVSPropertyOp8
 70
     1
102
RTVSPropertyOp9
 70
     1
102
RTVSPropertyOp10
 70
     1
102
RTVSPropertyOp11
 70
     1
102
RTVSPropertyOp12
 70
     1
102
RTVSPropertyOp13
 70
     1
102
RTVSPropertyOp14
 70
     1
102
RTVSPropertyOp15
 70
     1
102
RTVSPropertyOp16
 70
     1
102
RTVSPropertyOp17
 70
     1
102
RTVSPropertyOp18
 70
     1
102
RTVSPropertyOp19
 70
     1
102
RTVSPropertyOp20
 70
     1
102
RTVSPropertyOp21
 70
     1
102
RTVSPropertyOp22
 70
     1
102
RTVSPropertyOp23
 70
     1
102
RTVSPropertyOp24
 70
     1
102
RTVSPropertyOp25
 70
     1
102
RTVSPropertyOp26
 70
     1
102
RTVSPropertyOp27
 70
     1
102
RTVSPropertyOp28
 70
     1
102
RTVSPropertyOp29
 70
     1
102
RTVSPropertyOp30
 70
     1
102
RTVSPropertyOp31
 70
     1
102
RTVSPropertyOp32
 70
     1
102
RTVSPropertyOp33
 70
     1
102
RTVSPropertyOp34
 70
     1
102
RTVSPropertyOp35
 70
     1
102
RTVSPropertyOp36
 70
     1
102
RTVSPropertyOp37
 70
     1
102
RTVSPropertyOp38
 70
     1
102
RTVSPropertyOp39
 70
     1
102
RTVSPropertyOp40
 70
     1
102
RTVSPropertyOp41
 70
     1
102
RTVSPropertyOp42
 70
     1
102
RTVSPropertyOp43
 70
     1
102
RTVSPropertyOp44
 70
     1
102
RTVSPropertyOp45
 70
     1
102
RTVSPropertyOp46
 70
     1
102
RTVSPropertyOp47
 70
     1
102
RTVSPropertyOp48
 70
     1
102
RTVSPropertyOp49
 70
     1
102
RTVSPropertyOp50
 70
     1
102
RTVSPropertyOp51
 70
     0
102
RTVSPropertyOp52
 70
     0
102
RTVSPropertyOp53
 70
     1
102
RTVSPropertyOp54
 70
     1
102
RTVSPropertyOp55
 70
     1
102
RTVSPropertyOp56
 70
     1
102
RTVSPropertyOp57
 70
     1
102
RTVSPropertyOp58
 70
     1
102
RTVSPropertyOp59
 70
     1
102
RTVSPropertyOp60
 70
     1
102
RTVSPropertyOp61
 70
     1
102
RTVSPropertyOp62
 70
     1
  0
XRECORD
  5
107AC
102
{ACAD_REACTORS
330
107AB
102
}
330
107AB
100
AcDbXrecord
280
     1
102
RTVSPost2010Prop28
280
     0
102
RTVSPost2010PropOp28
 70
     1
102
RTVSPost2010Prop29
280
     1
102
RTVSPost2010PropOp29
 70
     1
102
RTVSPost2010Prop30
280
     1
102
RTVSPost2010PropOp30
 70
     1
102
RTVSPost2010Prop31
280
     0
102
RTVSPost2010PropOp31
 70
     1
102
RTVSPost2010Prop32
280
     0
102
RTVSPost2010PropOp32
 70
     1
102
RTVSPost2010Prop33
280
     0
102
RTVSPost2010PropOp33
 70
     1
102
RTVSPost2010Prop34
280
     0
102
RTVSPost2010PropOp34
 70
     1
102
RTVSPost2010Prop35
280
     0
102
RTVSPost2010PropOp35
 70
     1
102
RTVSPost2010Prop36
280
     0
102
RTVSPost2010PropOp36
 70
     1
102
RTVSPost2010Prop37
 90
       50
102
RTVSPost2010PropOp37
 70
     1
102
RTVSPost2010Prop38
140
0.0
102
RTVSPost2010PropOp38
 70
     1
102
RTVSPost2010Prop39
140
1.0
102
RTVSPost2010PropOp39
 70
     1
102
RTVSPost2010Prop40
 90
        0
102
RTVSPost2010PropOp40
 70
     1
102
RTVSPost2010Prop41ColorIndex
 90
       18
102
RTVSPost2010Prop41ColorRGB
 90
        0
102
RTVSPost2010PropOp41
 70
     1
102
RTVSPost2010Prop42
 90
       50
102
RTVSPost2010PropOp42
 70
     1
102
RTVSPost2010Prop43
 90
        3
102
RTVSPost2010PropOp43
 70
     1
102
RTVSPost2010Prop44ColorIndex
 90
        5
102
RTVSPost2010Prop44ColorRGB
 90
      255
102
RTVSPost2010PropOp44
 70
     1
102
RTVSPost2010Prop45
280
     0
102
RTVSPost2010PropOp45
 70
     1
102
RTVSPost2010Prop46
 90
       50
102
RTVSPost2010PropOp46
 70
     1
102
RTVSPost2010Prop47
 90
       50
102
RTVSPost2010PropOp47
 70
     1
102
RTVSPost2010Prop48
 90
       50
102
RTVSPost2010PropOp48
 70
     1
102
RTVSPost2010Prop49
280
     0
102
RTVSPost2010PropOp49
 70
     1
102
RTVSPost2010Prop50
 90
       50
102
RTVSPost2010PropOp50
 70
     1
102
RTVSPost2010Prop51ColorIndex
 90
      256
102
RTVSPost2010Prop51ColorRGB
 90
-16777216
102
RTVSPost2010PropOp51
 70
     0
102
RTVSPost2010Prop52
140
1.0
102
RTVSPost2010PropOp52
 70
     0
102
RTVSPost2010Prop53
 90
        2
102
RTVSPost2010PropOp53
 70
     1
102
RTVSPost2010Prop54
  1
strokes_ogs.tif
102
RTVSPost2010PropOp54
 70
     1
102
RTVSPost2010Prop55
280
     0
102
RTVSPost2010PropOp55
 70
     1
102
RTVSPost2010Prop56
140
1.0
102
RTVSPost2010PropOp56
 70
     1
102
RTVSPost2010Prop57
140
1.0
102
RTVSPost2010PropOp57
 70
     1
102
RTVSPropertyOp0
 70
     1
102
RTVSPropertyOp1
 70
     1
102
RTVSPropertyOp2
 70
     1
102
RTVSPropertyOp3
 70
     1
102
RTVSPropertyOp4
 70
     1
102
RTVSPropertyOp5
 70
     1
102
RTVSPropertyOp6
 70
     1
102
RTVSPropertyOp7
 70
     1
102
RTVSPropertyOp8
 70
     1
102
RTVSPropertyOp9
 70
     1
102
RTVSPropertyOp10
 70
     1
102
RTVSPropertyOp11
 70
     1
102
RTVSPropertyOp12
 70
     1
102
RTVSPropertyOp13
 70
     1
102
RTVSPropertyOp14
 70
     1
102
RTVSPropertyOp15
 70
     1
102
RTVSPropertyOp16
 70
     1
102
RTVSPropertyOp17
 70
     1
102
RTVSPropertyOp18
 70
     1
102
RTVSPropertyOp19
 70
     1
102
RTVSPropertyOp20
 70
     1
102
RTVSPropertyOp21
 70
     1
102
RTVSPropertyOp22
 70
     1
102
RTVSPropertyOp23
 70
     1
102
RTVSPropertyOp24
 70
     1
102
RTVSPropertyOp25
 70
     1
102
RTVSPropertyOp26
 70
     1
102
RTVSPropertyOp27
 70
     1
102
RTVSPropertyOp28
 70
     1
102
RTVSPropertyOp29
 70
     1
102
RTVSPropertyOp30
 70
     1
102
RTVSPropertyOp31
 70
     1
102
RTVSPropertyOp32
 70
     1
102
RTVSPropertyOp33
 70
     1
102
RTVSPropertyOp34
 70
     1
102
RTVSPropertyOp35
 70
     1
102
RTVSPropertyOp36
 70
     1
102
RTVSPropertyOp37
 70
     1
102
RTVSPropertyOp38
 70
     1
102
RTVSPropertyOp39
 70
     1
102
RTVSPropertyOp40
 70
     1
102
RTVSPropertyOp41
 70
     1
102
RTVSPropertyOp42
 70
     1
102
RTVSPropertyOp43
 70
     1
102
RTVSPropertyOp44
 70
     1
102
RTVSPropertyOp45
 70
     1
102
RTVSPropertyOp46
 70
     1
102
RTVSPropertyOp47
 70
     1
102
RTVSPropertyOp48
 70
     1
102
RTVSPropertyOp49
 70
     1
102
RTVSPropertyOp50
 70
     1
102
RTVSPropertyOp51
 70
     0
102
RTVSPropertyOp52
 70
     0
102
RTVSPropertyOp53
 70
     1
102
RTVSPropertyOp54
 70
     1
102
RTVSPropertyOp55
 70
     1
102
RTVSPropertyOp56
 70
     1
102
RTVSPropertyOp57
 70
     1
102
RTVSPropertyOp58
 70
     1
102
RTVSPropertyOp59
 70
     1
102
RTVSPropertyOp60
 70
     1
102
RTVSPropertyOp61
 70
     1
102
RTVSPropertyOp62
 70
     1
  0
XRECORD
  5
107AE
102
{ACAD_REACTORS
330
107AD
102
}
330
107AD
100
AcDbXrecord
280
     1
102
RTVSPost2010Prop28
280
     0
102
RTVSPost2010PropOp28
 70
     1
102
RTVSPost2010Prop29
280
     1
102
RTVSPost2010PropOp29
 70
     1
102
RTVSPost2010Prop30
280
     1
102
RTVSPost2010PropOp30
 70
     1
102
RTVSPost2010Prop31
280
     0
102
RTVSPost2010PropOp31
 70
     1
102
RTVSPost2010Prop32
280
     0
102
RTVSPost2010PropOp32
 70
     1
102
RTVSPost2010Prop33
280
     0
102
RTVSPost2010PropOp33
 70
     1
102
RTVSPost2010Prop34
280
     0
102
RTVSPost2010PropOp34
 70
     1
102
RTVSPost2010Prop35
280
     0
102
RTVSPost2010PropOp35
 70
     1
102
RTVSPost2010Prop36
280
     0
102
RTVSPost2010PropOp36
 70
     1
102
RTVSPost2010Prop37
 90
       50
102
RTVSPost2010PropOp37
 70
     1
102
RTVSPost2010Prop38
140
0.0
102
RTVSPost2010PropOp38
 70
     1
102
RTVSPost2010Prop39
140
1.0
102
RTVSPost2010PropOp39
 70
     1
102
RTVSPost2010Prop40
 90
        0
102
RTVSPost2010PropOp40
 70
     1
102
RTVSPost2010Prop41ColorIndex
 90
       18
102
RTVSPost2010Prop41ColorRGB
 90
        0
102
RTVSPost2010PropOp41
 70
     1
102
RTVSPost2010Prop42
 90
       50
102
RTVSPost2010PropOp42
 70
     1
102
RTVSPost2010Prop43
 90
        3
102
RTVSPost2010PropOp43
 70
     1
102
RTVSPost2010Prop44ColorIndex
 90
        5
102
RTVSPost2010Prop44ColorRGB
 90
      255
102
RTVSPost2010PropOp44
 70
     1
102
RTVSPost2010Prop45
280
     0
102
RTVSPost2010PropOp45
 70
     1
102
RTVSPost2010Prop46
 90
       50
102
RTVSPost2010PropOp46
 70
     1
102
RTVSPost2010Prop47
 90
       50
102
RTVSPost2010PropOp47
 70
     1
102
RTVSPost2010Prop48
 90
       50
102
RTVSPost2010PropOp48
 70
     1
102
RTVSPost2010Prop49
280
     0
102
RTVSPost2010PropOp49
 70
     1
102
RTVSPost2010Prop50
 90
       50
102
RTVSPost2010PropOp50
 70
     1
102
RTVSPost2010Prop51ColorIndex
 90
      256
102
RTVSPost2010Prop51ColorRGB
 90
-16777216
102
RTVSPost2010PropOp51
 70
     0
102
RTVSPost2010Prop52
140
1.0
102
RTVSPost2010PropOp52
 70
     0
102
RTVSPost2010Prop53
 90
        2
102
RTVSPost2010PropOp53
 70
     1
102
RTVSPost2010Prop54
  1
strokes_ogs.tif
102
RTVSPost2010PropOp54
 70
     1
102
RTVSPost2010Prop55
280
     0
102
RTVSPost2010PropOp55
 70
     1
102
RTVSPost2010Prop56
140
1.0
102
RTVSPost2010PropOp56
 70
     1
102
RTVSPost2010Prop57
140
1.0
102
RTVSPost2010PropOp57
 70
     1
102
RTVSPropertyOp0
 70
     1
102
RTVSPropertyOp1
 70
     1
102
RTVSPropertyOp2
 70
     1
102
RTVSPropertyOp3
 70
     1
102
RTVSPropertyOp4
 70
     1
102
RTVSPropertyOp5
 70
     1
102
RTVSPropertyOp6
 70
     1
102
RTVSPropertyOp7
 70
     1
102
RTVSPropertyOp8
 70
     1
102
RTVSPropertyOp9
 70
     1
102
RTVSPropertyOp10
 70
     1
102
RTVSPropertyOp11
 70
     1
102
RTVSPropertyOp12
 70
     1
102
RTVSPropertyOp13
 70
     1
102
RTVSPropertyOp14
 70
     1
102
RTVSPropertyOp15
 70
     1
102
RTVSPropertyOp16
 70
     1
102
RTVSPropertyOp17
 70
     1
102
RTVSPropertyOp18
 70
     1
102
RTVSPropertyOp19
 70
     1
102
RTVSPropertyOp20
 70
     1
102
RTVSPropertyOp21
 70
     1
102
RTVSPropertyOp22
 70
     1
102
RTVSPropertyOp23
 70
     1
102
RTVSPropertyOp24
 70
     1
102
RTVSPropertyOp25
 70
     1
102
RTVSPropertyOp26
 70
     1
102
RTVSPropertyOp27
 70
     1
102
RTVSPropertyOp28
 70
     1
102
RTVSPropertyOp29
 70
     1
102
RTVSPropertyOp30
 70
     1
102
RTVSPropertyOp31
 70
     1
102
RTVSPropertyOp32
 70
     1
102
RTVSPropertyOp33
 70
     1
102
RTVSPropertyOp34
 70
     1
102
RTVSPropertyOp35
 70
     1
102
RTVSPropertyOp36
 70
     1
102
RTVSPropertyOp37
 70
     1
102
RTVSPropertyOp38
 70
     1
102
RTVSPropertyOp39
 70
     1
102
RTVSPropertyOp40
 70
     1
102
RTVSPropertyOp41
 70
     1
102
RTVSPropertyOp42
 70
     1
102
RTVSPropertyOp43
 70
     1
102
RTVSPropertyOp44
 70
     1
102
RTVSPropertyOp45
 70
     1
102
RTVSPropertyOp46
 70
     1
102
RTVSPropertyOp47
 70
     1
102
RTVSPropertyOp48
 70
     1
102
RTVSPropertyOp49
 70
     1
102
RTVSPropertyOp50
 70
     1
102
RTVSPropertyOp51
 70
     0
102
RTVSPropertyOp52
 70
     0
102
RTVSPropertyOp53
 70
     1
102
RTVSPropertyOp54
 70
     1
102
RTVSPropertyOp55
 70
     1
102
RTVSPropertyOp56
 70
     1
102
RTVSPropertyOp57
 70
     1
102
RTVSPropertyOp58
 70
     1
102
RTVSPropertyOp59
 70
     1
102
RTVSPropertyOp60
 70
     1
102
RTVSPropertyOp61
 70
     1
102
RTVSPropertyOp62
 70
     1
  0
XRECORD
  5
107B6
102
{ACAD_REACTORS
330
107B5
102
}
330
107B5
100
AcDbXrecord
280
     1
102
RTVSPost2010Prop28
280
     0
102
RTVSPost2010PropOp28
 70
     1
102
RTVSPost2010Prop29
280
     1
102
RTVSPost2010PropOp29
 70
     1
102
RTVSPost2010Prop30
280
     1
102
RTVSPost2010PropOp30
 70
     1
102
RTVSPost2010Prop31
280
     0
102
RTVSPost2010PropOp31
 70
     1
102
RTVSPost2010Prop32
280
     0
102
RTVSPost2010PropOp32
 70
     1
102
RTVSPost2010Prop33
280
     0
102
RTVSPost2010PropOp33
 70
     1
102
RTVSPost2010Prop34
280
     0
102
RTVSPost2010PropOp34
 70
     1
102
RTVSPost2010Prop35
280
     0
102
RTVSPost2010PropOp35
 70
     1
102
RTVSPost2010Prop36
280
     0
102
RTVSPost2010PropOp36
 70
     1
102
RTVSPost2010Prop37
 90
       50
102
RTVSPost2010PropOp37
 70
     1
102
RTVSPost2010Prop38
140
0.0
102
RTVSPost2010PropOp38
 70
     1
102
RTVSPost2010Prop39
140
1.0
102
RTVSPost2010PropOp39
 70
     1
102
RTVSPost2010Prop40
 90
        0
102
RTVSPost2010PropOp40
 70
     1
102
RTVSPost2010Prop41ColorIndex
 90
       18
102
RTVSPost2010Prop41ColorRGB
 90
        0
102
RTVSPost2010PropOp41
 70
     1
102
RTVSPost2010Prop42
 90
       50
102
RTVSPost2010PropOp42
 70
     1
102
RTVSPost2010Prop43
 90
        3
102
RTVSPost2010PropOp43
 70
     1
102
RTVSPost2010Prop44ColorIndex
 90
        5
102
RTVSPost2010Prop44ColorRGB
 90
      255
102
RTVSPost2010PropOp44
 70
     1
102
RTVSPost2010Prop45
280
     0
102
RTVSPost2010PropOp45
 70
     1
102
RTVSPost2010Prop46
 90
       50
102
RTVSPost2010PropOp46
 70
     1
102
RTVSPost2010Prop47
 90
       50
102
RTVSPost2010PropOp47
 70
     1
102
RTVSPost2010Prop48
 90
       50
102
RTVSPost2010PropOp48
 70
     1
102
RTVSPost2010Prop49
280
     0
102
RTVSPost2010PropOp49
 70
     1
102
RTVSPost2010Prop50
 90
       50
102
RTVSPost2010PropOp50
 70
     1
102
RTVSPost2010Prop51ColorIndex
 90
      256
102
RTVSPost2010Prop51ColorRGB
 90
-16777216
102
RTVSPost2010PropOp51
 70
     0
102
RTVSPost2010Prop52
140
1.0
102
RTVSPost2010PropOp52
 70
     0
102
RTVSPost2010Prop53
 90
        2
102
RTVSPost2010PropOp53
 70
     1
102
RTVSPost2010Prop54
  1
strokes_ogs.tif
102
RTVSPost2010PropOp54
 70
     1
102
RTVSPost2010Prop55
280
     0
102
RTVSPost2010PropOp55
 70
     1
102
RTVSPost2010Prop56
140
1.0
102
RTVSPost2010PropOp56
 70
     1
102
RTVSPost2010Prop57
140
1.0
102
RTVSPost2010PropOp57
 70
     1
102
RTVSPropertyOp0
 70
     1
102
RTVSPropertyOp1
 70
     1
102
RTVSPropertyOp2
 70
     1
102
RTVSPropertyOp3
 70
     1
102
RTVSPropertyOp4
 70
     1
102
RTVSPropertyOp5
 70
     1
102
RTVSPropertyOp6
 70
     1
102
RTVSPropertyOp7
 70
     1
102
RTVSPropertyOp8
 70
     1
102
RTVSPropertyOp9
 70
     1
102
RTVSPropertyOp10
 70
     1
102
RTVSPropertyOp11
 70
     1
102
RTVSPropertyOp12
 70
     1
102
RTVSPropertyOp13
 70
     1
102
RTVSPropertyOp14
 70
     1
102
RTVSPropertyOp15
 70
     1
102
RTVSPropertyOp16
 70
     1
102
RTVSPropertyOp17
 70
     1
102
RTVSPropertyOp18
 70
     1
102
RTVSPropertyOp19
 70
     1
102
RTVSPropertyOp20
 70
     1
102
RTVSPropertyOp21
 70
     1
102
RTVSPropertyOp22
 70
     1
102
RTVSPropertyOp23
 70
     1
102
RTVSPropertyOp24
 70
     1
102
RTVSPropertyOp25
 70
     1
102
RTVSPropertyOp26
 70
     1
102
RTVSPropertyOp27
 70
     1
102
RTVSPropertyOp28
 70
     1
102
RTVSPropertyOp29
 70
     1
102
RTVSPropertyOp30
 70
     1
102
RTVSPropertyOp31
 70
     1
102
RTVSPropertyOp32
 70
     1
102
RTVSPropertyOp33
 70
     1
102
RTVSPropertyOp34
 70
     1
102
RTVSPropertyOp35
 70
     1
102
RTVSPropertyOp36
 70
     1
102
RTVSPropertyOp37
 70
     1
102
RTVSPropertyOp38
 70
     1
102
RTVSPropertyOp39
 70
     1
102
RTVSPropertyOp40
 70
     1
102
RTVSPropertyOp41
 70
     1
102
RTVSPropertyOp42
 70
     1
102
RTVSPropertyOp43
 70
     1
102
RTVSPropertyOp44
 70
     1
102
RTVSPropertyOp45
 70
     1
102
RTVSPropertyOp46
 70
     1
102
RTVSPropertyOp47
 70
     1
102
RTVSPropertyOp48
 70
     1
102
RTVSPropertyOp49
 70
     1
102
RTVSPropertyOp50
 70
     1
102
RTVSPropertyOp51
 70
     0
102
RTVSPropertyOp52
 70
     0
102
RTVSPropertyOp53
 70
     1
102
RTVSPropertyOp54
 70
     1
102
RTVSPropertyOp55
 70
     1
102
RTVSPropertyOp56
 70
     1
102
RTVSPropertyOp57
 70
     1
102
RTVSPropertyOp58
 70
     1
102
RTVSPropertyOp59
 70
     1
102
RTVSPropertyOp60
 70
     1
102
RTVSPropertyOp61
 70
     1
102
RTVSPropertyOp62
 70
     1
  0
XRECORD
  5
107D2
102
{ACAD_REACTORS
330
107D1
102
}
330
107D1
100
AcDbXrecord
280
     1
102
RTVSPost2010Prop28
280
     0
102
RTVSPost2010PropOp28
 70
     1
102
RTVSPost2010Prop29
280
     1
102
RTVSPost2010PropOp29
 70
     1
102
RTVSPost2010Prop30
280
     1
102
RTVSPost2010PropOp30
 70
     1
102
RTVSPost2010Prop31
280
     0
102
RTVSPost2010PropOp31
 70
     1
102
RTVSPost2010Prop32
280
     0
102
RTVSPost2010PropOp32
 70
     1
102
RTVSPost2010Prop33
280
     0
102
RTVSPost2010PropOp33
 70
     1
102
RTVSPost2010Prop34
280
     0
102
RTVSPost2010PropOp34
 70
     1
102
RTVSPost2010Prop35
280
     0
102
RTVSPost2010PropOp35
 70
     1
102
RTVSPost2010Prop36
280
     0
102
RTVSPost2010PropOp36
 70
     1
102
RTVSPost2010Prop37
 90
       50
102
RTVSPost2010PropOp37
 70
     0
102
RTVSPost2010Prop38
140
0.0
102
RTVSPost2010PropOp38
 70
     0
102
RTVSPost2010Prop39
140
1.0
102
RTVSPost2010PropOp39
 70
     0
102
RTVSPost2010Prop40
 90
        0
102
RTVSPost2010PropOp40
 70
     0
102
RTVSPost2010Prop41ColorIndex
 90
       18
102
RTVSPost2010Prop41ColorRGB
 90
        0
102
RTVSPost2010PropOp41
 70
     0
102
RTVSPost2010Prop42
 90
       50
102
RTVSPost2010PropOp42
 70
     0
102
RTVSPost2010Prop43
 90
        3
102
RTVSPost2010PropOp43
 70
     0
102
RTVSPost2010Prop44ColorIndex
 90
        5
102
RTVSPost2010Prop44ColorRGB
 90
      255
102
RTVSPost2010PropOp44
 70
     0
102
RTVSPost2010Prop45
280
     0
102
RTVSPost2010PropOp45
 70
     1
102
RTVSPost2010Prop46
 90
       50
102
RTVSPost2010PropOp46
 70
     0
102
RTVSPost2010Prop47
 90
       50
102
RTVSPost2010PropOp47
 70
     0
102
RTVSPost2010Prop48
 90
       50
102
RTVSPost2010PropOp48
 70
     0
102
RTVSPost2010Prop49
280
     0
102
RTVSPost2010PropOp49
 70
     1
102
RTVSPost2010Prop50
 90
       50
102
RTVSPost2010PropOp50
 70
     0
102
RTVSPost2010Prop51ColorIndex
 90
      256
102
RTVSPost2010Prop51ColorRGB
 90
-16777216
102
RTVSPost2010PropOp51
 70
     0
102
RTVSPost2010Prop52
140
1.0
102
RTVSPost2010PropOp52
 70
     0
102
RTVSPost2010Prop53
 90
        2
102
RTVSPost2010PropOp53
 70
     0
102
RTVSPost2010Prop54
  1
strokes_ogs.tif
102
RTVSPost2010PropOp54
 70
     0
102
RTVSPost2010Prop55
280
     0
102
RTVSPost2010PropOp55
 70
     1
102
RTVSPost2010Prop56
140
1.0
102
RTVSPost2010PropOp56
 70
     0
102
RTVSPost2010Prop57
140
1.0
102
RTVSPost2010PropOp57
 70
     0
102
RTVSPropertyOp0
 70
     0
102
RTVSPropertyOp1
 70
     0
102
RTVSPropertyOp2
 70
     0
102
RTVSPropertyOp3
 70
     0
102
RTVSPropertyOp4
 70
     0
102
RTVSPropertyOp5
 70
     0
102
RTVSPropertyOp6
 70
     0
102
RTVSPropertyOp7
 70
     0
102
RTVSPropertyOp8
 70
     0
102
RTVSPropertyOp9
 70
     0
102
RTVSPropertyOp10
 70
     0
102
RTVSPropertyOp11
 70
     0
102
RTVSPropertyOp12
 70
     0
102
RTVSPropertyOp13
 70
     0
102
RTVSPropertyOp14
 70
     2
102
RTVSPropertyOp15
 70
     0
102
RTVSPropertyOp16
 70
     0
102
RTVSPropertyOp17
 70
     0
102
RTVSPropertyOp18
 70
     0
102
RTVSPropertyOp19
 70
     0
102
RTVSPropertyOp20
 70
     0
102
RTVSPropertyOp21
 70
     0
102
RTVSPropertyOp22
 70
     0
102
RTVSPropertyOp23
 70
     0
102
RTVSPropertyOp24
 70
     0
102
RTVSPropertyOp25
 70
     0
102
RTVSPropertyOp26
 70
     0
102
RTVSPropertyOp27
 70
     0
102
RTVSPropertyOp28
 70
     1
102
RTVSPropertyOp29
 70
     1
102
RTVSPropertyOp30
 70
     1
102
RTVSPropertyOp31
 70
     1
102
RTVSPropertyOp32
 70
     1
102
RTVSPropertyOp33
 70
     1
102
RTVSPropertyOp34
 70
     1
102
RTVSPropertyOp35
 70
     1
102
RTVSPropertyOp36
 70
     1
102
RTVSPropertyOp37
 70
     0
102
RTVSPropertyOp38
 70
     0
102
RTVSPropertyOp39
 70
     0
102
RTVSPropertyOp40
 70
     0
102
RTVSPropertyOp41
 70
     0
102
RTVSPropertyOp42
 70
     0
102
RTVSPropertyOp43
 70
     0
102
RTVSPropertyOp44
 70
     0
102
RTVSPropertyOp45
 70
     1
102
RTVSPropertyOp46
 70
     0
102
RTVSPropertyOp47
 70
     0
102
RTVSPropertyOp48
 70
     0
102
RTVSPropertyOp49
 70
     1
102
RTVSPropertyOp50
 70
     0
102
RTVSPropertyOp51
 70
     0
102
RTVSPropertyOp52
 70
     0
102
RTVSPropertyOp53
 70
     0
102
RTVSPropertyOp54
 70
     0
102
RTVSPropertyOp55
 70
     1
102
RTVSPropertyOp56
 70
     0
102
RTVSPropertyOp57
 70
     0
102
RTVSPropertyOp58
 70
     0
102
RTVSPropertyOp59
 70
     0
102
RTVSPropertyOp60
 70
     0
102
RTVSPropertyOp61
 70
     0
102
RTVSPropertyOp62
 70
     0
  0
XRECORD
  5
107C2
102
{ACAD_REACTORS
330
107C1
102
}
330
107C1
100
AcDbXrecord
280
     1
102
RTVSPost2010Prop28
280
     0
102
RTVSPost2010PropOp28
 70
     1
102
RTVSPost2010Prop29
280
     1
102
RTVSPost2010PropOp29
 70
     1
102
RTVSPost2010Prop30
280
     1
102
RTVSPost2010PropOp30
 70
     1
102
RTVSPost2010Prop31
280
     0
102
RTVSPost2010PropOp31
 70
     1
102
RTVSPost2010Prop32
280
     0
102
RTVSPost2010PropOp32
 70
     1
102
RTVSPost2010Prop33
280
     0
102
RTVSPost2010PropOp33
 70
     1
102
RTVSPost2010Prop34
280
     0
102
RTVSPost2010PropOp34
 70
     1
102
RTVSPost2010Prop35
280
     0
102
RTVSPost2010PropOp35
 70
     1
102
RTVSPost2010Prop36
280
     0
102
RTVSPost2010PropOp36
 70
     1
102
RTVSPost2010Prop37
 90
       50
102
RTVSPost2010PropOp37
 70
     1
102
RTVSPost2010Prop38
140
0.0
102
RTVSPost2010PropOp38
 70
     1
102
RTVSPost2010Prop39
140
1.0
102
RTVSPost2010PropOp39
 70
     1
102
RTVSPost2010Prop40
 90
        0
102
RTVSPost2010PropOp40
 70
     1
102
RTVSPost2010Prop41ColorIndex
 90
       18
102
RTVSPost2010Prop41ColorRGB
 90
        0
102
RTVSPost2010PropOp41
 70
     1
102
RTVSPost2010Prop42
 90
       50
102
RTVSPost2010PropOp42
 70
     1
102
RTVSPost2010Prop43
 90
        3
102
RTVSPost2010PropOp43
 70
     1
102
RTVSPost2010Prop44ColorIndex
 90
        5
102
RTVSPost2010Prop44ColorRGB
 90
      255
102
RTVSPost2010PropOp44
 70
     1
102
RTVSPost2010Prop45
280
     0
102
RTVSPost2010PropOp45
 70
     1
102
RTVSPost2010Prop46
 90
       50
102
RTVSPost2010PropOp46
 70
     1
102
RTVSPost2010Prop47
 90
       50
102
RTVSPost2010PropOp47
 70
     1
102
RTVSPost2010Prop48
 90
       50
102
RTVSPost2010PropOp48
 70
     1
102
RTVSPost2010Prop49
280
     0
102
RTVSPost2010PropOp49
 70
     1
102
RTVSPost2010Prop50
 90
       50
102
RTVSPost2010PropOp50
 70
     1
102
RTVSPost2010Prop51ColorIndex
 90
      256
102
RTVSPost2010Prop51ColorRGB
 90
-16777216
102
RTVSPost2010PropOp51
 70
     0
102
RTVSPost2010Prop52
140
1.0
102
RTVSPost2010PropOp52
 70
     0
102
RTVSPost2010Prop53
 90
        2
102
RTVSPost2010PropOp53
 70
     1
102
RTVSPost2010Prop54
  1
strokes_ogs.tif
102
RTVSPost2010PropOp54
 70
     1
102
RTVSPost2010Prop55
280
     0
102
RTVSPost2010PropOp55
 70
     1
102
RTVSPost2010Prop56
140
1.0
102
RTVSPost2010PropOp56
 70
     1
102
RTVSPost2010Prop57
140
1.0
102
RTVSPost2010PropOp57
 70
     1
102
RTVSPropertyOp0
 70
     1
102
RTVSPropertyOp1
 70
     1
102
RTVSPropertyOp2
 70
     1
102
RTVSPropertyOp3
 70
     1
102
RTVSPropertyOp4
 70
     1
102
RTVSPropertyOp5
 70
     1
102
RTVSPropertyOp6
 70
     1
102
RTVSPropertyOp7
 70
     1
102
RTVSPropertyOp8
 70
     1
102
RTVSPropertyOp9
 70
     1
102
RTVSPropertyOp10
 70
     1
102
RTVSPropertyOp11
 70
     1
102
RTVSPropertyOp12
 70
     1
102
RTVSPropertyOp13
 70
     1
102
RTVSPropertyOp14
 70
     1
102
RTVSPropertyOp15
 70
     1
102
RTVSPropertyOp16
 70
     1
102
RTVSPropertyOp17
 70
     1
102
RTVSPropertyOp18
 70
     1
102
RTVSPropertyOp19
 70
     1
102
RTVSPropertyOp20
 70
     1
102
RTVSPropertyOp21
 70
     1
102
RTVSPropertyOp22
 70
     1
102
RTVSPropertyOp23
 70
     1
102
RTVSPropertyOp24
 70
     1
102
RTVSPropertyOp25
 70
     1
102
RTVSPropertyOp26
 70
     1
102
RTVSPropertyOp27
 70
     1
102
RTVSPropertyOp28
 70
     1
102
RTVSPropertyOp29
 70
     1
102
RTVSPropertyOp30
 70
     1
102
RTVSPropertyOp31
 70
     1
102
RTVSPropertyOp32
 70
     1
102
RTVSPropertyOp33
 70
     1
102
RTVSPropertyOp34
 70
     1
102
RTVSPropertyOp35
 70
     1
102
RTVSPropertyOp36
 70
     1
102
RTVSPropertyOp37
 70
     1
102
RTVSPropertyOp38
 70
     1
102
RTVSPropertyOp39
 70
     1
102
RTVSPropertyOp40
 70
     1
102
RTVSPropertyOp41
 70
     1
102
RTVSPropertyOp42
 70
     1
102
RTVSPropertyOp43
 70
     1
102
RTVSPropertyOp44
 70
     1
102
RTVSPropertyOp45
 70
     1
102
RTVSPropertyOp46
 70
     1
102
RTVSPropertyOp47
 70
     1
102
RTVSPropertyOp48
 70
     1
102
RTVSPropertyOp49
 70
     1
102
RTVSPropertyOp50
 70
     1
102
RTVSPropertyOp51
 70
     0
102
RTVSPropertyOp52
 70
     0
102
RTVSPropertyOp53
 70
     1
102
RTVSPropertyOp54
 70
     1
102
RTVSPropertyOp55
 70
     1
102
RTVSPropertyOp56
 70
     1
102
RTVSPropertyOp57
 70
     1
102
RTVSPropertyOp58
 70
     1
102
RTVSPropertyOp59
 70
     1
102
RTVSPropertyOp60
 70
     1
102
RTVSPropertyOp61
 70
     1
102
RTVSPropertyOp62
 70
     1
  0
XRECORD
  5
107D4
102
{ACAD_REACTORS
330
107D3
102
}
330
107D3
100
AcDbXrecord
280
     1
102
RTVSPost2010Prop28
280
     0
102
RTVSPost2010PropOp28
 70
     1
102
RTVSPost2010Prop29
280
     1
102
RTVSPost2010PropOp29
 70
     1
102
RTVSPost2010Prop30
280
     1
102
RTVSPost2010PropOp30
 70
     1
102
RTVSPost2010Prop31
280
     0
102
RTVSPost2010PropOp31
 70
     1
102
RTVSPost2010Prop32
280
     0
102
RTVSPost2010PropOp32
 70
     1
102
RTVSPost2010Prop33
280
     0
102
RTVSPost2010PropOp33
 70
     1
102
RTVSPost2010Prop34
280
     0
102
RTVSPost2010PropOp34
 70
     1
102
RTVSPost2010Prop35
280
     0
102
RTVSPost2010PropOp35
 70
     1
102
RTVSPost2010Prop36
280
     0
102
RTVSPost2010PropOp36
 70
     1
102
RTVSPost2010Prop37
 90
       50
102
RTVSPost2010PropOp37
 70
     0
102
RTVSPost2010Prop38
140
0.0
102
RTVSPost2010PropOp38
 70
     0
102
RTVSPost2010Prop39
140
1.0
102
RTVSPost2010PropOp39
 70
     0
102
RTVSPost2010Prop40
 90
        0
102
RTVSPost2010PropOp40
 70
     0
102
RTVSPost2010Prop41ColorIndex
 90
       18
102
RTVSPost2010Prop41ColorRGB
 90
        0
102
RTVSPost2010PropOp41
 70
     0
102
RTVSPost2010Prop42
 90
       50
102
RTVSPost2010PropOp42
 70
     0
102
RTVSPost2010Prop43
 90
        3
102
RTVSPost2010PropOp43
 70
     0
102
RTVSPost2010Prop44ColorIndex
 90
        5
102
RTVSPost2010Prop44ColorRGB
 90
      255
102
RTVSPost2010PropOp44
 70
     0
102
RTVSPost2010Prop45
280
     0
102
RTVSPost2010PropOp45
 70
     1
102
RTVSPost2010Prop46
 90
       50
102
RTVSPost2010PropOp46
 70
     0
102
RTVSPost2010Prop47
 90
       50
102
RTVSPost2010PropOp47
 70
     0
102
RTVSPost2010Prop48
 90
       50
102
RTVSPost2010PropOp48
 70
     0
102
RTVSPost2010Prop49
280
     0
102
RTVSPost2010PropOp49
 70
     1
102
RTVSPost2010Prop50
 90
       50
102
RTVSPost2010PropOp50
 70
     0
102
RTVSPost2010Prop51ColorIndex
 90
      256
102
RTVSPost2010Prop51ColorRGB
 90
-16777216
102
RTVSPost2010PropOp51
 70
     0
102
RTVSPost2010Prop52
140
1.0
102
RTVSPost2010PropOp52
 70
     0
102
RTVSPost2010Prop53
 90
        2
102
RTVSPost2010PropOp53
 70
     0
102
RTVSPost2010Prop54
  1
strokes_ogs.tif
102
RTVSPost2010PropOp54
 70
     0
102
RTVSPost2010Prop55
280
     0
102
RTVSPost2010PropOp55
 70
     1
102
RTVSPost2010Prop56
140
1.0
102
RTVSPost2010PropOp56
 70
     0
102
RTVSPost2010Prop57
140
1.0
102
RTVSPost2010PropOp57
 70
     0
102
RTVSPropertyOp0
 70
     0
102
RTVSPropertyOp1
 70
     0
102
RTVSPropertyOp2
 70
     0
102
RTVSPropertyOp3
 70
     0
102
RTVSPropertyOp4
 70
     0
102
RTVSPropertyOp5
 70
     0
102
RTVSPropertyOp6
 70
     0
102
RTVSPropertyOp7
 70
     0
102
RTVSPropertyOp8
 70
     0
102
RTVSPropertyOp9
 70
     0
102
RTVSPropertyOp10
 70
     0
102
RTVSPropertyOp11
 70
     0
102
RTVSPropertyOp12
 70
     0
102
RTVSPropertyOp13
 70
     0
102
RTVSPropertyOp14
 70
     2
102
RTVSPropertyOp15
 70
     0
102
RTVSPropertyOp16
 70
     0
102
RTVSPropertyOp17
 70
     0
102
RTVSPropertyOp18
 70
     0
102
RTVSPropertyOp19
 70
     0
102
RTVSPropertyOp20
 70
     0
102
RTVSPropertyOp21
 70
     0
102
RTVSPropertyOp22
 70
     0
102
RTVSPropertyOp23
 70
     0
102
RTVSPropertyOp24
 70
     0
102
RTVSPropertyOp25
 70
     0
102
RTVSPropertyOp26
 70
     0
102
RTVSPropertyOp27
 70
     0
102
RTVSPropertyOp28
 70
     1
102
RTVSPropertyOp29
 70
     1
102
RTVSPropertyOp30
 70
     1
102
RTVSPropertyOp31
 70
     1
102
RTVSPropertyOp32
 70
     1
102
RTVSPropertyOp33
 70
     1
102
RTVSPropertyOp34
 70
     1
102
RTVSPropertyOp35
 70
     1
102
RTVSPropertyOp36
 70
     1
102
RTVSPropertyOp37
 70
     0
102
RTVSPropertyOp38
 70
     0
102
RTVSPropertyOp39
 70
     0
102
RTVSPropertyOp40
 70
     0
102
RTVSPropertyOp41
 70
     0
102
RTVSPropertyOp42
 70
     0
102
RTVSPropertyOp43
 70
     0
102
RTVSPropertyOp44
 70
     0
102
RTVSPropertyOp45
 70
     1
102
RTVSPropertyOp46
 70
     0
102
RTVSPropertyOp47
 70
     0
102
RTVSPropertyOp48
 70
     0
102
RTVSPropertyOp49
 70
     1
102
RTVSPropertyOp50
 70
     0
102
RTVSPropertyOp51
 70
     0
102
RTVSPropertyOp52
 70
     0
102
RTVSPropertyOp53
 70
     0
102
RTVSPropertyOp54
 70
     0
102
RTVSPropertyOp55
 70
     1
102
RTVSPropertyOp56
 70
     0
102
RTVSPropertyOp57
 70
     0
102
RTVSPropertyOp58
 70
     0
102
RTVSPropertyOp59
 70
     0
102
RTVSPropertyOp60
 70
     0
102
RTVSPropertyOp61
 70
     0
102
RTVSPropertyOp62
 70
     0
  0
XRECORD
  5
107BA
102
{ACAD_REACTORS
330
107B9
102
}
330
107B9
100
AcDbXrecord
280
     1
102
RTVSPost2010Prop28
280
     0
102
RTVSPost2010PropOp28
 70
     1
102
RTVSPost2010Prop29
280
     1
102
RTVSPost2010PropOp29
 70
     1
102
RTVSPost2010Prop30
280
     1
102
RTVSPost2010PropOp30
 70
     1
102
RTVSPost2010Prop31
280
     0
102
RTVSPost2010PropOp31
 70
     1
102
RTVSPost2010Prop32
280
     0
102
RTVSPost2010PropOp32
 70
     1
102
RTVSPost2010Prop33
280
     0
102
RTVSPost2010PropOp33
 70
     1
102
RTVSPost2010Prop34
280
     0
102
RTVSPost2010PropOp34
 70
     1
102
RTVSPost2010Prop35
280
     0
102
RTVSPost2010PropOp35
 70
     1
102
RTVSPost2010Prop36
280
     0
102
RTVSPost2010PropOp36
 70
     1
102
RTVSPost2010Prop37
 90
       50
102
RTVSPost2010PropOp37
 70
     1
102
RTVSPost2010Prop38
140
0.0
102
RTVSPost2010PropOp38
 70
     1
102
RTVSPost2010Prop39
140
1.0
102
RTVSPost2010PropOp39
 70
     1
102
RTVSPost2010Prop40
 90
        0
102
RTVSPost2010PropOp40
 70
     1
102
RTVSPost2010Prop41ColorIndex
 90
       18
102
RTVSPost2010Prop41ColorRGB
 90
        0
102
RTVSPost2010PropOp41
 70
     1
102
RTVSPost2010Prop42
 90
       50
102
RTVSPost2010PropOp42
 70
     1
102
RTVSPost2010Prop43
 90
        3
102
RTVSPost2010PropOp43
 70
     1
102
RTVSPost2010Prop44ColorIndex
 90
        5
102
RTVSPost2010Prop44ColorRGB
 90
      255
102
RTVSPost2010PropOp44
 70
     1
102
RTVSPost2010Prop45
280
     0
102
RTVSPost2010PropOp45
 70
     1
102
RTVSPost2010Prop46
 90
       50
102
RTVSPost2010PropOp46
 70
     1
102
RTVSPost2010Prop47
 90
       50
102
RTVSPost2010PropOp47
 70
     1
102
RTVSPost2010Prop48
 90
       50
102
RTVSPost2010PropOp48
 70
     1
102
RTVSPost2010Prop49
280
     0
102
RTVSPost2010PropOp49
 70
     1
102
RTVSPost2010Prop50
 90
       50
102
RTVSPost2010PropOp50
 70
     1
102
RTVSPost2010Prop51ColorIndex
 90
      256
102
RTVSPost2010Prop51ColorRGB
 90
-16777216
102
RTVSPost2010PropOp51
 70
     0
102
RTVSPost2010Prop52
140
1.0
102
RTVSPost2010PropOp52
 70
     0
102
RTVSPost2010Prop53
 90
        2
102
RTVSPost2010PropOp53
 70
     1
102
RTVSPost2010Prop54
  1
strokes_ogs.tif
102
RTVSPost2010PropOp54
 70
     1
102
RTVSPost2010Prop55
280
     0
102
RTVSPost2010PropOp55
 70
     1
102
RTVSPost2010Prop56
140
1.0
102
RTVSPost2010PropOp56
 70
     1
102
RTVSPost2010Prop57
140
1.0
102
RTVSPost2010PropOp57
 70
     1
102
RTVSPropertyOp0
 70
     1
102
RTVSPropertyOp1
 70
     1
102
RTVSPropertyOp2
 70
     1
102
RTVSPropertyOp3
 70
     1
102
RTVSPropertyOp4
 70
     1
102
RTVSPropertyOp5
 70
     1
102
RTVSPropertyOp6
 70
     1
102
RTVSPropertyOp7
 70
     1
102
RTVSPropertyOp8
 70
     1
102
RTVSPropertyOp9
 70
     1
102
RTVSPropertyOp10
 70
     1
102
RTVSPropertyOp11
 70
     1
102
RTVSPropertyOp12
 70
     1
102
RTVSPropertyOp13
 70
     1
102
RTVSPropertyOp14
 70
     1
102
RTVSPropertyOp15
 70
     1
102
RTVSPropertyOp16
 70
     1
102
RTVSPropertyOp17
 70
     1
102
RTVSPropertyOp18
 70
     1
102
RTVSPropertyOp19
 70
     1
102
RTVSPropertyOp20
 70
     1
102
RTVSPropertyOp21
 70
     1
102
RTVSPropertyOp22
 70
     1
102
RTVSPropertyOp23
 70
     1
102
RTVSPropertyOp24
 70
     1
102
RTVSPropertyOp25
 70
     1
102
RTVSPropertyOp26
 70
     1
102
RTVSPropertyOp27
 70
     1
102
RTVSPropertyOp28
 70
     1
102
RTVSPropertyOp29
 70
     1
102
RTVSPropertyOp30
 70
     1
102
RTVSPropertyOp31
 70
     1
102
RTVSPropertyOp32
 70
     1
102
RTVSPropertyOp33
 70
     1
102
RTVSPropertyOp34
 70
     1
102
RTVSPropertyOp35
 70
     1
102
RTVSPropertyOp36
 70
     1
102
RTVSPropertyOp37
 70
     1
102
RTVSPropertyOp38
 70
     1
102
RTVSPropertyOp39
 70
     1
102
RTVSPropertyOp40
 70
     1
102
RTVSPropertyOp41
 70
     1
102
RTVSPropertyOp42
 70
     1
102
RTVSPropertyOp43
 70
     1
102
RTVSPropertyOp44
 70
     1
102
RTVSPropertyOp45
 70
     1
102
RTVSPropertyOp46
 70
     1
102
RTVSPropertyOp47
 70
     1
102
RTVSPropertyOp48
 70
     1
102
RTVSPropertyOp49
 70
     1
102
RTVSPropertyOp50
 70
     1
102
RTVSPropertyOp51
 70
     0
102
RTVSPropertyOp52
 70
     0
102
RTVSPropertyOp53
 70
     1
102
RTVSPropertyOp54
 70
     1
102
RTVSPropertyOp55
 70
     1
102
RTVSPropertyOp56
 70
     1
102
RTVSPropertyOp57
 70
     1
102
RTVSPropertyOp58
 70
     1
102
RTVSPropertyOp59
 70
     1
102
RTVSPropertyOp60
 70
     1
102
RTVSPropertyOp61
 70
     1
102
RTVSPropertyOp62
 70
     1
  0
XRECORD
  5
107D0
102
{ACAD_REACTORS
330
107CF
102
}
330
107CF
100
AcDbXrecord
280
     1
102
RTVSPost2010Prop28
280
     0
102
RTVSPost2010PropOp28
 70
     1
102
RTVSPost2010Prop29
280
     1
102
RTVSPost2010PropOp29
 70
     1
102
RTVSPost2010Prop30
280
     1
102
RTVSPost2010PropOp30
 70
     1
102
RTVSPost2010Prop31
280
     0
102
RTVSPost2010PropOp31
 70
     1
102
RTVSPost2010Prop32
280
     0
102
RTVSPost2010PropOp32
 70
     1
102
RTVSPost2010Prop33
280
     0
102
RTVSPost2010PropOp33
 70
     1
102
RTVSPost2010Prop34
280
     0
102
RTVSPost2010PropOp34
 70
     1
102
RTVSPost2010Prop35
280
     0
102
RTVSPost2010PropOp35
 70
     1
102
RTVSPost2010Prop36
280
     0
102
RTVSPost2010PropOp36
 70
     1
102
RTVSPost2010Prop37
 90
       50
102
RTVSPost2010PropOp37
 70
     1
102
RTVSPost2010Prop38
140
0.0
102
RTVSPost2010PropOp38
 70
     1
102
RTVSPost2010Prop39
140
1.0
102
RTVSPost2010PropOp39
 70
     1
102
RTVSPost2010Prop40
 90
        0
102
RTVSPost2010PropOp40
 70
     1
102
RTVSPost2010Prop41ColorIndex
 90
       18
102
RTVSPost2010Prop41ColorRGB
 90
        0
102
RTVSPost2010PropOp41
 70
     1
102
RTVSPost2010Prop42
 90
       50
102
RTVSPost2010PropOp42
 70
     1
102
RTVSPost2010Prop43
 90
        3
102
RTVSPost2010PropOp43
 70
     1
102
RTVSPost2010Prop44ColorIndex
 90
        5
102
RTVSPost2010Prop44ColorRGB
 90
      255
102
RTVSPost2010PropOp44
 70
     1
102
RTVSPost2010Prop45
280
     0
102
RTVSPost2010PropOp45
 70
     1
102
RTVSPost2010Prop46
 90
       50
102
RTVSPost2010PropOp46
 70
     1
102
RTVSPost2010Prop47
 90
       50
102
RTVSPost2010PropOp47
 70
     1
102
RTVSPost2010Prop48
 90
       50
102
RTVSPost2010PropOp48
 70
     1
102
RTVSPost2010Prop49
280
     0
102
RTVSPost2010PropOp49
 70
     1
102
RTVSPost2010Prop50
 90
       50
102
RTVSPost2010PropOp50
 70
     1
102
RTVSPost2010Prop51ColorIndex
 90
      256
102
RTVSPost2010Prop51ColorRGB
 90
-16777216
102
RTVSPost2010PropOp51
 70
     0
102
RTVSPost2010Prop52
140
1.0
102
RTVSPost2010PropOp52
 70
     0
102
RTVSPost2010Prop53
 90
        2
102
RTVSPost2010PropOp53
 70
     1
102
RTVSPost2010Prop54
  1
strokes_ogs.tif
102
RTVSPost2010PropOp54
 70
     1
102
RTVSPost2010Prop55
280
     0
102
RTVSPost2010PropOp55
 70
     1
102
RTVSPost2010Prop56
140
1.0
102
RTVSPost2010PropOp56
 70
     1
102
RTVSPost2010Prop57
140
1.0
102
RTVSPost2010PropOp57
 70
     1
102
RTVSPropertyOp0
 70
     1
102
RTVSPropertyOp1
 70
     1
102
RTVSPropertyOp2
 70
     1
102
RTVSPropertyOp3
 70
     1
102
RTVSPropertyOp4
 70
     1
102
RTVSPropertyOp5
 70
     1
102
RTVSPropertyOp6
 70
     1
102
RTVSPropertyOp7
 70
     1
102
RTVSPropertyOp8
 70
     1
102
RTVSPropertyOp9
 70
     1
102
RTVSPropertyOp10
 70
     1
102
RTVSPropertyOp11
 70
     1
102
RTVSPropertyOp12
 70
     1
102
RTVSPropertyOp13
 70
     1
102
RTVSPropertyOp14
 70
     1
102
RTVSPropertyOp15
 70
     1
102
RTVSPropertyOp16
 70
     1
102
RTVSPropertyOp17
 70
     1
102
RTVSPropertyOp18
 70
     1
102
RTVSPropertyOp19
 70
     1
102
RTVSPropertyOp20
 70
     1
102
RTVSPropertyOp21
 70
     1
102
RTVSPropertyOp22
 70
     1
102
RTVSPropertyOp23
 70
     1
102
RTVSPropertyOp24
 70
     1
102
RTVSPropertyOp25
 70
     1
102
RTVSPropertyOp26
 70
     1
102
RTVSPropertyOp27
 70
     1
102
RTVSPropertyOp28
 70
     1
102
RTVSPropertyOp29
 70
     1
102
RTVSPropertyOp30
 70
     1
102
RTVSPropertyOp31
 70
     1
102
RTVSPropertyOp32
 70
     1
102
RTVSPropertyOp33
 70
     1
102
RTVSPropertyOp34
 70
     1
102
RTVSPropertyOp35
 70
     1
102
RTVSPropertyOp36
 70
     1
102
RTVSPropertyOp37
 70
     1
102
RTVSPropertyOp38
 70
     1
102
RTVSPropertyOp39
 70
     1
102
RTVSPropertyOp40
 70
     1
102
RTVSPropertyOp41
 70
     1
102
RTVSPropertyOp42
 70
     1
102
RTVSPropertyOp43
 70
     1
102
RTVSPropertyOp44
 70
     1
102
RTVSPropertyOp45
 70
     1
102
RTVSPropertyOp46
 70
     1
102
RTVSPropertyOp47
 70
     1
102
RTVSPropertyOp48
 70
     1
102
RTVSPropertyOp49
 70
     1
102
RTVSPropertyOp50
 70
     1
102
RTVSPropertyOp51
 70
     0
102
RTVSPropertyOp52
 70
     0
102
RTVSPropertyOp53
 70
     1
102
RTVSPropertyOp54
 70
     1
102
RTVSPropertyOp55
 70
     1
102
RTVSPropertyOp56
 70
     1
102
RTVSPropertyOp57
 70
     1
102
RTVSPropertyOp58
 70
     1
102
RTVSPropertyOp59
 70
     1
102
RTVSPropertyOp60
 70
     1
102
RTVSPropertyOp61
 70
     1
102
RTVSPropertyOp62
 70
     1
  0
XRECORD
  5
107CE
102
{ACAD_REACTORS
330
107CD
102
}
330
107CD
100
AcDbXrecord
280
     1
102
RTVSPost2010Prop28
280
     0
102
RTVSPost2010PropOp28
 70
     1
102
RTVSPost2010Prop29
280
     1
102
RTVSPost2010PropOp29
 70
     1
102
RTVSPost2010Prop30
280
     1
102
RTVSPost2010PropOp30
 70
     1
102
RTVSPost2010Prop31
280
     0
102
RTVSPost2010PropOp31
 70
     1
102
RTVSPost2010Prop32
280
     0
102
RTVSPost2010PropOp32
 70
     1
102
RTVSPost2010Prop33
280
     0
102
RTVSPost2010PropOp33
 70
     1
102
RTVSPost2010Prop34
280
     0
102
RTVSPost2010PropOp34
 70
     1
102
RTVSPost2010Prop35
280
     0
102
RTVSPost2010PropOp35
 70
     1
102
RTVSPost2010Prop36
280
     0
102
RTVSPost2010PropOp36
 70
     1
102
RTVSPost2010Prop37
 90
       50
102
RTVSPost2010PropOp37
 70
     1
102
RTVSPost2010Prop38
140
0.0
102
RTVSPost2010PropOp38
 70
     1
102
RTVSPost2010Prop39
140
1.0
102
RTVSPost2010PropOp39
 70
     1
102
RTVSPost2010Prop40
 90
        0
102
RTVSPost2010PropOp40
 70
     1
102
RTVSPost2010Prop41ColorIndex
 90
       18
102
RTVSPost2010Prop41ColorRGB
 90
        0
102
RTVSPost2010PropOp41
 70
     1
102
RTVSPost2010Prop42
 90
       50
102
RTVSPost2010PropOp42
 70
     1
102
RTVSPost2010Prop43
 90
        3
102
RTVSPost2010PropOp43
 70
     1
102
RTVSPost2010Prop44ColorIndex
 90
        5
102
RTVSPost2010Prop44ColorRGB
 90
      255
102
RTVSPost2010PropOp44
 70
     1
102
RTVSPost2010Prop45
280
     0
102
RTVSPost2010PropOp45
 70
     1
102
RTVSPost2010Prop46
 90
       50
102
RTVSPost2010PropOp46
 70
     1
102
RTVSPost2010Prop47
 90
       50
102
RTVSPost2010PropOp47
 70
     1
102
RTVSPost2010Prop48
 90
       50
102
RTVSPost2010PropOp48
 70
     1
102
RTVSPost2010Prop49
280
     0
102
RTVSPost2010PropOp49
 70
     1
102
RTVSPost2010Prop50
 90
       50
102
RTVSPost2010PropOp50
 70
     1
102
RTVSPost2010Prop51ColorIndex
 90
      256
102
RTVSPost2010Prop51ColorRGB
 90
-16777216
102
RTVSPost2010PropOp51
 70
     0
102
RTVSPost2010Prop52
140
1.0
102
RTVSPost2010PropOp52
 70
     0
102
RTVSPost2010Prop53
 90
        2
102
RTVSPost2010PropOp53
 70
     1
102
RTVSPost2010Prop54
  1
strokes_ogs.tif
102
RTVSPost2010PropOp54
 70
     1
102
RTVSPost2010Prop55
280
     0
102
RTVSPost2010PropOp55
 70
     1
102
RTVSPost2010Prop56
140
1.0
102
RTVSPost2010PropOp56
 70
     1
102
RTVSPost2010Prop57
140
1.0
102
RTVSPost2010PropOp57
 70
     1
102
RTVSPropertyOp0
 70
     1
102
RTVSPropertyOp1
 70
     1
102
RTVSPropertyOp2
 70
     1
102
RTVSPropertyOp3
 70
     1
102
RTVSPropertyOp4
 70
     1
102
RTVSPropertyOp5
 70
     1
102
RTVSPropertyOp6
 70
     1
102
RTVSPropertyOp7
 70
     1
102
RTVSPropertyOp8
 70
     1
102
RTVSPropertyOp9
 70
     1
102
RTVSPropertyOp10
 70
     1
102
RTVSPropertyOp11
 70
     1
102
RTVSPropertyOp12
 70
     1
102
RTVSPropertyOp13
 70
     1
102
RTVSPropertyOp14
 70
     1
102
RTVSPropertyOp15
 70
     1
102
RTVSPropertyOp16
 70
     1
102
RTVSPropertyOp17
 70
     1
102
RTVSPropertyOp18
 70
     1
102
RTVSPropertyOp19
 70
     1
102
RTVSPropertyOp20
 70
     1
102
RTVSPropertyOp21
 70
     1
102
RTVSPropertyOp22
 70
     1
102
RTVSPropertyOp23
 70
     1
102
RTVSPropertyOp24
 70
     1
102
RTVSPropertyOp25
 70
     1
102
RTVSPropertyOp26
 70
     1
102
RTVSPropertyOp27
 70
     1
102
RTVSPropertyOp28
 70
     1
102
RTVSPropertyOp29
 70
     1
102
RTVSPropertyOp30
 70
     1
102
RTVSPropertyOp31
 70
     1
102
RTVSPropertyOp32
 70
     1
102
RTVSPropertyOp33
 70
     1
102
RTVSPropertyOp34
 70
     1
102
RTVSPropertyOp35
 70
     1
102
RTVSPropertyOp36
 70
     1
102
RTVSPropertyOp37
 70
     1
102
RTVSPropertyOp38
 70
     1
102
RTVSPropertyOp39
 70
     1
102
RTVSPropertyOp40
 70
     1
102
RTVSPropertyOp41
 70
     1
102
RTVSPropertyOp42
 70
     1
102
RTVSPropertyOp43
 70
     1
102
RTVSPropertyOp44
 70
     1
102
RTVSPropertyOp45
 70
     1
102
RTVSPropertyOp46
 70
     1
102
RTVSPropertyOp47
 70
     1
102
RTVSPropertyOp48
 70
     1
102
RTVSPropertyOp49
 70
     1
102
RTVSPropertyOp50
 70
     1
102
RTVSPropertyOp51
 70
     0
102
RTVSPropertyOp52
 70
     0
102
RTVSPropertyOp53
 70
     1
102
RTVSPropertyOp54
 70
     1
102
RTVSPropertyOp55
 70
     1
102
RTVSPropertyOp56
 70
     1
102
RTVSPropertyOp57
 70
     1
102
RTVSPropertyOp58
 70
     1
102
RTVSPropertyOp59
 70
     1
102
RTVSPropertyOp60
 70
     1
102
RTVSPropertyOp61
 70
     1
102
RTVSPropertyOp62
 70
     1
  0
XRECORD
  5
107C8
102
{ACAD_REACTORS
330
107C7
102
}
330
107C7
100
AcDbXrecord
280
     1
102
RTVSPost2010Prop28
280
     0
102
RTVSPost2010PropOp28
 70
     1
102
RTVSPost2010Prop29
280
     1
102
RTVSPost2010PropOp29
 70
     1
102
RTVSPost2010Prop30
280
     1
102
RTVSPost2010PropOp30
 70
     1
102
RTVSPost2010Prop31
280
     0
102
RTVSPost2010PropOp31
 70
     1
102
RTVSPost2010Prop32
280
     0
102
RTVSPost2010PropOp32
 70
     1
102
RTVSPost2010Prop33
280
     0
102
RTVSPost2010PropOp33
 70
     1
102
RTVSPost2010Prop34
280
     0
102
RTVSPost2010PropOp34
 70
     1
102
RTVSPost2010Prop35
280
     0
102
RTVSPost2010PropOp35
 70
     1
102
RTVSPost2010Prop36
280
     0
102
RTVSPost2010PropOp36
 70
     1
102
RTVSPost2010Prop37
 90
       50
102
RTVSPost2010PropOp37
 70
     1
102
RTVSPost2010Prop38
140
0.0
102
RTVSPost2010PropOp38
 70
     1
102
RTVSPost2010Prop39
140
1.0
102
RTVSPost2010PropOp39
 70
     1
102
RTVSPost2010Prop40
 90
        0
102
RTVSPost2010PropOp40
 70
     1
102
RTVSPost2010Prop41ColorIndex
 90
       18
102
RTVSPost2010Prop41ColorRGB
 90
        0
102
RTVSPost2010PropOp41
 70
     1
102
RTVSPost2010Prop42
 90
       50
102
RTVSPost2010PropOp42
 70
     1
102
RTVSPost2010Prop43
 90
        3
102
RTVSPost2010PropOp43
 70
     1
102
RTVSPost2010Prop44ColorIndex
 90
        5
102
RTVSPost2010Prop44ColorRGB
 90
      255
102
RTVSPost2010PropOp44
 70
     1
102
RTVSPost2010Prop45
280
     0
102
RTVSPost2010PropOp45
 70
     1
102
RTVSPost2010Prop46
 90
       50
102
RTVSPost2010PropOp46
 70
     1
102
RTVSPost2010Prop47
 90
       50
102
RTVSPost2010PropOp47
 70
     1
102
RTVSPost2010Prop48
 90
       50
102
RTVSPost2010PropOp48
 70
     1
102
RTVSPost2010Prop49
280
     0
102
RTVSPost2010PropOp49
 70
     1
102
RTVSPost2010Prop50
 90
       50
102
RTVSPost2010PropOp50
 70
     1
102
RTVSPost2010Prop51ColorIndex
 90
      256
102
RTVSPost2010Prop51ColorRGB
 90
-16777216
102
RTVSPost2010PropOp51
 70
     0
102
RTVSPost2010Prop52
140
1.0
102
RTVSPost2010PropOp52
 70
     0
102
RTVSPost2010Prop53
 90
        2
102
RTVSPost2010PropOp53
 70
     1
102
RTVSPost2010Prop54
  1
strokes_ogs.tif
102
RTVSPost2010PropOp54
 70
     1
102
RTVSPost2010Prop55
280
     0
102
RTVSPost2010PropOp55
 70
     1
102
RTVSPost2010Prop56
140
1.0
102
RTVSPost2010PropOp56
 70
     1
102
RTVSPost2010Prop57
140
1.0
102
RTVSPost2010PropOp57
 70
     1
102
RTVSPropertyOp0
 70
     1
102
RTVSPropertyOp1
 70
     1
102
RTVSPropertyOp2
 70
     1
102
RTVSPropertyOp3
 70
     1
102
RTVSPropertyOp4
 70
     1
102
RTVSPropertyOp5
 70
     1
102
RTVSPropertyOp6
 70
     1
102
RTVSPropertyOp7
 70
     1
102
RTVSPropertyOp8
 70
     1
102
RTVSPropertyOp9
 70
     1
102
RTVSPropertyOp10
 70
     1
102
RTVSPropertyOp11
 70
     1
102
RTVSPropertyOp12
 70
     1
102
RTVSPropertyOp13
 70
     1
102
RTVSPropertyOp14
 70
     1
102
RTVSPropertyOp15
 70
     1
102
RTVSPropertyOp16
 70
     1
102
RTVSPropertyOp17
 70
     1
102
RTVSPropertyOp18
 70
     1
102
RTVSPropertyOp19
 70
     1
102
RTVSPropertyOp20
 70
     1
102
RTVSPropertyOp21
 70
     1
102
RTVSPropertyOp22
 70
     1
102
RTVSPropertyOp23
 70
     1
102
RTVSPropertyOp24
 70
     1
102
RTVSPropertyOp25
 70
     1
102
RTVSPropertyOp26
 70
     1
102
RTVSPropertyOp27
 70
     1
102
RTVSPropertyOp28
 70
     1
102
RTVSPropertyOp29
 70
     1
102
RTVSPropertyOp30
 70
     1
102
RTVSPropertyOp31
 70
     1
102
RTVSPropertyOp32
 70
     1
102
RTVSPropertyOp33
 70
     1
102
RTVSPropertyOp34
 70
     1
102
RTVSPropertyOp35
 70
     1
102
RTVSPropertyOp36
 70
     1
102
RTVSPropertyOp37
 70
     1
102
RTVSPropertyOp38
 70
     1
102
RTVSPropertyOp39
 70
     1
102
RTVSPropertyOp40
 70
     1
102
RTVSPropertyOp41
 70
     1
102
RTVSPropertyOp42
 70
     1
102
RTVSPropertyOp43
 70
     1
102
RTVSPropertyOp44
 70
     1
102
RTVSPropertyOp45
 70
     1
102
RTVSPropertyOp46
 70
     1
102
RTVSPropertyOp47
 70
     1
102
RTVSPropertyOp48
 70
     1
102
RTVSPropertyOp49
 70
     1
102
RTVSPropertyOp50
 70
     1
102
RTVSPropertyOp51
 70
     0
102
RTVSPropertyOp52
 70
     0
102
RTVSPropertyOp53
 70
     1
102
RTVSPropertyOp54
 70
     1
102
RTVSPropertyOp55
 70
     1
102
RTVSPropertyOp56
 70
     1
102
RTVSPropertyOp57
 70
     1
102
RTVSPropertyOp58
 70
     1
102
RTVSPropertyOp59
 70
     1
102
RTVSPropertyOp60
 70
     1
102
RTVSPropertyOp61
 70
     1
102
RTVSPropertyOp62
 70
     1
  0
XRECORD
  5
107CA
102
{ACAD_REACTORS
330
107C9
102
}
330
107C9
100
AcDbXrecord
280
     1
102
RTVSPost2010Prop28
280
     0
102
RTVSPost2010PropOp28
 70
     1
102
RTVSPost2010Prop29
280
     1
102
RTVSPost2010PropOp29
 70
     1
102
RTVSPost2010Prop30
280
     1
102
RTVSPost2010PropOp30
 70
     1
102
RTVSPost2010Prop31
280
     0
102
RTVSPost2010PropOp31
 70
     1
102
RTVSPost2010Prop32
280
     0
102
RTVSPost2010PropOp32
 70
     1
102
RTVSPost2010Prop33
280
     0
102
RTVSPost2010PropOp33
 70
     1
102
RTVSPost2010Prop34
280
     0
102
RTVSPost2010PropOp34
 70
     1
102
RTVSPost2010Prop35
280
     0
102
RTVSPost2010PropOp35
 70
     1
102
RTVSPost2010Prop36
280
     0
102
RTVSPost2010PropOp36
 70
     1
102
RTVSPost2010Prop37
 90
       50
102
RTVSPost2010PropOp37
 70
     1
102
RTVSPost2010Prop38
140
0.0
102
RTVSPost2010PropOp38
 70
     1
102
RTVSPost2010Prop39
140
1.0
102
RTVSPost2010PropOp39
 70
     1
102
RTVSPost2010Prop40
 90
        0
102
RTVSPost2010PropOp40
 70
     1
102
RTVSPost2010Prop41ColorIndex
 90
       18
102
RTVSPost2010Prop41ColorRGB
 90
        0
102
RTVSPost2010PropOp41
 70
     1
102
RTVSPost2010Prop42
 90
       50
102
RTVSPost2010PropOp42
 70
     1
102
RTVSPost2010Prop43
 90
        3
102
RTVSPost2010PropOp43
 70
     1
102
RTVSPost2010Prop44ColorIndex
 90
        5
102
RTVSPost2010Prop44ColorRGB
 90
      255
102
RTVSPost2010PropOp44
 70
     1
102
RTVSPost2010Prop45
280
     0
102
RTVSPost2010PropOp45
 70
     1
102
RTVSPost2010Prop46
 90
       50
102
RTVSPost2010PropOp46
 70
     1
102
RTVSPost2010Prop47
 90
       50
102
RTVSPost2010PropOp47
 70
     1
102
RTVSPost2010Prop48
 90
       50
102
RTVSPost2010PropOp48
 70
     1
102
RTVSPost2010Prop49
280
     0
102
RTVSPost2010PropOp49
 70
     1
102
RTVSPost2010Prop50
 90
       50
102
RTVSPost2010PropOp50
 70
     1
102
RTVSPost2010Prop51ColorIndex
 90
      256
102
RTVSPost2010Prop51ColorRGB
 90
-16777216
102
RTVSPost2010PropOp51
 70
     0
102
RTVSPost2010Prop52
140
1.0
102
RTVSPost2010PropOp52
 70
     0
102
RTVSPost2010Prop53
 90
        2
102
RTVSPost2010PropOp53
 70
     1
102
RTVSPost2010Prop54
  1
strokes_ogs.tif
102
RTVSPost2010PropOp54
 70
     1
102
RTVSPost2010Prop55
280
     0
102
RTVSPost2010PropOp55
 70
     1
102
RTVSPost2010Prop56
140
1.0
102
RTVSPost2010PropOp56
 70
     1
102
RTVSPost2010Prop57
140
1.0
102
RTVSPost2010PropOp57
 70
     1
102
RTVSPropertyOp0
 70
     1
102
RTVSPropertyOp1
 70
     1
102
RTVSPropertyOp2
 70
     1
102
RTVSPropertyOp3
 70
     1
102
RTVSPropertyOp4
 70
     1
102
RTVSPropertyOp5
 70
     1
102
RTVSPropertyOp6
 70
     1
102
RTVSPropertyOp7
 70
     1
102
RTVSPropertyOp8
 70
     1
102
RTVSPropertyOp9
 70
     1
102
RTVSPropertyOp10
 70
     1
102
RTVSPropertyOp11
 70
     1
102
RTVSPropertyOp12
 70
     1
102
RTVSPropertyOp13
 70
     1
102
RTVSPropertyOp14
 70
     1
102
RTVSPropertyOp15
 70
     1
102
RTVSPropertyOp16
 70
     1
102
RTVSPropertyOp17
 70
     1
102
RTVSPropertyOp18
 70
     1
102
RTVSPropertyOp19
 70
     1
102
RTVSPropertyOp20
 70
     1
102
RTVSPropertyOp21
 70
     1
102
RTVSPropertyOp22
 70
     1
102
RTVSPropertyOp23
 70
     1
102
RTVSPropertyOp24
 70
     1
102
RTVSPropertyOp25
 70
     1
102
RTVSPropertyOp26
 70
     1
102
RTVSPropertyOp27
 70
     1
102
RTVSPropertyOp28
 70
     1
102
RTVSPropertyOp29
 70
     1
102
RTVSPropertyOp30
 70
     1
102
RTVSPropertyOp31
 70
     1
102
RTVSPropertyOp32
 70
     1
102
RTVSPropertyOp33
 70
     1
102
RTVSPropertyOp34
 70
     1
102
RTVSPropertyOp35
 70
     1
102
RTVSPropertyOp36
 70
     1
102
RTVSPropertyOp37
 70
     1
102
RTVSPropertyOp38
 70
     1
102
RTVSPropertyOp39
 70
     1
102
RTVSPropertyOp40
 70
     1
102
RTVSPropertyOp41
 70
     1
102
RTVSPropertyOp42
 70
     1
102
RTVSPropertyOp43
 70
     1
102
RTVSPropertyOp44
 70
     1
102
RTVSPropertyOp45
 70
     1
102
RTVSPropertyOp46
 70
     1
102
RTVSPropertyOp47
 70
     1
102
RTVSPropertyOp48
 70
     1
102
RTVSPropertyOp49
 70
     1
102
RTVSPropertyOp50
 70
     1
102
RTVSPropertyOp51
 70
     0
102
RTVSPropertyOp52
 70
     0
102
RTVSPropertyOp53
 70
     1
102
RTVSPropertyOp54
 70
     1
102
RTVSPropertyOp55
 70
     1
102
RTVSPropertyOp56
 70
     1
102
RTVSPropertyOp57
 70
     1
102
RTVSPropertyOp58
 70
     1
102
RTVSPropertyOp59
 70
     1
102
RTVSPropertyOp60
 70
     1
102
RTVSPropertyOp61
 70
     1
102
RTVSPropertyOp62
 70
     1
  0
XRECORD
  5
107C0
102
{ACAD_REACTORS
330
107BF
102
}
330
107BF
100
AcDbXrecord
280
     1
102
RTVSPost2010Prop28
280
     0
102
RTVSPost2010PropOp28
 70
     1
102
RTVSPost2010Prop29
280
     1
102
RTVSPost2010PropOp29
 70
     1
102
RTVSPost2010Prop30
280
     1
102
RTVSPost2010PropOp30
 70
     1
102
RTVSPost2010Prop31
280
     0
102
RTVSPost2010PropOp31
 70
     1
102
RTVSPost2010Prop32
280
     0
102
RTVSPost2010PropOp32
 70
     1
102
RTVSPost2010Prop33
280
     0
102
RTVSPost2010PropOp33
 70
     1
102
RTVSPost2010Prop34
280
     0
102
RTVSPost2010PropOp34
 70
     1
102
RTVSPost2010Prop35
280
     0
102
RTVSPost2010PropOp35
 70
     1
102
RTVSPost2010Prop36
280
     0
102
RTVSPost2010PropOp36
 70
     1
102
RTVSPost2010Prop37
 90
       50
102
RTVSPost2010PropOp37
 70
     1
102
RTVSPost2010Prop38
140
0.0
102
RTVSPost2010PropOp38
 70
     1
102
RTVSPost2010Prop39
140
1.0
102
RTVSPost2010PropOp39
 70
     1
102
RTVSPost2010Prop40
 90
        0
102
RTVSPost2010PropOp40
 70
     1
102
RTVSPost2010Prop41ColorIndex
 90
       18
102
RTVSPost2010Prop41ColorRGB
 90
        0
102
RTVSPost2010PropOp41
 70
     1
102
RTVSPost2010Prop42
 90
       50
102
RTVSPost2010PropOp42
 70
     1
102
RTVSPost2010Prop43
 90
        3
102
RTVSPost2010PropOp43
 70
     1
102
RTVSPost2010Prop44ColorIndex
 90
        5
102
RTVSPost2010Prop44ColorRGB
 90
      255
102
RTVSPost2010PropOp44
 70
     1
102
RTVSPost2010Prop45
280
     0
102
RTVSPost2010PropOp45
 70
     1
102
RTVSPost2010Prop46
 90
       50
102
RTVSPost2010PropOp46
 70
     1
102
RTVSPost2010Prop47
 90
       50
102
RTVSPost2010PropOp47
 70
     1
102
RTVSPost2010Prop48
 90
       50
102
RTVSPost2010PropOp48
 70
     1
102
RTVSPost2010Prop49
280
     0
102
RTVSPost2010PropOp49
 70
     1
102
RTVSPost2010Prop50
 90
       50
102
RTVSPost2010PropOp50
 70
     1
102
RTVSPost2010Prop51ColorIndex
 90
      256
102
RTVSPost2010Prop51ColorRGB
 90
-16777216
102
RTVSPost2010PropOp51
 70
     0
102
RTVSPost2010Prop52
140
1.0
102
RTVSPost2010PropOp52
 70
     0
102
RTVSPost2010Prop53
 90
        2
102
RTVSPost2010PropOp53
 70
     1
102
RTVSPost2010Prop54
  1
strokes_ogs.tif
102
RTVSPost2010PropOp54
 70
     1
102
RTVSPost2010Prop55
280
     0
102
RTVSPost2010PropOp55
 70
     1
102
RTVSPost2010Prop56
140
1.0
102
RTVSPost2010PropOp56
 70
     1
102
RTVSPost2010Prop57
140
1.0
102
RTVSPost2010PropOp57
 70
     1
102
RTVSPropertyOp0
 70
     1
102
RTVSPropertyOp1
 70
     1
102
RTVSPropertyOp2
 70
     1
102
RTVSPropertyOp3
 70
     1
102
RTVSPropertyOp4
 70
     1
102
RTVSPropertyOp5
 70
     1
102
RTVSPropertyOp6
 70
     1
102
RTVSPropertyOp7
 70
     1
102
RTVSPropertyOp8
 70
     1
102
RTVSPropertyOp9
 70
     1
102
RTVSPropertyOp10
 70
     1
102
RTVSPropertyOp11
 70
     1
102
RTVSPropertyOp12
 70
     1
102
RTVSPropertyOp13
 70
     1
102
RTVSPropertyOp14
 70
     1
102
RTVSPropertyOp15
 70
     1
102
RTVSPropertyOp16
 70
     1
102
RTVSPropertyOp17
 70
     1
102
RTVSPropertyOp18
 70
     1
102
RTVSPropertyOp19
 70
     1
102
RTVSPropertyOp20
 70
     1
102
RTVSPropertyOp21
 70
     1
102
RTVSPropertyOp22
 70
     1
102
RTVSPropertyOp23
 70
     1
102
RTVSPropertyOp24
 70
     1
102
RTVSPropertyOp25
 70
     1
102
RTVSPropertyOp26
 70
     1
102
RTVSPropertyOp27
 70
     1
102
RTVSPropertyOp28
 70
     1
102
RTVSPropertyOp29
 70
     1
102
RTVSPropertyOp30
 70
     1
102
RTVSPropertyOp31
 70
     1
102
RTVSPropertyOp32
 70
     1
102
RTVSPropertyOp33
 70
     1
102
RTVSPropertyOp34
 70
     1
102
RTVSPropertyOp35
 70
     1
102
RTVSPropertyOp36
 70
     1
102
RTVSPropertyOp37
 70
     1
102
RTVSPropertyOp38
 70
     1
102
RTVSPropertyOp39
 70
     1
102
RTVSPropertyOp40
 70
     1
102
RTVSPropertyOp41
 70
     1
102
RTVSPropertyOp42
 70
     1
102
RTVSPropertyOp43
 70
     1
102
RTVSPropertyOp44
 70
     1
102
RTVSPropertyOp45
 70
     1
102
RTVSPropertyOp46
 70
     1
102
RTVSPropertyOp47
 70
     1
102
RTVSPropertyOp48
 70
     1
102
RTVSPropertyOp49
 70
     1
102
RTVSPropertyOp50
 70
     1
102
RTVSPropertyOp51
 70
     0
102
RTVSPropertyOp52
 70
     0
102
RTVSPropertyOp53
 70
     1
102
RTVSPropertyOp54
 70
     1
102
RTVSPropertyOp55
 70
     1
102
RTVSPropertyOp56
 70
     1
102
RTVSPropertyOp57
 70
     1
102
RTVSPropertyOp58
 70
     1
102
RTVSPropertyOp59
 70
     1
102
RTVSPropertyOp60
 70
     1
102
RTVSPropertyOp61
 70
     1
102
RTVSPropertyOp62
 70
     1
  0
XRECORD
  5
107B4
102
{ACAD_REACTORS
330
107B3
102
}
330
107B3
100
AcDbXrecord
280
     1
102
RTVSPost2010Prop28
280
     0
102
RTVSPost2010PropOp28
 70
     1
102
RTVSPost2010Prop29
280
     1
102
RTVSPost2010PropOp29
 70
     1
102
RTVSPost2010Prop30
280
     1
102
RTVSPost2010PropOp30
 70
     1
102
RTVSPost2010Prop31
280
     0
102
RTVSPost2010PropOp31
 70
     1
102
RTVSPost2010Prop32
280
     0
102
RTVSPost2010PropOp32
 70
     1
102
RTVSPost2010Prop33
280
     0
102
RTVSPost2010PropOp33
 70
     1
102
RTVSPost2010Prop34
280
     0
102
RTVSPost2010PropOp34
 70
     1
102
RTVSPost2010Prop35
280
     0
102
RTVSPost2010PropOp35
 70
     1
102
RTVSPost2010Prop36
280
     0
102
RTVSPost2010PropOp36
 70
     1
102
RTVSPost2010Prop37
 90
       50
102
RTVSPost2010PropOp37
 70
     1
102
RTVSPost2010Prop38
140
0.0
102
RTVSPost2010PropOp38
 70
     1
102
RTVSPost2010Prop39
140
1.0
102
RTVSPost2010PropOp39
 70
     1
102
RTVSPost2010Prop40
 90
        0
102
RTVSPost2010PropOp40
 70
     1
102
RTVSPost2010Prop41ColorIndex
 90
       18
102
RTVSPost2010Prop41ColorRGB
 90
        0
102
RTVSPost2010PropOp41
 70
     1
102
RTVSPost2010Prop42
 90
       50
102
RTVSPost2010PropOp42
 70
     1
102
RTVSPost2010Prop43
 90
        3
102
RTVSPost2010PropOp43
 70
     1
102
RTVSPost2010Prop44ColorIndex
 90
        5
102
RTVSPost2010Prop44ColorRGB
 90
      255
102
RTVSPost2010PropOp44
 70
     1
102
RTVSPost2010Prop45
280
     0
102
RTVSPost2010PropOp45
 70
     1
102
RTVSPost2010Prop46
 90
       50
102
RTVSPost2010PropOp46
 70
     1
102
RTVSPost2010Prop47
 90
       50
102
RTVSPost2010PropOp47
 70
     1
102
RTVSPost2010Prop48
 90
       50
102
RTVSPost2010PropOp48
 70
     1
102
RTVSPost2010Prop49
280
     0
102
RTVSPost2010PropOp49
 70
     1
102
RTVSPost2010Prop50
 90
       50
102
RTVSPost2010PropOp50
 70
     1
102
RTVSPost2010Prop51ColorIndex
 90
      256
102
RTVSPost2010Prop51ColorRGB
 90
-16777216
102
RTVSPost2010PropOp51
 70
     0
102
RTVSPost2010Prop52
140
1.0
102
RTVSPost2010PropOp52
 70
     0
102
RTVSPost2010Prop53
 90
        2
102
RTVSPost2010PropOp53
 70
     1
102
RTVSPost2010Prop54
  1
strokes_ogs.tif
102
RTVSPost2010PropOp54
 70
     1
102
RTVSPost2010Prop55
280
     0
102
RTVSPost2010PropOp55
 70
     1
102
RTVSPost2010Prop56
140
1.0
102
RTVSPost2010PropOp56
 70
     1
102
RTVSPost2010Prop57
140
1.0
102
RTVSPost2010PropOp57
 70
     1
102
RTVSPropertyOp0
 70
     1
102
RTVSPropertyOp1
 70
     1
102
RTVSPropertyOp2
 70
     1
102
RTVSPropertyOp3
 70
     1
102
RTVSPropertyOp4
 70
     1
102
RTVSPropertyOp5
 70
     1
102
RTVSPropertyOp6
 70
     1
102
RTVSPropertyOp7
 70
     1
102
RTVSPropertyOp8
 70
     1
102
RTVSPropertyOp9
 70
     1
102
RTVSPropertyOp10
 70
     1
102
RTVSPropertyOp11
 70
     1
102
RTVSPropertyOp12
 70
     1
102
RTVSPropertyOp13
 70
     1
102
RTVSPropertyOp14
 70
     1
102
RTVSPropertyOp15
 70
     1
102
RTVSPropertyOp16
 70
     1
102
RTVSPropertyOp17
 70
     1
102
RTVSPropertyOp18
 70
     1
102
RTVSPropertyOp19
 70
     1
102
RTVSPropertyOp20
 70
     1
102
RTVSPropertyOp21
 70
     1
102
RTVSPropertyOp22
 70
     1
102
RTVSPropertyOp23
 70
     1
102
RTVSPropertyOp24
 70
     1
102
RTVSPropertyOp25
 70
     1
102
RTVSPropertyOp26
 70
     1
102
RTVSPropertyOp27
 70
     1
102
RTVSPropertyOp28
 70
     1
102
RTVSPropertyOp29
 70
     1
102
RTVSPropertyOp30
 70
     1
102
RTVSPropertyOp31
 70
     1
102
RTVSPropertyOp32
 70
     1
102
RTVSPropertyOp33
 70
     1
102
RTVSPropertyOp34
 70
     1
102
RTVSPropertyOp35
 70
     1
102
RTVSPropertyOp36
 70
     1
102
RTVSPropertyOp37
 70
     1
102
RTVSPropertyOp38
 70
     1
102
RTVSPropertyOp39
 70
     1
102
RTVSPropertyOp40
 70
     1
102
RTVSPropertyOp41
 70
     1
102
RTVSPropertyOp42
 70
     1
102
RTVSPropertyOp43
 70
     1
102
RTVSPropertyOp44
 70
     1
102
RTVSPropertyOp45
 70
     1
102
RTVSPropertyOp46
 70
     1
102
RTVSPropertyOp47
 70
     1
102
RTVSPropertyOp48
 70
     1
102
RTVSPropertyOp49
 70
     1
102
RTVSPropertyOp50
 70
     1
102
RTVSPropertyOp51
 70
     0
102
RTVSPropertyOp52
 70
     0
102
RTVSPropertyOp53
 70
     1
102
RTVSPropertyOp54
 70
     1
102
RTVSPropertyOp55
 70
     1
102
RTVSPropertyOp56
 70
     1
102
RTVSPropertyOp57
 70
     1
102
RTVSPropertyOp58
 70
     1
102
RTVSPropertyOp59
 70
     1
102
RTVSPropertyOp60
 70
     1
102
RTVSPropertyOp61
 70
     1
102
RTVSPropertyOp62
 70
     1
  0
XRECORD
  5
107CC
102
{ACAD_REACTORS
330
107CB
102
}
330
107CB
100
AcDbXrecord
280
     1
102
RTVSPost2010Prop28
280
     0
102
RTVSPost2010PropOp28
 70
     1
102
RTVSPost2010Prop29
280
     1
102
RTVSPost2010PropOp29
 70
     1
102
RTVSPost2010Prop30
280
     1
102
RTVSPost2010PropOp30
 70
     1
102
RTVSPost2010Prop31
280
     0
102
RTVSPost2010PropOp31
 70
     1
102
RTVSPost2010Prop32
280
     0
102
RTVSPost2010PropOp32
 70
     1
102
RTVSPost2010Prop33
280
     0
102
RTVSPost2010PropOp33
 70
     1
102
RTVSPost2010Prop34
280
     0
102
RTVSPost2010PropOp34
 70
     1
102
RTVSPost2010Prop35
280
     0
102
RTVSPost2010PropOp35
 70
     1
102
RTVSPost2010Prop36
280
     0
102
RTVSPost2010PropOp36
 70
     1
102
RTVSPost2010Prop37
 90
       50
102
RTVSPost2010PropOp37
 70
     1
102
RTVSPost2010Prop38
140
0.0
102
RTVSPost2010PropOp38
 70
     1
102
RTVSPost2010Prop39
140
1.0
102
RTVSPost2010PropOp39
 70
     1
102
RTVSPost2010Prop40
 90
        0
102
RTVSPost2010PropOp40
 70
     1
102
RTVSPost2010Prop41ColorIndex
 90
       18
102
RTVSPost2010Prop41ColorRGB
 90
        0
102
RTVSPost2010PropOp41
 70
     1
102
RTVSPost2010Prop42
 90
       50
102
RTVSPost2010PropOp42
 70
     1
102
RTVSPost2010Prop43
 90
        3
102
RTVSPost2010PropOp43
 70
     1
102
RTVSPost2010Prop44ColorIndex
 90
        5
102
RTVSPost2010Prop44ColorRGB
 90
      255
102
RTVSPost2010PropOp44
 70
     1
102
RTVSPost2010Prop45
280
     0
102
RTVSPost2010PropOp45
 70
     1
102
RTVSPost2010Prop46
 90
       50
102
RTVSPost2010PropOp46
 70
     1
102
RTVSPost2010Prop47
 90
       50
102
RTVSPost2010PropOp47
 70
     1
102
RTVSPost2010Prop48
 90
       50
102
RTVSPost2010PropOp48
 70
     1
102
RTVSPost2010Prop49
280
     0
102
RTVSPost2010PropOp49
 70
     1
102
RTVSPost2010Prop50
 90
       50
102
RTVSPost2010PropOp50
 70
     1
102
RTVSPost2010Prop51ColorIndex
 90
      256
102
RTVSPost2010Prop51ColorRGB
 90
-16777216
102
RTVSPost2010PropOp51
 70
     0
102
RTVSPost2010Prop52
140
1.0
102
RTVSPost2010PropOp52
 70
     0
102
RTVSPost2010Prop53
 90
        2
102
RTVSPost2010PropOp53
 70
     1
102
RTVSPost2010Prop54
  1
strokes_ogs.tif
102
RTVSPost2010PropOp54
 70
     1
102
RTVSPost2010Prop55
280
     0
102
RTVSPost2010PropOp55
 70
     1
102
RTVSPost2010Prop56
140
1.0
102
RTVSPost2010PropOp56
 70
     1
102
RTVSPost2010Prop57
140
1.0
102
RTVSPost2010PropOp57
 70
     1
102
RTVSPropertyOp0
 70
     1
102
RTVSPropertyOp1
 70
     1
102
RTVSPropertyOp2
 70
     1
102
RTVSPropertyOp3
 70
     1
102
RTVSPropertyOp4
 70
     1
102
RTVSPropertyOp5
 70
     1
102
RTVSPropertyOp6
 70
     1
102
RTVSPropertyOp7
 70
     1
102
RTVSPropertyOp8
 70
     1
102
RTVSPropertyOp9
 70
     1
102
RTVSPropertyOp10
 70
     1
102
RTVSPropertyOp11
 70
     1
102
RTVSPropertyOp12
 70
     1
102
RTVSPropertyOp13
 70
     1
102
RTVSPropertyOp14
 70
     1
102
RTVSPropertyOp15
 70
     1
102
RTVSPropertyOp16
 70
     1
102
RTVSPropertyOp17
 70
     1
102
RTVSPropertyOp18
 70
     1
102
RTVSPropertyOp19
 70
     1
102
RTVSPropertyOp20
 70
     1
102
RTVSPropertyOp21
 70
     1
102
RTVSPropertyOp22
 70
     1
102
RTVSPropertyOp23
 70
     1
102
RTVSPropertyOp24
 70
     1
102
RTVSPropertyOp25
 70
     1
102
RTVSPropertyOp26
 70
     1
102
RTVSPropertyOp27
 70
     1
102
RTVSPropertyOp28
 70
     1
102
RTVSPropertyOp29
 70
     1
102
RTVSPropertyOp30
 70
     1
102
RTVSPropertyOp31
 70
     1
102
RTVSPropertyOp32
 70
     1
102
RTVSPropertyOp33
 70
     1
102
RTVSPropertyOp34
 70
     1
102
RTVSPropertyOp35
 70
     1
102
RTVSPropertyOp36
 70
     1
102
RTVSPropertyOp37
 70
     1
102
RTVSPropertyOp38
 70
     1
102
RTVSPropertyOp39
 70
     1
102
RTVSPropertyOp40
 70
     1
102
RTVSPropertyOp41
 70
     1
102
RTVSPropertyOp42
 70
     1
102
RTVSPropertyOp43
 70
     1
102
RTVSPropertyOp44
 70
     1
102
RTVSPropertyOp45
 70
     1
102
RTVSPropertyOp46
 70
     1
102
RTVSPropertyOp47
 70
     1
102
RTVSPropertyOp48
 70
     1
102
RTVSPropertyOp49
 70
     1
102
RTVSPropertyOp50
 70
     1
102
RTVSPropertyOp51
 70
     0
102
RTVSPropertyOp52
 70
     0
102
RTVSPropertyOp53
 70
     1
102
RTVSPropertyOp54
 70
     1
102
RTVSPropertyOp55
 70
     1
102
RTVSPropertyOp56
 70
     1
102
RTVSPropertyOp57
 70
     1
102
RTVSPropertyOp58
 70
     1
102
RTVSPropertyOp59
 70
     1
102
RTVSPropertyOp60
 70
     1
102
RTVSPropertyOp61
 70
     1
102
RTVSPropertyOp62
 70
     1
  0
ENDSEC
  0
EOF
