  0
SECTION
  2
HEADER
  9
$ACADVER
  1
AC1015
  9
$ACADMAINTVER
 70
    20
  9
$DWGCODEPAGE
  3
ANSI_932
  9
$INSBASE
 10
0.0
 20
0.0
 30
0.0
  9
$EXTMIN
 10
9.999997999999997
 20
10.0
 30
0.0
  9
$EXTMAX
 10
618.6182119999996
 20
412.849189
 30
0.0
  9
$LIMMIN
 10
-0.000001
 20
0.0
  9
$LIMMAX
 10
641.9999989999999
 20
442.590909
  9
$ORTHOMODE
 70
     1
  9
$REGENMODE
 70
     1
  9
$FILLMODE
 70
     1
  9
$QTEXTMODE
 70
     0
  9
$MIRRTEXT
 70
     1
  9
$LTSCALE
 40
1.0
  9
$ATTMODE
 70
     1
  9
$TEXTSIZE
 40
2.5
  9
$TRACEWID
 40
1.0
  9
$TEXTSTYLE
  7
STANDARD
  9
$CLAYER
  8
0
  9
$CELTYPE
  6
BYLAYER
  9
$CECOLOR
 62
   256
  9
$CELTSCALE
 40
1.0
  9
$DISPSILH
 70
     0
  9
$DIMSCALE
 40
1.0
  9
$DIMASZ
 40
3.0
  9
$DIMEXO
 40
1.0
  9
$DIMDLI
 40
10.0
  9
$DIMRND
 40
0.0
  9
$DIMDLE
 40
0.0
  9
$DIMEXE
 40
1.0
  9
$DIMTP
 40
0.0
  9
$DIMTM
 40
0.0
  9
$DIMTXT
 40
3.2
  9
$DIMCEN
 40
0.0
  9
$DIMTSZ
 40
0.0
  9
$DIMTOL
 70
     0
  9
$DIMLIM
 70
     0
  9
$DIMTIH
 70
     0
  9
$DIMTOH
 70
     0
  9
$DIMSE1
 70
     0
  9
$DIMSE2
 70
     0
  9
$DIMTAD
 70
     3
  9
$DIMZIN
 70
     8
  9
$DIMBLK
  1

  9
$DIMASO
 70
     1
  9
$DIMSHO
 70
     1
  9
$DIMPOST
  1

  9
$DIMAPOST
  1

  9
$DIMALT
 70
     0
  9
$DIMALTD
 70
     2
  9
$DIMALTF
 40
25.4
  9
$DIMLFAC
 40
1.0
  9
$DIMTOFL
 70
     1
  9
$DIMTVP
 40
0.0
  9
$DIMTIX
 70
     0
  9
$DIMSOXD
 70
     0
  9
$DIMSAH
 70
     1
  9
$DIMBLK1
  1
OPEN
  9
$DIMBLK2
  1
OPEN
  9
$DIMSTYLE
  2
STANDARD
  9
$DIMCLRD
 70
     0
  9
$DIMCLRE
 70
     0
  9
$DIMCLRT
 70
     0
  9
$DIMTFAC
 40
1.0
  9
$DIMGAP
 40
1.0
  9
$DIMJUST
 70
     0
  9
$DIMSD1
 70
     0
  9
$DIMSD2
 70
     0
  9
$DIMTOLJ
 70
     1
  9
$DIMTZIN
 70
     0
  9
$DIMALTZ
 70
     0
  9
$DIMALTTZ
 70
     0
  9
$DIMUPT
 70
     0
  9
$DIMDEC
 70
     4
  9
$DIMTDEC
 70
     4
  9
$DIMALTU
 70
     2
  9
$DIMALTTD
 70
     2
  9
$DIMTXSTY
  7
STANDARD
  9
$DIMAUNIT
 70
     0
  9
$DIMADEC
 70
     0
  9
$DIMALTRND
 40
0.0
  9
$DIMAZIN
 70
     0
  9
$DIMDSEP
 70
    46
  9
$DIMATFIT
 70
     3
  9
$DIMFRAC
 70
     0
  9
$DIMLDRBLK
  1
OPEN
  9
$DIMLUNIT
 70
     2
  9
$DIMLWD
 70
    -2
  9
$DIMLWE
 70
    -2
  9
$DIMTMOVE
 70
     0
  9
$LUNITS
 70
     2
  9
$LUPREC
 70
     4
  9
$SKETCHINC
 40
1.0
  9
$FILLETRAD
 40
0.0
  9
$AUNITS
 70
     0
  9
$AUPREC
 70
     0
  9
$MENU
  1
.
  9
$ELEVATION
 40
0.0
  9
$PELEVATION
 40
0.0
  9
$THICKNESS
 40
0.0
  9
$LIMCHECK
 70
     0
  9
$CHAMFERA
 40
10.0
  9
$CHAMFERB
 40
10.0
  9
$CHAMFERC
 40
0.0
  9
$CHAMFERD
 40
0.0
  9
$SKPOLY
 70
     0
  9
$TDCREATE
 40
2452065.504137998
  9
$TDUCREATE
 40
2452065.129137998
  9
$TDUPDATE
 40
2457192.641514595
  9
$TDUUPDATE
 40
2457192.266514595
  9
$TDINDWG
 40
0.0190407407
  9
$TDUSRTIMER
 40
0.0190402315
  9
$USRTIMER
 70
     1
  9
$ANGBASE
 50
0.0
  9
$ANGDIR
 70
     0
  9
$PDMODE
 70
     0
  9
$PDSIZE
 40
0.0
  9
$PLINEWID
 40
0.0
  9
$SPLFRAME
 70
     0
  9
$SPLINETYPE
 70
     6
  9
$SPLINESEGS
 70
     8
  9
$HANDSEED
  5
1711
  9
$SURFTAB1
 70
     6
  9
$SURFTAB2
 70
     6
  9
$SURFTYPE
 70
     6
  9
$SURFU
 70
     6
  9
$SURFV
 70
     6
  9
$UCSBASE
  2

  9
$UCSNAME
  2

  9
$UCSORG
 10
0.0
 20
0.0
 30
0.0
  9
$UCSXDIR
 10
1.0
 20
0.0
 30
0.0
  9
$UCSYDIR
 10
0.0
 20
1.0
 30
0.0
  9
$UCSORTHOREF
  2

  9
$UCSORTHOVIEW
 70
     0
  9
$UCSORGTOP
 10
0.0
 20
0.0
 30
0.0
  9
$UCSORGBOTTOM
 10
0.0
 20
0.0
 30
0.0
  9
$UCSORGLEFT
 10
0.0
 20
0.0
 30
0.0
  9
$UCSORGRIGHT
 10
0.0
 20
0.0
 30
0.0
  9
$UCSORGFRONT
 10
0.0
 20
0.0
 30
0.0
  9
$UCSORGBACK
 10
0.0
 20
0.0
 30
0.0
  9
$PUCSBASE
  2

  9
$PUCSNAME
  2

  9
$PUCSORG
 10
0.0
 20
0.0
 30
0.0
  9
$PUCSXDIR
 10
1.0
 20
0.0
 30
0.0
  9
$PUCSYDIR
 10
0.0
 20
1.0
 30
0.0
  9
$PUCSORTHOREF
  2

  9
$PUCSORTHOVIEW
 70
     0
  9
$PUCSORGTOP
 10
0.0
 20
0.0
 30
0.0
  9
$PUCSORGBOTTOM
 10
0.0
 20
0.0
 30
0.0
  9
$PUCSORGLEFT
 10
0.0
 20
0.0
 30
0.0
  9
$PUCSORGRIGHT
 10
0.0
 20
0.0
 30
0.0
  9
$PUCSORGFRONT
 10
0.0
 20
0.0
 30
0.0
  9
$PUCSORGBACK
 10
0.0
 20
0.0
 30
0.0
  9
$USERI1
 70
     0
  9
$USERI2
 70
     0
  9
$USERI3
 70
     0
  9
$USERI4
 70
     0
  9
$USERI5
 70
     0
  9
$USERR1
 40
0.0
  9
$USERR2
 40
0.0
  9
$USERR3
 40
0.0
  9
$USERR4
 40
0.0
  9
$USERR5
 40
0.0
  9
$WORLDVIEW
 70
     1
  9
$SHADEDGE
 70
     3
  9
$SHADEDIF
 70
    70
  9
$TILEMODE
 70
     1
  9
$MAXACTVP
 70
    48
  9
$PINSBASE
 10
0.0
 20
0.0
 30
0.0
  9
$PLIMCHECK
 70
     0
  9
$PEXTMIN
 10
1.000000000000000E+20
 20
1.000000000000000E+20
 30
1.000000000000000E+20
  9
$PEXTMAX
 10
-1.000000000000000E+20
 20
-1.000000000000000E+20
 30
-1.000000000000000E+20
  9
$PLIMMIN
 10
0.0
 20
0.0
  9
$PLIMMAX
 10
420.0
 20
297.0
  9
$UNITMODE
 70
     0
  9
$VISRETAIN
 70
     1
  9
$PLINEGEN
 70
     0
  9
$PSLTSCALE
 70
     1
  9
$TREEDEPTH
 70
  3020
  9
$CMLSTYLE
  2
STANDARD
  9
$CMLJUST
 70
     0
  9
$CMLSCALE
 40
1.0
  9
$PROXYGRAPHICS
 70
     1
  9
$MEASUREMENT
 70
     0
  9
$CELWEIGHT
370
    -1
  9
$ENDCAPS
280
     0
  9
$JOINSTYLE
280
     0
  9
$LWDISPLAY
290
     0
  9
$INSUNITS
 70
     0
  9
$HYPERLINKBASE
  1

  9
$STYLESHEET
  1

  9
$XEDIT
290
     1
  9
$CEPSNTYPE
380
     0
  9
$PSTYLEMODE
290
     1
  9
$FINGERPRINTGUID
  2
{7226F1F5-50B9-4F74-842C-9CE0F0E6B6F6}
  9
$VERSIONGUID
  2
{90DF1B52-712E-4B7C-BDD9-B5A55E3FCD6E}
  9
$EXTNAMES
290
     1
  9
$PSVPSCALE
 40
0.0
  9
$OLESTARTUP
290
     0
  0
ENDSEC
  0
SECTION
  2
CLASSES
  0
CLASS
  1
ACDBDICTIONARYWDFLT
  2
AcDbDictionaryWithDefault
  3
ObjectDBX Classes
 90
        0
280
     0
281
     0
  0
CLASS
  1
ACDBPLACEHOLDER
  2
AcDbPlaceHolder
  3
ObjectDBX Classes
 90
        0
280
     0
281
     0
  0
CLASS
  1
LAYOUT
  2
AcDbLayout
  3
ObjectDBX Classes
 90
        0
280
     0
281
     0
  0
CLASS
  1
DICTIONARYVAR
  2
AcDbDictionaryVar
  3
ObjectDBX Classes
 90
        0
280
     0
281
     0
  0
CLASS
  1
MATERIAL
  2
AcDbMaterial
  3
ObjectDBX Classes
 90
     1153
280
     0
281
     0
  0
CLASS
  1
VISUALSTYLE
  2
AcDbVisualStyle
  3
ObjectDBX Classes
 90
     4095
280
     0
281
     0
  0
CLASS
  1
TABLESTYLE
  2
AcDbTableStyle
  3
ObjectDBX Classes
 90
     4095
280
     0
281
     0
  0
CLASS
  1
SCALE
  2
AcDbScale
  3
ObjectDBX Classes
 90
     1153
280
     0
281
     0
  0
CLASS
  1
MLEADERSTYLE
  2
AcDbMLeaderStyle
  3
ACDB_MLEADERSTYLE_CLASS
 90
     4095
280
     0
281
     0
  0
CLASS
  1
ACDBSECTIONVIEWSTYLE
  2
AcDbSectionViewStyle
  3
ObjectDBX Classes
 90
     1025
280
     0
281
     0
  0
CLASS
  1
ACDBDETAILVIEWSTYLE
  2
AcDbDetailViewStyle
  3
ObjectDBX Classes
 90
     1025
280
     0
281
     0
  0
CLASS
  1
CELLSTYLEMAP
  2
AcDbCellStyleMap
  3
ObjectDBX Classes
 90
     1152
280
     0
281
     0
  0
ENDSEC
  0
SECTION
  2
TABLES
  0
TABLE
  2
VPORT
  5
1290
330
0
100
AcDbSymbolTable
 70
     1
  0
VPORT
  5
165B
330
1290
100
AcDbSymbolTableRecord
100
AcDbViewportTableRecord
  2
*ACTIVE
 70
     0
 10
0.0
 20
0.0
 11
1.0
 21
1.0
 12
436.337445420407
 22
211.4186060864253
 13
0.0
 23
0.0
 14
10.0
 24
10.0
 15
10.0
 25
10.0
 16
0.0
 26
0.0
 36
1.0
 17
0.0
 27
0.0
 37
0.0
 40
407.3800686136865
 41
1.899603698811096
 42
50.0
 43
0.0
 44
0.0
 50
0.0
 51
0.0
 71
     0
 72
   100
 73
     1
 74
     0
 75
     0
 76
     0
 77
     0
 78
     0
281
     0
 65
     1
110
0.0
120
0.0
130
0.0
111
1.0
121
0.0
131
0.0
112
0.0
122
1.0
132
0.0
 79
     0
146
0.0
1001
ACAD_NAV_VCDISPLAY
1070
     3
  0
ENDTAB
  0
TABLE
  2
LTYPE
  5
128D
330
0
100
AcDbSymbolTable
 70
     4
  0
LTYPE
  5
129B
330
128D
100
AcDbSymbolTableRecord
100
AcDbLinetypeTableRecord
  2
BYBLOCK
 70
     0
  3

 72
    65
 73
     0
 40
0.0
  0
LTYPE
  5
129C
330
128D
100
AcDbSymbolTableRecord
100
AcDbLinetypeTableRecord
  2
BYLAYER
 70
     0
  3

 72
    65
 73
     0
 40
0.0
  0
LTYPE
  5
129D
330
128D
100
AcDbSymbolTableRecord
100
AcDbLinetypeTableRecord
  2
CONTINUOUS
 70
     0
  3
Solid line
 72
    65
 73
     0
 40
0.0
  0
LTYPE
  5
12AB
330
128D
100
AcDbSymbolTableRecord
100
AcDbLinetypeTableRecord
  2
DASHED
 70
     0
  3
Dashed __ __ __ __ __ __ __ __ __ __ __ __ __ _
 72
    65
 73
     2
 40
19.05
 49
12.7
 74
     0
 49
-6.349999999999997
 74
     0
  0
LTYPE
  5
12AC
330
128D
100
AcDbSymbolTableRecord
100
AcDbLinetypeTableRecord
  2
CENTER
 70
     0
  3
Center ____ _ ____ _ ____ _ ____ _ ____ _ ____
 72
    65
 73
     4
 40
50.8
 49
31.75
 74
     0
 49
-6.349999999999997
 74
     0
 49
6.349999999999997
 74
     0
 49
-6.349999999999997
 74
     0
  0
LTYPE
  5
12AD
330
128D
100
AcDbSymbolTableRecord
100
AcDbLinetypeTableRecord
  2
PHANTOM
 70
     0
  3
Phantom ______  __  __  ______  __  __  ______
 72
    65
 73
     6
 40
63.5
 49
31.75
 74
     0
 49
-6.349999999999997
 74
     0
 49
6.349999999999997
 74
     0
 49
-6.349999999999997
 74
     0
 49
6.349999999999997
 74
     0
 49
-6.349999999999997
 74
     0
  0
ENDTAB
  0
TABLE
  2
LAYER
  5
128A
330
0
100
AcDbSymbolTable
 70
     8
  0
LAYER
  5
1298
102
{ACAD_XDICTIONARY
360
16B5
102
}
330
128A
100
AcDbSymbolTableRecord
100
AcDbLayerTableRecord
  2
0
 70
     0
 62
     7
  6
CONTINUOUS
370
    -3
390
1664
  0
LAYER
  5
12AE
102
{ACAD_XDICTIONARY
360
16B7
102
}
330
128A
100
AcDbSymbolTableRecord
100
AcDbLayerTableRecord
  2
4
 70
     0
 62
     1
  6
CENTER
370
    -3
390
1664
  0
LAYER
  5
12AF
102
{ACAD_XDICTIONARY
360
16B9
102
}
330
128A
100
AcDbSymbolTableRecord
100
AcDbLayerTableRecord
  2
5
 70
     0
 62
     6
  6
PHANTOM
370
    -3
390
1664
  0
LAYER
  5
12B0
102
{ACAD_XDICTIONARY
360
16BB
102
}
330
128A
100
AcDbSymbolTableRecord
100
AcDbLayerTableRecord
  2
1
 70
     0
 62
     7
  6
CONTINUOUS
370
    -3
390
1664
  0
LAYER
  5
12B1
102
{ACAD_XDICTIONARY
360
16BD
102
}
330
128A
100
AcDbSymbolTableRecord
100
AcDbLayerTableRecord
  2
2
 70
     0
 62
     4
  6
CONTINUOUS
370
    -3
390
1664
  0
LAYER
  5
12B2
102
{ACAD_XDICTIONARY
360
16BF
102
}
330
128A
100
AcDbSymbolTableRecord
100
AcDbLayerTableRecord
  2
3
 70
     0
 62
     2
  6
DASHED
370
    -3
390
1664
  0
LAYER
  5
12B3
102
{ACAD_XDICTIONARY
360
16C1
102
}
330
128A
100
AcDbSymbolTableRecord
100
AcDbLayerTableRecord
  2
6
 70
     0
 62
     5
  6
CONTINUOUS
370
    -3
390
1664
  0
LAYER
  5
12B4
102
{ACAD_XDICTIONARY
360
16C3
102
}
330
128A
100
AcDbSymbolTableRecord
100
AcDbLayerTableRecord
  2
7
 70
     0
 62
     3
  6
CONTINUOUS
370
    -3
390
1664
  0
ENDTAB
  0
TABLE
  2
STYLE
  5
128B
330
0
100
AcDbSymbolTable
 70
     1
  0
STYLE
  5
1299
330
128B
100
AcDbSymbolTableRecord
100
AcDbTextStyleTableRecord
  2
STANDARD
 70
     0
 40
0.0
 41
1.0
 50
0.0
 71
     0
 42
2.5
  3
simplex.shx
  4

  0
ENDTAB
  0
TABLE
  2
VIEW
  5
128E
330
0
100
AcDbSymbolTable
 70
     0
  0
ENDTAB
  0
TABLE
  2
UCS
  5
128F
330
0
100
AcDbSymbolTable
 70
     0
  0
ENDTAB
  0
TABLE
  2
APPID
  5
1291
330
0
100
AcDbSymbolTable
 70
     8
  0
APPID
  5
129A
330
1291
100
AcDbSymbolTableRecord
100
AcDbRegAppTableRecord
  2
ACAD
 70
     0
  0
APPID
  5
12B5
330
1291
100
AcDbSymbolTableRecord
100
AcDbRegAppTableRecord
  2
CONTENTTABDATA
 70
     0
  0
APPID
  5
12B6
330
1291
100
AcDbSymbolTableRecord
100
AcDbRegAppTableRecord
  2
CONTENTCURRENTTAB
 70
     0
  0
APPID
  5
12B7
330
1291
100
AcDbSymbolTableRecord
100
AcDbRegAppTableRecord
  2
CONTENTLONGBLOCKNAME
 70
     0
  0
APPID
  5
12B8
330
1291
100
AcDbSymbolTableRecord
100
AcDbRegAppTableRecord
  2
CONTENTBLOCKDESCRIPTION
 70
     0
  0
APPID
  5
12B9
330
1291
100
AcDbSymbolTableRecord
100
AcDbRegAppTableRecord
  2
CONTENTBLOCKICON
 70
     0
  0
APPID
  5
16CF
330
1291
100
AcDbSymbolTableRecord
100
AcDbRegAppTableRecord
  2
ACAD_NAV_VCDISPLAY
 70
     0
  0
APPID
  5
1708
330
1291
100
AcDbSymbolTableRecord
100
AcDbRegAppTableRecord
  2
ACAD_MLEADERVER
 70
     0
  0
ENDTAB
  0
TABLE
  2
DIMSTYLE
  5
1292
330
0
100
AcDbSymbolTable
 70
     1
100
AcDbDimStyleTable
 71
     0
  0
DIMSTYLE
105
12BA
330
1292
100
AcDbSymbolTableRecord
100
AcDbDimStyleTableRecord
  2
STANDARD
 70
     0
 41
3.0
 42
1.0
 43
10.0
 44
1.0
 73
     0
 74
     0
 77
     3
 78
     8
140
3.2
141
0.0
147
1.0
172
     1
173
     1
284
     8
285
     8
286
     8
340
1299
  0
ENDTAB
  0
TABLE
  2
BLOCK_RECORD
  5
1289
330
0
100
AcDbSymbolTable
 70
     1
  0
BLOCK_RECORD
  5
12A6
102
{ACAD_XDICTIONARY
360
165E
102
}
330
1289
100
AcDbSymbolTableRecord
100
AcDbBlockTableRecord
  2
*MODEL_SPACE
340
16B2
  0
BLOCK_RECORD
  5
12A2
102
{ACAD_XDICTIONARY
360
165C
102
}
330
1289
100
AcDbSymbolTableRecord
100
AcDbBlockTableRecord
  2
*PAPER_SPACE
340
16B3
  0
BLOCK_RECORD
  5
12C2
330
1289
100
AcDbSymbolTableRecord
100
AcDbBlockTableRecord
  2
_OPEN
340
0
  0
ENDTAB
  0
ENDSEC
  0
SECTION
  2
BLOCKS
  0
BLOCK
  5
12A7
330
12A6
100
AcDbEntity
  8
0
100
AcDbBlockBegin
  2
*MODEL_SPACE
 70
     0
 10
0.0
 20
0.0
 30
0.0
  3
*MODEL_SPACE
  1

  0
ENDBLK
  5
12A8
330
12A6
100
AcDbEntity
  8
0
100
AcDbBlockEnd
  0
BLOCK
  5
12A3
330
12A2
100
AcDbEntity
 67
     1
  8
0
100
AcDbBlockBegin
  2
*PAPER_SPACE
 70
     0
 10
0.0
 20
0.0
 30
0.0
  3
*PAPER_SPACE
  1

  0
ENDBLK
  5
12A4
330
12A2
100
AcDbEntity
 67
     1
  8
0
100
AcDbBlockEnd
  0
BLOCK
  5
12C3
330
12C2
100
AcDbEntity
  8
0
100
AcDbBlockBegin
  2
_OPEN
 70
     0
 10
0.0
 20
0.0
 30
0.0
  3
_OPEN
  1

  0
LINE
  5
12C4
330
12C2
100
AcDbEntity
  8
0
  6
ByBlock
 62
     0
100
AcDbLine
 10
-1.0
 20
0.166667
 30
0.0
 11
0.0
 21
0.0
 31
0.0
  0
LINE
  5
12C5
330
12C2
100
AcDbEntity
  8
0
  6
ByBlock
 62
     0
100
AcDbLine
 10
0.0
 20
0.0
 30
0.0
 11
-1.0
 21
-0.166667
 31
0.0
  0
LINE
  5
12C6
330
12C2
100
AcDbEntity
  8
0
  6
ByBlock
 62
     0
100
AcDbLine
 10
0.0
 20
0.0
 30
0.0
 11
-1.0
 21
0.0
 31
0.0
  0
ENDBLK
  5
12C7
330
12C2
100
AcDbEntity
  8
0
100
AcDbBlockEnd
  0
ENDSEC
  0
SECTION
  2
ENTITIES
  0
TEXT
  5
12C8
330
12A6
100
AcDbEntity
  8
4
  6
CENTER
100
AcDbText
 10
23.979509
 20
10.0
 30
0.0
 40
1.399999999999999
  1
4
100
AcDbText
  0
TEXT
  5
12C9
330
12A6
100
AcDbEntity
  8
7
  6
Continuous
100
AcDbText
 10
9.999997999999999
 20
26.000001
 30
0.0
 40
3.0
  1
CODE No.13165
100
AcDbText
  0
TEXT
  5
12CA
330
12A6
100
AcDbEntity
  8
7
  6
Continuous
100
AcDbText
 10
9.999997999999999
 20
18.000001
 30
0.0
 40
3.0
  1
TYPE No.THA-330F-3
100
AcDbText
  0
TEXT
  5
12CB
330
12A6
100
AcDbEntity
  8
1
  6
Continuous
100
AcDbText
 10
9.999997999999999
 20
10.000001
 30
0.0
 40
1.399999999999999
  1
LAYER
100
AcDbText
  0
TEXT
  5
12CC
330
12A6
100
AcDbEntity
  8
2
  6
Continuous
100
AcDbText
 10
19.979509
 20
10.0
 30
0.0
 40
1.399999999999999
  1
2
100
AcDbText
  0
TEXT
  5
12CD
330
12A6
100
AcDbEntity
  8
3
  6
DASHED
100
AcDbText
 10
21.97950899999999
 20
10.0
 30
0.0
 40
1.399999999999999
  1
3
100
AcDbText
  0
TEXT
  5
12CE
330
12A6
100
AcDbEntity
  8
1
  6
Continuous
100
AcDbText
 10
17.979509
 20
10.0
 30
0.0
 40
1.399999999999999
  1
1
100
AcDbText
  0
TEXT
  5
12CF
330
12A6
100
AcDbEntity
  8
5
  6
PHANTOM
100
AcDbText
 10
25.979509
 20
10.0
 30
0.0
 40
1.399999999999999
  1
5
100
AcDbText
  0
TEXT
  5
12D0
330
12A6
100
AcDbEntity
  8
6
  6
Continuous
100
AcDbText
 10
27.979509
 20
10.0
 30
0.0
 40
1.399999999999999
  1
6
100
AcDbText
  0
TEXT
  5
12D1
330
12A6
100
AcDbEntity
  8
7
  6
Continuous
100
AcDbText
 10
29.97950900000001
 20
10.0
 30
0.0
 40
1.399999999999999
  1
7
100
AcDbText
  0
LINE
  5
12D2
330
12A6
100
AcDbEntity
  8
1
  6
Continuous
100
AcDbLine
 10
224.792621
 20
95.99998900000001
 30
0.0
 11
224.792621
 21
49.999989
 31
0.0
  0
LINE
  5
12D3
330
12A6
100
AcDbEntity
  8
1
  6
Continuous
100
AcDbLine
 10
223.7926209999999
 20
95.99998900000001
 30
0.0
 11
223.7926209999999
 21
49.999989
 31
0.0
  0
LINE
  5
12D4
330
12A6
100
AcDbEntity
  8
1
  6
Continuous
100
AcDbLine
 10
220.292621
 20
93.99998899999998
 30
0.0
 11
220.292621
 21
51.999989
 31
0.0
  0
LINE
  5
12D5
330
12A6
100
AcDbEntity
  8
1
  6
Continuous
100
AcDbLine
 10
212.47213
 20
84.499989
 30
0.0
 11
182.6344599999999
 21
84.499989
 31
0.0
  0
LINE
  5
12D6
330
12A6
100
AcDbEntity
  8
1
  6
Continuous
100
AcDbLine
 10
212.47213
 20
61.49998899999999
 30
0.0
 11
182.6344599999999
 21
61.49998899999999
 31
0.0
  0
LINE
  5
12D7
330
12A6
100
AcDbEntity
  8
4
  6
CENTER
100
AcDbLine
 10
260.1347899999999
 20
73.0
 30
0.0
 11
175.192621
 21
73.0
 31
0.0
  0
LINE
  5
12D8
330
12A6
100
AcDbEntity
  8
1
  6
Continuous
100
AcDbLine
 10
192.2926209999999
 20
66.79656300000001
 30
0.0
 11
192.2926209999999
 21
61.49998899999999
 31
0.0
  0
ARC
  5
12D9
330
12A6
100
AcDbEntity
  8
1
  6
Continuous
100
AcDbCircle
 10
191.792621
 20
71.77150000000001
 30
0.0
 40
5.0
100
AcDbArc
 50
270.0
 51
0.0
  0
LINE
  5
12DA
330
12A6
100
AcDbEntity
  8
1
  6
Continuous
100
AcDbLine
 10
192.2926209999999
 20
77.0
 30
0.0
 11
192.2926209999999
 21
69.0
 31
0.0
  0
ARC
  5
12DB
330
12A6
100
AcDbEntity
  8
1
  6
Continuous
100
AcDbCircle
 10
191.792621
 20
74.22849999999998
 30
0.0
 40
5.0
100
AcDbArc
 50
0.0
 51
90.0
  0
LINE
  5
12DC
330
12A6
100
AcDbEntity
  8
1
  6
Continuous
100
AcDbLine
 10
191.792621
 20
66.77150000000001
 30
0.0
 11
188.051149
 21
66.77150000000001
 31
0.0
  0
LINE
  5
12DD
330
12A6
100
AcDbEntity
  8
1
  6
Continuous
100
AcDbLine
 10
191.792621
 20
79.22849999999998
 30
0.0
 11
188.051149
 21
79.22849999999998
 31
0.0
  0
LINE
  5
12DE
330
12A6
100
AcDbEntity
  8
1
  6
Continuous
100
AcDbLine
 10
192.2926209999999
 20
84.499989
 30
0.0
 11
192.2926209999999
 21
79.20343800000002
 31
0.0
  0
LINE
  5
12DF
330
12A6
100
AcDbEntity
  8
1
  6
Continuous
100
AcDbLine
 10
196.792621
 20
74.22849999999998
 30
0.0
 11
196.792621
 21
71.77150000000001
 31
0.0
  0
LINE
  5
12E0
330
12A6
100
AcDbEntity
  8
1
  6
Continuous
100
AcDbLine
 10
237.9926209999999
 20
83.99998899999998
 30
0.0
 11
225.7926209999999
 21
83.99998899999998
 31
0.0
  0
LINE
  5
12E1
330
12A6
100
AcDbEntity
  8
1
  6
Continuous
100
AcDbLine
 10
237.9926209999999
 20
61.999989
 30
0.0
 11
225.7926209999999
 21
61.999989
 31
0.0
  0
LINE
  5
12E2
330
12A6
100
AcDbEntity
  8
2
  6
Continuous
100
AcDbLine
 10
238.804621
 20
83.187989
 30
0.0
 11
226.692621
 21
83.187989
 31
0.0
  0
LINE
  5
12E3
330
12A6
100
AcDbEntity
  8
2
  6
Continuous
100
AcDbLine
 10
238.804621
 20
62.81198899999999
 30
0.0
 11
226.692621
 21
62.81198899999999
 31
0.0
  0
LINE
  5
12E4
330
12A6
100
AcDbEntity
  8
1
  6
Continuous
100
AcDbLine
 10
237.9926209999999
 20
78.092889
 30
0.0
 11
224.792621
 21
78.092889
 31
0.0
  0
LINE
  5
12E5
330
12A6
100
AcDbEntity
  8
1
  6
Continuous
100
AcDbLine
 10
237.9926209999999
 20
67.907089
 30
0.0
 11
224.792621
 21
67.907089
 31
0.0
  0
LINE
  5
12E6
330
12A6
100
AcDbEntity
  8
2
  6
Continuous
100
AcDbLine
 10
224.792621
 20
78.092889
 30
0.0
 11
237.9926209999999
 21
67.907089
 31
0.0
  0
LINE
  5
12E7
330
12A6
100
AcDbEntity
  8
2
  6
Continuous
100
AcDbLine
 10
237.9926209999999
 20
78.092889
 30
0.0
 11
224.792621
 21
67.907089
 31
0.0
  0
LINE
  5
12E8
330
12A6
100
AcDbEntity
  8
1
  6
Continuous
100
AcDbLine
 10
226.692621
 20
67.907089
 30
0.0
 11
226.692621
 21
61.999989
 31
0.0
  0
LINE
  5
12E9
330
12A6
100
AcDbEntity
  8
1
  6
Continuous
100
AcDbLine
 10
212.342621
 20
84.499989
 30
0.0
 11
212.342621
 21
61.49998899999999
 31
0.0
  0
LINE
  5
12EA
330
12A6
100
AcDbEntity
  8
1
  6
Continuous
100
AcDbLine
 10
212.292621
 20
61.49998899999999
 30
0.0
 11
212.292621
 21
84.499989
 31
0.0
  0
LINE
  5
12EB
330
12A6
100
AcDbEntity
  8
1
  6
Continuous
100
AcDbLine
 10
212.47213
 20
61.49998899999999
 30
0.0
 11
220.292621
 21
57.999989
 31
0.0
  0
ARC
  5
12EC
330
12A6
100
AcDbEntity
  8
1
  6
Continuous
100
AcDbCircle
 10
225.7926209999999
 20
60.999989
 30
0.0
 40
1.0
100
AcDbArc
 50
90.0
 51
180.0
  0
LINE
  5
12ED
330
12A6
100
AcDbEntity
  8
2
  6
Continuous
100
AcDbLine
 10
225.2861949999999
 20
61.999989
 30
0.0
 11
226.692621
 21
62.81198899999999
 31
0.0
  0
ARC
  5
12EE
330
12A6
100
AcDbEntity
  8
1
  6
Continuous
100
AcDbCircle
 10
222.292621
 20
51.999989
 30
0.0
 40
2.0
100
AcDbArc
 50
180.0
 51
270.0
  0
LINE
  5
12EF
330
12A6
100
AcDbEntity
  8
1
  6
Continuous
100
AcDbLine
 10
222.292621
 20
49.999989
 30
0.0
 11
224.792621
 21
49.999989
 31
0.0
  0
LINE
  5
12F0
330
12A6
100
AcDbEntity
  8
1
  6
Continuous
100
AcDbLine
 10
212.47213
 20
84.499989
 30
0.0
 11
220.292621
 21
87.999989
 31
0.0
  0
ARC
  5
12F1
330
12A6
100
AcDbEntity
  8
1
  6
Continuous
100
AcDbCircle
 10
225.7926209999999
 20
84.99998899999999
 30
0.0
 40
1.0
100
AcDbArc
 50
180.0
 51
270.0
  0
LINE
  5
12F2
330
12A6
100
AcDbEntity
  8
2
  6
Continuous
100
AcDbLine
 10
225.2861949999999
 20
83.99998899999998
 30
0.0
 11
226.692621
 21
83.187989
 31
0.0
  0
LINE
  5
12F3
330
12A6
100
AcDbEntity
  8
1
  6
Continuous
100
AcDbLine
 10
226.692621
 20
83.99998899999998
 30
0.0
 11
226.692621
 21
78.092889
 31
0.0
  0
LINE
  5
12F4
330
12A6
100
AcDbEntity
  8
1
  6
Continuous
100
AcDbLine
 10
226.2926209999999
 20
75.24998899999999
 30
0.0
 11
224.792621
 21
75.24998899999999
 31
0.0
  0
LINE
  5
12F5
330
12A6
100
AcDbEntity
  8
1
  6
Continuous
100
AcDbLine
 10
226.2926209999999
 20
70.749989
 30
0.0
 11
224.792621
 21
70.749989
 31
0.0
  0
LINE
  5
12F6
330
12A6
100
AcDbEntity
  8
1
  6
Continuous
100
AcDbLine
 10
226.2926209999999
 20
70.749989
 30
0.0
 11
226.2926209999999
 21
75.24998899999999
 31
0.0
  0
LINE
  5
12F7
330
12A6
100
AcDbEntity
  8
1
  6
Continuous
100
AcDbLine
 10
239.4926209999999
 20
83.0
 30
0.0
 11
239.4926209999999
 21
63.0
 31
0.0
  0
LINE
  5
12F8
330
12A6
100
AcDbEntity
  8
1
  6
Continuous
100
AcDbLine
 10
237.9926209999999
 20
67.907089
 30
0.0
 11
237.9926209999999
 21
61.999989
 31
0.0
  0
LINE
  5
12F9
330
12A6
100
AcDbEntity
  8
1
  6
Continuous
100
AcDbLine
 10
237.9926209999999
 20
61.999989
 30
0.0
 11
239.4926209999999
 21
63.499989
 31
0.0
  0
LINE
  5
12FA
330
12A6
100
AcDbEntity
  8
1
  6
Continuous
100
AcDbLine
 10
237.9926209999999
 20
83.99998899999998
 30
0.0
 11
239.4926209999999
 21
82.49998899999999
 31
0.0
  0
LINE
  5
12FB
330
12A6
100
AcDbEntity
  8
1
  6
Continuous
100
AcDbLine
 10
237.9926209999999
 20
83.99998899999998
 30
0.0
 11
237.9926209999999
 21
78.092889
 31
0.0
  0
ARC
  5
12FC
330
12A6
100
AcDbEntity
  8
1
  6
Continuous
100
AcDbCircle
 10
230.0967439999999
 20
72.999989
 30
0.0
 40
9.395877
100
AcDbArc
 50
327.177679
 51
32.822321
  0
LINE
  5
12FD
330
12A6
100
AcDbEntity
  8
1
  6
Continuous
100
AcDbLine
 10
222.292621
 20
95.99998900000001
 30
0.0
 11
224.792621
 21
95.99998900000001
 31
0.0
  0
ARC
  5
12FE
330
12A6
100
AcDbEntity
  8
1
  6
Continuous
100
AcDbCircle
 10
222.292621
 20
93.99998899999998
 30
0.0
 40
2.0
100
AcDbArc
 50
90.0
 51
180.0
  0
LINE
  5
12FF
330
12A6
100
AcDbEntity
  8
1
  6
Continuous
100
AcDbLine
 10
72.873148
 20
269.328447
 30
0.0
 11
72.873148
 21
236.3436019999999
 31
0.0
  0
LINE
  5
1300
330
12A6
100
AcDbEntity
  8
1
  6
Continuous
100
AcDbLine
 10
69.373148
 20
235.836024
 30
0.0
 11
69.373148
 21
265.6791589999999
 31
0.0
  0
LINE
  5
1301
330
12A6
100
AcDbEntity
  8
1
  6
Continuous
100
AcDbLine
 10
67.623148
 20
267.7663109999999
 30
0.0
 11
67.623148
 21
236.336024
 31
0.0
  0
LINE
  5
1302
330
12A6
100
AcDbEntity
  8
1
  6
Continuous
100
AcDbLine
 10
42.87314799999999
 20
269.328447
 30
0.0
 11
42.87314799999999
 21
236.3436019999999
 31
0.0
  0
LINE
  5
1303
330
12A6
100
AcDbEntity
  8
1
  6
Continuous
100
AcDbLine
 10
46.373148
 20
235.836024
 30
0.0
 11
46.373148
 21
265.6791589999999
 31
0.0
  0
LINE
  5
1304
330
12A6
100
AcDbEntity
  8
1
  6
Continuous
100
AcDbLine
 10
48.123148
 20
267.7663109999999
 30
0.0
 11
48.123148
 21
236.336024
 31
0.0
  0
ARC
  5
1305
330
12A6
100
AcDbEntity
  8
1
  6
Continuous
100
AcDbCircle
 10
57.873148
 20
252.836024
 30
0.0
 40
23.0
100
AcDbArc
 50
299.938239
 51
240.0617609999999
  0
LINE
  5
1306
330
12A6
100
AcDbEntity
  8
4
  6
CENTER
100
AcDbLine
 10
57.873148
 20
167.836024
 30
0.0
 11
57.873148
 21
280.836024
 31
0.0
  0
LINE
  5
1307
330
12A6
100
AcDbEntity
  8
1
  6
Continuous
100
AcDbLine
 10
69.373148
 20
243.472956
 30
0.0
 11
72.59489999999998
 21
236.0421899999999
 31
0.0
  0
LINE
  5
1308
330
12A6
100
AcDbEntity
  8
4
  6
CENTER
100
AcDbLine
 10
85.87314799999999
 20
252.836024
 30
0.0
 11
29.873148
 21
252.836024
 31
0.0
  0
LINE
  5
1309
330
12A6
100
AcDbEntity
  8
1
  6
Continuous
100
AcDbLine
 10
64.101872
 20
175.0220139999999
 30
0.0
 11
68.287276
 21
215.023291
 31
0.0
  0
LINE
  5
130A
330
12A6
100
AcDbEntity
  8
1
  6
Continuous
100
AcDbLine
 10
47.459021
 20
215.023291
 30
0.0
 11
51.644424
 21
175.0220139999999
 31
0.0
  0
ARC
  5
130B
330
12A6
100
AcDbEntity
  8
1
  6
Continuous
100
AcDbCircle
 10
57.873148
 20
197.836024
 30
0.0
 40
25.0
100
AcDbArc
 50
259.3779459999999
 51
280.6220539999998
  0
ARC
  5
130C
330
12A6
100
AcDbEntity
  8
1
  6
Continuous
100
AcDbCircle
 10
53.633565
 20
175.230141
 30
0.0
 40
2.0
100
AcDbArc
 50
185.9732229999999
 51
259.3779459999999
  0
ARC
  5
130D
330
12A6
100
AcDbEntity
  8
1
  6
Continuous
100
AcDbCircle
 10
62.11273099999999
 20
175.230141
 30
0.0
 40
2.0
100
AcDbArc
 50
280.6220539999998
 51
354.0267769999999
  0
ARC
  5
130E
330
12A6
100
AcDbEntity
  8
1
  6
Continuous
100
AcDbCircle
 10
-130.626852
 20
235.836024
 30
0.0
 40
200.0
100
AcDbArc
 50
354.0267769999999
 51
0.0
  0
ARC
  5
130F
330
12A6
100
AcDbEntity
  8
1
  6
Continuous
100
AcDbCircle
 10
246.3731479999999
 20
235.836024
 30
0.0
 40
200.0
100
AcDbArc
 50
180.0
 51
185.9732229999999
  0
LINE
  5
1310
330
12A6
100
AcDbEntity
  8
1
  6
Continuous
100
AcDbLine
 10
54.986397
 20
245.836024
 30
0.0
 11
60.75989899999999
 21
245.836024
 31
0.0
  0
LINE
  5
1311
330
12A6
100
AcDbEntity
  8
1
  6
Continuous
100
AcDbLine
 10
54.697722
 20
245.336024
 30
0.0
 11
61.048575
 21
245.336024
 31
0.0
  0
LINE
  5
1312
330
12A6
100
AcDbEntity
  8
1
  6
Continuous
100
AcDbLine
 10
54.40904599999999
 20
244.8360239999999
 30
0.0
 11
61.33725
 21
244.8360239999999
 31
0.0
  0
LINE
  5
1313
330
12A6
100
AcDbEntity
  8
1
  6
Continuous
100
AcDbLine
 10
54.120371
 20
244.336024
 30
0.0
 11
61.625925
 21
244.336024
 31
0.0
  0
LINE
  5
1314
330
12A6
100
AcDbEntity
  8
1
  6
Continuous
100
AcDbLine
 10
53.83169599999999
 20
243.836024
 30
0.0
 11
61.9146
 21
243.836024
 31
0.0
  0
LINE
  5
1315
330
12A6
100
AcDbEntity
  8
1
  6
Continuous
100
AcDbLine
 10
53.54302099999999
 20
243.336024
 30
0.0
 11
62.20327499999999
 21
243.336024
 31
0.0
  0
LINE
  5
1316
330
12A6
100
AcDbEntity
  8
1
  6
Continuous
100
AcDbLine
 10
53.254346
 20
242.8360239999999
 30
0.0
 11
57.873148
 21
242.8360239999999
 31
0.0
  0
ARC
  5
1317
330
12A6
100
AcDbEntity
  8
1
  6
Continuous
100
AcDbCircle
 10
57.873148
 20
234.836024
 30
0.0
 40
8.0
100
AcDbArc
 50
12.83958799999999
 51
167.160412
  0
LINE
  5
1318
330
12A6
100
AcDbEntity
  8
1
  6
Continuous
100
AcDbLine
 10
50.94494499999999
 20
238.836024
 30
0.0
 11
57.873148
 21
250.836024
 31
0.0
  0
LINE
  5
1319
330
12A6
100
AcDbEntity
  8
1
  6
Continuous
100
AcDbLine
 10
52.96567099999999
 20
242.336024
 30
0.0
 11
55.089266
 21
242.336024
 31
0.0
  0
LINE
  5
131A
330
12A6
100
AcDbEntity
  8
1
  6
Continuous
100
AcDbLine
 10
52.676996
 20
241.836024
 30
0.0
 11
54.000165
 21
241.836024
 31
0.0
  0
LINE
  5
131B
330
12A6
100
AcDbEntity
  8
1
  6
Continuous
100
AcDbLine
 10
52.38832099999999
 20
241.336024
 30
0.0
 11
53.20945899999999
 21
241.336024
 31
0.0
  0
ARC
  5
131C
330
12A6
100
AcDbEntity
  8
1
  6
Continuous
100
AcDbCircle
 10
49.098184
 20
236.836024
 30
0.0
 40
1.0
100
AcDbArc
 50
270.0
 51
347.160412
  0
ARC
  5
131D
330
12A6
100
AcDbEntity
  8
1
  6
Continuous
100
AcDbCircle
 10
44.873148
 20
236.3436019999999
 30
0.0
 40
2.0
100
AcDbArc
 50
180.0
 51
231.75338
  0
LINE
  5
131E
330
12A6
100
AcDbEntity
  8
1
  6
Continuous
100
AcDbLine
 10
48.623148
 20
235.836024
 30
0.0
 11
49.098184
 21
235.836024
 31
0.0
  0
LINE
  5
131F
330
12A6
100
AcDbEntity
  8
1
  6
Continuous
100
AcDbLine
 10
52.099645
 20
240.8360239999999
 30
0.0
 11
52.58164499999999
 21
240.8360239999999
 31
0.0
  0
LINE
  5
1320
330
12A6
100
AcDbEntity
  8
1
  6
Continuous
100
AcDbLine
 10
51.81097000000001
 20
240.336024
 30
0.0
 11
52.063673
 21
240.336024
 31
0.0
  0
LINE
  5
1321
330
12A6
100
AcDbEntity
  8
1
  6
Continuous
100
AcDbLine
 10
51.522295
 20
239.836024
 30
0.0
 11
51.62815
 21
239.836024
 31
0.0
  0
LINE
  5
1322
330
12A6
100
AcDbEntity
  8
1
  6
Continuous
100
AcDbLine
 10
51.23362
 20
239.336024
 30
0.0
 11
51.25877
 21
239.336024
 31
0.0
  0
LINE
  5
1323
330
12A6
100
AcDbEntity
  8
1
  6
Continuous
100
AcDbLine
 10
46.373148
 20
243.472956
 30
0.0
 11
43.15139600000001
 21
236.0421899999999
 31
0.0
  0
LINE
  5
1324
330
12A6
100
AcDbEntity
  8
1
  6
Continuous
100
AcDbLine
 10
57.584473
 20
250.336024
 30
0.0
 11
58.161823
 21
250.336024
 31
0.0
  0
LINE
  5
1325
330
12A6
100
AcDbEntity
  8
1
  6
Continuous
100
AcDbLine
 10
57.29579799999999
 20
249.836024
 30
0.0
 11
58.45049799999999
 21
249.836024
 31
0.0
  0
LINE
  5
1326
330
12A6
100
AcDbEntity
  8
1
  6
Continuous
100
AcDbLine
 10
57.007123
 20
249.336024
 30
0.0
 11
58.739173
 21
249.336024
 31
0.0
  0
LINE
  5
1327
330
12A6
100
AcDbEntity
  8
1
  6
Continuous
100
AcDbLine
 10
56.71844799999998
 20
248.836024
 30
0.0
 11
59.027849
 21
248.836024
 31
0.0
  0
LINE
  5
1328
330
12A6
100
AcDbEntity
  8
1
  6
Continuous
100
AcDbLine
 10
56.429772
 20
248.336024
 30
0.0
 11
59.316524
 21
248.336024
 31
0.0
  0
LINE
  5
1329
330
12A6
100
AcDbEntity
  8
1
  6
Continuous
100
AcDbLine
 10
56.141097
 20
247.836024
 30
0.0
 11
59.605199
 21
247.836024
 31
0.0
  0
LINE
  5
132A
330
12A6
100
AcDbEntity
  8
1
  6
Continuous
100
AcDbLine
 10
55.85242199999999
 20
247.336024
 30
0.0
 11
59.893874
 21
247.336024
 31
0.0
  0
LINE
  5
132B
330
12A6
100
AcDbEntity
  8
1
  6
Continuous
100
AcDbLine
 10
55.563747
 20
246.8360239999999
 30
0.0
 11
60.182549
 21
246.8360239999999
 31
0.0
  0
LINE
  5
132C
330
12A6
100
AcDbEntity
  8
1
  6
Continuous
100
AcDbLine
 10
55.27507199999998
 20
246.336024
 30
0.0
 11
60.471224
 21
246.336024
 31
0.0
  0
LINE
  5
132D
330
12A6
100
AcDbEntity
  8
1
  6
Continuous
100
AcDbLine
 10
57.873148
 20
242.8360239999999
 30
0.0
 11
62.49195
 21
242.8360239999999
 31
0.0
  0
LINE
  5
132E
330
12A6
100
AcDbEntity
  8
1
  6
Continuous
100
AcDbLine
 10
60.65703
 20
242.336024
 30
0.0
 11
62.780625
 21
242.336024
 31
0.0
  0
LINE
  5
132F
330
12A6
100
AcDbEntity
  8
1
  6
Continuous
100
AcDbLine
 10
61.74613100000001
 20
241.836024
 30
0.0
 11
63.069301
 21
241.836024
 31
0.0
  0
LINE
  5
1330
330
12A6
100
AcDbEntity
  8
1
  6
Continuous
100
AcDbLine
 10
62.53683800000001
 20
241.336024
 30
0.0
 11
63.357976
 21
241.336024
 31
0.0
  0
LINE
  5
1331
330
12A6
100
AcDbEntity
  8
1
  6
Continuous
100
AcDbLine
 10
66.64811199999999
 20
235.836024
 30
0.0
 11
67.123148
 21
235.836024
 31
0.0
  0
ARC
  5
1332
330
12A6
100
AcDbEntity
  8
1
  6
Continuous
100
AcDbCircle
 10
66.64811199999999
 20
236.836024
 30
0.0
 40
1.0
100
AcDbArc
 50
192.839588
 51
270.0
  0
LINE
  5
1333
330
12A6
100
AcDbEntity
  8
1
  6
Continuous
100
AcDbLine
 10
63.164651
 20
240.8360239999999
 30
0.0
 11
63.64665099999999
 21
240.8360239999999
 31
0.0
  0
LINE
  5
1334
330
12A6
100
AcDbEntity
  8
1
  6
Continuous
100
AcDbLine
 10
63.682623
 20
240.336024
 30
0.0
 11
63.935326
 21
240.336024
 31
0.0
  0
LINE
  5
1335
330
12A6
100
AcDbEntity
  8
1
  6
Continuous
100
AcDbLine
 10
64.11814599999999
 20
239.836024
 30
0.0
 11
64.224001
 21
239.836024
 31
0.0
  0
LINE
  5
1336
330
12A6
100
AcDbEntity
  8
1
  6
Continuous
100
AcDbLine
 10
64.487526
 20
239.336024
 30
0.0
 11
64.512676
 21
239.336024
 31
0.0
  0
LINE
  5
1337
330
12A6
100
AcDbEntity
  8
1
  6
Continuous
100
AcDbLine
 10
64.650869
 20
239.086024
 30
0.0
 11
64.657014
 21
239.086024
 31
0.0
  0
ARC
  5
1338
330
12A6
100
AcDbEntity
  8
1
  6
Continuous
100
AcDbCircle
 10
70.873148
 20
236.3436019999999
 30
0.0
 40
2.0
100
AcDbArc
 50
308.24662
 51
0.0
  0
LINE
  5
1339
330
12A6
100
AcDbEntity
  8
1
  6
Continuous
100
AcDbLine
 10
69.373148
 20
262.199092
 30
0.0
 11
72.59489999999998
 21
269.629858
 31
0.0
  0
ARC
  5
133A
330
12A6
100
AcDbEntity
  8
1
  6
Continuous
100
AcDbCircle
 10
57.873148
 20
245.836024
 30
0.0
 40
24.0
100
AcDbArc
 50
64.41699799999999
 51
115.583002
  0
ARC
  5
133B
330
12A6
100
AcDbEntity
  8
1
  6
Continuous
100
AcDbCircle
 10
44.873148
 20
269.328447
 30
0.0
 40
2.0
100
AcDbArc
 50
128.24662
 51
180.0
  0
ARC
  5
133C
330
12A6
100
AcDbEntity
  8
1
  6
Continuous
100
AcDbCircle
 10
48.373148
 20
265.6791589999999
 30
0.0
 40
2.0
100
AcDbArc
 50
115.583002
 51
180.0
  0
LINE
  5
133D
330
12A6
100
AcDbEntity
  8
1
  6
Continuous
100
AcDbLine
 10
46.373148
 20
262.199092
 30
0.0
 11
43.15139600000001
 21
269.629858
 31
0.0
  0
ARC
  5
133E
330
12A6
100
AcDbEntity
  8
1
  6
Continuous
100
AcDbCircle
 10
67.373148
 20
265.6791589999999
 30
0.0
 40
2.0
100
AcDbArc
 50
0.0
 51
64.41699799999999
  0
ARC
  5
133F
330
12A6
100
AcDbEntity
  8
1
  6
Continuous
100
AcDbCircle
 10
70.873148
 20
269.328447
 30
0.0
 40
2.0
100
AcDbArc
 50
0.0
 51
51.75337999999999
  0
LINE
  5
1340
330
12A6
100
AcDbEntity
  8
1
  6
Continuous
100
AcDbLine
 10
239.4926209999999
 20
262.836024
 30
0.0
 11
239.4926209999999
 21
242.8360239999999
 31
0.0
  0
LINE
  5
1341
330
12A6
100
AcDbEntity
  8
1
  6
Continuous
100
AcDbLine
 10
212.342621
 20
265.6431529999999
 30
0.0
 11
212.342621
 21
240.028895
 31
0.0
  0
LINE
  5
1342
330
12A6
100
AcDbEntity
  8
1
  6
Continuous
100
AcDbLine
 10
212.292621
 20
239.836024
 30
0.0
 11
212.292621
 21
265.8360239999999
 31
0.0
  0
LINE
  5
1343
330
12A6
100
AcDbEntity
  8
1
  6
Continuous
100
AcDbLine
 10
220.292621
 20
273.836024
 30
0.0
 11
220.292621
 21
231.836024
 31
0.0
  0
LINE
  5
1344
330
12A6
100
AcDbEntity
  8
1
  6
Continuous
100
AcDbLine
 10
223.7926209999999
 20
275.836024
 30
0.0
 11
223.7926209999999
 21
229.836024
 31
0.0
  0
LINE
  5
1345
330
12A6
100
AcDbEntity
  8
1
  6
Continuous
100
AcDbLine
 10
224.792621
 20
275.836024
 30
0.0
 11
224.792621
 21
229.836024
 31
0.0
  0
LINE
  5
1346
330
12A6
100
AcDbEntity
  8
1
  6
Continuous
100
AcDbLine
 10
196.662759
 20
241.488212
 30
0.0
 11
211.838118
 21
243.415241
 31
0.0
  0
LINE
  5
1347
330
12A6
100
AcDbEntity
  8
1
  6
Continuous
100
AcDbLine
 10
192.353205
 20
237.304035
 30
0.0
 11
212.292621
 21
239.836024
 31
0.0
  0
LINE
  5
1348
330
12A6
100
AcDbEntity
  8
4
  6
CENTER
100
AcDbLine
 10
175.192621
 20
252.836024
 30
0.0
 11
260.1347899999999
 21
252.836024
 31
0.0
  0
LINE
  5
1349
330
12A6
100
AcDbEntity
  8
1
  6
Continuous
100
AcDbLine
 10
186.5860749999999
 20
174.6039419999999
 30
0.0
 11
182.143736
 21
212.627831
 31
0.0
  0
LINE
  5
134A
330
12A6
100
AcDbEntity
  8
1
  6
Continuous
100
AcDbLine
 10
192.2926209999999
 20
236.528043
 30
0.0
 11
192.2926209999999
 21
186.992878
 31
0.0
  0
LINE
  5
134B
330
12A6
100
AcDbEntity
  8
1
  6
Continuous
100
AcDbLine
 10
196.792621
 20
179.17917
 30
0.0
 11
196.792621
 21
177.836024
 31
0.0
  0
ARC
  5
134C
330
12A6
100
AcDbEntity
  8
1
  6
Continuous
100
AcDbCircle
 10
192.792621
 20
179.17917
 30
0.0
 40
4.0
100
AcDbArc
 50
0.0
 51
45.0
  0
ARC
  5
134D
330
12A6
100
AcDbEntity
  8
1
  6
Continuous
100
AcDbCircle
 10
196.292621
 20
186.992878
 30
0.0
 40
4.0
100
AcDbArc
 50
180.0
 51
225.0
  0
LINE
  5
134E
330
12A6
100
AcDbEntity
  8
1
  6
Continuous
100
AcDbLine
 10
195.621049
 20
182.0075969999997
 30
0.0
 11
193.4641939999999
 21
184.164451
 31
0.0
  0
ARC
  5
134F
330
12A6
100
AcDbEntity
  8
1
  6
Continuous
100
AcDbCircle
 10
188.572564
 20
174.836024
 30
0.0
 40
2.0
100
AcDbArc
 50
186.6636699999999
 51
270.0
  0
LINE
  5
1350
330
12A6
100
AcDbEntity
  8
1
  6
Continuous
100
AcDbLine
 10
188.572564
 20
172.836024
 30
0.0
 11
191.792621
 21
172.836024
 31
0.0
  0
ARC
  5
1351
330
12A6
100
AcDbEntity
  8
1
  6
Continuous
100
AcDbCircle
 10
191.792621
 20
177.836024
 30
0.0
 40
5.0
100
AcDbArc
 50
270.0
 51
0.0
  0
ARC
  5
1352
330
12A6
100
AcDbEntity
  8
1
  6
Continuous
100
AcDbCircle
 10
380.792621
 20
235.836024
 30
0.0
 40
200.0
100
AcDbArc
 50
180.0
 51
186.6636699999999
  0
ARC
  5
1353
330
12A6
100
AcDbEntity
  8
1
  6
Continuous
100
AcDbCircle
 10
197.2926209999999
 20
236.528043
 30
0.0
 40
5.0
100
AcDbArc
 50
97.23692200000002
 51
180.0
  0
LINE
  5
1354
330
12A6
100
AcDbEntity
  8
1
  6
Continuous
100
AcDbLine
 10
239.2426209999999
 20
243.086024
 30
0.0
 11
224.792621
 21
243.086024
 31
0.0
  0
LINE
  5
1355
330
12A6
100
AcDbEntity
  8
1
  6
Continuous
100
AcDbLine
 10
220.810718
 20
230.4929069999999
 30
0.0
 11
212.4721459999999
 21
239.693116
 31
0.0
  0
ARC
  5
1356
330
12A6
100
AcDbEntity
  8
1
  6
Continuous
100
AcDbCircle
 10
222.292621
 20
231.836024
 30
0.0
 40
2.0
100
AcDbArc
 50
180.0
 51
270.0
  0
LINE
  5
1357
330
12A6
100
AcDbEntity
  8
1
  6
Continuous
100
AcDbLine
 10
222.292621
 20
229.836024
 30
0.0
 11
224.792621
 21
229.836024
 31
0.0
  0
LINE
  5
1358
330
12A6
100
AcDbEntity
  8
1
  6
Continuous
100
AcDbLine
 10
212.292621
 20
243.836024
 30
0.0
 11
212.342621
 21
243.836024
 31
0.0
  0
ARC
  5
1359
330
12A6
100
AcDbEntity
  8
1
  6
Continuous
100
AcDbCircle
 10
212.842621
 20
240.028895
 30
0.0
 40
0.5
100
AcDbArc
 50
180.0
 51
222.187464
  0
LINE
  5
135A
330
12A6
100
AcDbEntity
  8
1
  6
Continuous
100
AcDbLine
 10
226.2926209999999
 20
233.336024
 30
0.0
 11
226.2926209999999
 21
237.836024
 31
0.0
  0
LINE
  5
135B
330
12A6
100
AcDbEntity
  8
1
  6
Continuous
100
AcDbLine
 10
226.2926209999999
 20
233.336024
 30
0.0
 11
224.792621
 21
233.336024
 31
0.0
  0
LINE
  5
135C
330
12A6
100
AcDbEntity
  8
1
  6
Continuous
100
AcDbLine
 10
226.2926209999999
 20
237.836024
 30
0.0
 11
224.792621
 21
237.836024
 31
0.0
  0
LINE
  5
135D
330
12A6
100
AcDbEntity
  8
1
  6
Continuous
100
AcDbLine
 10
239.2426209999999
 20
243.086024
 30
0.0
 11
239.4926209999999
 21
243.336024
 31
0.0
  0
LINE
  5
135E
330
12A6
100
AcDbEntity
  8
1
  6
Continuous
100
AcDbLine
 10
212.292621
 20
265.8360239999999
 30
0.0
 11
194.063771
 21
269.6265899999999
 31
0.0
  0
LINE
  5
135F
330
12A6
100
AcDbEntity
  8
1
  6
Continuous
100
AcDbLine
 10
211.845973
 20
262.9315
 30
0.0
 11
193.4663159999999
 21
266.753426
 31
0.0
  0
LINE
  5
1360
330
12A6
100
AcDbEntity
  8
1
  6
Continuous
100
AcDbLine
 10
239.2426209999999
 20
262.586024
 30
0.0
 11
224.792621
 21
262.586024
 31
0.0
  0
ARC
  5
1361
330
12A6
100
AcDbEntity
  8
1
  6
Continuous
100
AcDbCircle
 10
222.292621
 20
273.836024
 30
0.0
 40
2.0
100
AcDbArc
 50
90.0
 51
180.0
  0
LINE
  5
1362
330
12A6
100
AcDbEntity
  8
1
  6
Continuous
100
AcDbLine
 10
220.810718
 20
275.179141
 30
0.0
 11
212.4721459999999
 21
265.9789319999998
 31
0.0
  0
ARC
  5
1363
330
12A6
100
AcDbEntity
  8
1
  6
Continuous
100
AcDbCircle
 10
212.842621
 20
265.6431529999999
 30
0.0
 40
0.5
100
AcDbArc
 50
137.812536
 51
180.0
  0
LINE
  5
1364
330
12A6
100
AcDbEntity
  8
1
  6
Continuous
100
AcDbLine
 10
212.342621
 20
264.1860239999999
 30
0.0
 11
212.292621
 21
264.1860239999999
 31
0.0
  0
LINE
  5
1365
330
12A6
100
AcDbEntity
  8
1
  6
Continuous
100
AcDbLine
 10
226.2926209999999
 20
272.336024
 30
0.0
 11
226.2926209999999
 21
267.8360239999999
 31
0.0
  0
LINE
  5
1366
330
12A6
100
AcDbEntity
  8
1
  6
Continuous
100
AcDbLine
 10
226.2926209999999
 20
267.8360239999999
 30
0.0
 11
224.792621
 21
267.8360239999999
 31
0.0
  0
LINE
  5
1367
330
12A6
100
AcDbEntity
  8
1
  6
Continuous
100
AcDbLine
 10
226.2926209999999
 20
272.336024
 30
0.0
 11
224.792621
 21
272.336024
 31
0.0
  0
LINE
  5
1368
330
12A6
100
AcDbEntity
  8
1
  6
Continuous
100
AcDbLine
 10
222.292621
 20
275.836024
 30
0.0
 11
224.792621
 21
275.836024
 31
0.0
  0
LINE
  5
1369
330
12A6
100
AcDbEntity
  8
1
  6
Continuous
100
AcDbLine
 10
239.4926209999999
 20
262.336024
 30
0.0
 11
239.2426209999999
 21
262.586024
 31
0.0
  0
ARC
  5
136A
330
12A6
100
AcDbEntity
  8
1
  6
Continuous
100
AcDbCircle
 10
315.9502969999999
 20
65.500001
 30
0.0
 40
32.055667
100
AcDbArc
 50
166.4692029999999
 51
193.530797
  0
ARC
  5
136B
330
12A6
100
AcDbEntity
  8
1
  6
Continuous
100
AcDbCircle
 10
255.838962
 20
65.500001
 30
0.0
 40
32.055667
100
AcDbArc
 50
346.469203
 51
13.530797
  0
LINE
  5
136C
330
12A6
100
AcDbEntity
  8
1
  6
Continuous
100
AcDbLine
 10
282.394629
 20
87.00000099999998
 30
0.0
 11
282.394629
 21
59.00000099999999
 31
0.0
  0
LINE
  5
136D
330
12A6
100
AcDbEntity
  8
1
  6
Continuous
100
AcDbLine
 10
283.8946289999999
 20
58.000001
 30
0.0
 11
283.8946289999999
 21
88.00000099999998
 31
0.0
  0
LINE
  5
136E
330
12A6
100
AcDbEntity
  8
1
  6
Continuous
100
AcDbLine
 10
287.894629
 20
58.000001
 30
0.0
 11
287.894629
 21
88.00000099999998
 31
0.0
  0
LINE
  5
136F
330
12A6
100
AcDbEntity
  8
1
  6
Continuous
100
AcDbLine
 10
289.394629
 20
59.00000099999999
 30
0.0
 11
289.394629
 21
87.00000099999998
 31
0.0
  0
LINE
  5
1370
330
12A6
100
AcDbEntity
  8
1
  6
Continuous
100
AcDbLine
 10
287.894629
 20
59.00000099999999
 30
0.0
 11
289.394629
 21
59.00000099999999
 31
0.0
  0
LINE
  5
1371
330
12A6
100
AcDbEntity
  8
1
  6
Continuous
100
AcDbLine
 10
289.394629
 20
61.65100699999999
 30
0.0
 11
287.894629
 21
61.65100699999999
 31
0.0
  0
LINE
  5
1372
330
12A6
100
AcDbEntity
  8
1
  6
Continuous
100
AcDbLine
 10
289.394629
 20
60.041671
 30
0.0
 11
287.894629
 21
60.041671
 31
0.0
  0
LINE
  5
1373
330
12A6
100
AcDbEntity
  8
1
  6
Continuous
100
AcDbLine
 10
287.894629
 20
58.000001
 30
0.0
 11
283.8946289999999
 21
58.000001
 31
0.0
  0
LINE
  5
1374
330
12A6
100
AcDbEntity
  8
1
  6
Continuous
100
AcDbLine
 10
282.394629
 20
59.00000099999999
 30
0.0
 11
283.8946289999999
 21
59.00000099999999
 31
0.0
  0
LINE
  5
1375
330
12A6
100
AcDbEntity
  8
4
  6
CENTER
100
AcDbLine
 10
276.894629
 20
73.0
 30
0.0
 11
292.3946289999999
 21
73.0
 31
0.0
  0
LINE
  5
1376
330
12A6
100
AcDbEntity
  8
1
  6
Continuous
100
AcDbLine
 10
287.894629
 20
87.00000099999998
 30
0.0
 11
289.394629
 21
87.00000099999998
 31
0.0
  0
LINE
  5
1377
330
12A6
100
AcDbEntity
  8
1
  6
Continuous
100
AcDbLine
 10
289.394629
 20
85.958331
 30
0.0
 11
287.894629
 21
85.958331
 31
0.0
  0
LINE
  5
1378
330
12A6
100
AcDbEntity
  8
1
  6
Continuous
100
AcDbLine
 10
289.394629
 20
84.34899599999999
 30
0.0
 11
287.894629
 21
84.34899599999999
 31
0.0
  0
LINE
  5
1379
330
12A6
100
AcDbEntity
  8
1
  6
Continuous
100
AcDbLine
 10
287.894629
 20
88.00000099999998
 30
0.0
 11
283.8946289999999
 21
88.00000099999998
 31
0.0
  0
LINE
  5
137A
330
12A6
100
AcDbEntity
  8
1
  6
Continuous
100
AcDbLine
 10
282.394629
 20
87.00000099999998
 30
0.0
 11
283.8946289999999
 21
87.00000099999998
 31
0.0
  0
LINE
  5
137B
330
12A6
100
AcDbEntity
  8
1
  6
Continuous
100
AcDbLine
 10
284.784357
 20
73.0
 30
0.0
 11
287.0049009999997
 21
73.00000099999998
 31
0.0
  0
ARC
  5
137C
330
12A6
100
AcDbEntity
  8
1
  6
Continuous
100
AcDbCircle
 10
315.9502969999999
 20
80.50000099999998
 30
0.0
 40
32.055667
100
AcDbArc
 50
166.4692029999999
 51
193.530797
  0
ARC
  5
137D
330
12A6
100
AcDbEntity
  8
1
  6
Continuous
100
AcDbCircle
 10
255.838962
 20
80.50000099999998
 30
0.0
 40
32.055667
100
AcDbArc
 50
346.469203
 51
13.530797
  0
LINE
  5
137E
330
12A6
100
AcDbEntity
  8
1
  6
Continuous
100
AcDbLine
 10
248.692621
 20
81.0
 30
0.0
 11
248.692621
 21
65.0
 31
0.0
  0
LINE
  5
137F
330
12A6
100
AcDbEntity
  8
1
  6
Continuous
100
AcDbLine
 10
248.692621
 20
65.0
 30
0.0
 11
247.492621
 21
65.0
 31
0.0
  0
LINE
  5
1380
330
12A6
100
AcDbEntity
  8
1
  6
Continuous
100
AcDbLine
 10
253.492621
 20
77.0
 30
0.0
 11
249.9926209999999
 21
77.0
 31
0.0
  0
ARC
  5
1381
330
12A6
100
AcDbEntity
  8
1
  6
Continuous
100
AcDbCircle
 10
247.7176449999999
 20
71.0
 30
0.0
 40
5.774976999999998
100
AcDbArc
 50
339.7375
 51
20.2625
  0
ARC
  5
1382
330
12A6
100
AcDbEntity
  8
1
  6
Continuous
100
AcDbCircle
 10
255.7675979999999
 20
71.0
 30
0.0
 40
5.774976999999998
100
AcDbArc
 50
159.7375
 51
200.2625
  0
LINE
  5
1383
330
12A6
100
AcDbEntity
  8
1
  6
Continuous
100
AcDbLine
 10
253.492621
 20
69.0
 30
0.0
 11
249.9926209999999
 21
69.0
 31
0.0
  0
LINE
  5
1384
330
12A6
100
AcDbEntity
  8
1
  6
Continuous
100
AcDbLine
 10
250.3500009999999
 20
73.0
 30
0.0
 11
253.135242
 21
73.0
 31
0.0
  0
LINE
  5
1385
330
12A6
100
AcDbEntity
  8
1
  6
Continuous
100
AcDbLine
 10
253.492621
 20
77.0
 30
0.0
 11
253.492621
 21
69.0
 31
0.0
  0
ARC
  5
1386
330
12A6
100
AcDbEntity
  8
1
  6
Continuous
100
AcDbCircle
 10
255.7675979999999
 20
75.0
 30
0.0
 40
5.774976999999998
100
AcDbArc
 50
159.7375
 51
200.2625
  0
ARC
  5
1387
330
12A6
100
AcDbEntity
  8
1
  6
Continuous
100
AcDbCircle
 10
247.7176449999999
 20
75.0
 30
0.0
 40
5.774976999999998
100
AcDbArc
 50
339.7375
 51
20.2625
  0
LINE
  5
1388
330
12A6
100
AcDbEntity
  8
1
  6
Continuous
100
AcDbLine
 10
248.692621
 20
81.0
 30
0.0
 11
247.492621
 21
81.0
 31
0.0
  0
LINE
  5
1389
330
12A6
100
AcDbEntity
  8
1
  6
Continuous
100
AcDbLine
 10
249.9926209999999
 20
77.59999999999998
 30
0.0
 11
248.692621
 21
77.59999999999998
 31
0.0
  0
LINE
  5
138A
330
12A6
100
AcDbEntity
  8
1
  6
Continuous
100
AcDbLine
 10
249.9926209999999
 20
74.29999999999998
 30
0.0
 11
248.692621
 21
73.0
 31
0.0
  0
LINE
  5
138B
330
12A6
100
AcDbEntity
  8
1
  6
Continuous
100
AcDbLine
 10
249.9926209999999
 20
68.4
 30
0.0
 11
248.692621
 21
68.4
 31
0.0
  0
LINE
  5
138C
330
12A6
100
AcDbEntity
  8
1
  6
Continuous
100
AcDbLine
 10
249.9926209999999
 20
68.4
 30
0.0
 11
249.9926209999999
 21
77.59999999999998
 31
0.0
  0
LINE
  5
138D
330
12A6
100
AcDbEntity
  8
1
  6
Continuous
100
AcDbLine
 10
249.9926209999999
 20
73.0
 30
0.0
 11
248.692621
 21
71.7
 31
0.0
  0
ARC
  5
138E
330
12A6
100
AcDbEntity
  8
1
  6
Continuous
100
AcDbCircle
 10
245.851576
 20
252.836024
 30
0.0
 40
7.641045
100
AcDbArc
 50
342.4072529999999
 51
17.59274699999998
  0
ARC
  5
138F
330
12A6
100
AcDbEntity
  8
1
  6
Continuous
100
AcDbCircle
 10
257.6336659999999
 20
252.836024
 30
0.0
 40
7.641045
100
AcDbArc
 50
162.407253
 51
197.592747
  0
LINE
  5
1390
330
12A6
100
AcDbEntity
  8
1
  6
Continuous
100
AcDbLine
 10
253.492621
 20
256.8365239999998
 30
0.0
 11
253.492621
 21
248.836524
 31
0.0
  0
ARC
  5
1391
330
12A6
100
AcDbEntity
  8
1
  6
Continuous
100
AcDbCircle
 10
245.302074
 20
252.836024
 30
0.0
 40
42.592555
100
AcDbArc
 50
348.268368
 51
11.731632
  0
ARC
  5
1392
330
12A6
100
AcDbEntity
  8
1
  6
Continuous
100
AcDbCircle
 10
326.487184
 20
252.836024
 30
0.0
 40
42.592555
100
AcDbArc
 50
168.2683679999998
 51
191.7316319999999
  0
LINE
  5
1393
330
12A6
100
AcDbEntity
  8
1
  6
Continuous
100
AcDbLine
 10
287.894629
 20
237.836022
 30
0.0
 11
287.894629
 21
267.836026
 31
0.0
  0
LINE
  5
1394
330
12A6
100
AcDbEntity
  8
1
  6
Continuous
100
AcDbLine
 10
283.8946289999999
 20
237.836024
 30
0.0
 11
283.8946289999999
 21
267.8360239999999
 31
0.0
  0
LINE
  5
1395
330
12A6
100
AcDbEntity
  8
1
  6
Continuous
100
AcDbLine
 10
289.394629
 20
238.836024
 30
0.0
 11
289.394629
 21
266.836024
 31
0.0
  0
LINE
  5
1396
330
12A6
100
AcDbEntity
  8
1
  6
Continuous
100
AcDbLine
 10
282.394629
 20
266.836024
 30
0.0
 11
282.394629
 21
238.836024
 31
0.0
  0
LINE
  5
1397
330
12A6
100
AcDbEntity
  8
1
  6
Continuous
100
AcDbLine
 10
249.9926209999999
 20
254.1360239999999
 30
0.0
 11
248.692621
 21
252.836024
 31
0.0
  0
LINE
  5
1398
330
12A6
100
AcDbEntity
  8
1
  6
Continuous
100
AcDbLine
 10
249.9926209999999
 20
248.2360239999999
 30
0.0
 11
249.9926209999999
 21
257.4360239999999
 31
0.0
  0
LINE
  5
1399
330
12A6
100
AcDbEntity
  8
1
  6
Continuous
100
AcDbLine
 10
248.692621
 20
260.836024
 30
0.0
 11
248.692621
 21
244.8360239999999
 31
0.0
  0
LINE
  5
139A
330
12A6
100
AcDbEntity
  8
4
  6
CENTER
100
AcDbLine
 10
276.894629
 20
252.836024
 30
0.0
 11
292.3946289999999
 21
252.836024
 31
0.0
  0
LINE
  5
139B
330
12A6
100
AcDbEntity
  8
1
  6
Continuous
100
AcDbLine
 10
289.394629
 20
247.106297
 30
0.0
 11
287.894629
 21
247.106297
 31
0.0
  0
LINE
  5
139C
330
12A6
100
AcDbEntity
  8
1
  6
Continuous
100
AcDbLine
 10
289.394629
 20
244.638443
 30
0.0
 11
287.894629
 21
244.638443
 31
0.0
  0
LINE
  5
139D
330
12A6
100
AcDbEntity
  8
1
  6
Continuous
100
AcDbLine
 10
287.0049009999997
 20
244.17577
 30
0.0
 11
284.784357
 21
244.17577
 31
0.0
  0
LINE
  5
139E
330
12A6
100
AcDbEntity
  8
1
  6
Continuous
100
AcDbLine
 10
286.5548839999997
 20
235.5155159999999
 30
0.0
 11
287.8946299999999
 21
237.836024
 31
0.0
  0
LINE
  5
139F
330
12A6
100
AcDbEntity
  8
1
  6
Continuous
100
AcDbLine
 10
285.234375
 20
235.5155159999999
 30
0.0
 11
283.8946289999999
 21
237.836024
 31
0.0
  0
LINE
  5
13A0
330
12A6
100
AcDbEntity
  8
1
  6
Continuous
100
AcDbLine
 10
286.5548839999997
 20
235.5155159999999
 30
0.0
 11
285.234375
 21
235.5155159999999
 31
0.0
  0
LINE
  5
13A1
330
12A6
100
AcDbEntity
  8
1
  6
Continuous
100
AcDbLine
 10
289.394629
 20
238.836024
 30
0.0
 11
287.894629
 21
238.836024
 31
0.0
  0
LINE
  5
13A2
330
12A6
100
AcDbEntity
  8
1
  6
Continuous
100
AcDbLine
 10
287.894629
 20
238.836024
 30
0.0
 11
289.394629
 21
238.836024
 31
0.0
  0
LINE
  5
13A3
330
12A6
100
AcDbEntity
  8
1
  6
Continuous
100
AcDbLine
 10
282.394629
 20
238.836024
 30
0.0
 11
283.8946289999999
 21
238.836024
 31
0.0
  0
ARC
  5
13A4
330
12A6
100
AcDbEntity
  8
1
  6
Continuous
100
AcDbCircle
 10
276.912842
 20
239.845643
 30
0.0
 40
10.98178699999998
100
AcDbArc
 50
346.759553
 51
23.222372
  0
ARC
  5
13A5
330
12A6
100
AcDbEntity
  8
1
  6
Continuous
100
AcDbCircle
 10
294.8764159999999
 20
239.845643
 30
0.0
 40
10.98178699999998
100
AcDbArc
 50
156.7776279999999
 51
193.240431
  0
ARC
  5
13A6
330
12A6
100
AcDbEntity
  8
1
  6
Continuous
100
AcDbCircle
 10
251.447535
 20
249.372524
 30
0.0
 40
2.045087
100
AcDbArc
 50
334.3862009999999
 51
34.386201
  0
LINE
  5
13A7
330
12A6
100
AcDbEntity
  8
1
  6
Continuous
100
AcDbLine
 10
253.492621
 20
248.836524
 30
0.0
 11
253.135242
 21
248.217524
 31
0.0
  0
LINE
  5
13A8
330
12A6
100
AcDbEntity
  8
1
  6
Continuous
100
AcDbLine
 10
249.9926209999999
 20
248.836524
 30
0.0
 11
250.3500009999999
 21
248.217524
 31
0.0
  0
LINE
  5
13A9
330
12A6
100
AcDbEntity
  8
1
  6
Continuous
100
AcDbLine
 10
250.3500009999999
 20
248.217524
 30
0.0
 11
253.135242
 21
248.217524
 31
0.0
  0
LINE
  5
13AA
330
12A6
100
AcDbEntity
  8
1
  6
Continuous
100
AcDbLine
 10
250.3500009999999
 20
250.5265239999999
 30
0.0
 11
253.135242
 21
250.5265239999999
 31
0.0
  0
ARC
  5
13AB
330
12A6
100
AcDbEntity
  8
1
  6
Continuous
100
AcDbCircle
 10
252.037708
 20
249.372524
 30
0.0
 40
2.045087
100
AcDbArc
 50
145.613799
 51
205.613799
  0
LINE
  5
13AC
330
12A6
100
AcDbEntity
  8
1
  6
Continuous
100
AcDbLine
 10
249.9926209999999
 20
252.836024
 30
0.0
 11
248.692621
 21
251.536024
 31
0.0
  0
LINE
  5
13AD
330
12A6
100
AcDbEntity
  8
1
  6
Continuous
100
AcDbLine
 10
249.9926209999999
 20
248.2360239999999
 30
0.0
 11
248.692621
 21
248.2360239999999
 31
0.0
  0
LINE
  5
13AE
330
12A6
100
AcDbEntity
  8
1
  6
Continuous
100
AcDbLine
 10
248.692621
 20
244.8360239999999
 30
0.0
 11
247.492621
 21
244.8360239999999
 31
0.0
  0
LINE
  5
13AF
330
12A6
100
AcDbEntity
  8
1
  6
Continuous
100
AcDbLine
 10
286.5548839999997
 20
270.1565319999999
 30
0.0
 11
287.8946299999999
 21
267.8360239999999
 31
0.0
  0
LINE
  5
13B0
330
12A6
100
AcDbEntity
  8
1
  6
Continuous
100
AcDbLine
 10
285.234375
 20
270.1565319999999
 30
0.0
 11
283.8946289999999
 21
267.8360239999999
 31
0.0
  0
LINE
  5
13B1
330
12A6
100
AcDbEntity
  8
1
  6
Continuous
100
AcDbLine
 10
286.5548839999997
 20
270.1565319999999
 30
0.0
 11
285.234375
 21
270.1565319999999
 31
0.0
  0
LINE
  5
13B2
330
12A6
100
AcDbEntity
  8
1
  6
Continuous
100
AcDbLine
 10
289.394629
 20
266.836024
 30
0.0
 11
287.894629
 21
266.836024
 31
0.0
  0
LINE
  5
13B3
330
12A6
100
AcDbEntity
  8
1
  6
Continuous
100
AcDbLine
 10
287.894629
 20
266.836024
 30
0.0
 11
289.394629
 21
266.836024
 31
0.0
  0
LINE
  5
13B4
330
12A6
100
AcDbEntity
  8
1
  6
Continuous
100
AcDbLine
 10
282.394629
 20
266.836024
 30
0.0
 11
283.8946289999999
 21
266.836024
 31
0.0
  0
LINE
  5
13B5
330
12A6
100
AcDbEntity
  8
1
  6
Continuous
100
AcDbLine
 10
289.394629
 20
261.0336049999999
 30
0.0
 11
287.894629
 21
261.0336049999999
 31
0.0
  0
LINE
  5
13B6
330
12A6
100
AcDbEntity
  8
1
  6
Continuous
100
AcDbLine
 10
287.0049009999997
 20
261.4962779999999
 30
0.0
 11
284.784357
 21
261.4962779999999
 31
0.0
  0
LINE
  5
13B7
330
12A6
100
AcDbEntity
  8
1
  6
Continuous
100
AcDbLine
 10
289.394629
 20
258.5657509999999
 30
0.0
 11
287.894629
 21
258.5657509999999
 31
0.0
  0
ARC
  5
13B8
330
12A6
100
AcDbEntity
  8
1
  6
Continuous
100
AcDbCircle
 10
276.912842
 20
265.8264049999999
 30
0.0
 40
10.98178699999998
100
AcDbArc
 50
336.777628
 51
13.24044699999999
  0
ARC
  5
13B9
330
12A6
100
AcDbEntity
  8
1
  6
Continuous
100
AcDbCircle
 10
294.8764159999999
 20
265.8264049999999
 30
0.0
 40
10.98178699999998
100
AcDbArc
 50
166.7595689999999
 51
203.222372
  0
ARC
  5
13BA
330
12A6
100
AcDbEntity
  8
1
  6
Continuous
100
AcDbCircle
 10
251.447535
 20
256.3005239999998
 30
0.0
 40
2.045087
100
AcDbArc
 50
325.6137989999999
 51
25.61379899999999
  0
LINE
  5
13BB
330
12A6
100
AcDbEntity
  8
1
  6
Continuous
100
AcDbLine
 10
253.492621
 20
256.8365239999998
 30
0.0
 11
253.135242
 21
257.455524
 31
0.0
  0
LINE
  5
13BC
330
12A6
100
AcDbEntity
  8
1
  6
Continuous
100
AcDbLine
 10
250.3500009999999
 20
255.145524
 30
0.0
 11
253.135242
 21
255.145524
 31
0.0
  0
LINE
  5
13BD
330
12A6
100
AcDbEntity
  8
1
  6
Continuous
100
AcDbLine
 10
250.3500009999999
 20
257.455524
 30
0.0
 11
253.135242
 21
257.455524
 31
0.0
  0
ARC
  5
13BE
330
12A6
100
AcDbEntity
  8
1
  6
Continuous
100
AcDbCircle
 10
252.037708
 20
256.3005239999998
 30
0.0
 40
2.045087
100
AcDbArc
 50
154.3862009999998
 51
214.3862009999998
  0
LINE
  5
13BF
330
12A6
100
AcDbEntity
  8
1
  6
Continuous
100
AcDbLine
 10
249.9926209999999
 20
256.8365239999998
 30
0.0
 11
250.3500009999999
 21
257.455524
 31
0.0
  0
LINE
  5
13C0
330
12A6
100
AcDbEntity
  8
1
  6
Continuous
100
AcDbLine
 10
249.9926209999999
 20
257.4360239999999
 30
0.0
 11
248.692621
 21
257.4360239999999
 31
0.0
  0
LINE
  5
13C1
330
12A6
100
AcDbEntity
  8
1
  6
Continuous
100
AcDbLine
 10
248.692621
 20
260.836024
 30
0.0
 11
247.492621
 21
260.836024
 31
0.0
  0
LINE
  5
13C2
330
12A6
100
AcDbEntity
  8
1
  6
Continuous
100
AcDbLine
 10
397.9013719999999
 20
252.836024
 30
0.0
 11
398.116012
 21
253.425745
 31
0.0
  0
LINE
  5
13C3
330
12A6
100
AcDbEntity
  8
1
  6
Continuous
100
AcDbLine
 10
395.9094609999998
 20
252.836024
 30
0.0
 11
395.6948199999999
 21
253.425745
 31
0.0
  0
LINE
  5
13C4
330
12A6
100
AcDbEntity
  8
1
  6
Continuous
100
AcDbLine
 10
392.905416
 20
250.5260240000001
 30
0.0
 11
392.905416
 21
255.145024
 31
0.0
  0
LINE
  5
13C5
330
12A6
100
AcDbEntity
  8
1
  6
Continuous
100
AcDbLine
 10
400.9054159999998
 20
250.5260240000001
 30
0.0
 11
400.9054159999998
 21
255.145024
 31
0.0
  0
CIRCLE
  5
13C6
330
12A6
100
AcDbEntity
  8
1
  6
Continuous
100
AcDbCircle
 10
396.905416
 20
252.836024
 30
0.0
 40
4.0
  0
CIRCLE
  5
13C7
330
12A6
100
AcDbEntity
  8
1
  6
Continuous
100
AcDbCircle
 10
396.905416
 20
252.836024
 30
0.0
 40
3.1
  0
CIRCLE
  5
13C8
330
12A6
100
AcDbEntity
  8
1
  6
Continuous
100
AcDbCircle
 10
396.905416
 20
252.836024
 30
0.0
 40
15.0
  0
CIRCLE
  5
13C9
330
12A6
100
AcDbEntity
  8
1
  6
Continuous
100
AcDbCircle
 10
396.905416
 20
252.836024
 30
0.0
 40
23.0
  0
CIRCLE
  5
13CA
330
12A6
100
AcDbEntity
  8
1
  6
Continuous
100
AcDbCircle
 10
396.905416
 20
252.836024
 30
0.0
 40
9.0
  0
CIRCLE
  5
13CB
330
12A6
100
AcDbEntity
  8
1
  6
Continuous
100
AcDbCircle
 10
396.905416
 20
252.836024
 30
0.0
 40
8.0
  0
ARC
  5
13CC
330
12A6
100
AcDbEntity
  8
1
  6
Continuous
100
AcDbCircle
 10
396.905416
 20
252.836024
 30
0.0
 40
13.0
100
AcDbArc
 50
168.9125109999999
 51
191.087489
  0
ARC
  5
13CD
330
12A6
100
AcDbEntity
  8
1
  6
Continuous
100
AcDbCircle
 10
396.905416
 20
252.836024
 30
0.0
 40
11.3
100
AcDbArc
 50
167.218188
 51
192.7818119999997
  0
LINE
  5
13CE
330
12A6
100
AcDbEntity
  8
1
  6
Continuous
100
AcDbLine
 10
381.905416
 20
244.17577
 30
0.0
 11
381.905416
 21
261.4962779999999
 31
0.0
  0
ARC
  5
13CF
330
12A6
100
AcDbEntity
  8
1
  6
Continuous
100
AcDbCircle
 10
396.905416
 20
252.836024
 30
0.0
 40
14.0
100
AcDbArc
 50
155.841252
 51
204.158748
  0
ARC
  5
13D0
330
12A6
100
AcDbEntity
  8
1
  6
Continuous
100
AcDbCircle
 10
396.905416
 20
252.836024
 30
0.0
 40
13.0
100
AcDbArc
 50
342.079787
 51
17.920213
  0
ARC
  5
13D1
330
12A6
100
AcDbEntity
  8
1
  6
Continuous
100
AcDbCircle
 10
396.905416
 20
252.836024
 30
0.0
 40
11.3
100
AcDbArc
 50
339.2689149999998
 51
20.731085
  0
LINE
  5
13D2
330
12A6
100
AcDbEntity
  8
1
  6
Continuous
100
AcDbLine
 10
411.905416
 20
244.17577
 30
0.0
 11
411.905416
 21
261.4962779999999
 31
0.0
  0
ARC
  5
13D3
330
12A6
100
AcDbEntity
  8
1
  6
Continuous
100
AcDbCircle
 10
396.905416
 20
252.836024
 30
0.0
 40
14.0
100
AcDbArc
 50
335.8412519999999
 51
24.158748
  0
ARC
  5
13D4
330
12A6
100
AcDbEntity
  8
1
  6
Continuous
100
AcDbCircle
 10
396.905416
 20
252.836024
 30
0.0
 40
11.0
100
AcDbArc
 50
297.5801989999999
 51
62.419801
  0
ARC
  5
13D5
330
12A6
100
AcDbEntity
  8
2
  6
Continuous
100
AcDbCircle
 10
396.905416
 20
252.836024
 30
0.0
 40
10.18799999999999
100
AcDbArc
 50
286.8615909999999
 51
73.13840899999998
  0
ARC
  5
13D6
330
12A6
100
AcDbEntity
  8
1
  6
Continuous
100
AcDbCircle
 10
396.905416
 20
252.836024
 30
0.0
 40
11.0
100
AcDbArc
 50
117.5801989999998
 51
242.419801
  0
ARC
  5
13D7
330
12A6
100
AcDbEntity
  8
2
  6
Continuous
100
AcDbCircle
 10
396.905416
 20
252.836024
 30
0.0
 40
10.18799999999999
100
AcDbArc
 50
106.8615909999999
 51
253.1384089999999
  0
LINE
  5
13D8
330
12A6
100
AcDbEntity
  8
4
  6
CENTER
100
AcDbLine
 10
396.905416
 20
280.836024
 30
0.0
 11
396.905416
 21
167.836024
 31
0.0
  0
LINE
  5
13D9
330
12A6
100
AcDbEntity
  8
4
  6
CENTER
100
AcDbLine
 10
424.905416
 20
252.836024
 30
0.0
 11
368.9054159999998
 21
252.836024
 31
0.0
  0
LINE
  5
13DA
330
12A6
100
AcDbEntity
  8
1
  6
Continuous
100
AcDbLine
 10
381.905416
 20
244.17577
 30
0.0
 11
396.905416
 21
235.5155159999999
 31
0.0
  0
ARC
  5
13DB
330
12A6
100
AcDbEntity
  8
1
  6
Continuous
100
AcDbCircle
 10
396.0013589999999
 20
209.707558
 30
0.0
 40
0.6253750000000001
100
AcDbArc
 50
212.8499999999999
 51
222.8699999999999
  0
ARC
  5
13DC
330
12A6
100
AcDbEntity
  8
1
  6
Continuous
100
AcDbCircle
 10
395.8506089999998
 20
209.707558
 30
0.0
 40
0.6253750000000001
100
AcDbArc
 50
317.1304
 51
42.86999999999999
  0
ARC
  5
13DD
330
12A6
100
AcDbEntity
  8
1
  6
Continuous
100
AcDbCircle
 10
395.101359
 20
209.707558
 30
0.0
 40
0.6253750000000001
100
AcDbArc
 50
137.1299999999999
 51
222.8699999999999
  0
ARC
  5
13DE
330
12A6
100
AcDbEntity
  8
1
  6
Continuous
100
AcDbCircle
 10
394.9506069999998
 20
209.707558
 30
0.0
 40
0.6253750000000001
100
AcDbArc
 50
317.1304
 51
327.1503
  0
LINE
  5
13DF
330
12A6
100
AcDbEntity
  8
1
  6
Continuous
100
AcDbLine
 10
401.764568
 20
185.9563239999999
 30
0.0
 11
404.8331169999998
 21
215.2834499999999
 31
0.0
  0
LINE
  5
13E0
330
12A6
100
AcDbEntity
  8
1
  6
Continuous
100
AcDbLine
 10
388.977715
 20
215.2834499999999
 30
0.0
 11
392.046263
 21
185.9563239999999
 31
0.0
  0
LINE
  5
13E1
330
12A6
100
AcDbEntity
  8
1
  6
Continuous
100
AcDbLine
 10
386.4912879999998
 20
215.023291
 30
0.0
 11
390.6766919999999
 21
175.0220139999999
 31
0.0
  0
LINE
  5
13E2
330
12A6
100
AcDbEntity
  8
1
  6
Continuous
100
AcDbLine
 10
403.13414
 20
175.0220139999999
 30
0.0
 11
407.319543
 21
215.023291
 31
0.0
  0
LINE
  5
13E3
330
12A6
100
AcDbEntity
  8
1
  6
Continuous
100
AcDbLine
 10
394.383664
 20
180.836024
 30
0.0
 11
399.427168
 21
180.836024
 31
0.0
  0
LINE
  5
13E4
330
12A6
100
AcDbEntity
  8
1
  6
Continuous
100
AcDbLine
 10
394.0354049999998
 20
184.164451
 30
0.0
 11
399.7754269999999
 21
184.164451
 31
0.0
  0
ARC
  5
13E5
330
12A6
100
AcDbEntity
  8
1
  6
Continuous
100
AcDbCircle
 10
396.905416
 20
197.836024
 30
0.0
 40
25.0
100
AcDbArc
 50
259.3779459999999
 51
280.6220539999998
  0
ARC
  5
13E6
330
12A6
100
AcDbEntity
  8
1
  6
Continuous
100
AcDbCircle
 10
394.383664
 20
182.836024
 30
0.0
 40
2.0
100
AcDbArc
 50
185.9732229999999
 51
270.0
  0
ARC
  5
13E7
330
12A6
100
AcDbEntity
  8
1
  6
Continuous
100
AcDbCircle
 10
394.0354049999998
 20
186.1644509999999
 30
0.0
 40
2.0
100
AcDbArc
 50
185.9732229999999
 51
270.0
  0
ARC
  5
13E8
330
12A6
100
AcDbEntity
  8
1
  6
Continuous
100
AcDbCircle
 10
392.665833
 20
175.230141
 30
0.0
 40
2.0
100
AcDbArc
 50
185.9732229999999
 51
259.3779459999999
  0
ARC
  5
13E9
330
12A6
100
AcDbEntity
  8
1
  6
Continuous
100
AcDbCircle
 10
399.427168
 20
182.836024
 30
0.0
 40
2.0
100
AcDbArc
 50
270.0
 51
354.0267769999999
  0
ARC
  5
13EA
330
12A6
100
AcDbEntity
  8
1
  6
Continuous
100
AcDbCircle
 10
399.7754269999999
 20
186.1644509999999
 30
0.0
 40
2.0
100
AcDbArc
 50
270.0
 51
354.0267769999999
  0
ARC
  5
13EB
330
12A6
100
AcDbEntity
  8
1
  6
Continuous
100
AcDbCircle
 10
401.144998
 20
175.230141
 30
0.0
 40
2.0
100
AcDbArc
 50
280.6220539999998
 51
354.0267769999999
  0
LINE
  5
13EC
330
12A6
100
AcDbEntity
  8
1
  6
Continuous
100
AcDbLine
 10
399.715824
 20
206.08053
 30
0.0
 11
397.6687039999998
 21
205.3232299999999
 31
0.0
  0
LINE
  5
13ED
330
12A6
100
AcDbEntity
  8
1
  6
Continuous
100
AcDbLine
 10
399.712229
 20
206.08053
 30
0.0
 11
397.668709
 21
206.8739799999999
 31
0.0
  0
LINE
  5
13EE
330
12A6
100
AcDbEntity
  8
1
  6
Continuous
100
AcDbLine
 10
398.603499
 20
207.94643
 30
0.0
 11
397.6615089999999
 21
207.94643
 31
0.0
  0
LINE
  5
13EF
330
12A6
100
AcDbEntity
  8
1
  6
Continuous
100
AcDbLine
 10
399.7629489999998
 20
209.34498
 30
0.0
 11
397.6615089999999
 21
209.34498
 31
0.0
  0
LINE
  5
13F0
330
12A6
100
AcDbEntity
  8
1
  6
Continuous
100
AcDbLine
 10
391.744955
 20
188.836024
 30
0.0
 11
402.0658759999998
 21
188.836024
 31
0.0
  0
LINE
  5
13F1
330
12A6
100
AcDbEntity
  8
1
  6
Continuous
100
AcDbLine
 10
391.1171649999998
 20
194.836024
 30
0.0
 11
402.693667
 21
194.836024
 31
0.0
  0
LINE
  5
13F2
330
12A6
100
AcDbEntity
  8
1
  6
Continuous
100
AcDbLine
 10
393.8780269999999
 20
198.836024
 30
0.0
 11
394.3478269999998
 21
198.836024
 31
0.0
  0
ARC
  5
13F3
330
12A6
100
AcDbEntity
  8
1
  6
Continuous
100
AcDbCircle
 10
394.3478269999998
 20
198.196024
 30
0.0
 40
0.6400000000000004
100
AcDbArc
 50
222.7718659999999
 51
90.0
  0
LINE
  5
13F4
330
12A6
100
AcDbEntity
  8
1
  6
Continuous
100
AcDbLine
 10
393.8780269999999
 20
198.836024
 30
0.0
 11
393.8780269999999
 21
196.836024
 31
0.0
  0
LINE
  5
13F5
330
12A6
100
AcDbEntity
  8
1
  6
Continuous
100
AcDbLine
 10
395.3027419999998
 20
197.441224
 30
0.0
 11
396.356242
 21
197.441224
 31
0.0
  0
LINE
  5
13F6
330
12A6
100
AcDbEntity
  8
1
  6
Continuous
100
AcDbLine
 10
395.8382419999999
 20
198.837779
 30
0.0
 11
396.5780919999998
 21
196.837774
 31
0.0
  0
LINE
  5
13F7
330
12A6
100
AcDbEntity
  8
1
  6
Continuous
100
AcDbLine
 10
395.8382419999999
 20
198.8342639999999
 30
0.0
 11
395.062942
 21
196.837774
 31
0.0
  0
LINE
  5
13F8
330
12A6
100
AcDbEntity
  8
1
  6
Continuous
100
AcDbLine
 10
397.4450779999998
 20
198.836024
 30
0.0
 11
397.4450779999998
 21
196.836024
 31
0.0
  0
LINE
  5
13F9
330
12A6
100
AcDbEntity
  8
1
  6
Continuous
100
AcDbLine
 10
396.6610729999999
 20
198.836024
 30
0.0
 11
398.236048
 21
198.836024
 31
0.0
  0
ARC
  5
13FA
330
12A6
100
AcDbEntity
  8
1
  6
Continuous
100
AcDbCircle
 10
395.025984
 20
204.207638
 30
0.0
 40
0.5225300000000001
100
AcDbArc
 50
103.0139999999999
 51
137.1299999999999
  0
ARC
  5
13FB
330
12A6
100
AcDbEntity
  8
1
  6
Continuous
100
AcDbCircle
 10
395.025984
 20
204.067698
 30
0.0
 40
0.5225300000000001
100
AcDbArc
 50
222.8699999999999
 51
317.1304
  0
ARC
  5
13FC
330
12A6
100
AcDbEntity
  8
1
  6
Continuous
100
AcDbCircle
 10
394.9506069999998
 20
204.1376679999999
 30
0.0
 40
0.6253750000000001
100
AcDbArc
 50
317.1304
 51
327.1503
  0
ARC
  5
13FD
330
12A6
100
AcDbEntity
  8
1
  6
Continuous
100
AcDbCircle
 10
395.101359
 20
204.1376679999999
 30
0.0
 40
0.6253750000000001
100
AcDbArc
 50
137.1299999999999
 51
222.8699999999999
  0
ARC
  5
13FE
330
12A6
100
AcDbEntity
  8
1
  6
Continuous
100
AcDbCircle
 10
395.9259839999999
 20
204.207638
 30
0.0
 40
0.5225300000000001
100
AcDbArc
 50
42.86999999999999
 51
108.2079999999999
  0
ARC
  5
13FF
330
12A6
100
AcDbEntity
  8
1
  6
Continuous
100
AcDbCircle
 10
395.9259839999999
 20
204.067698
 30
0.0
 40
0.5225300000000001
100
AcDbArc
 50
222.8699999999999
 51
317.1304
  0
ARC
  5
1400
330
12A6
100
AcDbEntity
  8
1
  6
Continuous
100
AcDbCircle
 10
395.8506089999998
 20
204.1376679999999
 30
0.0
 40
0.6253750000000001
100
AcDbArc
 50
317.1304
 51
42.86999999999999
  0
ARC
  5
1401
330
12A6
100
AcDbEntity
  8
1
  6
Continuous
100
AcDbCircle
 10
396.0013589999999
 20
204.1376679999999
 30
0.0
 40
0.6253750000000001
100
AcDbArc
 50
212.8499999999999
 51
222.8699999999999
  0
LINE
  5
1402
330
12A6
100
AcDbEntity
  8
1
  6
Continuous
100
AcDbLine
 10
395.4759839999999
 20
204.091148
 30
0.0
 11
395.4759839999999
 21
203.7984379999997
 31
0.0
  0
LINE
  5
1403
330
12A6
100
AcDbEntity
  8
1
  6
Continuous
100
AcDbLine
 10
398.2701389999999
 20
206.63483
 30
0.0
 11
398.2701389999999
 21
205.5442799999999
 31
0.0
  0
ARC
  5
1404
330
12A6
100
AcDbEntity
  8
1
  6
Continuous
100
AcDbCircle
 10
395.9259839999999
 20
209.637588
 30
0.0
 40
0.5225300000000001
100
AcDbArc
 50
222.8699999999999
 51
317.1304
  0
ARC
  5
1405
330
12A6
100
AcDbEntity
  8
1
  6
Continuous
100
AcDbCircle
 10
395.025984
 20
209.637588
 30
0.0
 40
0.5225300000000001
100
AcDbArc
 50
222.8699999999999
 51
317.1304
  0
ARC
  5
1406
330
12A6
100
AcDbEntity
  8
1
  6
Continuous
100
AcDbCircle
 10
395.0880839999999
 20
207.8415329999999
 30
0.0
 40
0.62634
100
AcDbArc
 50
225.9269999999999
 51
270.0
  0
ARC
  5
1407
330
12A6
100
AcDbEntity
  8
1
  6
Continuous
100
AcDbCircle
 10
395.8638839999999
 20
207.8415329999999
 30
0.0
 40
0.62634
100
AcDbArc
 50
270.0
 51
314.0724999999998
  0
LINE
  5
1408
330
12A6
100
AcDbEntity
  8
1
  6
Continuous
100
AcDbLine
 10
395.8638839999999
 20
207.215183
 30
0.0
 11
395.0880839999999
 21
207.215183
 31
0.0
  0
ARC
  5
1409
330
12A6
100
AcDbEntity
  8
1
  6
Continuous
100
AcDbCircle
 10
395.0553239999999
 20
207.807683
 30
0.0
 40
0.57924
100
AcDbArc
 50
134.072
 51
225.9269999999999
  0
ARC
  5
140A
330
12A6
100
AcDbEntity
  8
1
  6
Continuous
100
AcDbCircle
 10
395.0880839999999
 20
207.7738329999998
 30
0.0
 40
0.62634
100
AcDbArc
 50
90.0
 51
134.072
  0
ARC
  5
140B
330
12A6
100
AcDbEntity
  8
1
  6
Continuous
100
AcDbCircle
 10
395.8966439999999
 20
207.807683
 30
0.0
 40
0.57924
100
AcDbArc
 50
314.0724999999998
 51
45.92799999999999
  0
ARC
  5
140C
330
12A6
100
AcDbEntity
  8
1
  6
Continuous
100
AcDbCircle
 10
395.8638839999999
 20
207.7738329999998
 30
0.0
 40
0.62634
100
AcDbArc
 50
45.92799999999999
 51
90.0
  0
LINE
  5
140D
330
12A6
100
AcDbEntity
  8
1
  6
Continuous
100
AcDbLine
 10
395.8638839999999
 20
208.400183
 30
0.0
 11
395.0880839999999
 21
208.400183
 31
0.0
  0
LINE
  5
140E
330
12A6
100
AcDbEntity
  8
1
  6
Continuous
100
AcDbLine
 10
395.4759839999999
 20
206.0024809999999
 30
0.0
 11
395.4759839999999
 21
205.375931
 31
0.0
  0
CIRCLE
  5
140F
330
12A6
100
AcDbEntity
  8
1
  6
Continuous
100
AcDbCircle
 10
399.2279429999999
 20
196.876024
 30
0.0
 40
0.04
  0
LINE
  5
1410
330
12A6
100
AcDbEntity
  8
1
  6
Continuous
100
AcDbLine
 10
399.954879
 20
198.836024
 30
0.0
 11
399.954879
 21
196.836024
 31
0.0
  0
LINE
  5
1411
330
12A6
100
AcDbEntity
  8
1
  6
Continuous
100
AcDbLine
 10
399.954879
 20
198.836024
 30
0.0
 11
400.4246799999998
 21
198.836024
 31
0.0
  0
ARC
  5
1412
330
12A6
100
AcDbEntity
  8
1
  6
Continuous
100
AcDbCircle
 10
400.4246799999998
 20
198.196024
 30
0.0
 40
0.6400000000000004
100
AcDbArc
 50
222.7718659999999
 51
90.0
  0
LINE
  5
1413
330
12A6
100
AcDbEntity
  8
1
  6
Continuous
100
AcDbLine
 10
398.603494
 20
207.94643
 30
0.0
 11
399.7788439999998
 21
207.26783
 31
0.0
  0
LINE
  5
1414
330
12A6
100
AcDbEntity
  8
1
  6
Continuous
100
AcDbLine
 10
398.607104
 20
207.94643
 30
0.0
 11
399.777584
 21
208.6201299999999
 31
0.0
  0
ARC
  5
1415
330
12A6
100
AcDbEntity
  8
1
  6
Continuous
100
AcDbCircle
 10
585.4054159999998
 20
235.836024
 30
0.0
 40
200.0
100
AcDbArc
 50
180.8396909999999
 51
185.9732229999999
  0
ARC
  5
1416
330
12A6
100
AcDbEntity
  8
1
  6
Continuous
100
AcDbCircle
 10
208.4054159999999
 20
235.836024
 30
0.0
 40
200.0
100
AcDbArc
 50
354.0267769999999
 51
359.1603089999999
  0
ARC
  5
1417
330
12A6
100
AcDbEntity
  8
1
  6
Continuous
100
AcDbCircle
 10
585.4054159999998
 20
235.836024
 30
0.0
 40
197.5
100
AcDbArc
 50
181.2141259999999
 51
185.9732229999999
  0
ARC
  5
1418
330
12A6
100
AcDbEntity
  8
1
  6
Continuous
100
AcDbCircle
 10
208.4054159999999
 20
235.836024
 30
0.0
 40
197.5
100
AcDbArc
 50
354.0267769999999
 51
358.7858739999999
  0
ARC
  5
1419
330
12A6
100
AcDbEntity
  8
1
  6
Continuous
100
AcDbCircle
 10
398.6407919999999
 20
222.96697
 30
0.0
 40
1.145318999999998
100
AcDbArc
 50
242.2499999999998
 51
324.4619999999998
  0
LINE
  5
141A
330
12A6
100
AcDbEntity
  8
1
  6
Continuous
100
AcDbLine
 10
397.8089479999999
 20
222.963361
 30
0.0
 11
399.6819509999999
 21
222.4608259999999
 31
0.0
  0
LINE
  5
141B
330
12A6
100
AcDbEntity
  8
1
  6
Continuous
100
AcDbLine
 10
399.6759839999999
 20
219.772515
 30
0.0
 11
397.6759839999999
 21
219.772515
 31
0.0
  0
LINE
  5
141C
330
12A6
100
AcDbEntity
  8
1
  6
Continuous
100
AcDbLine
 10
400.101481
 20
224.0785009999999
 30
0.0
 11
397.319044
 21
224.0785009999999
 31
0.0
  0
LINE
  5
141D
330
12A6
100
AcDbEntity
  8
1
  6
Continuous
100
AcDbLine
 10
397.3858079999999
 20
224.5223919999999
 30
0.0
 11
398.6407919999999
 21
224.5223919999999
 31
0.0
  0
LINE
  5
141E
330
12A6
100
AcDbEntity
  8
1
  6
Continuous
100
AcDbLine
 10
398.6407919999999
 20
223.4117629999999
 30
0.0
 11
397.574372
 21
223.4117629999999
 31
0.0
  0
LINE
  5
141F
330
12A6
100
AcDbEntity
  8
1
  6
Continuous
100
AcDbLine
 10
400.1032859999998
 20
224.9671849999999
 30
0.0
 11
397.177396
 21
224.9671849999999
 31
0.0
  0
LINE
  5
1420
330
12A6
100
AcDbEntity
  8
1
  6
Continuous
100
AcDbLine
 10
400.1908009999998
 20
225.4110759999999
 30
0.0
 11
397.0898809999998
 21
225.4110759999999
 31
0.0
  0
LINE
  5
1421
330
12A6
100
AcDbEntity
  8
1
  6
Continuous
100
AcDbLine
 10
400.1908009999998
 20
225.855869
 30
0.0
 11
397.0898809999998
 21
225.855869
 31
0.0
  0
LINE
  5
1422
330
12A6
100
AcDbEntity
  8
1
  6
Continuous
100
AcDbLine
 10
400.15381
 20
226.2997589999999
 30
0.0
 11
397.1268719999998
 21
226.2997589999999
 31
0.0
  0
LINE
  5
1423
330
12A6
100
AcDbEntity
  8
1
  6
Continuous
100
AcDbLine
 10
399.7947279999999
 20
227.189345
 30
0.0
 11
397.485954
 21
227.189345
 31
0.0
  0
ARC
  5
1424
330
12A6
100
AcDbEntity
  8
1
  6
Continuous
100
AcDbCircle
 10
398.6407919999999
 20
228.299975
 30
0.0
 40
1.145318999999998
100
AcDbArc
 50
90.0
 51
144.462
  0
LINE
  5
1425
330
12A6
100
AcDbEntity
  8
1
  6
Continuous
100
AcDbLine
 10
399.736986
 20
227.633236
 30
0.0
 11
397.544598
 21
227.633236
 31
0.0
  0
LINE
  5
1426
330
12A6
100
AcDbEntity
  8
1
  6
Continuous
100
AcDbLine
 10
397.8206769999999
 20
228.078029
 30
0.0
 11
399.4600049999998
 21
228.078029
 31
0.0
  0
LINE
  5
1427
330
12A6
100
AcDbEntity
  8
1
  6
Continuous
100
AcDbLine
 10
399.859687
 20
228.5219199999999
 30
0.0
 11
397.9433779999998
 21
228.5219199999999
 31
0.0
  0
LINE
  5
1428
330
12A6
100
AcDbEntity
  8
1
  6
Continuous
100
AcDbLine
 10
399.7629489999998
 20
214.2652299999999
 30
0.0
 11
397.6615089999999
 21
214.2652299999999
 31
0.0
  0
LINE
  5
1429
330
12A6
100
AcDbEntity
  8
1
  6
Continuous
100
AcDbLine
 10
399.7629489999998
 20
212.9682299999998
 30
0.0
 11
397.6615089999999
 21
212.9682299999998
 31
0.0
  0
LINE
  5
142A
330
12A6
100
AcDbEntity
  8
1
  6
Continuous
100
AcDbLine
 10
399.7629489999998
 20
212.2652299999999
 30
0.0
 11
397.6615089999999
 21
212.2652299999999
 31
0.0
  0
LINE
  5
142B
330
12A6
100
AcDbEntity
  8
1
  6
Continuous
100
AcDbLine
 10
398.312714
 20
209.9246799999999
 30
0.0
 11
397.6759839999999
 21
209.9246799999999
 31
0.0
  0
ARC
  5
142C
330
12A6
100
AcDbEntity
  8
1
  6
Continuous
100
AcDbCircle
 10
398.709044
 20
210.4075799999999
 30
0.0
 40
1.067529999999997
100
AcDbArc
 50
48.932
 51
131.0679999999997
  0
ARC
  5
142D
330
12A6
100
AcDbEntity
  8
1
  6
Continuous
100
AcDbCircle
 10
398.465344
 20
210.6298299999999
 30
0.0
 40
0.72
100
AcDbArc
 50
179.5819999999999
 51
281.6541
  0
ARC
  5
142E
330
12A6
100
AcDbEntity
  8
1
  6
Continuous
100
AcDbCircle
 10
398.7453439999999
 20
215.4559799999999
 30
0.0
 40
1.067529999999997
100
AcDbArc
 50
48.932
 51
131.0679999999997
  0
ARC
  5
142F
330
12A6
100
AcDbEntity
  8
1
  6
Continuous
100
AcDbCircle
 10
398.7347439999999
 20
218.0096849999999
 30
0.0
 40
1.067529999999997
100
AcDbArc
 50
228.932
 51
311.0679
  0
ARC
  5
1430
330
12A6
100
AcDbEntity
  8
1
  6
Continuous
100
AcDbCircle
 10
398.7347439999999
 20
217.5546299999997
 30
0.0
 40
1.067529999999997
100
AcDbArc
 50
48.932
 51
131.0679999999997
  0
ARC
  5
1431
330
12A6
100
AcDbEntity
  8
1
  6
Continuous
100
AcDbCircle
 10
402.373264
 20
225.633923
 30
0.0
 40
5.732929999999998
100
AcDbArc
 50
144.462
 51
215.5379999999999
  0
ARC
  5
1432
330
12A6
100
AcDbEntity
  8
1
  6
Continuous
100
AcDbCircle
 10
398.6407919999999
 20
222.96697
 30
0.0
 40
1.145318999999998
100
AcDbArc
 50
215.5379999999999
 51
225.699
  0
LINE
  5
1433
330
12A6
100
AcDbEntity
  8
1
  6
Continuous
100
AcDbLine
 10
396.4759839999999
 20
219.556525
 30
0.0
 11
394.475984
 21
219.556525
 31
0.0
  0
ARC
  5
1434
330
12A6
100
AcDbEntity
  8
1
  6
Continuous
100
AcDbCircle
 10
402.373264
 20
225.633923
 30
0.0
 40
5.288524999999999
100
AcDbArc
 50
187.793
 51
190.1039999999999
  0
ARC
  5
1435
330
12A6
100
AcDbEntity
  8
1
  6
Continuous
100
AcDbCircle
 10
397.177396
 20
224.922074
 30
0.0
 40
0.044452
100
AcDbArc
 50
90.0
 51
187.793
  0
ARC
  5
1436
330
12A6
100
AcDbEntity
  8
1
  6
Continuous
100
AcDbCircle
 10
397.3858079999999
 20
224.744337
 30
0.0
 40
0.222261
100
AcDbArc
 50
190.1039999999999
 51
270.0
  0
ARC
  5
1437
330
12A6
100
AcDbEntity
  8
1
  6
Continuous
100
AcDbCircle
 10
402.373264
 20
225.633923
 30
0.0
 40
5.288524999999999
100
AcDbArc
 50
153.986
 51
157.056
  0
ARC
  5
1438
330
12A6
100
AcDbEntity
  8
1
  6
Continuous
100
AcDbCircle
 10
397.544598
 20
227.677445
 30
0.0
 40
0.044452
100
AcDbArc
 50
157.056
 51
270.0
  0
LINE
  5
1439
330
12A6
100
AcDbEntity
  8
1
  6
Continuous
100
AcDbLine
 10
397.258596
 20
226.7445519999998
 30
0.0
 11
398.107582
 21
226.7445519999998
 31
0.0
  0
ARC
  5
143A
330
12A6
100
AcDbEntity
  8
1
  6
Continuous
100
AcDbCircle
 10
397.258596
 20
226.7887609999999
 30
0.0
 40
0.044452
100
AcDbArc
 50
167.2709999999999
 51
270.0
  0
ARC
  5
143B
330
12A6
100
AcDbEntity
  8
1
  6
Continuous
100
AcDbCircle
 10
402.373264
 20
225.633923
 30
0.0
 40
5.288524999999999
100
AcDbArc
 50
164.794
 51
167.2709999999999
  0
ARC
  5
143C
330
12A6
100
AcDbEntity
  8
1
  6
Continuous
100
AcDbCircle
 10
402.373264
 20
225.633923
 30
0.0
 40
5.288524999999999
100
AcDbArc
 50
164.7419999999998
 51
164.794
  0
ARC
  5
143D
330
12A6
100
AcDbEntity
  8
1
  6
Continuous
100
AcDbCircle
 10
397.485954
 20
226.9664979999999
 30
0.0
 40
0.222261
100
AcDbArc
 50
90.0
 51
164.7419999999998
  0
ARC
  5
143E
330
12A6
100
AcDbEntity
  8
1
  6
Continuous
100
AcDbCircle
 10
397.8206769999999
 20
227.855182
 30
0.0
 40
0.222261
100
AcDbArc
 50
90.0
 51
153.986
  0
LINE
  5
143F
330
12A6
100
AcDbEntity
  8
1
  6
Continuous
100
AcDbLine
 10
395.081184
 20
216.0920299999999
 30
0.0
 11
395.081184
 21
215.0385299999999
 31
0.0
  0
LINE
  5
1440
330
12A6
100
AcDbEntity
  8
1
  6
Continuous
100
AcDbLine
 10
396.477739
 20
215.5565299999999
 30
0.0
 11
394.4777339999999
 21
214.8166799999999
 31
0.0
  0
ARC
  5
1441
330
12A6
100
AcDbEntity
  8
1
  6
Continuous
100
AcDbCircle
 10
398.308529
 20
215.6004799999998
 30
0.0
 40
0.513145
100
AcDbArc
 50
199.193
 51
264.341
  0
LINE
  5
1442
330
12A6
100
AcDbEntity
  8
1
  6
Continuous
100
AcDbLine
 10
395.4759839999999
 20
213.86978
 30
0.0
 11
395.4759839999999
 21
213.24323
 31
0.0
  0
ARC
  5
1443
330
12A6
100
AcDbEntity
  8
1
  6
Continuous
100
AcDbCircle
 10
398.510779
 20
210.6350799999999
 30
0.0
 40
0.76574
100
AcDbArc
 50
131.0679999999997
 51
186.5909999999999
  0
ARC
  5
1444
330
12A6
100
AcDbEntity
  8
1
  6
Continuous
100
AcDbCircle
 10
395.025984
 20
211.6264999999999
 30
0.0
 40
0.5225300000000001
100
AcDbArc
 50
103.0139999999999
 51
137.1299999999999
  0
ARC
  5
1445
330
12A6
100
AcDbEntity
  8
1
  6
Continuous
100
AcDbCircle
 10
395.025984
 20
211.4865599999999
 30
0.0
 40
0.5225300000000001
100
AcDbArc
 50
222.8699999999999
 51
317.1304
  0
ARC
  5
1446
330
12A6
100
AcDbEntity
  8
1
  6
Continuous
100
AcDbCircle
 10
394.9506069999998
 20
211.5565299999999
 30
0.0
 40
0.6253750000000001
100
AcDbArc
 50
317.1304
 51
327.1503
  0
ARC
  5
1447
330
12A6
100
AcDbEntity
  8
1
  6
Continuous
100
AcDbCircle
 10
395.101359
 20
211.5565299999999
 30
0.0
 40
0.6253750000000001
100
AcDbArc
 50
137.1299999999999
 51
222.8699999999999
  0
ARC
  5
1448
330
12A6
100
AcDbEntity
  8
1
  6
Continuous
100
AcDbCircle
 10
395.9259839999999
 20
211.6264999999999
 30
0.0
 40
0.5225300000000001
100
AcDbArc
 50
42.86999999999999
 51
108.2079999999999
  0
ARC
  5
1449
330
12A6
100
AcDbEntity
  8
1
  6
Continuous
100
AcDbCircle
 10
395.9259839999999
 20
211.4865599999999
 30
0.0
 40
0.5225300000000001
100
AcDbArc
 50
222.8699999999999
 51
317.1304
  0
ARC
  5
144A
330
12A6
100
AcDbEntity
  8
1
  6
Continuous
100
AcDbCircle
 10
395.8506089999998
 20
211.5565299999999
 30
0.0
 40
0.6253750000000001
100
AcDbArc
 50
317.1304
 51
42.86999999999999
  0
ARC
  5
144B
330
12A6
100
AcDbEntity
  8
1
  6
Continuous
100
AcDbCircle
 10
396.0013589999999
 20
211.5565299999999
 30
0.0
 40
0.6253750000000001
100
AcDbArc
 50
212.8499999999999
 51
222.8699999999999
  0
LINE
  5
144C
330
12A6
100
AcDbEntity
  8
1
  6
Continuous
100
AcDbLine
 10
395.4759839999999
 20
211.5100099999999
 30
0.0
 11
395.4759839999999
 21
211.2172999999999
 31
0.0
  0
LINE
  5
144D
330
12A6
100
AcDbEntity
  8
1
  6
Continuous
100
AcDbLine
 10
395.4759839999999
 20
209.6610379999999
 30
0.0
 11
395.4759839999999
 21
209.368328
 31
0.0
  0
ARC
  5
144E
330
12A6
100
AcDbEntity
  8
1
  6
Continuous
100
AcDbCircle
 10
395.9259839999999
 20
209.777528
 30
0.0
 40
0.5225300000000001
100
AcDbArc
 50
42.86999999999999
 51
108.2079999999999
  0
ARC
  5
144F
330
12A6
100
AcDbEntity
  8
1
  6
Continuous
100
AcDbCircle
 10
395.025984
 20
209.777528
 30
0.0
 40
0.5225300000000001
100
AcDbArc
 50
103.0139999999999
 51
137.1299999999999
  0
LINE
  5
1450
330
12A6
100
AcDbEntity
  8
1
  6
Continuous
100
AcDbLine
 10
395.4759839999999
 20
218.1830099999999
 30
0.0
 11
395.4759839999999
 21
216.9300299999999
 31
0.0
  0
LINE
  5
1451
330
12A6
100
AcDbEntity
  8
1
  6
Continuous
100
AcDbLine
 10
396.490939
 20
216.9300299999999
 30
0.0
 11
394.4909339999999
 21
216.9300299999999
 31
0.0
  0
LINE
  5
1452
330
12A6
100
AcDbEntity
  8
1
  6
Continuous
100
AcDbLine
 10
396.4742239999998
 20
215.5565299999999
 30
0.0
 11
394.4777339999999
 21
216.3318299999999
 31
0.0
  0
LINE
  5
1453
330
12A6
100
AcDbEntity
  8
1
  6
Continuous
100
AcDbLine
 10
396.490939
 20
218.1830099999999
 30
0.0
 11
394.4909339999999
 21
218.1830099999999
 31
0.0
  0
ARC
  5
1454
330
12A6
100
AcDbEntity
  8
1
  6
Continuous
100
AcDbCircle
 10
398.5470839999999
 20
215.68353
 30
0.0
 40
0.76574
100
AcDbArc
 50
131.0679999999997
 51
199.193
  0
ARC
  5
1455
330
12A6
100
AcDbEntity
  8
1
  6
Continuous
100
AcDbCircle
 10
398.5364839999999
 20
217.7821549999999
 30
0.0
 40
0.76574
100
AcDbArc
 50
131.0679999999997
 51
228.932
  0
LINE
  5
1456
330
12A6
100
AcDbEntity
  8
1
  6
Continuous
100
AcDbLine
 10
396.4759839999999
 20
220.3405299999999
 30
0.0
 11
396.4759839999999
 21
218.7655549999998
 31
0.0
  0
ARC
  5
1457
330
12A6
100
AcDbEntity
  8
1
  6
Continuous
100
AcDbCircle
 10
394.907418
 20
225.633923
 30
0.0
 40
5.732929999999998
100
AcDbArc
 50
324.4619999999998
 51
35.5377
  0
ARC
  5
1458
330
12A6
100
AcDbEntity
  8
1
  6
Continuous
100
AcDbCircle
 10
398.862738
 20
223.4117629999999
 30
0.0
 40
0.222261
100
AcDbArc
 50
90.0
 51
270.0
  0
LINE
  5
1459
330
12A6
100
AcDbEntity
  8
1
  6
Continuous
100
AcDbLine
 10
398.6407919999999
 20
221.822056
 30
0.0
 11
398.6407919999999
 21
222.740513
 31
0.0
  0
LINE
  5
145A
330
12A6
100
AcDbEntity
  8
1
  6
Continuous
100
AcDbLine
 10
398.862738
 20
223.1889149999997
 30
0.0
 11
399.81187
 21
223.1889149999997
 31
0.0
  0
LINE
  5
145B
330
12A6
100
AcDbEntity
  8
1
  6
Continuous
100
AcDbLine
 10
399.8921669999999
 20
223.633708
 30
0.0
 11
398.862738
 21
223.633708
 31
0.0
  0
LINE
  5
145C
330
12A6
100
AcDbEntity
  8
1
  6
Continuous
100
AcDbLine
 10
399.1740019999999
 20
224.5223919999999
 30
0.0
 11
399.894874
 21
224.5223919999999
 31
0.0
  0
ARC
  5
145D
330
12A6
100
AcDbEntity
  8
1
  6
Continuous
100
AcDbCircle
 10
400.1032859999998
 20
224.922074
 30
0.0
 40
0.044452
100
AcDbArc
 50
352.2069999999998
 51
90.0
  0
ARC
  5
145E
330
12A6
100
AcDbEntity
  8
1
  6
Continuous
100
AcDbCircle
 10
394.907418
 20
225.633923
 30
0.0
 40
5.288524999999999
100
AcDbArc
 50
349.8959999999998
 51
352.2069999999998
  0
ARC
  5
145F
330
12A6
100
AcDbEntity
  8
1
  6
Continuous
100
AcDbCircle
 10
399.894874
 20
224.744337
 30
0.0
 40
0.222261
100
AcDbArc
 50
270.0
 51
349.8959999999998
  0
LINE
  5
1460
330
12A6
100
AcDbEntity
  8
1
  6
Continuous
100
AcDbLine
 10
398.6407919999999
 20
224.5223919999999
 30
0.0
 11
398.6407919999999
 21
224.744337
 31
0.0
  0
ARC
  5
1461
330
12A6
100
AcDbEntity
  8
1
  6
Continuous
100
AcDbCircle
 10
399.7947279999999
 20
226.9664979999999
 30
0.0
 40
0.222261
100
AcDbArc
 50
15.2575
 51
90.0
  0
ARC
  5
1462
330
12A6
100
AcDbEntity
  8
1
  6
Continuous
100
AcDbCircle
 10
394.907418
 20
225.633923
 30
0.0
 40
5.288524999999999
100
AcDbArc
 50
13.2681
 51
15.2575
  0
ARC
  5
1463
330
12A6
100
AcDbEntity
  8
1
  6
Continuous
100
AcDbCircle
 10
394.907418
 20
225.633923
 30
0.0
 40
5.288524999999999
100
AcDbArc
 50
12.7289
 51
13.2681
  0
ARC
  5
1464
330
12A6
100
AcDbEntity
  8
1
  6
Continuous
100
AcDbCircle
 10
400.0220859999997
 20
226.7887609999999
 30
0.0
 40
0.044452
100
AcDbArc
 50
270.0
 51
12.7289
  0
ARC
  5
1465
330
12A6
100
AcDbEntity
  8
1
  6
Continuous
100
AcDbCircle
 10
399.736986
 20
227.677445
 30
0.0
 40
0.044452
100
AcDbArc
 50
270.0
 51
22.94399999999999
  0
ARC
  5
1466
330
12A6
100
AcDbEntity
  8
1
  6
Continuous
100
AcDbCircle
 10
394.907418
 20
225.633923
 30
0.0
 40
5.288524999999999
100
AcDbArc
 50
22.94399999999999
 51
26.0144
  0
ARC
  5
1467
330
12A6
100
AcDbEntity
  8
1
  6
Continuous
100
AcDbCircle
 10
399.4600049999998
 20
227.855182
 30
0.0
 40
0.222261
100
AcDbArc
 50
26.0144
 51
90.0
  0
ARC
  5
1468
330
12A6
100
AcDbEntity
  8
1
  6
Continuous
100
AcDbCircle
 10
398.6407919999999
 20
228.299975
 30
0.0
 40
1.145318999999998
100
AcDbArc
 50
35.5377
 51
76.5374
  0
LINE
  5
1469
330
12A6
100
AcDbEntity
  8
1
  6
Continuous
100
AcDbLine
 10
398.6407919999999
 20
225.855869
 30
0.0
 11
398.6407919999999
 21
226.2997589999999
 31
0.0
  0
LINE
  5
146A
330
12A6
100
AcDbEntity
  8
1
  6
Continuous
100
AcDbLine
 10
399.1740019999999
 20
226.7445519999998
 30
0.0
 11
400.0220859999997
 21
226.7445519999998
 31
0.0
  0
ARC
  5
146B
330
12A6
100
AcDbEntity
  8
1
  6
Continuous
100
AcDbCircle
 10
399.182159
 20
215.6004799999998
 30
0.0
 40
0.513145
100
AcDbArc
 50
275.65924
 51
340.8072
  0
LINE
  5
146C
330
12A6
100
AcDbEntity
  8
1
  6
Continuous
100
AcDbLine
 10
398.7122289999999
 20
214.2652299999999
 30
0.0
 11
398.7122289999999
 21
212.9682299999998
 31
0.0
  0
LINE
  5
146D
330
12A6
100
AcDbEntity
  8
1
  6
Continuous
100
AcDbLine
 10
398.6107889999997
 20
210.62758
 30
0.0
 11
398.6107889999997
 21
209.9246799999999
 31
0.0
  0
ARC
  5
146E
330
12A6
100
AcDbEntity
  8
1
  6
Continuous
100
AcDbCircle
 10
399.1458589999999
 20
210.5520299999998
 30
0.0
 40
0.513145
100
AcDbArc
 50
275.65924
 51
340.8072
  0
ARC
  5
146F
330
12A6
100
AcDbEntity
  8
1
  6
Continuous
100
AcDbCircle
 10
398.907304
 20
210.6350799999999
 30
0.0
 40
0.76574
100
AcDbArc
 50
340.8072
 51
48.932
  0
ARC
  5
1470
330
12A6
100
AcDbEntity
  8
1
  6
Continuous
100
AcDbCircle
 10
398.943604
 20
215.68353
 30
0.0
 40
0.76574
100
AcDbArc
 50
340.8072
 51
48.932
  0
ARC
  5
1471
330
12A6
100
AcDbEntity
  8
1
  6
Continuous
100
AcDbCircle
 10
398.933004
 20
217.7821549999999
 30
0.0
 40
0.76574
100
AcDbArc
 50
311.0679
 51
48.932
  0
LINE
  5
1472
330
12A6
100
AcDbEntity
  8
1
  6
Continuous
100
AcDbLine
 10
399.6759839999999
 20
220.584135
 30
0.0
 11
399.6759839999999
 21
218.953715
 31
0.0
  0
LINE
  5
1473
330
12A6
100
AcDbEntity
  8
1
  6
Continuous
100
AcDbLine
 10
400.9054159999998
 20
250.527024
 30
0.0
 11
396.905416
 21
248.217024
 31
0.0
  0
LINE
  5
1474
330
12A6
100
AcDbEntity
  8
1
  6
Continuous
100
AcDbLine
 10
398.8732689999998
 20
251.462141
 30
0.0
 11
398.116012
 21
252.2463029999999
 31
0.0
  0
ARC
  5
1475
330
12A6
100
AcDbEntity
  8
1
  6
Continuous
100
AcDbCircle
 10
396.905416
 20
252.836024
 30
0.0
 40
2.399999999999999
100
AcDbArc
 50
304.921342
 51
325.078658
  0
ARC
  5
1476
330
12A6
100
AcDbEntity
  8
1
  6
Continuous
100
AcDbCircle
 10
396.905416
 20
252.836024
 30
0.0
 40
11.5
100
AcDbArc
 50
192.555858
 51
339.645594
  0
LINE
  5
1477
330
12A6
100
AcDbEntity
  8
4
  6
CENTER
100
AcDbLine
 10
402.4014369999998
 20
236.836024
 30
0.0
 11
391.9054159999999
 21
236.836024
 31
0.0
  0
ARC
  5
1478
330
12A6
100
AcDbEntity
  8
1
  6
Continuous
100
AcDbCircle
 10
396.905416
 20
236.836024
 30
0.0
 40
3.7
100
AcDbArc
 50
180.0
 51
0.0
  0
ARC
  5
1479
330
12A6
100
AcDbEntity
  8
1
  6
Continuous
100
AcDbCircle
 10
396.905416
 20
252.836024
 30
0.0
 40
10.18799999999999
100
AcDbArc
 50
253.1384089999999
 51
286.8615909999999
  0
ARC
  5
147A
330
12A6
100
AcDbEntity
  8
2
  6
Continuous
100
AcDbCircle
 10
396.905416
 20
252.836024
 30
0.0
 40
11.0
100
AcDbArc
 50
242.419801
 51
297.5801989999999
  0
LINE
  5
147B
330
12A6
100
AcDbEntity
  8
1
  6
Continuous
100
AcDbLine
 10
401.9983029999997
 20
243.086024
 30
0.0
 11
391.8125279999999
 21
243.086024
 31
0.0
  0
ARC
  5
147C
330
12A6
100
AcDbEntity
  8
1
  6
Continuous
100
AcDbCircle
 10
396.905416
 20
236.836024
 30
0.0
 40
3.5
100
AcDbArc
 50
170.4059319999998
 51
9.594068
  0
ARC
  5
147D
330
12A6
100
AcDbEntity
  8
1
  6
Continuous
100
AcDbCircle
 10
396.905416
 20
252.836024
 30
0.0
 40
14.0
100
AcDbArc
 50
215.841252
 51
324.158748
  0
LINE
  5
147E
330
12A6
100
AcDbEntity
  8
1
  6
Continuous
100
AcDbLine
 10
411.905416
 20
244.17577
 30
0.0
 11
396.905416
 21
235.5155159999999
 31
0.0
  0
LINE
  5
147F
330
12A6
100
AcDbEntity
  8
1
  6
Continuous
100
AcDbLine
 10
398.279299
 20
250.8681709999999
 30
0.0
 11
397.4951369999999
 21
251.6254279999999
 31
0.0
  0
LINE
  5
1480
330
12A6
100
AcDbEntity
  8
1
  6
Continuous
100
AcDbLine
 10
397.9013719999999
 20
252.836024
 30
0.0
 11
398.116012
 21
252.2463029999999
 31
0.0
  0
LINE
  5
1481
330
12A6
100
AcDbEntity
  8
1
  6
Continuous
100
AcDbLine
 10
396.905416
 20
251.8400689999999
 30
0.0
 11
397.4951369999999
 21
251.6254279999999
 31
0.0
  0
LINE
  5
1482
330
12A6
100
AcDbEntity
  8
1
  6
Continuous
100
AcDbLine
 10
395.531533
 20
250.8681709999999
 30
0.0
 11
396.315695
 21
251.6254279999999
 31
0.0
  0
LINE
  5
1483
330
12A6
100
AcDbEntity
  8
1
  6
Continuous
100
AcDbLine
 10
395.9094609999998
 20
252.836024
 30
0.0
 11
395.6948199999999
 21
252.2463029999999
 31
0.0
  0
LINE
  5
1484
330
12A6
100
AcDbEntity
  8
1
  6
Continuous
100
AcDbLine
 10
394.937563
 20
251.462141
 30
0.0
 11
395.6948199999999
 21
252.2463029999999
 31
0.0
  0
ARC
  5
1485
330
12A6
100
AcDbEntity
  8
1
  6
Continuous
100
AcDbCircle
 10
396.905416
 20
252.836024
 30
0.0
 40
2.399999999999999
100
AcDbArc
 50
214.921342
 51
235.0786579999998
  0
LINE
  5
1486
330
12A6
100
AcDbEntity
  8
1
  6
Continuous
100
AcDbLine
 10
396.905416
 20
251.8400689999999
 30
0.0
 11
396.315695
 21
251.6254279999999
 31
0.0
  0
LINE
  5
1487
330
12A6
100
AcDbEntity
  8
1
  6
Continuous
100
AcDbLine
 10
392.905416
 20
250.5260240000001
 30
0.0
 11
396.905416
 21
248.217024
 31
0.0
  0
LINE
  5
1488
330
12A6
100
AcDbEntity
  8
1
  6
Continuous
100
AcDbLine
 10
384.1480649999999
 20
250.336024
 30
0.0
 11
385.8854339999999
 21
250.336024
 31
0.0
  0
ARC
  5
1489
330
12A6
100
AcDbEntity
  8
1
  6
Continuous
100
AcDbCircle
 10
385.6470859999999
 20
246.336024
 30
0.0
 40
1.7
100
AcDbArc
 50
153.057137
 51
266.942863
  0
LINE
  5
148A
330
12A6
100
AcDbEntity
  8
1
  6
Continuous
100
AcDbLine
 10
393.205416
 20
236.836024
 30
0.0
 11
393.205416
 21
237.6517119999999
 31
0.0
  0
ARC
  5
148B
330
12A6
100
AcDbEntity
  8
1
  6
Continuous
100
AcDbCircle
 10
393.9473759999998
 20
237.336024
 30
0.0
 40
0.5
100
AcDbArc
 50
161.254793
 51
170.4059319999998
  0
LINE
  5
148C
330
12A6
100
AcDbEntity
  8
1
  6
Continuous
100
AcDbLine
 10
393.405416
 20
235.6360239999999
 30
0.0
 11
393.405416
 21
237.536242
 31
0.0
  0
ARC
  5
148D
330
12A6
100
AcDbEntity
  8
1
  6
Continuous
100
AcDbCircle
 10
396.905416
 20
252.836024
 30
0.0
 40
16.12829999999998
100
AcDbArc
 50
256.737637
 51
257.4665319999999
  0
LINE
  5
148E
330
12A6
100
AcDbEntity
  8
1
  6
Continuous
100
AcDbLine
 10
400.6054159999997
 20
236.836024
 30
0.0
 11
400.6054159999997
 21
237.6517119999999
 31
0.0
  0
ARC
  5
148F
330
12A6
100
AcDbEntity
  8
1
  6
Continuous
100
AcDbCircle
 10
399.8634559999999
 20
237.336024
 30
0.0
 40
0.5
100
AcDbArc
 50
9.594068
 51
18.745207
  0
LINE
  5
1490
330
12A6
100
AcDbEntity
  8
1
  6
Continuous
100
AcDbLine
 10
400.4054159999998
 20
235.6360239999999
 30
0.0
 11
400.4054159999998
 21
237.536242
 31
0.0
  0
ARC
  5
1491
330
12A6
100
AcDbEntity
  8
1
  6
Continuous
100
AcDbCircle
 10
396.905416
 20
252.836024
 30
0.0
 40
16.12829999999998
100
AcDbArc
 50
282.533468
 51
283.262363
  0
LINE
  5
1492
330
12A6
100
AcDbEntity
  8
1
  6
Continuous
100
AcDbLine
 10
407.473765
 20
248.836024
 30
0.0
 11
409.2747329999999
 21
248.836024
 31
0.0
  0
ARC
  5
1493
330
12A6
100
AcDbEntity
  8
1
  6
Continuous
100
AcDbCircle
 10
408.163746
 20
246.336024
 30
0.0
 40
1.7
100
AcDbArc
 50
273.057137
 51
26.942863
  0
LINE
  5
1494
330
12A6
100
AcDbEntity
  8
1
  6
Continuous
100
AcDbLine
 10
396.905416
 20
270.1565319999999
 30
0.0
 11
381.905416
 21
261.4962779999999
 31
0.0
  0
LINE
  5
1495
330
12A6
100
AcDbEntity
  8
1
  6
Continuous
100
AcDbLine
 10
396.905416
 20
257.4550239999999
 30
0.0
 11
400.9054159999998
 21
255.145024
 31
0.0
  0
ARC
  5
1496
330
12A6
100
AcDbEntity
  8
1
  6
Continuous
100
AcDbCircle
 10
396.905416
 20
252.836024
 30
0.0
 40
2.399999999999999
100
AcDbArc
 50
34.92134199999998
 51
55.078658
  0
LINE
  5
1497
330
12A6
100
AcDbEntity
  8
1
  6
Continuous
100
AcDbLine
 10
398.8732689999998
 20
254.2099069999999
 30
0.0
 11
398.116012
 21
253.425745
 31
0.0
  0
ARC
  5
1498
330
12A6
100
AcDbEntity
  8
1
  6
Continuous
100
AcDbCircle
 10
396.905416
 20
252.836024
 30
0.0
 40
11.5
100
AcDbArc
 50
20.354406
 51
167.4441419999999
  0
LINE
  5
1499
330
12A6
100
AcDbEntity
  8
4
  6
CENTER
100
AcDbLine
 10
401.905416
 20
268.836024
 30
0.0
 11
391.4435219999999
 21
268.836024
 31
0.0
  0
ARC
  5
149A
330
12A6
100
AcDbEntity
  8
1
  6
Continuous
100
AcDbCircle
 10
396.905416
 20
268.836024
 30
0.0
 40
3.7
100
AcDbArc
 50
0.0
 51
180.0
  0
ARC
  5
149B
330
12A6
100
AcDbEntity
  8
1
  6
Continuous
100
AcDbCircle
 10
396.905416
 20
252.836024
 30
0.0
 40
10.18799999999999
100
AcDbArc
 50
73.13840899999998
 51
106.8615909999999
  0
ARC
  5
149C
330
12A6
100
AcDbEntity
  8
2
  6
Continuous
100
AcDbCircle
 10
396.905416
 20
252.836024
 30
0.0
 40
11.0
100
AcDbArc
 50
62.419801
 51
117.5801989999998
  0
LINE
  5
149D
330
12A6
100
AcDbEntity
  8
1
  6
Continuous
100
AcDbLine
 10
401.9983029999997
 20
262.586024
 30
0.0
 11
391.8125279999999
 21
262.586024
 31
0.0
  0
ARC
  5
149E
330
12A6
100
AcDbEntity
  8
1
  6
Continuous
100
AcDbCircle
 10
396.905416
 20
268.836024
 30
0.0
 40
3.5
100
AcDbArc
 50
350.405932
 51
189.5940679999999
  0
ARC
  5
149F
330
12A6
100
AcDbEntity
  8
1
  6
Continuous
100
AcDbCircle
 10
396.905416
 20
252.836024
 30
0.0
 40
14.0
100
AcDbArc
 50
35.84125199999999
 51
144.158748
  0
LINE
  5
14A0
330
12A6
100
AcDbEntity
  8
1
  6
Continuous
100
AcDbLine
 10
396.905416
 20
270.1565319999999
 30
0.0
 11
411.905416
 21
261.4962779999999
 31
0.0
  0
ARC
  5
14A1
330
12A6
100
AcDbEntity
  8
1
  6
Continuous
100
AcDbCircle
 10
396.905416
 20
252.836024
 30
0.0
 40
2.399999999999999
100
AcDbArc
 50
124.921342
 51
145.0786579999999
  0
LINE
  5
14A2
330
12A6
100
AcDbEntity
  8
1
  6
Continuous
100
AcDbLine
 10
396.905416
 20
257.4550239999999
 30
0.0
 11
392.905416
 21
255.145024
 31
0.0
  0
LINE
  5
14A3
330
12A6
100
AcDbEntity
  8
1
  6
Continuous
100
AcDbLine
 10
396.905416
 20
253.831979
 30
0.0
 11
397.4951369999999
 21
254.04662
 31
0.0
  0
LINE
  5
14A4
330
12A6
100
AcDbEntity
  8
1
  6
Continuous
100
AcDbLine
 10
396.905416
 20
253.831979
 30
0.0
 11
396.315695
 21
254.04662
 31
0.0
  0
LINE
  5
14A5
330
12A6
100
AcDbEntity
  8
1
  6
Continuous
100
AcDbLine
 10
398.279299
 20
254.803877
 30
0.0
 11
397.4951369999999
 21
254.04662
 31
0.0
  0
LINE
  5
14A6
330
12A6
100
AcDbEntity
  8
1
  6
Continuous
100
AcDbLine
 10
395.531533
 20
254.803877
 30
0.0
 11
396.315695
 21
254.04662
 31
0.0
  0
LINE
  5
14A7
330
12A6
100
AcDbEntity
  8
1
  6
Continuous
100
AcDbLine
 10
394.937563
 20
254.2099069999999
 30
0.0
 11
395.6948199999999
 21
253.425745
 31
0.0
  0
ARC
  5
14A8
330
12A6
100
AcDbEntity
  8
1
  6
Continuous
100
AcDbCircle
 10
385.6470859999999
 20
259.3360239999999
 30
0.0
 40
1.7
100
AcDbArc
 50
93.057137
 51
206.9428629999999
  0
LINE
  5
14A9
330
12A6
100
AcDbEntity
  8
1
  6
Continuous
100
AcDbLine
 10
384.1480649999999
 20
255.3360239999999
 30
0.0
 11
385.8854339999999
 21
255.3360239999999
 31
0.0
  0
LINE
  5
14AA
330
12A6
100
AcDbEntity
  8
1
  6
Continuous
100
AcDbLine
 10
393.205416
 20
268.836024
 30
0.0
 11
393.205416
 21
268.0203359999998
 31
0.0
  0
ARC
  5
14AB
330
12A6
100
AcDbEntity
  8
1
  6
Continuous
100
AcDbCircle
 10
393.9473759999998
 20
268.336024
 30
0.0
 40
0.5
100
AcDbArc
 50
189.5940679999999
 51
198.745207
  0
LINE
  5
14AC
330
12A6
100
AcDbEntity
  8
1
  6
Continuous
100
AcDbLine
 10
393.405416
 20
270.036024
 30
0.0
 11
393.405416
 21
268.1358059999999
 31
0.0
  0
ARC
  5
14AD
330
12A6
100
AcDbEntity
  8
1
  6
Continuous
100
AcDbCircle
 10
396.905416
 20
252.836024
 30
0.0
 40
16.12829999999998
100
AcDbArc
 50
102.533468
 51
103.262363
  0
LINE
  5
14AE
330
12A6
100
AcDbEntity
  8
1
  6
Continuous
100
AcDbLine
 10
400.6054159999997
 20
268.836024
 30
0.0
 11
400.6054159999997
 21
268.0203359999998
 31
0.0
  0
ARC
  5
14AF
330
12A6
100
AcDbEntity
  8
1
  6
Continuous
100
AcDbCircle
 10
399.8634559999999
 20
268.336024
 30
0.0
 40
0.5
100
AcDbArc
 50
341.254793
 51
350.405932
  0
LINE
  5
14B0
330
12A6
100
AcDbEntity
  8
1
  6
Continuous
100
AcDbLine
 10
400.4054159999998
 20
270.036024
 30
0.0
 11
400.4054159999998
 21
268.1358059999999
 31
0.0
  0
ARC
  5
14B1
330
12A6
100
AcDbEntity
  8
1
  6
Continuous
100
AcDbCircle
 10
396.905416
 20
252.836024
 30
0.0
 40
16.12829999999998
100
AcDbArc
 50
76.73763700000002
 51
77.466532
  0
ARC
  5
14B2
330
12A6
100
AcDbEntity
  8
1
  6
Continuous
100
AcDbCircle
 10
408.163746
 20
259.3360239999999
 30
0.0
 40
1.7
100
AcDbArc
 50
333.057137
 51
86.94286299999998
  0
LINE
  5
14B3
330
12A6
100
AcDbEntity
  8
1
  6
Continuous
100
AcDbLine
 10
407.473765
 20
256.836024
 30
0.0
 11
409.2747329999999
 21
256.836024
 31
0.0
  0
LINE
  5
14B4
330
12A6
100
AcDbEntity
  8
1
  6
Continuous
100
AcDbLine
 10
212.47213
 20
378.349189
 30
0.0
 11
182.73446
 21
378.349189
 31
0.0
  0
LINE
  5
14B5
330
12A6
100
AcDbEntity
  8
1
  6
Continuous
100
AcDbLine
 10
212.47213
 20
401.349189
 30
0.0
 11
182.73446
 21
401.349189
 31
0.0
  0
LINE
  5
14B6
330
12A6
100
AcDbEntity
  8
4
  6
CENTER
100
AcDbLine
 10
260.1347899999999
 20
389.849189
 30
0.0
 11
174.6926209999998
 21
389.849189
 31
0.0
  0
LINE
  5
14B7
330
12A6
100
AcDbEntity
  8
1
  6
Continuous
100
AcDbLine
 10
180.6989439999999
 20
382.849189
 30
0.0
 11
180.1955909999998
 21
382.849189
 31
0.0
  0
LINE
  5
14B8
330
12A6
100
AcDbEntity
  8
1
  6
Continuous
100
AcDbLine
 10
181.5901079999999
 20
380.099189
 30
0.0
 11
181.0834299999999
 21
380.099189
 31
0.0
  0
LINE
  5
14B9
330
12A6
100
AcDbEntity
  8
1
  6
Continuous
100
AcDbLine
 10
180.6989439999999
 20
396.849189
 30
0.0
 11
180.1955909999998
 21
396.849189
 31
0.0
  0
LINE
  5
14BA
330
12A6
100
AcDbEntity
  8
1
  6
Continuous
100
AcDbLine
 10
181.5901079999999
 20
399.599189
 30
0.0
 11
181.0834299999999
 21
399.599189
 31
0.0
  0
LINE
  5
14BB
330
12A6
100
AcDbEntity
  8
1
  6
Continuous
100
AcDbLine
 10
220.292621
 20
410.849189
 30
0.0
 11
220.292621
 21
368.849189
 31
0.0
  0
LINE
  5
14BC
330
12A6
100
AcDbEntity
  8
1
  6
Continuous
100
AcDbLine
 10
223.7926209999999
 20
412.849189
 30
0.0
 11
223.7926209999999
 21
366.849189
 31
0.0
  0
LINE
  5
14BD
330
12A6
100
AcDbEntity
  8
1
  6
Continuous
100
AcDbLine
 10
224.792621
 20
412.849189
 30
0.0
 11
224.792621
 21
366.849189
 31
0.0
  0
LINE
  5
14BE
330
12A6
100
AcDbEntity
  8
2
  6
Continuous
100
AcDbLine
 10
237.9926209999999
 20
394.942089
 30
0.0
 11
224.792621
 21
384.7562889999999
 31
0.0
  0
LINE
  5
14BF
330
12A6
100
AcDbEntity
  8
2
  6
Continuous
100
AcDbLine
 10
224.792621
 20
394.942089
 30
0.0
 11
237.9926209999999
 21
384.7562889999999
 31
0.0
  0
LINE
  5
14C0
330
12A6
100
AcDbEntity
  8
1
  6
Continuous
100
AcDbLine
 10
237.9926209999999
 20
384.7562889999999
 30
0.0
 11
224.792621
 21
384.7562889999999
 31
0.0
  0
LINE
  5
14C1
330
12A6
100
AcDbEntity
  8
1
  6
Continuous
100
AcDbLine
 10
237.9926209999999
 20
394.942089
 30
0.0
 11
224.792621
 21
394.942089
 31
0.0
  0
LINE
  5
14C2
330
12A6
100
AcDbEntity
  8
2
  6
Continuous
100
AcDbLine
 10
238.804621
 20
379.6611889999998
 30
0.0
 11
226.692621
 21
379.6611889999998
 31
0.0
  0
LINE
  5
14C3
330
12A6
100
AcDbEntity
  8
2
  6
Continuous
100
AcDbLine
 10
238.804621
 20
400.037189
 30
0.0
 11
226.692621
 21
400.037189
 31
0.0
  0
LINE
  5
14C4
330
12A6
100
AcDbEntity
  8
1
  6
Continuous
100
AcDbLine
 10
237.9926209999999
 20
378.849189
 30
0.0
 11
225.7926209999999
 21
378.849189
 31
0.0
  0
LINE
  5
14C5
330
12A6
100
AcDbEntity
  8
1
  6
Continuous
100
AcDbLine
 10
237.9926209999999
 20
400.849189
 30
0.0
 11
225.7926209999999
 21
400.849189
 31
0.0
  0
LINE
  5
14C6
330
12A6
100
AcDbEntity
  8
1
  6
Continuous
100
AcDbLine
 10
212.292621
 20
378.349189
 30
0.0
 11
212.292621
 21
401.349189
 31
0.0
  0
LINE
  5
14C7
330
12A6
100
AcDbEntity
  8
1
  6
Continuous
100
AcDbLine
 10
212.342621
 20
401.349189
 30
0.0
 11
212.342621
 21
378.349189
 31
0.0
  0
LINE
  5
14C8
330
12A6
100
AcDbEntity
  8
1
  6
Continuous
100
AcDbLine
 10
226.692621
 20
384.7562889999999
 30
0.0
 11
226.692621
 21
378.849189
 31
0.0
  0
LINE
  5
14C9
330
12A6
100
AcDbEntity
  8
1
  6
Continuous
100
AcDbLine
 10
212.47213
 20
378.349189
 30
0.0
 11
220.292621
 21
374.849189
 31
0.0
  0
LINE
  5
14CA
330
12A6
100
AcDbEntity
  8
1
  6
Continuous
100
AcDbLine
 10
222.292621
 20
366.849189
 30
0.0
 11
224.792621
 21
366.849189
 31
0.0
  0
ARC
  5
14CB
330
12A6
100
AcDbEntity
  8
1
  6
Continuous
100
AcDbCircle
 10
222.292621
 20
368.849189
 30
0.0
 40
2.0
100
AcDbArc
 50
180.0
 51
270.0
  0
ARC
  5
14CC
330
12A6
100
AcDbEntity
  8
1
  6
Continuous
100
AcDbCircle
 10
225.7926209999999
 20
377.849189
 30
0.0
 40
1.0
100
AcDbArc
 50
90.0
 51
180.0
  0
LINE
  5
14CD
330
12A6
100
AcDbEntity
  8
2
  6
Continuous
100
AcDbLine
 10
225.2861949999999
 20
378.849189
 30
0.0
 11
226.692621
 21
379.6611889999998
 31
0.0
  0
LINE
  5
14CE
330
12A6
100
AcDbEntity
  8
1
  6
Continuous
100
AcDbLine
 10
212.47213
 20
401.349189
 30
0.0
 11
220.292621
 21
404.849189
 31
0.0
  0
ARC
  5
14CF
330
12A6
100
AcDbEntity
  8
1
  6
Continuous
100
AcDbCircle
 10
225.7926209999999
 20
401.8491889999998
 30
0.0
 40
1.0
100
AcDbArc
 50
180.0
 51
270.0
  0
LINE
  5
14D0
330
12A6
100
AcDbEntity
  8
2
  6
Continuous
100
AcDbLine
 10
225.2861949999999
 20
400.849189
 30
0.0
 11
226.692621
 21
400.037189
 31
0.0
  0
LINE
  5
14D1
330
12A6
100
AcDbEntity
  8
1
  6
Continuous
100
AcDbLine
 10
226.692621
 20
400.849189
 30
0.0
 11
226.692621
 21
394.942089
 31
0.0
  0
LINE
  5
14D2
330
12A6
100
AcDbEntity
  8
1
  6
Continuous
100
AcDbLine
 10
226.2926209999999
 20
392.099189
 30
0.0
 11
224.792621
 21
392.099189
 31
0.0
  0
LINE
  5
14D3
330
12A6
100
AcDbEntity
  8
1
  6
Continuous
100
AcDbLine
 10
226.2926209999999
 20
387.599189
 30
0.0
 11
224.792621
 21
387.599189
 31
0.0
  0
LINE
  5
14D4
330
12A6
100
AcDbEntity
  8
1
  6
Continuous
100
AcDbLine
 10
226.2926209999999
 20
387.599189
 30
0.0
 11
226.2926209999999
 21
392.099189
 31
0.0
  0
LINE
  5
14D5
330
12A6
100
AcDbEntity
  8
1
  6
Continuous
100
AcDbLine
 10
237.9926209999999
 20
384.7562889999999
 30
0.0
 11
237.9926209999999
 21
378.849189
 31
0.0
  0
LINE
  5
14D6
330
12A6
100
AcDbEntity
  8
1
  6
Continuous
100
AcDbLine
 10
239.4926209999999
 20
399.849189
 30
0.0
 11
239.4926209999999
 21
379.849189
 31
0.0
  0
LINE
  5
14D7
330
12A6
100
AcDbEntity
  8
1
  6
Continuous
100
AcDbLine
 10
237.9926209999999
 20
378.849189
 30
0.0
 11
239.4926209999999
 21
380.349189
 31
0.0
  0
ARC
  5
14D8
330
12A6
100
AcDbEntity
  8
1
  6
Continuous
100
AcDbCircle
 10
230.0967439999999
 20
389.849189
 30
0.0
 40
9.395877
100
AcDbArc
 50
327.177679
 51
32.822321
  0
LINE
  5
14D9
330
12A6
100
AcDbEntity
  8
1
  6
Continuous
100
AcDbLine
 10
237.9926209999999
 20
400.849189
 30
0.0
 11
237.9926209999999
 21
394.942089
 31
0.0
  0
LINE
  5
14DA
330
12A6
100
AcDbEntity
  8
1
  6
Continuous
100
AcDbLine
 10
237.9926209999999
 20
400.849189
 30
0.0
 11
239.4926209999999
 21
399.3491890000001
 31
0.0
  0
ARC
  5
14DB
330
12A6
100
AcDbEntity
  8
1
  6
Continuous
100
AcDbCircle
 10
222.292621
 20
410.849189
 30
0.0
 40
2.0
100
AcDbArc
 50
90.0
 51
180.0
  0
LINE
  5
14DC
330
12A6
100
AcDbEntity
  8
1
  6
Continuous
100
AcDbLine
 10
222.292621
 20
412.849189
 30
0.0
 11
224.792621
 21
412.849189
 31
0.0
  0
ARC
  5
14DD
330
12A6
100
AcDbEntity
  8
1
  6
Continuous
100
AcDbCircle
 10
315.9502969999999
 20
382.349189
 30
0.0
 40
32.055667
100
AcDbArc
 50
166.4692029999999
 51
193.530797
  0
ARC
  5
14DE
330
12A6
100
AcDbEntity
  8
1
  6
Continuous
100
AcDbCircle
 10
255.838962
 20
382.349189
 30
0.0
 40
32.055667
100
AcDbArc
 50
346.469203
 51
13.530797
  0
LINE
  5
14DF
330
12A6
100
AcDbEntity
  8
1
  6
Continuous
100
AcDbLine
 10
282.394629
 20
403.849189
 30
0.0
 11
282.394629
 21
375.849189
 31
0.0
  0
LINE
  5
14E0
330
12A6
100
AcDbEntity
  8
1
  6
Continuous
100
AcDbLine
 10
283.8946289999999
 20
374.849189
 30
0.0
 11
283.8946289999999
 21
404.849189
 31
0.0
  0
LINE
  5
14E1
330
12A6
100
AcDbEntity
  8
1
  6
Continuous
100
AcDbLine
 10
287.894629
 20
374.849189
 30
0.0
 11
287.894629
 21
404.849189
 31
0.0
  0
LINE
  5
14E2
330
12A6
100
AcDbEntity
  8
1
  6
Continuous
100
AcDbLine
 10
289.394629
 20
375.849189
 30
0.0
 11
289.394629
 21
403.849189
 31
0.0
  0
LINE
  5
14E3
330
12A6
100
AcDbEntity
  8
1
  6
Continuous
100
AcDbLine
 10
287.894629
 20
374.849189
 30
0.0
 11
283.8946289999999
 21
374.849189
 31
0.0
  0
LINE
  5
14E4
330
12A6
100
AcDbEntity
  8
1
  6
Continuous
100
AcDbLine
 10
282.394629
 20
375.849189
 30
0.0
 11
283.8946289999999
 21
375.849189
 31
0.0
  0
LINE
  5
14E5
330
12A6
100
AcDbEntity
  8
1
  6
Continuous
100
AcDbLine
 10
287.894629
 20
375.849189
 30
0.0
 11
289.394629
 21
375.849189
 31
0.0
  0
LINE
  5
14E6
330
12A6
100
AcDbEntity
  8
1
  6
Continuous
100
AcDbLine
 10
289.394629
 20
378.500195
 30
0.0
 11
287.894629
 21
378.500195
 31
0.0
  0
LINE
  5
14E7
330
12A6
100
AcDbEntity
  8
1
  6
Continuous
100
AcDbLine
 10
289.394629
 20
376.8908589999999
 30
0.0
 11
287.894629
 21
376.8908589999999
 31
0.0
  0
LINE
  5
14E8
330
12A6
100
AcDbEntity
  8
4
  6
CENTER
100
AcDbLine
 10
276.894629
 20
389.849189
 30
0.0
 11
292.3946289999999
 21
389.849189
 31
0.0
  0
LINE
  5
14E9
330
12A6
100
AcDbEntity
  8
1
  6
Continuous
100
AcDbLine
 10
287.894629
 20
404.849189
 30
0.0
 11
283.8946289999999
 21
404.849189
 31
0.0
  0
LINE
  5
14EA
330
12A6
100
AcDbEntity
  8
1
  6
Continuous
100
AcDbLine
 10
282.394629
 20
403.849189
 30
0.0
 11
283.8946289999999
 21
403.849189
 31
0.0
  0
LINE
  5
14EB
330
12A6
100
AcDbEntity
  8
1
  6
Continuous
100
AcDbLine
 10
287.894629
 20
403.849189
 30
0.0
 11
289.394629
 21
403.849189
 31
0.0
  0
LINE
  5
14EC
330
12A6
100
AcDbEntity
  8
1
  6
Continuous
100
AcDbLine
 10
289.394629
 20
402.807519
 30
0.0
 11
287.894629
 21
402.807519
 31
0.0
  0
LINE
  5
14ED
330
12A6
100
AcDbEntity
  8
1
  6
Continuous
100
AcDbLine
 10
289.394629
 20
401.1981839999998
 30
0.0
 11
287.894629
 21
401.1981839999998
 31
0.0
  0
LINE
  5
14EE
330
12A6
100
AcDbEntity
  8
1
  6
Continuous
100
AcDbLine
 10
284.784357
 20
389.849189
 30
0.0
 11
287.0049009999997
 21
389.849189
 31
0.0
  0
ARC
  5
14EF
330
12A6
100
AcDbEntity
  8
1
  6
Continuous
100
AcDbCircle
 10
315.9502969999999
 20
397.349189
 30
0.0
 40
32.055667
100
AcDbArc
 50
166.4692029999999
 51
193.530797
  0
ARC
  5
14F0
330
12A6
100
AcDbEntity
  8
1
  6
Continuous
100
AcDbCircle
 10
255.838962
 20
397.349189
 30
0.0
 40
32.055667
100
AcDbArc
 50
346.469203
 51
13.530797
  0
LINE
  5
14F1
330
12A6
100
AcDbEntity
  8
1
  6
Continuous
100
AcDbLine
 10
248.692621
 20
397.8491879999999
 30
0.0
 11
248.692621
 21
381.8491879999998
 31
0.0
  0
LINE
  5
14F2
330
12A6
100
AcDbEntity
  8
1
  6
Continuous
100
AcDbLine
 10
248.692621
 20
381.8491879999998
 30
0.0
 11
247.492621
 21
381.8491879999998
 31
0.0
  0
LINE
  5
14F3
330
12A6
100
AcDbEntity
  8
1
  6
Continuous
100
AcDbLine
 10
253.492621
 20
393.8491879999999
 30
0.0
 11
249.9926209999999
 21
393.8491879999999
 31
0.0
  0
ARC
  5
14F4
330
12A6
100
AcDbEntity
  8
1
  6
Continuous
100
AcDbCircle
 10
247.7176449999999
 20
387.8491879999998
 30
0.0
 40
5.774976999999998
100
AcDbArc
 50
339.7375
 51
20.2625
  0
ARC
  5
14F5
330
12A6
100
AcDbEntity
  8
1
  6
Continuous
100
AcDbCircle
 10
255.7675979999999
 20
387.8491879999998
 30
0.0
 40
5.774976999999998
100
AcDbArc
 50
159.7375
 51
200.2625
  0
LINE
  5
14F6
330
12A6
100
AcDbEntity
  8
1
  6
Continuous
100
AcDbLine
 10
253.492621
 20
385.8491879999998
 30
0.0
 11
249.9926209999999
 21
385.8491879999998
 31
0.0
  0
LINE
  5
14F7
330
12A6
100
AcDbEntity
  8
1
  6
Continuous
100
AcDbLine
 10
250.3500009999999
 20
389.8491879999999
 30
0.0
 11
253.135242
 21
389.8491879999999
 31
0.0
  0
LINE
  5
14F8
330
12A6
100
AcDbEntity
  8
1
  6
Continuous
100
AcDbLine
 10
253.492621
 20
393.8491879999999
 30
0.0
 11
253.492621
 21
385.8491879999998
 31
0.0
  0
ARC
  5
14F9
330
12A6
100
AcDbEntity
  8
1
  6
Continuous
100
AcDbCircle
 10
255.7675979999999
 20
391.8491879999999
 30
0.0
 40
5.774976999999998
100
AcDbArc
 50
159.7375
 51
200.2625
  0
ARC
  5
14FA
330
12A6
100
AcDbEntity
  8
1
  6
Continuous
100
AcDbCircle
 10
247.7176449999999
 20
391.8491879999999
 30
0.0
 40
5.774976999999998
100
AcDbArc
 50
339.7375
 51
20.2625
  0
LINE
  5
14FB
330
12A6
100
AcDbEntity
  8
1
  6
Continuous
100
AcDbLine
 10
248.692621
 20
397.8491879999999
 30
0.0
 11
247.492621
 21
397.8491879999999
 31
0.0
  0
LINE
  5
14FC
330
12A6
100
AcDbEntity
  8
1
  6
Continuous
100
AcDbLine
 10
249.9926209999999
 20
385.249188
 30
0.0
 11
249.9926209999999
 21
394.449188
 31
0.0
  0
LINE
  5
14FD
330
12A6
100
AcDbEntity
  8
1
  6
Continuous
100
AcDbLine
 10
249.9926209999999
 20
385.249188
 30
0.0
 11
248.692621
 21
385.249188
 31
0.0
  0
LINE
  5
14FE
330
12A6
100
AcDbEntity
  8
1
  6
Continuous
100
AcDbLine
 10
249.9926209999999
 20
394.449188
 30
0.0
 11
248.692621
 21
394.449188
 31
0.0
  0
LINE
  5
14FF
330
12A6
100
AcDbEntity
  8
1
  6
Continuous
100
AcDbLine
 10
249.9926209999999
 20
389.8491879999999
 30
0.0
 11
248.692621
 21
388.549188
 31
0.0
  0
LINE
  5
1500
330
12A6
100
AcDbEntity
  8
1
  6
Continuous
100
AcDbLine
 10
249.9926209999999
 20
391.1491879999999
 30
0.0
 11
248.692621
 21
389.8491879999999
 31
0.0
  0
ARC
  5
1501
330
12A6
100
AcDbEntity
  8
1
  6
Continuous
100
AcDbCircle
 10
240.7926209999998
 20
389.849189
 30
0.0
 40
61.0
100
AcDbArc
 50
173.410558
 51
186.589442
  0
ARC
  5
1502
330
12A6
100
AcDbEntity
  8
1
  6
Continuous
100
AcDbCircle
 10
240.7926209999998
 20
389.849189
 30
0.0
 40
60.5
100
AcDbArc
 50
170.7259399999998
 51
189.2740599999999
  0
ARC
  5
1503
330
12A6
100
AcDbEntity
  8
1
  6
Continuous
100
AcDbCircle
 10
240.7926209999998
 20
389.849189
 30
0.0
 40
60.0
100
AcDbArc
 50
169.7486869999998
 51
170.647965
  0
ARC
  5
1504
330
12A6
100
AcDbEntity
  8
1
  6
Continuous
100
AcDbCircle
 10
182.73446
 20
400.349189
 30
0.0
 40
1.0
100
AcDbArc
 50
90.0
 51
169.7486869999998
  0
ARC
  5
1505
330
12A6
100
AcDbEntity
  8
1
  6
Continuous
100
AcDbCircle
 10
182.73446
 20
379.349189
 30
0.0
 40
1.0
100
AcDbArc
 50
190.2513129999999
 51
270.0
  0
ARC
  5
1506
330
12A6
100
AcDbEntity
  8
1
  6
Continuous
100
AcDbCircle
 10
240.7926209999998
 20
389.849189
 30
0.0
 40
60.0
100
AcDbArc
 50
189.352035
 51
190.2513129999999
  0
ARC
  5
1507
330
12A6
100
AcDbEntity
  8
1
  6
Continuous
100
AcDbCircle
 10
240.7926209999998
 20
72.999989
 30
0.0
 40
60.5
100
AcDbArc
 50
170.7259399999998
 51
189.2740599999999
  0
ARC
  5
1508
330
12A6
100
AcDbEntity
  8
1
  6
Continuous
100
AcDbCircle
 10
240.7926209999998
 20
72.999989
 30
0.0
 40
61.0
100
AcDbArc
 50
173.410558
 51
186.589442
  0
LINE
  5
1509
330
12A6
100
AcDbEntity
  8
1
  6
Continuous
100
AcDbLine
 10
180.6989439999999
 20
65.999989
 30
0.0
 11
180.1955909999998
 21
65.999989
 31
0.0
  0
LINE
  5
150A
330
12A6
100
AcDbEntity
  8
1
  6
Continuous
100
AcDbLine
 10
181.5901079999999
 20
63.249989
 30
0.0
 11
181.0834299999999
 21
63.249989
 31
0.0
  0
LINE
  5
150B
330
12A6
100
AcDbEntity
  8
1
  6
Continuous
100
AcDbLine
 10
180.6989439999999
 20
79.999989
 30
0.0
 11
180.1955909999998
 21
79.999989
 31
0.0
  0
LINE
  5
150C
330
12A6
100
AcDbEntity
  8
1
  6
Continuous
100
AcDbLine
 10
181.5901079999999
 20
82.74998899999998
 30
0.0
 11
181.0834299999999
 21
82.74998899999998
 31
0.0
  0
ARC
  5
150D
330
12A6
100
AcDbEntity
  8
1
  6
Continuous
100
AcDbCircle
 10
240.7926209999998
 20
73.0
 30
0.0
 40
60.0
100
AcDbArc
 50
169.7486979999998
 51
190.251325
  0
ARC
  5
150E
330
12A6
100
AcDbEntity
  8
1
  6
Continuous
100
AcDbCircle
 10
182.7344579999999
 20
83.49998900000001
 30
0.0
 40
1.0
100
AcDbArc
 50
90.0
 51
169.7486979999998
  0
ARC
  5
150F
330
12A6
100
AcDbEntity
  8
1
  6
Continuous
100
AcDbCircle
 10
182.734462
 20
62.499989
 30
0.0
 40
1.0
100
AcDbArc
 50
190.251325
 51
270.0
  0
ARC
  5
1510
330
12A6
100
AcDbEntity
  8
1
  6
Continuous
100
AcDbCircle
 10
240.7926209999998
 20
73.0
 30
0.0
 40
54.0
100
AcDbArc
 50
174.338509
 51
185.661491
  0
ARC
  5
1511
330
12A6
100
AcDbEntity
  8
1
  6
Continuous
100
AcDbCircle
 10
188.051149
 20
78.22849999999998
 30
0.0
 40
1.0
100
AcDbArc
 50
90.0
 51
174.338509
  0
ARC
  5
1512
330
12A6
100
AcDbEntity
  8
1
  6
Continuous
100
AcDbCircle
 10
188.051149
 20
67.7715
 30
0.0
 40
1.0
100
AcDbArc
 50
185.661491
 51
270.0
  0
LINE
  5
1513
330
12A6
100
AcDbEntity
  8
1
  6
Continuous
100
AcDbLine
 10
182.093352
 20
84.267441
 30
0.0
 11
187.3798269999998
 21
78.96966500000002
 31
0.0
  0
LINE
  5
1514
330
12A6
100
AcDbEntity
  8
1
  6
Continuous
100
AcDbLine
 10
182.093352
 20
61.73256
 30
0.0
 11
187.3798269999998
 21
67.03033600000001
 31
0.0
  0
LINE
  5
1515
330
12A6
100
AcDbEntity
  8
1
  6
Continuous
100
AcDbLine
 10
181.5901079999999
 20
267.7663109999999
 30
0.0
 11
181.5901079999999
 21
235.836024
 31
0.0
  0
LINE
  5
1516
330
12A6
100
AcDbEntity
  8
1
  6
Continuous
100
AcDbLine
 10
181.0834299999999
 20
267.7663109999999
 30
0.0
 11
181.0834299999999
 21
235.836024
 31
0.0
  0
LINE
  5
1517
330
12A6
100
AcDbEntity
  8
1
  6
Continuous
100
AcDbLine
 10
180.292621
 20
268.836024
 30
0.0
 11
180.292621
 21
235.836024
 31
0.0
  0
LINE
  5
1518
330
12A6
100
AcDbEntity
  8
1
  6
Continuous
100
AcDbLine
 10
179.7926209999999
 20
244.336024
 30
0.0
 11
180.292621
 21
243.836024
 31
0.0
  0
LINE
  5
1519
330
12A6
100
AcDbEntity
  8
1
  6
Continuous
100
AcDbLine
 10
181.5901079999999
 20
235.836024
 30
0.0
 11
180.292621
 21
235.836024
 31
0.0
  0
LINE
  5
151A
330
12A6
100
AcDbEntity
  8
1
  6
Continuous
100
AcDbLine
 10
180.292621
 20
243.836024
 30
0.0
 11
179.7926209999999
 21
243.336024
 31
0.0
  0
LINE
  5
151B
330
12A6
100
AcDbEntity
  8
1
  6
Continuous
100
AcDbLine
 10
179.7926209999999
 20
243.336024
 30
0.0
 11
180.292621
 21
242.8360239999999
 31
0.0
  0
LINE
  5
151C
330
12A6
100
AcDbEntity
  8
1
  6
Continuous
100
AcDbLine
 10
180.292621
 20
242.8360239999999
 30
0.0
 11
179.7926209999999
 21
242.336024
 31
0.0
  0
LINE
  5
151D
330
12A6
100
AcDbEntity
  8
1
  6
Continuous
100
AcDbLine
 10
179.7926209999999
 20
242.336024
 30
0.0
 11
180.292621
 21
241.836024
 31
0.0
  0
LINE
  5
151E
330
12A6
100
AcDbEntity
  8
1
  6
Continuous
100
AcDbLine
 10
180.292621
 20
241.836024
 30
0.0
 11
179.7926209999999
 21
241.336024
 31
0.0
  0
LINE
  5
151F
330
12A6
100
AcDbEntity
  8
1
  6
Continuous
100
AcDbLine
 10
179.7926209999999
 20
241.336024
 30
0.0
 11
180.292621
 21
240.8360239999999
 31
0.0
  0
LINE
  5
1520
330
12A6
100
AcDbEntity
  8
1
  6
Continuous
100
AcDbLine
 10
180.292621
 20
240.8360239999999
 30
0.0
 11
179.7926209999999
 21
240.336024
 31
0.0
  0
LINE
  5
1521
330
12A6
100
AcDbEntity
  8
1
  6
Continuous
100
AcDbLine
 10
179.7926209999999
 20
240.336024
 30
0.0
 11
180.292621
 21
239.836024
 31
0.0
  0
LINE
  5
1522
330
12A6
100
AcDbEntity
  8
1
  6
Continuous
100
AcDbLine
 10
179.7926209999999
 20
239.336024
 30
0.0
 11
180.292621
 21
238.836024
 31
0.0
  0
LINE
  5
1523
330
12A6
100
AcDbEntity
  8
1
  6
Continuous
100
AcDbLine
 10
180.292621
 20
239.836024
 30
0.0
 11
179.7926209999999
 21
239.336024
 31
0.0
  0
LINE
  5
1524
330
12A6
100
AcDbEntity
  8
1
  6
Continuous
100
AcDbLine
 10
179.7926209999999
 20
249.336024
 30
0.0
 11
180.292621
 21
248.836024
 31
0.0
  0
LINE
  5
1525
330
12A6
100
AcDbEntity
  8
1
  6
Continuous
100
AcDbLine
 10
180.292621
 20
248.836024
 30
0.0
 11
179.7926209999999
 21
248.336024
 31
0.0
  0
LINE
  5
1526
330
12A6
100
AcDbEntity
  8
1
  6
Continuous
100
AcDbLine
 10
179.7926209999999
 20
248.336024
 30
0.0
 11
180.292621
 21
247.836024
 31
0.0
  0
LINE
  5
1527
330
12A6
100
AcDbEntity
  8
1
  6
Continuous
100
AcDbLine
 10
180.292621
 20
247.836024
 30
0.0
 11
179.7926209999999
 21
247.336024
 31
0.0
  0
LINE
  5
1528
330
12A6
100
AcDbEntity
  8
1
  6
Continuous
100
AcDbLine
 10
179.7926209999999
 20
247.336024
 30
0.0
 11
180.292621
 21
246.8360239999999
 31
0.0
  0
LINE
  5
1529
330
12A6
100
AcDbEntity
  8
1
  6
Continuous
100
AcDbLine
 10
180.292621
 20
246.8360239999999
 30
0.0
 11
179.7926209999999
 21
246.336024
 31
0.0
  0
LINE
  5
152A
330
12A6
100
AcDbEntity
  8
1
  6
Continuous
100
AcDbLine
 10
179.7926209999999
 20
246.336024
 30
0.0
 11
180.292621
 21
245.836024
 31
0.0
  0
LINE
  5
152B
330
12A6
100
AcDbEntity
  8
1
  6
Continuous
100
AcDbLine
 10
180.292621
 20
245.836024
 30
0.0
 11
179.7926209999999
 21
245.336024
 31
0.0
  0
LINE
  5
152C
330
12A6
100
AcDbEntity
  8
1
  6
Continuous
100
AcDbLine
 10
179.7926209999999
 20
245.336024
 30
0.0
 11
180.292621
 21
244.8360239999999
 31
0.0
  0
LINE
  5
152D
330
12A6
100
AcDbEntity
  8
1
  6
Continuous
100
AcDbLine
 10
180.292621
 20
244.8360239999999
 30
0.0
 11
179.7926209999999
 21
244.336024
 31
0.0
  0
LINE
  5
152E
330
12A6
100
AcDbEntity
  8
1
  6
Continuous
100
AcDbLine
 10
180.292621
 20
250.836024
 30
0.0
 11
179.7926209999999
 21
250.336024
 31
0.0
  0
LINE
  5
152F
330
12A6
100
AcDbEntity
  8
1
  6
Continuous
100
AcDbLine
 10
179.7926209999999
 20
250.336024
 30
0.0
 11
180.292621
 21
249.836024
 31
0.0
  0
LINE
  5
1530
330
12A6
100
AcDbEntity
  8
1
  6
Continuous
100
AcDbLine
 10
180.292621
 20
249.836024
 30
0.0
 11
179.7926209999999
 21
249.336024
 31
0.0
  0
LINE
  5
1531
330
12A6
100
AcDbEntity
  8
1
  6
Continuous
100
AcDbLine
 10
182.9050159999999
 20
266.901399
 30
0.0
 11
192.0278889999999
 21
266.901399
 31
0.0
  0
LINE
  5
1532
330
12A6
100
AcDbEntity
  8
1
  6
Continuous
100
AcDbLine
 10
181.292621
 20
269.8360239999999
 30
0.0
 11
192.0278889999999
 21
269.8360239999999
 31
0.0
  0
ARC
  5
1533
330
12A6
100
AcDbEntity
  8
1
  6
Continuous
100
AcDbCircle
 10
181.292621
 20
268.836024
 30
0.0
 40
1.0
100
AcDbArc
 50
90.0
 51
180.0
  0
LINE
  5
1534
330
12A6
100
AcDbEntity
  8
1
  6
Continuous
100
AcDbLine
 10
181.5901079999999
 20
267.7663109999999
 30
0.0
 11
182.113953
 21
266.933385
 31
0.0
  0
LINE
  5
1535
330
12A6
100
AcDbEntity
  8
1
  6
Continuous
100
AcDbLine
 10
181.0834299999999
 20
267.7663109999999
 30
0.0
 11
180.913055
 21
269.2462259999999
 31
0.0
  0
LINE
  5
1536
330
12A6
100
AcDbEntity
  8
1
  6
Continuous
100
AcDbLine
 10
181.0834299999999
 20
267.7663109999999
 30
0.0
 11
181.5901079999999
 21
267.7663109999999
 31
0.0
  0
ARC
  5
1537
330
12A6
100
AcDbEntity
  8
1
  6
Continuous
100
AcDbCircle
 10
182.9050159999999
 20
265.901399
 30
0.0
 40
1.0
100
AcDbArc
 50
90.0
 51
180.0
  0
ARC
  5
1538
330
12A6
100
AcDbEntity
  8
1
  6
Continuous
100
AcDbCircle
 10
192.0278889999999
 20
259.836024
 30
0.0
 40
7.065374
100
AcDbArc
 50
78.253134
 51
90.0
  0
ARC
  5
1539
330
12A6
100
AcDbEntity
  8
1
  6
Continuous
100
AcDbCircle
 10
192.0278889999999
 20
259.836024
 30
0.0
 40
10.0
100
AcDbArc
 50
78.253134
 51
90.0
  0
LINE
  5
153A
330
12A6
100
AcDbEntity
  8
1
  6
Continuous
100
AcDbLine
 10
64.801351
 20
238.836024
 30
0.0
 11
57.873148
 21
250.836024
 31
0.0
  0
ARC
  5
153B
330
12A6
100
AcDbEntity
  8
1
  6
Continuous
100
AcDbCircle
 10
48.623148
 20
236.336024
 30
0.0
 40
0.5
100
AcDbArc
 50
180.0
 51
270.0
  0
ARC
  5
153C
330
12A6
100
AcDbEntity
  8
1
  6
Continuous
100
AcDbCircle
 10
67.123148
 20
236.336024
 30
0.0
 40
0.5
100
AcDbArc
 50
270.0
 51
0.0
  0
LINE
  5
153D
330
12A6
100
AcDbEntity
  8
1
  6
Continuous
100
AcDbLine
 10
247.492621
 20
63.5
 30
0.0
 11
247.492621
 21
82.5
 31
0.0
  0
LINE
  5
153E
330
12A6
100
AcDbEntity
  8
1
  6
Continuous
100
AcDbLine
 10
246.992621
 20
63.0
 30
0.0
 11
239.4926209999999
 21
63.0
 31
0.0
  0
ARC
  5
153F
330
12A6
100
AcDbEntity
  8
1
  6
Continuous
100
AcDbCircle
 10
246.992621
 20
63.5
 30
0.0
 40
0.5
100
AcDbArc
 50
270.0
 51
0.0
  0
LINE
  5
1540
330
12A6
100
AcDbEntity
  8
1
  6
Continuous
100
AcDbLine
 10
246.992621
 20
83.0
 30
0.0
 11
239.4926209999999
 21
83.0
 31
0.0
  0
ARC
  5
1541
330
12A6
100
AcDbEntity
  8
1
  6
Continuous
100
AcDbCircle
 10
246.992621
 20
82.5
 30
0.0
 40
0.5
100
AcDbArc
 50
0.0
 51
90.0
  0
LINE
  5
1542
330
12A6
100
AcDbEntity
  8
1
  6
Continuous
100
AcDbLine
 10
247.492621
 20
243.336024
 30
0.0
 11
247.492621
 21
262.336024
 31
0.0
  0
LINE
  5
1543
330
12A6
100
AcDbEntity
  8
1
  6
Continuous
100
AcDbLine
 10
246.992621
 20
242.8360239999999
 30
0.0
 11
239.4926209999999
 21
242.8360239999999
 31
0.0
  0
ARC
  5
1544
330
12A6
100
AcDbEntity
  8
1
  6
Continuous
100
AcDbCircle
 10
246.992621
 20
243.336024
 30
0.0
 40
0.5
100
AcDbArc
 50
270.0
 51
0.0
  0
LINE
  5
1545
330
12A6
100
AcDbEntity
  8
1
  6
Continuous
100
AcDbLine
 10
246.992621
 20
262.836024
 30
0.0
 11
239.4926209999999
 21
262.836024
 31
0.0
  0
ARC
  5
1546
330
12A6
100
AcDbEntity
  8
1
  6
Continuous
100
AcDbCircle
 10
246.992621
 20
262.336024
 30
0.0
 40
0.5
100
AcDbArc
 50
0.0
 51
90.0
  0
LINE
  5
1547
330
12A6
100
AcDbEntity
  8
1
  6
Continuous
100
AcDbLine
 10
247.492621
 20
380.349189
 30
0.0
 11
247.492621
 21
399.3491890000001
 31
0.0
  0
LINE
  5
1548
330
12A6
100
AcDbEntity
  8
1
  6
Continuous
100
AcDbLine
 10
246.992621
 20
379.849189
 30
0.0
 11
239.4926209999999
 21
379.849189
 31
0.0
  0
ARC
  5
1549
330
12A6
100
AcDbEntity
  8
1
  6
Continuous
100
AcDbCircle
 10
246.992621
 20
380.349189
 30
0.0
 40
0.5
100
AcDbArc
 50
270.0
 51
0.0
  0
LINE
  5
154A
330
12A6
100
AcDbEntity
  8
1
  6
Continuous
100
AcDbLine
 10
246.992621
 20
399.849189
 30
0.0
 11
239.4926209999999
 21
399.849189
 31
0.0
  0
ARC
  5
154B
330
12A6
100
AcDbEntity
  8
1
  6
Continuous
100
AcDbCircle
 10
246.992621
 20
399.3491890000001
 30
0.0
 40
0.5
100
AcDbArc
 50
0.0
 51
90.0
  0
LINE
  5
154C
330
12A6
100
AcDbEntity
  8
1
  6
Continuous
100
AcDbLine
 10
573.0001150000001
 20
275.179141
 30
0.0
 11
581.3386870000001
 21
265.9789319999998
 31
0.0
  0
LINE
  5
154D
330
12A6
100
AcDbEntity
  8
1
  6
Continuous
100
AcDbLine
 10
573.5182120000001
 20
273.836024
 30
0.0
 11
573.5182120000001
 21
231.836024
 31
0.0
  0
LINE
  5
154E
330
12A6
100
AcDbEntity
  8
1
  6
Continuous
100
AcDbLine
 10
570.018212
 20
275.836024
 30
0.0
 11
570.018212
 21
229.836024
 31
0.0
  0
LINE
  5
154F
330
12A6
100
AcDbEntity
  8
1
  6
Continuous
100
AcDbLine
 10
569.0182120000002
 20
275.836024
 30
0.0
 11
569.0182120000002
 21
229.836024
 31
0.0
  0
LINE
  5
1550
330
12A6
100
AcDbEntity
  8
1
  6
Continuous
100
AcDbLine
 10
607.2247579999998
 20
174.6039419999999
 30
0.0
 11
611.667097
 21
212.627831
 31
0.0
  0
LINE
  5
1551
330
12A6
100
AcDbEntity
  8
1
  6
Continuous
100
AcDbLine
 10
601.5182119999998
 20
236.528043
 30
0.0
 11
601.5182119999998
 21
186.992878
 31
0.0
  0
LINE
  5
1552
330
12A6
100
AcDbEntity
  8
1
  6
Continuous
100
AcDbLine
 10
598.189784
 20
182.0075969999997
 30
0.0
 11
600.3466389999998
 21
184.164451
 31
0.0
  0
ARC
  5
1553
330
12A6
100
AcDbEntity
  8
1
  6
Continuous
100
AcDbCircle
 10
602.0182120000002
 20
177.836024
 30
0.0
 40
5.0
100
AcDbArc
 50
180.0
 51
270.0
  0
ARC
  5
1554
330
12A6
100
AcDbEntity
  8
1
  6
Continuous
100
AcDbCircle
 10
605.2382689999998
 20
174.836024
 30
0.0
 40
2.0
100
AcDbArc
 50
270.0
 51
353.3363299999999
  0
LINE
  5
1555
330
12A6
100
AcDbEntity
  8
1
  6
Continuous
100
AcDbLine
 10
605.2382689999998
 20
172.836024
 30
0.0
 11
602.0182120000002
 21
172.836024
 31
0.0
  0
ARC
  5
1556
330
12A6
100
AcDbEntity
  8
1
  6
Continuous
100
AcDbCircle
 10
597.5182119999998
 20
186.992878
 30
0.0
 40
4.0
100
AcDbArc
 50
315.0
 51
0.0
  0
ARC
  5
1557
330
12A6
100
AcDbEntity
  8
1
  6
Continuous
100
AcDbCircle
 10
601.0182119999998
 20
179.17917
 30
0.0
 40
4.0
100
AcDbArc
 50
135.0
 51
180.0
  0
LINE
  5
1558
330
12A6
100
AcDbEntity
  8
1
  6
Continuous
100
AcDbLine
 10
597.0182119999998
 20
179.17917
 30
0.0
 11
597.0182119999998
 21
177.836024
 31
0.0
  0
LINE
  5
1559
330
12A6
100
AcDbEntity
  8
4
  6
CENTER
100
AcDbLine
 10
618.6182119999996
 20
252.836024
 30
0.0
 11
535.7801229999997
 21
252.836024
 31
0.0
  0
LINE
  5
155A
330
12A6
100
AcDbEntity
  8
1
  6
Continuous
100
AcDbLine
 10
581.5182120000002
 20
265.8360239999999
 30
0.0
 11
599.747062
 21
269.6265899999999
 31
0.0
  0
LINE
  5
155B
330
12A6
100
AcDbEntity
  8
1
  6
Continuous
100
AcDbLine
 10
581.9648599999998
 20
262.9315
 30
0.0
 11
600.3445169999999
 21
266.753426
 31
0.0
  0
LINE
  5
155C
330
12A6
100
AcDbEntity
  8
1
  6
Continuous
100
AcDbLine
 10
597.1480739999998
 20
241.488212
 30
0.0
 11
581.972715
 21
243.415241
 31
0.0
  0
LINE
  5
155D
330
12A6
100
AcDbEntity
  8
1
  6
Continuous
100
AcDbLine
 10
601.4576279999999
 20
237.304035
 30
0.0
 11
581.5182120000002
 21
239.836024
 31
0.0
  0
ARC
  5
155E
330
12A6
100
AcDbEntity
  8
1
  6
Continuous
100
AcDbCircle
 10
413.0182119999998
 20
235.836024
 30
0.0
 40
200.0
100
AcDbArc
 50
353.3363299999999
 51
0.0
  0
LINE
  5
155F
330
12A6
100
AcDbEntity
  8
1
  6
Continuous
100
AcDbLine
 10
612.220725
 20
267.7663109999999
 30
0.0
 11
612.220725
 21
235.836024
 31
0.0
  0
LINE
  5
1560
330
12A6
100
AcDbEntity
  8
1
  6
Continuous
100
AcDbLine
 10
612.7274029999997
 20
267.7663109999999
 30
0.0
 11
612.7274029999997
 21
235.836024
 31
0.0
  0
LINE
  5
1561
330
12A6
100
AcDbEntity
  8
1
  6
Continuous
100
AcDbLine
 10
613.5182119999998
 20
268.836024
 30
0.0
 11
613.5182119999998
 21
235.836024
 31
0.0
  0
ARC
  5
1562
330
12A6
100
AcDbEntity
  8
1
  6
Continuous
100
AcDbCircle
 10
596.5182119999998
 20
236.528043
 30
0.0
 40
5.0
100
AcDbArc
 50
0.0
 51
82.76307799999996
  0
LINE
  5
1563
330
12A6
100
AcDbEntity
  8
1
  6
Continuous
100
AcDbLine
 10
614.0182119999998
 20
241.336024
 30
0.0
 11
613.5182119999998
 21
240.8360239999999
 31
0.0
  0
LINE
  5
1564
330
12A6
100
AcDbEntity
  8
1
  6
Continuous
100
AcDbLine
 10
612.220725
 20
235.836024
 30
0.0
 11
613.5182119999998
 21
235.836024
 31
0.0
  0
LINE
  5
1565
330
12A6
100
AcDbEntity
  8
1
  6
Continuous
100
AcDbLine
 10
613.5182119999998
 20
240.8360239999999
 30
0.0
 11
614.0182119999998
 21
240.336024
 31
0.0
  0
LINE
  5
1566
330
12A6
100
AcDbEntity
  8
1
  6
Continuous
100
AcDbLine
 10
614.0182119999998
 20
240.336024
 30
0.0
 11
613.5182119999998
 21
239.836024
 31
0.0
  0
LINE
  5
1567
330
12A6
100
AcDbEntity
  8
1
  6
Continuous
100
AcDbLine
 10
614.0182119999998
 20
239.336024
 30
0.0
 11
613.5182119999998
 21
238.836024
 31
0.0
  0
LINE
  5
1568
330
12A6
100
AcDbEntity
  8
1
  6
Continuous
100
AcDbLine
 10
613.5182119999998
 20
239.836024
 30
0.0
 11
614.0182119999998
 21
239.336024
 31
0.0
  0
LINE
  5
1569
330
12A6
100
AcDbEntity
  8
1
  6
Continuous
100
AcDbLine
 10
614.0182119999998
 20
244.336024
 30
0.0
 11
613.5182119999998
 21
243.836024
 31
0.0
  0
LINE
  5
156A
330
12A6
100
AcDbEntity
  8
1
  6
Continuous
100
AcDbLine
 10
613.5182119999998
 20
243.836024
 30
0.0
 11
614.0182119999998
 21
243.336024
 31
0.0
  0
LINE
  5
156B
330
12A6
100
AcDbEntity
  8
1
  6
Continuous
100
AcDbLine
 10
614.0182119999998
 20
243.336024
 30
0.0
 11
613.5182119999998
 21
242.8360239999999
 31
0.0
  0
LINE
  5
156C
330
12A6
100
AcDbEntity
  8
1
  6
Continuous
100
AcDbLine
 10
613.5182119999998
 20
242.8360239999999
 30
0.0
 11
614.0182119999998
 21
242.336024
 31
0.0
  0
LINE
  5
156D
330
12A6
100
AcDbEntity
  8
1
  6
Continuous
100
AcDbLine
 10
614.0182119999998
 20
249.336024
 30
0.0
 11
613.5182119999998
 21
248.836024
 31
0.0
  0
LINE
  5
156E
330
12A6
100
AcDbEntity
  8
1
  6
Continuous
100
AcDbLine
 10
613.5182119999998
 20
248.836024
 30
0.0
 11
614.0182119999998
 21
248.336024
 31
0.0
  0
LINE
  5
156F
330
12A6
100
AcDbEntity
  8
1
  6
Continuous
100
AcDbLine
 10
614.0182119999998
 20
248.336024
 30
0.0
 11
613.5182119999998
 21
247.836024
 31
0.0
  0
LINE
  5
1570
330
12A6
100
AcDbEntity
  8
1
  6
Continuous
100
AcDbLine
 10
613.5182119999998
 20
247.836024
 30
0.0
 11
614.0182119999998
 21
247.336024
 31
0.0
  0
LINE
  5
1571
330
12A6
100
AcDbEntity
  8
1
  6
Continuous
100
AcDbLine
 10
614.0182119999998
 20
247.336024
 30
0.0
 11
613.5182119999998
 21
246.8360239999999
 31
0.0
  0
LINE
  5
1572
330
12A6
100
AcDbEntity
  8
1
  6
Continuous
100
AcDbLine
 10
613.5182119999998
 20
246.8360239999999
 30
0.0
 11
614.0182119999998
 21
246.336024
 31
0.0
  0
LINE
  5
1573
330
12A6
100
AcDbEntity
  8
1
  6
Continuous
100
AcDbLine
 10
614.0182119999998
 20
246.336024
 30
0.0
 11
613.5182119999998
 21
245.836024
 31
0.0
  0
LINE
  5
1574
330
12A6
100
AcDbEntity
  8
1
  6
Continuous
100
AcDbLine
 10
613.5182119999998
 20
245.836024
 30
0.0
 11
614.0182119999998
 21
245.336024
 31
0.0
  0
LINE
  5
1575
330
12A6
100
AcDbEntity
  8
1
  6
Continuous
100
AcDbLine
 10
614.0182119999998
 20
245.336024
 30
0.0
 11
613.5182119999998
 21
244.8360239999999
 31
0.0
  0
LINE
  5
1576
330
12A6
100
AcDbEntity
  8
1
  6
Continuous
100
AcDbLine
 10
613.5182119999998
 20
244.8360239999999
 30
0.0
 11
614.0182119999998
 21
244.336024
 31
0.0
  0
LINE
  5
1577
330
12A6
100
AcDbEntity
  8
1
  6
Continuous
100
AcDbLine
 10
613.5182119999998
 20
250.836024
 30
0.0
 11
614.0182119999998
 21
250.336024
 31
0.0
  0
LINE
  5
1578
330
12A6
100
AcDbEntity
  8
1
  6
Continuous
100
AcDbLine
 10
614.0182119999998
 20
250.336024
 30
0.0
 11
613.5182119999998
 21
249.836024
 31
0.0
  0
LINE
  5
1579
330
12A6
100
AcDbEntity
  8
1
  6
Continuous
100
AcDbLine
 10
613.5182119999998
 20
249.836024
 30
0.0
 11
614.0182119999998
 21
249.336024
 31
0.0
  0
LINE
  5
157A
330
12A6
100
AcDbEntity
  8
1
  6
Continuous
100
AcDbLine
 10
613.5182119999998
 20
241.836024
 30
0.0
 11
614.0182119999998
 21
241.336024
 31
0.0
  0
LINE
  5
157B
330
12A6
100
AcDbEntity
  8
1
  6
Continuous
100
AcDbLine
 10
614.0182119999998
 20
242.336024
 30
0.0
 11
613.5182119999998
 21
241.836024
 31
0.0
  0
LINE
  5
157C
330
12A6
100
AcDbEntity
  8
1
  6
Continuous
100
AcDbLine
 10
610.9058169999998
 20
266.901399
 30
0.0
 11
601.782944
 21
266.901399
 31
0.0
  0
LINE
  5
157D
330
12A6
100
AcDbEntity
  8
1
  6
Continuous
100
AcDbLine
 10
612.5182119999998
 20
269.8360239999999
 30
0.0
 11
601.782944
 21
269.8360239999999
 31
0.0
  0
ARC
  5
157E
330
12A6
100
AcDbEntity
  8
1
  6
Continuous
100
AcDbCircle
 10
612.5182119999998
 20
268.836024
 30
0.0
 40
1.0
100
AcDbArc
 50
0.0
 51
90.0
  0
LINE
  5
157F
330
12A6
100
AcDbEntity
  8
1
  6
Continuous
100
AcDbLine
 10
612.220725
 20
267.7663109999999
 30
0.0
 11
611.6968799999997
 21
266.933385
 31
0.0
  0
LINE
  5
1580
330
12A6
100
AcDbEntity
  8
1
  6
Continuous
100
AcDbLine
 10
612.7274029999997
 20
267.7663109999999
 30
0.0
 11
612.897778
 21
269.2462259999999
 31
0.0
  0
LINE
  5
1581
330
12A6
100
AcDbEntity
  8
1
  6
Continuous
100
AcDbLine
 10
612.7274029999997
 20
267.7663109999999
 30
0.0
 11
612.220725
 21
267.7663109999999
 31
0.0
  0
ARC
  5
1582
330
12A6
100
AcDbEntity
  8
1
  6
Continuous
100
AcDbCircle
 10
610.9058169999998
 20
265.901399
 30
0.0
 40
1.0
100
AcDbArc
 50
0.0
 51
90.0
  0
ARC
  5
1583
330
12A6
100
AcDbEntity
  8
1
  6
Continuous
100
AcDbCircle
 10
601.782944
 20
259.836024
 30
0.0
 40
7.065374
100
AcDbArc
 50
90.0
 51
101.746866
  0
ARC
  5
1584
330
12A6
100
AcDbEntity
  8
1
  6
Continuous
100
AcDbCircle
 10
601.782944
 20
259.836024
 30
0.0
 40
10.0
100
AcDbArc
 50
90.0
 51
101.746866
  0
ARC
  5
1585
330
12A6
100
AcDbEntity
  8
1
  6
Continuous
100
AcDbCircle
 10
571.5182119999998
 20
231.836024
 30
0.0
 40
2.0
100
AcDbArc
 50
270.0
 51
0.0
  0
LINE
  5
1586
330
12A6
100
AcDbEntity
  8
1
  6
Continuous
100
AcDbLine
 10
571.5182119999998
 20
229.836024
 30
0.0
 11
569.0182120000002
 21
229.836024
 31
0.0
  0
LINE
  5
1587
330
12A6
100
AcDbEntity
  8
1
  6
Continuous
100
AcDbLine
 10
546.818212
 20
262.836024
 30
0.0
 11
554.3182119999999
 21
262.836024
 31
0.0
  0
LINE
  5
1588
330
12A6
100
AcDbEntity
  8
1
  6
Continuous
100
AcDbLine
 10
546.818212
 20
242.8360239999999
 30
0.0
 11
554.3182119999999
 21
242.8360239999999
 31
0.0
  0
LINE
  5
1589
330
12A6
100
AcDbEntity
  8
1
  6
Continuous
100
AcDbLine
 10
581.4682119999997
 20
265.6431529999999
 30
0.0
 11
581.4682119999997
 21
240.028895
 31
0.0
  0
LINE
  5
158A
330
12A6
100
AcDbEntity
  8
1
  6
Continuous
100
AcDbLine
 10
581.5182120000002
 20
239.836024
 30
0.0
 11
581.5182120000002
 21
265.8360239999999
 31
0.0
  0
LINE
  5
158B
330
12A6
100
AcDbEntity
  8
1
  6
Continuous
100
AcDbLine
 10
554.3182119999999
 20
262.836024
 30
0.0
 11
554.3182119999999
 21
242.8360239999999
 31
0.0
  0
LINE
  5
158C
330
12A6
100
AcDbEntity
  8
1
  6
Continuous
100
AcDbLine
 10
554.568212
 20
243.086024
 30
0.0
 11
569.0182120000002
 21
243.086024
 31
0.0
  0
LINE
  5
158D
330
12A6
100
AcDbEntity
  8
1
  6
Continuous
100
AcDbLine
 10
567.5182119999998
 20
233.336024
 30
0.0
 11
569.0182120000002
 21
233.336024
 31
0.0
  0
LINE
  5
158E
330
12A6
100
AcDbEntity
  8
1
  6
Continuous
100
AcDbLine
 10
567.5182119999998
 20
237.836024
 30
0.0
 11
569.0182120000002
 21
237.836024
 31
0.0
  0
LINE
  5
158F
330
12A6
100
AcDbEntity
  8
1
  6
Continuous
100
AcDbLine
 10
573.0001150000001
 20
230.4929069999999
 30
0.0
 11
581.3386870000001
 21
239.693116
 31
0.0
  0
ARC
  5
1590
330
12A6
100
AcDbEntity
  8
1
  6
Continuous
100
AcDbCircle
 10
580.9682119999997
 20
240.028895
 30
0.0
 40
0.5
100
AcDbArc
 50
317.8125359999999
 51
0.0
  0
LINE
  5
1591
330
12A6
100
AcDbEntity
  8
1
  6
Continuous
100
AcDbLine
 10
581.5182120000002
 20
243.836024
 30
0.0
 11
581.4682119999997
 21
243.836024
 31
0.0
  0
LINE
  5
1592
330
12A6
100
AcDbEntity
  8
1
  6
Continuous
100
AcDbLine
 10
567.5182119999998
 20
233.336024
 30
0.0
 11
567.5182119999998
 21
237.836024
 31
0.0
  0
LINE
  5
1593
330
12A6
100
AcDbEntity
  8
1
  6
Continuous
100
AcDbLine
 10
554.568212
 20
243.086024
 30
0.0
 11
554.3182119999999
 21
243.336024
 31
0.0
  0
LINE
  5
1594
330
12A6
100
AcDbEntity
  8
1
  6
Continuous
100
AcDbLine
 10
554.568212
 20
262.586024
 30
0.0
 11
569.0182120000002
 21
262.586024
 31
0.0
  0
LINE
  5
1595
330
12A6
100
AcDbEntity
  8
1
  6
Continuous
100
AcDbLine
 10
567.5182119999998
 20
267.8360239999999
 30
0.0
 11
569.0182120000002
 21
267.8360239999999
 31
0.0
  0
LINE
  5
1596
330
12A6
100
AcDbEntity
  8
1
  6
Continuous
100
AcDbLine
 10
567.5182119999998
 20
272.336024
 30
0.0
 11
569.0182120000002
 21
272.336024
 31
0.0
  0
ARC
  5
1597
330
12A6
100
AcDbEntity
  8
1
  6
Continuous
100
AcDbCircle
 10
580.9682119999997
 20
265.6431529999999
 30
0.0
 40
0.5
100
AcDbArc
 50
0.0
 51
42.18746399999999
  0
LINE
  5
1598
330
12A6
100
AcDbEntity
  8
1
  6
Continuous
100
AcDbLine
 10
581.4682119999997
 20
264.1860239999999
 30
0.0
 11
581.5182120000002
 21
264.1860239999999
 31
0.0
  0
LINE
  5
1599
330
12A6
100
AcDbEntity
  8
1
  6
Continuous
100
AcDbLine
 10
567.5182119999998
 20
272.336024
 30
0.0
 11
567.5182119999998
 21
267.8360239999999
 31
0.0
  0
LINE
  5
159A
330
12A6
100
AcDbEntity
  8
1
  6
Continuous
100
AcDbLine
 10
554.3182119999999
 20
262.336024
 30
0.0
 11
554.568212
 21
262.586024
 31
0.0
  0
LINE
  5
159B
330
12A6
100
AcDbEntity
  8
1
  6
Continuous
100
AcDbLine
 10
543.818212
 20
252.8360249999999
 30
0.0
 11
545.1182119999998
 21
254.1360249999999
 31
0.0
  0
ARC
  5
159C
330
12A6
100
AcDbEntity
  8
1
  6
Continuous
100
AcDbCircle
 10
547.959257
 20
252.836024
 30
0.0
 40
7.641045
100
AcDbArc
 50
162.407253
 51
197.592747
  0
ARC
  5
159D
330
12A6
100
AcDbEntity
  8
1
  6
Continuous
100
AcDbCircle
 10
536.1771669999999
 20
252.836024
 30
0.0
 40
7.641045
100
AcDbArc
 50
342.4072529999999
 51
17.59274699999998
  0
LINE
  5
159E
330
12A6
100
AcDbEntity
  8
1
  6
Continuous
100
AcDbLine
 10
540.318212
 20
256.8365239999998
 30
0.0
 11
540.318212
 21
248.836524
 31
0.0
  0
LINE
  5
159F
330
12A6
100
AcDbEntity
  8
1
  6
Continuous
100
AcDbLine
 10
543.818212
 20
248.2360239999999
 30
0.0
 11
543.818212
 21
257.4360239999999
 31
0.0
  0
LINE
  5
15A0
330
12A6
100
AcDbEntity
  8
1
  6
Continuous
100
AcDbLine
 10
545.1182119999998
 20
260.836024
 30
0.0
 11
545.1182119999998
 21
244.8360239999999
 31
0.0
  0
LINE
  5
15A1
330
12A6
100
AcDbEntity
  8
1
  6
Continuous
100
AcDbLine
 10
546.3182119999999
 20
243.336024
 30
0.0
 11
546.3182119999999
 21
262.336024
 31
0.0
  0
LINE
  5
15A2
330
12A6
100
AcDbEntity
  8
1
  6
Continuous
100
AcDbLine
 10
543.818212
 20
248.2360239999999
 30
0.0
 11
545.1182119999998
 21
248.2360239999999
 31
0.0
  0
LINE
  5
15A3
330
12A6
100
AcDbEntity
  8
1
  6
Continuous
100
AcDbLine
 10
545.1182119999998
 20
244.8360239999999
 30
0.0
 11
546.3182119999999
 21
244.8360239999999
 31
0.0
  0
ARC
  5
15A4
330
12A6
100
AcDbEntity
  8
1
  6
Continuous
100
AcDbCircle
 10
546.818212
 20
243.336024
 30
0.0
 40
0.5
100
AcDbArc
 50
180.0
 51
270.0
  0
LINE
  5
15A5
330
12A6
100
AcDbEntity
  8
1
  6
Continuous
100
AcDbLine
 10
543.4608319999996
 20
248.217524
 30
0.0
 11
540.675591
 21
248.217524
 31
0.0
  0
LINE
  5
15A6
330
12A6
100
AcDbEntity
  8
1
  6
Continuous
100
AcDbLine
 10
543.4608319999996
 20
250.5265239999999
 30
0.0
 11
540.675591
 21
250.5265239999999
 31
0.0
  0
LINE
  5
15A7
330
12A6
100
AcDbEntity
  8
1
  6
Continuous
100
AcDbLine
 10
543.818212
 20
248.836524
 30
0.0
 11
543.4608319999996
 21
248.217524
 31
0.0
  0
ARC
  5
15A8
330
12A6
100
AcDbEntity
  8
1
  6
Continuous
100
AcDbCircle
 10
541.773125
 20
249.372524
 30
0.0
 40
2.045087
100
AcDbArc
 50
334.3862009999999
 51
34.386201
  0
ARC
  5
15A9
330
12A6
100
AcDbEntity
  8
1
  6
Continuous
100
AcDbCircle
 10
542.3632979999998
 20
249.372524
 30
0.0
 40
2.045087
100
AcDbArc
 50
145.613799
 51
205.613799
  0
LINE
  5
15AA
330
12A6
100
AcDbEntity
  8
1
  6
Continuous
100
AcDbLine
 10
540.318212
 20
248.836524
 30
0.0
 11
540.675591
 21
248.217524
 31
0.0
  0
LINE
  5
15AB
330
12A6
100
AcDbEntity
  8
1
  6
Continuous
100
AcDbLine
 10
543.818212
 20
257.4360239999999
 30
0.0
 11
545.1182119999998
 21
257.4360239999999
 31
0.0
  0
LINE
  5
15AC
330
12A6
100
AcDbEntity
  8
1
  6
Continuous
100
AcDbLine
 10
543.818212
 20
251.536025
 30
0.0
 11
545.1182119999998
 21
252.8360249999999
 31
0.0
  0
LINE
  5
15AD
330
12A6
100
AcDbEntity
  8
1
  6
Continuous
100
AcDbLine
 10
545.1182119999998
 20
260.836024
 30
0.0
 11
546.3182119999999
 21
260.836024
 31
0.0
  0
LINE
  5
15AE
330
12A6
100
AcDbEntity
  8
1
  6
Continuous
100
AcDbLine
 10
543.4608319999996
 20
255.145524
 30
0.0
 11
540.675591
 21
255.145524
 31
0.0
  0
LINE
  5
15AF
330
12A6
100
AcDbEntity
  8
1
  6
Continuous
100
AcDbLine
 10
543.4608319999996
 20
257.455524
 30
0.0
 11
540.675591
 21
257.455524
 31
0.0
  0
ARC
  5
15B0
330
12A6
100
AcDbEntity
  8
1
  6
Continuous
100
AcDbCircle
 10
541.773125
 20
256.3005239999998
 30
0.0
 40
2.045087
100
AcDbArc
 50
325.6137989999999
 51
25.61379899999999
  0
LINE
  5
15B1
330
12A6
100
AcDbEntity
  8
1
  6
Continuous
100
AcDbLine
 10
543.818212
 20
256.8365239999998
 30
0.0
 11
543.4608319999996
 21
257.455524
 31
0.0
  0
ARC
  5
15B2
330
12A6
100
AcDbEntity
  8
1
  6
Continuous
100
AcDbCircle
 10
542.3632979999998
 20
256.3005239999998
 30
0.0
 40
2.045087
100
AcDbArc
 50
154.3862009999998
 51
214.3862009999998
  0
LINE
  5
15B3
330
12A6
100
AcDbEntity
  8
1
  6
Continuous
100
AcDbLine
 10
540.318212
 20
256.8365239999998
 30
0.0
 11
540.675591
 21
257.455524
 31
0.0
  0
ARC
  5
15B4
330
12A6
100
AcDbEntity
  8
1
  6
Continuous
100
AcDbCircle
 10
546.818212
 20
262.336024
 30
0.0
 40
0.5
100
AcDbArc
 50
90.0
 51
180.0
  0
LINE
  5
15B5
330
12A6
100
AcDbEntity
  8
1
  6
Continuous
100
AcDbLine
 10
571.5182119999998
 20
275.836024
 30
0.0
 11
569.0182120000002
 21
275.836024
 31
0.0
  0
ARC
  5
15B6
330
12A6
100
AcDbEntity
  8
1
  6
Continuous
100
AcDbCircle
 10
571.5182119999998
 20
273.836024
 30
0.0
 40
2.0
100
AcDbArc
 50
0.0
 51
90.0
  0
LINE
  5
15B7
330
12A6
100
AcDbEntity
  8
1
  6
Continuous
100
AcDbLine
 10
282.3946290000083
 20
399.587469087418
 30
0.0
 11
281.6946290000592
 21
399.0419188346898
 31
0.0
  0
LINE
  5
15B8
330
12A6
100
AcDbEntity
  8
1
  6
Continuous
100
AcDbLine
 10
281.6946290000606
 20
404.3491889999994
 30
0.0
 11
281.6946290000582
 21
375.3491889999987
 31
0.0
  0
LINE
  5
15B9
330
12A6
100
AcDbEntity
  8
1
  6
Continuous
100
AcDbLine
 10
280.2946289999928
 20
404.3491890000016
 30
0.0
 11
280.2946289999839
 21
375.3491890000012
 31
0.0
  0
LINE
  5
15BA
330
12A6
100
AcDbEntity
  8
1
  6
Continuous
100
AcDbLine
 10
279.5946289999744
 20
377.9975692565252
 30
0.0
 11
279.9374524577614
 21
378.1120039228544
 31
0.0
  0
ARC
  5
15BB
330
12A6
100
AcDbEntity
  8
1
  6
Continuous
100
AcDbCircle
 10
274.934687583846
 20
375.3491890000092
 30
0.0
 40
5.359941416177306
100
AcDbArc
 50
359.9999999999102
 51
29.6108290548139
  0
LINE
  5
15BC
330
12A6
100
AcDbEntity
  8
1
  6
Continuous
100
AcDbLine
 10
281.6946290000582
 20
375.3491889999987
 30
0.0
 11
280.2946289999839
 21
375.3491890000012
 31
0.0
  0
ARC
  5
15BD
330
12A6
100
AcDbEntity
  8
1
  6
Continuous
100
AcDbCircle
 10
257.1500740277854
 20
385.2511361259017
 30
0.0
 40
23.14455497217013
100
AcDbArc
 50
0.0
 51
14.12742288753736
  0
ARC
  5
15BE
330
12A6
100
AcDbEntity
  8
1
  6
Continuous
100
AcDbCircle
 10
282.7262121146361
 20
387.8213016399532
 30
0.0
 40
1.031583114680584
100
AcDbArc
 50
108.7495067078217
 51
180.0
  0
ARC
  5
15BF
330
12A6
100
AcDbEntity
  8
1
  6
Continuous
100
AcDbCircle
 10
267.4811300117304
 20
380.6564356606624
 30
0.0
 40
12.81349898822509
100
AcDbArc
 50
0.0
 51
19.02611019247348
  0
ARC
  5
15C0
330
12A6
100
AcDbEntity
  8
1
  6
Continuous
100
AcDbCircle
 10
277.9684246825024
 20
378.4475730942058
 30
0.0
 40
2.32620431752562
100
AcDbArc
 50
353.1575250995761
 51
45.64671286910765
  0
LINE
  5
15C1
330
12A6
100
AcDbEntity
  8
1
  6
Continuous
100
AcDbLine
 10
279.5946290000085
 20
380.1109091935348
 30
0.0
 11
280.2946289999855
 21
380.6564356606856
 31
0.0
  0
LINE
  5
15C2
330
12A6
100
AcDbEntity
  8
1
  6
Continuous
100
AcDbLine
 10
279.9374524577614
 20
378.1120039228545
 30
0.0
 11
280.2946289999847
 21
378.173271021194
 31
0.0
  0
LINE
  5
15C3
330
12A6
100
AcDbEntity
  8
1
  6
Continuous
100
AcDbLine
 10
279.5946290000058
 20
384.8336235403607
 30
0.0
 11
280.294628999987
 21
385.2511361259207
 31
0.0
  0
ARC
  5
15C4
330
12A6
100
AcDbEntity
  8
1
  6
Continuous
100
AcDbCircle
 10
283.7120106217014
 20
381.9352904228856
 30
0.0
 40
2.017381621745911
100
AcDbArc
 50
130.7693511336351
 51
180.0
  0
LINE
  5
15C5
330
12A6
100
AcDbEntity
  8
1
  6
Continuous
100
AcDbLine
 10
282.3946290000083
 20
379.8392746570732
 30
0.0
 11
281.6946290000586
 21
380.1477582209247
 31
0.0
  0
LINE
  5
15C6
330
12A6
100
AcDbEntity
  8
1
  6
Continuous
100
AcDbLine
 10
282.3946290000083
 20
379.8392746570732
 30
0.0
 11
281.6946290000586
 21
379.2937244043441
 31
0.0
  0
LINE
  5
15C7
330
12A6
100
AcDbEntity
  8
1
  6
Continuous
100
AcDbLine
 10
282.3946290000047
 20
383.4631432530283
 30
0.0
 11
281.694629000059
 21
384.2485106531382
 31
0.0
  0
ARC
  5
15C8
330
12A6
100
AcDbEntity
  8
1
  6
Continuous
100
AcDbCircle
 10
279.2630458853931
 20
391.8770763600439
 30
0.0
 40
1.031583114680584
100
AcDbArc
 50
288.7495067079116
 51
0.0000000000898481
  0
ARC
  5
15C9
330
12A6
100
AcDbEntity
  8
1
  6
Continuous
100
AcDbCircle
 10
278.2772473783186
 20
397.7630875771099
 30
0.0
 40
2.017381621745911
100
AcDbArc
 50
310.769351133725
 51
0.0000000000898481
  0
LINE
  5
15CA
330
12A6
100
AcDbEntity
  8
1
  6
Continuous
100
AcDbLine
 10
279.5946290000059
 20
396.2352454336003
 30
0.0
 11
280.2946289999878
 21
395.4498758513187
 31
0.0
  0
ARC
  5
15CB
330
12A6
100
AcDbEntity
  8
1
  6
Continuous
100
AcDbCircle
 10
304.8391839722235
 20
394.4472418740608
 30
0.0
 40
23.14455497217013
100
AcDbArc
 50
179.9999999999102
 51
194.1274228874474
  0
ARC
  5
15CC
330
12A6
100
AcDbEntity
  8
1
  6
Continuous
100
AcDbCircle
 10
294.5079239534073
 20
399.0419188346089
 30
0.0
 40
12.8132949534517
100
AcDbArc
 50
180.0
 51
199.0262630835801
  0
LINE
  5
15CD
330
12A6
100
AcDbEntity
  8
1
  6
Continuous
100
AcDbLine
 10
282.3946290000047
 20
394.8647651462676
 30
0.0
 11
281.6946290000592
 21
394.4472372063107
 31
0.0
  0
LINE
  5
15CE
330
12A6
100
AcDbEntity
  8
1
  6
Continuous
100
AcDbLine
 10
279.5946290000085
 20
399.8591036238797
 30
0.0
 11
280.294628999986
 21
399.5506162498654
 31
0.0
  0
LINE
  5
15CF
330
12A6
100
AcDbEntity
  8
1
  6
Continuous
100
AcDbLine
 10
279.5946290000085
 20
399.8591036238797
 30
0.0
 11
280.2946289999873
 21
400.4046300910322
 31
0.0
  0
LINE
  5
15D0
330
12A6
100
AcDbEntity
  8
1
  6
Continuous
100
AcDbLine
 10
282.0518055422525
 20
401.5863740771448
 30
0.0
 11
281.694629000059
 21
401.5251069788098
 31
0.0
  0
LINE
  5
15D1
330
12A6
100
AcDbEntity
  8
1
  6
Continuous
100
AcDbLine
 10
280.2946289999928
 20
404.3491890000016
 30
0.0
 11
281.6946289999928
 21
404.3491889999983
 31
0.0
  0
LINE
  5
15D2
330
12A6
100
AcDbEntity
  8
1
  6
Continuous
100
AcDbLine
 10
281.6946290000606
 20
404.3491889999994
 30
0.0
 11
280.2946290000607
 21
404.3491890000005
 31
0.0
  0
ARC
  5
15D3
330
12A6
100
AcDbEntity
  8
1
  6
Continuous
100
AcDbCircle
 10
284.0208333174812
 20
401.2508049057989
 30
0.0
 40
2.32620431752562
100
AcDbArc
 50
173.1575250998436
 51
225.6467128691971
  0
LINE
  5
15D4
330
12A6
100
AcDbEntity
  8
1
  6
Continuous
100
AcDbLine
 10
282.3946290000396
 20
401.7008087434736
 30
0.0
 11
282.0518055422526
 21
401.5863740771448
 31
0.0
  0
ARC
  5
15D5
330
12A6
100
AcDbEntity
  8
1
  6
Continuous
100
AcDbCircle
 10
287.0545704161701
 20
404.3491889999856
 30
0.0
 40
5.359941416177306
100
AcDbArc
 50
179.9999999998651
 51
209.6108290547688
  0
ARC
  5
15D6
330
12A6
100
AcDbEntity
  8
1
  6
Continuous
100
AcDbCircle
 10
304.8391839722235
 20
257.4340768740608
 30
0.0
 40
23.14455497217013
100
AcDbArc
 50
179.9999999999102
 51
194.1274228874474
  0
LINE
  5
15D7
330
12A6
100
AcDbEntity
  8
1
  6
Continuous
100
AcDbLine
 10
281.6946290000606
 20
267.3360239999993
 30
0.0
 11
281.6946290000582
 21
238.3360239999988
 31
0.0
  0
LINE
  5
15D8
330
12A6
100
AcDbEntity
  8
1
  6
Continuous
100
AcDbLine
 10
280.2946289999928
 20
267.3360240000016
 30
0.0
 11
280.2946289999839
 21
238.3360240000011
 31
0.0
  0
ARC
  5
15D9
330
12A6
100
AcDbEntity
  8
1
  6
Continuous
100
AcDbCircle
 10
274.934687583846
 20
238.3360240000093
 30
0.0
 40
5.359941416177306
100
AcDbArc
 50
359.9999999999102
 51
29.6108290548139
  0
LINE
  5
15DA
330
12A6
100
AcDbEntity
  8
1
  6
Continuous
100
AcDbLine
 10
281.6946290000582
 20
238.3360239999988
 30
0.0
 11
280.2946289999839
 21
238.3360240000011
 31
0.0
  0
ARC
  5
15DB
330
12A6
100
AcDbEntity
  8
1
  6
Continuous
100
AcDbCircle
 10
257.1500740277854
 20
248.2379711259016
 30
0.0
 40
23.14455497217013
100
AcDbArc
 50
0.0
 51
14.12742288753736
  0
ARC
  5
15DC
330
12A6
100
AcDbEntity
  8
1
  6
Continuous
100
AcDbCircle
 10
267.4811300117304
 20
243.6432706606626
 30
0.0
 40
12.81349898822509
100
AcDbArc
 50
0.0
 51
19.02611019247348
  0
ARC
  5
15DD
330
12A6
100
AcDbEntity
  8
1
  6
Continuous
100
AcDbCircle
 10
277.9684246825024
 20
241.4344080942059
 30
0.0
 40
2.32620431752562
100
AcDbArc
 50
353.1575250995761
 51
45.64671286910765
  0
LINE
  5
15DE
330
12A6
100
AcDbEntity
  8
1
  6
Continuous
100
AcDbLine
 10
279.5946290000085
 20
243.0977441935347
 30
0.0
 11
280.2946289999855
 21
243.6432706606859
 31
0.0
  0
LINE
  5
15DF
330
12A6
100
AcDbEntity
  8
1
  6
Continuous
100
AcDbLine
 10
279.9374524577614
 20
241.0988389228545
 30
0.0
 11
280.2946289999847
 21
241.1601060211942
 31
0.0
  0
LINE
  5
15E0
330
12A6
100
AcDbEntity
  8
1
  6
Continuous
100
AcDbLine
 10
279.5946290000058
 20
247.8204585403608
 30
0.0
 11
280.294628999987
 21
248.2379711259208
 31
0.0
  0
ARC
  5
15E1
330
12A6
100
AcDbEntity
  8
1
  6
Continuous
100
AcDbCircle
 10
283.7120106217014
 20
244.9221254228858
 30
0.0
 40
2.017381621745911
100
AcDbArc
 50
130.7693511336351
 51
180.0
  0
LINE
  5
15E2
330
12A6
100
AcDbEntity
  8
1
  6
Continuous
100
AcDbLine
 10
282.3946290000083
 20
242.826109657073
 30
0.0
 11
281.6946290000586
 21
243.1345932209245
 31
0.0
  0
LINE
  5
15E3
330
12A6
100
AcDbEntity
  8
1
  6
Continuous
100
AcDbLine
 10
282.3946290000083
 20
242.826109657073
 30
0.0
 11
281.6946290000586
 21
242.280559404344
 31
0.0
  0
LINE
  5
15E4
330
12A6
100
AcDbEntity
  8
1
  6
Continuous
100
AcDbLine
 10
282.3946290000047
 20
246.4499782530281
 30
0.0
 11
281.694629000059
 21
247.2353456531383
 31
0.0
  0
LINE
  5
15E5
330
12A6
100
AcDbEntity
  8
1
  6
Continuous
100
AcDbLine
 10
279.5946289999744
 20
240.984404256525
 30
0.0
 11
279.9374524577614
 21
241.0988389228544
 31
0.0
  0
ARC
  5
15E6
330
12A6
100
AcDbEntity
  8
1
  6
Continuous
100
AcDbCircle
 10
279.2630458853931
 20
254.8639113600438
 30
0.0
 40
1.031583114680584
100
AcDbArc
 50
288.7495067079116
 51
0.0000000000898481
  0
ARC
  5
15E7
330
12A6
100
AcDbEntity
  8
1
  6
Continuous
100
AcDbCircle
 10
282.7262121146361
 20
250.8081366399532
 30
0.0
 40
1.031583114680584
100
AcDbArc
 50
108.7495067078217
 51
180.0
  0
ARC
  5
15E8
330
12A6
100
AcDbEntity
  8
1
  6
Continuous
100
AcDbCircle
 10
287.0545704161701
 20
267.3360239999857
 30
0.0
 40
5.359941416177306
100
AcDbArc
 50
179.9999999998651
 51
209.6108290547688
  0
LINE
  5
15E9
330
12A6
100
AcDbEntity
  8
1
  6
Continuous
100
AcDbLine
 10
282.3946290000396
 20
264.6876437434737
 30
0.0
 11
282.0518055422526
 21
264.5732090771446
 31
0.0
  0
ARC
  5
15EA
330
12A6
100
AcDbEntity
  8
1
  6
Continuous
100
AcDbCircle
 10
278.2772473783186
 20
260.7499225771098
 30
0.0
 40
2.017381621745911
100
AcDbArc
 50
310.769351133725
 51
0.0000000000898481
  0
LINE
  5
15EB
330
12A6
100
AcDbEntity
  8
1
  6
Continuous
100
AcDbLine
 10
279.5946290000059
 20
259.2220804336001
 30
0.0
 11
280.2946289999878
 21
258.4367108513187
 31
0.0
  0
LINE
  5
15EC
330
12A6
100
AcDbEntity
  8
1
  6
Continuous
100
AcDbLine
 10
279.5946290000085
 20
262.8459386238798
 30
0.0
 11
280.294628999986
 21
262.5374512498655
 31
0.0
  0
LINE
  5
15ED
330
12A6
100
AcDbEntity
  8
1
  6
Continuous
100
AcDbLine
 10
279.5946290000085
 20
262.8459386238798
 30
0.0
 11
280.2946289999873
 21
263.3914650910325
 31
0.0
  0
LINE
  5
15EE
330
12A6
100
AcDbEntity
  8
1
  6
Continuous
100
AcDbLine
 10
282.3946290000083
 20
262.5743040874183
 30
0.0
 11
281.6946290000592
 21
262.0287538346896
 31
0.0
  0
LINE
  5
15EF
330
12A6
100
AcDbEntity
  8
1
  6
Continuous
100
AcDbLine
 10
282.0518055422525
 20
264.5732090771446
 30
0.0
 11
281.694629000059
 21
264.5119419788102
 31
0.0
  0
ARC
  5
15F0
330
12A6
100
AcDbEntity
  8
1
  6
Continuous
100
AcDbCircle
 10
284.0208333174812
 20
264.2376399057988
 30
0.0
 40
2.32620431752562
100
AcDbArc
 50
173.1575250998436
 51
225.6467128691971
  0
LINE
  5
15F1
330
12A6
100
AcDbEntity
  8
1
  6
Continuous
100
AcDbLine
 10
282.3946290000047
 20
257.8516001462677
 30
0.0
 11
281.6946290000592
 21
257.4340722063106
 31
0.0
  0
ARC
  5
15F2
330
12A6
100
AcDbEntity
  8
1
  6
Continuous
100
AcDbCircle
 10
294.5079239534073
 20
262.0287538346091
 30
0.0
 40
12.8132949534517
100
AcDbArc
 50
180.0
 51
199.0262630835801
  0
LINE
  5
15F3
330
12A6
100
AcDbEntity
  8
1
  6
Continuous
100
AcDbLine
 10
280.2946289999928
 20
267.3360240000016
 30
0.0
 11
281.6946289999928
 21
267.3360239999983
 31
0.0
  0
LINE
  5
15F4
330
12A6
100
AcDbEntity
  8
1
  6
Continuous
100
AcDbLine
 10
281.6946290000606
 20
267.3360239999993
 30
0.0
 11
280.2946290000607
 21
267.3360240000004
 31
0.0
  0
LINE
  5
15F5
330
12A6
100
AcDbEntity
  8
1
  6
Continuous
100
AcDbLine
 10
280.2946289999928
 20
87.50000100000161
 30
0.0
 11
280.2946289999839
 21
58.50000100000113
 31
0.0
  0
LINE
  5
15F6
330
12A6
100
AcDbEntity
  8
1
  6
Continuous
100
AcDbLine
 10
281.6946290000606
 20
87.50000099999942
 30
0.0
 11
281.6946290000582
 21
58.50000099999892
 31
0.0
  0
ARC
  5
15F7
330
12A6
100
AcDbEntity
  8
1
  6
Continuous
100
AcDbCircle
 10
304.8391839722235
 20
77.59805387406084
 30
0.0
 40
23.14455497217013
100
AcDbArc
 50
179.9999999999102
 51
194.1274228874474
  0
ARC
  5
15F8
330
12A6
100
AcDbEntity
  8
1
  6
Continuous
100
AcDbCircle
 10
274.934687583846
 20
58.50000100000944
 30
0.0
 40
5.359941416177306
100
AcDbArc
 50
359.9999999999102
 51
29.6108290548139
  0
LINE
  5
15F9
330
12A6
100
AcDbEntity
  8
1
  6
Continuous
100
AcDbLine
 10
281.6946290000582
 20
58.50000099999892
 30
0.0
 11
280.2946289999839
 21
58.50000100000113
 31
0.0
  0
LINE
  5
15FA
330
12A6
100
AcDbEntity
  8
1
  6
Continuous
100
AcDbLine
 10
282.3946290000047
 20
66.61395525302828
 30
0.0
 11
281.694629000059
 21
67.39932265313831
 31
0.0
  0
ARC
  5
15FB
330
12A6
100
AcDbEntity
  8
1
  6
Continuous
100
AcDbCircle
 10
267.4811300117304
 20
63.80724766066271
 30
0.0
 40
12.81349898822509
100
AcDbArc
 50
0.0
 51
19.02611019247348
  0
LINE
  5
15FC
330
12A6
100
AcDbEntity
  8
1
  6
Continuous
100
AcDbLine
 10
279.5946289999744
 20
61.14838125652517
 30
0.0
 11
279.9374524577614
 21
61.26281592285442
 31
0.0
  0
LINE
  5
15FD
330
12A6
100
AcDbEntity
  8
1
  6
Continuous
100
AcDbLine
 10
282.3946290000083
 20
62.99008665707322
 30
0.0
 11
281.6946290000586
 21
62.44453640434425
 31
0.0
  0
LINE
  5
15FE
330
12A6
100
AcDbEntity
  8
1
  6
Continuous
100
AcDbLine
 10
282.3946290000083
 20
62.99008665707322
 30
0.0
 11
281.6946290000586
 21
63.29857022092472
 31
0.0
  0
ARC
  5
15FF
330
12A6
100
AcDbEntity
  8
1
  6
Continuous
100
AcDbCircle
 10
283.7120106217014
 20
65.0861024228858
 30
0.0
 40
2.017381621745911
100
AcDbArc
 50
130.7693511336351
 51
180.0
  0
LINE
  5
1600
330
12A6
100
AcDbEntity
  8
1
  6
Continuous
100
AcDbLine
 10
279.9374524577614
 20
61.26281592285447
 30
0.0
 11
280.2946289999847
 21
61.32408302119421
 31
0.0
  0
LINE
  5
1601
330
12A6
100
AcDbEntity
  8
1
  6
Continuous
100
AcDbLine
 10
279.5946290000085
 20
63.26172119353476
 30
0.0
 11
280.2946289999855
 21
63.80724766068595
 31
0.0
  0
ARC
  5
1602
330
12A6
100
AcDbEntity
  8
1
  6
Continuous
100
AcDbCircle
 10
277.9684246825024
 20
61.59838509420592
 30
0.0
 40
2.32620431752562
100
AcDbArc
 50
353.1575250995761
 51
45.64671286910765
  0
ARC
  5
1603
330
12A6
100
AcDbEntity
  8
1
  6
Continuous
100
AcDbCircle
 10
282.7262121146361
 20
70.97211363995334
 30
0.0
 40
1.031583114680584
100
AcDbArc
 50
108.7495067078217
 51
180.0
  0
ARC
  5
1604
330
12A6
100
AcDbEntity
  8
1
  6
Continuous
100
AcDbCircle
 10
279.2630458853931
 20
75.0278883600439
 30
0.0
 40
1.031583114680584
100
AcDbArc
 50
288.7495067079116
 51
0.0000000000898481
  0
LINE
  5
1605
330
12A6
100
AcDbEntity
  8
1
  6
Continuous
100
AcDbLine
 10
279.5946290000058
 20
67.98443554036089
 30
0.0
 11
280.294628999987
 21
68.4019481259208
 31
0.0
  0
ARC
  5
1606
330
12A6
100
AcDbEntity
  8
1
  6
Continuous
100
AcDbCircle
 10
257.1500740277854
 20
68.40194812590187
 30
0.0
 40
23.14455497217013
100
AcDbArc
 50
0.0
 51
14.12742288753736
  0
LINE
  5
1607
330
12A6
100
AcDbEntity
  8
1
  6
Continuous
100
AcDbLine
 10
282.0518055422525
 20
84.73718607714465
 30
0.0
 11
281.694629000059
 21
84.67591897881019
 31
0.0
  0
ARC
  5
1608
330
12A6
100
AcDbEntity
  8
1
  6
Continuous
100
AcDbCircle
 10
294.5079239534073
 20
82.1927308346091
 30
0.0
 40
12.8132949534517
100
AcDbArc
 50
180.0
 51
199.0262630835801
  0
LINE
  5
1609
330
12A6
100
AcDbEntity
  8
1
  6
Continuous
100
AcDbLine
 10
282.3946290000047
 20
78.01557714626764
 30
0.0
 11
281.6946290000592
 21
77.59804920631058
 31
0.0
  0
ARC
  5
160A
330
12A6
100
AcDbEntity
  8
1
  6
Continuous
100
AcDbCircle
 10
284.0208333174812
 20
84.40161690579884
 30
0.0
 40
2.32620431752562
100
AcDbArc
 50
173.1575250998436
 51
225.6467128691971
  0
LINE
  5
160B
330
12A6
100
AcDbEntity
  8
1
  6
Continuous
100
AcDbLine
 10
282.3946290000083
 20
82.73828108741827
 30
0.0
 11
281.6946290000592
 21
82.19273083468982
 31
0.0
  0
LINE
  5
160C
330
12A6
100
AcDbEntity
  8
1
  6
Continuous
100
AcDbLine
 10
279.5946290000085
 20
83.00991562387983
 30
0.0
 11
280.2946289999873
 21
83.55544209103246
 31
0.0
  0
LINE
  5
160D
330
12A6
100
AcDbEntity
  8
1
  6
Continuous
100
AcDbLine
 10
279.5946290000085
 20
83.00991562387983
 30
0.0
 11
280.294628999986
 21
82.7014282498655
 31
0.0
  0
LINE
  5
160E
330
12A6
100
AcDbEntity
  8
1
  6
Continuous
100
AcDbLine
 10
279.5946290000059
 20
79.38605743360028
 30
0.0
 11
280.2946289999878
 21
78.60068785131876
 31
0.0
  0
ARC
  5
160F
330
12A6
100
AcDbEntity
  8
1
  6
Continuous
100
AcDbCircle
 10
278.2772473783186
 20
80.91389957710992
 30
0.0
 40
2.017381621745911
100
AcDbArc
 50
310.769351133725
 51
0.0000000000898481
  0
LINE
  5
1610
330
12A6
100
AcDbEntity
  8
1
  6
Continuous
100
AcDbLine
 10
281.6946290000606
 20
87.50000099999942
 30
0.0
 11
280.2946290000607
 21
87.50000100000056
 31
0.0
  0
LINE
  5
1611
330
12A6
100
AcDbEntity
  8
1
  6
Continuous
100
AcDbLine
 10
280.2946289999928
 20
87.50000100000161
 30
0.0
 11
281.6946289999928
 21
87.50000099999827
 31
0.0
  0
LINE
  5
1612
330
12A6
100
AcDbEntity
  8
1
  6
Continuous
100
AcDbLine
 10
282.3946290000396
 20
84.85162074347369
 30
0.0
 11
282.0518055422526
 21
84.73718607714465
 31
0.0
  0
ARC
  5
1613
330
12A6
100
AcDbEntity
  8
1
  6
Continuous
100
AcDbCircle
 10
287.0545704161701
 20
87.50000099998578
 30
0.0
 40
5.359941416177306
100
AcDbArc
 50
179.9999999998651
 51
209.6108290547688
  0
LINE
  5
1614
330
12A6
100
AcDbEntity
  8
1
  6
Continuous
100
AcDbLine
 10
513.5162030000071
 20
267.3360240000016
 30
0.0
 11
513.516203000016
 21
238.3360240000011
 31
0.0
  0
LINE
  5
1615
330
12A6
100
AcDbEntity
  8
1
  6
Continuous
100
AcDbLine
 10
512.1162029999392
 20
267.3360239999993
 30
0.0
 11
512.1162029999416
 21
238.3360239999988
 31
0.0
  0
ARC
  5
1616
330
12A6
100
AcDbEntity
  8
1
  6
Continuous
100
AcDbCircle
 10
488.9716480277764
 20
257.4340768740608
 30
0.0
 40
23.14455497217013
100
AcDbArc
 50
345.8725771125522
 51
0.000000000089775
  0
LINE
  5
1617
330
12A6
100
AcDbEntity
  8
1
  6
Continuous
100
AcDbLine
 10
511.4162030000001
 20
266.836024
 30
0.0
 11
511.4162030000001
 21
238.836024
 31
0.0
  0
LINE
  5
1618
330
12A6
100
AcDbEntity
  8
1
  6
Continuous
100
AcDbLine
 10
504.4162029999998
 20
238.836024
 30
0.0
 11
504.4162029999998
 21
266.836024
 31
0.0
  0
LINE
  5
1619
330
12A6
100
AcDbEntity
  8
1
  6
Continuous
100
AcDbLine
 10
509.916203
 20
237.836024
 30
0.0
 11
509.916203
 21
267.8360239999999
 31
0.0
  0
LINE
  5
161A
330
12A6
100
AcDbEntity
  8
1
  6
Continuous
100
AcDbLine
 10
505.916203
 20
237.836022
 30
0.0
 11
505.916203
 21
267.836026
 31
0.0
  0
ARC
  5
161B
330
12A6
100
AcDbEntity
  8
1
  6
Continuous
100
AcDbCircle
 10
467.3236479999998
 20
252.836024
 30
0.0
 40
42.592555
100
AcDbArc
 50
348.268368
 51
11.73163200000002
  0
ARC
  5
161C
330
12A6
100
AcDbEntity
  8
1
  6
Continuous
100
AcDbCircle
 10
548.5087579999998
 20
252.836024
 30
0.0
 40
42.592555
100
AcDbArc
 50
168.268368
 51
191.7316319999999
  0
ARC
  5
161D
330
12A6
100
AcDbEntity
  8
1
  6
Continuous
100
AcDbCircle
 10
518.8761444161539
 20
238.3360240000093
 30
0.0
 40
5.359941416177306
100
AcDbArc
 50
150.389170945186
 51
180.0000000000897
  0
ARC
  5
161E
330
12A6
100
AcDbEntity
  8
1
  6
Continuous
100
AcDbCircle
 10
498.9344159999998
 20
239.845643
 30
0.0
 40
10.98178699999998
100
AcDbArc
 50
346.759569
 51
23.222372
  0
ARC
  5
161F
330
12A6
100
AcDbEntity
  8
1
  6
Continuous
100
AcDbCircle
 10
516.89799
 20
239.845643
 30
0.0
 40
10.98178699999998
100
AcDbArc
 50
156.7776279999999
 51
193.240447
  0
LINE
  5
1620
330
12A6
100
AcDbEntity
  8
1
  6
Continuous
100
AcDbLine
 10
512.1162029999416
 20
238.3360239999988
 30
0.0
 11
513.516203000016
 21
238.3360240000011
 31
0.0
  0
LINE
  5
1621
330
12A6
100
AcDbEntity
  8
1
  6
Continuous
100
AcDbLine
 10
507.2559479999998
 20
235.5155159999999
 30
0.0
 11
508.576457
 21
235.5155159999999
 31
0.0
  0
LINE
  5
1622
330
12A6
100
AcDbEntity
  8
1
  6
Continuous
100
AcDbLine
 10
508.576457
 20
235.5155159999999
 30
0.0
 11
509.916203
 21
237.836024
 31
0.0
  0
LINE
  5
1623
330
12A6
100
AcDbEntity
  8
1
  6
Continuous
100
AcDbLine
 10
507.2559479999998
 20
235.5155159999999
 30
0.0
 11
505.9162019999998
 21
237.836024
 31
0.0
  0
LINE
  5
1624
330
12A6
100
AcDbEntity
  8
4
  6
CENTER
100
AcDbLine
 10
516.9162029999998
 20
252.836024
 30
0.0
 11
501.416203
 21
252.836024
 31
0.0
  0
LINE
  5
1625
330
12A6
100
AcDbEntity
  8
1
  6
Continuous
100
AcDbLine
 10
511.4162030000001
 20
238.836024
 30
0.0
 11
509.916203
 21
238.836024
 31
0.0
  0
LINE
  5
1626
330
12A6
100
AcDbEntity
  8
1
  6
Continuous
100
AcDbLine
 10
511.4162029999952
 20
246.4499782530281
 30
0.0
 11
512.1162029999409
 21
247.2353456531383
 31
0.0
  0
ARC
  5
1627
330
12A6
100
AcDbEntity
  8
1
  6
Continuous
100
AcDbCircle
 10
526.3297019882693
 20
243.6432706606626
 30
0.0
 40
12.81349898822509
100
AcDbArc
 50
160.9738898075264
 51
180.0
  0
LINE
  5
1628
330
12A6
100
AcDbEntity
  8
1
  6
Continuous
100
AcDbLine
 10
514.2162030000254
 20
240.984404256525
 30
0.0
 11
513.8733795422385
 21
241.0988389228544
 31
0.0
  0
LINE
  5
1629
330
12A6
100
AcDbEntity
  8
1
  6
Continuous
100
AcDbLine
 10
511.4162029999913
 20
242.826109657073
 30
0.0
 11
512.1162029999411
 21
242.280559404344
 31
0.0
  0
LINE
  5
162A
330
12A6
100
AcDbEntity
  8
1
  6
Continuous
100
AcDbLine
 10
511.4162029999913
 20
242.826109657073
 30
0.0
 11
512.1162029999411
 21
243.1345932209245
 31
0.0
  0
ARC
  5
162B
330
12A6
100
AcDbEntity
  8
1
  6
Continuous
100
AcDbCircle
 10
510.0988213782986
 20
244.9221254228858
 30
0.0
 40
2.017381621745911
100
AcDbArc
 50
0.000000000000007
 51
49.23064886636481
  0
LINE
  5
162C
330
12A6
100
AcDbEntity
  8
1
  6
Continuous
100
AcDbLine
 10
513.8733795422383
 20
241.0988389228545
 30
0.0
 11
513.5162030000151
 21
241.1601060211942
 31
0.0
  0
LINE
  5
162D
330
12A6
100
AcDbEntity
  8
1
  6
Continuous
100
AcDbLine
 10
514.2162029999911
 20
243.0977441935347
 30
0.0
 11
513.5162030000143
 21
243.6432706606859
 31
0.0
  0
ARC
  5
162E
330
12A6
100
AcDbEntity
  8
1
  6
Continuous
100
AcDbCircle
 10
515.8424073174974
 20
241.4344080942059
 30
0.0
 40
2.32620431752562
100
AcDbArc
 50
134.3532871308923
 51
186.8424749004238
  0
ARC
  5
162F
330
12A6
100
AcDbEntity
  8
1
  6
Continuous
100
AcDbCircle
 10
511.0846198853638
 20
250.8081366399532
 30
0.0
 40
1.031583114680584
100
AcDbArc
 50
0.000000000000007
 51
71.25049329217809
  0
ARC
  5
1630
330
12A6
100
AcDbEntity
  8
1
  6
Continuous
100
AcDbCircle
 10
514.5477861146066
 20
254.8639113600438
 30
0.0
 40
1.031583114680584
100
AcDbArc
 50
179.99999999991
 51
251.2504932920883
  0
LINE
  5
1631
330
12A6
100
AcDbEntity
  8
1
  6
Continuous
100
AcDbLine
 10
514.2162029999941
 20
247.8204585403608
 30
0.0
 11
513.5162030000128
 21
248.2379711259208
 31
0.0
  0
ARC
  5
1632
330
12A6
100
AcDbEntity
  8
1
  6
Continuous
100
AcDbCircle
 10
536.6607579722145
 20
248.2379711259016
 30
0.0
 40
23.14455497217013
100
AcDbArc
 50
165.8725771124626
 51
180.0
  0
LINE
  5
1633
330
12A6
100
AcDbEntity
  8
1
  6
Continuous
100
AcDbLine
 10
505.916203
 20
238.836024
 30
0.0
 11
504.4162029999998
 21
238.836024
 31
0.0
  0
LINE
  5
1634
330
12A6
100
AcDbEntity
  8
1
  6
Continuous
100
AcDbLine
 10
504.4162029999998
 20
238.836024
 30
0.0
 11
505.916203
 21
238.836024
 31
0.0
  0
LINE
  5
1635
330
12A6
100
AcDbEntity
  8
1
  6
Continuous
100
AcDbLine
 10
506.8059309999998
 20
244.17577
 30
0.0
 11
509.026475
 21
244.17577
 31
0.0
  0
LINE
  5
1636
330
12A6
100
AcDbEntity
  8
1
  6
Continuous
100
AcDbLine
 10
504.4162029999998
 20
244.638443
 30
0.0
 11
505.916203
 21
244.638443
 31
0.0
  0
LINE
  5
1637
330
12A6
100
AcDbEntity
  8
1
  6
Continuous
100
AcDbLine
 10
504.4162029999998
 20
247.106297
 30
0.0
 11
505.916203
 21
247.106297
 31
0.0
  0
LINE
  5
1638
330
12A6
100
AcDbEntity
  8
1
  6
Continuous
100
AcDbLine
 10
511.4162030000001
 20
266.836024
 30
0.0
 11
509.916203
 21
266.836024
 31
0.0
  0
LINE
  5
1639
330
12A6
100
AcDbEntity
  8
1
  6
Continuous
100
AcDbLine
 10
511.7590264577471
 20
264.5732090771446
 30
0.0
 11
512.1162029999409
 21
264.5119419788102
 31
0.0
  0
ARC
  5
163A
330
12A6
100
AcDbEntity
  8
1
  6
Continuous
100
AcDbCircle
 10
499.3029080465926
 20
262.0287538346091
 30
0.0
 40
12.8132949534517
100
AcDbArc
 50
340.9737369164199
 51
0.000000000000007
  0
LINE
  5
163B
330
12A6
100
AcDbEntity
  8
1
  6
Continuous
100
AcDbLine
 10
511.4162029999952
 20
257.8516001462677
 30
0.0
 11
512.1162029999407
 21
257.4340722063106
 31
0.0
  0
ARC
  5
163C
330
12A6
100
AcDbEntity
  8
1
  6
Continuous
100
AcDbCircle
 10
509.7899986825186
 20
264.2376399057988
 30
0.0
 40
2.32620431752562
100
AcDbArc
 50
314.3532871308023
 51
6.842474900156338
  0
LINE
  5
163D
330
12A6
100
AcDbEntity
  8
1
  6
Continuous
100
AcDbLine
 10
511.4162029999913
 20
262.5743040874183
 30
0.0
 11
512.1162029999407
 21
262.0287538346896
 31
0.0
  0
LINE
  5
163E
330
12A6
100
AcDbEntity
  8
1
  6
Continuous
100
AcDbLine
 10
514.2162029999911
 20
262.8459386238798
 30
0.0
 11
513.5162030000126
 21
263.3914650910325
 31
0.0
  0
LINE
  5
163F
330
12A6
100
AcDbEntity
  8
1
  6
Continuous
100
AcDbLine
 10
514.2162029999911
 20
262.8459386238798
 30
0.0
 11
513.5162030000136
 21
262.5374512498655
 31
0.0
  0
LINE
  5
1640
330
12A6
100
AcDbEntity
  8
1
  6
Continuous
100
AcDbLine
 10
514.2162029999939
 20
259.2220804336001
 30
0.0
 11
513.5162030000119
 21
258.4367108513187
 31
0.0
  0
ARC
  5
1641
330
12A6
100
AcDbEntity
  8
1
  6
Continuous
100
AcDbCircle
 10
515.5335846216813
 20
260.7499225771098
 30
0.0
 40
2.017381621745911
100
AcDbArc
 50
179.99999999991
 51
229.2306488662747
  0
LINE
  5
1642
330
12A6
100
AcDbEntity
  8
1
  6
Continuous
100
AcDbLine
 10
512.1162029999392
 20
267.3360239999993
 30
0.0
 11
513.5162029999388
 21
267.3360240000004
 31
0.0
  0
LINE
  5
1643
330
12A6
100
AcDbEntity
  8
1
  6
Continuous
100
AcDbLine
 10
513.5162030000071
 20
267.3360240000016
 30
0.0
 11
512.1162030000069
 21
267.3360239999983
 31
0.0
  0
LINE
  5
1644
330
12A6
100
AcDbEntity
  8
1
  6
Continuous
100
AcDbLine
 10
511.4162029999604
 20
264.6876437434737
 30
0.0
 11
511.759026457747
 21
264.5732090771446
 31
0.0
  0
ARC
  5
1645
330
12A6
100
AcDbEntity
  8
1
  6
Continuous
100
AcDbCircle
 10
506.7562615838296
 20
267.3360239999857
 30
0.0
 40
5.359941416177306
100
AcDbArc
 50
330.3891709452312
 51
0.000000000134888
  0
ARC
  5
1646
330
12A6
100
AcDbEntity
  8
1
  6
Continuous
100
AcDbCircle
 10
498.9344159999998
 20
265.8264049999999
 30
0.0
 40
10.98178699999998
100
AcDbArc
 50
336.777628
 51
13.24043099999999
  0
ARC
  5
1647
330
12A6
100
AcDbEntity
  8
1
  6
Continuous
100
AcDbCircle
 10
516.89799
 20
265.8264049999999
 30
0.0
 40
10.98178699999998
100
AcDbArc
 50
166.7595529999998
 51
203.222372
  0
LINE
  5
1648
330
12A6
100
AcDbEntity
  8
1
  6
Continuous
100
AcDbLine
 10
504.4162029999998
 20
258.5657509999999
 30
0.0
 11
505.916203
 21
258.5657509999999
 31
0.0
  0
LINE
  5
1649
330
12A6
100
AcDbEntity
  8
1
  6
Continuous
100
AcDbLine
 10
506.8059309999998
 20
261.4962779999999
 30
0.0
 11
509.026475
 21
261.4962779999999
 31
0.0
  0
LINE
  5
164A
330
12A6
100
AcDbEntity
  8
1
  6
Continuous
100
AcDbLine
 10
504.4162029999998
 20
261.0336049999999
 30
0.0
 11
505.916203
 21
261.0336049999999
 31
0.0
  0
LINE
  5
164B
330
12A6
100
AcDbEntity
  8
1
  6
Continuous
100
AcDbLine
 10
505.916203
 20
266.836024
 30
0.0
 11
504.4162029999998
 21
266.836024
 31
0.0
  0
LINE
  5
164C
330
12A6
100
AcDbEntity
  8
1
  6
Continuous
100
AcDbLine
 10
504.4162029999998
 20
266.836024
 30
0.0
 11
505.916203
 21
266.836024
 31
0.0
  0
LINE
  5
164D
330
12A6
100
AcDbEntity
  8
1
  6
Continuous
100
AcDbLine
 10
507.2559479999998
 20
270.1565319999999
 30
0.0
 11
508.576457
 21
270.1565319999999
 31
0.0
  0
LINE
  5
164E
330
12A6
100
AcDbEntity
  8
1
  6
Continuous
100
AcDbLine
 10
508.576457
 20
270.1565319999999
 30
0.0
 11
509.916203
 21
267.8360239999999
 31
0.0
  0
LINE
  5
164F
330
12A6
100
AcDbEntity
  8
1
  6
Continuous
100
AcDbLine
 10
507.2559479999998
 20
270.1565319999999
 30
0.0
 11
505.9162019999998
 21
267.8360239999999
 31
0.0
  0
ENDSEC
  0
SECTION
  2
OBJECTS
  0
DICTIONARY
  5
1294
330
0
100
AcDbDictionary
281
     1
  3
ACAD_CIP_PREVIOUS_PRODUCT_INFO
350
16B4
  3
ACAD_COLOR
350
1697
  3
ACAD_DETAILVIEWSTYLE
350
16B0
  3
ACAD_GROUP
350
1295
  3
ACAD_LAYOUT
350
12A1
  3
ACAD_MATERIAL
350
1665
  3
ACAD_MLEADERSTYLE
350
16AC
  3
ACAD_MLINESTYLE
350
129E
  3
ACAD_PLOTSETTINGS
350
12A0
  3
ACAD_PLOTSTYLENAME
350
1663
  3
ACAD_SCALELIST
350
169A
  3
ACAD_SECTIONVIEWSTYLE
350
16AE
  3
ACAD_TABLESTYLE
350
1698
  3
ACAD_VISUALSTYLE
350
167E
  3
ACDB_RECOMPOSE_DATA
350
16D2
  3
AcDbVariableDictionary
350
16C5
  3
DWGPROPS
350
16D3
  0
DICTIONARY
  5
16B5
330
1298
100
AcDbDictionary
280
     1
281
     1
  3
ADSK_XREC_LAYER_RECONCILED
360
16B6
  0
DICTIONARY
  5
16B7
330
12AE
100
AcDbDictionary
280
     1
281
     1
  3
ADSK_XREC_LAYER_RECONCILED
360
16B8
  0
DICTIONARY
  5
16B9
330
12AF
100
AcDbDictionary
280
     1
281
     1
  3
ADSK_XREC_LAYER_RECONCILED
360
16BA
  0
DICTIONARY
  5
16BB
330
12B0
100
AcDbDictionary
280
     1
281
     1
  3
ADSK_XREC_LAYER_RECONCILED
360
16BC
  0
DICTIONARY
  5
16BD
330
12B1
100
AcDbDictionary
280
     1
281
     1
  3
ADSK_XREC_LAYER_RECONCILED
360
16BE
  0
DICTIONARY
  5
16BF
330
12B2
100
AcDbDictionary
280
     1
281
     1
  3
ADSK_XREC_LAYER_RECONCILED
360
16C0
  0
DICTIONARY
  5
16C1
330
12B3
100
AcDbDictionary
280
     1
281
     1
  3
ADSK_XREC_LAYER_RECONCILED
360
16C2
  0
DICTIONARY
  5
16C3
330
12B4
100
AcDbDictionary
280
     1
281
     1
  3
ADSK_XREC_LAYER_RECONCILED
360
16C4
  0
DICTIONARY
  5
165E
330
12A6
100
AcDbDictionary
281
     1
  3
ACAD_LAYOUTSELFREF
350
165F
  0
DICTIONARY
  5
165C
330
12A2
100
AcDbDictionary
281
     1
  3
ACAD_LAYOUTSELFREF
350
165D
  0
XRECORD
  5
16B4
102
{ACAD_REACTORS
330
1294
102
}
330
1294
100
AcDbXrecord
280
     1
300
ACDLT
300
2014
300
ACDLT_F_S
  0
DICTIONARY
  5
1697
102
{ACAD_REACTORS
330
1294
102
}
330
1294
100
AcDbDictionary
281
     1
  0
DICTIONARY
  5
16B0
102
{ACAD_REACTORS
330
1294
102
}
330
1294
100
AcDbDictionary
281
     1
  3
Imperial24
350
16B1
  0
DICTIONARY
  5
1295
102
{ACAD_REACTORS
330
1294
102
}
330
1294
100
AcDbDictionary
281
     1
  0
DICTIONARY
  5
12A1
102
{ACAD_REACTORS
330
1294
102
}
330
1294
100
AcDbDictionary
281
     1
  3
Model
350
16B2
  3
レイアウト1
350
16B3
  0
DICTIONARY
  5
1665
102
{ACAD_REACTORS
330
1294
102
}
330
1294
100
AcDbDictionary
281
     1
  3
ByBlock
350
166E
  3
ByLayer
350
1666
  3
Global
350
1676
  0
DICTIONARY
  5
16AC
102
{ACAD_REACTORS
330
1294
102
}
330
1294
100
AcDbDictionary
281
     1
  3
Standard
350
16AD
  0
DICTIONARY
  5
129E
102
{ACAD_REACTORS
330
1294
102
}
330
1294
100
AcDbDictionary
281
     1
  3
STANDARD
350
129F
  0
DICTIONARY
  5
12A0
102
{ACAD_REACTORS
330
1294
102
}
330
1294
100
AcDbDictionary
281
     1
  0
ACDBDICTIONARYWDFLT
  5
1663
102
{ACAD_REACTORS
330
1294
102
}
330
1294
100
AcDbDictionary
281
     1
  3
Normal
350
1664
100
AcDbDictionaryWithDefault
340
1664
  0
DICTIONARY
  5
169A
102
{ACAD_REACTORS
330
1294
102
}
330
1294
100
AcDbDictionary
281
     1
  3
A0
350
169B
  3
A1
350
169C
  3
A2
350
169D
  3
A3
350
169E
  3
A4
350
169F
  3
A5
350
16A0
  3
A6
350
16A1
  3
A7
350
16A2
  3
A8
350
16A3
  3
A9
350
16A4
  3
B0
350
16A5
  3
B1
350
16A6
  3
B2
350
16A7
  3
B3
350
16A8
  3
B4
350
16A9
  3
B5
350
16AA
  3
B6
350
16AB
  0
DICTIONARY
  5
16AE
102
{ACAD_REACTORS
330
1294
102
}
330
1294
100
AcDbDictionary
281
     1
  3
Imperial24
350
16AF
  0
DICTIONARY
  5
1698
102
{ACAD_REACTORS
330
1294
102
}
330
1294
100
AcDbDictionary
281
     1
  3
Standard
350
1699
  0
DICTIONARY
  5
167E
102
{ACAD_REACTORS
330
1294
102
}
330
1294
100
AcDbDictionary
281
     1
  3
2dWireframe
350
1684
  3
Basic
350
1683
  3
Brighten
350
168A
  3
ColorChange
350
168E
  3
Conceptual
350
1687
  3
Dim
350
1689
  3
EdgeColorOff
350
1696
  3
Facepattern
350
168D
  3
Flat
350
167F
  3
FlatWithEdges
350
1680
  3
Gouraud
350
1681
  3
GouraudWithEdges
350
1682
  3
Hidden
350
1686
  3
JitterOff
350
1694
  3
Linepattern
350
168C
  3
OverhangOff
350
1695
  3
Realistic
350
1688
  3
Shaded
350
1693
  3
Shaded with edges
350
1692
  3
Shades of Gray
350
168F
  3
Sketchy
350
1690
  3
Thicken
350
168B
  3
Wireframe
350
1685
  3
X-Ray
350
1691
  0
XRECORD
  5
16D2
102
{ACAD_REACTORS
330
1294
102
}
330
1294
100
AcDbXrecord
280
     1
 90
        1
330
1699
  0
DICTIONARY
  5
16C5
102
{ACAD_REACTORS
330
1294
102
}
330
1294
100
AcDbDictionary
281
     1
  3
CANNOSCALE
350
16CA
  3
CMLEADERSTYLE
350
16C7
  3
CTABLESTYLE
350
16C6
  3
CVIEWDETAILSTYLE
350
16C8
  3
CVIEWSECTIONSTYLE
350
16C9
  3
DIMASSOC
350
16CD
  3
INDEXCTL
350
16CC
  3
SORTENTS
350
16CB
  3
XCLIPFRAME
350
16CE
  0
XRECORD
  5
16D3
102
{ACAD_REACTORS
330
1294
102
}
330
1294
100
AcDbXrecord
280
     1
  1
DWGPROPS COOKIE
  2

  3

  4

  6

  7

  8
Yoshitsune
  9

300
=
301
=
302
=
303
=
304
=
305
=
306
=
307
=
308
=
309
=
 40
0.0190400462962963
 41
2452065.504137998
 42
2457192.641514595
  1

 90
        0
  0
XRECORD
  5
16B6
102
{ACAD_REACTORS
330
16B5
102
}
330
16B5
100
AcDbXrecord
280
     1
290
     1
  0
XRECORD
  5
16B8
102
{ACAD_REACTORS
330
16B7
102
}
330
16B7
100
AcDbXrecord
280
     1
290
     1
  0
XRECORD
  5
16BA
102
{ACAD_REACTORS
330
16B9
102
}
330
16B9
100
AcDbXrecord
280
     1
290
     1
  0
XRECORD
  5
16BC
102
{ACAD_REACTORS
330
16BB
102
}
330
16BB
100
AcDbXrecord
280
     1
290
     1
  0
XRECORD
  5
16BE
102
{ACAD_REACTORS
330
16BD
102
}
330
16BD
100
AcDbXrecord
280
     1
290
     1
  0
XRECORD
  5
16C0
102
{ACAD_REACTORS
330
16BF
102
}
330
16BF
100
AcDbXrecord
280
     1
290
     1
  0
XRECORD
  5
16C2
102
{ACAD_REACTORS
330
16C1
102
}
330
16C1
100
AcDbXrecord
280
     1
290
     1
  0
XRECORD
  5
16C4
102
{ACAD_REACTORS
330
16C3
102
}
330
16C3
100
AcDbXrecord
280
     1
290
     1
  0
XRECORD
  5
165F
102
{ACAD_REACTORS
330
165E
102
}
330
165E
100
AcDbXrecord
280
     1
340
12A6
  0
XRECORD
  5
165D
102
{ACAD_REACTORS
330
165C
102
}
330
165C
100
AcDbXrecord
280
     1
340
12A2
  0
ACDBDETAILVIEWSTYLE
  5
16B1
102
{ACAD_XDICTIONARY
360
170B
102
}
102
{ACAD_REACTORS
330
16B0
102
}
330
16B0
100
AcDbModelDocViewStyle
 70
     0
  3
Imperial24
290
     0
100
AcDbDetailViewStyle
 70
     0
 71
     0
 90
        3
 71
     1
340
1299
 40
0.24
340
0
 40
0.24
300

 40
0.36
280
     3
 71
     2
340
129D
 90
       25
 71
     3
340
1299
 40
0.24
 90
        1
 40
0.75
 90
        1
300
%<\AcVar ViewType \f "%tc1">% %<\AcVar ViewDetailId>%\PSCALE %<\AcVar ViewScale \f "%sn">%
 71
     4
340
129D
 90
       25
340
129D
 90
       25
280
     0
  0
LAYOUT
  5
16B2
102
{ACAD_XDICTIONARY
360
170D
102
}
102
{ACAD_REACTORS
330
12A1
102
}
330
12A1
100
AcDbPlotSettings
  1

  2
Canon LBP9100C
  4

  6

 40
0.0
 41
0.0
 42
0.0
 43
0.0
 44
0.0
 45
0.0
 46
0.0
 47
0.0
 48
0.0
 49
0.0
140
0.0
141
0.0
142
1.0
143
1.0
 70
  1712
 72
     0
 73
     0
 74
     0
  7

 75
     0
147
1.0
148
0.0
149
0.0
100
AcDbLayout
  1
Model
 70
     1
 71
     0
 10
0.0
 20
0.0
 11
12.0
 21
9.0
 12
0.0
 22
0.0
 32
0.0
 14
0.0
 24
0.0
 34
0.0
 15
0.0
 25
0.0
 35
0.0
146
0.0
 13
0.0
 23
0.0
 33
0.0
 16
1.0
 26
0.0
 36
0.0
 17
0.0
 27
1.0
 37
0.0
 76
     0
330
12A6
331
165B
  0
LAYOUT
  5
16B3
102
{ACAD_XDICTIONARY
360
170F
102
}
102
{ACAD_REACTORS
330
12A1
102
}
330
12A1
100
AcDbPlotSettings
  1

  2
Canon LBP9100C
  4

  6

 40
0.0
 41
0.0
 42
0.0
 43
0.0
 44
0.0
 45
0.0
 46
0.0
 47
0.0
 48
0.0
 49
0.0
140
0.0
141
0.0
142
1.0
143
1.0
 70
   688
 72
     0
 73
     0
 74
     5
  7

 75
    16
147
1.0
148
0.0
149
0.0
100
AcDbLayout
  1
レイアウト1
 70
     1
 71
     1
 10
0.0
 20
0.0
 11
420.0
 21
297.0
 12
0.0
 22
0.0
 32
0.0
 14
1.000000000000000E+20
 24
1.000000000000000E+20
 34
1.000000000000000E+20
 15
-1.000000000000000E+20
 25
-1.000000000000000E+20
 35
-1.000000000000000E+20
146
0.0
 13
0.0
 23
0.0
 33
0.0
 16
1.0
 26
0.0
 36
0.0
 17
0.0
 27
1.0
 37
0.0
 76
     0
330
12A2
  0
MATERIAL
  5
166E
102
{ACAD_XDICTIONARY
360
166F
102
}
102
{ACAD_REACTORS
330
1665
102
}
330
1665
100
AcDbMaterial
  1
ByBlock
 72
     0
 43
0.0208333333333333
 43
0.0
 43
0.0
 43
0.0
 43
0.0
 43
0.0208333333333333
 43
0.0
 43
0.0
 43
0.0
 43
0.0
 43
1.0
 43
0.0
 43
0.0
 43
0.0
 43
0.0
 43
1.0
 77
     0
 47
0.0208333333333333
 47
0.0
 47
0.0
 47
0.0
 47
0.0
 47
0.0208333333333333
 47
0.0
 47
0.0
 47
0.0
 47
0.0
 47
1.0
 47
0.0
 47
0.0
 47
0.0
 47
0.0
 47
1.0
171
     0
 49
0.0208333333333333
 49
0.0
 49
0.0
 49
0.0
 49
0.0
 49
0.0208333333333333
 49
0.0
 49
0.0
 49
0.0
 49
0.0
 49
1.0
 49
0.0
 49
0.0
 49
0.0
 49
0.0
 49
1.0
175
     0
142
0.0208333333333333
142
0.0
142
0.0
142
0.0
142
0.0
142
0.0208333333333333
142
0.0
142
0.0
142
0.0
142
0.0
142
1.0
142
0.0
142
0.0
142
0.0
142
0.0
142
1.0
179
     0
144
0.0208333333333333
144
0.0
144
0.0
144
0.0
144
0.0
144
0.0208333333333333
144
0.0
144
0.0
144
0.0
144
0.0
144
1.0
144
0.0
144
0.0
144
0.0
144
0.0
144
1.0
147
0.0208333333333333
147
0.0
147
0.0
147
0.0
147
0.0
147
0.0208333333333333
147
0.0
147
0.0
147
0.0
147
0.0
147
1.0
147
0.0
147
0.0
147
0.0
147
0.0
147
1.0
  0
MATERIAL
  5
1666
102
{ACAD_XDICTIONARY
360
1667
102
}
102
{ACAD_REACTORS
330
1665
102
}
330
1665
100
AcDbMaterial
  1
ByLayer
 72
     0
 43
0.0208333333333333
 43
0.0
 43
0.0
 43
0.0
 43
0.0
 43
0.0208333333333333
 43
0.0
 43
0.0
 43
0.0
 43
0.0
 43
1.0
 43
0.0
 43
0.0
 43
0.0
 43
0.0
 43
1.0
 77
     0
 47
0.0208333333333333
 47
0.0
 47
0.0
 47
0.0
 47
0.0
 47
0.0208333333333333
 47
0.0
 47
0.0
 47
0.0
 47
0.0
 47
1.0
 47
0.0
 47
0.0
 47
0.0
 47
0.0
 47
1.0
171
     0
 49
0.0208333333333333
 49
0.0
 49
0.0
 49
0.0
 49
0.0
 49
0.0208333333333333
 49
0.0
 49
0.0
 49
0.0
 49
0.0
 49
1.0
 49
0.0
 49
0.0
 49
0.0
 49
0.0
 49
1.0
175
     0
142
0.0208333333333333
142
0.0
142
0.0
142
0.0
142
0.0
142
0.0208333333333333
142
0.0
142
0.0
142
0.0
142
0.0
142
1.0
142
0.0
142
0.0
142
0.0
142
0.0
142
1.0
179
     0
144
0.0208333333333333
144
0.0
144
0.0
144
0.0
144
0.0
144
0.0208333333333333
144
0.0
144
0.0
144
0.0
144
0.0
144
1.0
144
0.0
144
0.0
144
0.0
144
0.0
144
1.0
147
0.0208333333333333
147
0.0
147
0.0
147
0.0
147
0.0
147
0.0208333333333333
147
0.0
147
0.0
147
0.0
147
0.0
147
1.0
147
0.0
147
0.0
147
0.0
147
0.0
147
1.0
  0
MATERIAL
  5
1676
102
{ACAD_XDICTIONARY
360
1677
102
}
102
{ACAD_REACTORS
330
1665
102
}
330
1665
100
AcDbMaterial
  1
Global
 72
     0
 43
0.0208333333333333
 43
0.0
 43
0.0
 43
0.0
 43
0.0
 43
0.0208333333333333
 43
0.0
 43
0.0
 43
0.0
 43
0.0
 43
1.0
 43
0.0
 43
0.0
 43
0.0
 43
0.0
 43
1.0
 77
     0
 47
0.0208333333333333
 47
0.0
 47
0.0
 47
0.0
 47
0.0
 47
0.0208333333333333
 47
0.0
 47
0.0
 47
0.0
 47
0.0
 47
1.0
 47
0.0
 47
0.0
 47
0.0
 47
0.0
 47
1.0
171
     0
 49
0.0208333333333333
 49
0.0
 49
0.0
 49
0.0
 49
0.0
 49
0.0208333333333333
 49
0.0
 49
0.0
 49
0.0
 49
0.0
 49
1.0
 49
0.0
 49
0.0
 49
0.0
 49
0.0
 49
1.0
175
     0
142
0.0208333333333333
142
0.0
142
0.0
142
0.0
142
0.0
142
0.0208333333333333
142
0.0
142
0.0
142
0.0
142
0.0
142
1.0
142
0.0
142
0.0
142
0.0
142
0.0
142
1.0
179
     0
144
0.0208333333333333
144
0.0
144
0.0
144
0.0
144
0.0
144
0.0208333333333333
144
0.0
144
0.0
144
0.0
144
0.0
144
1.0
144
0.0
144
0.0
144
0.0
144
0.0
144
1.0
147
0.0208333333333333
147
0.0
147
0.0
147
0.0
147
0.0
147
0.0208333333333333
147
0.0
147
0.0
147
0.0
147
0.0
147
1.0
147
0.0
147
0.0
147
0.0
147
0.0
147
1.0
  0
MLEADERSTYLE
  5
16AD
102
{ACAD_REACTORS
330
16AC
102
}
330
16AC
100
AcDbMLeaderStyle
170
     2
171
     1
172
     0
 90
        2
 40
0.0
 41
0.0
173
     1
 91
-1056964608
340
129B
 92
       -2
290
     1
 42
0.09
291
     1
 43
0.36
  3
Standard
 44
0.18
300

342
1299
174
     1
178
     6
175
     1
176
     0
 93
-1056964608
 45
0.18
292
     0
297
     0
 46
0.18
 94
-1056964608
 47
1.0
 49
1.0
140
1.0
293
     1
141
0.0
294
     1
177
     0
142
1.0
295
     0
296
     0
143
0.125
1001
ACAD_MLEADERVER
1070
     2
  0
MLINESTYLE
  5
129F
102
{ACAD_REACTORS
330
129E
102
}
330
129E
100
AcDbMlineStyle
  2
STANDARD
 70
     0
  3

 62
   256
 51
90.0
 52
90.0
 71
     2
 49
0.5
 62
   256
  6
BYLAYER
 49
-0.5
 62
   256
  6
BYLAYER
  0
ACDBPLACEHOLDER
  5
1664
102
{ACAD_REACTORS
330
1663
102
}
330
1663
  0
SCALE
  5
169B
102
{ACAD_REACTORS
330
169A
102
}
330
169A
100
AcDbScale
 70
     0
300
1:1
140
1.0
141
1.0
290
     1
  0
SCALE
  5
169C
102
{ACAD_REACTORS
330
169A
102
}
330
169A
100
AcDbScale
 70
     0
300
1/128" = 1'-0"
140
0.0078125
141
12.0
290
     0
  0
SCALE
  5
169D
102
{ACAD_REACTORS
330
169A
102
}
330
169A
100
AcDbScale
 70
     0
300
1/64" = 1'-0"
140
0.015625
141
12.0
290
     0
  0
SCALE
  5
169E
102
{ACAD_REACTORS
330
169A
102
}
330
169A
100
AcDbScale
 70
     0
300
1/32" = 1'-0"
140
0.03125
141
12.0
290
     0
  0
SCALE
  5
169F
102
{ACAD_REACTORS
330
169A
102
}
330
169A
100
AcDbScale
 70
     0
300
1/16" = 1'-0"
140
0.0625
141
12.0
290
     0
  0
SCALE
  5
16A0
102
{ACAD_REACTORS
330
169A
102
}
330
169A
100
AcDbScale
 70
     0
300
3/32" = 1'-0"
140
0.09375
141
12.0
290
     0
  0
SCALE
  5
16A1
102
{ACAD_REACTORS
330
169A
102
}
330
169A
100
AcDbScale
 70
     0
300
1/8" = 1'-0"
140
0.125
141
12.0
290
     0
  0
SCALE
  5
16A2
102
{ACAD_REACTORS
330
169A
102
}
330
169A
100
AcDbScale
 70
     0
300
3/16" = 1'-0"
140
0.1875
141
12.0
290
     0
  0
SCALE
  5
16A3
102
{ACAD_REACTORS
330
169A
102
}
330
169A
100
AcDbScale
 70
     0
300
1/4" = 1'-0"
140
0.25
141
12.0
290
     0
  0
SCALE
  5
16A4
102
{ACAD_REACTORS
330
169A
102
}
330
169A
100
AcDbScale
 70
     0
300
3/8" = 1'-0"
140
0.375
141
12.0
290
     0
  0
SCALE
  5
16A5
102
{ACAD_REACTORS
330
169A
102
}
330
169A
100
AcDbScale
 70
     0
300
1/2" = 1'-0"
140
0.5
141
12.0
290
     0
  0
SCALE
  5
16A6
102
{ACAD_REACTORS
330
169A
102
}
330
169A
100
AcDbScale
 70
     0
300
3/4" = 1'-0"
140
0.75
141
12.0
290
     0
  0
SCALE
  5
16A7
102
{ACAD_REACTORS
330
169A
102
}
330
169A
100
AcDbScale
 70
     0
300
1" = 1'-0"
140
1.0
141
12.0
290
     0
  0
SCALE
  5
16A8
102
{ACAD_REACTORS
330
169A
102
}
330
169A
100
AcDbScale
 70
     0
300
1-1/2" = 1'-0"
140
1.5
141
12.0
290
     0
  0
SCALE
  5
16A9
102
{ACAD_REACTORS
330
169A
102
}
330
169A
100
AcDbScale
 70
     0
300
3" = 1'-0"
140
3.0
141
12.0
290
     0
  0
SCALE
  5
16AA
102
{ACAD_REACTORS
330
169A
102
}
330
169A
100
AcDbScale
 70
     0
300
6" = 1'-0"
140
6.0
141
12.0
290
     0
  0
SCALE
  5
16AB
102
{ACAD_REACTORS
330
169A
102
}
330
169A
100
AcDbScale
 70
     0
300
1'-0" = 1'-0"
140
12.0
141
12.0
290
     0
  0
ACDBSECTIONVIEWSTYLE
  5
16AF
102
{ACAD_XDICTIONARY
360
1709
102
}
102
{ACAD_REACTORS
330
16AE
102
}
330
16AE
100
AcDbModelDocViewStyle
 70
     0
  3
Imperial24
290
     0
100
AcDbSectionViewStyle
 70
     0
 71
     0
 90
       78
 71
     1
340
1299
 40
0.24
340
0
340
0
 40
0.24
300
I, O, Q, S, X, Z
 40
0.48
 90
        3
 40
0.18
 90
        1
 71
     2
340
129D
 90
       25
340
129D
 90
       50
 40
0.24
 40
0.0
 40
0.24
 71
     3
340
1299
 40
0.24
 90
        1
 40
0.75
 90
        1
300
%<\AcVar ViewType \f "%tc1">% %<\AcVar ViewSectionStartId>%-%<\AcVar ViewSectionEndId>%\PSCALE %<\AcVar ViewScale \f "%sn">%
 71
     4
300
ANSI31
 40
1.0
 90
        0
290
     0
290
     0
 90
        6
 40
0.0
 40
1.570796326794896
 40
0.2617993877991494
 40
1.308996938995747
 40
-0.2617993877991494
 40
1.832595714594046
  0
TABLESTYLE
  5
1699
102
{ACAD_XDICTIONARY
360
16D0
102
}
102
{ACAD_REACTORS
330
1698
102
}
330
1698
100
AcDbTableStyle
  3
Standard
 70
     0
 71
     0
 40
0.06
 41
0.06
280
     0
281
     0
  7
STANDARD
140
0.18
170
     2
 62
     0
 63
     7
283
     0
274
    -2
284
     1
 64
     0
275
    -2
285
     1
 65
     0
276
    -2
286
     1
 66
     0
277
    -2
287
     1
 67
     0
278
    -2
288
     1
 68
     0
279
    -2
289
     1
 69
     0
  7
STANDARD
140
0.25
170
     5
 62
     0
 63
     7
283
     0
274
    -2
284
     1
 64
     0
275
    -2
285
     1
 65
     0
276
    -2
286
     1
 66
     0
277
    -2
287
     1
 67
     0
278
    -2
288
     1
 68
     0
279
    -2
289
     1
 69
     0
  7
STANDARD
140
0.18
170
     5
 62
     0
 63
     7
283
     0
274
    -2
284
     1
 64
     0
275
    -2
285
     1
 65
     0
276
    -2
286
     1
 66
     0
277
    -2
287
     1
 67
     0
278
    -2
288
     1
 68
     0
279
    -2
289
     1
 69
     0
  0
VISUALSTYLE
  5
1684
102
{ACAD_XDICTIONARY
360
16E1
102
}
102
{ACAD_REACTORS
330
167E
102
}
330
167E
100
AcDbVisualStyle
  2
2dWireframe
 70
     4
 71
     0
 72
     2
 73
     0
 90
        0
 40
-0.6
 41
-30.0
 62
     5
 63
     7
 74
     1
 91
        4
 64
     7
 65
   257
 75
     1
175
     1
 42
1.0
 92
        0
 66
   257
 43
1.0
 76
     1
 77
     6
 78
     2
 67
     7
 79
     5
170
     0
171
     0
290
     0
174
     0
 93
        1
 44
0.0
173
     0
291
     0
 45
0.0
1001
ACAD
1000
AcDbSavedByObjectVersion
1070
     0
  0
VISUALSTYLE
  5
1683
102
{ACAD_XDICTIONARY
360
16DF
102
}
102
{ACAD_REACTORS
330
167E
102
}
330
167E
100
AcDbVisualStyle
  2
Basic
 70
     7
 71
     1
 72
     0
 73
     1
 90
        0
 40
-0.6
 41
-30.0
 62
     5
 63
     7
 74
     0
 91
        4
 64
     7
 65
   257
 75
     1
175
     1
 42
1.0
 92
        8
 66
     7
 43
1.0
 76
     1
 77
     6
 78
     2
 67
     7
 79
     5
170
     0
171
     0
290
     0
174
     0
 93
        1
 44
0.0
173
     0
291
     1
 45
0.0
1001
ACAD
1000
AcDbSavedByObjectVersion
1070
     0
  0
VISUALSTYLE
  5
168A
102
{ACAD_XDICTIONARY
360
16ED
102
}
102
{ACAD_REACTORS
330
167E
102
}
330
167E
100
AcDbVisualStyle
  2
Brighten
 70
    12
 71
     2
 72
     2
 73
     0
 90
        0
 40
-0.6
 41
-30.0
 62
     5
 63
     7
 74
     1
 91
        4
 64
     7
 65
   257
 75
     1
175
     1
 42
1.0
 92
        8
 66
     7
 43
1.0
 76
     1
 77
     6
 78
     2
 67
     7
 79
     5
170
     0
171
     0
290
     0
174
     0
 93
        1
 44
50.0
173
     0
291
     1
 45
0.0
1001
ACAD
1000
AcDbSavedByObjectVersion
1070
     0
  0
VISUALSTYLE
  5
168E
102
{ACAD_XDICTIONARY
360
16F5
102
}
102
{ACAD_REACTORS
330
167E
102
}
330
167E
100
AcDbVisualStyle
  2
ColorChange
 70
    16
 71
     2
 72
     2
 73
     3
 90
        0
 40
-0.6
 41
-30.0
 62
     5
 63
     8
 74
     1
 91
        4
 64
     7
 65
   257
 75
     1
175
     1
 42
1.0
 92
        8
 66
     8
 43
1.0
 76
     1
 77
     6
 78
     2
 67
     7
 79
     5
170
     0
171
     0
290
     0
174
     0
 93
        1
 44
0.0
173
     0
291
     1
 45
0.0
1001
ACAD
1000
AcDbSavedByObjectVersion
1070
     0
  0
VISUALSTYLE
  5
1687
102
{ACAD_XDICTIONARY
360
16E7
102
}
102
{ACAD_REACTORS
330
167E
102
}
330
167E
100
AcDbVisualStyle
  2
Conceptual
 70
     9
 71
     3
 72
     2
 73
     0
 90
        0
 40
-0.6
 41
-30.0
 62
     5
 63
     7
 74
     2
 91
        2
 64
     7
 65
   257
 75
     1
175
     1
 42
179.0
 92
        8
 66
     7
 43
1.0
 76
     1
 77
     6
 78
     2
 67
     7
 79
     3
170
     0
171
     0
290
     0
174
     0
 93
        1
 44
0.0
173
     0
291
     0
 45
0.0
1001
ACAD
1000
AcDbSavedByObjectVersion
1070
     0
  0
VISUALSTYLE
  5
1689
102
{ACAD_XDICTIONARY
360
16EB
102
}
102
{ACAD_REACTORS
330
167E
102
}
330
167E
100
AcDbVisualStyle
  2
Dim
 70
    11
 71
     2
 72
     2
 73
     0
 90
        0
 40
-0.6
 41
-30.0
 62
     5
 63
     7
 74
     1
 91
        4
 64
     7
 65
   257
 75
     1
175
     1
 42
1.0
 92
        8
 66
     7
 43
1.0
 76
     1
 77
     6
 78
     2
 67
     7
 79
     5
170
     0
171
     0
290
     0
174
     0
 93
        1
 44
-50.0
173
     0
291
     1
 45
0.0
1001
ACAD
1000
AcDbSavedByObjectVersion
1070
     0
  0
VISUALSTYLE
  5
1696
102
{ACAD_XDICTIONARY
360
1705
102
}
102
{ACAD_REACTORS
330
167E
102
}
330
167E
100
AcDbVisualStyle
  2
EdgeColorOff
 70
    22
 71
     2
 72
     2
 73
     0
 90
        0
 40
-0.6
 41
-30.0
 62
     5
 63
     7
 74
     1
 91
        4
 64
     7
 65
   257
 75
     1
175
     1
 42
1.0
 92
        8
 66
     7
 43
1.0
 76
     1
 77
     6
 78
     2
 67
     7
 79
     5
170
     0
171
     0
290
     0
174
     0
 93
        1
 44
0.0
173
     0
291
     1
 45
0.0
1001
ACAD
1000
AcDbSavedByObjectVersion
1070
     0
  0
VISUALSTYLE
  5
168D
102
{ACAD_XDICTIONARY
360
16F3
102
}
102
{ACAD_REACTORS
330
167E
102
}
330
167E
100
AcDbVisualStyle
  2
Facepattern
 70
    15
 71
     2
 72
     2
 73
     0
 90
        0
 40
-0.6
 41
-30.0
 62
     5
 63
     7
 74
     1
 91
        4
 64
     7
 65
   257
 75
     1
175
     1
 42
1.0
 92
        8
 66
     7
 43
1.0
 76
     1
 77
     6
 78
     2
 67
     7
 79
     5
170
     0
171
     0
290
     0
174
     0
 93
        1
 44
0.0
173
     0
291
     1
 45
0.0
1001
ACAD
1000
AcDbSavedByObjectVersion
1070
     0
  0
VISUALSTYLE
  5
167F
102
{ACAD_XDICTIONARY
360
16D7
102
}
102
{ACAD_REACTORS
330
167E
102
}
330
167E
100
AcDbVisualStyle
  2
Flat
 70
     0
 71
     2
 72
     1
 73
     1
 90
        2
 40
-0.6
 41
30.0
 62
     5
 63
     7
 74
     0
 91
        0
 64
     7
 65
   257
 75
     1
175
     1
 42
1.0
 92
        8
 66
     7
 43
1.0
 76
     1
 77
     6
 78
     2
 67
     7
 79
     5
170
     0
171
     0
290
     0
174
     0
 93
       13
 44
0.0
173
     0
291
     1
 45
0.0
1001
ACAD
1000
AcDbSavedByObjectVersion
1070
     0
  0
VISUALSTYLE
  5
1680
102
{ACAD_XDICTIONARY
360
16D9
102
}
102
{ACAD_REACTORS
330
167E
102
}
330
167E
100
AcDbVisualStyle
  2
FlatWithEdges
 70
     1
 71
     2
 72
     1
 73
     1
 90
        2
 40
-0.6
 41
30.0
 62
     5
 63
     7
 74
     1
 91
        0
 64
     7
 65
   257
 75
     1
175
     1
 42
1.0
 92
        0
 66
   257
 43
1.0
 76
     1
 77
     6
 78
     2
 67
     7
 79
     5
170
     0
171
     0
290
     0
174
     0
 93
       13
 44
0.0
173
     0
291
     1
 45
0.0
1001
ACAD
1000
AcDbSavedByObjectVersion
1070
     0
  0
VISUALSTYLE
  5
1681
102
{ACAD_XDICTIONARY
360
16DB
102
}
102
{ACAD_REACTORS
330
167E
102
}
330
167E
100
AcDbVisualStyle
  2
Gouraud
 70
     2
 71
     2
 72
     2
 73
     1
 90
        2
 40
-0.6
 41
30.0
 62
     5
 63
     7
 74
     0
 91
        0
 64
     7
 65
   257
 75
     1
175
     1
 42
1.0
 92
        0
 66
     7
 43
1.0
 76
     1
 77
     6
 78
     2
 67
     7
 79
     5
170
     0
171
     0
290
     0
174
     0
 93
       13
 44
0.0
173
     0
291
     1
 45
0.0
1001
ACAD
1000
AcDbSavedByObjectVersion
1070
     0
  0
VISUALSTYLE
  5
1682
102
{ACAD_XDICTIONARY
360
16DD
102
}
102
{ACAD_REACTORS
330
167E
102
}
330
167E
100
AcDbVisualStyle
  2
GouraudWithEdges
 70
     3
 71
     2
 72
     2
 73
     1
 90
        2
 40
-0.6
 41
30.0
 62
     5
 63
     7
 74
     1
 91
        0
 64
     7
 65
   257
 75
     1
175
     1
 42
1.0
 92
        0
 66
   257
 43
1.0
 76
     1
 77
     6
 78
     2
 67
     7
 79
     5
170
     0
171
     0
290
     0
174
     0
 93
       13
 44
0.0
173
     0
291
     1
 45
0.0
1001
ACAD
1000
AcDbSavedByObjectVersion
1070
     0
  0
VISUALSTYLE
  5
1686
102
{ACAD_XDICTIONARY
360
16E5
102
}
102
{ACAD_REACTORS
330
167E
102
}
330
167E
100
AcDbVisualStyle
  2
Hidden
 70
     6
 71
     1
 72
     2
 73
     2
 90
        0
 40
-0.6
 41
-30.0
 62
     5
 63
     7
 74
     2
 91
        2
 64
     7
 65
   257
 75
     2
175
     1
 42
40.0
 92
        0
 66
   257
 43
1.0
 76
     1
 77
     6
 78
     2
 67
     7
 79
     3
170
     0
171
     0
290
     0
174
     0
 93
        1
 44
0.0
173
     0
291
     0
 45
0.0
1001
ACAD
1000
AcDbSavedByObjectVersion
1070
     0
  0
VISUALSTYLE
  5
1694
102
{ACAD_XDICTIONARY
360
1701
102
}
102
{ACAD_REACTORS
330
167E
102
}
330
167E
100
AcDbVisualStyle
  2
JitterOff
 70
    20
 71
     2
 72
     2
 73
     0
 90
        0
 40
-0.6
 41
-30.0
 62
     5
 63
     7
 74
     1
 91
        4
 64
     7
 65
   257
 75
     1
175
     1
 42
1.0
 92
       10
 66
     7
 43
1.0
 76
     1
 77
     6
 78
     2
 67
     7
 79
     5
170
     0
171
     0
290
     0
174
     0
 93
        1
 44
0.0
173
     0
291
     1
 45
0.0
1001
ACAD
1000
AcDbSavedByObjectVersion
1070
     0
  0
VISUALSTYLE
  5
168C
102
{ACAD_XDICTIONARY
360
16F1
102
}
102
{ACAD_REACTORS
330
167E
102
}
330
167E
100
AcDbVisualStyle
  2
Linepattern
 70
    14
 71
     2
 72
     2
 73
     0
 90
        0
 40
-0.6
 41
-30.0
 62
     5
 63
     7
 74
     1
 91
        4
 64
     7
 65
   257
 75
     7
175
     7
 42
1.0
 92
        8
 66
     7
 43
1.0
 76
     1
 77
     6
 78
     2
 67
     7
 79
     5
170
     0
171
     0
290
     0
174
     0
 93
        1
 44
0.0
173
     0
291
     1
 45
0.0
1001
ACAD
1000
AcDbSavedByObjectVersion
1070
     0
  0
VISUALSTYLE
  5
1695
102
{ACAD_XDICTIONARY
360
1703
102
}
102
{ACAD_REACTORS
330
167E
102
}
330
167E
100
AcDbVisualStyle
  2
OverhangOff
 70
    21
 71
     2
 72
     2
 73
     0
 90
        0
 40
-0.6
 41
-30.0
 62
     5
 63
     7
 74
     1
 91
        4
 64
     7
 65
   257
 75
     1
175
     1
 42
1.0
 92
        9
 66
     7
 43
1.0
 76
     1
 77
     6
 78
     2
 67
     7
 79
     5
170
     0
171
     0
290
     0
174
     0
 93
        1
 44
0.0
173
     0
291
     1
 45
0.0
1001
ACAD
1000
AcDbSavedByObjectVersion
1070
     0
  0
VISUALSTYLE
  5
1688
102
{ACAD_XDICTIONARY
360
16E9
102
}
102
{ACAD_REACTORS
330
167E
102
}
330
167E
100
AcDbVisualStyle
  2
Realistic
 70
     8
 71
     2
 72
     3
 73
     0
 90
        2
 40
-0.6
 41
30.0
 62
     5
 63
     7
 74
     0
 91
        0
 64
     7
 65
   257
 75
     1
175
     1
 42
1.0
 92
        8
 66
   257
 43
1.0
 76
     1
 77
     6
 78
     2
 67
     7
 79
     3
170
     0
171
     0
290
     0
174
     0
 93
       13
 44
0.0
173
     0
291
     0
 45
0.0
1001
ACAD
1000
AcDbSavedByObjectVersion
1070
     0
  0
VISUALSTYLE
  5
1693
102
{ACAD_XDICTIONARY
360
16FF
102
}
102
{ACAD_REACTORS
330
167E
102
}
330
167E
100
AcDbVisualStyle
  2
Shaded
 70
    27
 71
     2
 72
     2
 73
     1
 90
        2
 40
-0.6
 41
30.0
 62
     5
 63
     7
 74
     0
 91
        4
 64
     7
 65
   257
 75
     1
175
     1
 42
1.0
 92
        8
 66
   257
 43
1.0
 76
     1
 77
     6
 78
     2
 67
     8
 79
     3
170
     0
171
     0
290
     0
174
     0
 93
        5
 44
0.0
173
     0
291
     0
 45
0.0
1001
ACAD
1000
AcDbSavedByObjectVersion
1070
     0
  0
VISUALSTYLE
  5
1692
102
{ACAD_XDICTIONARY
360
16FD
102
}
102
{ACAD_REACTORS
330
167E
102
}
330
167E
100
AcDbVisualStyle
  2
Shaded with edges
 70
    26
 71
     2
 72
     2
 73
     1
 90
        2
 40
-0.6
 41
30.0
 62
     5
 63
     7
 74
     1
 91
       10
 64
     7
 65
   257
 75
     2
175
     1
 42
1.0
 92
        8
 66
   257
 43
1.0
 76
     1
 77
     6
 78
     2
 67
     7
 79
     3
170
     0
171
     0
290
     0
174
     0
 93
        5
 44
0.0
173
     0
291
     0
 45
0.0
1001
ACAD
1000
AcDbSavedByObjectVersion
1070
     0
  0
VISUALSTYLE
  5
168F
102
{ACAD_XDICTIONARY
360
16F7
102
}
102
{ACAD_REACTORS
330
167E
102
}
330
167E
100
AcDbVisualStyle
  2
Shades of Gray
 70
    23
 71
     2
 72
     2
 73
     3
 90
        0
 40
-0.6
 41
-30.0
 62
     5
 63
     7
 74
     2
 91
        2
 64
     7
 65
     7
 75
     1
175
     1
 42
40.0
 92
        8
 66
     7
 43
1.0
 76
     1
 77
     6
 78
     2
 67
     7
 79
     3
170
     0
171
     0
290
     0
174
     0
 93
        1
 44
0.0
173
     0
291
     0
 45
0.0
1001
ACAD
1000
AcDbSavedByObjectVersion
1070
     0
  0
VISUALSTYLE
  5
1690
102
{ACAD_XDICTIONARY
360
16F9
102
}
102
{ACAD_REACTORS
330
167E
102
}
330
167E
100
AcDbVisualStyle
  2
Sketchy
 70
    24
 71
     1
 72
     2
 73
     2
 90
        0
 40
-0.6
 41
-30.0
 62
     5
 63
     7
 74
     2
 91
        2
 64
     7
 65
     7
 75
     1
175
     1
 42
40.0
 92
       11
 66
     7
 43
1.0
 76
     1
 77
     6
 78
     2
 67
     7
 79
     6
170
     0
171
     0
290
     0
174
     0
 93
        1
 44
0.0
173
     0
291
     0
 45
0.0
1001
ACAD
1000
AcDbSavedByObjectVersion
1070
     0
  0
VISUALSTYLE
  5
168B
102
{ACAD_XDICTIONARY
360
16EF
102
}
102
{ACAD_REACTORS
330
167E
102
}
330
167E
100
AcDbVisualStyle
  2
Thicken
 70
    13
 71
     2
 72
     2
 73
     0
 90
        0
 40
-0.6
 41
-30.0
 62
     5
 63
     7
 74
     1
 91
        4
 64
     7
 65
   257
 75
     1
175
     1
 42
1.0
 92
       12
 66
     7
 43
1.0
 76
     1
 77
     6
 78
     2
 67
     7
 79
     5
170
     0
171
     0
290
     0
174
     0
 93
        1
 44
0.0
173
     0
291
     1
 45
0.0
1001
ACAD
1000
AcDbSavedByObjectVersion
1070
     0
  0
VISUALSTYLE
  5
1685
102
{ACAD_XDICTIONARY
360
16E3
102
}
102
{ACAD_REACTORS
330
167E
102
}
330
167E
100
AcDbVisualStyle
  2
Wireframe
 70
     5
 71
     0
 72
     2
 73
     0
 90
        0
 40
-0.6
 41
-30.0
 62
     5
 63
     7
 74
     1
 91
        4
 64
     7
 65
   257
 75
     1
175
     1
 42
1.0
 92
        0
 66
   257
 43
1.0
 76
     1
 77
     6
 78
     2
 67
     7
 79
     3
170
     0
171
     0
290
     0
174
     0
 93
        1
 44
0.0
173
     0
291
     0
 45
0.0
1001
ACAD
1000
AcDbSavedByObjectVersion
1070
     0
  0
VISUALSTYLE
  5
1691
102
{ACAD_XDICTIONARY
360
16FB
102
}
102
{ACAD_REACTORS
330
167E
102
}
330
167E
100
AcDbVisualStyle
  2
X-Ray
 70
    25
 71
     2
 72
     2
 73
     1
 90
        1
 40
0.5
 41
-30.0
 62
     5
 63
     7
 74
     1
 91
        0
 64
     7
 65
   257
 75
     1
175
     1
 42
1.0
 92
        8
 66
     7
 43
1.0
 76
     1
 77
     6
 78
     2
 67
     7
 79
     3
170
     0
171
     0
290
     0
174
     0
 93
       13
 44
0.0
173
     0
291
     0
 45
0.0
1001
ACAD
1000
AcDbSavedByObjectVersion
1070
     0
  0
DICTIONARYVAR
  5
16CA
102
{ACAD_REACTORS
330
16C5
102
}
330
16C5
100
DictionaryVariables
280
     0
  1
1:1
  0
DICTIONARYVAR
  5
16C7
102
{ACAD_REACTORS
330
16C5
102
}
330
16C5
100
DictionaryVariables
280
     0
  1
STANDARD
  0
DICTIONARYVAR
  5
16C6
102
{ACAD_REACTORS
330
16C5
102
}
330
16C5
100
DictionaryVariables
280
     0
  1
STANDARD
  0
DICTIONARYVAR
  5
16C8
102
{ACAD_REACTORS
330
16C5
102
}
330
16C5
100
DictionaryVariables
280
     0
  1
Imperial24
  0
DICTIONARYVAR
  5
16C9
102
{ACAD_REACTORS
330
16C5
102
}
330
16C5
100
DictionaryVariables
280
     0
  1
Imperial24
  0
DICTIONARYVAR
  5
16CD
102
{ACAD_REACTORS
330
16C5
102
}
330
16C5
100
DictionaryVariables
280
     0
  1
1
  0
DICTIONARYVAR
  5
16CC
102
{ACAD_REACTORS
330
16C5
102
}
330
16C5
100
DictionaryVariables
280
     0
  1
0
  0
DICTIONARYVAR
  5
16CB
102
{ACAD_REACTORS
330
16C5
102
}
330
16C5
100
DictionaryVariables
280
     0
  1
127
  0
DICTIONARYVAR
  5
16CE
102
{ACAD_REACTORS
330
16C5
102
}
330
16C5
100
DictionaryVariables
280
     0
  1
2
  0
DICTIONARY
  5
170B
330
16B1
100
AcDbDictionary
280
     1
281
     1
  3
ACAD_XREC_ROUNDTRIP
360
170C
  0
DICTIONARY
  5
170D
330
16B2
100
AcDbDictionary
280
     1
281
     1
  3
ACAD_XREC_ROUNDTRIP
360
170E
  0
DICTIONARY
  5
170F
330
16B3
100
AcDbDictionary
280
     1
281
     1
  3
ACAD_XREC_ROUNDTRIP
360
1710
  0
DICTIONARY
  5
166F
330
166E
100
AcDbDictionary
280
     1
281
     1
  3
ACAD_XREC_ROUNDTRIP
360
16D5
  3
BUMPTILE
360
1671
  3
DIFFUSETILE
360
1670
  3
OPACITYTILE
360
1674
  3
REFLECTIONTILE
360
1673
  3
REFRACTIONTILE
360
1675
  3
SPECULARTILE
360
1672
  0
DICTIONARY
  5
1667
330
1666
100
AcDbDictionary
280
     1
281
     1
  3
ACAD_XREC_ROUNDTRIP
360
16D4
  3
BUMPTILE
360
1669
  3
DIFFUSETILE
360
1668
  3
OPACITYTILE
360
166C
  3
REFLECTIONTILE
360
166B
  3
REFRACTIONTILE
360
166D
  3
SPECULARTILE
360
166A
  0
DICTIONARY
  5
1677
330
1676
100
AcDbDictionary
280
     1
281
     1
  3
ACAD_XREC_ROUNDTRIP
360
16D6
  3
BUMPTILE
360
1679
  3
DIFFUSETILE
360
1678
  3
OPACITYTILE
360
167C
  3
REFLECTIONTILE
360
167B
  3
REFRACTIONTILE
360
167D
  3
SPECULARTILE
360
167A
  0
DICTIONARY
  5
1709
330
16AF
100
AcDbDictionary
280
     1
281
     1
  3
ACAD_XREC_ROUNDTRIP
360
170A
  0
DICTIONARY
  5
16D0
330
1699
100
AcDbDictionary
280
     1
281
     1
  3
ACAD_ROUNDTRIP_2008_TABLESTYLE_CELLSTYLEMAP
360
16D1
  3
ACAD_XREC_ROUNDTRIP
360
1707
  0
DICTIONARY
  5
16E1
330
1684
100
AcDbDictionary
280
     1
281
     1
  3
ACAD_XREC_ROUNDTRIP
360
16E2
  0
DICTIONARY
  5
16DF
330
1683
100
AcDbDictionary
280
     1
281
     1
  3
ACAD_XREC_ROUNDTRIP
360
16E0
  0
DICTIONARY
  5
16ED
330
168A
100
AcDbDictionary
280
     1
281
     1
  3
ACAD_XREC_ROUNDTRIP
360
16EE
  0
DICTIONARY
  5
16F5
330
168E
100
AcDbDictionary
280
     1
281
     1
  3
ACAD_XREC_ROUNDTRIP
360
16F6
  0
DICTIONARY
  5
16E7
330
1687
100
AcDbDictionary
280
     1
281
     1
  3
ACAD_XREC_ROUNDTRIP
360
16E8
  0
DICTIONARY
  5
16EB
330
1689
100
AcDbDictionary
280
     1
281
     1
  3
ACAD_XREC_ROUNDTRIP
360
16EC
  0
DICTIONARY
  5
1705
330
1696
100
AcDbDictionary
280
     1
281
     1
  3
ACAD_XREC_ROUNDTRIP
360
1706
  0
DICTIONARY
  5
16F3
330
168D
100
AcDbDictionary
280
     1
281
     1
  3
ACAD_XREC_ROUNDTRIP
360
16F4
  0
DICTIONARY
  5
16D7
330
167F
100
AcDbDictionary
280
     1
281
     1
  3
ACAD_XREC_ROUNDTRIP
360
16D8
  0
DICTIONARY
  5
16D9
330
1680
100
AcDbDictionary
280
     1
281
     1
  3
ACAD_XREC_ROUNDTRIP
360
16DA
  0
DICTIONARY
  5
16DB
330
1681
100
AcDbDictionary
280
     1
281
     1
  3
ACAD_XREC_ROUNDTRIP
360
16DC
  0
DICTIONARY
  5
16DD
330
1682
100
AcDbDictionary
280
     1
281
     1
  3
ACAD_XREC_ROUNDTRIP
360
16DE
  0
DICTIONARY
  5
16E5
330
1686
100
AcDbDictionary
280
     1
281
     1
  3
ACAD_XREC_ROUNDTRIP
360
16E6
  0
DICTIONARY
  5
1701
330
1694
100
AcDbDictionary
280
     1
281
     1
  3
ACAD_XREC_ROUNDTRIP
360
1702
  0
DICTIONARY
  5
16F1
330
168C
100
AcDbDictionary
280
     1
281
     1
  3
ACAD_XREC_ROUNDTRIP
360
16F2
  0
DICTIONARY
  5
1703
330
1695
100
AcDbDictionary
280
     1
281
     1
  3
ACAD_XREC_ROUNDTRIP
360
1704
  0
DICTIONARY
  5
16E9
330
1688
100
AcDbDictionary
280
     1
281
     1
  3
ACAD_XREC_ROUNDTRIP
360
16EA
  0
DICTIONARY
  5
16FF
330
1693
100
AcDbDictionary
280
     1
281
     1
  3
ACAD_XREC_ROUNDTRIP
360
1700
  0
DICTIONARY
  5
16FD
330
1692
100
AcDbDictionary
280
     1
281
     1
  3
ACAD_XREC_ROUNDTRIP
360
16FE
  0
DICTIONARY
  5
16F7
330
168F
100
AcDbDictionary
280
     1
281
     1
  3
ACAD_XREC_ROUNDTRIP
360
16F8
  0
DICTIONARY
  5
16F9
330
1690
100
AcDbDictionary
280
     1
281
     1
  3
ACAD_XREC_ROUNDTRIP
360
16FA
  0
DICTIONARY
  5
16EF
330
168B
100
AcDbDictionary
280
     1
281
     1
  3
ACAD_XREC_ROUNDTRIP
360
16F0
  0
DICTIONARY
  5
16E3
330
1685
100
AcDbDictionary
280
     1
281
     1
  3
ACAD_XREC_ROUNDTRIP
360
16E4
  0
DICTIONARY
  5
16FB
330
1691
100
AcDbDictionary
280
     1
281
     1
  3
ACAD_XREC_ROUNDTRIP
360
16FC
  0
XRECORD
  5
170C
102
{ACAD_REACTORS
330
170B
102
}
330
170B
100
AcDbXrecord
280
     1
102
DISPLAYNAME
  1
Imperial24
102
FLAGS
 90
        0
  0
XRECORD
  5
170E
102
{ACAD_REACTORS
330
170D
102
}
330
170D
100
AcDbXrecord
280
     1
102
SHADEPLOT
 70
     0
102
SHADEPLOTRESLEVEL
 70
     2
102
SHADEPLOTCUSTOMDPI
 70
   300
  0
XRECORD
  5
1710
102
{ACAD_REACTORS
330
170F
102
}
330
170F
100
AcDbXrecord
280
     1
102
SHADEPLOT
 70
     0
102
SHADEPLOTRESLEVEL
 70
     2
102
SHADEPLOTCUSTOMDPI
 70
   300
  0
XRECORD
  5
16D5
102
{ACAD_REACTORS
330
166F
102
}
330
166F
100
AcDbXrecord
280
     1
102
MATERIAL
148
0.0
149
0.0
149
0.0
 93
        0
 94
      127
282
     0
 72
     0
 77
     0
171
     0
175
     0
179
     0
273
     0
  0
XRECORD
  5
1671
102
{ACAD_REACTORS
330
166F
102
}
330
166F
100
AcDbXrecord
280
     1
270
     1
271
     1
  0
XRECORD
  5
1670
102
{ACAD_REACTORS
330
166F
102
}
330
166F
100
AcDbXrecord
280
     1
270
     1
271
     1
  0
XRECORD
  5
1674
102
{ACAD_REACTORS
330
166F
102
}
330
166F
100
AcDbXrecord
280
     1
270
     1
271
     1
  0
XRECORD
  5
1673
102
{ACAD_REACTORS
330
166F
102
}
330
166F
100
AcDbXrecord
280
     1
270
     1
271
     1
  0
XRECORD
  5
1675
102
{ACAD_REACTORS
330
166F
102
}
330
166F
100
AcDbXrecord
280
     1
270
     1
271
     1
  0
XRECORD
  5
1672
102
{ACAD_REACTORS
330
166F
102
}
330
166F
100
AcDbXrecord
280
     1
270
     1
271
     1
  0
XRECORD
  5
16D4
102
{ACAD_REACTORS
330
1667
102
}
330
1667
100
AcDbXrecord
280
     1
102
MATERIAL
148
0.0
149
0.0
149
0.0
 93
        0
 94
      127
282
     0
 72
     0
 77
     0
171
     0
175
     0
179
     0
273
     0
  0
XRECORD
  5
1669
102
{ACAD_REACTORS
330
1667
102
}
330
1667
100
AcDbXrecord
280
     1
270
     1
271
     1
  0
XRECORD
  5
1668
102
{ACAD_REACTORS
330
1667
102
}
330
1667
100
AcDbXrecord
280
     1
270
     1
271
     1
  0
XRECORD
  5
166C
102
{ACAD_REACTORS
330
1667
102
}
330
1667
100
AcDbXrecord
280
     1
270
     1
271
     1
  0
XRECORD
  5
166B
102
{ACAD_REACTORS
330
1667
102
}
330
1667
100
AcDbXrecord
280
     1
270
     1
271
     1
  0
XRECORD
  5
166D
102
{ACAD_REACTORS
330
1667
102
}
330
1667
100
AcDbXrecord
280
     1
270
     1
271
     1
  0
XRECORD
  5
166A
102
{ACAD_REACTORS
330
1667
102
}
330
1667
100
AcDbXrecord
280
     1
270
     1
271
     1
  0
XRECORD
  5
16D6
102
{ACAD_REACTORS
330
1677
102
}
330
1677
100
AcDbXrecord
280
     1
102
MATERIAL
148
0.0
149
0.0
149
0.0
 93
        0
 94
      127
282
     0
 72
     0
 77
     0
171
     0
175
     0
179
     0
273
     0
  0
XRECORD
  5
1679
102
{ACAD_REACTORS
330
1677
102
}
330
1677
100
AcDbXrecord
280
     1
270
     1
271
     1
  0
XRECORD
  5
1678
102
{ACAD_REACTORS
330
1677
102
}
330
1677
100
AcDbXrecord
280
     1
270
     1
271
     1
  0
XRECORD
  5
167C
102
{ACAD_REACTORS
330
1677
102
}
330
1677
100
AcDbXrecord
280
     1
270
     1
271
     1
  0
XRECORD
  5
167B
102
{ACAD_REACTORS
330
1677
102
}
330
1677
100
AcDbXrecord
280
     1
270
     1
271
     1
  0
XRECORD
  5
167D
102
{ACAD_REACTORS
330
1677
102
}
330
1677
100
AcDbXrecord
280
     1
270
     1
271
     1
  0
XRECORD
  5
167A
102
{ACAD_REACTORS
330
1677
102
}
330
1677
100
AcDbXrecord
280
     1
270
     1
271
     1
  0
XRECORD
  5
170A
102
{ACAD_REACTORS
330
1709
102
}
330
1709
100
AcDbXrecord
280
     1
102
DISPLAYNAME
  1
Imperial24
102
FLAGS
 90
        0
  0
CELLSTYLEMAP
  5
16D1
102
{ACAD_REACTORS
330
16D0
102
}
330
16D0
100
AcDbCellStyleMap
 90
        3
300
CELLSTYLE
  1
TABLEFORMAT_BEGIN
 90
        5
170
     1
 91
        0
 92
    32768
 62
   257
 93
        1
300
CONTENTFORMAT
  1
CONTENTFORMAT_BEGIN
 90
        0
 91
        0
 92
      512
 93
        0
300

 40
0.0
140
1.0
 94
        5
 62
     0
340
1299
144
0.25
309
CONTENTFORMAT_END
171
     0
 94
        0
309
TABLEFORMAT_END
  1
CELLSTYLE_BEGIN
 90
        1
 91
        1
300
_TITLE
309
CELLSTYLE_END
300
CELLSTYLE
  1
TABLEFORMAT_BEGIN
 90
        5
170
     1
 91
        0
 92
        0
 62
   257
 93
        1
300
CONTENTFORMAT
  1
CONTENTFORMAT_BEGIN
 90
        0
 91
        0
 92
      512
 93
        0
300

 40
0.0
140
1.0
 94
        5
 62
     0
340
1299
144
0.18
309
CONTENTFORMAT_END
171
     0
 94
        0
309
TABLEFORMAT_END
  1
CELLSTYLE_BEGIN
 90
        2
 91
        1
300
_HEADER
309
CELLSTYLE_END
300
CELLSTYLE
  1
TABLEFORMAT_BEGIN
 90
        5
170
     1
 91
        0
 92
        0
 62
   257
 93
        1
300
CONTENTFORMAT
  1
CONTENTFORMAT_BEGIN
 90
        0
 91
        0
 92
      512
 93
        0
300

 40
0.0
140
1.0
 94
        2
 62
     0
340
1299
144
0.18
309
CONTENTFORMAT_END
171
     0
 94
        0
309
TABLEFORMAT_END
  1
CELLSTYLE_BEGIN
 90
        3
 91
        2
300
_DATA
309
CELLSTYLE_END
  0
XRECORD
  5
1707
102
{ACAD_REACTORS
330
16D0
102
}
330
16D0
100
AcDbXrecord
280
     1
102
ACAD_ROUNDTRIP_PRE2007_TABLESTYLE
 90
      512
 91
        0
  1

 92
      512
 93
        0
  2

 94
      512
 95
        0
  3

  0
XRECORD
  5
16E2
102
{ACAD_REACTORS
330
16E1
102
}
330
16E1
100
AcDbXrecord
280
     1
102
RTVSPost2010Prop28
280
     1
102
RTVSPost2010PropOp28
 70
     1
102
RTVSPost2010Prop29
280
     1
102
RTVSPost2010PropOp29
 70
     1
102
RTVSPost2010Prop30
280
     0
102
RTVSPost2010PropOp30
 70
     1
102
RTVSPost2010Prop31
280
     0
102
RTVSPost2010PropOp31
 70
     1
102
RTVSPost2010Prop32
280
     0
102
RTVSPost2010PropOp32
 70
     1
102
RTVSPost2010Prop33
280
     0
102
RTVSPost2010PropOp33
 70
     1
102
RTVSPost2010Prop34
280
     0
102
RTVSPost2010PropOp34
 70
     1
102
RTVSPost2010Prop35
280
     0
102
RTVSPost2010PropOp35
 70
     1
102
RTVSPost2010Prop36
280
     0
102
RTVSPost2010PropOp36
 70
     1
102
RTVSPost2010Prop37
 90
       50
102
RTVSPost2010PropOp37
 70
     1
102
RTVSPost2010Prop38
140
0.0
102
RTVSPost2010PropOp38
 70
     1
102
RTVSPost2010Prop39
140
1.0
102
RTVSPost2010PropOp39
 70
     1
102
RTVSPost2010Prop40
 90
        0
102
RTVSPost2010PropOp40
 70
     1
102
RTVSPost2010Prop41ColorIndex
 90
       18
102
RTVSPost2010Prop41ColorRGB
 90
        0
102
RTVSPost2010PropOp41
 70
     1
102
RTVSPost2010Prop42
 90
       50
102
RTVSPost2010PropOp42
 70
     1
102
RTVSPost2010Prop43
 90
        3
102
RTVSPost2010PropOp43
 70
     1
102
RTVSPost2010Prop44ColorIndex
 90
        5
102
RTVSPost2010Prop44ColorRGB
 90
      255
102
RTVSPost2010PropOp44
 70
     1
102
RTVSPost2010Prop45
280
     0
102
RTVSPost2010PropOp45
 70
     1
102
RTVSPost2010Prop46
 90
       50
102
RTVSPost2010PropOp46
 70
     1
102
RTVSPost2010Prop47
 90
       50
102
RTVSPost2010PropOp47
 70
     1
102
RTVSPost2010Prop48
 90
       50
102
RTVSPost2010PropOp48
 70
     1
102
RTVSPost2010Prop49
280
     0
102
RTVSPost2010PropOp49
 70
     1
102
RTVSPost2010Prop50
 90
       50
102
RTVSPost2010PropOp50
 70
     1
102
RTVSPost2010Prop51ColorIndex
 90
      256
102
RTVSPost2010Prop51ColorRGB
 90
-16777216
102
RTVSPost2010PropOp51
 70
     0
102
RTVSPost2010Prop52
140
1.0
102
RTVSPost2010PropOp52
 70
     0
102
RTVSPost2010Prop53
 90
        2
102
RTVSPost2010PropOp53
 70
     1
102
RTVSPost2010Prop54
  1
strokes_ogs.tif
102
RTVSPost2010PropOp54
 70
     1
102
RTVSPost2010Prop55
280
     0
102
RTVSPost2010PropOp55
 70
     1
102
RTVSPost2010Prop56
140
1.0
102
RTVSPost2010PropOp56
 70
     1
102
RTVSPost2010Prop57
140
1.0
102
RTVSPost2010PropOp57
 70
     1
102
RTVSPropertyOp0
 70
     1
102
RTVSPropertyOp1
 70
     1
102
RTVSPropertyOp2
 70
     1
102
RTVSPropertyOp3
 70
     1
102
RTVSPropertyOp4
 70
     1
102
RTVSPropertyOp5
 70
     1
102
RTVSPropertyOp6
 70
     1
102
RTVSPropertyOp7
 70
     1
102
RTVSPropertyOp8
 70
     1
102
RTVSPropertyOp9
 70
     1
102
RTVSPropertyOp10
 70
     1
102
RTVSPropertyOp11
 70
     1
102
RTVSPropertyOp12
 70
     1
102
RTVSPropertyOp13
 70
     1
102
RTVSPropertyOp14
 70
     1
102
RTVSPropertyOp15
 70
     1
102
RTVSPropertyOp16
 70
     1
102
RTVSPropertyOp17
 70
     1
102
RTVSPropertyOp18
 70
     1
102
RTVSPropertyOp19
 70
     1
102
RTVSPropertyOp20
 70
     1
102
RTVSPropertyOp21
 70
     1
102
RTVSPropertyOp22
 70
     1
102
RTVSPropertyOp23
 70
     1
102
RTVSPropertyOp24
 70
     1
102
RTVSPropertyOp25
 70
     1
102
RTVSPropertyOp26
 70
     1
102
RTVSPropertyOp27
 70
     1
102
RTVSPropertyOp28
 70
     1
102
RTVSPropertyOp29
 70
     1
102
RTVSPropertyOp30
 70
     1
102
RTVSPropertyOp31
 70
     1
102
RTVSPropertyOp32
 70
     1
102
RTVSPropertyOp33
 70
     1
102
RTVSPropertyOp34
 70
     1
102
RTVSPropertyOp35
 70
     1
102
RTVSPropertyOp36
 70
     1
102
RTVSPropertyOp37
 70
     1
102
RTVSPropertyOp38
 70
     1
102
RTVSPropertyOp39
 70
     1
102
RTVSPropertyOp40
 70
     1
102
RTVSPropertyOp41
 70
     1
102
RTVSPropertyOp42
 70
     1
102
RTVSPropertyOp43
 70
     1
102
RTVSPropertyOp44
 70
     1
102
RTVSPropertyOp45
 70
     1
102
RTVSPropertyOp46
 70
     1
102
RTVSPropertyOp47
 70
     1
102
RTVSPropertyOp48
 70
     1
102
RTVSPropertyOp49
 70
     1
102
RTVSPropertyOp50
 70
     1
102
RTVSPropertyOp51
 70
     0
102
RTVSPropertyOp52
 70
     0
102
RTVSPropertyOp53
 70
     1
102
RTVSPropertyOp54
 70
     1
102
RTVSPropertyOp55
 70
     1
102
RTVSPropertyOp56
 70
     1
102
RTVSPropertyOp57
 70
     1
102
RTVSPropertyOp58
 70
     1
102
RTVSPropertyOp59
 70
     1
102
RTVSPropertyOp60
 70
     1
102
RTVSPropertyOp61
 70
     1
102
RTVSPropertyOp62
 70
     1
  0
XRECORD
  5
16E0
102
{ACAD_REACTORS
330
16DF
102
}
330
16DF
100
AcDbXrecord
280
     1
102
RTVSPost2010Prop28
280
     0
102
RTVSPost2010PropOp28
 70
     1
102
RTVSPost2010Prop29
280
     1
102
RTVSPost2010PropOp29
 70
     1
102
RTVSPost2010Prop30
280
     1
102
RTVSPost2010PropOp30
 70
     1
102
RTVSPost2010Prop31
280
     0
102
RTVSPost2010PropOp31
 70
     1
102
RTVSPost2010Prop32
280
     0
102
RTVSPost2010PropOp32
 70
     1
102
RTVSPost2010Prop33
280
     0
102
RTVSPost2010PropOp33
 70
     1
102
RTVSPost2010Prop34
280
     0
102
RTVSPost2010PropOp34
 70
     1
102
RTVSPost2010Prop35
280
     0
102
RTVSPost2010PropOp35
 70
     1
102
RTVSPost2010Prop36
280
     0
102
RTVSPost2010PropOp36
 70
     1
102
RTVSPost2010Prop37
 90
       50
102
RTVSPost2010PropOp37
 70
     1
102
RTVSPost2010Prop38
140
0.0
102
RTVSPost2010PropOp38
 70
     1
102
RTVSPost2010Prop39
140
1.0
102
RTVSPost2010PropOp39
 70
     1
102
RTVSPost2010Prop40
 90
        0
102
RTVSPost2010PropOp40
 70
     1
102
RTVSPost2010Prop41ColorIndex
 90
       18
102
RTVSPost2010Prop41ColorRGB
 90
        0
102
RTVSPost2010PropOp41
 70
     1
102
RTVSPost2010Prop42
 90
       50
102
RTVSPost2010PropOp42
 70
     1
102
RTVSPost2010Prop43
 90
        3
102
RTVSPost2010PropOp43
 70
     1
102
RTVSPost2010Prop44ColorIndex
 90
        5
102
RTVSPost2010Prop44ColorRGB
 90
      255
102
RTVSPost2010PropOp44
 70
     1
102
RTVSPost2010Prop45
280
     0
102
RTVSPost2010PropOp45
 70
     1
102
RTVSPost2010Prop46
 90
       50
102
RTVSPost2010PropOp46
 70
     1
102
RTVSPost2010Prop47
 90
       50
102
RTVSPost2010PropOp47
 70
     1
102
RTVSPost2010Prop48
 90
       50
102
RTVSPost2010PropOp48
 70
     1
102
RTVSPost2010Prop49
280
     0
102
RTVSPost2010PropOp49
 70
     1
102
RTVSPost2010Prop50
 90
       50
102
RTVSPost2010PropOp50
 70
     1
102
RTVSPost2010Prop51ColorIndex
 90
      256
102
RTVSPost2010Prop51ColorRGB
 90
-16777216
102
RTVSPost2010PropOp51
 70
     0
102
RTVSPost2010Prop52
140
1.0
102
RTVSPost2010PropOp52
 70
     0
102
RTVSPost2010Prop53
 90
        2
102
RTVSPost2010PropOp53
 70
     1
102
RTVSPost2010Prop54
  1
strokes_ogs.tif
102
RTVSPost2010PropOp54
 70
     1
102
RTVSPost2010Prop55
280
     0
102
RTVSPost2010PropOp55
 70
     1
102
RTVSPost2010Prop56
140
1.0
102
RTVSPost2010PropOp56
 70
     1
102
RTVSPost2010Prop57
140
1.0
102
RTVSPost2010PropOp57
 70
     1
102
RTVSPropertyOp0
 70
     1
102
RTVSPropertyOp1
 70
     1
102
RTVSPropertyOp2
 70
     1
102
RTVSPropertyOp3
 70
     1
102
RTVSPropertyOp4
 70
     1
102
RTVSPropertyOp5
 70
     1
102
RTVSPropertyOp6
 70
     1
102
RTVSPropertyOp7
 70
     1
102
RTVSPropertyOp8
 70
     1
102
RTVSPropertyOp9
 70
     1
102
RTVSPropertyOp10
 70
     1
102
RTVSPropertyOp11
 70
     1
102
RTVSPropertyOp12
 70
     1
102
RTVSPropertyOp13
 70
     1
102
RTVSPropertyOp14
 70
     1
102
RTVSPropertyOp15
 70
     1
102
RTVSPropertyOp16
 70
     1
102
RTVSPropertyOp17
 70
     1
102
RTVSPropertyOp18
 70
     1
102
RTVSPropertyOp19
 70
     1
102
RTVSPropertyOp20
 70
     1
102
RTVSPropertyOp21
 70
     1
102
RTVSPropertyOp22
 70
     1
102
RTVSPropertyOp23
 70
     1
102
RTVSPropertyOp24
 70
     1
102
RTVSPropertyOp25
 70
     1
102
RTVSPropertyOp26
 70
     1
102
RTVSPropertyOp27
 70
     1
102
RTVSPropertyOp28
 70
     1
102
RTVSPropertyOp29
 70
     1
102
RTVSPropertyOp30
 70
     1
102
RTVSPropertyOp31
 70
     1
102
RTVSPropertyOp32
 70
     1
102
RTVSPropertyOp33
 70
     1
102
RTVSPropertyOp34
 70
     1
102
RTVSPropertyOp35
 70
     1
102
RTVSPropertyOp36
 70
     1
102
RTVSPropertyOp37
 70
     1
102
RTVSPropertyOp38
 70
     1
102
RTVSPropertyOp39
 70
     1
102
RTVSPropertyOp40
 70
     1
102
RTVSPropertyOp41
 70
     1
102
RTVSPropertyOp42
 70
     1
102
RTVSPropertyOp43
 70
     1
102
RTVSPropertyOp44
 70
     1
102
RTVSPropertyOp45
 70
     1
102
RTVSPropertyOp46
 70
     1
102
RTVSPropertyOp47
 70
     1
102
RTVSPropertyOp48
 70
     1
102
RTVSPropertyOp49
 70
     1
102
RTVSPropertyOp50
 70
     1
102
RTVSPropertyOp51
 70
     0
102
RTVSPropertyOp52
 70
     0
102
RTVSPropertyOp53
 70
     1
102
RTVSPropertyOp54
 70
     1
102
RTVSPropertyOp55
 70
     1
102
RTVSPropertyOp56
 70
     1
102
RTVSPropertyOp57
 70
     1
102
RTVSPropertyOp58
 70
     1
102
RTVSPropertyOp59
 70
     1
102
RTVSPropertyOp60
 70
     1
102
RTVSPropertyOp61
 70
     1
102
RTVSPropertyOp62
 70
     1
  0
XRECORD
  5
16EE
102
{ACAD_REACTORS
330
16ED
102
}
330
16ED
100
AcDbXrecord
280
     1
102
RTVSPost2010Prop28
280
     0
102
RTVSPost2010PropOp28
 70
     1
102
RTVSPost2010Prop29
280
     1
102
RTVSPost2010PropOp29
 70
     1
102
RTVSPost2010Prop30
280
     1
102
RTVSPost2010PropOp30
 70
     1
102
RTVSPost2010Prop31
280
     0
102
RTVSPost2010PropOp31
 70
     1
102
RTVSPost2010Prop32
280
     0
102
RTVSPost2010PropOp32
 70
     1
102
RTVSPost2010Prop33
280
     0
102
RTVSPost2010PropOp33
 70
     1
102
RTVSPost2010Prop34
280
     0
102
RTVSPost2010PropOp34
 70
     1
102
RTVSPost2010Prop35
280
     0
102
RTVSPost2010PropOp35
 70
     1
102
RTVSPost2010Prop36
280
     0
102
RTVSPost2010PropOp36
 70
     1
102
RTVSPost2010Prop37
 90
       50
102
RTVSPost2010PropOp37
 70
     1
102
RTVSPost2010Prop38
140
0.0
102
RTVSPost2010PropOp38
 70
     1
102
RTVSPost2010Prop39
140
1.0
102
RTVSPost2010PropOp39
 70
     1
102
RTVSPost2010Prop40
 90
        0
102
RTVSPost2010PropOp40
 70
     1
102
RTVSPost2010Prop41ColorIndex
 90
       18
102
RTVSPost2010Prop41ColorRGB
 90
        0
102
RTVSPost2010PropOp41
 70
     1
102
RTVSPost2010Prop42
 90
       50
102
RTVSPost2010PropOp42
 70
     1
102
RTVSPost2010Prop43
 90
        3
102
RTVSPost2010PropOp43
 70
     1
102
RTVSPost2010Prop44ColorIndex
 90
        5
102
RTVSPost2010Prop44ColorRGB
 90
      255
102
RTVSPost2010PropOp44
 70
     1
102
RTVSPost2010Prop45
280
     0
102
RTVSPost2010PropOp45
 70
     1
102
RTVSPost2010Prop46
 90
       50
102
RTVSPost2010PropOp46
 70
     1
102
RTVSPost2010Prop47
 90
       50
102
RTVSPost2010PropOp47
 70
     1
102
RTVSPost2010Prop48
 90
       50
102
RTVSPost2010PropOp48
 70
     1
102
RTVSPost2010Prop49
280
     0
102
RTVSPost2010PropOp49
 70
     1
102
RTVSPost2010Prop50
 90
       50
102
RTVSPost2010PropOp50
 70
     1
102
RTVSPost2010Prop51ColorIndex
 90
      256
102
RTVSPost2010Prop51ColorRGB
 90
-16777216
102
RTVSPost2010PropOp51
 70
     0
102
RTVSPost2010Prop52
140
1.0
102
RTVSPost2010PropOp52
 70
     0
102
RTVSPost2010Prop53
 90
        2
102
RTVSPost2010PropOp53
 70
     1
102
RTVSPost2010Prop54
  1
strokes_ogs.tif
102
RTVSPost2010PropOp54
 70
     1
102
RTVSPost2010Prop55
280
     0
102
RTVSPost2010PropOp55
 70
     1
102
RTVSPost2010Prop56
140
1.0
102
RTVSPost2010PropOp56
 70
     1
102
RTVSPost2010Prop57
140
1.0
102
RTVSPost2010PropOp57
 70
     1
102
RTVSPropertyOp0
 70
     1
102
RTVSPropertyOp1
 70
     1
102
RTVSPropertyOp2
 70
     1
102
RTVSPropertyOp3
 70
     1
102
RTVSPropertyOp4
 70
     1
102
RTVSPropertyOp5
 70
     1
102
RTVSPropertyOp6
 70
     1
102
RTVSPropertyOp7
 70
     1
102
RTVSPropertyOp8
 70
     1
102
RTVSPropertyOp9
 70
     1
102
RTVSPropertyOp10
 70
     1
102
RTVSPropertyOp11
 70
     1
102
RTVSPropertyOp12
 70
     1
102
RTVSPropertyOp13
 70
     1
102
RTVSPropertyOp14
 70
     1
102
RTVSPropertyOp15
 70
     1
102
RTVSPropertyOp16
 70
     1
102
RTVSPropertyOp17
 70
     1
102
RTVSPropertyOp18
 70
     1
102
RTVSPropertyOp19
 70
     1
102
RTVSPropertyOp20
 70
     1
102
RTVSPropertyOp21
 70
     1
102
RTVSPropertyOp22
 70
     1
102
RTVSPropertyOp23
 70
     1
102
RTVSPropertyOp24
 70
     1
102
RTVSPropertyOp25
 70
     1
102
RTVSPropertyOp26
 70
     1
102
RTVSPropertyOp27
 70
     1
102
RTVSPropertyOp28
 70
     1
102
RTVSPropertyOp29
 70
     1
102
RTVSPropertyOp30
 70
     1
102
RTVSPropertyOp31
 70
     1
102
RTVSPropertyOp32
 70
     1
102
RTVSPropertyOp33
 70
     1
102
RTVSPropertyOp34
 70
     1
102
RTVSPropertyOp35
 70
     1
102
RTVSPropertyOp36
 70
     1
102
RTVSPropertyOp37
 70
     1
102
RTVSPropertyOp38
 70
     1
102
RTVSPropertyOp39
 70
     1
102
RTVSPropertyOp40
 70
     1
102
RTVSPropertyOp41
 70
     1
102
RTVSPropertyOp42
 70
     1
102
RTVSPropertyOp43
 70
     1
102
RTVSPropertyOp44
 70
     1
102
RTVSPropertyOp45
 70
     1
102
RTVSPropertyOp46
 70
     1
102
RTVSPropertyOp47
 70
     1
102
RTVSPropertyOp48
 70
     1
102
RTVSPropertyOp49
 70
     1
102
RTVSPropertyOp50
 70
     1
102
RTVSPropertyOp51
 70
     0
102
RTVSPropertyOp52
 70
     0
102
RTVSPropertyOp53
 70
     1
102
RTVSPropertyOp54
 70
     1
102
RTVSPropertyOp55
 70
     1
102
RTVSPropertyOp56
 70
     1
102
RTVSPropertyOp57
 70
     1
102
RTVSPropertyOp58
 70
     1
102
RTVSPropertyOp59
 70
     1
102
RTVSPropertyOp60
 70
     1
102
RTVSPropertyOp61
 70
     1
102
RTVSPropertyOp62
 70
     1
  0
XRECORD
  5
16F6
102
{ACAD_REACTORS
330
16F5
102
}
330
16F5
100
AcDbXrecord
280
     1
102
RTVSPost2010Prop28
280
     0
102
RTVSPost2010PropOp28
 70
     1
102
RTVSPost2010Prop29
280
     1
102
RTVSPost2010PropOp29
 70
     1
102
RTVSPost2010Prop30
280
     1
102
RTVSPost2010PropOp30
 70
     1
102
RTVSPost2010Prop31
280
     0
102
RTVSPost2010PropOp31
 70
     1
102
RTVSPost2010Prop32
280
     0
102
RTVSPost2010PropOp32
 70
     1
102
RTVSPost2010Prop33
280
     0
102
RTVSPost2010PropOp33
 70
     1
102
RTVSPost2010Prop34
280
     0
102
RTVSPost2010PropOp34
 70
     1
102
RTVSPost2010Prop35
280
     0
102
RTVSPost2010PropOp35
 70
     1
102
RTVSPost2010Prop36
280
     0
102
RTVSPost2010PropOp36
 70
     1
102
RTVSPost2010Prop37
 90
       50
102
RTVSPost2010PropOp37
 70
     1
102
RTVSPost2010Prop38
140
0.0
102
RTVSPost2010PropOp38
 70
     1
102
RTVSPost2010Prop39
140
1.0
102
RTVSPost2010PropOp39
 70
     1
102
RTVSPost2010Prop40
 90
        0
102
RTVSPost2010PropOp40
 70
     1
102
RTVSPost2010Prop41ColorIndex
 90
       18
102
RTVSPost2010Prop41ColorRGB
 90
        0
102
RTVSPost2010PropOp41
 70
     1
102
RTVSPost2010Prop42
 90
       50
102
RTVSPost2010PropOp42
 70
     1
102
RTVSPost2010Prop43
 90
        3
102
RTVSPost2010PropOp43
 70
     1
102
RTVSPost2010Prop44ColorIndex
 90
        5
102
RTVSPost2010Prop44ColorRGB
 90
      255
102
RTVSPost2010PropOp44
 70
     1
102
RTVSPost2010Prop45
280
     0
102
RTVSPost2010PropOp45
 70
     1
102
RTVSPost2010Prop46
 90
       50
102
RTVSPost2010PropOp46
 70
     1
102
RTVSPost2010Prop47
 90
       50
102
RTVSPost2010PropOp47
 70
     1
102
RTVSPost2010Prop48
 90
       50
102
RTVSPost2010PropOp48
 70
     1
102
RTVSPost2010Prop49
280
     0
102
RTVSPost2010PropOp49
 70
     1
102
RTVSPost2010Prop50
 90
       50
102
RTVSPost2010PropOp50
 70
     1
102
RTVSPost2010Prop51ColorIndex
 90
      256
102
RTVSPost2010Prop51ColorRGB
 90
-16777216
102
RTVSPost2010PropOp51
 70
     0
102
RTVSPost2010Prop52
140
1.0
102
RTVSPost2010PropOp52
 70
     0
102
RTVSPost2010Prop53
 90
        2
102
RTVSPost2010PropOp53
 70
     1
102
RTVSPost2010Prop54
  1
strokes_ogs.tif
102
RTVSPost2010PropOp54
 70
     1
102
RTVSPost2010Prop55
280
     0
102
RTVSPost2010PropOp55
 70
     1
102
RTVSPost2010Prop56
140
1.0
102
RTVSPost2010PropOp56
 70
     1
102
RTVSPost2010Prop57
140
1.0
102
RTVSPost2010PropOp57
 70
     1
102
RTVSPropertyOp0
 70
     1
102
RTVSPropertyOp1
 70
     1
102
RTVSPropertyOp2
 70
     1
102
RTVSPropertyOp3
 70
     1
102
RTVSPropertyOp4
 70
     1
102
RTVSPropertyOp5
 70
     1
102
RTVSPropertyOp6
 70
     1
102
RTVSPropertyOp7
 70
     1
102
RTVSPropertyOp8
 70
     1
102
RTVSPropertyOp9
 70
     1
102
RTVSPropertyOp10
 70
     1
102
RTVSPropertyOp11
 70
     1
102
RTVSPropertyOp12
 70
     1
102
RTVSPropertyOp13
 70
     1
102
RTVSPropertyOp14
 70
     1
102
RTVSPropertyOp15
 70
     1
102
RTVSPropertyOp16
 70
     1
102
RTVSPropertyOp17
 70
     1
102
RTVSPropertyOp18
 70
     1
102
RTVSPropertyOp19
 70
     1
102
RTVSPropertyOp20
 70
     1
102
RTVSPropertyOp21
 70
     1
102
RTVSPropertyOp22
 70
     1
102
RTVSPropertyOp23
 70
     1
102
RTVSPropertyOp24
 70
     1
102
RTVSPropertyOp25
 70
     1
102
RTVSPropertyOp26
 70
     1
102
RTVSPropertyOp27
 70
     1
102
RTVSPropertyOp28
 70
     1
102
RTVSPropertyOp29
 70
     1
102
RTVSPropertyOp30
 70
     1
102
RTVSPropertyOp31
 70
     1
102
RTVSPropertyOp32
 70
     1
102
RTVSPropertyOp33
 70
     1
102
RTVSPropertyOp34
 70
     1
102
RTVSPropertyOp35
 70
     1
102
RTVSPropertyOp36
 70
     1
102
RTVSPropertyOp37
 70
     1
102
RTVSPropertyOp38
 70
     1
102
RTVSPropertyOp39
 70
     1
102
RTVSPropertyOp40
 70
     1
102
RTVSPropertyOp41
 70
     1
102
RTVSPropertyOp42
 70
     1
102
RTVSPropertyOp43
 70
     1
102
RTVSPropertyOp44
 70
     1
102
RTVSPropertyOp45
 70
     1
102
RTVSPropertyOp46
 70
     1
102
RTVSPropertyOp47
 70
     1
102
RTVSPropertyOp48
 70
     1
102
RTVSPropertyOp49
 70
     1
102
RTVSPropertyOp50
 70
     1
102
RTVSPropertyOp51
 70
     0
102
RTVSPropertyOp52
 70
     0
102
RTVSPropertyOp53
 70
     1
102
RTVSPropertyOp54
 70
     1
102
RTVSPropertyOp55
 70
     1
102
RTVSPropertyOp56
 70
     1
102
RTVSPropertyOp57
 70
     1
102
RTVSPropertyOp58
 70
     1
102
RTVSPropertyOp59
 70
     1
102
RTVSPropertyOp60
 70
     1
102
RTVSPropertyOp61
 70
     1
102
RTVSPropertyOp62
 70
     1
  0
XRECORD
  5
16E8
102
{ACAD_REACTORS
330
16E7
102
}
330
16E7
100
AcDbXrecord
280
     1
102
RTVSPost2010Prop28
280
     0
102
RTVSPost2010PropOp28
 70
     1
102
RTVSPost2010Prop29
280
     1
102
RTVSPost2010PropOp29
 70
     1
102
RTVSPost2010Prop30
280
     1
102
RTVSPost2010PropOp30
 70
     1
102
RTVSPost2010Prop31
280
     0
102
RTVSPost2010PropOp31
 70
     1
102
RTVSPost2010Prop32
280
     0
102
RTVSPost2010PropOp32
 70
     1
102
RTVSPost2010Prop33
280
     0
102
RTVSPost2010PropOp33
 70
     1
102
RTVSPost2010Prop34
280
     0
102
RTVSPost2010PropOp34
 70
     1
102
RTVSPost2010Prop35
280
     0
102
RTVSPost2010PropOp35
 70
     1
102
RTVSPost2010Prop36
280
     0
102
RTVSPost2010PropOp36
 70
     1
102
RTVSPost2010Prop37
 90
       50
102
RTVSPost2010PropOp37
 70
     1
102
RTVSPost2010Prop38
140
0.0
102
RTVSPost2010PropOp38
 70
     1
102
RTVSPost2010Prop39
140
1.0
102
RTVSPost2010PropOp39
 70
     1
102
RTVSPost2010Prop40
 90
        0
102
RTVSPost2010PropOp40
 70
     1
102
RTVSPost2010Prop41ColorIndex
 90
       18
102
RTVSPost2010Prop41ColorRGB
 90
        0
102
RTVSPost2010PropOp41
 70
     1
102
RTVSPost2010Prop42
 90
       50
102
RTVSPost2010PropOp42
 70
     1
102
RTVSPost2010Prop43
 90
        3
102
RTVSPost2010PropOp43
 70
     1
102
RTVSPost2010Prop44ColorIndex
 90
        5
102
RTVSPost2010Prop44ColorRGB
 90
      255
102
RTVSPost2010PropOp44
 70
     1
102
RTVSPost2010Prop45
280
     0
102
RTVSPost2010PropOp45
 70
     1
102
RTVSPost2010Prop46
 90
       50
102
RTVSPost2010PropOp46
 70
     1
102
RTVSPost2010Prop47
 90
       50
102
RTVSPost2010PropOp47
 70
     1
102
RTVSPost2010Prop48
 90
       50
102
RTVSPost2010PropOp48
 70
     1
102
RTVSPost2010Prop49
280
     0
102
RTVSPost2010PropOp49
 70
     1
102
RTVSPost2010Prop50
 90
       50
102
RTVSPost2010PropOp50
 70
     1
102
RTVSPost2010Prop51ColorIndex
 90
      256
102
RTVSPost2010Prop51ColorRGB
 90
-16777216
102
RTVSPost2010PropOp51
 70
     0
102
RTVSPost2010Prop52
140
1.0
102
RTVSPost2010PropOp52
 70
     0
102
RTVSPost2010Prop53
 90
        2
102
RTVSPost2010PropOp53
 70
     1
102
RTVSPost2010Prop54
  1
strokes_ogs.tif
102
RTVSPost2010PropOp54
 70
     1
102
RTVSPost2010Prop55
280
     0
102
RTVSPost2010PropOp55
 70
     1
102
RTVSPost2010Prop56
140
1.0
102
RTVSPost2010PropOp56
 70
     1
102
RTVSPost2010Prop57
140
1.0
102
RTVSPost2010PropOp57
 70
     1
102
RTVSPropertyOp0
 70
     1
102
RTVSPropertyOp1
 70
     1
102
RTVSPropertyOp2
 70
     1
102
RTVSPropertyOp3
 70
     1
102
RTVSPropertyOp4
 70
     1
102
RTVSPropertyOp5
 70
     1
102
RTVSPropertyOp6
 70
     1
102
RTVSPropertyOp7
 70
     1
102
RTVSPropertyOp8
 70
     1
102
RTVSPropertyOp9
 70
     1
102
RTVSPropertyOp10
 70
     1
102
RTVSPropertyOp11
 70
     1
102
RTVSPropertyOp12
 70
     1
102
RTVSPropertyOp13
 70
     1
102
RTVSPropertyOp14
 70
     1
102
RTVSPropertyOp15
 70
     1
102
RTVSPropertyOp16
 70
     1
102
RTVSPropertyOp17
 70
     1
102
RTVSPropertyOp18
 70
     1
102
RTVSPropertyOp19
 70
     1
102
RTVSPropertyOp20
 70
     1
102
RTVSPropertyOp21
 70
     1
102
RTVSPropertyOp22
 70
     1
102
RTVSPropertyOp23
 70
     1
102
RTVSPropertyOp24
 70
     1
102
RTVSPropertyOp25
 70
     1
102
RTVSPropertyOp26
 70
     1
102
RTVSPropertyOp27
 70
     1
102
RTVSPropertyOp28
 70
     1
102
RTVSPropertyOp29
 70
     1
102
RTVSPropertyOp30
 70
     1
102
RTVSPropertyOp31
 70
     1
102
RTVSPropertyOp32
 70
     1
102
RTVSPropertyOp33
 70
     1
102
RTVSPropertyOp34
 70
     1
102
RTVSPropertyOp35
 70
     1
102
RTVSPropertyOp36
 70
     1
102
RTVSPropertyOp37
 70
     1
102
RTVSPropertyOp38
 70
     1
102
RTVSPropertyOp39
 70
     1
102
RTVSPropertyOp40
 70
     1
102
RTVSPropertyOp41
 70
     1
102
RTVSPropertyOp42
 70
     1
102
RTVSPropertyOp43
 70
     1
102
RTVSPropertyOp44
 70
     1
102
RTVSPropertyOp45
 70
     1
102
RTVSPropertyOp46
 70
     1
102
RTVSPropertyOp47
 70
     1
102
RTVSPropertyOp48
 70
     1
102
RTVSPropertyOp49
 70
     1
102
RTVSPropertyOp50
 70
     1
102
RTVSPropertyOp51
 70
     0
102
RTVSPropertyOp52
 70
     0
102
RTVSPropertyOp53
 70
     1
102
RTVSPropertyOp54
 70
     1
102
RTVSPropertyOp55
 70
     1
102
RTVSPropertyOp56
 70
     1
102
RTVSPropertyOp57
 70
     1
102
RTVSPropertyOp58
 70
     1
102
RTVSPropertyOp59
 70
     1
102
RTVSPropertyOp60
 70
     1
102
RTVSPropertyOp61
 70
     1
102
RTVSPropertyOp62
 70
     1
  0
XRECORD
  5
16EC
102
{ACAD_REACTORS
330
16EB
102
}
330
16EB
100
AcDbXrecord
280
     1
102
RTVSPost2010Prop28
280
     0
102
RTVSPost2010PropOp28
 70
     1
102
RTVSPost2010Prop29
280
     1
102
RTVSPost2010PropOp29
 70
     1
102
RTVSPost2010Prop30
280
     1
102
RTVSPost2010PropOp30
 70
     1
102
RTVSPost2010Prop31
280
     0
102
RTVSPost2010PropOp31
 70
     1
102
RTVSPost2010Prop32
280
     0
102
RTVSPost2010PropOp32
 70
     1
102
RTVSPost2010Prop33
280
     0
102
RTVSPost2010PropOp33
 70
     1
102
RTVSPost2010Prop34
280
     0
102
RTVSPost2010PropOp34
 70
     1
102
RTVSPost2010Prop35
280
     0
102
RTVSPost2010PropOp35
 70
     1
102
RTVSPost2010Prop36
280
     0
102
RTVSPost2010PropOp36
 70
     1
102
RTVSPost2010Prop37
 90
       50
102
RTVSPost2010PropOp37
 70
     1
102
RTVSPost2010Prop38
140
0.0
102
RTVSPost2010PropOp38
 70
     1
102
RTVSPost2010Prop39
140
1.0
102
RTVSPost2010PropOp39
 70
     1
102
RTVSPost2010Prop40
 90
        0
102
RTVSPost2010PropOp40
 70
     1
102
RTVSPost2010Prop41ColorIndex
 90
       18
102
RTVSPost2010Prop41ColorRGB
 90
        0
102
RTVSPost2010PropOp41
 70
     1
102
RTVSPost2010Prop42
 90
       50
102
RTVSPost2010PropOp42
 70
     1
102
RTVSPost2010Prop43
 90
        3
102
RTVSPost2010PropOp43
 70
     1
102
RTVSPost2010Prop44ColorIndex
 90
        5
102
RTVSPost2010Prop44ColorRGB
 90
      255
102
RTVSPost2010PropOp44
 70
     1
102
RTVSPost2010Prop45
280
     0
102
RTVSPost2010PropOp45
 70
     1
102
RTVSPost2010Prop46
 90
       50
102
RTVSPost2010PropOp46
 70
     1
102
RTVSPost2010Prop47
 90
       50
102
RTVSPost2010PropOp47
 70
     1
102
RTVSPost2010Prop48
 90
       50
102
RTVSPost2010PropOp48
 70
     1
102
RTVSPost2010Prop49
280
     0
102
RTVSPost2010PropOp49
 70
     1
102
RTVSPost2010Prop50
 90
       50
102
RTVSPost2010PropOp50
 70
     1
102
RTVSPost2010Prop51ColorIndex
 90
      256
102
RTVSPost2010Prop51ColorRGB
 90
-16777216
102
RTVSPost2010PropOp51
 70
     0
102
RTVSPost2010Prop52
140
1.0
102
RTVSPost2010PropOp52
 70
     0
102
RTVSPost2010Prop53
 90
        2
102
RTVSPost2010PropOp53
 70
     1
102
RTVSPost2010Prop54
  1
strokes_ogs.tif
102
RTVSPost2010PropOp54
 70
     1
102
RTVSPost2010Prop55
280
     0
102
RTVSPost2010PropOp55
 70
     1
102
RTVSPost2010Prop56
140
1.0
102
RTVSPost2010PropOp56
 70
     1
102
RTVSPost2010Prop57
140
1.0
102
RTVSPost2010PropOp57
 70
     1
102
RTVSPropertyOp0
 70
     1
102
RTVSPropertyOp1
 70
     1
102
RTVSPropertyOp2
 70
     1
102
RTVSPropertyOp3
 70
     1
102
RTVSPropertyOp4
 70
     1
102
RTVSPropertyOp5
 70
     1
102
RTVSPropertyOp6
 70
     1
102
RTVSPropertyOp7
 70
     1
102
RTVSPropertyOp8
 70
     1
102
RTVSPropertyOp9
 70
     1
102
RTVSPropertyOp10
 70
     1
102
RTVSPropertyOp11
 70
     1
102
RTVSPropertyOp12
 70
     1
102
RTVSPropertyOp13
 70
     1
102
RTVSPropertyOp14
 70
     1
102
RTVSPropertyOp15
 70
     1
102
RTVSPropertyOp16
 70
     1
102
RTVSPropertyOp17
 70
     1
102
RTVSPropertyOp18
 70
     1
102
RTVSPropertyOp19
 70
     1
102
RTVSPropertyOp20
 70
     1
102
RTVSPropertyOp21
 70
     1
102
RTVSPropertyOp22
 70
     1
102
RTVSPropertyOp23
 70
     1
102
RTVSPropertyOp24
 70
     1
102
RTVSPropertyOp25
 70
     1
102
RTVSPropertyOp26
 70
     1
102
RTVSPropertyOp27
 70
     1
102
RTVSPropertyOp28
 70
     1
102
RTVSPropertyOp29
 70
     1
102
RTVSPropertyOp30
 70
     1
102
RTVSPropertyOp31
 70
     1
102
RTVSPropertyOp32
 70
     1
102
RTVSPropertyOp33
 70
     1
102
RTVSPropertyOp34
 70
     1
102
RTVSPropertyOp35
 70
     1
102
RTVSPropertyOp36
 70
     1
102
RTVSPropertyOp37
 70
     1
102
RTVSPropertyOp38
 70
     1
102
RTVSPropertyOp39
 70
     1
102
RTVSPropertyOp40
 70
     1
102
RTVSPropertyOp41
 70
     1
102
RTVSPropertyOp42
 70
     1
102
RTVSPropertyOp43
 70
     1
102
RTVSPropertyOp44
 70
     1
102
RTVSPropertyOp45
 70
     1
102
RTVSPropertyOp46
 70
     1
102
RTVSPropertyOp47
 70
     1
102
RTVSPropertyOp48
 70
     1
102
RTVSPropertyOp49
 70
     1
102
RTVSPropertyOp50
 70
     1
102
RTVSPropertyOp51
 70
     0
102
RTVSPropertyOp52
 70
     0
102
RTVSPropertyOp53
 70
     1
102
RTVSPropertyOp54
 70
     1
102
RTVSPropertyOp55
 70
     1
102
RTVSPropertyOp56
 70
     1
102
RTVSPropertyOp57
 70
     1
102
RTVSPropertyOp58
 70
     1
102
RTVSPropertyOp59
 70
     1
102
RTVSPropertyOp60
 70
     1
102
RTVSPropertyOp61
 70
     1
102
RTVSPropertyOp62
 70
     1
  0
XRECORD
  5
1706
102
{ACAD_REACTORS
330
1705
102
}
330
1705
100
AcDbXrecord
280
     1
102
RTVSPost2010Prop28
280
     0
102
RTVSPost2010PropOp28
 70
     1
102
RTVSPost2010Prop29
280
     1
102
RTVSPost2010PropOp29
 70
     1
102
RTVSPost2010Prop30
280
     1
102
RTVSPost2010PropOp30
 70
     1
102
RTVSPost2010Prop31
280
     0
102
RTVSPost2010PropOp31
 70
     1
102
RTVSPost2010Prop32
280
     0
102
RTVSPost2010PropOp32
 70
     1
102
RTVSPost2010Prop33
280
     0
102
RTVSPost2010PropOp33
 70
     1
102
RTVSPost2010Prop34
280
     0
102
RTVSPost2010PropOp34
 70
     1
102
RTVSPost2010Prop35
280
     0
102
RTVSPost2010PropOp35
 70
     1
102
RTVSPost2010Prop36
280
     0
102
RTVSPost2010PropOp36
 70
     1
102
RTVSPost2010Prop37
 90
       50
102
RTVSPost2010PropOp37
 70
     0
102
RTVSPost2010Prop38
140
0.0
102
RTVSPost2010PropOp38
 70
     0
102
RTVSPost2010Prop39
140
1.0
102
RTVSPost2010PropOp39
 70
     0
102
RTVSPost2010Prop40
 90
        0
102
RTVSPost2010PropOp40
 70
     0
102
RTVSPost2010Prop41ColorIndex
 90
       18
102
RTVSPost2010Prop41ColorRGB
 90
        0
102
RTVSPost2010PropOp41
 70
     0
102
RTVSPost2010Prop42
 90
       50
102
RTVSPost2010PropOp42
 70
     0
102
RTVSPost2010Prop43
 90
        3
102
RTVSPost2010PropOp43
 70
     0
102
RTVSPost2010Prop44ColorIndex
 90
        5
102
RTVSPost2010Prop44ColorRGB
 90
      255
102
RTVSPost2010PropOp44
 70
     0
102
RTVSPost2010Prop45
280
     0
102
RTVSPost2010PropOp45
 70
     1
102
RTVSPost2010Prop46
 90
       50
102
RTVSPost2010PropOp46
 70
     0
102
RTVSPost2010Prop47
 90
       50
102
RTVSPost2010PropOp47
 70
     0
102
RTVSPost2010Prop48
 90
       50
102
RTVSPost2010PropOp48
 70
     0
102
RTVSPost2010Prop49
280
     0
102
RTVSPost2010PropOp49
 70
     1
102
RTVSPost2010Prop50
 90
       50
102
RTVSPost2010PropOp50
 70
     0
102
RTVSPost2010Prop51ColorIndex
 90
      256
102
RTVSPost2010Prop51ColorRGB
 90
-16777216
102
RTVSPost2010PropOp51
 70
     0
102
RTVSPost2010Prop52
140
1.0
102
RTVSPost2010PropOp52
 70
     0
102
RTVSPost2010Prop53
 90
        2
102
RTVSPost2010PropOp53
 70
     0
102
RTVSPost2010Prop54
  1
strokes_ogs.tif
102
RTVSPost2010PropOp54
 70
     0
102
RTVSPost2010Prop55
280
     0
102
RTVSPost2010PropOp55
 70
     1
102
RTVSPost2010Prop56
140
1.0
102
RTVSPost2010PropOp56
 70
     0
102
RTVSPost2010Prop57
140
1.0
102
RTVSPost2010PropOp57
 70
     0
102
RTVSPropertyOp0
 70
     0
102
RTVSPropertyOp1
 70
     0
102
RTVSPropertyOp2
 70
     0
102
RTVSPropertyOp3
 70
     0
102
RTVSPropertyOp4
 70
     0
102
RTVSPropertyOp5
 70
     0
102
RTVSPropertyOp6
 70
     0
102
RTVSPropertyOp7
 70
     0
102
RTVSPropertyOp8
 70
     0
102
RTVSPropertyOp9
 70
     0
102
RTVSPropertyOp10
 70
     0
102
RTVSPropertyOp11
 70
     0
102
RTVSPropertyOp12
 70
     0
102
RTVSPropertyOp13
 70
     0
102
RTVSPropertyOp14
 70
     2
102
RTVSPropertyOp15
 70
     0
102
RTVSPropertyOp16
 70
     0
102
RTVSPropertyOp17
 70
     0
102
RTVSPropertyOp18
 70
     0
102
RTVSPropertyOp19
 70
     0
102
RTVSPropertyOp20
 70
     0
102
RTVSPropertyOp21
 70
     0
102
RTVSPropertyOp22
 70
     0
102
RTVSPropertyOp23
 70
     0
102
RTVSPropertyOp24
 70
     0
102
RTVSPropertyOp25
 70
     0
102
RTVSPropertyOp26
 70
     0
102
RTVSPropertyOp27
 70
     0
102
RTVSPropertyOp28
 70
     1
102
RTVSPropertyOp29
 70
     1
102
RTVSPropertyOp30
 70
     1
102
RTVSPropertyOp31
 70
     1
102
RTVSPropertyOp32
 70
     1
102
RTVSPropertyOp33
 70
     1
102
RTVSPropertyOp34
 70
     1
102
RTVSPropertyOp35
 70
     1
102
RTVSPropertyOp36
 70
     1
102
RTVSPropertyOp37
 70
     0
102
RTVSPropertyOp38
 70
     0
102
RTVSPropertyOp39
 70
     0
102
RTVSPropertyOp40
 70
     0
102
RTVSPropertyOp41
 70
     0
102
RTVSPropertyOp42
 70
     0
102
RTVSPropertyOp43
 70
     0
102
RTVSPropertyOp44
 70
     0
102
RTVSPropertyOp45
 70
     1
102
RTVSPropertyOp46
 70
     0
102
RTVSPropertyOp47
 70
     0
102
RTVSPropertyOp48
 70
     0
102
RTVSPropertyOp49
 70
     1
102
RTVSPropertyOp50
 70
     0
102
RTVSPropertyOp51
 70
     0
102
RTVSPropertyOp52
 70
     0
102
RTVSPropertyOp53
 70
     0
102
RTVSPropertyOp54
 70
     0
102
RTVSPropertyOp55
 70
     1
102
RTVSPropertyOp56
 70
     0
102
RTVSPropertyOp57
 70
     0
102
RTVSPropertyOp58
 70
     0
102
RTVSPropertyOp59
 70
     0
102
RTVSPropertyOp60
 70
     0
102
RTVSPropertyOp61
 70
     0
102
RTVSPropertyOp62
 70
     0
  0
XRECORD
  5
16F4
102
{ACAD_REACTORS
330
16F3
102
}
330
16F3
100
AcDbXrecord
280
     1
102
RTVSPost2010Prop28
280
     0
102
RTVSPost2010PropOp28
 70
     1
102
RTVSPost2010Prop29
280
     1
102
RTVSPost2010PropOp29
 70
     1
102
RTVSPost2010Prop30
280
     1
102
RTVSPost2010PropOp30
 70
     1
102
RTVSPost2010Prop31
280
     0
102
RTVSPost2010PropOp31
 70
     1
102
RTVSPost2010Prop32
280
     0
102
RTVSPost2010PropOp32
 70
     1
102
RTVSPost2010Prop33
280
     0
102
RTVSPost2010PropOp33
 70
     1
102
RTVSPost2010Prop34
280
     0
102
RTVSPost2010PropOp34
 70
     1
102
RTVSPost2010Prop35
280
     0
102
RTVSPost2010PropOp35
 70
     1
102
RTVSPost2010Prop36
280
     0
102
RTVSPost2010PropOp36
 70
     1
102
RTVSPost2010Prop37
 90
       50
102
RTVSPost2010PropOp37
 70
     1
102
RTVSPost2010Prop38
140
0.0
102
RTVSPost2010PropOp38
 70
     1
102
RTVSPost2010Prop39
140
1.0
102
RTVSPost2010PropOp39
 70
     1
102
RTVSPost2010Prop40
 90
        0
102
RTVSPost2010PropOp40
 70
     1
102
RTVSPost2010Prop41ColorIndex
 90
       18
102
RTVSPost2010Prop41ColorRGB
 90
        0
102
RTVSPost2010PropOp41
 70
     1
102
RTVSPost2010Prop42
 90
       50
102
RTVSPost2010PropOp42
 70
     1
102
RTVSPost2010Prop43
 90
        3
102
RTVSPost2010PropOp43
 70
     1
102
RTVSPost2010Prop44ColorIndex
 90
        5
102
RTVSPost2010Prop44ColorRGB
 90
      255
102
RTVSPost2010PropOp44
 70
     1
102
RTVSPost2010Prop45
280
     0
102
RTVSPost2010PropOp45
 70
     1
102
RTVSPost2010Prop46
 90
       50
102
RTVSPost2010PropOp46
 70
     1
102
RTVSPost2010Prop47
 90
       50
102
RTVSPost2010PropOp47
 70
     1
102
RTVSPost2010Prop48
 90
       50
102
RTVSPost2010PropOp48
 70
     1
102
RTVSPost2010Prop49
280
     0
102
RTVSPost2010PropOp49
 70
     1
102
RTVSPost2010Prop50
 90
       50
102
RTVSPost2010PropOp50
 70
     1
102
RTVSPost2010Prop51ColorIndex
 90
      256
102
RTVSPost2010Prop51ColorRGB
 90
-16777216
102
RTVSPost2010PropOp51
 70
     0
102
RTVSPost2010Prop52
140
1.0
102
RTVSPost2010PropOp52
 70
     0
102
RTVSPost2010Prop53
 90
        2
102
RTVSPost2010PropOp53
 70
     1
102
RTVSPost2010Prop54
  1
strokes_ogs.tif
102
RTVSPost2010PropOp54
 70
     1
102
RTVSPost2010Prop55
280
     0
102
RTVSPost2010PropOp55
 70
     1
102
RTVSPost2010Prop56
140
1.0
102
RTVSPost2010PropOp56
 70
     1
102
RTVSPost2010Prop57
140
1.0
102
RTVSPost2010PropOp57
 70
     1
102
RTVSPropertyOp0
 70
     1
102
RTVSPropertyOp1
 70
     1
102
RTVSPropertyOp2
 70
     1
102
RTVSPropertyOp3
 70
     1
102
RTVSPropertyOp4
 70
     1
102
RTVSPropertyOp5
 70
     1
102
RTVSPropertyOp6
 70
     1
102
RTVSPropertyOp7
 70
     1
102
RTVSPropertyOp8
 70
     1
102
RTVSPropertyOp9
 70
     1
102
RTVSPropertyOp10
 70
     1
102
RTVSPropertyOp11
 70
     1
102
RTVSPropertyOp12
 70
     1
102
RTVSPropertyOp13
 70
     1
102
RTVSPropertyOp14
 70
     1
102
RTVSPropertyOp15
 70
     1
102
RTVSPropertyOp16
 70
     1
102
RTVSPropertyOp17
 70
     1
102
RTVSPropertyOp18
 70
     1
102
RTVSPropertyOp19
 70
     1
102
RTVSPropertyOp20
 70
     1
102
RTVSPropertyOp21
 70
     1
102
RTVSPropertyOp22
 70
     1
102
RTVSPropertyOp23
 70
     1
102
RTVSPropertyOp24
 70
     1
102
RTVSPropertyOp25
 70
     1
102
RTVSPropertyOp26
 70
     1
102
RTVSPropertyOp27
 70
     1
102
RTVSPropertyOp28
 70
     1
102
RTVSPropertyOp29
 70
     1
102
RTVSPropertyOp30
 70
     1
102
RTVSPropertyOp31
 70
     1
102
RTVSPropertyOp32
 70
     1
102
RTVSPropertyOp33
 70
     1
102
RTVSPropertyOp34
 70
     1
102
RTVSPropertyOp35
 70
     1
102
RTVSPropertyOp36
 70
     1
102
RTVSPropertyOp37
 70
     1
102
RTVSPropertyOp38
 70
     1
102
RTVSPropertyOp39
 70
     1
102
RTVSPropertyOp40
 70
     1
102
RTVSPropertyOp41
 70
     1
102
RTVSPropertyOp42
 70
     1
102
RTVSPropertyOp43
 70
     1
102
RTVSPropertyOp44
 70
     1
102
RTVSPropertyOp45
 70
     1
102
RTVSPropertyOp46
 70
     1
102
RTVSPropertyOp47
 70
     1
102
RTVSPropertyOp48
 70
     1
102
RTVSPropertyOp49
 70
     1
102
RTVSPropertyOp50
 70
     1
102
RTVSPropertyOp51
 70
     0
102
RTVSPropertyOp52
 70
     0
102
RTVSPropertyOp53
 70
     1
102
RTVSPropertyOp54
 70
     1
102
RTVSPropertyOp55
 70
     1
102
RTVSPropertyOp56
 70
     1
102
RTVSPropertyOp57
 70
     1
102
RTVSPropertyOp58
 70
     1
102
RTVSPropertyOp59
 70
     1
102
RTVSPropertyOp60
 70
     1
102
RTVSPropertyOp61
 70
     1
102
RTVSPropertyOp62
 70
     1
  0
XRECORD
  5
16D8
102
{ACAD_REACTORS
330
16D7
102
}
330
16D7
100
AcDbXrecord
280
     1
102
RTVSPost2010Prop28
280
     0
102
RTVSPost2010PropOp28
 70
     1
102
RTVSPost2010Prop29
280
     1
102
RTVSPost2010PropOp29
 70
     1
102
RTVSPost2010Prop30
280
     1
102
RTVSPost2010PropOp30
 70
     1
102
RTVSPost2010Prop31
280
     0
102
RTVSPost2010PropOp31
 70
     1
102
RTVSPost2010Prop32
280
     0
102
RTVSPost2010PropOp32
 70
     1
102
RTVSPost2010Prop33
280
     0
102
RTVSPost2010PropOp33
 70
     1
102
RTVSPost2010Prop34
280
     0
102
RTVSPost2010PropOp34
 70
     1
102
RTVSPost2010Prop35
280
     0
102
RTVSPost2010PropOp35
 70
     1
102
RTVSPost2010Prop36
280
     0
102
RTVSPost2010PropOp36
 70
     1
102
RTVSPost2010Prop37
 90
       50
102
RTVSPost2010PropOp37
 70
     1
102
RTVSPost2010Prop38
140
0.0
102
RTVSPost2010PropOp38
 70
     1
102
RTVSPost2010Prop39
140
1.0
102
RTVSPost2010PropOp39
 70
     1
102
RTVSPost2010Prop40
 90
        0
102
RTVSPost2010PropOp40
 70
     1
102
RTVSPost2010Prop41ColorIndex
 90
       18
102
RTVSPost2010Prop41ColorRGB
 90
        0
102
RTVSPost2010PropOp41
 70
     1
102
RTVSPost2010Prop42
 90
       50
102
RTVSPost2010PropOp42
 70
     1
102
RTVSPost2010Prop43
 90
        3
102
RTVSPost2010PropOp43
 70
     1
102
RTVSPost2010Prop44ColorIndex
 90
        5
102
RTVSPost2010Prop44ColorRGB
 90
      255
102
RTVSPost2010PropOp44
 70
     1
102
RTVSPost2010Prop45
280
     0
102
RTVSPost2010PropOp45
 70
     1
102
RTVSPost2010Prop46
 90
       50
102
RTVSPost2010PropOp46
 70
     1
102
RTVSPost2010Prop47
 90
       50
102
RTVSPost2010PropOp47
 70
     1
102
RTVSPost2010Prop48
 90
       50
102
RTVSPost2010PropOp48
 70
     1
102
RTVSPost2010Prop49
280
     0
102
RTVSPost2010PropOp49
 70
     1
102
RTVSPost2010Prop50
 90
       50
102
RTVSPost2010PropOp50
 70
     1
102
RTVSPost2010Prop51ColorIndex
 90
      256
102
RTVSPost2010Prop51ColorRGB
 90
-16777216
102
RTVSPost2010PropOp51
 70
     0
102
RTVSPost2010Prop52
140
1.0
102
RTVSPost2010PropOp52
 70
     0
102
RTVSPost2010Prop53
 90
        2
102
RTVSPost2010PropOp53
 70
     1
102
RTVSPost2010Prop54
  1
strokes_ogs.tif
102
RTVSPost2010PropOp54
 70
     1
102
RTVSPost2010Prop55
280
     0
102
RTVSPost2010PropOp55
 70
     1
102
RTVSPost2010Prop56
140
1.0
102
RTVSPost2010PropOp56
 70
     1
102
RTVSPost2010Prop57
140
1.0
102
RTVSPost2010PropOp57
 70
     1
102
RTVSPropertyOp0
 70
     1
102
RTVSPropertyOp1
 70
     1
102
RTVSPropertyOp2
 70
     1
102
RTVSPropertyOp3
 70
     1
102
RTVSPropertyOp4
 70
     1
102
RTVSPropertyOp5
 70
     1
102
RTVSPropertyOp6
 70
     1
102
RTVSPropertyOp7
 70
     1
102
RTVSPropertyOp8
 70
     1
102
RTVSPropertyOp9
 70
     1
102
RTVSPropertyOp10
 70
     1
102
RTVSPropertyOp11
 70
     1
102
RTVSPropertyOp12
 70
     1
102
RTVSPropertyOp13
 70
     1
102
RTVSPropertyOp14
 70
     1
102
RTVSPropertyOp15
 70
     1
102
RTVSPropertyOp16
 70
     1
102
RTVSPropertyOp17
 70
     1
102
RTVSPropertyOp18
 70
     1
102
RTVSPropertyOp19
 70
     1
102
RTVSPropertyOp20
 70
     1
102
RTVSPropertyOp21
 70
     1
102
RTVSPropertyOp22
 70
     1
102
RTVSPropertyOp23
 70
     1
102
RTVSPropertyOp24
 70
     1
102
RTVSPropertyOp25
 70
     1
102
RTVSPropertyOp26
 70
     1
102
RTVSPropertyOp27
 70
     1
102
RTVSPropertyOp28
 70
     1
102
RTVSPropertyOp29
 70
     1
102
RTVSPropertyOp30
 70
     1
102
RTVSPropertyOp31
 70
     1
102
RTVSPropertyOp32
 70
     1
102
RTVSPropertyOp33
 70
     1
102
RTVSPropertyOp34
 70
     1
102
RTVSPropertyOp35
 70
     1
102
RTVSPropertyOp36
 70
     1
102
RTVSPropertyOp37
 70
     1
102
RTVSPropertyOp38
 70
     1
102
RTVSPropertyOp39
 70
     1
102
RTVSPropertyOp40
 70
     1
102
RTVSPropertyOp41
 70
     1
102
RTVSPropertyOp42
 70
     1
102
RTVSPropertyOp43
 70
     1
102
RTVSPropertyOp44
 70
     1
102
RTVSPropertyOp45
 70
     1
102
RTVSPropertyOp46
 70
     1
102
RTVSPropertyOp47
 70
     1
102
RTVSPropertyOp48
 70
     1
102
RTVSPropertyOp49
 70
     1
102
RTVSPropertyOp50
 70
     1
102
RTVSPropertyOp51
 70
     0
102
RTVSPropertyOp52
 70
     0
102
RTVSPropertyOp53
 70
     1
102
RTVSPropertyOp54
 70
     1
102
RTVSPropertyOp55
 70
     1
102
RTVSPropertyOp56
 70
     1
102
RTVSPropertyOp57
 70
     1
102
RTVSPropertyOp58
 70
     1
102
RTVSPropertyOp59
 70
     1
102
RTVSPropertyOp60
 70
     1
102
RTVSPropertyOp61
 70
     1
102
RTVSPropertyOp62
 70
     1
  0
XRECORD
  5
16DA
102
{ACAD_REACTORS
330
16D9
102
}
330
16D9
100
AcDbXrecord
280
     1
102
RTVSPost2010Prop28
280
     0
102
RTVSPost2010PropOp28
 70
     1
102
RTVSPost2010Prop29
280
     1
102
RTVSPost2010PropOp29
 70
     1
102
RTVSPost2010Prop30
280
     1
102
RTVSPost2010PropOp30
 70
     1
102
RTVSPost2010Prop31
280
     0
102
RTVSPost2010PropOp31
 70
     1
102
RTVSPost2010Prop32
280
     0
102
RTVSPost2010PropOp32
 70
     1
102
RTVSPost2010Prop33
280
     0
102
RTVSPost2010PropOp33
 70
     1
102
RTVSPost2010Prop34
280
     0
102
RTVSPost2010PropOp34
 70
     1
102
RTVSPost2010Prop35
280
     0
102
RTVSPost2010PropOp35
 70
     1
102
RTVSPost2010Prop36
280
     0
102
RTVSPost2010PropOp36
 70
     1
102
RTVSPost2010Prop37
 90
       50
102
RTVSPost2010PropOp37
 70
     1
102
RTVSPost2010Prop38
140
0.0
102
RTVSPost2010PropOp38
 70
     1
102
RTVSPost2010Prop39
140
1.0
102
RTVSPost2010PropOp39
 70
     1
102
RTVSPost2010Prop40
 90
        0
102
RTVSPost2010PropOp40
 70
     1
102
RTVSPost2010Prop41ColorIndex
 90
       18
102
RTVSPost2010Prop41ColorRGB
 90
        0
102
RTVSPost2010PropOp41
 70
     1
102
RTVSPost2010Prop42
 90
       50
102
RTVSPost2010PropOp42
 70
     1
102
RTVSPost2010Prop43
 90
        3
102
RTVSPost2010PropOp43
 70
     1
102
RTVSPost2010Prop44ColorIndex
 90
        5
102
RTVSPost2010Prop44ColorRGB
 90
      255
102
RTVSPost2010PropOp44
 70
     1
102
RTVSPost2010Prop45
280
     0
102
RTVSPost2010PropOp45
 70
     1
102
RTVSPost2010Prop46
 90
       50
102
RTVSPost2010PropOp46
 70
     1
102
RTVSPost2010Prop47
 90
       50
102
RTVSPost2010PropOp47
 70
     1
102
RTVSPost2010Prop48
 90
       50
102
RTVSPost2010PropOp48
 70
     1
102
RTVSPost2010Prop49
280
     0
102
RTVSPost2010PropOp49
 70
     1
102
RTVSPost2010Prop50
 90
       50
102
RTVSPost2010PropOp50
 70
     1
102
RTVSPost2010Prop51ColorIndex
 90
      256
102
RTVSPost2010Prop51ColorRGB
 90
-16777216
102
RTVSPost2010PropOp51
 70
     0
102
RTVSPost2010Prop52
140
1.0
102
RTVSPost2010PropOp52
 70
     0
102
RTVSPost2010Prop53
 90
        2
102
RTVSPost2010PropOp53
 70
     1
102
RTVSPost2010Prop54
  1
strokes_ogs.tif
102
RTVSPost2010PropOp54
 70
     1
102
RTVSPost2010Prop55
280
     0
102
RTVSPost2010PropOp55
 70
     1
102
RTVSPost2010Prop56
140
1.0
102
RTVSPost2010PropOp56
 70
     1
102
RTVSPost2010Prop57
140
1.0
102
RTVSPost2010PropOp57
 70
     1
102
RTVSPropertyOp0
 70
     1
102
RTVSPropertyOp1
 70
     1
102
RTVSPropertyOp2
 70
     1
102
RTVSPropertyOp3
 70
     1
102
RTVSPropertyOp4
 70
     1
102
RTVSPropertyOp5
 70
     1
102
RTVSPropertyOp6
 70
     1
102
RTVSPropertyOp7
 70
     1
102
RTVSPropertyOp8
 70
     1
102
RTVSPropertyOp9
 70
     1
102
RTVSPropertyOp10
 70
     1
102
RTVSPropertyOp11
 70
     1
102
RTVSPropertyOp12
 70
     1
102
RTVSPropertyOp13
 70
     1
102
RTVSPropertyOp14
 70
     1
102
RTVSPropertyOp15
 70
     1
102
RTVSPropertyOp16
 70
     1
102
RTVSPropertyOp17
 70
     1
102
RTVSPropertyOp18
 70
     1
102
RTVSPropertyOp19
 70
     1
102
RTVSPropertyOp20
 70
     1
102
RTVSPropertyOp21
 70
     1
102
RTVSPropertyOp22
 70
     1
102
RTVSPropertyOp23
 70
     1
102
RTVSPropertyOp24
 70
     1
102
RTVSPropertyOp25
 70
     1
102
RTVSPropertyOp26
 70
     1
102
RTVSPropertyOp27
 70
     1
102
RTVSPropertyOp28
 70
     1
102
RTVSPropertyOp29
 70
     1
102
RTVSPropertyOp30
 70
     1
102
RTVSPropertyOp31
 70
     1
102
RTVSPropertyOp32
 70
     1
102
RTVSPropertyOp33
 70
     1
102
RTVSPropertyOp34
 70
     1
102
RTVSPropertyOp35
 70
     1
102
RTVSPropertyOp36
 70
     1
102
RTVSPropertyOp37
 70
     1
102
RTVSPropertyOp38
 70
     1
102
RTVSPropertyOp39
 70
     1
102
RTVSPropertyOp40
 70
     1
102
RTVSPropertyOp41
 70
     1
102
RTVSPropertyOp42
 70
     1
102
RTVSPropertyOp43
 70
     1
102
RTVSPropertyOp44
 70
     1
102
RTVSPropertyOp45
 70
     1
102
RTVSPropertyOp46
 70
     1
102
RTVSPropertyOp47
 70
     1
102
RTVSPropertyOp48
 70
     1
102
RTVSPropertyOp49
 70
     1
102
RTVSPropertyOp50
 70
     1
102
RTVSPropertyOp51
 70
     0
102
RTVSPropertyOp52
 70
     0
102
RTVSPropertyOp53
 70
     1
102
RTVSPropertyOp54
 70
     1
102
RTVSPropertyOp55
 70
     1
102
RTVSPropertyOp56
 70
     1
102
RTVSPropertyOp57
 70
     1
102
RTVSPropertyOp58
 70
     1
102
RTVSPropertyOp59
 70
     1
102
RTVSPropertyOp60
 70
     1
102
RTVSPropertyOp61
 70
     1
102
RTVSPropertyOp62
 70
     1
  0
XRECORD
  5
16DC
102
{ACAD_REACTORS
330
16DB
102
}
330
16DB
100
AcDbXrecord
280
     1
102
RTVSPost2010Prop28
280
     0
102
RTVSPost2010PropOp28
 70
     1
102
RTVSPost2010Prop29
280
     1
102
RTVSPost2010PropOp29
 70
     1
102
RTVSPost2010Prop30
280
     1
102
RTVSPost2010PropOp30
 70
     1
102
RTVSPost2010Prop31
280
     0
102
RTVSPost2010PropOp31
 70
     1
102
RTVSPost2010Prop32
280
     0
102
RTVSPost2010PropOp32
 70
     1
102
RTVSPost2010Prop33
280
     0
102
RTVSPost2010PropOp33
 70
     1
102
RTVSPost2010Prop34
280
     0
102
RTVSPost2010PropOp34
 70
     1
102
RTVSPost2010Prop35
280
     0
102
RTVSPost2010PropOp35
 70
     1
102
RTVSPost2010Prop36
280
     0
102
RTVSPost2010PropOp36
 70
     1
102
RTVSPost2010Prop37
 90
       50
102
RTVSPost2010PropOp37
 70
     1
102
RTVSPost2010Prop38
140
0.0
102
RTVSPost2010PropOp38
 70
     1
102
RTVSPost2010Prop39
140
1.0
102
RTVSPost2010PropOp39
 70
     1
102
RTVSPost2010Prop40
 90
        0
102
RTVSPost2010PropOp40
 70
     1
102
RTVSPost2010Prop41ColorIndex
 90
       18
102
RTVSPost2010Prop41ColorRGB
 90
        0
102
RTVSPost2010PropOp41
 70
     1
102
RTVSPost2010Prop42
 90
       50
102
RTVSPost2010PropOp42
 70
     1
102
RTVSPost2010Prop43
 90
        3
102
RTVSPost2010PropOp43
 70
     1
102
RTVSPost2010Prop44ColorIndex
 90
        5
102
RTVSPost2010Prop44ColorRGB
 90
      255
102
RTVSPost2010PropOp44
 70
     1
102
RTVSPost2010Prop45
280
     0
102
RTVSPost2010PropOp45
 70
     1
102
RTVSPost2010Prop46
 90
       50
102
RTVSPost2010PropOp46
 70
     1
102
RTVSPost2010Prop47
 90
       50
102
RTVSPost2010PropOp47
 70
     1
102
RTVSPost2010Prop48
 90
       50
102
RTVSPost2010PropOp48
 70
     1
102
RTVSPost2010Prop49
280
     0
102
RTVSPost2010PropOp49
 70
     1
102
RTVSPost2010Prop50
 90
       50
102
RTVSPost2010PropOp50
 70
     1
102
RTVSPost2010Prop51ColorIndex
 90
      256
102
RTVSPost2010Prop51ColorRGB
 90
-16777216
102
RTVSPost2010PropOp51
 70
     0
102
RTVSPost2010Prop52
140
1.0
102
RTVSPost2010PropOp52
 70
     0
102
RTVSPost2010Prop53
 90
        2
102
RTVSPost2010PropOp53
 70
     1
102
RTVSPost2010Prop54
  1
strokes_ogs.tif
102
RTVSPost2010PropOp54
 70
     1
102
RTVSPost2010Prop55
280
     0
102
RTVSPost2010PropOp55
 70
     1
102
RTVSPost2010Prop56
140
1.0
102
RTVSPost2010PropOp56
 70
     1
102
RTVSPost2010Prop57
140
1.0
102
RTVSPost2010PropOp57
 70
     1
102
RTVSPropertyOp0
 70
     1
102
RTVSPropertyOp1
 70
     1
102
RTVSPropertyOp2
 70
     1
102
RTVSPropertyOp3
 70
     1
102
RTVSPropertyOp4
 70
     1
102
RTVSPropertyOp5
 70
     1
102
RTVSPropertyOp6
 70
     1
102
RTVSPropertyOp7
 70
     1
102
RTVSPropertyOp8
 70
     1
102
RTVSPropertyOp9
 70
     1
102
RTVSPropertyOp10
 70
     1
102
RTVSPropertyOp11
 70
     1
102
RTVSPropertyOp12
 70
     1
102
RTVSPropertyOp13
 70
     1
102
RTVSPropertyOp14
 70
     1
102
RTVSPropertyOp15
 70
     1
102
RTVSPropertyOp16
 70
     1
102
RTVSPropertyOp17
 70
     1
102
RTVSPropertyOp18
 70
     1
102
RTVSPropertyOp19
 70
     1
102
RTVSPropertyOp20
 70
     1
102
RTVSPropertyOp21
 70
     1
102
RTVSPropertyOp22
 70
     1
102
RTVSPropertyOp23
 70
     1
102
RTVSPropertyOp24
 70
     1
102
RTVSPropertyOp25
 70
     1
102
RTVSPropertyOp26
 70
     1
102
RTVSPropertyOp27
 70
     1
102
RTVSPropertyOp28
 70
     1
102
RTVSPropertyOp29
 70
     1
102
RTVSPropertyOp30
 70
     1
102
RTVSPropertyOp31
 70
     1
102
RTVSPropertyOp32
 70
     1
102
RTVSPropertyOp33
 70
     1
102
RTVSPropertyOp34
 70
     1
102
RTVSPropertyOp35
 70
     1
102
RTVSPropertyOp36
 70
     1
102
RTVSPropertyOp37
 70
     1
102
RTVSPropertyOp38
 70
     1
102
RTVSPropertyOp39
 70
     1
102
RTVSPropertyOp40
 70
     1
102
RTVSPropertyOp41
 70
     1
102
RTVSPropertyOp42
 70
     1
102
RTVSPropertyOp43
 70
     1
102
RTVSPropertyOp44
 70
     1
102
RTVSPropertyOp45
 70
     1
102
RTVSPropertyOp46
 70
     1
102
RTVSPropertyOp47
 70
     1
102
RTVSPropertyOp48
 70
     1
102
RTVSPropertyOp49
 70
     1
102
RTVSPropertyOp50
 70
     1
102
RTVSPropertyOp51
 70
     0
102
RTVSPropertyOp52
 70
     0
102
RTVSPropertyOp53
 70
     1
102
RTVSPropertyOp54
 70
     1
102
RTVSPropertyOp55
 70
     1
102
RTVSPropertyOp56
 70
     1
102
RTVSPropertyOp57
 70
     1
102
RTVSPropertyOp58
 70
     1
102
RTVSPropertyOp59
 70
     1
102
RTVSPropertyOp60
 70
     1
102
RTVSPropertyOp61
 70
     1
102
RTVSPropertyOp62
 70
     1
  0
XRECORD
  5
16DE
102
{ACAD_REACTORS
330
16DD
102
}
330
16DD
100
AcDbXrecord
280
     1
102
RTVSPost2010Prop28
280
     0
102
RTVSPost2010PropOp28
 70
     1
102
RTVSPost2010Prop29
280
     1
102
RTVSPost2010PropOp29
 70
     1
102
RTVSPost2010Prop30
280
     1
102
RTVSPost2010PropOp30
 70
     1
102
RTVSPost2010Prop31
280
     0
102
RTVSPost2010PropOp31
 70
     1
102
RTVSPost2010Prop32
280
     0
102
RTVSPost2010PropOp32
 70
     1
102
RTVSPost2010Prop33
280
     0
102
RTVSPost2010PropOp33
 70
     1
102
RTVSPost2010Prop34
280
     0
102
RTVSPost2010PropOp34
 70
     1
102
RTVSPost2010Prop35
280
     0
102
RTVSPost2010PropOp35
 70
     1
102
RTVSPost2010Prop36
280
     0
102
RTVSPost2010PropOp36
 70
     1
102
RTVSPost2010Prop37
 90
       50
102
RTVSPost2010PropOp37
 70
     1
102
RTVSPost2010Prop38
140
0.0
102
RTVSPost2010PropOp38
 70
     1
102
RTVSPost2010Prop39
140
1.0
102
RTVSPost2010PropOp39
 70
     1
102
RTVSPost2010Prop40
 90
        0
102
RTVSPost2010PropOp40
 70
     1
102
RTVSPost2010Prop41ColorIndex
 90
       18
102
RTVSPost2010Prop41ColorRGB
 90
        0
102
RTVSPost2010PropOp41
 70
     1
102
RTVSPost2010Prop42
 90
       50
102
RTVSPost2010PropOp42
 70
     1
102
RTVSPost2010Prop43
 90
        3
102
RTVSPost2010PropOp43
 70
     1
102
RTVSPost2010Prop44ColorIndex
 90
        5
102
RTVSPost2010Prop44ColorRGB
 90
      255
102
RTVSPost2010PropOp44
 70
     1
102
RTVSPost2010Prop45
280
     0
102
RTVSPost2010PropOp45
 70
     1
102
RTVSPost2010Prop46
 90
       50
102
RTVSPost2010PropOp46
 70
     1
102
RTVSPost2010Prop47
 90
       50
102
RTVSPost2010PropOp47
 70
     1
102
RTVSPost2010Prop48
 90
       50
102
RTVSPost2010PropOp48
 70
     1
102
RTVSPost2010Prop49
280
     0
102
RTVSPost2010PropOp49
 70
     1
102
RTVSPost2010Prop50
 90
       50
102
RTVSPost2010PropOp50
 70
     1
102
RTVSPost2010Prop51ColorIndex
 90
      256
102
RTVSPost2010Prop51ColorRGB
 90
-16777216
102
RTVSPost2010PropOp51
 70
     0
102
RTVSPost2010Prop52
140
1.0
102
RTVSPost2010PropOp52
 70
     0
102
RTVSPost2010Prop53
 90
        2
102
RTVSPost2010PropOp53
 70
     1
102
RTVSPost2010Prop54
  1
strokes_ogs.tif
102
RTVSPost2010PropOp54
 70
     1
102
RTVSPost2010Prop55
280
     0
102
RTVSPost2010PropOp55
 70
     1
102
RTVSPost2010Prop56
140
1.0
102
RTVSPost2010PropOp56
 70
     1
102
RTVSPost2010Prop57
140
1.0
102
RTVSPost2010PropOp57
 70
     1
102
RTVSPropertyOp0
 70
     1
102
RTVSPropertyOp1
 70
     1
102
RTVSPropertyOp2
 70
     1
102
RTVSPropertyOp3
 70
     1
102
RTVSPropertyOp4
 70
     1
102
RTVSPropertyOp5
 70
     1
102
RTVSPropertyOp6
 70
     1
102
RTVSPropertyOp7
 70
     1
102
RTVSPropertyOp8
 70
     1
102
RTVSPropertyOp9
 70
     1
102
RTVSPropertyOp10
 70
     1
102
RTVSPropertyOp11
 70
     1
102
RTVSPropertyOp12
 70
     1
102
RTVSPropertyOp13
 70
     1
102
RTVSPropertyOp14
 70
     1
102
RTVSPropertyOp15
 70
     1
102
RTVSPropertyOp16
 70
     1
102
RTVSPropertyOp17
 70
     1
102
RTVSPropertyOp18
 70
     1
102
RTVSPropertyOp19
 70
     1
102
RTVSPropertyOp20
 70
     1
102
RTVSPropertyOp21
 70
     1
102
RTVSPropertyOp22
 70
     1
102
RTVSPropertyOp23
 70
     1
102
RTVSPropertyOp24
 70
     1
102
RTVSPropertyOp25
 70
     1
102
RTVSPropertyOp26
 70
     1
102
RTVSPropertyOp27
 70
     1
102
RTVSPropertyOp28
 70
     1
102
RTVSPropertyOp29
 70
     1
102
RTVSPropertyOp30
 70
     1
102
RTVSPropertyOp31
 70
     1
102
RTVSPropertyOp32
 70
     1
102
RTVSPropertyOp33
 70
     1
102
RTVSPropertyOp34
 70
     1
102
RTVSPropertyOp35
 70
     1
102
RTVSPropertyOp36
 70
     1
102
RTVSPropertyOp37
 70
     1
102
RTVSPropertyOp38
 70
     1
102
RTVSPropertyOp39
 70
     1
102
RTVSPropertyOp40
 70
     1
102
RTVSPropertyOp41
 70
     1
102
RTVSPropertyOp42
 70
     1
102
RTVSPropertyOp43
 70
     1
102
RTVSPropertyOp44
 70
     1
102
RTVSPropertyOp45
 70
     1
102
RTVSPropertyOp46
 70
     1
102
RTVSPropertyOp47
 70
     1
102
RTVSPropertyOp48
 70
     1
102
RTVSPropertyOp49
 70
     1
102
RTVSPropertyOp50
 70
     1
102
RTVSPropertyOp51
 70
     0
102
RTVSPropertyOp52
 70
     0
102
RTVSPropertyOp53
 70
     1
102
RTVSPropertyOp54
 70
     1
102
RTVSPropertyOp55
 70
     1
102
RTVSPropertyOp56
 70
     1
102
RTVSPropertyOp57
 70
     1
102
RTVSPropertyOp58
 70
     1
102
RTVSPropertyOp59
 70
     1
102
RTVSPropertyOp60
 70
     1
102
RTVSPropertyOp61
 70
     1
102
RTVSPropertyOp62
 70
     1
  0
XRECORD
  5
16E6
102
{ACAD_REACTORS
330
16E5
102
}
330
16E5
100
AcDbXrecord
280
     1
102
RTVSPost2010Prop28
280
     0
102
RTVSPost2010PropOp28
 70
     1
102
RTVSPost2010Prop29
280
     1
102
RTVSPost2010PropOp29
 70
     1
102
RTVSPost2010Prop30
280
     1
102
RTVSPost2010PropOp30
 70
     1
102
RTVSPost2010Prop31
280
     0
102
RTVSPost2010PropOp31
 70
     1
102
RTVSPost2010Prop32
280
     0
102
RTVSPost2010PropOp32
 70
     1
102
RTVSPost2010Prop33
280
     0
102
RTVSPost2010PropOp33
 70
     1
102
RTVSPost2010Prop34
280
     0
102
RTVSPost2010PropOp34
 70
     1
102
RTVSPost2010Prop35
280
     0
102
RTVSPost2010PropOp35
 70
     1
102
RTVSPost2010Prop36
280
     0
102
RTVSPost2010PropOp36
 70
     1
102
RTVSPost2010Prop37
 90
       50
102
RTVSPost2010PropOp37
 70
     1
102
RTVSPost2010Prop38
140
0.0
102
RTVSPost2010PropOp38
 70
     1
102
RTVSPost2010Prop39
140
1.0
102
RTVSPost2010PropOp39
 70
     1
102
RTVSPost2010Prop40
 90
        0
102
RTVSPost2010PropOp40
 70
     1
102
RTVSPost2010Prop41ColorIndex
 90
       18
102
RTVSPost2010Prop41ColorRGB
 90
        0
102
RTVSPost2010PropOp41
 70
     1
102
RTVSPost2010Prop42
 90
       50
102
RTVSPost2010PropOp42
 70
     1
102
RTVSPost2010Prop43
 90
        3
102
RTVSPost2010PropOp43
 70
     1
102
RTVSPost2010Prop44ColorIndex
 90
        5
102
RTVSPost2010Prop44ColorRGB
 90
      255
102
RTVSPost2010PropOp44
 70
     1
102
RTVSPost2010Prop45
280
     0
102
RTVSPost2010PropOp45
 70
     1
102
RTVSPost2010Prop46
 90
       50
102
RTVSPost2010PropOp46
 70
     1
102
RTVSPost2010Prop47
 90
       50
102
RTVSPost2010PropOp47
 70
     1
102
RTVSPost2010Prop48
 90
       50
102
RTVSPost2010PropOp48
 70
     1
102
RTVSPost2010Prop49
280
     0
102
RTVSPost2010PropOp49
 70
     1
102
RTVSPost2010Prop50
 90
       50
102
RTVSPost2010PropOp50
 70
     1
102
RTVSPost2010Prop51ColorIndex
 90
      256
102
RTVSPost2010Prop51ColorRGB
 90
-16777216
102
RTVSPost2010PropOp51
 70
     0
102
RTVSPost2010Prop52
140
1.0
102
RTVSPost2010PropOp52
 70
     0
102
RTVSPost2010Prop53
 90
        2
102
RTVSPost2010PropOp53
 70
     1
102
RTVSPost2010Prop54
  1
strokes_ogs.tif
102
RTVSPost2010PropOp54
 70
     1
102
RTVSPost2010Prop55
280
     0
102
RTVSPost2010PropOp55
 70
     1
102
RTVSPost2010Prop56
140
1.0
102
RTVSPost2010PropOp56
 70
     1
102
RTVSPost2010Prop57
140
1.0
102
RTVSPost2010PropOp57
 70
     1
102
RTVSPropertyOp0
 70
     1
102
RTVSPropertyOp1
 70
     1
102
RTVSPropertyOp2
 70
     1
102
RTVSPropertyOp3
 70
     1
102
RTVSPropertyOp4
 70
     1
102
RTVSPropertyOp5
 70
     1
102
RTVSPropertyOp6
 70
     1
102
RTVSPropertyOp7
 70
     1
102
RTVSPropertyOp8
 70
     1
102
RTVSPropertyOp9
 70
     1
102
RTVSPropertyOp10
 70
     1
102
RTVSPropertyOp11
 70
     1
102
RTVSPropertyOp12
 70
     1
102
RTVSPropertyOp13
 70
     1
102
RTVSPropertyOp14
 70
     1
102
RTVSPropertyOp15
 70
     1
102
RTVSPropertyOp16
 70
     1
102
RTVSPropertyOp17
 70
     1
102
RTVSPropertyOp18
 70
     1
102
RTVSPropertyOp19
 70
     1
102
RTVSPropertyOp20
 70
     1
102
RTVSPropertyOp21
 70
     1
102
RTVSPropertyOp22
 70
     1
102
RTVSPropertyOp23
 70
     1
102
RTVSPropertyOp24
 70
     1
102
RTVSPropertyOp25
 70
     1
102
RTVSPropertyOp26
 70
     1
102
RTVSPropertyOp27
 70
     1
102
RTVSPropertyOp28
 70
     1
102
RTVSPropertyOp29
 70
     1
102
RTVSPropertyOp30
 70
     1
102
RTVSPropertyOp31
 70
     1
102
RTVSPropertyOp32
 70
     1
102
RTVSPropertyOp33
 70
     1
102
RTVSPropertyOp34
 70
     1
102
RTVSPropertyOp35
 70
     1
102
RTVSPropertyOp36
 70
     1
102
RTVSPropertyOp37
 70
     1
102
RTVSPropertyOp38
 70
     1
102
RTVSPropertyOp39
 70
     1
102
RTVSPropertyOp40
 70
     1
102
RTVSPropertyOp41
 70
     1
102
RTVSPropertyOp42
 70
     1
102
RTVSPropertyOp43
 70
     1
102
RTVSPropertyOp44
 70
     1
102
RTVSPropertyOp45
 70
     1
102
RTVSPropertyOp46
 70
     1
102
RTVSPropertyOp47
 70
     1
102
RTVSPropertyOp48
 70
     1
102
RTVSPropertyOp49
 70
     1
102
RTVSPropertyOp50
 70
     1
102
RTVSPropertyOp51
 70
     0
102
RTVSPropertyOp52
 70
     0
102
RTVSPropertyOp53
 70
     1
102
RTVSPropertyOp54
 70
     1
102
RTVSPropertyOp55
 70
     1
102
RTVSPropertyOp56
 70
     1
102
RTVSPropertyOp57
 70
     1
102
RTVSPropertyOp58
 70
     1
102
RTVSPropertyOp59
 70
     1
102
RTVSPropertyOp60
 70
     1
102
RTVSPropertyOp61
 70
     1
102
RTVSPropertyOp62
 70
     1
  0
XRECORD
  5
1702
102
{ACAD_REACTORS
330
1701
102
}
330
1701
100
AcDbXrecord
280
     1
102
RTVSPost2010Prop28
280
     0
102
RTVSPost2010PropOp28
 70
     1
102
RTVSPost2010Prop29
280
     1
102
RTVSPost2010PropOp29
 70
     1
102
RTVSPost2010Prop30
280
     1
102
RTVSPost2010PropOp30
 70
     1
102
RTVSPost2010Prop31
280
     0
102
RTVSPost2010PropOp31
 70
     1
102
RTVSPost2010Prop32
280
     0
102
RTVSPost2010PropOp32
 70
     1
102
RTVSPost2010Prop33
280
     0
102
RTVSPost2010PropOp33
 70
     1
102
RTVSPost2010Prop34
280
     0
102
RTVSPost2010PropOp34
 70
     1
102
RTVSPost2010Prop35
280
     0
102
RTVSPost2010PropOp35
 70
     1
102
RTVSPost2010Prop36
280
     0
102
RTVSPost2010PropOp36
 70
     1
102
RTVSPost2010Prop37
 90
       50
102
RTVSPost2010PropOp37
 70
     0
102
RTVSPost2010Prop38
140
0.0
102
RTVSPost2010PropOp38
 70
     0
102
RTVSPost2010Prop39
140
1.0
102
RTVSPost2010PropOp39
 70
     0
102
RTVSPost2010Prop40
 90
        0
102
RTVSPost2010PropOp40
 70
     0
102
RTVSPost2010Prop41ColorIndex
 90
       18
102
RTVSPost2010Prop41ColorRGB
 90
        0
102
RTVSPost2010PropOp41
 70
     0
102
RTVSPost2010Prop42
 90
       50
102
RTVSPost2010PropOp42
 70
     0
102
RTVSPost2010Prop43
 90
        3
102
RTVSPost2010PropOp43
 70
     0
102
RTVSPost2010Prop44ColorIndex
 90
        5
102
RTVSPost2010Prop44ColorRGB
 90
      255
102
RTVSPost2010PropOp44
 70
     0
102
RTVSPost2010Prop45
280
     0
102
RTVSPost2010PropOp45
 70
     1
102
RTVSPost2010Prop46
 90
       50
102
RTVSPost2010PropOp46
 70
     0
102
RTVSPost2010Prop47
 90
       50
102
RTVSPost2010PropOp47
 70
     0
102
RTVSPost2010Prop48
 90
       50
102
RTVSPost2010PropOp48
 70
     0
102
RTVSPost2010Prop49
280
     0
102
RTVSPost2010PropOp49
 70
     1
102
RTVSPost2010Prop50
 90
       50
102
RTVSPost2010PropOp50
 70
     0
102
RTVSPost2010Prop51ColorIndex
 90
      256
102
RTVSPost2010Prop51ColorRGB
 90
-16777216
102
RTVSPost2010PropOp51
 70
     0
102
RTVSPost2010Prop52
140
1.0
102
RTVSPost2010PropOp52
 70
     0
102
RTVSPost2010Prop53
 90
        2
102
RTVSPost2010PropOp53
 70
     0
102
RTVSPost2010Prop54
  1
strokes_ogs.tif
102
RTVSPost2010PropOp54
 70
     0
102
RTVSPost2010Prop55
280
     0
102
RTVSPost2010PropOp55
 70
     1
102
RTVSPost2010Prop56
140
1.0
102
RTVSPost2010PropOp56
 70
     0
102
RTVSPost2010Prop57
140
1.0
102
RTVSPost2010PropOp57
 70
     0
102
RTVSPropertyOp0
 70
     0
102
RTVSPropertyOp1
 70
     0
102
RTVSPropertyOp2
 70
     0
102
RTVSPropertyOp3
 70
     0
102
RTVSPropertyOp4
 70
     0
102
RTVSPropertyOp5
 70
     0
102
RTVSPropertyOp6
 70
     0
102
RTVSPropertyOp7
 70
     0
102
RTVSPropertyOp8
 70
     0
102
RTVSPropertyOp9
 70
     0
102
RTVSPropertyOp10
 70
     0
102
RTVSPropertyOp11
 70
     0
102
RTVSPropertyOp12
 70
     0
102
RTVSPropertyOp13
 70
     0
102
RTVSPropertyOp14
 70
     2
102
RTVSPropertyOp15
 70
     0
102
RTVSPropertyOp16
 70
     0
102
RTVSPropertyOp17
 70
     0
102
RTVSPropertyOp18
 70
     0
102
RTVSPropertyOp19
 70
     0
102
RTVSPropertyOp20
 70
     0
102
RTVSPropertyOp21
 70
     0
102
RTVSPropertyOp22
 70
     0
102
RTVSPropertyOp23
 70
     0
102
RTVSPropertyOp24
 70
     0
102
RTVSPropertyOp25
 70
     0
102
RTVSPropertyOp26
 70
     0
102
RTVSPropertyOp27
 70
     0
102
RTVSPropertyOp28
 70
     1
102
RTVSPropertyOp29
 70
     1
102
RTVSPropertyOp30
 70
     1
102
RTVSPropertyOp31
 70
     1
102
RTVSPropertyOp32
 70
     1
102
RTVSPropertyOp33
 70
     1
102
RTVSPropertyOp34
 70
     1
102
RTVSPropertyOp35
 70
     1
102
RTVSPropertyOp36
 70
     1
102
RTVSPropertyOp37
 70
     0
102
RTVSPropertyOp38
 70
     0
102
RTVSPropertyOp39
 70
     0
102
RTVSPropertyOp40
 70
     0
102
RTVSPropertyOp41
 70
     0
102
RTVSPropertyOp42
 70
     0
102
RTVSPropertyOp43
 70
     0
102
RTVSPropertyOp44
 70
     0
102
RTVSPropertyOp45
 70
     1
102
RTVSPropertyOp46
 70
     0
102
RTVSPropertyOp47
 70
     0
102
RTVSPropertyOp48
 70
     0
102
RTVSPropertyOp49
 70
     1
102
RTVSPropertyOp50
 70
     0
102
RTVSPropertyOp51
 70
     0
102
RTVSPropertyOp52
 70
     0
102
RTVSPropertyOp53
 70
     0
102
RTVSPropertyOp54
 70
     0
102
RTVSPropertyOp55
 70
     1
102
RTVSPropertyOp56
 70
     0
102
RTVSPropertyOp57
 70
     0
102
RTVSPropertyOp58
 70
     0
102
RTVSPropertyOp59
 70
     0
102
RTVSPropertyOp60
 70
     0
102
RTVSPropertyOp61
 70
     0
102
RTVSPropertyOp62
 70
     0
  0
XRECORD
  5
16F2
102
{ACAD_REACTORS
330
16F1
102
}
330
16F1
100
AcDbXrecord
280
     1
102
RTVSPost2010Prop28
280
     0
102
RTVSPost2010PropOp28
 70
     1
102
RTVSPost2010Prop29
280
     1
102
RTVSPost2010PropOp29
 70
     1
102
RTVSPost2010Prop30
280
     1
102
RTVSPost2010PropOp30
 70
     1
102
RTVSPost2010Prop31
280
     0
102
RTVSPost2010PropOp31
 70
     1
102
RTVSPost2010Prop32
280
     0
102
RTVSPost2010PropOp32
 70
     1
102
RTVSPost2010Prop33
280
     0
102
RTVSPost2010PropOp33
 70
     1
102
RTVSPost2010Prop34
280
     0
102
RTVSPost2010PropOp34
 70
     1
102
RTVSPost2010Prop35
280
     0
102
RTVSPost2010PropOp35
 70
     1
102
RTVSPost2010Prop36
280
     0
102
RTVSPost2010PropOp36
 70
     1
102
RTVSPost2010Prop37
 90
       50
102
RTVSPost2010PropOp37
 70
     1
102
RTVSPost2010Prop38
140
0.0
102
RTVSPost2010PropOp38
 70
     1
102
RTVSPost2010Prop39
140
1.0
102
RTVSPost2010PropOp39
 70
     1
102
RTVSPost2010Prop40
 90
        0
102
RTVSPost2010PropOp40
 70
     1
102
RTVSPost2010Prop41ColorIndex
 90
       18
102
RTVSPost2010Prop41ColorRGB
 90
        0
102
RTVSPost2010PropOp41
 70
     1
102
RTVSPost2010Prop42
 90
       50
102
RTVSPost2010PropOp42
 70
     1
102
RTVSPost2010Prop43
 90
        3
102
RTVSPost2010PropOp43
 70
     1
102
RTVSPost2010Prop44ColorIndex
 90
        5
102
RTVSPost2010Prop44ColorRGB
 90
      255
102
RTVSPost2010PropOp44
 70
     1
102
RTVSPost2010Prop45
280
     0
102
RTVSPost2010PropOp45
 70
     1
102
RTVSPost2010Prop46
 90
       50
102
RTVSPost2010PropOp46
 70
     1
102
RTVSPost2010Prop47
 90
       50
102
RTVSPost2010PropOp47
 70
     1
102
RTVSPost2010Prop48
 90
       50
102
RTVSPost2010PropOp48
 70
     1
102
RTVSPost2010Prop49
280
     0
102
RTVSPost2010PropOp49
 70
     1
102
RTVSPost2010Prop50
 90
       50
102
RTVSPost2010PropOp50
 70
     1
102
RTVSPost2010Prop51ColorIndex
 90
      256
102
RTVSPost2010Prop51ColorRGB
 90
-16777216
102
RTVSPost2010PropOp51
 70
     0
102
RTVSPost2010Prop52
140
1.0
102
RTVSPost2010PropOp52
 70
     0
102
RTVSPost2010Prop53
 90
        2
102
RTVSPost2010PropOp53
 70
     1
102
RTVSPost2010Prop54
  1
strokes_ogs.tif
102
RTVSPost2010PropOp54
 70
     1
102
RTVSPost2010Prop55
280
     0
102
RTVSPost2010PropOp55
 70
     1
102
RTVSPost2010Prop56
140
1.0
102
RTVSPost2010PropOp56
 70
     1
102
RTVSPost2010Prop57
140
1.0
102
RTVSPost2010PropOp57
 70
     1
102
RTVSPropertyOp0
 70
     1
102
RTVSPropertyOp1
 70
     1
102
RTVSPropertyOp2
 70
     1
102
RTVSPropertyOp3
 70
     1
102
RTVSPropertyOp4
 70
     1
102
RTVSPropertyOp5
 70
     1
102
RTVSPropertyOp6
 70
     1
102
RTVSPropertyOp7
 70
     1
102
RTVSPropertyOp8
 70
     1
102
RTVSPropertyOp9
 70
     1
102
RTVSPropertyOp10
 70
     1
102
RTVSPropertyOp11
 70
     1
102
RTVSPropertyOp12
 70
     1
102
RTVSPropertyOp13
 70
     1
102
RTVSPropertyOp14
 70
     1
102
RTVSPropertyOp15
 70
     1
102
RTVSPropertyOp16
 70
     1
102
RTVSPropertyOp17
 70
     1
102
RTVSPropertyOp18
 70
     1
102
RTVSPropertyOp19
 70
     1
102
RTVSPropertyOp20
 70
     1
102
RTVSPropertyOp21
 70
     1
102
RTVSPropertyOp22
 70
     1
102
RTVSPropertyOp23
 70
     1
102
RTVSPropertyOp24
 70
     1
102
RTVSPropertyOp25
 70
     1
102
RTVSPropertyOp26
 70
     1
102
RTVSPropertyOp27
 70
     1
102
RTVSPropertyOp28
 70
     1
102
RTVSPropertyOp29
 70
     1
102
RTVSPropertyOp30
 70
     1
102
RTVSPropertyOp31
 70
     1
102
RTVSPropertyOp32
 70
     1
102
RTVSPropertyOp33
 70
     1
102
RTVSPropertyOp34
 70
     1
102
RTVSPropertyOp35
 70
     1
102
RTVSPropertyOp36
 70
     1
102
RTVSPropertyOp37
 70
     1
102
RTVSPropertyOp38
 70
     1
102
RTVSPropertyOp39
 70
     1
102
RTVSPropertyOp40
 70
     1
102
RTVSPropertyOp41
 70
     1
102
RTVSPropertyOp42
 70
     1
102
RTVSPropertyOp43
 70
     1
102
RTVSPropertyOp44
 70
     1
102
RTVSPropertyOp45
 70
     1
102
RTVSPropertyOp46
 70
     1
102
RTVSPropertyOp47
 70
     1
102
RTVSPropertyOp48
 70
     1
102
RTVSPropertyOp49
 70
     1
102
RTVSPropertyOp50
 70
     1
102
RTVSPropertyOp51
 70
     0
102
RTVSPropertyOp52
 70
     0
102
RTVSPropertyOp53
 70
     1
102
RTVSPropertyOp54
 70
     1
102
RTVSPropertyOp55
 70
     1
102
RTVSPropertyOp56
 70
     1
102
RTVSPropertyOp57
 70
     1
102
RTVSPropertyOp58
 70
     1
102
RTVSPropertyOp59
 70
     1
102
RTVSPropertyOp60
 70
     1
102
RTVSPropertyOp61
 70
     1
102
RTVSPropertyOp62
 70
     1
  0
XRECORD
  5
1704
102
{ACAD_REACTORS
330
1703
102
}
330
1703
100
AcDbXrecord
280
     1
102
RTVSPost2010Prop28
280
     0
102
RTVSPost2010PropOp28
 70
     1
102
RTVSPost2010Prop29
280
     1
102
RTVSPost2010PropOp29
 70
     1
102
RTVSPost2010Prop30
280
     1
102
RTVSPost2010PropOp30
 70
     1
102
RTVSPost2010Prop31
280
     0
102
RTVSPost2010PropOp31
 70
     1
102
RTVSPost2010Prop32
280
     0
102
RTVSPost2010PropOp32
 70
     1
102
RTVSPost2010Prop33
280
     0
102
RTVSPost2010PropOp33
 70
     1
102
RTVSPost2010Prop34
280
     0
102
RTVSPost2010PropOp34
 70
     1
102
RTVSPost2010Prop35
280
     0
102
RTVSPost2010PropOp35
 70
     1
102
RTVSPost2010Prop36
280
     0
102
RTVSPost2010PropOp36
 70
     1
102
RTVSPost2010Prop37
 90
       50
102
RTVSPost2010PropOp37
 70
     0
102
RTVSPost2010Prop38
140
0.0
102
RTVSPost2010PropOp38
 70
     0
102
RTVSPost2010Prop39
140
1.0
102
RTVSPost2010PropOp39
 70
     0
102
RTVSPost2010Prop40
 90
        0
102
RTVSPost2010PropOp40
 70
     0
102
RTVSPost2010Prop41ColorIndex
 90
       18
102
RTVSPost2010Prop41ColorRGB
 90
        0
102
RTVSPost2010PropOp41
 70
     0
102
RTVSPost2010Prop42
 90
       50
102
RTVSPost2010PropOp42
 70
     0
102
RTVSPost2010Prop43
 90
        3
102
RTVSPost2010PropOp43
 70
     0
102
RTVSPost2010Prop44ColorIndex
 90
        5
102
RTVSPost2010Prop44ColorRGB
 90
      255
102
RTVSPost2010PropOp44
 70
     0
102
RTVSPost2010Prop45
280
     0
102
RTVSPost2010PropOp45
 70
     1
102
RTVSPost2010Prop46
 90
       50
102
RTVSPost2010PropOp46
 70
     0
102
RTVSPost2010Prop47
 90
       50
102
RTVSPost2010PropOp47
 70
     0
102
RTVSPost2010Prop48
 90
       50
102
RTVSPost2010PropOp48
 70
     0
102
RTVSPost2010Prop49
280
     0
102
RTVSPost2010PropOp49
 70
     1
102
RTVSPost2010Prop50
 90
       50
102
RTVSPost2010PropOp50
 70
     0
102
RTVSPost2010Prop51ColorIndex
 90
      256
102
RTVSPost2010Prop51ColorRGB
 90
-16777216
102
RTVSPost2010PropOp51
 70
     0
102
RTVSPost2010Prop52
140
1.0
102
RTVSPost2010PropOp52
 70
     0
102
RTVSPost2010Prop53
 90
        2
102
RTVSPost2010PropOp53
 70
     0
102
RTVSPost2010Prop54
  1
strokes_ogs.tif
102
RTVSPost2010PropOp54
 70
     0
102
RTVSPost2010Prop55
280
     0
102
RTVSPost2010PropOp55
 70
     1
102
RTVSPost2010Prop56
140
1.0
102
RTVSPost2010PropOp56
 70
     0
102
RTVSPost2010Prop57
140
1.0
102
RTVSPost2010PropOp57
 70
     0
102
RTVSPropertyOp0
 70
     0
102
RTVSPropertyOp1
 70
     0
102
RTVSPropertyOp2
 70
     0
102
RTVSPropertyOp3
 70
     0
102
RTVSPropertyOp4
 70
     0
102
RTVSPropertyOp5
 70
     0
102
RTVSPropertyOp6
 70
     0
102
RTVSPropertyOp7
 70
     0
102
RTVSPropertyOp8
 70
     0
102
RTVSPropertyOp9
 70
     0
102
RTVSPropertyOp10
 70
     0
102
RTVSPropertyOp11
 70
     0
102
RTVSPropertyOp12
 70
     0
102
RTVSPropertyOp13
 70
     0
102
RTVSPropertyOp14
 70
     2
102
RTVSPropertyOp15
 70
     0
102
RTVSPropertyOp16
 70
     0
102
RTVSPropertyOp17
 70
     0
102
RTVSPropertyOp18
 70
     0
102
RTVSPropertyOp19
 70
     0
102
RTVSPropertyOp20
 70
     0
102
RTVSPropertyOp21
 70
     0
102
RTVSPropertyOp22
 70
     0
102
RTVSPropertyOp23
 70
     0
102
RTVSPropertyOp24
 70
     0
102
RTVSPropertyOp25
 70
     0
102
RTVSPropertyOp26
 70
     0
102
RTVSPropertyOp27
 70
     0
102
RTVSPropertyOp28
 70
     1
102
RTVSPropertyOp29
 70
     1
102
RTVSPropertyOp30
 70
     1
102
RTVSPropertyOp31
 70
     1
102
RTVSPropertyOp32
 70
     1
102
RTVSPropertyOp33
 70
     1
102
RTVSPropertyOp34
 70
     1
102
RTVSPropertyOp35
 70
     1
102
RTVSPropertyOp36
 70
     1
102
RTVSPropertyOp37
 70
     0
102
RTVSPropertyOp38
 70
     0
102
RTVSPropertyOp39
 70
     0
102
RTVSPropertyOp40
 70
     0
102
RTVSPropertyOp41
 70
     0
102
RTVSPropertyOp42
 70
     0
102
RTVSPropertyOp43
 70
     0
102
RTVSPropertyOp44
 70
     0
102
RTVSPropertyOp45
 70
     1
102
RTVSPropertyOp46
 70
     0
102
RTVSPropertyOp47
 70
     0
102
RTVSPropertyOp48
 70
     0
102
RTVSPropertyOp49
 70
     1
102
RTVSPropertyOp50
 70
     0
102
RTVSPropertyOp51
 70
     0
102
RTVSPropertyOp52
 70
     0
102
RTVSPropertyOp53
 70
     0
102
RTVSPropertyOp54
 70
     0
102
RTVSPropertyOp55
 70
     1
102
RTVSPropertyOp56
 70
     0
102
RTVSPropertyOp57
 70
     0
102
RTVSPropertyOp58
 70
     0
102
RTVSPropertyOp59
 70
     0
102
RTVSPropertyOp60
 70
     0
102
RTVSPropertyOp61
 70
     0
102
RTVSPropertyOp62
 70
     0
  0
XRECORD
  5
16EA
102
{ACAD_REACTORS
330
16E9
102
}
330
16E9
100
AcDbXrecord
280
     1
102
RTVSPost2010Prop28
280
     0
102
RTVSPost2010PropOp28
 70
     1
102
RTVSPost2010Prop29
280
     1
102
RTVSPost2010PropOp29
 70
     1
102
RTVSPost2010Prop30
280
     1
102
RTVSPost2010PropOp30
 70
     1
102
RTVSPost2010Prop31
280
     0
102
RTVSPost2010PropOp31
 70
     1
102
RTVSPost2010Prop32
280
     0
102
RTVSPost2010PropOp32
 70
     1
102
RTVSPost2010Prop33
280
     0
102
RTVSPost2010PropOp33
 70
     1
102
RTVSPost2010Prop34
280
     0
102
RTVSPost2010PropOp34
 70
     1
102
RTVSPost2010Prop35
280
     0
102
RTVSPost2010PropOp35
 70
     1
102
RTVSPost2010Prop36
280
     0
102
RTVSPost2010PropOp36
 70
     1
102
RTVSPost2010Prop37
 90
       50
102
RTVSPost2010PropOp37
 70
     1
102
RTVSPost2010Prop38
140
0.0
102
RTVSPost2010PropOp38
 70
     1
102
RTVSPost2010Prop39
140
1.0
102
RTVSPost2010PropOp39
 70
     1
102
RTVSPost2010Prop40
 90
        0
102
RTVSPost2010PropOp40
 70
     1
102
RTVSPost2010Prop41ColorIndex
 90
       18
102
RTVSPost2010Prop41ColorRGB
 90
        0
102
RTVSPost2010PropOp41
 70
     1
102
RTVSPost2010Prop42
 90
       50
102
RTVSPost2010PropOp42
 70
     1
102
RTVSPost2010Prop43
 90
        3
102
RTVSPost2010PropOp43
 70
     1
102
RTVSPost2010Prop44ColorIndex
 90
        5
102
RTVSPost2010Prop44ColorRGB
 90
      255
102
RTVSPost2010PropOp44
 70
     1
102
RTVSPost2010Prop45
280
     0
102
RTVSPost2010PropOp45
 70
     1
102
RTVSPost2010Prop46
 90
       50
102
RTVSPost2010PropOp46
 70
     1
102
RTVSPost2010Prop47
 90
       50
102
RTVSPost2010PropOp47
 70
     1
102
RTVSPost2010Prop48
 90
       50
102
RTVSPost2010PropOp48
 70
     1
102
RTVSPost2010Prop49
280
     0
102
RTVSPost2010PropOp49
 70
     1
102
RTVSPost2010Prop50
 90
       50
102
RTVSPost2010PropOp50
 70
     1
102
RTVSPost2010Prop51ColorIndex
 90
      256
102
RTVSPost2010Prop51ColorRGB
 90
-16777216
102
RTVSPost2010PropOp51
 70
     0
102
RTVSPost2010Prop52
140
1.0
102
RTVSPost2010PropOp52
 70
     0
102
RTVSPost2010Prop53
 90
        2
102
RTVSPost2010PropOp53
 70
     1
102
RTVSPost2010Prop54
  1
strokes_ogs.tif
102
RTVSPost2010PropOp54
 70
     1
102
RTVSPost2010Prop55
280
     0
102
RTVSPost2010PropOp55
 70
     1
102
RTVSPost2010Prop56
140
1.0
102
RTVSPost2010PropOp56
 70
     1
102
RTVSPost2010Prop57
140
1.0
102
RTVSPost2010PropOp57
 70
     1
102
RTVSPropertyOp0
 70
     1
102
RTVSPropertyOp1
 70
     1
102
RTVSPropertyOp2
 70
     1
102
RTVSPropertyOp3
 70
     1
102
RTVSPropertyOp4
 70
     1
102
RTVSPropertyOp5
 70
     1
102
RTVSPropertyOp6
 70
     1
102
RTVSPropertyOp7
 70
     1
102
RTVSPropertyOp8
 70
     1
102
RTVSPropertyOp9
 70
     1
102
RTVSPropertyOp10
 70
     1
102
RTVSPropertyOp11
 70
     1
102
RTVSPropertyOp12
 70
     1
102
RTVSPropertyOp13
 70
     1
102
RTVSPropertyOp14
 70
     1
102
RTVSPropertyOp15
 70
     1
102
RTVSPropertyOp16
 70
     1
102
RTVSPropertyOp17
 70
     1
102
RTVSPropertyOp18
 70
     1
102
RTVSPropertyOp19
 70
     1
102
RTVSPropertyOp20
 70
     1
102
RTVSPropertyOp21
 70
     1
102
RTVSPropertyOp22
 70
     1
102
RTVSPropertyOp23
 70
     1
102
RTVSPropertyOp24
 70
     1
102
RTVSPropertyOp25
 70
     1
102
RTVSPropertyOp26
 70
     1
102
RTVSPropertyOp27
 70
     1
102
RTVSPropertyOp28
 70
     1
102
RTVSPropertyOp29
 70
     1
102
RTVSPropertyOp30
 70
     1
102
RTVSPropertyOp31
 70
     1
102
RTVSPropertyOp32
 70
     1
102
RTVSPropertyOp33
 70
     1
102
RTVSPropertyOp34
 70
     1
102
RTVSPropertyOp35
 70
     1
102
RTVSPropertyOp36
 70
     1
102
RTVSPropertyOp37
 70
     1
102
RTVSPropertyOp38
 70
     1
102
RTVSPropertyOp39
 70
     1
102
RTVSPropertyOp40
 70
     1
102
RTVSPropertyOp41
 70
     1
102
RTVSPropertyOp42
 70
     1
102
RTVSPropertyOp43
 70
     1
102
RTVSPropertyOp44
 70
     1
102
RTVSPropertyOp45
 70
     1
102
RTVSPropertyOp46
 70
     1
102
RTVSPropertyOp47
 70
     1
102
RTVSPropertyOp48
 70
     1
102
RTVSPropertyOp49
 70
     1
102
RTVSPropertyOp50
 70
     1
102
RTVSPropertyOp51
 70
     0
102
RTVSPropertyOp52
 70
     0
102
RTVSPropertyOp53
 70
     1
102
RTVSPropertyOp54
 70
     1
102
RTVSPropertyOp55
 70
     1
102
RTVSPropertyOp56
 70
     1
102
RTVSPropertyOp57
 70
     1
102
RTVSPropertyOp58
 70
     1
102
RTVSPropertyOp59
 70
     1
102
RTVSPropertyOp60
 70
     1
102
RTVSPropertyOp61
 70
     1
102
RTVSPropertyOp62
 70
     1
  0
XRECORD
  5
1700
102
{ACAD_REACTORS
330
16FF
102
}
330
16FF
100
AcDbXrecord
280
     1
102
RTVSPost2010Prop28
280
     0
102
RTVSPost2010PropOp28
 70
     1
102
RTVSPost2010Prop29
280
     1
102
RTVSPost2010PropOp29
 70
     1
102
RTVSPost2010Prop30
280
     1
102
RTVSPost2010PropOp30
 70
     1
102
RTVSPost2010Prop31
280
     0
102
RTVSPost2010PropOp31
 70
     1
102
RTVSPost2010Prop32
280
     0
102
RTVSPost2010PropOp32
 70
     1
102
RTVSPost2010Prop33
280
     0
102
RTVSPost2010PropOp33
 70
     1
102
RTVSPost2010Prop34
280
     0
102
RTVSPost2010PropOp34
 70
     1
102
RTVSPost2010Prop35
280
     0
102
RTVSPost2010PropOp35
 70
     1
102
RTVSPost2010Prop36
280
     0
102
RTVSPost2010PropOp36
 70
     1
102
RTVSPost2010Prop37
 90
       50
102
RTVSPost2010PropOp37
 70
     1
102
RTVSPost2010Prop38
140
0.0
102
RTVSPost2010PropOp38
 70
     1
102
RTVSPost2010Prop39
140
1.0
102
RTVSPost2010PropOp39
 70
     1
102
RTVSPost2010Prop40
 90
        0
102
RTVSPost2010PropOp40
 70
     1
102
RTVSPost2010Prop41ColorIndex
 90
       18
102
RTVSPost2010Prop41ColorRGB
 90
        0
102
RTVSPost2010PropOp41
 70
     1
102
RTVSPost2010Prop42
 90
       50
102
RTVSPost2010PropOp42
 70
     1
102
RTVSPost2010Prop43
 90
        3
102
RTVSPost2010PropOp43
 70
     1
102
RTVSPost2010Prop44ColorIndex
 90
        5
102
RTVSPost2010Prop44ColorRGB
 90
      255
102
RTVSPost2010PropOp44
 70
     1
102
RTVSPost2010Prop45
280
     0
102
RTVSPost2010PropOp45
 70
     1
102
RTVSPost2010Prop46
 90
       50
102
RTVSPost2010PropOp46
 70
     1
102
RTVSPost2010Prop47
 90
       50
102
RTVSPost2010PropOp47
 70
     1
102
RTVSPost2010Prop48
 90
       50
102
RTVSPost2010PropOp48
 70
     1
102
RTVSPost2010Prop49
280
     0
102
RTVSPost2010PropOp49
 70
     1
102
RTVSPost2010Prop50
 90
       50
102
RTVSPost2010PropOp50
 70
     1
102
RTVSPost2010Prop51ColorIndex
 90
      256
102
RTVSPost2010Prop51ColorRGB
 90
-16777216
102
RTVSPost2010PropOp51
 70
     0
102
RTVSPost2010Prop52
140
1.0
102
RTVSPost2010PropOp52
 70
     0
102
RTVSPost2010Prop53
 90
        2
102
RTVSPost2010PropOp53
 70
     1
102
RTVSPost2010Prop54
  1
strokes_ogs.tif
102
RTVSPost2010PropOp54
 70
     1
102
RTVSPost2010Prop55
280
     0
102
RTVSPost2010PropOp55
 70
     1
102
RTVSPost2010Prop56
140
1.0
102
RTVSPost2010PropOp56
 70
     1
102
RTVSPost2010Prop57
140
1.0
102
RTVSPost2010PropOp57
 70
     1
102
RTVSPropertyOp0
 70
     1
102
RTVSPropertyOp1
 70
     1
102
RTVSPropertyOp2
 70
     1
102
RTVSPropertyOp3
 70
     1
102
RTVSPropertyOp4
 70
     1
102
RTVSPropertyOp5
 70
     1
102
RTVSPropertyOp6
 70
     1
102
RTVSPropertyOp7
 70
     1
102
RTVSPropertyOp8
 70
     1
102
RTVSPropertyOp9
 70
     1
102
RTVSPropertyOp10
 70
     1
102
RTVSPropertyOp11
 70
     1
102
RTVSPropertyOp12
 70
     1
102
RTVSPropertyOp13
 70
     1
102
RTVSPropertyOp14
 70
     1
102
RTVSPropertyOp15
 70
     1
102
RTVSPropertyOp16
 70
     1
102
RTVSPropertyOp17
 70
     1
102
RTVSPropertyOp18
 70
     1
102
RTVSPropertyOp19
 70
     1
102
RTVSPropertyOp20
 70
     1
102
RTVSPropertyOp21
 70
     1
102
RTVSPropertyOp22
 70
     1
102
RTVSPropertyOp23
 70
     1
102
RTVSPropertyOp24
 70
     1
102
RTVSPropertyOp25
 70
     1
102
RTVSPropertyOp26
 70
     1
102
RTVSPropertyOp27
 70
     1
102
RTVSPropertyOp28
 70
     1
102
RTVSPropertyOp29
 70
     1
102
RTVSPropertyOp30
 70
     1
102
RTVSPropertyOp31
 70
     1
102
RTVSPropertyOp32
 70
     1
102
RTVSPropertyOp33
 70
     1
102
RTVSPropertyOp34
 70
     1
102
RTVSPropertyOp35
 70
     1
102
RTVSPropertyOp36
 70
     1
102
RTVSPropertyOp37
 70
     1
102
RTVSPropertyOp38
 70
     1
102
RTVSPropertyOp39
 70
     1
102
RTVSPropertyOp40
 70
     1
102
RTVSPropertyOp41
 70
     1
102
RTVSPropertyOp42
 70
     1
102
RTVSPropertyOp43
 70
     1
102
RTVSPropertyOp44
 70
     1
102
RTVSPropertyOp45
 70
     1
102
RTVSPropertyOp46
 70
     1
102
RTVSPropertyOp47
 70
     1
102
RTVSPropertyOp48
 70
     1
102
RTVSPropertyOp49
 70
     1
102
RTVSPropertyOp50
 70
     1
102
RTVSPropertyOp51
 70
     0
102
RTVSPropertyOp52
 70
     0
102
RTVSPropertyOp53
 70
     1
102
RTVSPropertyOp54
 70
     1
102
RTVSPropertyOp55
 70
     1
102
RTVSPropertyOp56
 70
     1
102
RTVSPropertyOp57
 70
     1
102
RTVSPropertyOp58
 70
     1
102
RTVSPropertyOp59
 70
     1
102
RTVSPropertyOp60
 70
     1
102
RTVSPropertyOp61
 70
     1
102
RTVSPropertyOp62
 70
     1
  0
XRECORD
  5
16FE
102
{ACAD_REACTORS
330
16FD
102
}
330
16FD
100
AcDbXrecord
280
     1
102
RTVSPost2010Prop28
280
     0
102
RTVSPost2010PropOp28
 70
     1
102
RTVSPost2010Prop29
280
     1
102
RTVSPost2010PropOp29
 70
     1
102
RTVSPost2010Prop30
280
     1
102
RTVSPost2010PropOp30
 70
     1
102
RTVSPost2010Prop31
280
     0
102
RTVSPost2010PropOp31
 70
     1
102
RTVSPost2010Prop32
280
     0
102
RTVSPost2010PropOp32
 70
     1
102
RTVSPost2010Prop33
280
     0
102
RTVSPost2010PropOp33
 70
     1
102
RTVSPost2010Prop34
280
     0
102
RTVSPost2010PropOp34
 70
     1
102
RTVSPost2010Prop35
280
     0
102
RTVSPost2010PropOp35
 70
     1
102
RTVSPost2010Prop36
280
     0
102
RTVSPost2010PropOp36
 70
     1
102
RTVSPost2010Prop37
 90
       50
102
RTVSPost2010PropOp37
 70
     1
102
RTVSPost2010Prop38
140
0.0
102
RTVSPost2010PropOp38
 70
     1
102
RTVSPost2010Prop39
140
1.0
102
RTVSPost2010PropOp39
 70
     1
102
RTVSPost2010Prop40
 90
        0
102
RTVSPost2010PropOp40
 70
     1
102
RTVSPost2010Prop41ColorIndex
 90
       18
102
RTVSPost2010Prop41ColorRGB
 90
        0
102
RTVSPost2010PropOp41
 70
     1
102
RTVSPost2010Prop42
 90
       50
102
RTVSPost2010PropOp42
 70
     1
102
RTVSPost2010Prop43
 90
        3
102
RTVSPost2010PropOp43
 70
     1
102
RTVSPost2010Prop44ColorIndex
 90
        5
102
RTVSPost2010Prop44ColorRGB
 90
      255
102
RTVSPost2010PropOp44
 70
     1
102
RTVSPost2010Prop45
280
     0
102
RTVSPost2010PropOp45
 70
     1
102
RTVSPost2010Prop46
 90
       50
102
RTVSPost2010PropOp46
 70
     1
102
RTVSPost2010Prop47
 90
       50
102
RTVSPost2010PropOp47
 70
     1
102
RTVSPost2010Prop48
 90
       50
102
RTVSPost2010PropOp48
 70
     1
102
RTVSPost2010Prop49
280
     0
102
RTVSPost2010PropOp49
 70
     1
102
RTVSPost2010Prop50
 90
       50
102
RTVSPost2010PropOp50
 70
     1
102
RTVSPost2010Prop51ColorIndex
 90
      256
102
RTVSPost2010Prop51ColorRGB
 90
-16777216
102
RTVSPost2010PropOp51
 70
     0
102
RTVSPost2010Prop52
140
1.0
102
RTVSPost2010PropOp52
 70
     0
102
RTVSPost2010Prop53
 90
        2
102
RTVSPost2010PropOp53
 70
     1
102
RTVSPost2010Prop54
  1
strokes_ogs.tif
102
RTVSPost2010PropOp54
 70
     1
102
RTVSPost2010Prop55
280
     0
102
RTVSPost2010PropOp55
 70
     1
102
RTVSPost2010Prop56
140
1.0
102
RTVSPost2010PropOp56
 70
     1
102
RTVSPost2010Prop57
140
1.0
102
RTVSPost2010PropOp57
 70
     1
102
RTVSPropertyOp0
 70
     1
102
RTVSPropertyOp1
 70
     1
102
RTVSPropertyOp2
 70
     1
102
RTVSPropertyOp3
 70
     1
102
RTVSPropertyOp4
 70
     1
102
RTVSPropertyOp5
 70
     1
102
RTVSPropertyOp6
 70
     1
102
RTVSPropertyOp7
 70
     1
102
RTVSPropertyOp8
 70
     1
102
RTVSPropertyOp9
 70
     1
102
RTVSPropertyOp10
 70
     1
102
RTVSPropertyOp11
 70
     1
102
RTVSPropertyOp12
 70
     1
102
RTVSPropertyOp13
 70
     1
102
RTVSPropertyOp14
 70
     1
102
RTVSPropertyOp15
 70
     1
102
RTVSPropertyOp16
 70
     1
102
RTVSPropertyOp17
 70
     1
102
RTVSPropertyOp18
 70
     1
102
RTVSPropertyOp19
 70
     1
102
RTVSPropertyOp20
 70
     1
102
RTVSPropertyOp21
 70
     1
102
RTVSPropertyOp22
 70
     1
102
RTVSPropertyOp23
 70
     1
102
RTVSPropertyOp24
 70
     1
102
RTVSPropertyOp25
 70
     1
102
RTVSPropertyOp26
 70
     1
102
RTVSPropertyOp27
 70
     1
102
RTVSPropertyOp28
 70
     1
102
RTVSPropertyOp29
 70
     1
102
RTVSPropertyOp30
 70
     1
102
RTVSPropertyOp31
 70
     1
102
RTVSPropertyOp32
 70
     1
102
RTVSPropertyOp33
 70
     1
102
RTVSPropertyOp34
 70
     1
102
RTVSPropertyOp35
 70
     1
102
RTVSPropertyOp36
 70
     1
102
RTVSPropertyOp37
 70
     1
102
RTVSPropertyOp38
 70
     1
102
RTVSPropertyOp39
 70
     1
102
RTVSPropertyOp40
 70
     1
102
RTVSPropertyOp41
 70
     1
102
RTVSPropertyOp42
 70
     1
102
RTVSPropertyOp43
 70
     1
102
RTVSPropertyOp44
 70
     1
102
RTVSPropertyOp45
 70
     1
102
RTVSPropertyOp46
 70
     1
102
RTVSPropertyOp47
 70
     1
102
RTVSPropertyOp48
 70
     1
102
RTVSPropertyOp49
 70
     1
102
RTVSPropertyOp50
 70
     1
102
RTVSPropertyOp51
 70
     0
102
RTVSPropertyOp52
 70
     0
102
RTVSPropertyOp53
 70
     1
102
RTVSPropertyOp54
 70
     1
102
RTVSPropertyOp55
 70
     1
102
RTVSPropertyOp56
 70
     1
102
RTVSPropertyOp57
 70
     1
102
RTVSPropertyOp58
 70
     1
102
RTVSPropertyOp59
 70
     1
102
RTVSPropertyOp60
 70
     1
102
RTVSPropertyOp61
 70
     1
102
RTVSPropertyOp62
 70
     1
  0
XRECORD
  5
16F8
102
{ACAD_REACTORS
330
16F7
102
}
330
16F7
100
AcDbXrecord
280
     1
102
RTVSPost2010Prop28
280
     0
102
RTVSPost2010PropOp28
 70
     1
102
RTVSPost2010Prop29
280
     1
102
RTVSPost2010PropOp29
 70
     1
102
RTVSPost2010Prop30
280
     1
102
RTVSPost2010PropOp30
 70
     1
102
RTVSPost2010Prop31
280
     0
102
RTVSPost2010PropOp31
 70
     1
102
RTVSPost2010Prop32
280
     0
102
RTVSPost2010PropOp32
 70
     1
102
RTVSPost2010Prop33
280
     0
102
RTVSPost2010PropOp33
 70
     1
102
RTVSPost2010Prop34
280
     0
102
RTVSPost2010PropOp34
 70
     1
102
RTVSPost2010Prop35
280
     0
102
RTVSPost2010PropOp35
 70
     1
102
RTVSPost2010Prop36
280
     0
102
RTVSPost2010PropOp36
 70
     1
102
RTVSPost2010Prop37
 90
       50
102
RTVSPost2010PropOp37
 70
     1
102
RTVSPost2010Prop38
140
0.0
102
RTVSPost2010PropOp38
 70
     1
102
RTVSPost2010Prop39
140
1.0
102
RTVSPost2010PropOp39
 70
     1
102
RTVSPost2010Prop40
 90
        0
102
RTVSPost2010PropOp40
 70
     1
102
RTVSPost2010Prop41ColorIndex
 90
       18
102
RTVSPost2010Prop41ColorRGB
 90
        0
102
RTVSPost2010PropOp41
 70
     1
102
RTVSPost2010Prop42
 90
       50
102
RTVSPost2010PropOp42
 70
     1
102
RTVSPost2010Prop43
 90
        3
102
RTVSPost2010PropOp43
 70
     1
102
RTVSPost2010Prop44ColorIndex
 90
        5
102
RTVSPost2010Prop44ColorRGB
 90
      255
102
RTVSPost2010PropOp44
 70
     1
102
RTVSPost2010Prop45
280
     0
102
RTVSPost2010PropOp45
 70
     1
102
RTVSPost2010Prop46
 90
       50
102
RTVSPost2010PropOp46
 70
     1
102
RTVSPost2010Prop47
 90
       50
102
RTVSPost2010PropOp47
 70
     1
102
RTVSPost2010Prop48
 90
       50
102
RTVSPost2010PropOp48
 70
     1
102
RTVSPost2010Prop49
280
     0
102
RTVSPost2010PropOp49
 70
     1
102
RTVSPost2010Prop50
 90
       50
102
RTVSPost2010PropOp50
 70
     1
102
RTVSPost2010Prop51ColorIndex
 90
      256
102
RTVSPost2010Prop51ColorRGB
 90
-16777216
102
RTVSPost2010PropOp51
 70
     0
102
RTVSPost2010Prop52
140
1.0
102
RTVSPost2010PropOp52
 70
     0
102
RTVSPost2010Prop53
 90
        2
102
RTVSPost2010PropOp53
 70
     1
102
RTVSPost2010Prop54
  1
strokes_ogs.tif
102
RTVSPost2010PropOp54
 70
     1
102
RTVSPost2010Prop55
280
     0
102
RTVSPost2010PropOp55
 70
     1
102
RTVSPost2010Prop56
140
1.0
102
RTVSPost2010PropOp56
 70
     1
102
RTVSPost2010Prop57
140
1.0
102
RTVSPost2010PropOp57
 70
     1
102
RTVSPropertyOp0
 70
     1
102
RTVSPropertyOp1
 70
     1
102
RTVSPropertyOp2
 70
     1
102
RTVSPropertyOp3
 70
     1
102
RTVSPropertyOp4
 70
     1
102
RTVSPropertyOp5
 70
     1
102
RTVSPropertyOp6
 70
     1
102
RTVSPropertyOp7
 70
     1
102
RTVSPropertyOp8
 70
     1
102
RTVSPropertyOp9
 70
     1
102
RTVSPropertyOp10
 70
     1
102
RTVSPropertyOp11
 70
     1
102
RTVSPropertyOp12
 70
     1
102
RTVSPropertyOp13
 70
     1
102
RTVSPropertyOp14
 70
     1
102
RTVSPropertyOp15
 70
     1
102
RTVSPropertyOp16
 70
     1
102
RTVSPropertyOp17
 70
     1
102
RTVSPropertyOp18
 70
     1
102
RTVSPropertyOp19
 70
     1
102
RTVSPropertyOp20
 70
     1
102
RTVSPropertyOp21
 70
     1
102
RTVSPropertyOp22
 70
     1
102
RTVSPropertyOp23
 70
     1
102
RTVSPropertyOp24
 70
     1
102
RTVSPropertyOp25
 70
     1
102
RTVSPropertyOp26
 70
     1
102
RTVSPropertyOp27
 70
     1
102
RTVSPropertyOp28
 70
     1
102
RTVSPropertyOp29
 70
     1
102
RTVSPropertyOp30
 70
     1
102
RTVSPropertyOp31
 70
     1
102
RTVSPropertyOp32
 70
     1
102
RTVSPropertyOp33
 70
     1
102
RTVSPropertyOp34
 70
     1
102
RTVSPropertyOp35
 70
     1
102
RTVSPropertyOp36
 70
     1
102
RTVSPropertyOp37
 70
     1
102
RTVSPropertyOp38
 70
     1
102
RTVSPropertyOp39
 70
     1
102
RTVSPropertyOp40
 70
     1
102
RTVSPropertyOp41
 70
     1
102
RTVSPropertyOp42
 70
     1
102
RTVSPropertyOp43
 70
     1
102
RTVSPropertyOp44
 70
     1
102
RTVSPropertyOp45
 70
     1
102
RTVSPropertyOp46
 70
     1
102
RTVSPropertyOp47
 70
     1
102
RTVSPropertyOp48
 70
     1
102
RTVSPropertyOp49
 70
     1
102
RTVSPropertyOp50
 70
     1
102
RTVSPropertyOp51
 70
     0
102
RTVSPropertyOp52
 70
     0
102
RTVSPropertyOp53
 70
     1
102
RTVSPropertyOp54
 70
     1
102
RTVSPropertyOp55
 70
     1
102
RTVSPropertyOp56
 70
     1
102
RTVSPropertyOp57
 70
     1
102
RTVSPropertyOp58
 70
     1
102
RTVSPropertyOp59
 70
     1
102
RTVSPropertyOp60
 70
     1
102
RTVSPropertyOp61
 70
     1
102
RTVSPropertyOp62
 70
     1
  0
XRECORD
  5
16FA
102
{ACAD_REACTORS
330
16F9
102
}
330
16F9
100
AcDbXrecord
280
     1
102
RTVSPost2010Prop28
280
     0
102
RTVSPost2010PropOp28
 70
     1
102
RTVSPost2010Prop29
280
     1
102
RTVSPost2010PropOp29
 70
     1
102
RTVSPost2010Prop30
280
     1
102
RTVSPost2010PropOp30
 70
     1
102
RTVSPost2010Prop31
280
     0
102
RTVSPost2010PropOp31
 70
     1
102
RTVSPost2010Prop32
280
     0
102
RTVSPost2010PropOp32
 70
     1
102
RTVSPost2010Prop33
280
     0
102
RTVSPost2010PropOp33
 70
     1
102
RTVSPost2010Prop34
280
     0
102
RTVSPost2010PropOp34
 70
     1
102
RTVSPost2010Prop35
280
     0
102
RTVSPost2010PropOp35
 70
     1
102
RTVSPost2010Prop36
280
     0
102
RTVSPost2010PropOp36
 70
     1
102
RTVSPost2010Prop37
 90
       50
102
RTVSPost2010PropOp37
 70
     1
102
RTVSPost2010Prop38
140
0.0
102
RTVSPost2010PropOp38
 70
     1
102
RTVSPost2010Prop39
140
1.0
102
RTVSPost2010PropOp39
 70
     1
102
RTVSPost2010Prop40
 90
        0
102
RTVSPost2010PropOp40
 70
     1
102
RTVSPost2010Prop41ColorIndex
 90
       18
102
RTVSPost2010Prop41ColorRGB
 90
        0
102
RTVSPost2010PropOp41
 70
     1
102
RTVSPost2010Prop42
 90
       50
102
RTVSPost2010PropOp42
 70
     1
102
RTVSPost2010Prop43
 90
        3
102
RTVSPost2010PropOp43
 70
     1
102
RTVSPost2010Prop44ColorIndex
 90
        5
102
RTVSPost2010Prop44ColorRGB
 90
      255
102
RTVSPost2010PropOp44
 70
     1
102
RTVSPost2010Prop45
280
     0
102
RTVSPost2010PropOp45
 70
     1
102
RTVSPost2010Prop46
 90
       50
102
RTVSPost2010PropOp46
 70
     1
102
RTVSPost2010Prop47
 90
       50
102
RTVSPost2010PropOp47
 70
     1
102
RTVSPost2010Prop48
 90
       50
102
RTVSPost2010PropOp48
 70
     1
102
RTVSPost2010Prop49
280
     0
102
RTVSPost2010PropOp49
 70
     1
102
RTVSPost2010Prop50
 90
       50
102
RTVSPost2010PropOp50
 70
     1
102
RTVSPost2010Prop51ColorIndex
 90
      256
102
RTVSPost2010Prop51ColorRGB
 90
-16777216
102
RTVSPost2010PropOp51
 70
     0
102
RTVSPost2010Prop52
140
1.0
102
RTVSPost2010PropOp52
 70
     0
102
RTVSPost2010Prop53
 90
        2
102
RTVSPost2010PropOp53
 70
     1
102
RTVSPost2010Prop54
  1
strokes_ogs.tif
102
RTVSPost2010PropOp54
 70
     1
102
RTVSPost2010Prop55
280
     0
102
RTVSPost2010PropOp55
 70
     1
102
RTVSPost2010Prop56
140
1.0
102
RTVSPost2010PropOp56
 70
     1
102
RTVSPost2010Prop57
140
1.0
102
RTVSPost2010PropOp57
 70
     1
102
RTVSPropertyOp0
 70
     1
102
RTVSPropertyOp1
 70
     1
102
RTVSPropertyOp2
 70
     1
102
RTVSPropertyOp3
 70
     1
102
RTVSPropertyOp4
 70
     1
102
RTVSPropertyOp5
 70
     1
102
RTVSPropertyOp6
 70
     1
102
RTVSPropertyOp7
 70
     1
102
RTVSPropertyOp8
 70
     1
102
RTVSPropertyOp9
 70
     1
102
RTVSPropertyOp10
 70
     1
102
RTVSPropertyOp11
 70
     1
102
RTVSPropertyOp12
 70
     1
102
RTVSPropertyOp13
 70
     1
102
RTVSPropertyOp14
 70
     1
102
RTVSPropertyOp15
 70
     1
102
RTVSPropertyOp16
 70
     1
102
RTVSPropertyOp17
 70
     1
102
RTVSPropertyOp18
 70
     1
102
RTVSPropertyOp19
 70
     1
102
RTVSPropertyOp20
 70
     1
102
RTVSPropertyOp21
 70
     1
102
RTVSPropertyOp22
 70
     1
102
RTVSPropertyOp23
 70
     1
102
RTVSPropertyOp24
 70
     1
102
RTVSPropertyOp25
 70
     1
102
RTVSPropertyOp26
 70
     1
102
RTVSPropertyOp27
 70
     1
102
RTVSPropertyOp28
 70
     1
102
RTVSPropertyOp29
 70
     1
102
RTVSPropertyOp30
 70
     1
102
RTVSPropertyOp31
 70
     1
102
RTVSPropertyOp32
 70
     1
102
RTVSPropertyOp33
 70
     1
102
RTVSPropertyOp34
 70
     1
102
RTVSPropertyOp35
 70
     1
102
RTVSPropertyOp36
 70
     1
102
RTVSPropertyOp37
 70
     1
102
RTVSPropertyOp38
 70
     1
102
RTVSPropertyOp39
 70
     1
102
RTVSPropertyOp40
 70
     1
102
RTVSPropertyOp41
 70
     1
102
RTVSPropertyOp42
 70
     1
102
RTVSPropertyOp43
 70
     1
102
RTVSPropertyOp44
 70
     1
102
RTVSPropertyOp45
 70
     1
102
RTVSPropertyOp46
 70
     1
102
RTVSPropertyOp47
 70
     1
102
RTVSPropertyOp48
 70
     1
102
RTVSPropertyOp49
 70
     1
102
RTVSPropertyOp50
 70
     1
102
RTVSPropertyOp51
 70
     0
102
RTVSPropertyOp52
 70
     0
102
RTVSPropertyOp53
 70
     1
102
RTVSPropertyOp54
 70
     1
102
RTVSPropertyOp55
 70
     1
102
RTVSPropertyOp56
 70
     1
102
RTVSPropertyOp57
 70
     1
102
RTVSPropertyOp58
 70
     1
102
RTVSPropertyOp59
 70
     1
102
RTVSPropertyOp60
 70
     1
102
RTVSPropertyOp61
 70
     1
102
RTVSPropertyOp62
 70
     1
  0
XRECORD
  5
16F0
102
{ACAD_REACTORS
330
16EF
102
}
330
16EF
100
AcDbXrecord
280
     1
102
RTVSPost2010Prop28
280
     0
102
RTVSPost2010PropOp28
 70
     1
102
RTVSPost2010Prop29
280
     1
102
RTVSPost2010PropOp29
 70
     1
102
RTVSPost2010Prop30
280
     1
102
RTVSPost2010PropOp30
 70
     1
102
RTVSPost2010Prop31
280
     0
102
RTVSPost2010PropOp31
 70
     1
102
RTVSPost2010Prop32
280
     0
102
RTVSPost2010PropOp32
 70
     1
102
RTVSPost2010Prop33
280
     0
102
RTVSPost2010PropOp33
 70
     1
102
RTVSPost2010Prop34
280
     0
102
RTVSPost2010PropOp34
 70
     1
102
RTVSPost2010Prop35
280
     0
102
RTVSPost2010PropOp35
 70
     1
102
RTVSPost2010Prop36
280
     0
102
RTVSPost2010PropOp36
 70
     1
102
RTVSPost2010Prop37
 90
       50
102
RTVSPost2010PropOp37
 70
     1
102
RTVSPost2010Prop38
140
0.0
102
RTVSPost2010PropOp38
 70
     1
102
RTVSPost2010Prop39
140
1.0
102
RTVSPost2010PropOp39
 70
     1
102
RTVSPost2010Prop40
 90
        0
102
RTVSPost2010PropOp40
 70
     1
102
RTVSPost2010Prop41ColorIndex
 90
       18
102
RTVSPost2010Prop41ColorRGB
 90
        0
102
RTVSPost2010PropOp41
 70
     1
102
RTVSPost2010Prop42
 90
       50
102
RTVSPost2010PropOp42
 70
     1
102
RTVSPost2010Prop43
 90
        3
102
RTVSPost2010PropOp43
 70
     1
102
RTVSPost2010Prop44ColorIndex
 90
        5
102
RTVSPost2010Prop44ColorRGB
 90
      255
102
RTVSPost2010PropOp44
 70
     1
102
RTVSPost2010Prop45
280
     0
102
RTVSPost2010PropOp45
 70
     1
102
RTVSPost2010Prop46
 90
       50
102
RTVSPost2010PropOp46
 70
     1
102
RTVSPost2010Prop47
 90
       50
102
RTVSPost2010PropOp47
 70
     1
102
RTVSPost2010Prop48
 90
       50
102
RTVSPost2010PropOp48
 70
     1
102
RTVSPost2010Prop49
280
     0
102
RTVSPost2010PropOp49
 70
     1
102
RTVSPost2010Prop50
 90
       50
102
RTVSPost2010PropOp50
 70
     1
102
RTVSPost2010Prop51ColorIndex
 90
      256
102
RTVSPost2010Prop51ColorRGB
 90
-16777216
102
RTVSPost2010PropOp51
 70
     0
102
RTVSPost2010Prop52
140
1.0
102
RTVSPost2010PropOp52
 70
     0
102
RTVSPost2010Prop53
 90
        2
102
RTVSPost2010PropOp53
 70
     1
102
RTVSPost2010Prop54
  1
strokes_ogs.tif
102
RTVSPost2010PropOp54
 70
     1
102
RTVSPost2010Prop55
280
     0
102
RTVSPost2010PropOp55
 70
     1
102
RTVSPost2010Prop56
140
1.0
102
RTVSPost2010PropOp56
 70
     1
102
RTVSPost2010Prop57
140
1.0
102
RTVSPost2010PropOp57
 70
     1
102
RTVSPropertyOp0
 70
     1
102
RTVSPropertyOp1
 70
     1
102
RTVSPropertyOp2
 70
     1
102
RTVSPropertyOp3
 70
     1
102
RTVSPropertyOp4
 70
     1
102
RTVSPropertyOp5
 70
     1
102
RTVSPropertyOp6
 70
     1
102
RTVSPropertyOp7
 70
     1
102
RTVSPropertyOp8
 70
     1
102
RTVSPropertyOp9
 70
     1
102
RTVSPropertyOp10
 70
     1
102
RTVSPropertyOp11
 70
     1
102
RTVSPropertyOp12
 70
     1
102
RTVSPropertyOp13
 70
     1
102
RTVSPropertyOp14
 70
     1
102
RTVSPropertyOp15
 70
     1
102
RTVSPropertyOp16
 70
     1
102
RTVSPropertyOp17
 70
     1
102
RTVSPropertyOp18
 70
     1
102
RTVSPropertyOp19
 70
     1
102
RTVSPropertyOp20
 70
     1
102
RTVSPropertyOp21
 70
     1
102
RTVSPropertyOp22
 70
     1
102
RTVSPropertyOp23
 70
     1
102
RTVSPropertyOp24
 70
     1
102
RTVSPropertyOp25
 70
     1
102
RTVSPropertyOp26
 70
     1
102
RTVSPropertyOp27
 70
     1
102
RTVSPropertyOp28
 70
     1
102
RTVSPropertyOp29
 70
     1
102
RTVSPropertyOp30
 70
     1
102
RTVSPropertyOp31
 70
     1
102
RTVSPropertyOp32
 70
     1
102
RTVSPropertyOp33
 70
     1
102
RTVSPropertyOp34
 70
     1
102
RTVSPropertyOp35
 70
     1
102
RTVSPropertyOp36
 70
     1
102
RTVSPropertyOp37
 70
     1
102
RTVSPropertyOp38
 70
     1
102
RTVSPropertyOp39
 70
     1
102
RTVSPropertyOp40
 70
     1
102
RTVSPropertyOp41
 70
     1
102
RTVSPropertyOp42
 70
     1
102
RTVSPropertyOp43
 70
     1
102
RTVSPropertyOp44
 70
     1
102
RTVSPropertyOp45
 70
     1
102
RTVSPropertyOp46
 70
     1
102
RTVSPropertyOp47
 70
     1
102
RTVSPropertyOp48
 70
     1
102
RTVSPropertyOp49
 70
     1
102
RTVSPropertyOp50
 70
     1
102
RTVSPropertyOp51
 70
     0
102
RTVSPropertyOp52
 70
     0
102
RTVSPropertyOp53
 70
     1
102
RTVSPropertyOp54
 70
     1
102
RTVSPropertyOp55
 70
     1
102
RTVSPropertyOp56
 70
     1
102
RTVSPropertyOp57
 70
     1
102
RTVSPropertyOp58
 70
     1
102
RTVSPropertyOp59
 70
     1
102
RTVSPropertyOp60
 70
     1
102
RTVSPropertyOp61
 70
     1
102
RTVSPropertyOp62
 70
     1
  0
XRECORD
  5
16E4
102
{ACAD_REACTORS
330
16E3
102
}
330
16E3
100
AcDbXrecord
280
     1
102
RTVSPost2010Prop28
280
     0
102
RTVSPost2010PropOp28
 70
     1
102
RTVSPost2010Prop29
280
     1
102
RTVSPost2010PropOp29
 70
     1
102
RTVSPost2010Prop30
280
     1
102
RTVSPost2010PropOp30
 70
     1
102
RTVSPost2010Prop31
280
     0
102
RTVSPost2010PropOp31
 70
     1
102
RTVSPost2010Prop32
280
     0
102
RTVSPost2010PropOp32
 70
     1
102
RTVSPost2010Prop33
280
     0
102
RTVSPost2010PropOp33
 70
     1
102
RTVSPost2010Prop34
280
     0
102
RTVSPost2010PropOp34
 70
     1
102
RTVSPost2010Prop35
280
     0
102
RTVSPost2010PropOp35
 70
     1
102
RTVSPost2010Prop36
280
     0
102
RTVSPost2010PropOp36
 70
     1
102
RTVSPost2010Prop37
 90
       50
102
RTVSPost2010PropOp37
 70
     1
102
RTVSPost2010Prop38
140
0.0
102
RTVSPost2010PropOp38
 70
     1
102
RTVSPost2010Prop39
140
1.0
102
RTVSPost2010PropOp39
 70
     1
102
RTVSPost2010Prop40
 90
        0
102
RTVSPost2010PropOp40
 70
     1
102
RTVSPost2010Prop41ColorIndex
 90
       18
102
RTVSPost2010Prop41ColorRGB
 90
        0
102
RTVSPost2010PropOp41
 70
     1
102
RTVSPost2010Prop42
 90
       50
102
RTVSPost2010PropOp42
 70
     1
102
RTVSPost2010Prop43
 90
        3
102
RTVSPost2010PropOp43
 70
     1
102
RTVSPost2010Prop44ColorIndex
 90
        5
102
RTVSPost2010Prop44ColorRGB
 90
      255
102
RTVSPost2010PropOp44
 70
     1
102
RTVSPost2010Prop45
280
     0
102
RTVSPost2010PropOp45
 70
     1
102
RTVSPost2010Prop46
 90
       50
102
RTVSPost2010PropOp46
 70
     1
102
RTVSPost2010Prop47
 90
       50
102
RTVSPost2010PropOp47
 70
     1
102
RTVSPost2010Prop48
 90
       50
102
RTVSPost2010PropOp48
 70
     1
102
RTVSPost2010Prop49
280
     0
102
RTVSPost2010PropOp49
 70
     1
102
RTVSPost2010Prop50
 90
       50
102
RTVSPost2010PropOp50
 70
     1
102
RTVSPost2010Prop51ColorIndex
 90
      256
102
RTVSPost2010Prop51ColorRGB
 90
-16777216
102
RTVSPost2010PropOp51
 70
     0
102
RTVSPost2010Prop52
140
1.0
102
RTVSPost2010PropOp52
 70
     0
102
RTVSPost2010Prop53
 90
        2
102
RTVSPost2010PropOp53
 70
     1
102
RTVSPost2010Prop54
  1
strokes_ogs.tif
102
RTVSPost2010PropOp54
 70
     1
102
RTVSPost2010Prop55
280
     0
102
RTVSPost2010PropOp55
 70
     1
102
RTVSPost2010Prop56
140
1.0
102
RTVSPost2010PropOp56
 70
     1
102
RTVSPost2010Prop57
140
1.0
102
RTVSPost2010PropOp57
 70
     1
102
RTVSPropertyOp0
 70
     1
102
RTVSPropertyOp1
 70
     1
102
RTVSPropertyOp2
 70
     1
102
RTVSPropertyOp3
 70
     1
102
RTVSPropertyOp4
 70
     1
102
RTVSPropertyOp5
 70
     1
102
RTVSPropertyOp6
 70
     1
102
RTVSPropertyOp7
 70
     1
102
RTVSPropertyOp8
 70
     1
102
RTVSPropertyOp9
 70
     1
102
RTVSPropertyOp10
 70
     1
102
RTVSPropertyOp11
 70
     1
102
RTVSPropertyOp12
 70
     1
102
RTVSPropertyOp13
 70
     1
102
RTVSPropertyOp14
 70
     1
102
RTVSPropertyOp15
 70
     1
102
RTVSPropertyOp16
 70
     1
102
RTVSPropertyOp17
 70
     1
102
RTVSPropertyOp18
 70
     1
102
RTVSPropertyOp19
 70
     1
102
RTVSPropertyOp20
 70
     1
102
RTVSPropertyOp21
 70
     1
102
RTVSPropertyOp22
 70
     1
102
RTVSPropertyOp23
 70
     1
102
RTVSPropertyOp24
 70
     1
102
RTVSPropertyOp25
 70
     1
102
RTVSPropertyOp26
 70
     1
102
RTVSPropertyOp27
 70
     1
102
RTVSPropertyOp28
 70
     1
102
RTVSPropertyOp29
 70
     1
102
RTVSPropertyOp30
 70
     1
102
RTVSPropertyOp31
 70
     1
102
RTVSPropertyOp32
 70
     1
102
RTVSPropertyOp33
 70
     1
102
RTVSPropertyOp34
 70
     1
102
RTVSPropertyOp35
 70
     1
102
RTVSPropertyOp36
 70
     1
102
RTVSPropertyOp37
 70
     1
102
RTVSPropertyOp38
 70
     1
102
RTVSPropertyOp39
 70
     1
102
RTVSPropertyOp40
 70
     1
102
RTVSPropertyOp41
 70
     1
102
RTVSPropertyOp42
 70
     1
102
RTVSPropertyOp43
 70
     1
102
RTVSPropertyOp44
 70
     1
102
RTVSPropertyOp45
 70
     1
102
RTVSPropertyOp46
 70
     1
102
RTVSPropertyOp47
 70
     1
102
RTVSPropertyOp48
 70
     1
102
RTVSPropertyOp49
 70
     1
102
RTVSPropertyOp50
 70
     1
102
RTVSPropertyOp51
 70
     0
102
RTVSPropertyOp52
 70
     0
102
RTVSPropertyOp53
 70
     1
102
RTVSPropertyOp54
 70
     1
102
RTVSPropertyOp55
 70
     1
102
RTVSPropertyOp56
 70
     1
102
RTVSPropertyOp57
 70
     1
102
RTVSPropertyOp58
 70
     1
102
RTVSPropertyOp59
 70
     1
102
RTVSPropertyOp60
 70
     1
102
RTVSPropertyOp61
 70
     1
102
RTVSPropertyOp62
 70
     1
  0
XRECORD
  5
16FC
102
{ACAD_REACTORS
330
16FB
102
}
330
16FB
100
AcDbXrecord
280
     1
102
RTVSPost2010Prop28
280
     0
102
RTVSPost2010PropOp28
 70
     1
102
RTVSPost2010Prop29
280
     1
102
RTVSPost2010PropOp29
 70
     1
102
RTVSPost2010Prop30
280
     1
102
RTVSPost2010PropOp30
 70
     1
102
RTVSPost2010Prop31
280
     0
102
RTVSPost2010PropOp31
 70
     1
102
RTVSPost2010Prop32
280
     0
102
RTVSPost2010PropOp32
 70
     1
102
RTVSPost2010Prop33
280
     0
102
RTVSPost2010PropOp33
 70
     1
102
RTVSPost2010Prop34
280
     0
102
RTVSPost2010PropOp34
 70
     1
102
RTVSPost2010Prop35
280
     0
102
RTVSPost2010PropOp35
 70
     1
102
RTVSPost2010Prop36
280
     0
102
RTVSPost2010PropOp36
 70
     1
102
RTVSPost2010Prop37
 90
       50
102
RTVSPost2010PropOp37
 70
     1
102
RTVSPost2010Prop38
140
0.0
102
RTVSPost2010PropOp38
 70
     1
102
RTVSPost2010Prop39
140
1.0
102
RTVSPost2010PropOp39
 70
     1
102
RTVSPost2010Prop40
 90
        0
102
RTVSPost2010PropOp40
 70
     1
102
RTVSPost2010Prop41ColorIndex
 90
       18
102
RTVSPost2010Prop41ColorRGB
 90
        0
102
RTVSPost2010PropOp41
 70
     1
102
RTVSPost2010Prop42
 90
       50
102
RTVSPost2010PropOp42
 70
     1
102
RTVSPost2010Prop43
 90
        3
102
RTVSPost2010PropOp43
 70
     1
102
RTVSPost2010Prop44ColorIndex
 90
        5
102
RTVSPost2010Prop44ColorRGB
 90
      255
102
RTVSPost2010PropOp44
 70
     1
102
RTVSPost2010Prop45
280
     0
102
RTVSPost2010PropOp45
 70
     1
102
RTVSPost2010Prop46
 90
       50
102
RTVSPost2010PropOp46
 70
     1
102
RTVSPost2010Prop47
 90
       50
102
RTVSPost2010PropOp47
 70
     1
102
RTVSPost2010Prop48
 90
       50
102
RTVSPost2010PropOp48
 70
     1
102
RTVSPost2010Prop49
280
     0
102
RTVSPost2010PropOp49
 70
     1
102
RTVSPost2010Prop50
 90
       50
102
RTVSPost2010PropOp50
 70
     1
102
RTVSPost2010Prop51ColorIndex
 90
      256
102
RTVSPost2010Prop51ColorRGB
 90
-16777216
102
RTVSPost2010PropOp51
 70
     0
102
RTVSPost2010Prop52
140
1.0
102
RTVSPost2010PropOp52
 70
     0
102
RTVSPost2010Prop53
 90
        2
102
RTVSPost2010PropOp53
 70
     1
102
RTVSPost2010Prop54
  1
strokes_ogs.tif
102
RTVSPost2010PropOp54
 70
     1
102
RTVSPost2010Prop55
280
     0
102
RTVSPost2010PropOp55
 70
     1
102
RTVSPost2010Prop56
140
1.0
102
RTVSPost2010PropOp56
 70
     1
102
RTVSPost2010Prop57
140
1.0
102
RTVSPost2010PropOp57
 70
     1
102
RTVSPropertyOp0
 70
     1
102
RTVSPropertyOp1
 70
     1
102
RTVSPropertyOp2
 70
     1
102
RTVSPropertyOp3
 70
     1
102
RTVSPropertyOp4
 70
     1
102
RTVSPropertyOp5
 70
     1
102
RTVSPropertyOp6
 70
     1
102
RTVSPropertyOp7
 70
     1
102
RTVSPropertyOp8
 70
     1
102
RTVSPropertyOp9
 70
     1
102
RTVSPropertyOp10
 70
     1
102
RTVSPropertyOp11
 70
     1
102
RTVSPropertyOp12
 70
     1
102
RTVSPropertyOp13
 70
     1
102
RTVSPropertyOp14
 70
     1
102
RTVSPropertyOp15
 70
     1
102
RTVSPropertyOp16
 70
     1
102
RTVSPropertyOp17
 70
     1
102
RTVSPropertyOp18
 70
     1
102
RTVSPropertyOp19
 70
     1
102
RTVSPropertyOp20
 70
     1
102
RTVSPropertyOp21
 70
     1
102
RTVSPropertyOp22
 70
     1
102
RTVSPropertyOp23
 70
     1
102
RTVSPropertyOp24
 70
     1
102
RTVSPropertyOp25
 70
     1
102
RTVSPropertyOp26
 70
     1
102
RTVSPropertyOp27
 70
     1
102
RTVSPropertyOp28
 70
     1
102
RTVSPropertyOp29
 70
     1
102
RTVSPropertyOp30
 70
     1
102
RTVSPropertyOp31
 70
     1
102
RTVSPropertyOp32
 70
     1
102
RTVSPropertyOp33
 70
     1
102
RTVSPropertyOp34
 70
     1
102
RTVSPropertyOp35
 70
     1
102
RTVSPropertyOp36
 70
     1
102
RTVSPropertyOp37
 70
     1
102
RTVSPropertyOp38
 70
     1
102
RTVSPropertyOp39
 70
     1
102
RTVSPropertyOp40
 70
     1
102
RTVSPropertyOp41
 70
     1
102
RTVSPropertyOp42
 70
     1
102
RTVSPropertyOp43
 70
     1
102
RTVSPropertyOp44
 70
     1
102
RTVSPropertyOp45
 70
     1
102
RTVSPropertyOp46
 70
     1
102
RTVSPropertyOp47
 70
     1
102
RTVSPropertyOp48
 70
     1
102
RTVSPropertyOp49
 70
     1
102
RTVSPropertyOp50
 70
     1
102
RTVSPropertyOp51
 70
     0
102
RTVSPropertyOp52
 70
     0
102
RTVSPropertyOp53
 70
     1
102
RTVSPropertyOp54
 70
     1
102
RTVSPropertyOp55
 70
     1
102
RTVSPropertyOp56
 70
     1
102
RTVSPropertyOp57
 70
     1
102
RTVSPropertyOp58
 70
     1
102
RTVSPropertyOp59
 70
     1
102
RTVSPropertyOp60
 70
     1
102
RTVSPropertyOp61
 70
     1
102
RTVSPropertyOp62
 70
     1
  0
ENDSEC
  0
EOF
