  0
SECTION
  2
HEADER
  9
$ACADVER
  1
AC1015
  9
$ACADMAINTVER
 70
    20
  9
$DWGCODEPAGE
  3
ANSI_932
  9
$INSBASE
 10
0.0
 20
0.0
 30
0.0
  9
$EXTMIN
 10
9.999997999999999
 20
10.000001
 30
0.0
  9
$EXTMAX
 10
756.5773670000003
 20
421.614066
 30
0.0
  9
$LIMMIN
 10
0.000002
 20
0.0
  9
$LIMMAX
 10
792.0000019999998
 20
546.0
  9
$ORTHOMODE
 70
     1
  9
$REGENMODE
 70
     1
  9
$FILLMODE
 70
     1
  9
$QTEXTMODE
 70
     0
  9
$MIRRTEXT
 70
     1
  9
$LTSCALE
 40
1.0
  9
$ATTMODE
 70
     1
  9
$TEXTSIZE
 40
2.5
  9
$TRACEWID
 40
1.0
  9
$TEXTSTYLE
  7
STANDARD
  9
$CLAYER
  8
0
  9
$CELTYPE
  6
BYLAYER
  9
$CECOLOR
 62
   256
  9
$CELTSCALE
 40
1.0
  9
$DISPSILH
 70
     0
  9
$DIMSCALE
 40
1.0
  9
$DIMASZ
 40
3.0
  9
$DIMEXO
 40
1.0
  9
$DIMDLI
 40
10.0
  9
$DIMRND
 40
0.0
  9
$DIMDLE
 40
0.0
  9
$DIMEXE
 40
1.0
  9
$DIMTP
 40
0.0
  9
$DIMTM
 40
0.0
  9
$DIMTXT
 40
3.2
  9
$DIMCEN
 40
0.0
  9
$DIMTSZ
 40
0.0
  9
$DIMTOL
 70
     0
  9
$DIMLIM
 70
     0
  9
$DIMTIH
 70
     0
  9
$DIMTOH
 70
     0
  9
$DIMSE1
 70
     0
  9
$DIMSE2
 70
     0
  9
$DIMTAD
 70
     3
  9
$DIMZIN
 70
     8
  9
$DIMBLK
  1

  9
$DIMASO
 70
     1
  9
$DIMSHO
 70
     1
  9
$DIMPOST
  1

  9
$DIMAPOST
  1

  9
$DIMALT
 70
     0
  9
$DIMALTD
 70
     2
  9
$DIMALTF
 40
25.4
  9
$DIMLFAC
 40
1.0
  9
$DIMTOFL
 70
     1
  9
$DIMTVP
 40
0.0
  9
$DIMTIX
 70
     0
  9
$DIMSOXD
 70
     0
  9
$DIMSAH
 70
     1
  9
$DIMBLK1
  1
OPEN
  9
$DIMBLK2
  1
OPEN
  9
$DIMSTYLE
  2
STANDARD
  9
$DIMCLRD
 70
     0
  9
$DIMCLRE
 70
     0
  9
$DIMCLRT
 70
     0
  9
$DIMTFAC
 40
1.0
  9
$DIMGAP
 40
1.0
  9
$DIMJUST
 70
     0
  9
$DIMSD1
 70
     0
  9
$DIMSD2
 70
     0
  9
$DIMTOLJ
 70
     1
  9
$DIMTZIN
 70
     0
  9
$DIMALTZ
 70
     0
  9
$DIMALTTZ
 70
     0
  9
$DIMUPT
 70
     0
  9
$DIMDEC
 70
     4
  9
$DIMTDEC
 70
     4
  9
$DIMALTU
 70
     2
  9
$DIMALTTD
 70
     2
  9
$DIMTXSTY
  7
STANDARD
  9
$DIMAUNIT
 70
     0
  9
$DIMADEC
 70
     0
  9
$DIMALTRND
 40
0.0
  9
$DIMAZIN
 70
     0
  9
$DIMDSEP
 70
    46
  9
$DIMATFIT
 70
     3
  9
$DIMFRAC
 70
     0
  9
$DIMLDRBLK
  1
OPEN
  9
$DIMLUNIT
 70
     2
  9
$DIMLWD
 70
    -2
  9
$DIMLWE
 70
    -2
  9
$DIMTMOVE
 70
     0
  9
$LUNITS
 70
     2
  9
$LUPREC
 70
     4
  9
$SKETCHINC
 40
1.0
  9
$FILLETRAD
 40
1.0
  9
$AUNITS
 70
     0
  9
$AUPREC
 70
     0
  9
$MENU
  1
.
  9
$ELEVATION
 40
0.0
  9
$PELEVATION
 40
0.0
  9
$THICKNESS
 40
0.0
  9
$LIMCHECK
 70
     0
  9
$CHAMFERA
 40
1.5
  9
$CHAMFERB
 40
1.5
  9
$CHAMFERC
 40
0.0
  9
$CHAMFERD
 40
0.0
  9
$SKPOLY
 70
     0
  9
$TDCREATE
 40
2451652.667219005
  9
$TDUCREATE
 40
2451652.292219005
  9
$TDUPDATE
 40
2457192.641575197
  9
$TDUUPDATE
 40
2457192.266575197
  9
$TDINDWG
 40
0.1013425926
  9
$TDUSRTIMER
 40
0.1013419097
  9
$USRTIMER
 70
     1
  9
$ANGBASE
 50
0.0
  9
$ANGDIR
 70
     0
  9
$PDMODE
 70
     0
  9
$PDSIZE
 40
0.0
  9
$PLINEWID
 40
0.0
  9
$SPLFRAME
 70
     0
  9
$SPLINETYPE
 70
     6
  9
$SPLINESEGS
 70
     8
  9
$HANDSEED
  5
5465
  9
$SURFTAB1
 70
     6
  9
$SURFTAB2
 70
     6
  9
$SURFTYPE
 70
     6
  9
$SURFU
 70
     6
  9
$SURFV
 70
     6
  9
$UCSBASE
  2

  9
$UCSNAME
  2

  9
$UCSORG
 10
0.0
 20
0.0
 30
0.0
  9
$UCSXDIR
 10
1.0
 20
0.0
 30
0.0
  9
$UCSYDIR
 10
0.0
 20
1.0
 30
0.0
  9
$UCSORTHOREF
  2

  9
$UCSORTHOVIEW
 70
     0
  9
$UCSORGTOP
 10
0.0
 20
0.0
 30
0.0
  9
$UCSORGBOTTOM
 10
0.0
 20
0.0
 30
0.0
  9
$UCSORGLEFT
 10
0.0
 20
0.0
 30
0.0
  9
$UCSORGRIGHT
 10
0.0
 20
0.0
 30
0.0
  9
$UCSORGFRONT
 10
0.0
 20
0.0
 30
0.0
  9
$UCSORGBACK
 10
0.0
 20
0.0
 30
0.0
  9
$PUCSBASE
  2

  9
$PUCSNAME
  2

  9
$PUCSORG
 10
0.0
 20
0.0
 30
0.0
  9
$PUCSXDIR
 10
1.0
 20
0.0
 30
0.0
  9
$PUCSYDIR
 10
0.0
 20
1.0
 30
0.0
  9
$PUCSORTHOREF
  2

  9
$PUCSORTHOVIEW
 70
     0
  9
$PUCSORGTOP
 10
0.0
 20
0.0
 30
0.0
  9
$PUCSORGBOTTOM
 10
0.0
 20
0.0
 30
0.0
  9
$PUCSORGLEFT
 10
0.0
 20
0.0
 30
0.0
  9
$PUCSORGRIGHT
 10
0.0
 20
0.0
 30
0.0
  9
$PUCSORGFRONT
 10
0.0
 20
0.0
 30
0.0
  9
$PUCSORGBACK
 10
0.0
 20
0.0
 30
0.0
  9
$USERI1
 70
     0
  9
$USERI2
 70
     0
  9
$USERI3
 70
     0
  9
$USERI4
 70
     0
  9
$USERI5
 70
     0
  9
$USERR1
 40
0.0
  9
$USERR2
 40
0.0
  9
$USERR3
 40
0.0
  9
$USERR4
 40
0.0
  9
$USERR5
 40
0.0
  9
$WORLDVIEW
 70
     1
  9
$SHADEDGE
 70
     3
  9
$SHADEDIF
 70
    70
  9
$TILEMODE
 70
     1
  9
$MAXACTVP
 70
    48
  9
$PINSBASE
 10
0.0
 20
0.0
 30
0.0
  9
$PLIMCHECK
 70
     0
  9
$PEXTMIN
 10
1.000000000000000E+20
 20
1.000000000000000E+20
 30
1.000000000000000E+20
  9
$PEXTMAX
 10
-1.000000000000000E+20
 20
-1.000000000000000E+20
 30
-1.000000000000000E+20
  9
$PLIMMIN
 10
0.0
 20
0.0
  9
$PLIMMAX
 10
420.0
 20
297.0
  9
$UNITMODE
 70
     0
  9
$VISRETAIN
 70
     1
  9
$PLINEGEN
 70
     0
  9
$PSLTSCALE
 70
     1
  9
$TREEDEPTH
 70
  3020
  9
$CMLSTYLE
  2
STANDARD
  9
$CMLJUST
 70
     0
  9
$CMLSCALE
 40
1.0
  9
$PROXYGRAPHICS
 70
     1
  9
$MEASUREMENT
 70
     0
  9
$CELWEIGHT
370
    -1
  9
$ENDCAPS
280
     0
  9
$JOINSTYLE
280
     0
  9
$LWDISPLAY
290
     0
  9
$INSUNITS
 70
     0
  9
$HYPERLINKBASE
  1

  9
$STYLESHEET
  1

  9
$XEDIT
290
     1
  9
$CEPSNTYPE
380
     0
  9
$PSTYLEMODE
290
     1
  9
$FINGERPRINTGUID
  2
{D1E3F121-1B27-4F13-9AE0-D0525863F08D}
  9
$VERSIONGUID
  2
{8B928AEC-EDB1-4B79-BDBA-C3A73EBCD7A7}
  9
$EXTNAMES
290
     1
  9
$PSVPSCALE
 40
0.0
  9
$OLESTARTUP
290
     0
  0
ENDSEC
  0
SECTION
  2
CLASSES
  0
CLASS
  1
ACDBDICTIONARYWDFLT
  2
AcDbDictionaryWithDefault
  3
ObjectDBX Classes
 90
        0
280
     0
281
     0
  0
CLASS
  1
ACDBPLACEHOLDER
  2
AcDbPlaceHolder
  3
ObjectDBX Classes
 90
        0
280
     0
281
     0
  0
CLASS
  1
LAYOUT
  2
AcDbLayout
  3
ObjectDBX Classes
 90
        0
280
     0
281
     0
  0
CLASS
  1
DICTIONARYVAR
  2
AcDbDictionaryVar
  3
ObjectDBX Classes
 90
        0
280
     0
281
     0
  0
CLASS
  1
MATERIAL
  2
AcDbMaterial
  3
ObjectDBX Classes
 90
     1153
280
     0
281
     0
  0
CLASS
  1
VISUALSTYLE
  2
AcDbVisualStyle
  3
ObjectDBX Classes
 90
     4095
280
     0
281
     0
  0
CLASS
  1
TABLESTYLE
  2
AcDbTableStyle
  3
ObjectDBX Classes
 90
     4095
280
     0
281
     0
  0
CLASS
  1
SCALE
  2
AcDbScale
  3
ObjectDBX Classes
 90
     1153
280
     0
281
     0
  0
CLASS
  1
MLEADERSTYLE
  2
AcDbMLeaderStyle
  3
ACDB_MLEADERSTYLE_CLASS
 90
     4095
280
     0
281
     0
  0
CLASS
  1
ACDBSECTIONVIEWSTYLE
  2
AcDbSectionViewStyle
  3
ObjectDBX Classes
 90
     1025
280
     0
281
     0
  0
CLASS
  1
ACDBDETAILVIEWSTYLE
  2
AcDbDetailViewStyle
  3
ObjectDBX Classes
 90
     1025
280
     0
281
     0
  0
CLASS
  1
CELLSTYLEMAP
  2
AcDbCellStyleMap
  3
ObjectDBX Classes
 90
     1152
280
     0
281
     0
  0
ENDSEC
  0
SECTION
  2
TABLES
  0
TABLE
  2
VPORT
  5
4EC4
330
0
100
AcDbSymbolTable
 70
     1
  0
VPORT
  5
53AE
330
4EC4
100
AcDbSymbolTableRecord
100
AcDbViewportTableRecord
  2
*ACTIVE
 70
     0
 10
0.0
 20
0.0
 11
1.0
 21
1.0
 12
511.8371879051435
 22
215.8056347495941
 13
0.0
 23
0.0
 14
10.0
 24
10.0
 15
10.0
 25
10.0
 16
0.0
 26
0.0
 36
1.0
 17
0.0
 27
0.0
 37
0.0
 40
429.1917486211885
 41
1.899603698811096
 42
50.0
 43
0.0
 44
0.0
 50
0.0
 51
0.0
 71
     0
 72
   100
 73
     1
 74
     0
 75
     0
 76
     0
 77
     0
 78
     0
281
     0
 65
     1
110
0.0
120
0.0
130
0.0
111
1.0
121
0.0
131
0.0
112
0.0
122
1.0
132
0.0
 79
     0
146
0.0
1001
ACAD_NAV_VCDISPLAY
1070
     3
  0
ENDTAB
  0
TABLE
  2
LTYPE
  5
4EC1
330
0
100
AcDbSymbolTable
 70
     4
  0
LTYPE
  5
4ECF
330
4EC1
100
AcDbSymbolTableRecord
100
AcDbLinetypeTableRecord
  2
BYBLOCK
 70
     0
  3

 72
    65
 73
     0
 40
0.0
  0
LTYPE
  5
4ED0
330
4EC1
100
AcDbSymbolTableRecord
100
AcDbLinetypeTableRecord
  2
BYLAYER
 70
     0
  3

 72
    65
 73
     0
 40
0.0
  0
LTYPE
  5
4ED1
330
4EC1
100
AcDbSymbolTableRecord
100
AcDbLinetypeTableRecord
  2
CONTINUOUS
 70
     0
  3
Solid line
 72
    65
 73
     0
 40
0.0
  0
LTYPE
  5
4EDF
330
4EC1
100
AcDbSymbolTableRecord
100
AcDbLinetypeTableRecord
  2
DASHED
 70
     0
  3
Dashed __ __ __ __ __ __ __ __ __ __ __ __ __ _
 72
    65
 73
     2
 40
19.05
 49
12.7
 74
     0
 49
-6.349999999999997
 74
     0
  0
LTYPE
  5
4EE0
330
4EC1
100
AcDbSymbolTableRecord
100
AcDbLinetypeTableRecord
  2
CENTER
 70
     0
  3
Center ____ _ ____ _ ____ _ ____ _ ____ _ ____
 72
    65
 73
     4
 40
50.8
 49
31.75
 74
     0
 49
-6.349999999999997
 74
     0
 49
6.349999999999997
 74
     0
 49
-6.349999999999997
 74
     0
  0
LTYPE
  5
4EE1
330
4EC1
100
AcDbSymbolTableRecord
100
AcDbLinetypeTableRecord
  2
PHANTOM
 70
     0
  3
Phantom ______  __  __  ______  __  __  ______
 72
    65
 73
     6
 40
63.5
 49
31.75
 74
     0
 49
-6.349999999999997
 74
     0
 49
6.349999999999997
 74
     0
 49
-6.349999999999997
 74
     0
 49
6.349999999999997
 74
     0
 49
-6.349999999999997
 74
     0
  0
ENDTAB
  0
TABLE
  2
LAYER
  5
4EBE
330
0
100
AcDbSymbolTable
 70
     8
  0
LAYER
  5
4ECC
102
{ACAD_XDICTIONARY
360
5409
102
}
330
4EBE
100
AcDbSymbolTableRecord
100
AcDbLayerTableRecord
  2
0
 70
     0
 62
     7
  6
CONTINUOUS
370
    -3
390
53B7
  0
LAYER
  5
4EE2
102
{ACAD_XDICTIONARY
360
540B
102
}
330
4EBE
100
AcDbSymbolTableRecord
100
AcDbLayerTableRecord
  2
7
 70
     0
 62
     3
  6
CONTINUOUS
370
    -3
390
53B7
  0
LAYER
  5
4EE3
102
{ACAD_XDICTIONARY
360
540D
102
}
330
4EBE
100
AcDbSymbolTableRecord
100
AcDbLayerTableRecord
  2
4
 70
     0
 62
     1
  6
CENTER
370
    -3
390
53B7
  0
LAYER
  5
4EE4
102
{ACAD_XDICTIONARY
360
540F
102
}
330
4EBE
100
AcDbSymbolTableRecord
100
AcDbLayerTableRecord
  2
5
 70
     0
 62
     6
  6
PHANTOM
370
    -3
390
53B7
  0
LAYER
  5
4EE5
102
{ACAD_XDICTIONARY
360
5411
102
}
330
4EBE
100
AcDbSymbolTableRecord
100
AcDbLayerTableRecord
  2
1
 70
     0
 62
     7
  6
CONTINUOUS
370
    -3
390
53B7
  0
LAYER
  5
4EE6
102
{ACAD_XDICTIONARY
360
5413
102
}
330
4EBE
100
AcDbSymbolTableRecord
100
AcDbLayerTableRecord
  2
2
 70
     0
 62
     4
  6
CONTINUOUS
370
    -3
390
53B7
  0
LAYER
  5
4EE7
102
{ACAD_XDICTIONARY
360
5415
102
}
330
4EBE
100
AcDbSymbolTableRecord
100
AcDbLayerTableRecord
  2
3
 70
     0
 62
     2
  6
DASHED
370
    -3
390
53B7
  0
LAYER
  5
4EE8
102
{ACAD_XDICTIONARY
360
5417
102
}
330
4EBE
100
AcDbSymbolTableRecord
100
AcDbLayerTableRecord
  2
6
 70
     0
 62
     5
  6
CONTINUOUS
370
    -3
390
53B7
  0
ENDTAB
  0
TABLE
  2
STYLE
  5
4EBF
330
0
100
AcDbSymbolTable
 70
     1
  0
STYLE
  5
4ECD
330
4EBF
100
AcDbSymbolTableRecord
100
AcDbTextStyleTableRecord
  2
STANDARD
 70
     0
 40
0.0
 41
1.0
 50
0.0
 71
     0
 42
2.5
  3
txt
  4

  0
ENDTAB
  0
TABLE
  2
VIEW
  5
4EC2
330
0
100
AcDbSymbolTable
 70
     0
  0
ENDTAB
  0
TABLE
  2
UCS
  5
4EC3
330
0
100
AcDbSymbolTable
 70
     0
  0
ENDTAB
  0
TABLE
  2
APPID
  5
4EC5
330
0
100
AcDbSymbolTable
 70
     7
  0
APPID
  5
4ECE
330
4EC5
100
AcDbSymbolTableRecord
100
AcDbRegAppTableRecord
  2
ACAD
 70
     0
  0
APPID
  5
4EE9
330
4EC5
100
AcDbSymbolTableRecord
100
AcDbRegAppTableRecord
  2
CONTENTTABDATA
 70
     0
  0
APPID
  5
4EEA
330
4EC5
100
AcDbSymbolTableRecord
100
AcDbRegAppTableRecord
  2
CONTENTCURRENTTAB
 70
     0
  0
APPID
  5
4EEB
330
4EC5
100
AcDbSymbolTableRecord
100
AcDbRegAppTableRecord
  2
CONTENTBLOCKDESCRIPTION
 70
     0
  0
APPID
  5
4EEC
330
4EC5
100
AcDbSymbolTableRecord
100
AcDbRegAppTableRecord
  2
CONTENTBLOCKICON
 70
     0
  0
APPID
  5
5423
330
4EC5
100
AcDbSymbolTableRecord
100
AcDbRegAppTableRecord
  2
ACAD_NAV_VCDISPLAY
 70
     0
  0
APPID
  5
545C
330
4EC5
100
AcDbSymbolTableRecord
100
AcDbRegAppTableRecord
  2
ACAD_MLEADERVER
 70
     0
  0
ENDTAB
  0
TABLE
  2
DIMSTYLE
  5
4EC6
330
0
100
AcDbSymbolTable
 70
     1
100
AcDbDimStyleTable
 71
     0
  0
DIMSTYLE
105
4EED
330
4EC6
100
AcDbSymbolTableRecord
100
AcDbDimStyleTableRecord
  2
STANDARD
 70
     0
 41
3.0
 42
1.0
 43
10.0
 44
1.0
 73
     0
 74
     0
 77
     3
 78
     8
140
3.2
141
0.0
147
1.0
172
     1
173
     1
284
     8
285
     8
286
     8
340
4ECD
  0
ENDTAB
  0
TABLE
  2
BLOCK_RECORD
  5
4EBD
330
0
100
AcDbSymbolTable
 70
     1
  0
BLOCK_RECORD
  5
4EDA
102
{ACAD_XDICTIONARY
360
53B1
102
}
330
4EBD
100
AcDbSymbolTableRecord
100
AcDbBlockTableRecord
  2
*MODEL_SPACE
340
5405
  0
BLOCK_RECORD
  5
4ED6
102
{ACAD_XDICTIONARY
360
53AF
102
}
330
4EBD
100
AcDbSymbolTableRecord
100
AcDbBlockTableRecord
  2
*PAPER_SPACE
340
5406
  0
BLOCK_RECORD
  5
4EF5
330
4EBD
100
AcDbSymbolTableRecord
100
AcDbBlockTableRecord
  2
_OPEN
340
0
  0
ENDTAB
  0
ENDSEC
  0
SECTION
  2
BLOCKS
  0
BLOCK
  5
4EDB
330
4EDA
100
AcDbEntity
  8
0
100
AcDbBlockBegin
  2
*MODEL_SPACE
 70
     0
 10
0.0
 20
0.0
 30
0.0
  3
*MODEL_SPACE
  1

  0
ENDBLK
  5
4EDC
330
4EDA
100
AcDbEntity
  8
0
100
AcDbBlockEnd
  0
BLOCK
  5
4ED7
330
4ED6
100
AcDbEntity
 67
     1
  8
0
100
AcDbBlockBegin
  2
*PAPER_SPACE
 70
     0
 10
0.0
 20
0.0
 30
0.0
  3
*PAPER_SPACE
  1

  0
ENDBLK
  5
4ED8
330
4ED6
100
AcDbEntity
 67
     1
  8
0
100
AcDbBlockEnd
  0
BLOCK
  5
4EF6
330
4EF5
100
AcDbEntity
  8
0
100
AcDbBlockBegin
  2
_OPEN
 70
     0
 10
0.0
 20
0.0
 30
0.0
  3
_OPEN
  1

  0
LINE
  5
4EF7
330
4EF5
100
AcDbEntity
  8
0
  6
ByBlock
 62
     0
100
AcDbLine
 10
-1.0
 20
0.166667
 30
0.0
 11
0.0
 21
0.0
 31
0.0
  0
LINE
  5
4EF8
330
4EF5
100
AcDbEntity
  8
0
  6
ByBlock
 62
     0
100
AcDbLine
 10
0.0
 20
0.0
 30
0.0
 11
-1.0
 21
-0.166667
 31
0.0
  0
LINE
  5
4EF9
330
4EF5
100
AcDbEntity
  8
0
  6
ByBlock
 62
     0
100
AcDbLine
 10
0.0
 20
0.0
 30
0.0
 11
-1.0
 21
0.0
 31
0.0
  0
ENDBLK
  5
4EFA
330
4EF5
100
AcDbEntity
  8
0
100
AcDbBlockEnd
  0
ENDSEC
  0
SECTION
  2
ENTITIES
  0
TEXT
  5
4EFB
330
4EDA
100
AcDbEntity
  8
4
  6
CENTER
100
AcDbText
 10
23.979509
 20
10.048738
 30
0.0
 40
1.399999999999999
  1
4
100
AcDbText
  0
TEXT
  5
4EFC
330
4EDA
100
AcDbEntity
  8
7
  6
Continuous
100
AcDbText
 10
9.999997999999999
 20
26.000001
 30
0.0
 40
3.0
  1
CODE No.13254
100
AcDbText
  0
TEXT
  5
4EFD
330
4EDA
100
AcDbEntity
  8
7
  6
Continuous
100
AcDbText
 10
9.999997999999999
 20
18.000001
 30
0.0
 40
3.0
  1
TYPE No.THA-330LS-2
100
AcDbText
  0
TEXT
  5
4EFE
330
4EDA
100
AcDbEntity
  8
1
  6
Continuous
100
AcDbText
 10
9.999997999999999
 20
10.000001
 30
0.0
 40
1.399999999999999
  1
LAYER
100
AcDbText
  0
TEXT
  5
4EFF
330
4EDA
100
AcDbEntity
  8
2
  6
Continuous
100
AcDbText
 10
19.979509
 20
10.048738
 30
0.0
 40
1.399999999999999
  1
2
100
AcDbText
  0
TEXT
  5
4F00
330
4EDA
100
AcDbEntity
  8
3
  6
DASHED
100
AcDbText
 10
21.97950899999999
 20
10.048738
 30
0.0
 40
1.399999999999999
  1
3
100
AcDbText
  0
TEXT
  5
4F01
330
4EDA
100
AcDbEntity
  8
1
  6
Continuous
100
AcDbText
 10
17.979509
 20
10.048738
 30
0.0
 40
1.399999999999999
  1
1
100
AcDbText
  0
TEXT
  5
4F02
330
4EDA
100
AcDbEntity
  8
5
  6
PHANTOM
100
AcDbText
 10
25.979509
 20
10.048738
 30
0.0
 40
1.399999999999999
  1
5
100
AcDbText
  0
TEXT
  5
4F03
330
4EDA
100
AcDbEntity
  8
6
  6
Continuous
100
AcDbText
 10
27.979509
 20
10.048738
 30
0.0
 40
1.399999999999999
  1
6
100
AcDbText
  0
TEXT
  5
4F04
330
4EDA
100
AcDbEntity
  8
7
  6
Continuous
100
AcDbText
 10
29.97950900000001
 20
10.048738
 30
0.0
 40
1.399999999999999
  1
7
100
AcDbText
  0
LINE
  5
4F05
330
4EDA
100
AcDbEntity
  8
4
  6
CENTER
100
AcDbLine
 10
143.091577
 20
269.3070329999998
 30
0.0
 11
85.09157700000001
 21
269.3070329999998
 31
0.0
  0
ARC
  5
4F06
330
4EDA
100
AcDbEntity
  8
1
  6
Continuous
100
AcDbCircle
 10
505.708071
 20
253.307033
 30
0.0
 40
3.7
100
AcDbArc
 50
180.0
 51
0.0
  0
ARC
  5
4F07
330
4EDA
100
AcDbEntity
  8
1
  6
Continuous
100
AcDbCircle
 10
505.708071
 20
285.3070329999998
 30
0.0
 40
3.7
100
AcDbArc
 50
0.0
 51
180.0
  0
LINE
  5
4F08
330
4EDA
100
AcDbEntity
  8
1
  6
Continuous
100
AcDbLine
 10
502.008071
 20
253.307033
 30
0.0
 11
502.008071
 21
254.1227209999999
 31
0.0
  0
LINE
  5
4F09
330
4EDA
100
AcDbEntity
  8
1
  6
Continuous
100
AcDbLine
 10
502.008071
 20
285.3070329999998
 30
0.0
 11
502.008071
 21
284.491345
 31
0.0
  0
LINE
  5
4F0A
330
4EDA
100
AcDbEntity
  8
1
  6
Continuous
100
AcDbLine
 10
509.408071
 20
285.3070329999998
 30
0.0
 11
509.408071
 21
284.491345
 31
0.0
  0
LINE
  5
4F0B
330
4EDA
100
AcDbEntity
  8
1
  6
Continuous
100
AcDbLine
 10
509.408071
 20
253.307033
 30
0.0
 11
509.408071
 21
254.1227209999999
 31
0.0
  0
LINE
  5
4F0C
330
4EDA
100
AcDbEntity
  8
4
  6
CENTER
100
AcDbLine
 10
205.0242439999999
 20
216.8070329999999
 30
0.0
 11
101.591577
 21
276.5239119999999
 31
0.0
  0
LINE
  5
4F0D
330
4EDA
100
AcDbEntity
  8
4
  6
CENTER
100
AcDbLine
 10
510.7080709999998
 20
253.307033
 30
0.0
 11
500.708071
 21
253.307033
 31
0.0
  0
LINE
  5
4F0E
330
4EDA
100
AcDbEntity
  8
4
  6
CENTER
100
AcDbLine
 10
510.7080709999998
 20
285.3070329999998
 30
0.0
 11
500.708071
 21
285.3070329999998
 31
0.0
  0
ARC
  5
4F0F
330
4EDA
100
AcDbEntity
  8
1
  6
Continuous
100
AcDbCircle
 10
505.708071
 20
269.3070329999998
 30
0.0
 40
10.18799999999999
100
AcDbArc
 50
253.1384089999999
 51
286.8615909999999
  0
ARC
  5
4F10
330
4EDA
100
AcDbEntity
  8
1
  6
Continuous
100
AcDbCircle
 10
505.708071
 20
269.3070329999998
 30
0.0
 40
10.18799999999999
100
AcDbArc
 50
73.13840899999998
 51
106.8615909999999
  0
ARC
  5
4F11
330
4EDA
100
AcDbEntity
  8
2
  6
Continuous
100
AcDbCircle
 10
505.708071
 20
269.3070329999998
 30
0.0
 40
11.0
100
AcDbArc
 50
242.419801
 51
297.5801989999999
  0
ARC
  5
4F12
330
4EDA
100
AcDbEntity
  8
2
  6
Continuous
100
AcDbCircle
 10
505.708071
 20
269.3070329999998
 30
0.0
 40
11.0
100
AcDbArc
 50
62.419801
 51
117.5801989999998
  0
LINE
  5
4F13
330
4EDA
100
AcDbEntity
  8
1
  6
Continuous
100
AcDbLine
 10
413.3039359999997
 20
264.407033
 30
0.0
 11
413.3039359999997
 21
274.207033
 31
0.0
  0
LINE
  5
4F14
330
4EDA
100
AcDbEntity
  8
1
  6
Continuous
100
AcDbLine
 10
412.799619
 20
275.080536
 30
0.0
 11
409.808253
 21
275.080536
 31
0.0
  0
LINE
  5
4F15
330
4EDA
100
AcDbEntity
  8
1
  6
Continuous
100
AcDbLine
 10
412.799619
 20
263.5335309999999
 30
0.0
 11
409.808253
 21
263.5335309999999
 31
0.0
  0
LINE
  5
4F16
330
4EDA
100
AcDbEntity
  8
1
  6
Continuous
100
AcDbLine
 10
412.752381
 20
266.4202819999998
 30
0.0
 11
409.8554909999998
 21
266.4202819999998
 31
0.0
  0
LINE
  5
4F17
330
4EDA
100
AcDbEntity
  8
1
  6
Continuous
100
AcDbLine
 10
412.752381
 20
272.1937849999998
 30
0.0
 11
409.8554909999998
 21
272.1937849999998
 31
0.0
  0
LINE
  5
4F18
330
4EDA
100
AcDbEntity
  8
1
  6
Continuous
100
AcDbLine
 10
412.799619
 20
275.080536
 30
0.0
 11
413.3039359999997
 21
274.207033
 31
0.0
  0
LINE
  5
4F19
330
4EDA
100
AcDbEntity
  8
1
  6
Continuous
100
AcDbLine
 10
412.799619
 20
263.5335309999999
 30
0.0
 11
413.3039359999997
 21
264.407033
 31
0.0
  0
ARC
  5
4F1A
330
4EDA
100
AcDbEntity
  8
1
  6
Continuous
100
AcDbCircle
 10
405.4737559999998
 20
269.3070329999998
 30
0.0
 40
7.83018
100
AcDbArc
 50
338.366392
 51
21.63360799999999
  0
ARC
  5
4F1B
330
4EDA
100
AcDbEntity
  8
1
  6
Continuous
100
AcDbCircle
 10
411.1395579999998
 20
264.976906
 30
0.0
 40
2.164377999999996
100
AcDbArc
 50
0.0
 51
41.82654799999999
  0
ARC
  5
4F1C
330
4EDA
100
AcDbEntity
  8
1
  6
Continuous
100
AcDbCircle
 10
411.1395579999998
 20
273.63716
 30
0.0
 40
2.164377999999996
100
AcDbArc
 50
318.173452
 51
0.0
  0
LINE
  5
4F1D
330
4EDA
100
AcDbEntity
  8
1
  6
Continuous
100
AcDbLine
 10
409.3039359999997
 20
275.407033
 30
0.0
 11
407.803936
 21
275.407033
 31
0.0
  0
LINE
  5
4F1E
330
4EDA
100
AcDbEntity
  8
1
  6
Continuous
100
AcDbLine
 10
409.3039359999997
 20
263.207033
 30
0.0
 11
407.803936
 21
263.207033
 31
0.0
  0
LINE
  5
4F1F
330
4EDA
100
AcDbEntity
  8
1
  6
Continuous
100
AcDbLine
 10
409.3039359999997
 20
263.207033
 30
0.0
 11
409.3039359999997
 21
275.407033
 31
0.0
  0
LINE
  5
4F20
330
4EDA
100
AcDbEntity
  8
1
  6
Continuous
100
AcDbLine
 10
409.3039359999997
 20
263.5335309999999
 30
0.0
 11
409.3039359999997
 21
275.080536
 31
0.0
  0
LINE
  5
4F21
330
4EDA
100
AcDbEntity
  8
1
  6
Continuous
100
AcDbLine
 10
409.808253
 20
275.080536
 30
0.0
 11
409.3039359999997
 21
274.207033
 31
0.0
  0
ARC
  5
4F22
330
4EDA
100
AcDbEntity
  8
1
  6
Continuous
100
AcDbCircle
 10
411.468314
 20
273.63716
 30
0.0
 40
2.164377999999996
100
AcDbArc
 50
180.0
 51
221.8265479999999
  0
ARC
  5
4F23
330
4EDA
100
AcDbEntity
  8
1
  6
Continuous
100
AcDbCircle
 10
417.1341159999998
 20
269.3070329999998
 30
0.0
 40
7.83018
100
AcDbArc
 50
158.366392
 51
201.633608
  0
ARC
  5
4F24
330
4EDA
100
AcDbEntity
  8
1
  6
Continuous
100
AcDbCircle
 10
411.468314
 20
264.976906
 30
0.0
 40
2.164377999999996
100
AcDbArc
 50
138.1734519999999
 51
180.0
  0
LINE
  5
4F25
330
4EDA
100
AcDbEntity
  8
1
  6
Continuous
100
AcDbLine
 10
409.808253
 20
263.5335309999999
 30
0.0
 11
409.3039359999997
 21
264.407033
 31
0.0
  0
LINE
  5
4F26
330
4EDA
100
AcDbEntity
  8
1
  6
Continuous
100
AcDbLine
 10
407.803936
 20
261.3070329999998
 30
0.0
 11
407.803936
 21
277.3070329999999
 31
0.0
  0
LINE
  5
4F27
330
4EDA
100
AcDbEntity
  8
1
  6
Continuous
100
AcDbLine
 10
391.484461
 20
260.3070329999998
 30
0.0
 11
389.484461
 21
260.3070329999998
 31
0.0
  0
LINE
  5
4F28
330
4EDA
100
AcDbEntity
  8
1
  6
Continuous
100
AcDbLine
 10
391.484461
 20
278.307033
 30
0.0
 11
389.484461
 21
278.307033
 31
0.0
  0
LINE
  5
4F29
330
4EDA
100
AcDbEntity
  8
1
  6
Continuous
100
AcDbLine
 10
407.803936
 20
261.3070329999998
 30
0.0
 11
406.3039359999998
 21
261.3070329999998
 31
0.0
  0
LINE
  5
4F2A
330
4EDA
100
AcDbEntity
  8
1
  6
Continuous
100
AcDbLine
 10
407.803936
 20
277.3070329999999
 30
0.0
 11
406.3039359999998
 21
277.3070329999999
 31
0.0
  0
LINE
  5
4F2B
330
4EDA
100
AcDbEntity
  8
1
  6
Continuous
100
AcDbLine
 10
389.484461
 20
278.307033
 30
0.0
 11
389.484461
 21
260.3070329999998
 31
0.0
  0
LINE
  5
4F2C
330
4EDA
100
AcDbEntity
  8
1
  6
Continuous
100
AcDbLine
 10
406.3039359999998
 20
277.3070329999999
 30
0.0
 11
406.3039359999998
 21
261.3070329999998
 31
0.0
  0
LINE
  5
4F2D
330
4EDA
100
AcDbEntity
  8
1
  6
Continuous
100
AcDbLine
 10
392.484461
 20
278.307033
 30
0.0
 11
392.484461
 21
260.3070329999998
 31
0.0
  0
LINE
  5
4F2E
330
4EDA
100
AcDbEntity
  8
1
  6
Continuous
100
AcDbLine
 10
391.484461
 20
278.307033
 30
0.0
 11
391.484461
 21
260.3070329999998
 31
0.0
  0
LINE
  5
4F2F
330
4EDA
100
AcDbEntity
  8
1
  6
Continuous
100
AcDbLine
 10
392.484461
 20
260.3070329999998
 30
0.0
 11
391.484461
 21
260.3070329999998
 31
0.0
  0
LINE
  5
4F30
330
4EDA
100
AcDbEntity
  8
1
  6
Continuous
100
AcDbLine
 10
392.484461
 20
278.307033
 30
0.0
 11
391.484461
 21
278.307033
 31
0.0
  0
ARC
  5
4F31
330
4EDA
100
AcDbEntity
  8
1
  6
Continuous
100
AcDbCircle
 10
114.091577
 20
269.3070329999998
 30
0.0
 40
24.0
100
AcDbArc
 50
301.302234
 51
238.6977659999999
  0
LINE
  5
4F32
330
4EDA
100
AcDbEntity
  8
1
  6
Continuous
100
AcDbLine
 10
98.091577
 20
286.277596
 30
0.0
 11
98.091577
 21
252.33647
 31
0.0
  0
LINE
  5
4F33
330
4EDA
100
AcDbEntity
  8
1
  6
Continuous
100
AcDbLine
 10
130.091577
 20
286.277596
 30
0.0
 11
130.091577
 21
252.33647
 31
0.0
  0
ARC
  5
4F34
330
4EDA
100
AcDbEntity
  8
1
  6
Continuous
100
AcDbCircle
 10
100.0915769999999
 20
286.277596
 30
0.0
 40
2.0
100
AcDbArc
 50
129.521196
 51
180.0
  0
ARC
  5
4F35
330
4EDA
100
AcDbEntity
  8
1
  6
Continuous
100
AcDbCircle
 10
100.0915769999999
 20
252.33647
 30
0.0
 40
2.0
100
AcDbArc
 50
180.0
 51
230.478804
  0
ARC
  5
4F36
330
4EDA
100
AcDbEntity
  8
1
  6
Continuous
100
AcDbCircle
 10
128.091577
 20
252.33647
 30
0.0
 40
2.0
100
AcDbArc
 50
309.5211959999998
 51
0.0
  0
ARC
  5
4F37
330
4EDA
100
AcDbEntity
  8
1
  6
Continuous
100
AcDbCircle
 10
128.091577
 20
286.277596
 30
0.0
 40
2.0
100
AcDbArc
 50
0.0
 51
50.478804
  0
LINE
  5
4F38
330
4EDA
100
AcDbEntity
  8
1
  6
Continuous
100
AcDbLine
 10
129.7374299999999
 20
286.4078839999999
 30
0.0
 11
126.591577
 21
279.4109
 31
0.0
  0
LINE
  5
4F39
330
4EDA
100
AcDbEntity
  8
1
  6
Continuous
100
AcDbLine
 10
98.33494399999999
 20
286.6542819999999
 30
0.0
 11
101.591577
 21
279.4109
 31
0.0
  0
LINE
  5
4F3A
330
4EDA
100
AcDbEntity
  8
1
  6
Continuous
100
AcDbLine
 10
101.591577
 20
259.2031659999999
 30
0.0
 11
98.306119
 21
251.8956719999999
 31
0.0
  0
LINE
  5
4F3B
330
4EDA
100
AcDbEntity
  8
1
  6
Continuous
100
AcDbLine
 10
126.591577
 20
259.2031659999999
 30
0.0
 11
129.847565
 21
251.96122
 31
0.0
  0
CIRCLE
  5
4F3C
330
4EDA
100
AcDbEntity
  8
1
  6
Continuous
100
AcDbCircle
 10
505.708071
 20
269.3070329999998
 30
0.0
 40
24.0
  0
LINE
  5
4F3D
330
4EDA
100
AcDbEntity
  8
4
  6
CENTER
100
AcDbLine
 10
534.708071
 20
269.3070329999998
 30
0.0
 11
476.708071
 21
269.3070329999998
 31
0.0
  0
ARC
  5
4F3E
330
4EDA
100
AcDbEntity
  8
1
  6
Continuous
100
AcDbCircle
 10
505.708071
 20
269.3070329999998
 30
0.0
 40
11.0
100
AcDbArc
 50
117.5801989999998
 51
242.419801
  0
ARC
  5
4F3F
330
4EDA
100
AcDbEntity
  8
2
  6
Continuous
100
AcDbCircle
 10
505.708071
 20
269.3070329999998
 30
0.0
 40
10.18799999999999
100
AcDbArc
 50
106.8615909999999
 51
253.1384089999999
  0
ARC
  5
4F40
330
4EDA
100
AcDbEntity
  8
1
  6
Continuous
100
AcDbCircle
 10
505.708071
 20
269.3070329999998
 30
0.0
 40
11.0
100
AcDbArc
 50
297.5801989999999
 51
62.419801
  0
ARC
  5
4F41
330
4EDA
100
AcDbEntity
  8
2
  6
Continuous
100
AcDbCircle
 10
505.708071
 20
269.3070329999998
 30
0.0
 40
10.18799999999999
100
AcDbArc
 50
286.8615909999999
 51
73.13840899999998
  0
LINE
  5
4F42
330
4EDA
100
AcDbEntity
  8
1
  6
Continuous
100
AcDbLine
 10
510.800958
 20
259.557033
 30
0.0
 11
500.615183
 21
259.557033
 31
0.0
  0
LINE
  5
4F43
330
4EDA
100
AcDbEntity
  8
1
  6
Continuous
100
AcDbLine
 10
510.800958
 20
279.0570329999998
 30
0.0
 11
500.615183
 21
279.0570329999998
 31
0.0
  0
CIRCLE
  5
4F44
330
4EDA
100
AcDbEntity
  8
1
  6
Continuous
100
AcDbCircle
 10
505.708071
 20
269.3070329999998
 30
0.0
 40
9.5
  0
ARC
  5
4F45
330
4EDA
100
AcDbEntity
  8
1
  6
Continuous
100
AcDbCircle
 10
505.708071
 20
253.307033
 30
0.0
 40
3.5
100
AcDbArc
 50
170.4059319999998
 51
9.594068
  0
ARC
  5
4F46
330
4EDA
100
AcDbEntity
  8
1
  6
Continuous
100
AcDbCircle
 10
505.708071
 20
285.3070329999998
 30
0.0
 40
3.5
100
AcDbArc
 50
350.405932
 51
189.5940679999999
  0
ARC
  5
4F47
330
4EDA
100
AcDbEntity
  8
1
  6
Continuous
100
AcDbCircle
 10
502.7500309999998
 20
284.807033
 30
0.0
 40
0.5
100
AcDbArc
 50
189.5940679999999
 51
198.745207
  0
ARC
  5
4F48
330
4EDA
100
AcDbEntity
  8
1
  6
Continuous
100
AcDbCircle
 10
508.666111
 20
284.807033
 30
0.0
 40
0.5
100
AcDbArc
 50
341.254793
 51
350.405932
  0
ARC
  5
4F49
330
4EDA
100
AcDbEntity
  8
1
  6
Continuous
100
AcDbCircle
 10
502.7500309999998
 20
253.807033
 30
0.0
 40
0.5
100
AcDbArc
 50
161.254793
 51
170.4059319999998
  0
ARC
  5
4F4A
330
4EDA
100
AcDbEntity
  8
1
  6
Continuous
100
AcDbCircle
 10
508.666111
 20
253.807033
 30
0.0
 40
0.5
100
AcDbArc
 50
9.594068
 51
18.745207
  0
LINE
  5
4F4B
330
4EDA
100
AcDbEntity
  8
1
  6
Continuous
100
AcDbLine
 10
502.208071
 20
286.5070329999999
 30
0.0
 11
502.208071
 21
284.6068149999999
 31
0.0
  0
LINE
  5
4F4C
330
4EDA
100
AcDbEntity
  8
1
  6
Continuous
100
AcDbLine
 10
509.208071
 20
286.5070329999999
 30
0.0
 11
509.208071
 21
284.6068149999999
 31
0.0
  0
LINE
  5
4F4D
330
4EDA
100
AcDbEntity
  8
1
  6
Continuous
100
AcDbLine
 10
502.208071
 20
252.107033
 30
0.0
 11
502.208071
 21
254.0072509999999
 31
0.0
  0
LINE
  5
4F4E
330
4EDA
100
AcDbEntity
  8
1
  6
Continuous
100
AcDbLine
 10
509.208071
 20
252.107033
 30
0.0
 11
509.208071
 21
254.0072509999999
 31
0.0
  0
ARC
  5
4F4F
330
4EDA
100
AcDbEntity
  8
1
  6
Continuous
100
AcDbCircle
 10
505.708071
 20
269.3070329999998
 30
0.0
 40
16.12829999999998
100
AcDbArc
 50
256.737637
 51
257.4665319999999
  0
ARC
  5
4F50
330
4EDA
100
AcDbEntity
  8
1
  6
Continuous
100
AcDbCircle
 10
505.708071
 20
269.3070329999998
 30
0.0
 40
16.12829999999998
100
AcDbArc
 50
282.533468
 51
283.262363
  0
ARC
  5
4F51
330
4EDA
100
AcDbEntity
  8
1
  6
Continuous
100
AcDbCircle
 10
505.708071
 20
269.3070329999998
 30
0.0
 40
16.12829999999998
100
AcDbArc
 50
102.533468
 51
103.262363
  0
ARC
  5
4F52
330
4EDA
100
AcDbEntity
  8
1
  6
Continuous
100
AcDbCircle
 10
505.708071
 20
269.3070329999998
 30
0.0
 40
16.12829999999998
100
AcDbArc
 50
76.73763700000002
 51
77.466532
  0
LINE
  5
4F53
330
4EDA
100
AcDbEntity
  8
1
  6
Continuous
100
AcDbLine
 10
520.708071
 20
260.6467789999999
 30
0.0
 11
520.708071
 21
277.967287
 31
0.0
  0
LINE
  5
4F54
330
4EDA
100
AcDbEntity
  8
1
  6
Continuous
100
AcDbLine
 10
490.708071
 20
260.6467789999999
 30
0.0
 11
490.708071
 21
277.967287
 31
0.0
  0
LINE
  5
4F55
330
4EDA
100
AcDbEntity
  8
1
  6
Continuous
100
AcDbLine
 10
505.708071
 20
286.627541
 30
0.0
 11
490.708071
 21
277.967287
 31
0.0
  0
LINE
  5
4F56
330
4EDA
100
AcDbEntity
  8
1
  6
Continuous
100
AcDbLine
 10
520.708071
 20
260.6467789999999
 30
0.0
 11
505.708071
 21
251.986525
 31
0.0
  0
LINE
  5
4F57
330
4EDA
100
AcDbEntity
  8
1
  6
Continuous
100
AcDbLine
 10
490.708071
 20
260.6467789999999
 30
0.0
 11
505.708071
 21
251.986525
 31
0.0
  0
LINE
  5
4F58
330
4EDA
100
AcDbEntity
  8
1
  6
Continuous
100
AcDbLine
 10
505.708071
 20
286.627541
 30
0.0
 11
520.708071
 21
277.967287
 31
0.0
  0
CIRCLE
  5
4F59
330
4EDA
100
AcDbEntity
  8
1
  6
Continuous
100
AcDbCircle
 10
505.708071
 20
269.3070329999998
 30
0.0
 40
14.0
  0
LINE
  5
4F5A
330
4EDA
100
AcDbEntity
  8
1
  6
Continuous
100
AcDbLine
 10
492.9507199999997
 20
266.8070329999998
 30
0.0
 11
494.688089
 21
266.8070329999998
 31
0.0
  0
LINE
  5
4F5B
330
4EDA
100
AcDbEntity
  8
1
  6
Continuous
100
AcDbLine
 10
492.9507199999997
 20
271.8070329999998
 30
0.0
 11
494.688089
 21
271.8070329999998
 31
0.0
  0
LINE
  5
4F5C
330
4EDA
100
AcDbEntity
  8
1
  6
Continuous
100
AcDbLine
 10
516.27642
 20
265.3070329999998
 30
0.0
 11
518.077388
 21
265.3070329999998
 31
0.0
  0
LINE
  5
4F5D
330
4EDA
100
AcDbEntity
  8
1
  6
Continuous
100
AcDbLine
 10
516.27642
 20
273.3070329999998
 30
0.0
 11
518.077388
 21
273.3070329999998
 31
0.0
  0
ARC
  5
4F5E
330
4EDA
100
AcDbEntity
  8
1
  6
Continuous
100
AcDbCircle
 10
505.708071
 20
269.3070329999998
 30
0.0
 40
13.0
100
AcDbArc
 50
342.079787
 51
17.920213
  0
ARC
  5
4F5F
330
4EDA
100
AcDbEntity
  8
1
  6
Continuous
100
AcDbCircle
 10
505.708071
 20
269.3070329999998
 30
0.0
 40
13.0
100
AcDbArc
 50
168.9125109999999
 51
191.087489
  0
ARC
  5
4F60
330
4EDA
100
AcDbEntity
  8
1
  6
Continuous
100
AcDbCircle
 10
505.708071
 20
269.3070329999998
 30
0.0
 40
11.3
100
AcDbArc
 50
339.2689149999998
 51
20.731085
  0
ARC
  5
4F61
330
4EDA
100
AcDbEntity
  8
1
  6
Continuous
100
AcDbCircle
 10
505.708071
 20
269.3070329999998
 30
0.0
 40
11.3
100
AcDbArc
 50
167.218188
 51
192.7818119999997
  0
ARC
  5
4F62
330
4EDA
100
AcDbEntity
  8
1
  6
Continuous
100
AcDbCircle
 10
505.708071
 20
269.3070329999998
 30
0.0
 40
11.5
100
AcDbArc
 50
192.555858
 51
339.645594
  0
ARC
  5
4F63
330
4EDA
100
AcDbEntity
  8
1
  6
Continuous
100
AcDbCircle
 10
505.708071
 20
269.3070329999998
 30
0.0
 40
11.5
100
AcDbArc
 50
20.354406
 51
167.4441419999999
  0
ARC
  5
4F64
330
4EDA
100
AcDbEntity
  8
1
  6
Continuous
100
AcDbCircle
 10
318.208071
 20
252.3070329999999
 30
0.0
 40
200.0
100
AcDbArc
 50
356.258952
 51
358.9954029999997
  0
LINE
  5
4F65
330
4EDA
100
AcDbEntity
  8
1
  6
Continuous
100
AcDbLine
 10
517.7818969999998
 20
239.2575879999998
 30
0.0
 11
513.3767749999998
 21
171.887136
 31
0.0
  0
LINE
  5
4F66
330
4EDA
100
AcDbEntity
  8
1
  6
Continuous
100
AcDbLine
 10
493.634245
 20
239.2575879999998
 30
0.0
 11
498.0393669999998
 21
171.887136
 31
0.0
  0
ARC
  5
4F67
330
4EDA
100
AcDbEntity
  8
1
  6
Continuous
100
AcDbCircle
 10
693.208071
 20
252.3070329999999
 30
0.0
 40
200.0
100
AcDbArc
 50
181.0045969999999
 51
183.741048
  0
LINE
  5
4F68
330
4EDA
100
AcDbEntity
  8
1
  6
Continuous
100
AcDbLine
 10
496.1289179999998
 20
239.4207059999998
 30
0.0
 11
499.5639449999997
 21
186.886556
 31
0.0
  0
LINE
  5
4F69
330
4EDA
100
AcDbEntity
  8
1
  6
Continuous
100
AcDbLine
 10
515.287224
 20
239.4207059999998
 30
0.0
 11
511.8521969999997
 21
186.886556
 31
0.0
  0
ARC
  5
4F6A
330
4EDA
100
AcDbEntity
  8
1
  6
Continuous
100
AcDbCircle
 10
693.208071
 20
252.3070329999999
 30
0.0
 40
197.5
100
AcDbArc
 50
181.405574
 51
183.741048
  0
ARC
  5
4F6B
330
4EDA
100
AcDbEntity
  8
1
  6
Continuous
100
AcDbCircle
 10
318.208071
 20
252.3070329999999
 30
0.0
 40
197.5
100
AcDbArc
 50
356.258952
 51
358.594426
  0
ARC
  5
4F6C
330
4EDA
100
AcDbEntity
  8
1
  6
Continuous
100
AcDbCircle
 10
505.708071
 20
184.3070329999999
 30
0.0
 40
8.0
100
AcDbArc
 50
226.051292
 51
313.948708
  0
LINE
  5
4F6D
330
4EDA
100
AcDbEntity
  8
1
  6
Continuous
100
AcDbLine
 10
502.0586179999998
 20
184.549674
 30
0.0
 11
509.3575239999998
 21
184.549674
 31
0.0
  0
ARC
  5
4F6E
330
4EDA
100
AcDbEntity
  8
1
  6
Continuous
100
AcDbCircle
 10
502.0586179999998
 20
187.049674
 30
0.0
 40
2.5
100
AcDbArc
 50
183.741048
 51
270.0
  0
ARC
  5
4F6F
330
4EDA
100
AcDbEntity
  8
1
  6
Continuous
100
AcDbCircle
 10
509.3575239999998
 20
187.049674
 30
0.0
 40
2.5
100
AcDbArc
 50
270.0
 51
356.258952
  0
LINE
  5
4F70
330
4EDA
100
AcDbEntity
  8
1
  6
Continuous
100
AcDbLine
 10
498.4248799999998
 20
204.3070329999999
 30
0.0
 11
512.9912619999998
 21
204.3070329999999
 31
0.0
  0
LINE
  5
4F71
330
4EDA
100
AcDbEntity
  8
1
  6
Continuous
100
AcDbLine
 10
498.817199
 20
198.3070329999999
 30
0.0
 11
512.5989419999998
 21
198.3070329999999
 31
0.0
  0
LINE
  5
4F72
330
4EDA
100
AcDbEntity
  8
4
  6
CENTER
100
AcDbLine
 10
505.708071
 20
164.307033
 30
0.0
 11
505.708071
 21
298.3070329999998
 31
0.0
  0
ARC
  5
4F73
330
4EDA
100
AcDbEntity
  8
1
  6
Continuous
100
AcDbCircle
 10
500.0351049999999
 20
172.017631
 30
0.0
 40
2.0
100
AcDbArc
 50
183.741048
 51
255.720595
  0
ARC
  5
4F74
330
4EDA
100
AcDbEntity
  8
1
  6
Continuous
100
AcDbCircle
 10
505.708071
 20
194.3070329999999
 30
0.0
 40
25.0
100
AcDbArc
 50
255.720595
 51
284.279405
  0
ARC
  5
4F75
330
4EDA
100
AcDbEntity
  8
1
  6
Continuous
100
AcDbCircle
 10
511.381036
 20
172.017631
 30
0.0
 40
2.0
100
AcDbArc
 50
284.279405
 51
356.258952
  0
ARC
  5
4F76
330
4EDA
100
AcDbEntity
  8
1
  6
Continuous
100
AcDbCircle
 10
-73.408423
 20
252.3070329999999
 30
0.0
 40
200.0
100
AcDbArc
 50
356.258952
 51
0.0
  0
LINE
  5
4F77
330
4EDA
100
AcDbEntity
  8
5
  6
PHANTOM
100
AcDbLine
 10
146.152072
 20
264.7385509999998
 30
0.0
 11
202.294034
 21
227.238377
 31
0.0
  0
LINE
  5
4F78
330
4EDA
100
AcDbEntity
  8
5
  6
PHANTOM
100
AcDbLine
 10
134.078246
 20
243.8260709999999
 30
0.0
 11
194.62533
 21
213.955792
 31
0.0
  0
ARC
  5
4F79
330
4EDA
100
AcDbEntity
  8
1
  6
Continuous
100
AcDbCircle
 10
301.5915769999998
 20
252.3070329999999
 30
0.0
 40
200.0
100
AcDbArc
 50
180.0
 51
183.741048
  0
ARC
  5
4F7A
330
4EDA
100
AcDbEntity
  8
5
  6
PHANTOM
100
AcDbCircle
 10
179.043482
 20
231.8070329999999
 30
0.0
 40
25.0
100
AcDbArc
 50
315.720595
 51
344.2794049999998
  0
ARC
  5
4F7B
330
4EDA
100
AcDbEntity
  8
5
  6
PHANTOM
100
AcDbCircle
 10
201.183153
 20
225.575265
 30
0.0
 40
2.0
100
AcDbArc
 50
344.2794049999998
 51
56.258952
  0
ARC
  5
4F7C
330
4EDA
100
AcDbEntity
  8
5
  6
PHANTOM
100
AcDbCircle
 10
195.510187
 20
215.7494
 30
0.0
 40
2.0
100
AcDbArc
 50
243.741048
 51
315.720595
  0
LINE
  5
4F7D
330
4EDA
100
AcDbEntity
  8
1
  6
Continuous
100
AcDbLine
 10
101.591577
 20
252.3070329999999
 30
0.0
 11
101.591577
 21
281.639648
 31
0.0
  0
LINE
  5
4F7E
330
4EDA
100
AcDbEntity
  8
1
  6
Continuous
100
AcDbLine
 10
126.591577
 20
252.3070329999999
 30
0.0
 11
126.591577
 21
281.639648
 31
0.0
  0
ARC
  5
4F7F
330
4EDA
100
AcDbEntity
  8
1
  6
Continuous
100
AcDbCircle
 10
114.091577
 20
262.307033
 30
0.0
 40
24.0
100
AcDbArc
 50
61.49256900000001
 51
118.507431
  0
ARC
  5
4F80
330
4EDA
100
AcDbEntity
  8
1
  6
Continuous
100
AcDbCircle
 10
103.591577
 20
281.639648
 30
0.0
 40
2.0
100
AcDbArc
 50
118.507431
 51
180.0
  0
ARC
  5
4F81
330
4EDA
100
AcDbEntity
  8
1
  6
Continuous
100
AcDbCircle
 10
124.591577
 20
281.639648
 30
0.0
 40
2.0
100
AcDbArc
 50
0.0
 51
61.49256900000001
  0
LINE
  5
4F82
330
4EDA
100
AcDbEntity
  8
1
  6
Continuous
100
AcDbLine
 10
372.5216819999998
 20
412.6140659999999
 30
0.0
 11
372.5216819999998
 21
382.614066
 31
0.0
  0
LINE
  5
4F83
330
4EDA
100
AcDbEntity
  8
1
  6
Continuous
100
AcDbLine
 10
376.521682
 20
412.6140659999999
 30
0.0
 11
376.521682
 21
382.614066
 31
0.0
  0
LINE
  5
4F84
330
4EDA
100
AcDbEntity
  8
1
  6
Continuous
100
AcDbLine
 10
378.021682
 20
411.614066
 30
0.0
 11
378.021682
 21
383.6140659999998
 31
0.0
  0
LINE
  5
4F85
330
4EDA
100
AcDbEntity
  8
1
  6
Continuous
100
AcDbLine
 10
371.0216819999998
 20
411.614066
 30
0.0
 11
371.0216819999998
 21
383.6140659999998
 31
0.0
  0
LINE
  5
4F86
330
4EDA
100
AcDbEntity
  8
1
  6
Continuous
100
AcDbLine
 10
371.0216819999998
 20
411.614066
 30
0.0
 11
372.5216819999998
 21
411.614066
 31
0.0
  0
LINE
  5
4F87
330
4EDA
100
AcDbEntity
  8
1
  6
Continuous
100
AcDbLine
 10
371.0216819999998
 20
383.6140659999998
 30
0.0
 11
372.5216819999998
 21
383.6140659999998
 31
0.0
  0
LINE
  5
4F88
330
4EDA
100
AcDbEntity
  8
1
  6
Continuous
100
AcDbLine
 10
376.521682
 20
383.6140659999998
 30
0.0
 11
378.021682
 21
383.6140659999998
 31
0.0
  0
LINE
  5
4F89
330
4EDA
100
AcDbEntity
  8
1
  6
Continuous
100
AcDbLine
 10
376.521682
 20
411.614066
 30
0.0
 11
378.021682
 21
411.614066
 31
0.0
  0
LINE
  5
4F8A
330
4EDA
100
AcDbEntity
  8
4
  6
CENTER
100
AcDbLine
 10
364.5216819999998
 20
397.614066
 30
0.0
 11
418.3039359999998
 21
397.614066
 31
0.0
  0
LINE
  5
4F8B
330
4EDA
100
AcDbEntity
  8
1
  6
Continuous
100
AcDbLine
 10
372.5216819999998
 20
412.6140659999999
 30
0.0
 11
376.521682
 21
412.6140659999999
 31
0.0
  0
LINE
  5
4F8C
330
4EDA
100
AcDbEntity
  8
1
  6
Continuous
100
AcDbLine
 10
372.5216819999998
 20
382.614066
 30
0.0
 11
376.521682
 21
382.614066
 31
0.0
  0
LINE
  5
4F8D
330
4EDA
100
AcDbEntity
  8
1
  6
Continuous
100
AcDbLine
 10
373.1426819999999
 20
397.614066
 30
0.0
 11
375.899682
 21
397.614066
 31
0.0
  0
LINE
  5
4F8E
330
4EDA
100
AcDbEntity
  8
4
  6
CENTER
100
AcDbLine
 10
364.5216819999998
 20
269.3070329999998
 30
0.0
 11
418.3039359999998
 21
269.3070329999998
 31
0.0
  0
LINE
  5
4F8F
330
4EDA
100
AcDbEntity
  8
1
  6
Continuous
100
AcDbLine
 10
372.5216819999998
 20
284.3070329999998
 30
0.0
 11
372.5216819999998
 21
254.3070329999999
 31
0.0
  0
LINE
  5
4F90
330
4EDA
100
AcDbEntity
  8
1
  6
Continuous
100
AcDbLine
 10
376.521682
 20
284.3070329999998
 30
0.0
 11
376.521682
 21
254.3070329999999
 31
0.0
  0
LINE
  5
4F91
330
4EDA
100
AcDbEntity
  8
1
  6
Continuous
100
AcDbLine
 10
378.021682
 20
283.3070329999998
 30
0.0
 11
378.021682
 21
255.307033
 31
0.0
  0
LINE
  5
4F92
330
4EDA
100
AcDbEntity
  8
1
  6
Continuous
100
AcDbLine
 10
371.0216819999998
 20
283.3070329999998
 30
0.0
 11
371.0216819999998
 21
255.307033
 31
0.0
  0
LINE
  5
4F93
330
4EDA
100
AcDbEntity
  8
1
  6
Continuous
100
AcDbLine
 10
371.0216819999998
 20
283.3070329999998
 30
0.0
 11
372.5216819999998
 21
283.3070329999998
 31
0.0
  0
LINE
  5
4F94
330
4EDA
100
AcDbEntity
  8
1
  6
Continuous
100
AcDbLine
 10
371.0216819999998
 20
255.307033
 30
0.0
 11
372.5216819999998
 21
255.307033
 31
0.0
  0
LINE
  5
4F95
330
4EDA
100
AcDbEntity
  8
1
  6
Continuous
100
AcDbLine
 10
376.521682
 20
255.307033
 30
0.0
 11
378.021682
 21
255.307033
 31
0.0
  0
LINE
  5
4F96
330
4EDA
100
AcDbEntity
  8
1
  6
Continuous
100
AcDbLine
 10
376.521682
 20
283.3070329999998
 30
0.0
 11
378.021682
 21
283.3070329999998
 31
0.0
  0
LINE
  5
4F97
330
4EDA
100
AcDbEntity
  8
1
  6
Continuous
100
AcDbLine
 10
373.1426819999999
 20
286.628033
 30
0.0
 11
375.899682
 21
286.628033
 31
0.0
  0
LINE
  5
4F98
330
4EDA
100
AcDbEntity
  8
1
  6
Continuous
100
AcDbLine
 10
373.1426819999999
 20
260.647033
 30
0.0
 11
375.899682
 21
260.647033
 31
0.0
  0
LINE
  5
4F99
330
4EDA
100
AcDbEntity
  8
1
  6
Continuous
100
AcDbLine
 10
373.1426819999999
 20
277.967033
 30
0.0
 11
375.899682
 21
277.967033
 31
0.0
  0
LINE
  5
4F9A
330
4EDA
100
AcDbEntity
  8
1
  6
Continuous
100
AcDbLine
 10
376.521682
 20
284.3070329999998
 30
0.0
 11
375.899682
 21
286.628033
 31
0.0
  0
LINE
  5
4F9B
330
4EDA
100
AcDbEntity
  8
1
  6
Continuous
100
AcDbLine
 10
373.1436819999998
 20
251.9870329999999
 30
0.0
 11
372.5216819999998
 21
254.3070329999999
 31
0.0
  0
LINE
  5
4F9C
330
4EDA
100
AcDbEntity
  8
1
  6
Continuous
100
AcDbLine
 10
375.899682
 20
251.9870329999999
 30
0.0
 11
376.521682
 21
254.3070329999999
 31
0.0
  0
LINE
  5
4F9D
330
4EDA
100
AcDbEntity
  8
1
  6
Continuous
100
AcDbLine
 10
372.5216819999998
 20
284.3070329999998
 30
0.0
 11
373.1426819999999
 21
286.628033
 31
0.0
  0
LINE
  5
4F9E
330
4EDA
100
AcDbEntity
  8
1
  6
Continuous
100
AcDbLine
 10
373.1436819999998
 20
251.9870329999999
 30
0.0
 11
375.899682
 21
251.9870329999999
 31
0.0
  0
ARC
  5
4F9F
330
4EDA
100
AcDbEntity
  8
1
  6
Continuous
100
AcDbCircle
 10
418.065682
 20
405.1140659999998
 30
0.0
 40
45.54429999999999
100
AcDbArc
 50
170.5219999999999
 51
189.4779999999999
  0
ARC
  5
4FA0
330
4EDA
100
AcDbEntity
  8
1
  6
Continuous
100
AcDbCircle
 10
418.065682
 20
390.1140659999999
 30
0.0
 40
45.54429999999999
100
AcDbArc
 50
170.5219999999999
 51
189.4779999999999
  0
ARC
  5
4FA1
330
4EDA
100
AcDbEntity
  8
1
  6
Continuous
100
AcDbCircle
 10
330.976682
 20
405.1140659999998
 30
0.0
 40
45.54429999999999
100
AcDbArc
 50
350.522
 51
9.47835
  0
ARC
  5
4FA2
330
4EDA
100
AcDbEntity
  8
1
  6
Continuous
100
AcDbCircle
 10
330.976682
 20
390.1140659999999
 30
0.0
 40
45.54429999999999
100
AcDbArc
 50
350.522
 51
9.47835
  0
ARC
  5
4FA3
330
4EDA
100
AcDbEntity
  8
1
  6
Continuous
100
AcDbCircle
 10
387.909682
 20
282.2980329999999
 30
0.0
 40
15.3887
100
AcDbArc
 50
163.657
 51
196.3429999999999
  0
ARC
  5
4FA4
330
4EDA
100
AcDbEntity
  8
1
  6
Continuous
100
AcDbCircle
 10
433.143682
 20
269.3070329999998
 30
0.0
 40
60.62219999999999
100
AcDbArc
 50
171.787
 51
188.213
  0
ARC
  5
4FA5
330
4EDA
100
AcDbEntity
  8
1
  6
Continuous
100
AcDbCircle
 10
387.909682
 20
256.3170329999999
 30
0.0
 40
15.3886
100
AcDbArc
 50
163.657
 51
196.3429999999999
  0
ARC
  5
4FA6
330
4EDA
100
AcDbEntity
  8
1
  6
Continuous
100
AcDbCircle
 10
361.1326819999999
 20
282.2980329999999
 30
0.0
 40
15.3887
100
AcDbArc
 50
343.6569999999999
 51
16.3428
  0
ARC
  5
4FA7
330
4EDA
100
AcDbEntity
  8
1
  6
Continuous
100
AcDbCircle
 10
315.8986819999999
 20
269.3070329999998
 30
0.0
 40
60.62219999999999
100
AcDbArc
 50
351.7869999999998
 51
8.21316
  0
ARC
  5
4FA8
330
4EDA
100
AcDbEntity
  8
1
  6
Continuous
100
AcDbCircle
 10
361.1326819999999
 20
256.3170329999999
 30
0.0
 40
15.3886
100
AcDbArc
 50
343.6569999999999
 51
16.3429
  0
ARC
  5
4FA9
330
4EDA
100
AcDbEntity
  8
1
  6
Continuous
100
AcDbCircle
 10
504.481271
 20
212.1048609999999
 30
0.0
 40
0.5616
100
AcDbArc
 50
227.181793
 51
90.0
  0
LINE
  5
4FAA
330
4EDA
100
AcDbEntity
  8
1
  6
Continuous
100
AcDbLine
 10
503.053871
 20
212.635261
 30
0.0
 11
503.053871
 21
211.4808609999998
 31
0.0
  0
LINE
  5
4FAB
330
4EDA
100
AcDbEntity
  8
1
  6
Continuous
100
AcDbLine
 10
504.0990709999999
 20
211.6914609999998
 30
0.0
 11
503.0460709999998
 21
212.635261
 31
0.0
  0
ARC
  5
4FAC
330
4EDA
100
AcDbEntity
  8
1
  6
Continuous
100
AcDbCircle
 10
406.0829359999996
 20
400.1140659999999
 30
0.0
 40
7.220389999999997
100
AcDbArc
 50
339.7423999999999
 51
20.25799999999998
  0
LINE
  5
4FAD
330
4EDA
100
AcDbEntity
  8
1
  6
Continuous
100
AcDbLine
 10
413.3039359999997
 20
392.6140659999999
 30
0.0
 11
413.3039359999997
 21
402.614066
 31
0.0
  0
LINE
  5
4FAE
330
4EDA
100
AcDbEntity
  8
1
  6
Continuous
100
AcDbLine
 10
413.3039359999997
 20
402.614066
 30
0.0
 11
409.3039359999997
 21
402.614066
 31
0.0
  0
ARC
  5
4FAF
330
4EDA
100
AcDbEntity
  8
1
  6
Continuous
100
AcDbCircle
 10
406.0829359999996
 20
395.114066
 30
0.0
 40
7.220389999999997
100
AcDbArc
 50
339.7423999999999
 51
20.25799999999998
  0
LINE
  5
4FB0
330
4EDA
100
AcDbEntity
  8
1
  6
Continuous
100
AcDbLine
 10
412.7579359999998
 20
397.614066
 30
0.0
 11
409.3039359999997
 21
397.614066
 31
0.0
  0
LINE
  5
4FB1
330
4EDA
100
AcDbEntity
  8
1
  6
Continuous
100
AcDbLine
 10
413.3039359999997
 20
392.6140659999999
 30
0.0
 11
409.3039359999997
 21
392.6140659999999
 31
0.0
  0
LINE
  5
4FB2
330
4EDA
100
AcDbEntity
  8
1
  6
Continuous
100
AcDbLine
 10
407.803936
 20
269.3070329999998
 30
0.0
 11
409.3039359999997
 21
270.8070329999998
 31
0.0
  0
LINE
  5
4FB3
330
4EDA
100
AcDbEntity
  8
1
  6
Continuous
100
AcDbLine
 10
407.803936
 20
267.807033
 30
0.0
 11
409.3039359999997
 21
269.3070329999998
 31
0.0
  0
ARC
  5
4FB4
330
4EDA
100
AcDbEntity
  8
1
  6
Continuous
100
AcDbCircle
 10
507.380804
 20
237.161714
 30
0.0
 40
1.145318999999998
100
AcDbArc
 50
35.5377
 51
76.5374
  0
ARC
  5
4FB5
330
4EDA
100
AcDbEntity
  8
1
  6
Continuous
100
AcDbCircle
 10
507.380804
 20
237.161714
 30
0.0
 40
1.145318999999998
100
AcDbArc
 50
90.0
 51
144.462
  0
ARC
  5
4FB6
330
4EDA
100
AcDbEntity
  8
1
  6
Continuous
100
AcDbCircle
 10
504.387204
 20
215.1279469999999
 30
0.0
 40
0.666667
100
AcDbArc
 50
270.0
 51
57.37477900000001
  0
LINE
  5
4FB7
330
4EDA
100
AcDbEntity
  8
1
  6
Continuous
100
AcDbLine
 10
504.2687759999998
 20
215.557756
 30
0.0
 11
503.8389659999999
 21
214.698137
 31
0.0
  0
ARC
  5
4FB8
330
4EDA
100
AcDbEntity
  8
1
  6
Continuous
100
AcDbCircle
 10
503.7205379999998
 20
215.1279469999999
 30
0.0
 40
0.666667
100
AcDbArc
 50
90.0
 51
237.3747789999999
  0
LINE
  5
4FB9
330
4EDA
100
AcDbEntity
  8
1
  6
Continuous
100
AcDbLine
 10
507.312404
 20
216.07384
 30
0.0
 11
508.374404
 21
216.6850879999997
 31
0.0
  0
ARC
  5
4FBA
330
4EDA
100
AcDbEntity
  8
1
  6
Continuous
100
AcDbCircle
 10
503.5408239999998
 20
214.8472079999999
 30
0.0
 40
0.333333
100
AcDbArc
 50
237.3747789999999
 51
333.434949
  0
LINE
  5
4FBB
330
4EDA
100
AcDbEntity
  8
1
  6
Continuous
100
AcDbLine
 10
508.417282
 20
208.3070329999999
 30
0.0
 11
509.0270819999998
 21
208.3070329999999
 31
0.0
  0
LINE
  5
4FBC
330
4EDA
100
AcDbEntity
  8
1
  6
Continuous
100
AcDbLine
 10
508.417282
 20
207.3070329999999
 30
0.0
 11
509.0270819999998
 21
207.3070329999999
 31
0.0
  0
ARC
  5
4FBD
330
4EDA
100
AcDbEntity
  8
1
  6
Continuous
100
AcDbCircle
 10
509.0270819999998
 20
207.807033
 30
0.0
 40
0.5
100
AcDbArc
 50
270.0
 51
90.0
  0
ARC
  5
4FBE
330
4EDA
100
AcDbEntity
  8
1
  6
Continuous
100
AcDbCircle
 10
503.178716
 20
207.807033
 30
0.0
 40
0.5
100
AcDbArc
 50
270.0
 51
90.0
  0
LINE
  5
4FBF
330
4EDA
100
AcDbEntity
  8
1
  6
Continuous
100
AcDbLine
 10
502.5689159999997
 20
207.3070329999999
 30
0.0
 11
503.178716
 21
207.3070329999999
 31
0.0
  0
LINE
  5
4FC0
330
4EDA
100
AcDbEntity
  8
1
  6
Continuous
100
AcDbLine
 10
505.4398429999998
 20
208.3070329999999
 30
0.0
 11
507.014818
 21
208.3070329999999
 31
0.0
  0
LINE
  5
4FC1
330
4EDA
100
AcDbEntity
  8
1
  6
Continuous
100
AcDbLine
 10
502.5689159999997
 20
208.3070329999999
 30
0.0
 11
503.178716
 21
208.3070329999999
 31
0.0
  0
LINE
  5
4FC2
330
4EDA
100
AcDbEntity
  8
1
  6
Continuous
100
AcDbLine
 10
502.5689159999997
 20
208.3070329999999
 30
0.0
 11
502.5689159999997
 21
206.3070329999999
 31
0.0
  0
LINE
  5
4FC3
330
4EDA
100
AcDbEntity
  8
1
  6
Continuous
100
AcDbLine
 10
504.0815109999998
 20
206.9122329999999
 30
0.0
 11
505.135011
 21
206.9122329999999
 31
0.0
  0
LINE
  5
4FC4
330
4EDA
100
AcDbEntity
  8
1
  6
Continuous
100
AcDbLine
 10
504.617011
 20
208.3087879999999
 30
0.0
 11
505.356861
 21
206.308783
 31
0.0
  0
LINE
  5
4FC5
330
4EDA
100
AcDbEntity
  8
1
  6
Continuous
100
AcDbLine
 10
504.617011
 20
208.3052729999999
 30
0.0
 11
503.841711
 21
206.308783
 31
0.0
  0
LINE
  5
4FC6
330
4EDA
100
AcDbEntity
  8
1
  6
Continuous
100
AcDbLine
 10
506.2238479999998
 20
208.3070329999999
 30
0.0
 11
506.2238479999998
 21
206.3070329999999
 31
0.0
  0
CIRCLE
  5
4FC7
330
4EDA
100
AcDbEntity
  8
1
  6
Continuous
100
AcDbCircle
 10
507.6903459999998
 20
206.347033
 30
0.0
 40
0.04
  0
LINE
  5
4FC8
330
4EDA
100
AcDbEntity
  8
1
  6
Continuous
100
AcDbLine
 10
508.417282
 20
208.3070329999999
 30
0.0
 11
508.417282
 21
206.3070329999999
 31
0.0
  0
LINE
  5
4FC9
330
4EDA
100
AcDbEntity
  8
1
  6
Continuous
100
AcDbLine
 10
507.308804
 20
216.07384
 30
0.0
 11
506.3728039999999
 21
216.07384
 31
0.0
  0
LINE
  5
4FCA
330
4EDA
100
AcDbEntity
  8
1
  6
Continuous
100
AcDbLine
 10
507.308804
 20
216.07384
 30
0.0
 11
508.374404
 21
215.458609
 31
0.0
  0
LINE
  5
4FCB
330
4EDA
100
AcDbEntity
  8
1
  6
Continuous
100
AcDbLine
 10
508.410404
 20
214.3391419999999
 30
0.0
 11
506.380004
 21
215.127542
 31
0.0
  0
LINE
  5
4FCC
330
4EDA
100
AcDbEntity
  8
1
  6
Continuous
100
AcDbLine
 10
508.414004
 20
214.3391419999999
 30
0.0
 11
506.380004
 21
213.5867419999999
 31
0.0
  0
LINE
  5
4FCD
330
4EDA
100
AcDbEntity
  8
1
  6
Continuous
100
AcDbLine
 10
506.9776039999998
 20
214.8899419999999
 30
0.0
 11
506.9776039999998
 21
213.8063419999999
 31
0.0
  0
LINE
  5
4FCE
330
4EDA
100
AcDbEntity
  8
1
  6
Continuous
100
AcDbLine
 10
504.0071039999999
 20
214.029967
 30
0.0
 11
504.0071039999999
 21
213.33095
 31
0.0
  0
LINE
  5
4FCF
330
4EDA
100
AcDbEntity
  8
1
  6
Continuous
100
AcDbLine
 10
506.521232
 20
227.1424209999999
 30
0.0
 11
506.5883
 21
227.271445
 31
0.0
  0
LINE
  5
4FD0
330
4EDA
100
AcDbEntity
  8
1
  6
Continuous
100
AcDbLine
 10
508.3026559999996
 20
227.209993
 30
0.0
 11
508.357232
 21
227.076649
 31
0.0
  0
LINE
  5
4FD1
330
4EDA
100
AcDbEntity
  8
1
  6
Continuous
100
AcDbLine
 10
503.997071
 20
227.669183
 30
0.0
 11
503.997071
 21
226.380383
 31
0.0
  0
ARC
  5
4FD2
330
4EDA
100
AcDbEntity
  8
1
  6
Continuous
100
AcDbCircle
 10
504.5669179999999
 20
215.408685
 30
0.0
 40
0.333333
100
AcDbArc
 50
57.37477900000001
 51
153.4349489999998
  0
LWPOLYLINE
  5
4FD3
330
4EDA
100
AcDbEntity
  8
1
  6
Continuous
100
AcDbPolyline
 90
       10
 70
     0
 43
0.0
 10
504.5584419999998
 20
219.846296
 10
504.485828
 20
219.853091
 10
504.4154179999998
 20
219.873325
 10
504.349375
 20
219.9063279999998
 10
504.2896789999998
 20
219.9510909999999
 10
504.238122
 20
220.006344
 10
504.1963459999998
 20
220.070296
 10
504.1655079999999
 20
220.14108
 10
504.1466549999998
 20
220.216493
 10
504.140308
 20
220.294296
  0
LINE
  5
4FDF
330
4EDA
100
AcDbEntity
  8
1
  6
Continuous
100
AcDbLine
 10
504.140308
 20
220.286829
 30
0.0
 11
504.140308
 21
220.4734959999999
 31
0.0
  0
LWPOLYLINE
  5
4FE0
330
4EDA
100
AcDbEntity
  8
1
  6
Continuous
100
AcDbPolyline
 90
       10
 70
     0
 43
0.0
 10
503.535508
 20
219.8238959999999
 10
503.451247
 20
219.8313999999998
 10
503.369524
 20
219.8536129999999
 10
503.292842
 20
219.8899009999999
 10
503.2235509999998
 20
219.9391809999999
 10
503.1637059999998
 20
219.9999229999999
 10
503.1152099999998
 20
220.070296
 10
503.079444
 20
220.1481359999999
 10
503.057567
 20
220.2311279999999
 10
503.0501749999998
 20
220.316696
  0
LWPOLYLINE
  5
4FEC
330
4EDA
100
AcDbEntity
  8
1
  6
Continuous
100
AcDbPolyline
 90
       10
 70
     0
 43
0.0
 10
504.140308
 20
220.294296
 10
504.1311239999997
 20
220.212611
 10
504.103834
 20
220.133427
 10
504.059295
 20
220.0590959999999
 10
503.998815
 20
219.9919329999999
 10
503.9242599999998
 20
219.9339549999999
 10
503.837908
 20
219.8869149999999
 10
503.7423719999998
 20
219.852269
 10
503.6405269999998
 20
219.8310269999999
 10
503.535508
 20
219.8238959999999
  0
LWPOLYLINE
  5
4FF8
330
4EDA
100
AcDbEntity
  8
1
  6
Continuous
100
AcDbPolyline
 90
       10
 70
     0
 43
0.0
 10
505.0437749999998
 20
220.301763
 10
505.03642
 20
220.222691
 10
505.014506
 20
220.1459709999999
 10
504.97874
 20
220.074029
 10
504.9302439999998
 20
220.008995
 10
504.8703989999999
 20
219.952845
 10
504.801108
 20
219.9073359999999
 10
504.724426
 20
219.8737729999999
 10
504.642703
 20
219.8532029999999
 10
504.5584419999998
 20
219.846296
  0
LWPOLYLINE
  5
5004
330
4EDA
100
AcDbEntity
  8
1
  6
Continuous
100
AcDbPolyline
 90
       10
 70
     0
 43
0.0
 10
503.0501749999998
 20
220.316696
 10
503.057679
 20
220.406147
 10
503.0798919999998
 20
220.4929089999999
 10
503.1161799999998
 20
220.574296
 10
503.1654599999998
 20
220.647843
 10
503.2262019999998
 20
220.7113469999999
 10
503.296575
 20
220.762867
 10
503.374415
 20
220.800835
 10
503.4574069999998
 20
220.824056
 10
503.542975
 20
220.831896
  0
LWPOLYLINE
  5
5010
330
4EDA
100
AcDbEntity
  8
1
  6
Continuous
100
AcDbPolyline
 90
       10
 70
     0
 43
0.0
 10
504.513642
 20
220.831896
 10
504.606975
 20
220.8238319999999
 10
504.697508
 20
220.7999389999999
 10
504.782442
 20
220.7608879999999
 10
504.859199
 20
220.7078749999999
 10
504.9254659999999
 20
220.642541
 10
504.979226
 20
220.566829
 10
505.018799
 20
220.483091
 10
505.0430659999998
 20
220.393827
 10
505.051242
 20
220.301763
  0
LINE
  5
501C
330
4EDA
100
AcDbEntity
  8
1
  6
Continuous
100
AcDbLine
 10
506.466404
 20
226.864393
 30
0.0
 11
506.480228
 21
227.0054409999999
 31
0.0
  0
LINE
  5
501D
330
4EDA
100
AcDbEntity
  8
1
  6
Continuous
100
AcDbLine
 10
506.480228
 20
227.0054409999999
 30
0.0
 11
506.521232
 21
227.1424209999999
 31
0.0
  0
LINE
  5
501E
330
4EDA
100
AcDbEntity
  8
1
  6
Continuous
100
AcDbLine
 10
508.357232
 20
227.076649
 30
0.0
 11
508.385132
 21
226.937185
 31
0.0
  0
LINE
  5
501F
330
4EDA
100
AcDbEntity
  8
1
  6
Continuous
100
AcDbLine
 10
508.385132
 20
226.937185
 30
0.0
 11
508.385528
 21
226.795633
 31
0.0
  0
LINE
  5
5020
330
4EDA
100
AcDbEntity
  8
1
  6
Continuous
100
AcDbLine
 10
508.385528
 20
226.795633
 30
0.0
 11
508.35842
 21
226.6560609999999
 31
0.0
  0
LINE
  5
5021
330
4EDA
100
AcDbEntity
  8
1
  6
Continuous
100
AcDbLine
 10
508.35842
 20
226.6560609999999
 30
0.0
 11
508.3045639999999
 21
226.5224649999999
 31
0.0
  0
LINE
  5
5022
330
4EDA
100
AcDbEntity
  8
1
  6
Continuous
100
AcDbLine
 10
508.3045639999999
 20
226.5224649999999
 30
0.0
 11
508.225508
 21
226.398697
 31
0.0
  0
LINE
  5
5023
330
4EDA
100
AcDbEntity
  8
1
  6
Continuous
100
AcDbLine
 10
506.5905679999998
 20
226.453813
 30
0.0
 11
506.5227799999997
 21
226.582549
 31
0.0
  0
LINE
  5
5024
330
4EDA
100
AcDbEntity
  8
1
  6
Continuous
100
AcDbLine
 10
506.5227799999997
 20
226.582549
 30
0.0
 11
506.48102
 21
226.7193489999999
 31
0.0
  0
LINE
  5
5025
330
4EDA
100
AcDbEntity
  8
1
  6
Continuous
100
AcDbLine
 10
506.48102
 20
226.7193489999999
 30
0.0
 11
506.466404
 21
226.864393
 31
0.0
  0
LINE
  5
5026
330
4EDA
100
AcDbEntity
  8
1
  6
Continuous
100
AcDbLine
 10
505.041071
 20
226.380383
 30
0.0
 11
503.053871
 21
226.380383
 31
0.0
  0
LINE
  5
5027
330
4EDA
100
AcDbEntity
  8
1
  6
Continuous
100
AcDbLine
 10
507.316004
 20
219.0802909999999
 30
0.0
 11
507.316004
 21
218.381891
 31
0.0
  0
LINE
  5
5028
330
4EDA
100
AcDbEntity
  8
1
  6
Continuous
100
AcDbLine
 10
507.316004
 20
218.381891
 30
0.0
 11
506.3872039999998
 21
218.381891
 31
0.0
  0
LINE
  5
5029
330
4EDA
100
AcDbEntity
  8
1
  6
Continuous
100
AcDbLine
 10
507.4168039999998
 20
223.0371419999999
 30
0.0
 11
507.4168039999998
 21
221.7483419999997
 31
0.0
  0
LINE
  5
502A
330
4EDA
100
AcDbEntity
  8
1
  6
Continuous
100
AcDbLine
 10
508.374404
 20
223.0371419999999
 30
0.0
 11
506.3728039999999
 21
223.0371419999999
 31
0.0
  0
LINE
  5
502B
330
4EDA
100
AcDbEntity
  8
1
  6
Continuous
100
AcDbLine
 10
508.374404
 20
221.7483419999997
 30
0.0
 11
506.3728039999999
 21
221.7483419999997
 31
0.0
  0
LINE
  5
502C
330
4EDA
100
AcDbEntity
  8
1
  6
Continuous
100
AcDbLine
 10
508.374404
 20
217.3918599999999
 30
0.0
 11
506.3728039999999
 21
217.3918599999999
 31
0.0
  0
LINE
  5
502D
330
4EDA
100
AcDbEntity
  8
1
  6
Continuous
100
AcDbLine
 10
508.374404
 20
220.7453829999999
 30
0.0
 11
506.3728039999999
 21
220.7453829999999
 31
0.0
  0
LINE
  5
502E
330
4EDA
100
AcDbEntity
  8
1
  6
Continuous
100
AcDbLine
 10
508.1235559999998
 20
226.288321
 30
0.0
 11
508.0015879999998
 21
226.1944689999999
 31
0.0
  0
LINE
  5
502F
330
4EDA
100
AcDbEntity
  8
1
  6
Continuous
100
AcDbLine
 10
508.0015879999998
 20
226.1944689999999
 30
0.0
 11
507.8631679999999
 21
226.119877
 31
0.0
  0
LINE
  5
5030
330
4EDA
100
AcDbEntity
  8
1
  6
Continuous
100
AcDbLine
 10
507.8631679999999
 20
226.119877
 30
0.0
 11
507.712184
 21
226.0666329999998
 31
0.0
  0
LINE
  5
5031
330
4EDA
100
AcDbEntity
  8
1
  6
Continuous
100
AcDbLine
 10
507.712184
 20
226.0666329999998
 30
0.0
 11
507.5530639999998
 21
226.0363209999999
 31
0.0
  0
LINE
  5
5032
330
4EDA
100
AcDbEntity
  8
1
  6
Continuous
100
AcDbLine
 10
507.5530639999998
 20
226.0363209999999
 30
0.0
 11
507.390344
 21
226.0298049999999
 31
0.0
  0
LINE
  5
5033
330
4EDA
100
AcDbEntity
  8
1
  6
Continuous
100
AcDbLine
 10
507.390344
 20
226.0298049999999
 30
0.0
 11
507.2286679999998
 21
226.047265
 31
0.0
  0
LINE
  5
5034
330
4EDA
100
AcDbEntity
  8
1
  6
Continuous
100
AcDbLine
 10
507.2286679999998
 20
226.047265
 30
0.0
 11
507.072716
 21
226.088197
 31
0.0
  0
LINE
  5
5035
330
4EDA
100
AcDbEntity
  8
1
  6
Continuous
100
AcDbLine
 10
507.072716
 20
226.088197
 30
0.0
 11
506.926988
 21
226.151413
 31
0.0
  0
LINE
  5
5036
330
4EDA
100
AcDbEntity
  8
1
  6
Continuous
100
AcDbLine
 10
506.926988
 20
226.151413
 30
0.0
 11
506.795588
 21
226.2351129999999
 31
0.0
  0
LINE
  5
5037
330
4EDA
100
AcDbEntity
  8
1
  6
Continuous
100
AcDbLine
 10
506.795588
 20
226.2351129999999
 30
0.0
 11
506.6823679999997
 21
226.3368849999999
 31
0.0
  0
LINE
  5
5038
330
4EDA
100
AcDbEntity
  8
1
  6
Continuous
100
AcDbLine
 10
507.929012
 20
223.9770009999999
 30
0.0
 11
508.011524
 21
223.9870809999999
 31
0.0
  0
LINE
  5
5039
330
4EDA
100
AcDbEntity
  8
1
  6
Continuous
100
AcDbLine
 10
508.011524
 20
223.9870809999999
 30
0.0
 11
508.0915519999998
 21
224.0169609999999
 31
0.0
  0
LINE
  5
503A
330
4EDA
100
AcDbEntity
  8
1
  6
Continuous
100
AcDbLine
 10
508.0915519999998
 20
224.0169609999999
 30
0.0
 11
508.166612
 21
224.065741
 31
0.0
  0
LINE
  5
503B
330
4EDA
100
AcDbEntity
  8
1
  6
Continuous
100
AcDbLine
 10
508.166612
 20
224.065741
 30
0.0
 11
508.234472
 21
224.1319809999999
 31
0.0
  0
LINE
  5
503C
330
4EDA
100
AcDbEntity
  8
1
  6
Continuous
100
AcDbLine
 10
508.234472
 20
224.1319809999999
 30
0.0
 11
508.2930440000001
 21
224.2136289999999
 31
0.0
  0
LINE
  5
503D
330
4EDA
100
AcDbEntity
  8
1
  6
Continuous
100
AcDbLine
 10
508.2930440000001
 20
224.2136289999999
 30
0.0
 11
508.340528
 21
224.3082009999999
 31
0.0
  0
LINE
  5
503E
330
4EDA
100
AcDbEntity
  8
1
  6
Continuous
100
AcDbLine
 10
508.340528
 20
224.3082009999999
 30
0.0
 11
508.3755559999998
 21
224.4128529999999
 31
0.0
  0
LINE
  5
503F
330
4EDA
100
AcDbEntity
  8
1
  6
Continuous
100
AcDbLine
 10
508.3755559999998
 20
224.4128529999999
 30
0.0
 11
508.396976
 21
224.524381
 31
0.0
  0
LINE
  5
5040
330
4EDA
100
AcDbEntity
  8
1
  6
Continuous
100
AcDbLine
 10
508.396976
 20
224.524381
 30
0.0
 11
508.4042119999998
 21
224.6394009999999
 31
0.0
  0
LINE
  5
5041
330
4EDA
100
AcDbEntity
  8
1
  6
Continuous
100
AcDbLine
 10
508.4042119999998
 20
224.6322009999999
 30
0.0
 11
508.3896679999998
 21
224.764717
 31
0.0
  0
LINE
  5
5042
330
4EDA
100
AcDbEntity
  8
1
  6
Continuous
100
AcDbLine
 10
508.3896679999998
 20
224.764717
 30
0.0
 11
508.3464679999996
 21
224.8932369999999
 31
0.0
  0
LINE
  5
5043
330
4EDA
100
AcDbEntity
  8
1
  6
Continuous
100
AcDbLine
 10
508.3464679999996
 20
224.8932369999999
 30
0.0
 11
508.275908
 21
225.0138009999997
 31
0.0
  0
LINE
  5
5044
330
4EDA
100
AcDbEntity
  8
1
  6
Continuous
100
AcDbLine
 10
508.275908
 20
225.0138009999997
 30
0.0
 11
508.1801839999998
 21
225.122773
 31
0.0
  0
LINE
  5
5045
330
4EDA
100
AcDbEntity
  8
1
  6
Continuous
100
AcDbLine
 10
508.1801839999998
 20
225.122773
 30
0.0
 11
508.0621759999996
 21
225.2168409999999
 31
0.0
  0
LINE
  5
5046
330
4EDA
100
AcDbEntity
  8
1
  6
Continuous
100
AcDbLine
 10
508.0621759999996
 20
225.2168409999999
 30
0.0
 11
507.9254119999998
 21
225.293161
 31
0.0
  0
LINE
  5
5047
330
4EDA
100
AcDbEntity
  8
1
  6
Continuous
100
AcDbLine
 10
507.9254119999998
 20
225.293161
 30
0.0
 11
507.7741399999998
 21
225.3493569999999
 31
0.0
  0
LINE
  5
5048
330
4EDA
100
AcDbEntity
  8
1
  6
Continuous
100
AcDbLine
 10
507.7741399999998
 20
225.3493569999999
 30
0.0
 11
507.612896
 21
225.3838089999999
 31
0.0
  0
LINE
  5
5049
330
4EDA
100
AcDbEntity
  8
1
  6
Continuous
100
AcDbLine
 10
507.612896
 20
225.3838089999999
 30
0.0
 11
507.446612
 21
225.3954009999999
 31
0.0
  0
LINE
  5
504A
330
4EDA
100
AcDbEntity
  8
1
  6
Continuous
100
AcDbLine
 10
506.963204
 20
223.969801
 30
0.0
 11
506.880692
 21
223.9798809999999
 31
0.0
  0
LINE
  5
504B
330
4EDA
100
AcDbEntity
  8
1
  6
Continuous
100
AcDbLine
 10
506.880692
 20
223.9798809999999
 30
0.0
 11
506.800664
 21
224.0097609999998
 31
0.0
  0
LINE
  5
504C
330
4EDA
100
AcDbEntity
  8
1
  6
Continuous
100
AcDbLine
 10
506.800664
 20
224.0097609999998
 30
0.0
 11
506.725604
 21
224.0585409999999
 31
0.0
  0
LINE
  5
504D
330
4EDA
100
AcDbEntity
  8
1
  6
Continuous
100
AcDbLine
 10
506.725604
 20
224.0585409999999
 30
0.0
 11
506.6577439999998
 21
224.124781
 31
0.0
  0
LINE
  5
504E
330
4EDA
100
AcDbEntity
  8
1
  6
Continuous
100
AcDbLine
 10
506.6577439999998
 20
224.124781
 30
0.0
 11
506.5991719999996
 21
224.206429
 31
0.0
  0
LINE
  5
504F
330
4EDA
100
AcDbEntity
  8
1
  6
Continuous
100
AcDbLine
 10
506.5991719999996
 20
224.206429
 30
0.0
 11
506.551688
 21
224.3010009999999
 31
0.0
  0
LINE
  5
5050
330
4EDA
100
AcDbEntity
  8
1
  6
Continuous
100
AcDbLine
 10
506.551688
 20
224.3010009999999
 30
0.0
 11
506.5166599999998
 21
224.4056529999999
 31
0.0
  0
LINE
  5
5051
330
4EDA
100
AcDbEntity
  8
1
  6
Continuous
100
AcDbLine
 10
506.5166599999998
 20
224.4056529999999
 30
0.0
 11
506.49524
 21
224.5171809999999
 31
0.0
  0
LINE
  5
5052
330
4EDA
100
AcDbEntity
  8
1
  6
Continuous
100
AcDbLine
 10
506.49524
 20
224.5171809999999
 30
0.0
 11
506.488004
 21
224.6322009999999
 31
0.0
  0
LINE
  5
5053
330
4EDA
100
AcDbEntity
  8
1
  6
Continuous
100
AcDbLine
 10
506.488004
 20
224.6322009999999
 30
0.0
 11
506.502548
 21
224.764717
 31
0.0
  0
LINE
  5
5054
330
4EDA
100
AcDbEntity
  8
1
  6
Continuous
100
AcDbLine
 10
506.502548
 20
224.764717
 30
0.0
 11
506.545748
 21
224.8932369999999
 31
0.0
  0
LINE
  5
5055
330
4EDA
100
AcDbEntity
  8
1
  6
Continuous
100
AcDbLine
 10
506.545748
 20
224.8932369999999
 30
0.0
 11
506.6163079999998
 21
225.0138009999997
 31
0.0
  0
LINE
  5
5056
330
4EDA
100
AcDbEntity
  8
1
  6
Continuous
100
AcDbLine
 10
506.6163079999998
 20
225.0138009999997
 30
0.0
 11
506.7120319999999
 21
225.122773
 31
0.0
  0
LINE
  5
5057
330
4EDA
100
AcDbEntity
  8
1
  6
Continuous
100
AcDbLine
 10
506.7120319999999
 20
225.122773
 30
0.0
 11
506.83004
 21
225.2168409999999
 31
0.0
  0
LINE
  5
5058
330
4EDA
100
AcDbEntity
  8
1
  6
Continuous
100
AcDbLine
 10
506.83004
 20
225.2168409999999
 30
0.0
 11
506.966804
 21
225.293161
 31
0.0
  0
LINE
  5
5059
330
4EDA
100
AcDbEntity
  8
1
  6
Continuous
100
AcDbLine
 10
506.966804
 20
225.293161
 30
0.0
 11
507.1180759999998
 21
225.3493569999999
 31
0.0
  0
LINE
  5
505A
330
4EDA
100
AcDbEntity
  8
1
  6
Continuous
100
AcDbLine
 10
507.1180759999998
 20
225.3493569999999
 30
0.0
 11
507.2793199999998
 21
225.3838089999999
 31
0.0
  0
LINE
  5
505B
330
4EDA
100
AcDbEntity
  8
1
  6
Continuous
100
AcDbLine
 10
507.2793199999998
 20
225.3838089999999
 30
0.0
 11
507.445604
 21
225.3954009999999
 31
0.0
  0
LINE
  5
505C
330
4EDA
100
AcDbEntity
  8
1
  6
Continuous
100
AcDbLine
 10
507.9048199999999
 20
218.492771
 30
0.0
 11
507.9873319999999
 21
218.5028509999999
 31
0.0
  0
LINE
  5
505D
330
4EDA
100
AcDbEntity
  8
1
  6
Continuous
100
AcDbLine
 10
507.9873319999999
 20
218.5028509999999
 30
0.0
 11
508.0673599999998
 21
218.532731
 31
0.0
  0
LINE
  5
505E
330
4EDA
100
AcDbEntity
  8
1
  6
Continuous
100
AcDbLine
 10
508.0673599999998
 20
218.532731
 30
0.0
 11
508.1424199999998
 21
218.5815109999999
 31
0.0
  0
LINE
  5
505F
330
4EDA
100
AcDbEntity
  8
1
  6
Continuous
100
AcDbLine
 10
508.1424199999998
 20
218.5815109999999
 30
0.0
 11
508.2102799999996
 21
218.6477509999999
 31
0.0
  0
LINE
  5
5060
330
4EDA
100
AcDbEntity
  8
1
  6
Continuous
100
AcDbLine
 10
508.2102799999996
 20
218.6477509999999
 30
0.0
 11
508.2688519999998
 21
218.729399
 31
0.0
  0
LINE
  5
5061
330
4EDA
100
AcDbEntity
  8
1
  6
Continuous
100
AcDbLine
 10
508.2688519999998
 20
218.729399
 30
0.0
 11
508.3163359999998
 21
218.8239709999999
 31
0.0
  0
LINE
  5
5062
330
4EDA
100
AcDbEntity
  8
1
  6
Continuous
100
AcDbLine
 10
508.3163359999998
 20
218.8239709999999
 30
0.0
 11
508.3513639999998
 21
218.9286229999999
 31
0.0
  0
LINE
  5
5063
330
4EDA
100
AcDbEntity
  8
1
  6
Continuous
100
AcDbLine
 10
508.3513639999998
 20
218.9286229999999
 30
0.0
 11
508.3727839999998
 21
219.040151
 31
0.0
  0
LINE
  5
5064
330
4EDA
100
AcDbEntity
  8
1
  6
Continuous
100
AcDbLine
 10
508.3727839999998
 20
219.040151
 30
0.0
 11
508.3800199999997
 21
219.155171
 31
0.0
  0
LINE
  5
5065
330
4EDA
100
AcDbEntity
  8
1
  6
Continuous
100
AcDbLine
 10
508.3800199999997
 20
219.1479709999999
 30
0.0
 11
508.3654759999998
 21
219.2804869999999
 31
0.0
  0
LINE
  5
5066
330
4EDA
100
AcDbEntity
  8
1
  6
Continuous
100
AcDbLine
 10
508.3654759999998
 20
219.2804869999999
 30
0.0
 11
508.3222759999999
 21
219.4090069999997
 31
0.0
  0
LINE
  5
5067
330
4EDA
100
AcDbEntity
  8
1
  6
Continuous
100
AcDbLine
 10
508.3222759999999
 20
219.4090069999997
 30
0.0
 11
508.251716
 21
219.5295709999999
 31
0.0
  0
LINE
  5
5068
330
4EDA
100
AcDbEntity
  8
1
  6
Continuous
100
AcDbLine
 10
508.251716
 20
219.5295709999999
 30
0.0
 11
508.155992
 21
219.638543
 31
0.0
  0
LINE
  5
5069
330
4EDA
100
AcDbEntity
  8
1
  6
Continuous
100
AcDbLine
 10
508.155992
 20
219.638543
 30
0.0
 11
508.0379839999998
 21
219.732611
 31
0.0
  0
LINE
  5
506A
330
4EDA
100
AcDbEntity
  8
1
  6
Continuous
100
AcDbLine
 10
508.0379839999998
 20
219.732611
 30
0.0
 11
507.90122
 21
219.8089309999998
 31
0.0
  0
LINE
  5
506B
330
4EDA
100
AcDbEntity
  8
1
  6
Continuous
100
AcDbLine
 10
507.90122
 20
219.8089309999998
 30
0.0
 11
507.749948
 21
219.865127
 31
0.0
  0
LINE
  5
506C
330
4EDA
100
AcDbEntity
  8
1
  6
Continuous
100
AcDbLine
 10
507.749948
 20
219.865127
 30
0.0
 11
507.588704
 21
219.899579
 31
0.0
  0
LINE
  5
506D
330
4EDA
100
AcDbEntity
  8
1
  6
Continuous
100
AcDbLine
 10
507.588704
 20
219.899579
 30
0.0
 11
507.4224199999998
 21
219.9111709999999
 31
0.0
  0
LINE
  5
506E
330
4EDA
100
AcDbEntity
  8
1
  6
Continuous
100
AcDbLine
 10
506.463812
 20
219.1479709999999
 30
0.0
 11
506.4783559999998
 21
219.2804869999999
 31
0.0
  0
LINE
  5
506F
330
4EDA
100
AcDbEntity
  8
1
  6
Continuous
100
AcDbLine
 10
506.4783559999998
 20
219.2804869999999
 30
0.0
 11
506.5215559999998
 21
219.4090069999997
 31
0.0
  0
LINE
  5
5070
330
4EDA
100
AcDbEntity
  8
1
  6
Continuous
100
AcDbLine
 10
506.5215559999998
 20
219.4090069999997
 30
0.0
 11
506.592116
 21
219.5295709999999
 31
0.0
  0
LINE
  5
5071
330
4EDA
100
AcDbEntity
  8
1
  6
Continuous
100
AcDbLine
 10
506.592116
 20
219.5295709999999
 30
0.0
 11
506.68784
 21
219.638543
 31
0.0
  0
LINE
  5
5072
330
4EDA
100
AcDbEntity
  8
1
  6
Continuous
100
AcDbLine
 10
506.68784
 20
219.638543
 30
0.0
 11
506.805848
 21
219.732611
 31
0.0
  0
LINE
  5
5073
330
4EDA
100
AcDbEntity
  8
1
  6
Continuous
100
AcDbLine
 10
506.805848
 20
219.732611
 30
0.0
 11
506.942612
 21
219.8089309999998
 31
0.0
  0
LINE
  5
5074
330
4EDA
100
AcDbEntity
  8
1
  6
Continuous
100
AcDbLine
 10
506.942612
 20
219.8089309999998
 30
0.0
 11
507.093884
 21
219.865127
 31
0.0
  0
LINE
  5
5075
330
4EDA
100
AcDbEntity
  8
1
  6
Continuous
100
AcDbLine
 10
507.093884
 20
219.865127
 30
0.0
 11
507.2551279999998
 21
219.899579
 31
0.0
  0
LINE
  5
5076
330
4EDA
100
AcDbEntity
  8
1
  6
Continuous
100
AcDbLine
 10
507.2551279999998
 20
219.899579
 30
0.0
 11
507.4214119999998
 21
219.9111709999999
 31
0.0
  0
LINE
  5
5077
330
4EDA
100
AcDbEntity
  8
1
  6
Continuous
100
AcDbLine
 10
507.164804
 20
218.389091
 30
0.0
 11
507.0430879999998
 21
218.4006109999999
 31
0.0
  0
LINE
  5
5078
330
4EDA
100
AcDbEntity
  8
1
  6
Continuous
100
AcDbLine
 10
507.0430879999998
 20
218.4006109999999
 30
0.0
 11
506.925044
 21
218.4348469999999
 31
0.0
  0
LINE
  5
5079
330
4EDA
100
AcDbEntity
  8
1
  6
Continuous
100
AcDbLine
 10
506.925044
 20
218.4348469999999
 30
0.0
 11
506.8143079999998
 21
218.4907549999997
 31
0.0
  0
LINE
  5
507A
330
4EDA
100
AcDbEntity
  8
1
  6
Continuous
100
AcDbLine
 10
506.8143079999998
 20
218.4907549999997
 30
0.0
 11
506.7142279999997
 21
218.566643
 31
0.0
  0
LINE
  5
507B
330
4EDA
100
AcDbEntity
  8
1
  6
Continuous
100
AcDbLine
 10
506.7142279999997
 20
218.566643
 30
0.0
 11
506.627828
 21
218.660171
 31
0.0
  0
LINE
  5
507C
330
4EDA
100
AcDbEntity
  8
1
  6
Continuous
100
AcDbLine
 10
506.627828
 20
218.660171
 30
0.0
 11
506.5577359999998
 21
218.7685309999999
 31
0.0
  0
LINE
  5
507D
330
4EDA
100
AcDbEntity
  8
1
  6
Continuous
100
AcDbLine
 10
506.5577359999998
 20
218.7685309999999
 30
0.0
 11
506.5060759999998
 21
218.888411
 31
0.0
  0
LINE
  5
507E
330
4EDA
100
AcDbEntity
  8
1
  6
Continuous
100
AcDbLine
 10
506.5060759999998
 20
218.888411
 30
0.0
 11
506.4744679999998
 21
219.016175
 31
0.0
  0
LINE
  5
507F
330
4EDA
100
AcDbEntity
  8
1
  6
Continuous
100
AcDbLine
 10
506.4744679999998
 20
219.016175
 30
0.0
 11
506.463812
 21
219.1479709999999
 31
0.0
  0
LWPOLYLINE
  5
5080
330
4EDA
100
AcDbEntity
  8
1
  6
Continuous
100
AcDbPolyline
 90
       10
 70
     0
 43
0.0
 10
504.513642
 20
222.618428
 10
504.606975
 20
222.610364
 10
504.697508
 20
222.5864709999999
 10
504.782442
 20
222.5474199999999
 10
504.859199
 20
222.4944069999998
 10
504.9254659999999
 20
222.4290729999999
 10
504.979226
 20
222.353361
 10
505.018799
 20
222.2696229999999
 10
505.0430659999998
 20
222.1803589999999
 10
505.051242
 20
222.088295
  0
LWPOLYLINE
  5
508C
330
4EDA
100
AcDbEntity
  8
1
  6
Continuous
100
AcDbPolyline
 90
       10
 70
     0
 43
0.0
 10
503.0501749999998
 20
222.1032279999997
 10
503.057679
 20
222.1926789999999
 10
503.0798919999998
 20
222.279441
 10
503.1161799999998
 20
222.3608279999999
 10
503.1654599999998
 20
222.434375
 10
503.2262019999998
 20
222.497879
 10
503.296575
 20
222.5493989999999
 10
503.374415
 20
222.5873669999999
 10
503.4574069999998
 20
222.6105879999999
 10
503.542975
 20
222.618428
  0
LINE
  5
5098
330
4EDA
100
AcDbEntity
  8
1
  6
Continuous
100
AcDbLine
 10
505.041071
 20
225.1347829999999
 30
0.0
 11
503.053871
 21
224.399695
 31
0.0
  0
LINE
  5
5099
330
4EDA
100
AcDbEntity
  8
1
  6
Continuous
100
AcDbLine
 10
504.0071039999999
 20
223.952237
 30
0.0
 11
504.0071039999999
 21
223.253219
 31
0.0
  0
LWPOLYLINE
  5
509A
330
4EDA
100
AcDbEntity
  8
1
  6
Continuous
100
AcDbPolyline
 90
       10
 70
     0
 43
0.0
 10
503.0491149999998
 20
218.477027
 10
503.0586269999998
 20
218.372279
 10
503.0868919999998
 20
218.2707409999999
 10
503.133022
 20
218.175427
 10
503.195662
 20
218.0892779999997
 10
503.272879
 20
218.0149609999999
 10
503.362315
 20
217.9546409999999
 10
503.4612629999998
 20
217.9102129999999
 10
503.5667459999998
 20
217.882991
 10
503.675515
 20
217.873827
  0
LINE
  5
50A6
330
4EDA
100
AcDbEntity
  8
1
  6
Continuous
100
AcDbLine
 10
504.4179149999997
 20
219.033827
 30
0.0
 11
503.6523149999998
 21
219.033827
 31
0.0
  0
LWPOLYLINE
  5
50A7
330
4EDA
100
AcDbEntity
  8
1
  6
Continuous
100
AcDbPolyline
 90
       10
 70
     0
 43
0.0
 10
503.683248
 20
219.033827
 10
503.573126
 20
219.0253589999999
 10
503.4663669999998
 20
219.0002649999999
 10
503.3661819999998
 20
218.959239
 10
503.275624
 20
218.9035589999999
 10
503.1974789999998
 20
218.8349259999998
 10
503.134066
 20
218.755427
 10
503.0873559999998
 20
218.6674609999998
 10
503.0587429999997
 20
218.573733
 10
503.0491149999998
 20
218.477027
  0
LINE
  5
50B3
330
4EDA
100
AcDbEntity
  8
1
  6
Continuous
100
AcDbLine
 10
504.433382
 20
217.873827
 30
0.0
 11
503.6523149999998
 21
217.873827
 31
0.0
  0
LWPOLYLINE
  5
50B4
330
4EDA
100
AcDbEntity
  8
1
  6
Continuous
100
AcDbPolyline
 90
       10
 70
     0
 43
0.0
 10
504.4179149999997
 20
219.033827
 10
504.528038
 20
219.0253589999999
 10
504.634796
 20
219.0002649999999
 10
504.7349819999998
 20
218.959239
 10
504.825539
 20
218.9035589999999
 10
504.903684
 20
218.8349259999998
 10
504.967098
 20
218.755427
 10
505.013807
 20
218.6674609999998
 10
505.04242
 20
218.573733
 10
505.0520480000001
 20
218.477027
  0
LWPOLYLINE
  5
50C0
330
4EDA
100
AcDbEntity
  8
1
  6
Continuous
100
AcDbPolyline
 90
       10
 70
     0
 43
0.0
 10
505.0520480000001
 20
218.477027
 10
505.042536
 20
218.372279
 10
505.014271
 20
218.2707409999999
 10
504.9681419999997
 20
218.175427
 10
504.9055019999998
 20
218.0892779999997
 10
504.8282839999997
 20
218.0149609999999
 10
504.738848
 20
217.9546409999999
 10
504.6399
 20
217.9102129999999
 10
504.5344179999998
 20
217.882991
 10
504.425648
 20
217.873827
  0
LWPOLYLINE
  5
50CC
330
4EDA
100
AcDbEntity
  8
1
  6
Continuous
100
AcDbPolyline
 90
       10
 70
     0
 43
0.0
 10
505.0437749999998
 20
222.088295
 10
505.03642
 20
222.009223
 10
505.014506
 20
221.9325029999999
 10
504.97874
 20
221.860561
 10
504.9302439999998
 20
221.795527
 10
504.8703989999999
 20
221.739377
 10
504.801108
 20
221.693868
 10
504.724426
 20
221.6603049999999
 10
504.642703
 20
221.639735
 10
504.5584419999998
 20
221.6328279999999
  0
LWPOLYLINE
  5
50D8
330
4EDA
100
AcDbEntity
  8
1
  6
Continuous
100
AcDbPolyline
 90
       10
 70
     0
 43
0.0
 10
504.140308
 20
222.0808279999999
 10
504.1311239999997
 20
221.9991429999998
 10
504.103834
 20
221.9199589999998
 10
504.059295
 20
221.8456279999998
 10
503.998815
 20
221.778465
 10
503.9242599999998
 20
221.7204869999999
 10
503.837908
 20
221.673447
 10
503.7423719999998
 20
221.6388009999997
 10
503.6405269999998
 20
221.6175589999997
 10
503.535508
 20
221.6104279999999
  0
LWPOLYLINE
  5
50E4
330
4EDA
100
AcDbEntity
  8
1
  6
Continuous
100
AcDbPolyline
 90
       10
 70
     0
 43
0.0
 10
503.535508
 20
221.6104279999999
 10
503.451247
 20
221.617932
 10
503.369524
 20
221.6401449999999
 10
503.292842
 20
221.676433
 10
503.2235509999998
 20
221.7257129999999
 10
503.1637059999998
 20
221.7864549999999
 10
503.1152099999998
 20
221.8568279999999
 10
503.079444
 20
221.934668
 10
503.057567
 20
222.01766
 10
503.0501749999998
 20
222.1032279999997
  0
LINE
  5
50F0
330
4EDA
100
AcDbEntity
  8
1
  6
Continuous
100
AcDbLine
 10
504.140308
 20
222.0733609999999
 30
0.0
 11
504.140308
 21
222.2600279999999
 31
0.0
  0
LWPOLYLINE
  5
50F1
330
4EDA
100
AcDbEntity
  8
1
  6
Continuous
100
AcDbPolyline
 90
       10
 70
     0
 43
0.0
 10
504.5584419999998
 20
221.6328279999999
 10
504.485828
 20
221.6396229999999
 10
504.4154179999998
 20
221.6598569999999
 10
504.349375
 20
221.69286
 10
504.2896789999998
 20
221.7376229999999
 10
504.238122
 20
221.7928759999999
 10
504.1963459999998
 20
221.8568279999999
 10
504.1655079999999
 20
221.9276119999999
 10
504.1466549999998
 20
222.003025
 10
504.140308
 20
222.0808279999999
  0
LINE
  5
50FD
330
4EDA
100
AcDbEntity
  8
1
  6
Continuous
100
AcDbLine
 10
508.225508
 20
226.398697
 30
0.0
 11
508.1235559999998
 21
226.288321
 31
0.0
  0
LINE
  5
50FE
330
4EDA
100
AcDbEntity
  8
1
  6
Continuous
100
AcDbLine
 10
506.6823679999997
 20
226.3368849999999
 30
0.0
 11
506.5905679999998
 21
226.453813
 31
0.0
  0
LINE
  5
50FF
330
4EDA
100
AcDbEntity
  8
1
  6
Continuous
100
AcDbLine
 10
503.6046709999998
 20
225.685583
 30
0.0
 11
503.6046709999998
 21
224.6019829999999
 31
0.0
  0
LINE
  5
5100
330
4EDA
100
AcDbEntity
  8
1
  6
Continuous
100
AcDbLine
 10
505.0374709999998
 20
225.1347829999999
 30
0.0
 11
503.053871
 21
225.90501
 31
0.0
  0
LINE
  5
5101
330
4EDA
100
AcDbEntity
  8
1
  6
Continuous
100
AcDbLine
 10
507.60275
 20
232.0506549999997
 30
0.0
 11
508.5518819999998
 21
232.0506549999997
 31
0.0
  0
LINE
  5
5102
330
4EDA
100
AcDbEntity
  8
1
  6
Continuous
100
AcDbLine
 10
507.380804
 20
232.273502
 30
0.0
 11
506.3143839999996
 21
232.273502
 31
0.0
  0
LINE
  5
5103
330
4EDA
100
AcDbEntity
  8
1
  6
Continuous
100
AcDbLine
 10
506.5489599999998
 20
231.8251
 30
0.0
 11
508.4219629999998
 21
231.322565
 31
0.0
  0
LINE
  5
5104
330
4EDA
100
AcDbEntity
  8
1
  6
Continuous
100
AcDbLine
 10
507.380804
 20
230.683796
 30
0.0
 11
507.380804
 21
231.602253
 31
0.0
  0
ARC
  5
5105
330
4EDA
100
AcDbEntity
  8
1
  6
Continuous
100
AcDbCircle
 10
507.380804
 20
231.8287089999997
 30
0.0
 40
1.145318999999998
100
AcDbArc
 50
242.2499999999998
 51
324.4619999999998
  0
ARC
  5
5106
330
4EDA
100
AcDbEntity
  8
1
  6
Continuous
100
AcDbCircle
 10
507.380804
 20
231.8287089999997
 30
0.0
 40
1.145318999999998
100
AcDbArc
 50
215.5379999999999
 51
225.699
  0
LINE
  5
5107
330
4EDA
100
AcDbEntity
  8
1
  6
Continuous
100
AcDbLine
 10
508.930813
 20
234.2728149999998
 30
0.0
 11
505.8298929999998
 21
234.2728149999998
 31
0.0
  0
LINE
  5
5108
330
4EDA
100
AcDbEntity
  8
1
  6
Continuous
100
AcDbLine
 10
507.9140139999998
 20
235.6062919999998
 30
0.0
 11
508.7620979999998
 21
235.6062919999998
 31
0.0
  0
LINE
  5
5109
330
4EDA
100
AcDbEntity
  8
1
  6
Continuous
100
AcDbLine
 10
507.380804
 20
234.717608
 30
0.0
 11
507.380804
 21
235.1614989999999
 31
0.0
  0
ARC
  5
510A
330
4EDA
100
AcDbEntity
  8
1
  6
Continuous
100
AcDbCircle
 10
508.7620979999998
 20
235.6504999999999
 30
0.0
 40
0.044452
100
AcDbArc
 50
270.0
 51
12.7289
  0
ARC
  5
510B
330
4EDA
100
AcDbEntity
  8
1
  6
Continuous
100
AcDbCircle
 10
503.64743
 20
234.4956629999999
 30
0.0
 40
5.288524999999999
100
AcDbArc
 50
12.7289
 51
13.2681
  0
ARC
  5
510C
330
4EDA
100
AcDbEntity
  8
1
  6
Continuous
100
AcDbCircle
 10
503.64743
 20
234.4956629999999
 30
0.0
 40
5.288524999999999
100
AcDbArc
 50
13.2681
 51
15.2575
  0
ARC
  5
510D
330
4EDA
100
AcDbEntity
  8
1
  6
Continuous
100
AcDbCircle
 10
511.113276
 20
234.4956629999999
 30
0.0
 40
5.288524999999999
100
AcDbArc
 50
164.7419999999998
 51
164.794
  0
ARC
  5
510E
330
4EDA
100
AcDbEntity
  8
1
  6
Continuous
100
AcDbCircle
 10
511.113276
 20
234.4956629999999
 30
0.0
 40
5.288524999999999
100
AcDbArc
 50
164.794
 51
167.2709999999999
  0
ARC
  5
510F
330
4EDA
100
AcDbEntity
  8
1
  6
Continuous
100
AcDbCircle
 10
505.9986079999998
 20
235.6504999999999
 30
0.0
 40
0.044452
100
AcDbArc
 50
167.2709999999999
 51
270.0
  0
LINE
  5
5110
330
4EDA
100
AcDbEntity
  8
1
  6
Continuous
100
AcDbLine
 10
505.9986079999998
 20
235.6062919999998
 30
0.0
 11
506.8475939999998
 21
235.6062919999998
 31
0.0
  0
LINE
  5
5111
330
4EDA
100
AcDbEntity
  8
1
  6
Continuous
100
AcDbLine
 10
508.893822
 20
235.1614989999999
 30
0.0
 11
505.866884
 21
235.1614989999999
 31
0.0
  0
LINE
  5
5112
330
4EDA
100
AcDbEntity
  8
1
  6
Continuous
100
AcDbLine
 10
508.930813
 20
234.717608
 30
0.0
 11
505.8298929999998
 21
234.717608
 31
0.0
  0
LINE
  5
5113
330
4EDA
100
AcDbEntity
  8
1
  6
Continuous
100
AcDbLine
 10
507.9140139999998
 20
233.3841309999999
 30
0.0
 11
508.634886
 21
233.3841309999999
 31
0.0
  0
LINE
  5
5114
330
4EDA
100
AcDbEntity
  8
1
  6
Continuous
100
AcDbLine
 10
507.380804
 20
233.3841309999999
 30
0.0
 11
507.380804
 21
233.606077
 31
0.0
  0
LINE
  5
5115
330
4EDA
100
AcDbEntity
  8
1
  6
Continuous
100
AcDbLine
 10
508.632179
 20
232.495448
 30
0.0
 11
507.60275
 21
232.495448
 31
0.0
  0
ARC
  5
5116
330
4EDA
100
AcDbEntity
  8
1
  6
Continuous
100
AcDbCircle
 10
508.634886
 20
233.606077
 30
0.0
 40
0.222261
100
AcDbArc
 50
270.0
 51
349.8959999999998
  0
ARC
  5
5117
330
4EDA
100
AcDbEntity
  8
1
  6
Continuous
100
AcDbCircle
 10
503.64743
 20
234.4956629999999
 30
0.0
 40
5.288524999999999
100
AcDbArc
 50
349.8959999999998
 51
352.2069999999998
  0
ARC
  5
5118
330
4EDA
100
AcDbEntity
  8
1
  6
Continuous
100
AcDbCircle
 10
508.843298
 20
233.7838129999999
 30
0.0
 40
0.044452
100
AcDbArc
 50
352.2069999999998
 51
90.0
  0
ARC
  5
5119
330
4EDA
100
AcDbEntity
  8
1
  6
Continuous
100
AcDbCircle
 10
506.12582
 20
233.606077
 30
0.0
 40
0.222261
100
AcDbArc
 50
190.1039999999999
 51
270.0
  0
ARC
  5
511A
330
4EDA
100
AcDbEntity
  8
1
  6
Continuous
100
AcDbCircle
 10
505.917408
 20
233.7838129999999
 30
0.0
 40
0.044452
100
AcDbArc
 50
90.0
 51
187.793
  0
ARC
  5
511B
330
4EDA
100
AcDbEntity
  8
1
  6
Continuous
100
AcDbCircle
 10
511.113276
 20
234.4956629999999
 30
0.0
 40
5.288524999999999
100
AcDbArc
 50
187.793
 51
190.1039999999999
  0
LINE
  5
511C
330
4EDA
100
AcDbEntity
  8
1
  6
Continuous
100
AcDbLine
 10
508.843298
 20
233.828924
 30
0.0
 11
505.917408
 21
233.828924
 31
0.0
  0
LINE
  5
511D
330
4EDA
100
AcDbEntity
  8
1
  6
Continuous
100
AcDbLine
 10
506.12582
 20
233.3841309999999
 30
0.0
 11
507.380804
 21
233.3841309999999
 31
0.0
  0
LINE
  5
511E
330
4EDA
100
AcDbEntity
  8
1
  6
Continuous
100
AcDbLine
 10
508.8414939999998
 20
232.9402409999999
 30
0.0
 11
506.0590559999998
 21
232.9402409999999
 31
0.0
  0
ARC
  5
511F
330
4EDA
100
AcDbEntity
  8
1
  6
Continuous
100
AcDbCircle
 10
507.60275
 20
232.273502
 30
0.0
 40
0.222261
100
AcDbArc
 50
90.0
 51
270.0
  0
LINE
  5
5120
330
4EDA
100
AcDbEntity
  8
1
  6
Continuous
100
AcDbLine
 10
508.5996989999999
 20
237.3836589999999
 30
0.0
 11
506.6833899999998
 21
237.3836589999999
 31
0.0
  0
LINE
  5
5121
330
4EDA
100
AcDbEntity
  8
1
  6
Continuous
100
AcDbLine
 10
506.5606889999998
 20
236.939768
 30
0.0
 11
508.2000169999998
 21
236.939768
 31
0.0
  0
LINE
  5
5122
330
4EDA
100
AcDbEntity
  8
1
  6
Continuous
100
AcDbLine
 10
508.4769979999999
 20
236.494976
 30
0.0
 11
506.2846109999998
 21
236.494976
 31
0.0
  0
ARC
  5
5123
330
4EDA
100
AcDbEntity
  8
1
  6
Continuous
100
AcDbCircle
 10
508.2000169999998
 20
236.7169209999999
 30
0.0
 40
0.222261
100
AcDbArc
 50
26.0144
 51
90.0
  0
ARC
  5
5124
330
4EDA
100
AcDbEntity
  8
1
  6
Continuous
100
AcDbCircle
 10
503.64743
 20
234.4956629999999
 30
0.0
 40
5.288524999999999
100
AcDbArc
 50
22.94399999999999
 51
26.0144
  0
ARC
  5
5125
330
4EDA
100
AcDbEntity
  8
1
  6
Continuous
100
AcDbCircle
 10
508.4769979999999
 20
236.539184
 30
0.0
 40
0.044452
100
AcDbArc
 50
270.0
 51
22.94399999999999
  0
ARC
  5
5126
330
4EDA
100
AcDbEntity
  8
1
  6
Continuous
100
AcDbCircle
 10
506.5606889999998
 20
236.7169209999999
 30
0.0
 40
0.222261
100
AcDbArc
 50
90.0
 51
153.986
  0
LINE
  5
5127
330
4EDA
100
AcDbEntity
  8
1
  6
Continuous
100
AcDbLine
 10
508.53474
 20
236.051085
 30
0.0
 11
506.225966
 21
236.051085
 31
0.0
  0
ARC
  5
5128
330
4EDA
100
AcDbEntity
  8
1
  6
Continuous
100
AcDbCircle
 10
506.2846109999998
 20
236.539184
 30
0.0
 40
0.044452
100
AcDbArc
 50
157.056
 51
270.0
  0
ARC
  5
5129
330
4EDA
100
AcDbEntity
  8
1
  6
Continuous
100
AcDbCircle
 10
511.113276
 20
234.4956629999999
 30
0.0
 40
5.288524999999999
100
AcDbArc
 50
153.986
 51
157.056
  0
ARC
  5
512A
330
4EDA
100
AcDbEntity
  8
1
  6
Continuous
100
AcDbCircle
 10
503.64743
 20
234.4956629999999
 30
0.0
 40
5.732929999999998
100
AcDbArc
 50
324.4619999999998
 51
35.5377
  0
ARC
  5
512B
330
4EDA
100
AcDbEntity
  8
1
  6
Continuous
100
AcDbCircle
 10
511.113276
 20
234.4956629999999
 30
0.0
 40
5.732929999999998
100
AcDbArc
 50
144.462
 51
215.5379999999999
  0
ARC
  5
512C
330
4EDA
100
AcDbEntity
  8
1
  6
Continuous
100
AcDbCircle
 10
508.53474
 20
235.8282369999999
 30
0.0
 40
0.222261
100
AcDbArc
 50
15.2575
 51
90.0
  0
ARC
  5
512D
330
4EDA
100
AcDbEntity
  8
1
  6
Continuous
100
AcDbCircle
 10
506.225966
 20
235.8282369999999
 30
0.0
 40
0.222261
100
AcDbArc
 50
90.0
 51
164.7419999999998
  0
LINE
  5
512E
330
4EDA
100
AcDbEntity
  8
1
  6
Continuous
100
AcDbLine
 10
508.374404
 20
230.0095629999999
 30
0.0
 11
508.374404
 21
228.3895629999999
 31
0.0
  0
LINE
  5
512F
330
4EDA
100
AcDbEntity
  8
1
  6
Continuous
100
AcDbLine
 10
508.374404
 20
229.2031629999999
 30
0.0
 11
506.3872039999998
 21
229.2031629999999
 31
0.0
  0
LINE
  5
5130
330
4EDA
100
AcDbEntity
  8
1
  6
Continuous
100
AcDbLine
 10
506.5883
 20
227.271445
 30
0.0
 11
506.679452
 21
227.3887329999999
 31
0.0
  0
LINE
  5
5131
330
4EDA
100
AcDbEntity
  8
1
  6
Continuous
100
AcDbLine
 10
506.679452
 20
227.3887329999999
 30
0.0
 11
506.792096
 21
227.491009
 31
0.0
  0
LINE
  5
5132
330
4EDA
100
AcDbEntity
  8
1
  6
Continuous
100
AcDbLine
 10
506.792096
 20
227.491009
 30
0.0
 11
506.9229919999997
 21
227.575249
 31
0.0
  0
LINE
  5
5133
330
4EDA
100
AcDbEntity
  8
1
  6
Continuous
100
AcDbLine
 10
506.9229919999997
 20
227.575249
 30
0.0
 11
507.068396
 21
227.6390769999999
 31
0.0
  0
LINE
  5
5134
330
4EDA
100
AcDbEntity
  8
1
  6
Continuous
100
AcDbLine
 10
507.068396
 20
227.6390769999999
 30
0.0
 11
507.224132
 21
227.680657
 31
0.0
  0
LINE
  5
5135
330
4EDA
100
AcDbEntity
  8
1
  6
Continuous
100
AcDbLine
 10
507.224132
 20
227.680657
 30
0.0
 11
507.3857
 21
227.6988009999997
 31
0.0
  0
LINE
  5
5136
330
4EDA
100
AcDbEntity
  8
1
  6
Continuous
100
AcDbLine
 10
507.3857
 20
227.6988009999997
 30
0.0
 11
507.5484559999998
 21
227.692969
 31
0.0
  0
LINE
  5
5137
330
4EDA
100
AcDbEntity
  8
1
  6
Continuous
100
AcDbLine
 10
507.5484559999998
 20
227.692969
 30
0.0
 11
507.7077559999998
 21
227.663341
 31
0.0
  0
LINE
  5
5138
330
4EDA
100
AcDbEntity
  8
1
  6
Continuous
100
AcDbLine
 10
507.7077559999998
 20
227.663341
 30
0.0
 11
507.8589919999997
 21
227.610745
 31
0.0
  0
LINE
  5
5139
330
4EDA
100
AcDbEntity
  8
1
  6
Continuous
100
AcDbLine
 10
507.8589919999997
 20
227.610745
 30
0.0
 11
507.9978439999998
 21
227.536729
 31
0.0
  0
LINE
  5
513A
330
4EDA
100
AcDbEntity
  8
1
  6
Continuous
100
AcDbLine
 10
507.9978439999998
 20
227.536729
 30
0.0
 11
508.120316
 21
227.4434169999999
 31
0.0
  0
LINE
  5
513B
330
4EDA
100
AcDbEntity
  8
1
  6
Continuous
100
AcDbLine
 10
508.120316
 20
227.4434169999999
 30
0.0
 11
508.2229159999998
 21
227.333437
 31
0.0
  0
LINE
  5
513C
330
4EDA
100
AcDbEntity
  8
1
  6
Continuous
100
AcDbLine
 10
508.2229159999998
 20
227.333437
 30
0.0
 11
508.3026559999996
 21
227.209993
 31
0.0
  0
LINE
  5
513D
330
4EDA
100
AcDbEntity
  8
1
  6
Continuous
100
AcDbLine
 10
505.041071
 20
227.669183
 30
0.0
 11
503.053871
 21
227.669183
 31
0.0
  0
LINE
  5
513E
330
4EDA
100
AcDbEntity
  8
1
  6
Continuous
100
AcDbLine
 10
505.041071
 20
230.1085159999999
 30
0.0
 11
505.041071
 21
228.4885159999999
 31
0.0
  0
LINE
  5
513F
330
4EDA
100
AcDbEntity
  8
1
  6
Continuous
100
AcDbLine
 10
505.041071
 20
229.298516
 30
0.0
 11
503.053871
 21
229.298516
 31
0.0
  0
LINE
  5
5140
330
4EDA
100
AcDbEntity
  8
1
  6
Continuous
100
AcDbLine
 10
102.017751
 20
239.2575879999998
 30
0.0
 11
106.4228729999999
 21
171.887136
 31
0.0
  0
LINE
  5
5141
330
4EDA
100
AcDbEntity
  8
1
  6
Continuous
100
AcDbLine
 10
126.165403
 20
239.2575879999998
 30
0.0
 11
121.760281
 21
171.887136
 31
0.0
  0
LINE
  5
5142
330
4EDA
100
AcDbEntity
  8
4
  6
CENTER
100
AcDbLine
 10
114.091577
 20
164.307033
 30
0.0
 11
114.091577
 21
298.3070329999998
 31
0.0
  0
ARC
  5
5143
330
4EDA
100
AcDbEntity
  8
1
  6
Continuous
100
AcDbCircle
 10
114.091577
 20
194.3070329999999
 30
0.0
 40
25.0
100
AcDbArc
 50
255.720595
 51
284.279405
  0
ARC
  5
5144
330
4EDA
100
AcDbEntity
  8
1
  6
Continuous
100
AcDbCircle
 10
108.418611
 20
172.017631
 30
0.0
 40
2.0
100
AcDbArc
 50
183.741048
 51
255.720595
  0
ARC
  5
5145
330
4EDA
100
AcDbEntity
  8
1
  6
Continuous
100
AcDbCircle
 10
119.7645429999999
 20
172.017631
 30
0.0
 40
2.0
100
AcDbArc
 50
284.279405
 51
356.258952
  0
LINE
  5
5146
330
4EDA
100
AcDbEntity
  8
4
  6
CENTER
100
AcDbLine
 10
23.158909
 20
216.8070329999999
 30
0.0
 11
126.591577
 21
276.5239119999999
 31
0.0
  0
ARC
  5
5147
330
4EDA
100
AcDbEntity
  8
5
  6
PHANTOM
100
AcDbCircle
 10
27.0
 20
225.575265
 30
0.0
 40
2.0
100
AcDbArc
 50
123.7410479999999
 51
195.720595
  0
ARC
  5
5148
330
4EDA
100
AcDbEntity
  8
5
  6
PHANTOM
100
AcDbCircle
 10
49.139671
 20
231.8070329999999
 30
0.0
 40
25.0
100
AcDbArc
 50
195.720595
 51
224.2794049999997
  0
LINE
  5
5149
330
4EDA
100
AcDbEntity
  8
5
  6
PHANTOM
100
AcDbLine
 10
94.104907
 20
243.8260709999999
 30
0.0
 11
33.55782299999999
 21
213.955792
 31
0.0
  0
LINE
  5
514A
330
4EDA
100
AcDbEntity
  8
5
  6
PHANTOM
100
AcDbLine
 10
82.03108099999999
 20
264.7385509999998
 30
0.0
 11
25.889119
 21
227.238377
 31
0.0
  0
ARC
  5
514B
330
4EDA
100
AcDbEntity
  8
5
  6
PHANTOM
100
AcDbCircle
 10
32.67296599999998
 20
215.7494
 30
0.0
 40
2.0
100
AcDbArc
 50
224.2794049999997
 51
296.258952
  0
LINE
  5
514C
330
4EDA
100
AcDbEntity
  8
1
  6
Continuous
100
AcDbLine
 10
389.484461
 20
406.614066
 30
0.0
 11
389.484461
 21
388.6140659999999
 31
0.0
  0
LINE
  5
514D
330
4EDA
100
AcDbEntity
  8
1
  6
Continuous
100
AcDbLine
 10
392.484461
 20
406.614066
 30
0.0
 11
392.484461
 21
388.6140659999999
 31
0.0
  0
LINE
  5
514E
330
4EDA
100
AcDbEntity
  8
1
  6
Continuous
100
AcDbLine
 10
391.484461
 20
406.614066
 30
0.0
 11
391.484461
 21
388.6140659999999
 31
0.0
  0
LINE
  5
514F
330
4EDA
100
AcDbEntity
  8
1
  6
Continuous
100
AcDbLine
 10
409.3039359999997
 20
391.514066
 30
0.0
 11
409.3039359999997
 21
403.714066
 31
0.0
  0
LINE
  5
5150
330
4EDA
100
AcDbEntity
  8
1
  6
Continuous
100
AcDbLine
 10
409.3039359999997
 20
391.8405639999999
 30
0.0
 11
409.3039359999997
 21
403.387569
 31
0.0
  0
LINE
  5
5151
330
4EDA
100
AcDbEntity
  8
1
  6
Continuous
100
AcDbLine
 10
407.803936
 20
389.614066
 30
0.0
 11
407.803936
 21
405.6140659999998
 31
0.0
  0
LINE
  5
5152
330
4EDA
100
AcDbEntity
  8
1
  6
Continuous
100
AcDbLine
 10
406.3039359999998
 20
405.6140659999998
 30
0.0
 11
406.3039359999998
 21
389.614066
 31
0.0
  0
LINE
  5
5153
330
4EDA
100
AcDbEntity
  8
1
  6
Continuous
100
AcDbLine
 10
391.484461
 20
388.6140659999999
 30
0.0
 11
389.484461
 21
388.6140659999999
 31
0.0
  0
LINE
  5
5154
330
4EDA
100
AcDbEntity
  8
1
  6
Continuous
100
AcDbLine
 10
392.484461
 20
388.6140659999999
 30
0.0
 11
391.484461
 21
388.6140659999999
 31
0.0
  0
LINE
  5
5155
330
4EDA
100
AcDbEntity
  8
1
  6
Continuous
100
AcDbLine
 10
409.3039359999997
 20
391.514066
 30
0.0
 11
407.803936
 21
391.514066
 31
0.0
  0
LINE
  5
5156
330
4EDA
100
AcDbEntity
  8
1
  6
Continuous
100
AcDbLine
 10
407.803936
 20
389.614066
 30
0.0
 11
406.3039359999998
 21
389.614066
 31
0.0
  0
LINE
  5
5157
330
4EDA
100
AcDbEntity
  8
1
  6
Continuous
100
AcDbLine
 10
407.803936
 20
397.614066
 30
0.0
 11
409.3039359999997
 21
399.1140659999999
 31
0.0
  0
LINE
  5
5158
330
4EDA
100
AcDbEntity
  8
1
  6
Continuous
100
AcDbLine
 10
407.803936
 20
396.1140659999998
 30
0.0
 11
409.3039359999997
 21
397.614066
 31
0.0
  0
LINE
  5
5159
330
4EDA
100
AcDbEntity
  8
1
  6
Continuous
100
AcDbLine
 10
391.484461
 20
406.614066
 30
0.0
 11
389.484461
 21
406.614066
 31
0.0
  0
LINE
  5
515A
330
4EDA
100
AcDbEntity
  8
1
  6
Continuous
100
AcDbLine
 10
392.484461
 20
406.614066
 30
0.0
 11
391.484461
 21
406.614066
 31
0.0
  0
LINE
  5
515B
330
4EDA
100
AcDbEntity
  8
1
  6
Continuous
100
AcDbLine
 10
409.3039359999997
 20
403.714066
 30
0.0
 11
407.803936
 21
403.714066
 31
0.0
  0
LINE
  5
515C
330
4EDA
100
AcDbEntity
  8
1
  6
Continuous
100
AcDbLine
 10
407.803936
 20
405.6140659999998
 30
0.0
 11
406.3039359999998
 21
405.6140659999998
 31
0.0
  0
LINE
  5
515D
330
4EDA
100
AcDbEntity
  8
1
  6
Continuous
100
AcDbLine
 10
333.7387749999999
 20
402.7759459999998
 30
0.0
 11
333.7387749999999
 21
392.4521869999999
 31
0.0
  0
LINE
  5
515E
330
4EDA
100
AcDbEntity
  8
2
  6
Continuous
100
AcDbLine
 10
333.438775
 20
397.614066
 30
0.0
 11
328.7387749999999
 21
403.0759459999998
 31
0.0
  0
LINE
  5
515F
330
4EDA
100
AcDbEntity
  8
2
  6
Continuous
100
AcDbLine
 10
333.438775
 20
403.0759459999998
 30
0.0
 11
328.7387749999999
 21
397.614066
 31
0.0
  0
LINE
  5
5160
330
4EDA
100
AcDbEntity
  8
1
  6
Continuous
100
AcDbLine
 10
301.938775
 20
385.114066
 30
0.0
 11
301.938775
 21
410.1140659999998
 31
0.0
  0
LINE
  5
5161
330
4EDA
100
AcDbEntity
  8
1
  6
Continuous
100
AcDbLine
 10
314.438775
 20
421.6140659999998
 30
0.0
 11
314.438775
 21
373.6140659999999
 31
0.0
  0
LINE
  5
5162
330
4EDA
100
AcDbEntity
  8
1
  6
Continuous
100
AcDbLine
 10
313.438775
 20
421.6140659999998
 30
0.0
 11
313.438775
 21
373.6140659999999
 31
0.0
  0
LINE
  5
5163
330
4EDA
100
AcDbEntity
  8
1
  6
Continuous
100
AcDbLine
 10
309.938775
 20
419.614066
 30
0.0
 11
309.938775
 21
375.6140659999999
 31
0.0
  0
LINE
  5
5164
330
4EDA
100
AcDbEntity
  8
1
  6
Continuous
100
AcDbLine
 10
316.438775
 20
408.6140659999998
 30
0.0
 11
316.438775
 21
402.706953
 31
0.0
  0
LINE
  5
5165
330
4EDA
100
AcDbEntity
  8
1
  6
Continuous
100
AcDbLine
 10
301.9887749999999
 20
409.787882
 30
0.0
 11
301.9887749999999
 21
385.4402509999999
 31
0.0
  0
LINE
  5
5166
330
4EDA
100
AcDbEntity
  8
1
  6
Continuous
100
AcDbLine
 10
328.5387749999998
 20
407.114066
 30
0.0
 11
328.5387749999998
 21
388.1140659999999
 31
0.0
  0
LINE
  5
5167
330
4EDA
100
AcDbEntity
  8
1
  6
Continuous
100
AcDbLine
 10
327.138775
 20
408.514066
 30
0.0
 11
327.138775
 21
402.706953
 31
0.0
  0
LINE
  5
5168
330
4EDA
100
AcDbEntity
  8
1
  6
Continuous
100
AcDbLine
 10
328.7387749999999
 20
391.114066
 30
0.0
 11
328.7387749999999
 21
404.1140659999999
 31
0.0
  0
LINE
  5
5169
330
4EDA
100
AcDbEntity
  8
4
  6
CENTER
100
AcDbLine
 10
254.8387749999999
 20
397.614066
 30
0.0
 11
337.426284
 21
397.614066
 31
0.0
  0
LINE
  5
516A
330
4EDA
100
AcDbEntity
  8
1
  6
Continuous
100
AcDbLine
 10
314.438775
 20
373.6140659999999
 30
0.0
 11
313.438775
 21
373.6140659999999
 31
0.0
  0
ARC
  5
516B
330
4EDA
100
AcDbEntity
  8
1
  6
Continuous
100
AcDbCircle
 10
311.938775
 20
375.6140659999999
 30
0.0
 40
2.0
100
AcDbArc
 50
222.3553149999999
 51
270.0
  0
ARC
  5
516C
330
4EDA
100
AcDbEntity
  8
1
  6
Continuous
100
AcDbCircle
 10
311.938775
 20
375.6140659999999
 30
0.0
 40
2.0
100
AcDbArc
 50
180.0
 51
222.3553149999999
  0
LINE
  5
516D
330
4EDA
100
AcDbEntity
  8
1
  6
Continuous
100
AcDbLine
 10
311.938775
 20
373.6140659999999
 30
0.0
 11
313.438775
 21
373.6140659999999
 31
0.0
  0
LINE
  5
516E
330
4EDA
100
AcDbEntity
  8
1
  6
Continuous
100
AcDbLine
 10
327.0387749999998
 20
386.6140659999999
 30
0.0
 11
314.438775
 21
386.6140659999999
 31
0.0
  0
LINE
  5
516F
330
4EDA
100
AcDbEntity
  8
1
  6
Continuous
100
AcDbLine
 10
328.7387749999999
 20
391.114066
 30
0.0
 11
328.5387749999998
 21
390.9140659999998
 31
0.0
  0
LINE
  5
5170
330
4EDA
100
AcDbEntity
  8
1
  6
Continuous
100
AcDbLine
 10
333.7387749999999
 20
397.614066
 30
0.0
 11
328.7387749999999
 21
397.614066
 31
0.0
  0
LINE
  5
5171
330
4EDA
100
AcDbEntity
  8
1
  6
Continuous
100
AcDbLine
 10
333.438775
 20
392.152187
 30
0.0
 11
328.7387749999999
 21
392.152187
 31
0.0
  0
LINE
  5
5172
330
4EDA
100
AcDbEntity
  8
2
  6
Continuous
100
AcDbLine
 10
328.7387749999999
 20
397.614066
 30
0.0
 11
333.438775
 21
392.152187
 31
0.0
  0
LINE
  5
5173
330
4EDA
100
AcDbEntity
  8
2
  6
Continuous
100
AcDbLine
 10
328.7387749999999
 20
392.152187
 30
0.0
 11
333.438775
 21
397.614066
 31
0.0
  0
ARC
  5
5174
330
4EDA
100
AcDbEntity
  8
1
  6
Continuous
100
AcDbCircle
 10
333.438775
 20
392.4521869999999
 30
0.0
 40
0.3
100
AcDbArc
 50
270.0
 51
0.0
  0
LINE
  5
5175
330
4EDA
100
AcDbEntity
  8
1
  6
Continuous
100
AcDbLine
 10
315.938775
 20
401.1140659999998
 30
0.0
 11
315.938775
 21
394.1140659999999
 31
0.0
  0
LINE
  5
5176
330
4EDA
100
AcDbEntity
  8
1
  6
Continuous
100
AcDbLine
 10
333.438775
 20
403.0759459999998
 30
0.0
 11
328.7387749999999
 21
403.0759459999998
 31
0.0
  0
LINE
  5
5177
330
4EDA
100
AcDbEntity
  8
1
  6
Continuous
100
AcDbLine
 10
328.5387749999998
 20
404.314066
 30
0.0
 11
328.7387749999999
 21
404.1140659999999
 31
0.0
  0
ARC
  5
5178
330
4EDA
100
AcDbEntity
  8
1
  6
Continuous
100
AcDbCircle
 10
333.438775
 20
402.7759459999998
 30
0.0
 40
0.3
100
AcDbArc
 50
0.0
 51
90.0
  0
LINE
  5
5179
330
4EDA
100
AcDbEntity
  8
1
  6
Continuous
100
AcDbLine
 10
315.938775
 20
401.1140659999998
 30
0.0
 11
314.438775
 21
401.1140659999998
 31
0.0
  0
LINE
  5
517A
330
4EDA
100
AcDbEntity
  8
1
  6
Continuous
100
AcDbLine
 10
314.438775
 20
421.6140659999998
 30
0.0
 11
313.438775
 21
421.6140659999998
 31
0.0
  0
ARC
  5
517B
330
4EDA
100
AcDbEntity
  8
1
  6
Continuous
100
AcDbCircle
 10
311.938775
 20
419.614066
 30
0.0
 40
2.0
100
AcDbArc
 50
137.644685
 51
180.0
  0
ARC
  5
517C
330
4EDA
100
AcDbEntity
  8
1
  6
Continuous
100
AcDbCircle
 10
311.938775
 20
419.614066
 30
0.0
 40
2.0
100
AcDbArc
 50
90.0
 51
137.644685
  0
LINE
  5
517D
330
4EDA
100
AcDbEntity
  8
1
  6
Continuous
100
AcDbLine
 10
311.938775
 20
421.6140659999998
 30
0.0
 11
313.438775
 21
421.6140659999998
 31
0.0
  0
LINE
  5
517E
330
4EDA
100
AcDbEntity
  8
1
  6
Continuous
100
AcDbLine
 10
315.938775
 20
394.1140659999999
 30
0.0
 11
314.438775
 21
394.1140659999999
 31
0.0
  0
LINE
  5
517F
330
4EDA
100
AcDbEntity
  8
1
  6
Continuous
100
AcDbLine
 10
302.287309
 20
410.245497
 30
0.0
 11
308.744638
 21
413.0883459999997
 31
0.0
  0
LINE
  5
5180
330
4EDA
100
AcDbEntity
  8
1
  6
Continuous
100
AcDbLine
 10
302.287309
 20
384.982636
 30
0.0
 11
308.744638
 21
382.139787
 31
0.0
  0
ARC
  5
5181
330
4EDA
100
AcDbEntity
  8
1
  6
Continuous
100
AcDbCircle
 10
307.938775
 20
414.918806
 30
0.0
 40
2.0
100
AcDbArc
 50
293.761569
 51
0.0
  0
ARC
  5
5182
330
4EDA
100
AcDbEntity
  8
1
  6
Continuous
100
AcDbCircle
 10
307.938775
 20
380.309327
 30
0.0
 40
2.0
100
AcDbArc
 50
0.0
 51
66.23843100000001
  0
ARC
  5
5183
330
4EDA
100
AcDbEntity
  8
1
  6
Continuous
100
AcDbCircle
 10
302.4887749999999
 20
409.787882
 30
0.0
 40
0.5
100
AcDbArc
 50
113.7615689999998
 51
180.0
  0
ARC
  5
5184
330
4EDA
100
AcDbEntity
  8
1
  6
Continuous
100
AcDbCircle
 10
302.4887749999999
 20
385.4402509999999
 30
0.0
 40
0.5
100
AcDbArc
 50
180.0
 51
246.238431
  0
LINE
  5
5185
330
4EDA
100
AcDbEntity
  8
1
  6
Continuous
100
AcDbLine
 10
262.4703898488812
 20
410.1140659999998
 30
0.0
 11
301.938775
 21
410.1140659999998
 31
0.0
  0
LINE
  5
5186
330
4EDA
100
AcDbEntity
  8
1
  6
Continuous
100
AcDbLine
 10
262.4703898488812
 20
385.114066
 30
0.0
 11
301.938775
 21
385.114066
 31
0.0
  0
LINE
  5
5187
330
4EDA
100
AcDbEntity
  8
1
  6
Continuous
100
AcDbLine
 10
327.0387749999998
 20
408.6140659999998
 30
0.0
 11
314.438775
 21
408.6140659999998
 31
0.0
  0
LINE
  5
5188
330
4EDA
100
AcDbEntity
  8
1
  6
Continuous
100
AcDbLine
 10
327.0387749999998
 20
408.6140659999998
 30
0.0
 11
328.5387749999998
 21
407.114066
 31
0.0
  0
LINE
  5
5189
330
4EDA
100
AcDbEntity
  8
1
  6
Continuous
100
AcDbLine
 10
328.5387749999998
 20
388.1140659999999
 30
0.0
 11
327.0387749999998
 21
386.6140659999999
 31
0.0
  0
LINE
  5
518A
330
4EDA
100
AcDbEntity
  8
2
  6
Continuous
100
AcDbLine
 10
316.438775
 20
407.8020659999998
 30
0.0
 11
315.03235
 21
408.6140659999998
 31
0.0
  0
LINE
  5
518B
330
4EDA
100
AcDbEntity
  8
2
  6
Continuous
100
AcDbLine
 10
316.438775
 20
387.426066
 30
0.0
 11
327.850775
 21
387.426066
 31
0.0
  0
LINE
  5
518C
330
4EDA
100
AcDbEntity
  8
2
  6
Continuous
100
AcDbLine
 10
316.438775
 20
387.426066
 30
0.0
 11
315.03235
 21
386.6140659999999
 31
0.0
  0
LINE
  5
518D
330
4EDA
100
AcDbEntity
  8
2
  6
Continuous
100
AcDbLine
 10
316.438775
 20
407.8020659999998
 30
0.0
 11
327.850775
 21
407.8020659999998
 31
0.0
  0
LINE
  5
518E
330
4EDA
100
AcDbEntity
  8
1
  6
Continuous
100
AcDbLine
 10
314.438775
 20
402.706953
 30
0.0
 11
327.138775
 21
402.706953
 31
0.0
  0
LINE
  5
518F
330
4EDA
100
AcDbEntity
  8
1
  6
Continuous
100
AcDbLine
 10
314.438775
 20
392.521179
 30
0.0
 11
327.138775
 21
392.521179
 31
0.0
  0
LINE
  5
5190
330
4EDA
100
AcDbEntity
  8
1
  6
Continuous
100
AcDbLine
 10
327.138775
 20
392.521179
 30
0.0
 11
327.138775
 21
386.714066
 31
0.0
  0
LINE
  5
5191
330
4EDA
100
AcDbEntity
  8
1
  6
Continuous
100
AcDbLine
 10
316.438775
 20
392.521179
 30
0.0
 11
316.438775
 21
386.6140659999999
 31
0.0
  0
ARC
  5
5192
330
4EDA
100
AcDbEntity
  8
1
  6
Continuous
100
AcDbCircle
 10
316.436602
 20
397.614066
 30
0.0
 40
11.85217299999999
100
AcDbArc
 50
334.5514329999998
 51
25.448567
  0
LINE
  5
5193
330
4EDA
100
AcDbEntity
  8
2
  6
Continuous
100
AcDbLine
 10
327.138775
 20
392.521179
 30
0.0
 11
314.438775
 21
402.706953
 31
0.0
  0
LINE
  5
5194
330
4EDA
100
AcDbEntity
  8
2
  6
Continuous
100
AcDbLine
 10
314.438775
 20
392.521179
 30
0.0
 11
327.138775
 21
402.706953
 31
0.0
  0
LINE
  5
5195
330
4EDA
100
AcDbEntity
  8
1
  6
Continuous
100
AcDbLine
 10
302.287309
 20
77.63143000000003
 30
0.0
 11
308.744638
 21
80.47427899999998
 31
0.0
  0
LINE
  5
5196
330
4EDA
100
AcDbEntity
  8
1
  6
Continuous
100
AcDbLine
 10
302.287309
 20
52.36857
 30
0.0
 11
308.744638
 21
49.52572100000001
 31
0.0
  0
LINE
  5
5197
330
4EDA
100
AcDbEntity
  8
4
  6
CENTER
100
AcDbLine
 10
254.8387749999999
 20
65.0
 30
0.0
 11
337.426284
 21
65.0
 31
0.0
  0
LINE
  5
5198
330
4EDA
100
AcDbEntity
  8
1
  6
Continuous
100
AcDbLine
 10
301.9887749999999
 20
52.82618499999998
 30
0.0
 11
301.9887749999999
 21
77.17381500000001
 31
0.0
  0
LINE
  5
5199
330
4EDA
100
AcDbEntity
  8
1
  6
Continuous
100
AcDbLine
 10
301.938775
 20
77.5
 30
0.0
 11
301.938775
 21
52.5
 31
0.0
  0
LINE
  5
519A
330
4EDA
100
AcDbEntity
  8
1
  6
Continuous
100
AcDbLine
 10
262.4703898488812
 20
77.5
 30
0.0
 11
301.938775
 21
77.5
 31
0.0
  0
ARC
  5
519B
330
4EDA
100
AcDbEntity
  8
1
  6
Continuous
100
AcDbCircle
 10
302.4887749999999
 20
77.17381500000001
 30
0.0
 40
0.5
100
AcDbArc
 50
113.7615689999998
 51
180.0
  0
LINE
  5
519C
330
4EDA
100
AcDbEntity
  8
1
  6
Continuous
100
AcDbLine
 10
262.4703898488812
 20
52.5
 30
0.0
 11
301.938775
 21
52.5
 31
0.0
  0
ARC
  5
519D
330
4EDA
100
AcDbEntity
  8
1
  6
Continuous
100
AcDbCircle
 10
302.4887749999999
 20
52.82618499999998
 30
0.0
 40
0.5
100
AcDbArc
 50
180.0
 51
246.238431
  0
ARC
  5
519E
330
4EDA
100
AcDbEntity
  8
1
  6
Continuous
100
AcDbCircle
 10
330.976682
 20
72.5
 30
0.0
 40
45.54429999999999
100
AcDbArc
 50
350.52165
 51
9.477999999999999
  0
ARC
  5
519F
330
4EDA
100
AcDbEntity
  8
1
  6
Continuous
100
AcDbCircle
 10
418.065682
 20
72.5
 30
0.0
 40
45.54429999999999
100
AcDbArc
 50
170.5219999999999
 51
189.4779999999999
  0
LINE
  5
51A0
330
4EDA
100
AcDbEntity
  8
1
  6
Continuous
100
AcDbLine
 10
309.938775
 20
43.0
 30
0.0
 11
309.938775
 21
87.0
 31
0.0
  0
LINE
  5
51A1
330
4EDA
100
AcDbEntity
  8
1
  6
Continuous
100
AcDbLine
 10
313.438775
 20
41.0
 30
0.0
 11
313.438775
 21
89.0
 31
0.0
  0
LINE
  5
51A2
330
4EDA
100
AcDbEntity
  8
1
  6
Continuous
100
AcDbLine
 10
314.438775
 20
41.0
 30
0.0
 11
314.438775
 21
89.0
 31
0.0
  0
LINE
  5
51A3
330
4EDA
100
AcDbEntity
  8
1
  6
Continuous
100
AcDbLine
 10
376.521682
 20
50.0
 30
0.0
 11
376.521682
 21
80.0
 31
0.0
  0
LINE
  5
51A4
330
4EDA
100
AcDbEntity
  8
1
  6
Continuous
100
AcDbLine
 10
372.5216819999998
 20
50.0
 30
0.0
 11
372.5216819999998
 21
80.0
 31
0.0
  0
ARC
  5
51A5
330
4EDA
100
AcDbEntity
  8
1
  6
Continuous
100
AcDbCircle
 10
307.938775
 20
82.30473999999999
 30
0.0
 40
2.0
100
AcDbArc
 50
293.761569
 51
0.0
  0
ARC
  5
51A6
330
4EDA
100
AcDbEntity
  8
1
  6
Continuous
100
AcDbCircle
 10
311.938775
 20
87.0
 30
0.0
 40
2.0
100
AcDbArc
 50
90.0
 51
137.644685
  0
LINE
  5
51A7
330
4EDA
100
AcDbEntity
  8
1
  6
Continuous
100
AcDbLine
 10
311.938775
 20
89.0
 30
0.0
 11
313.438775
 21
89.0
 31
0.0
  0
LINE
  5
51A8
330
4EDA
100
AcDbEntity
  8
1
  6
Continuous
100
AcDbLine
 10
314.438775
 20
89.0
 30
0.0
 11
313.438775
 21
89.0
 31
0.0
  0
ARC
  5
51A9
330
4EDA
100
AcDbEntity
  8
1
  6
Continuous
100
AcDbCircle
 10
311.938775
 20
87.0
 30
0.0
 40
2.0
100
AcDbArc
 50
137.644685
 51
180.0
  0
LINE
  5
51AA
330
4EDA
100
AcDbEntity
  8
1
  6
Continuous
100
AcDbLine
 10
372.5216819999998
 20
80.0
 30
0.0
 11
376.521682
 21
80.0
 31
0.0
  0
LINE
  5
51AB
330
4EDA
100
AcDbEntity
  8
1
  6
Continuous
100
AcDbLine
 10
327.138775
 20
54.1
 30
0.0
 11
327.138775
 21
59.907113
 31
0.0
  0
LINE
  5
51AC
330
4EDA
100
AcDbEntity
  8
1
  6
Continuous
100
AcDbLine
 10
316.438775
 20
54.0
 30
0.0
 11
316.438775
 21
59.907113
 31
0.0
  0
LINE
  5
51AD
330
4EDA
100
AcDbEntity
  8
1
  6
Continuous
100
AcDbLine
 10
328.5387749999998
 20
55.5
 30
0.0
 11
328.5387749999998
 21
74.5
 31
0.0
  0
LINE
  5
51AE
330
4EDA
100
AcDbEntity
  8
1
  6
Continuous
100
AcDbLine
 10
333.438775
 20
59.53811999999999
 30
0.0
 11
328.7387749999999
 21
59.53811999999999
 31
0.0
  0
LINE
  5
51AF
330
4EDA
100
AcDbEntity
  8
2
  6
Continuous
100
AcDbLine
 10
328.7387749999999
 20
70.46187900000003
 30
0.0
 11
333.438775
 21
65.0
 31
0.0
  0
LINE
  5
51B0
330
4EDA
100
AcDbEntity
  8
2
  6
Continuous
100
AcDbLine
 10
328.7387749999999
 20
65.0
 30
0.0
 11
333.438775
 21
70.46187900000003
 31
0.0
  0
LINE
  5
51B1
330
4EDA
100
AcDbEntity
  8
1
  6
Continuous
100
AcDbLine
 10
333.438775
 20
70.46187900000003
 30
0.0
 11
328.7387749999999
 21
70.46187900000003
 31
0.0
  0
LINE
  5
51B2
330
4EDA
100
AcDbEntity
  8
1
  6
Continuous
100
AcDbLine
 10
333.7387749999999
 20
65.0
 30
0.0
 11
328.7387749999999
 21
65.0
 31
0.0
  0
LINE
  5
51B3
330
4EDA
100
AcDbEntity
  8
2
  6
Continuous
100
AcDbLine
 10
333.438775
 20
59.53811999999999
 30
0.0
 11
328.7387749999999
 21
65.0
 31
0.0
  0
LINE
  5
51B4
330
4EDA
100
AcDbEntity
  8
2
  6
Continuous
100
AcDbLine
 10
333.438775
 20
65.0
 30
0.0
 11
328.7387749999999
 21
59.53811999999999
 31
0.0
  0
LINE
  5
51B5
330
4EDA
100
AcDbEntity
  8
2
  6
Continuous
100
AcDbLine
 10
314.438775
 20
70.092887
 30
0.0
 11
327.138775
 21
59.907113
 31
0.0
  0
LINE
  5
51B6
330
4EDA
100
AcDbEntity
  8
2
  6
Continuous
100
AcDbLine
 10
327.138775
 20
70.092887
 30
0.0
 11
314.438775
 21
59.907113
 31
0.0
  0
ARC
  5
51B7
330
4EDA
100
AcDbEntity
  8
1
  6
Continuous
100
AcDbCircle
 10
316.436602
 20
65.0
 30
0.0
 40
11.85217299999999
100
AcDbArc
 50
334.5514329999998
 51
25.448567
  0
LINE
  5
51B8
330
4EDA
100
AcDbEntity
  8
1
  6
Continuous
100
AcDbLine
 10
328.7387749999999
 20
71.5
 30
0.0
 11
328.7387749999999
 21
58.5
 31
0.0
  0
LINE
  5
51B9
330
4EDA
100
AcDbEntity
  8
1
  6
Continuous
100
AcDbLine
 10
314.438775
 20
70.092887
 30
0.0
 11
327.138775
 21
70.092887
 31
0.0
  0
LINE
  5
51BA
330
4EDA
100
AcDbEntity
  8
2
  6
Continuous
100
AcDbLine
 10
316.438775
 20
75.188
 30
0.0
 11
327.850775
 21
75.188
 31
0.0
  0
LINE
  5
51BB
330
4EDA
100
AcDbEntity
  8
1
  6
Continuous
100
AcDbLine
 10
327.0387749999998
 20
76.0
 30
0.0
 11
314.438775
 21
76.0
 31
0.0
  0
LINE
  5
51BC
330
4EDA
100
AcDbEntity
  8
1
  6
Continuous
100
AcDbLine
 10
316.438775
 20
70.092887
 30
0.0
 11
316.438775
 21
76.0
 31
0.0
  0
LINE
  5
51BD
330
4EDA
100
AcDbEntity
  8
2
  6
Continuous
100
AcDbLine
 10
316.438775
 20
75.188
 30
0.0
 11
315.03235
 21
76.0
 31
0.0
  0
LINE
  5
51BE
330
4EDA
100
AcDbEntity
  8
1
  6
Continuous
100
AcDbLine
 10
328.7387749999999
 20
71.5
 30
0.0
 11
328.5387749999998
 21
71.7
 31
0.0
  0
LINE
  5
51BF
330
4EDA
100
AcDbEntity
  8
1
  6
Continuous
100
AcDbLine
 10
327.138775
 20
70.092887
 30
0.0
 11
327.138775
 21
75.9
 31
0.0
  0
LINE
  5
51C0
330
4EDA
100
AcDbEntity
  8
1
  6
Continuous
100
AcDbLine
 10
328.5387749999998
 20
74.5
 30
0.0
 11
327.0387749999998
 21
76.0
 31
0.0
  0
LINE
  5
51C1
330
4EDA
100
AcDbEntity
  8
1
  6
Continuous
100
AcDbLine
 10
314.438775
 20
59.907113
 30
0.0
 11
327.138775
 21
59.907113
 31
0.0
  0
LINE
  5
51C2
330
4EDA
100
AcDbEntity
  8
1
  6
Continuous
100
AcDbLine
 10
315.938775
 20
61.5
 30
0.0
 11
314.438775
 21
61.5
 31
0.0
  0
LINE
  5
51C3
330
4EDA
100
AcDbEntity
  8
1
  6
Continuous
100
AcDbLine
 10
315.938775
 20
68.5
 30
0.0
 11
314.438775
 21
68.5
 31
0.0
  0
LINE
  5
51C4
330
4EDA
100
AcDbEntity
  8
1
  6
Continuous
100
AcDbLine
 10
315.938775
 20
61.5
 30
0.0
 11
315.938775
 21
68.5
 31
0.0
  0
LINE
  5
51C5
330
4EDA
100
AcDbEntity
  8
1
  6
Continuous
100
AcDbLine
 10
328.5387749999998
 20
58.3
 30
0.0
 11
328.7387749999999
 21
58.5
 31
0.0
  0
LINE
  5
51C6
330
4EDA
100
AcDbEntity
  8
1
  6
Continuous
100
AcDbLine
 10
333.7387749999999
 20
59.83812
 30
0.0
 11
333.7387749999999
 21
70.161879
 31
0.0
  0
ARC
  5
51C7
330
4EDA
100
AcDbEntity
  8
1
  6
Continuous
100
AcDbCircle
 10
333.438775
 20
70.161879
 30
0.0
 40
0.3
100
AcDbArc
 50
0.0
 51
90.0
  0
ARC
  5
51C8
330
4EDA
100
AcDbEntity
  8
1
  6
Continuous
100
AcDbCircle
 10
333.438775
 20
59.83812
 30
0.0
 40
0.3
100
AcDbArc
 50
270.0
 51
0.0
  0
LINE
  5
51C9
330
4EDA
100
AcDbEntity
  8
2
  6
Continuous
100
AcDbLine
 10
316.438775
 20
54.812
 30
0.0
 11
327.850775
 21
54.812
 31
0.0
  0
LINE
  5
51CA
330
4EDA
100
AcDbEntity
  8
1
  6
Continuous
100
AcDbLine
 10
327.0387749999998
 20
54.0
 30
0.0
 11
314.438775
 21
54.0
 31
0.0
  0
ARC
  5
51CB
330
4EDA
100
AcDbEntity
  8
1
  6
Continuous
100
AcDbCircle
 10
307.938775
 20
47.69525999999999
 30
0.0
 40
2.0
100
AcDbArc
 50
0.0
 51
66.23843100000001
  0
LINE
  5
51CC
330
4EDA
100
AcDbEntity
  8
2
  6
Continuous
100
AcDbLine
 10
316.438775
 20
54.812
 30
0.0
 11
315.03235
 21
54.0
 31
0.0
  0
LINE
  5
51CD
330
4EDA
100
AcDbEntity
  8
1
  6
Continuous
100
AcDbLine
 10
327.0387749999998
 20
54.0
 30
0.0
 11
328.5387749999998
 21
55.5
 31
0.0
  0
LINE
  5
51CE
330
4EDA
100
AcDbEntity
  8
1
  6
Continuous
100
AcDbLine
 10
311.938775
 20
41.0
 30
0.0
 11
313.438775
 21
41.0
 31
0.0
  0
ARC
  5
51CF
330
4EDA
100
AcDbEntity
  8
1
  6
Continuous
100
AcDbCircle
 10
311.938775
 20
43.0
 30
0.0
 40
2.0
100
AcDbArc
 50
222.3553149999999
 51
270.0
  0
ARC
  5
51D0
330
4EDA
100
AcDbEntity
  8
1
  6
Continuous
100
AcDbCircle
 10
311.938775
 20
43.0
 30
0.0
 40
2.0
100
AcDbArc
 50
180.0
 51
222.3553149999999
  0
LINE
  5
51D1
330
4EDA
100
AcDbEntity
  8
1
  6
Continuous
100
AcDbLine
 10
314.438775
 20
41.0
 30
0.0
 11
313.438775
 21
41.0
 31
0.0
  0
LINE
  5
51D2
330
4EDA
100
AcDbEntity
  8
1
  6
Continuous
100
AcDbLine
 10
391.484461
 20
56.0
 30
0.0
 11
391.484461
 21
74.0
 31
0.0
  0
LINE
  5
51D3
330
4EDA
100
AcDbEntity
  8
1
  6
Continuous
100
AcDbLine
 10
392.484461
 20
56.0
 30
0.0
 11
392.484461
 21
74.0
 31
0.0
  0
LINE
  5
51D4
330
4EDA
100
AcDbEntity
  8
1
  6
Continuous
100
AcDbLine
 10
406.3039359999998
 20
57.0
 30
0.0
 11
406.3039359999998
 21
73.0
 31
0.0
  0
LINE
  5
51D5
330
4EDA
100
AcDbEntity
  8
1
  6
Continuous
100
AcDbLine
 10
407.803936
 20
73.0
 30
0.0
 11
407.803936
 21
57.0
 31
0.0
  0
LINE
  5
51D6
330
4EDA
100
AcDbEntity
  8
1
  6
Continuous
100
AcDbLine
 10
389.484461
 20
56.0
 30
0.0
 11
389.484461
 21
74.0
 31
0.0
  0
LINE
  5
51D7
330
4EDA
100
AcDbEntity
  8
1
  6
Continuous
100
AcDbLine
 10
371.0216819999998
 20
51.0
 30
0.0
 11
371.0216819999998
 21
79.0
 31
0.0
  0
LINE
  5
51D8
330
4EDA
100
AcDbEntity
  8
1
  6
Continuous
100
AcDbLine
 10
378.021682
 20
51.0
 30
0.0
 11
378.021682
 21
79.0
 31
0.0
  0
ARC
  5
51D9
330
4EDA
100
AcDbEntity
  8
1
  6
Continuous
100
AcDbCircle
 10
330.976682
 20
57.5
 30
0.0
 40
45.54429999999999
100
AcDbArc
 50
350.52165
 51
9.477999999999999
  0
ARC
  5
51DA
330
4EDA
100
AcDbEntity
  8
1
  6
Continuous
100
AcDbCircle
 10
418.065682
 20
57.5
 30
0.0
 40
45.54429999999999
100
AcDbArc
 50
170.5219999999999
 51
189.4779999999999
  0
LINE
  5
51DB
330
4EDA
100
AcDbEntity
  8
1
  6
Continuous
100
AcDbLine
 10
391.484461
 20
74.0
 30
0.0
 11
389.484461
 21
74.0
 31
0.0
  0
LINE
  5
51DC
330
4EDA
100
AcDbEntity
  8
4
  6
CENTER
100
AcDbLine
 10
364.5216819999998
 20
65.0
 30
0.0
 11
418.3039359999998
 21
65.0
 31
0.0
  0
LINE
  5
51DD
330
4EDA
100
AcDbEntity
  8
1
  6
Continuous
100
AcDbLine
 10
371.0216819999998
 20
79.0
 30
0.0
 11
372.5216819999998
 21
79.0
 31
0.0
  0
LINE
  5
51DE
330
4EDA
100
AcDbEntity
  8
1
  6
Continuous
100
AcDbLine
 10
376.521682
 20
79.0
 30
0.0
 11
378.021682
 21
79.0
 31
0.0
  0
LINE
  5
51DF
330
4EDA
100
AcDbEntity
  8
1
  6
Continuous
100
AcDbLine
 10
373.1426819999999
 20
65.0
 30
0.0
 11
375.899682
 21
65.0
 31
0.0
  0
ARC
  5
51E0
330
4EDA
100
AcDbEntity
  8
1
  6
Continuous
100
AcDbCircle
 10
406.0829359999996
 20
67.5
 30
0.0
 40
7.220389999999997
100
AcDbArc
 50
339.7419999999997
 51
20.2576
  0
LINE
  5
51E1
330
4EDA
100
AcDbEntity
  8
1
  6
Continuous
100
AcDbLine
 10
409.3039359999997
 20
70.77350200000002
 30
0.0
 11
409.3039359999997
 21
59.226497
 31
0.0
  0
LINE
  5
51E2
330
4EDA
100
AcDbEntity
  8
1
  6
Continuous
100
AcDbLine
 10
409.3039359999997
 20
71.09999999999998
 30
0.0
 11
409.3039359999997
 21
58.9
 31
0.0
  0
LINE
  5
51E3
330
4EDA
100
AcDbEntity
  8
1
  6
Continuous
100
AcDbLine
 10
413.3039359999997
 20
70.0
 30
0.0
 11
413.3039359999997
 21
60.0
 31
0.0
  0
LINE
  5
51E4
330
4EDA
100
AcDbEntity
  8
1
  6
Continuous
100
AcDbLine
 10
392.484461
 20
74.0
 30
0.0
 11
391.484461
 21
74.0
 31
0.0
  0
LINE
  5
51E5
330
4EDA
100
AcDbEntity
  8
1
  6
Continuous
100
AcDbLine
 10
407.803936
 20
73.0
 30
0.0
 11
406.3039359999998
 21
73.0
 31
0.0
  0
LINE
  5
51E6
330
4EDA
100
AcDbEntity
  8
1
  6
Continuous
100
AcDbLine
 10
409.3039359999997
 20
71.09999999999998
 30
0.0
 11
407.803936
 21
71.09999999999998
 31
0.0
  0
LINE
  5
51E7
330
4EDA
100
AcDbEntity
  8
1
  6
Continuous
100
AcDbLine
 10
413.3039359999997
 20
70.0
 30
0.0
 11
409.3039359999997
 21
70.0
 31
0.0
  0
LINE
  5
51E8
330
4EDA
100
AcDbEntity
  8
1
  6
Continuous
100
AcDbLine
 10
409.3039359999997
 20
58.9
 30
0.0
 11
407.803936
 21
58.9
 31
0.0
  0
LINE
  5
51E9
330
4EDA
100
AcDbEntity
  8
1
  6
Continuous
100
AcDbLine
 10
413.3039359999997
 20
60.0
 30
0.0
 11
409.3039359999997
 21
60.0
 31
0.0
  0
LINE
  5
51EA
330
4EDA
100
AcDbEntity
  8
1
  6
Continuous
100
AcDbLine
 10
407.803936
 20
63.5
 30
0.0
 11
409.3039359999997
 21
65.0
 31
0.0
  0
LINE
  5
51EB
330
4EDA
100
AcDbEntity
  8
1
  6
Continuous
100
AcDbLine
 10
412.7579359999998
 20
65.0
 30
0.0
 11
409.3039359999997
 21
65.0
 31
0.0
  0
LINE
  5
51EC
330
4EDA
100
AcDbEntity
  8
1
  6
Continuous
100
AcDbLine
 10
407.803936
 20
65.0
 30
0.0
 11
409.3039359999997
 21
66.5
 31
0.0
  0
ARC
  5
51ED
330
4EDA
100
AcDbEntity
  8
1
  6
Continuous
100
AcDbCircle
 10
406.0829359999996
 20
62.5
 30
0.0
 40
7.220389999999997
100
AcDbArc
 50
339.7419999999997
 51
20.2576
  0
LINE
  5
51EE
330
4EDA
100
AcDbEntity
  8
1
  6
Continuous
100
AcDbLine
 10
391.484461
 20
56.0
 30
0.0
 11
389.484461
 21
56.0
 31
0.0
  0
LINE
  5
51EF
330
4EDA
100
AcDbEntity
  8
1
  6
Continuous
100
AcDbLine
 10
372.5216819999998
 20
50.0
 30
0.0
 11
376.521682
 21
50.0
 31
0.0
  0
LINE
  5
51F0
330
4EDA
100
AcDbEntity
  8
1
  6
Continuous
100
AcDbLine
 10
371.0216819999998
 20
51.0
 30
0.0
 11
372.5216819999998
 21
51.0
 31
0.0
  0
LINE
  5
51F1
330
4EDA
100
AcDbEntity
  8
1
  6
Continuous
100
AcDbLine
 10
376.521682
 20
51.0
 30
0.0
 11
378.021682
 21
51.0
 31
0.0
  0
LINE
  5
51F2
330
4EDA
100
AcDbEntity
  8
1
  6
Continuous
100
AcDbLine
 10
392.484461
 20
56.0
 30
0.0
 11
391.484461
 21
56.0
 31
0.0
  0
LINE
  5
51F3
330
4EDA
100
AcDbEntity
  8
1
  6
Continuous
100
AcDbLine
 10
407.803936
 20
57.0
 30
0.0
 11
406.3039359999998
 21
57.0
 31
0.0
  0
ARC
  5
51F4
330
4EDA
100
AcDbEntity
  8
1
  6
Continuous
100
AcDbCircle
 10
326.438775
 20
65.0
 30
0.0
 40
60.0
100
AcDbArc
 50
173.674914
 51
186.3250859999999
  0
LINE
  5
51F5
330
4EDA
100
AcDbEntity
  8
1
  6
Continuous
100
AcDbLine
 10
278.438775
 20
63.5
 30
0.0
 11
278.438775
 21
66.5
 31
0.0
  0
LINE
  5
51F6
330
4EDA
100
AcDbEntity
  8
1
  6
Continuous
100
AcDbLine
 10
267.7979189999999
 20
72.5
 30
0.0
 11
272.438775
 21
72.5
 31
0.0
  0
LINE
  5
51F7
330
4EDA
100
AcDbEntity
  8
1
  6
Continuous
100
AcDbLine
 10
267.7979189999999
 20
57.5
 30
0.0
 11
272.438775
 21
57.5
 31
0.0
  0
ARC
  5
51F8
330
4EDA
100
AcDbEntity
  8
1
  6
Continuous
100
AcDbCircle
 10
272.438775
 20
66.5
 30
0.0
 40
6.0
100
AcDbArc
 50
0.0
 51
90.0
  0
ARC
  5
51F9
330
4EDA
100
AcDbEntity
  8
1
  6
Continuous
100
AcDbCircle
 10
272.438775
 20
63.5
 30
0.0
 40
6.0
100
AcDbArc
 50
270.0
 51
0.0
  0
ARC
  5
51FA
330
4EDA
100
AcDbEntity
  8
1
  6
Continuous
100
AcDbCircle
 10
267.7979189999999
 20
71.5
 30
0.0
 40
1.0
100
AcDbArc
 50
90.0
 51
173.674914
  0
ARC
  5
51FB
330
4EDA
100
AcDbEntity
  8
1
  6
Continuous
100
AcDbCircle
 10
267.7979189999999
 20
58.5
 30
0.0
 40
1.0
100
AcDbArc
 50
186.3250859999999
 51
270.0
  0
LINE
  5
51FC
330
4EDA
100
AcDbEntity
  8
1
  6
Continuous
100
AcDbLine
 10
273.438775
 20
72.41607999999998
 30
0.0
 11
273.438775
 21
74.029892
 31
0.0
  0
LINE
  5
51FD
330
4EDA
100
AcDbEntity
  8
1
  6
Continuous
100
AcDbLine
 10
274.780795
 20
74.96958499999998
 30
0.0
 11
278.438775
 21
73.63818899999998
 31
0.0
  0
ARC
  5
51FE
330
4EDA
100
AcDbEntity
  8
1
  6
Continuous
100
AcDbCircle
 10
274.438775
 20
74.029892
 30
0.0
 40
1.0
100
AcDbArc
 50
70.0
 51
180.0
  0
ARC
  5
51FF
330
4EDA
100
AcDbEntity
  8
1
  6
Continuous
100
AcDbCircle
 10
274.438775
 20
55.97010799999999
 30
0.0
 40
1.0
100
AcDbArc
 50
180.0
 51
290.0
  0
LINE
  5
5200
330
4EDA
100
AcDbEntity
  8
1
  6
Continuous
100
AcDbLine
 10
273.438775
 20
57.58391999999999
 30
0.0
 11
273.438775
 21
55.97010799999999
 31
0.0
  0
LINE
  5
5201
330
4EDA
100
AcDbEntity
  8
1
  6
Continuous
100
AcDbLine
 10
274.780795
 20
55.03041500000001
 30
0.0
 11
278.438775
 21
56.36181099999999
 31
0.0
  0
ARC
  5
5202
330
4EDA
100
AcDbEntity
  8
1
  6
Continuous
100
AcDbCircle
 10
600.2765839999997
 20
264.976906
 30
0.0
 40
2.164377999999996
100
AcDbArc
 50
138.1734519999999
 51
180.0
  0
ARC
  5
5203
330
4EDA
100
AcDbEntity
  8
1
  6
Continuous
100
AcDbCircle
 10
599.9478279999997
 20
264.976906
 30
0.0
 40
2.164377999999996
100
AcDbArc
 50
0.0
 51
41.82654799999999
  0
LINE
  5
5204
330
4EDA
100
AcDbEntity
  8
1
  6
Continuous
100
AcDbLine
 10
598.112206
 20
264.407033
 30
0.0
 11
598.112206
 21
274.207033
 31
0.0
  0
ARC
  5
5205
330
4EDA
100
AcDbEntity
  8
1
  6
Continuous
100
AcDbCircle
 10
605.9423860000001
 20
269.3070329999998
 30
0.0
 40
7.83018
100
AcDbArc
 50
158.366392
 51
201.633608
  0
LINE
  5
5206
330
4EDA
100
AcDbEntity
  8
1
  6
Continuous
100
AcDbLine
 10
602.112206
 20
263.207033
 30
0.0
 11
602.112206
 21
275.407033
 31
0.0
  0
LINE
  5
5207
330
4EDA
100
AcDbEntity
  8
1
  6
Continuous
100
AcDbLine
 10
602.112206
 20
263.5335309999999
 30
0.0
 11
602.112206
 21
275.080536
 31
0.0
  0
ARC
  5
5208
330
4EDA
100
AcDbEntity
  8
1
  6
Continuous
100
AcDbCircle
 10
594.2820259999997
 20
269.3070329999998
 30
0.0
 40
7.83018
100
AcDbArc
 50
338.366392
 51
21.63360799999999
  0
LINE
  5
5209
330
4EDA
100
AcDbEntity
  8
1
  6
Continuous
100
AcDbLine
 10
603.612206
 20
261.3070329999998
 30
0.0
 11
603.612206
 21
277.3070329999999
 31
0.0
  0
LINE
  5
520A
330
4EDA
100
AcDbEntity
  8
1
  6
Continuous
100
AcDbLine
 10
621.9316809999996
 20
278.307033
 30
0.0
 11
621.9316809999996
 21
260.3070329999998
 31
0.0
  0
LINE
  5
520B
330
4EDA
100
AcDbEntity
  8
1
  6
Continuous
100
AcDbLine
 10
605.1122059999999
 20
277.3070329999999
 30
0.0
 11
605.1122059999999
 21
261.3070329999998
 31
0.0
  0
LINE
  5
520C
330
4EDA
100
AcDbEntity
  8
1
  6
Continuous
100
AcDbLine
 10
618.9316809999998
 20
278.307033
 30
0.0
 11
618.9316809999998
 21
260.3070329999998
 31
0.0
  0
LINE
  5
520D
330
4EDA
100
AcDbEntity
  8
1
  6
Continuous
100
AcDbLine
 10
619.9316809999998
 20
278.307033
 30
0.0
 11
619.9316809999998
 21
260.3070329999998
 31
0.0
  0
LINE
  5
520E
330
4EDA
100
AcDbEntity
  8
1
  6
Continuous
100
AcDbLine
 10
619.9316809999998
 20
260.3070329999998
 30
0.0
 11
621.9316809999996
 21
260.3070329999998
 31
0.0
  0
LINE
  5
520F
330
4EDA
100
AcDbEntity
  8
1
  6
Continuous
100
AcDbLine
 10
618.9316809999998
 20
260.3070329999998
 30
0.0
 11
619.9316809999998
 21
260.3070329999998
 31
0.0
  0
LINE
  5
5210
330
4EDA
100
AcDbEntity
  8
1
  6
Continuous
100
AcDbLine
 10
598.616523
 20
263.5335309999999
 30
0.0
 11
601.607889
 21
263.5335309999999
 31
0.0
  0
LINE
  5
5211
330
4EDA
100
AcDbEntity
  8
1
  6
Continuous
100
AcDbLine
 10
598.663761
 20
266.4202819999998
 30
0.0
 11
601.560651
 21
266.4202819999998
 31
0.0
  0
LINE
  5
5212
330
4EDA
100
AcDbEntity
  8
1
  6
Continuous
100
AcDbLine
 10
598.616523
 20
263.5335309999999
 30
0.0
 11
598.112206
 21
264.407033
 31
0.0
  0
LINE
  5
5213
330
4EDA
100
AcDbEntity
  8
1
  6
Continuous
100
AcDbLine
 10
602.112206
 20
263.207033
 30
0.0
 11
603.612206
 21
263.207033
 31
0.0
  0
LINE
  5
5214
330
4EDA
100
AcDbEntity
  8
1
  6
Continuous
100
AcDbLine
 10
601.607889
 20
263.5335309999999
 30
0.0
 11
602.112206
 21
264.407033
 31
0.0
  0
LINE
  5
5215
330
4EDA
100
AcDbEntity
  8
1
  6
Continuous
100
AcDbLine
 10
603.612206
 20
261.3070329999998
 30
0.0
 11
605.1122059999999
 21
261.3070329999998
 31
0.0
  0
LINE
  5
5216
330
4EDA
100
AcDbEntity
  8
1
  6
Continuous
100
AcDbLine
 10
619.9316809999998
 20
278.307033
 30
0.0
 11
621.9316809999996
 21
278.307033
 31
0.0
  0
LINE
  5
5217
330
4EDA
100
AcDbEntity
  8
4
  6
CENTER
100
AcDbLine
 10
646.8944589999997
 20
269.3070329999998
 30
0.0
 11
593.1122059999998
 21
269.3070329999998
 31
0.0
  0
LINE
  5
5218
330
4EDA
100
AcDbEntity
  8
1
  6
Continuous
100
AcDbLine
 10
598.616523
 20
275.080536
 30
0.0
 11
601.607889
 21
275.080536
 31
0.0
  0
LINE
  5
5219
330
4EDA
100
AcDbEntity
  8
1
  6
Continuous
100
AcDbLine
 10
598.663761
 20
272.1937849999998
 30
0.0
 11
601.560651
 21
272.1937849999998
 31
0.0
  0
LINE
  5
521A
330
4EDA
100
AcDbEntity
  8
1
  6
Continuous
100
AcDbLine
 10
598.616523
 20
275.080536
 30
0.0
 11
598.112206
 21
274.207033
 31
0.0
  0
ARC
  5
521B
330
4EDA
100
AcDbEntity
  8
1
  6
Continuous
100
AcDbCircle
 10
600.2765839999997
 20
273.63716
 30
0.0
 40
2.164377999999996
100
AcDbArc
 50
180.0
 51
221.8265479999999
  0
LINE
  5
521C
330
4EDA
100
AcDbEntity
  8
1
  6
Continuous
100
AcDbLine
 10
602.112206
 20
275.407033
 30
0.0
 11
603.612206
 21
275.407033
 31
0.0
  0
LINE
  5
521D
330
4EDA
100
AcDbEntity
  8
1
  6
Continuous
100
AcDbLine
 10
601.607889
 20
275.080536
 30
0.0
 11
602.112206
 21
274.207033
 31
0.0
  0
ARC
  5
521E
330
4EDA
100
AcDbEntity
  8
1
  6
Continuous
100
AcDbCircle
 10
599.9478279999997
 20
273.63716
 30
0.0
 40
2.164377999999996
100
AcDbArc
 50
318.173452
 51
0.0
  0
LINE
  5
521F
330
4EDA
100
AcDbEntity
  8
1
  6
Continuous
100
AcDbLine
 10
603.612206
 20
270.8070329999998
 30
0.0
 11
602.112206
 21
269.3070329999998
 31
0.0
  0
LINE
  5
5220
330
4EDA
100
AcDbEntity
  8
1
  6
Continuous
100
AcDbLine
 10
603.612206
 20
269.3070329999998
 30
0.0
 11
602.112206
 21
267.807033
 31
0.0
  0
LINE
  5
5221
330
4EDA
100
AcDbEntity
  8
1
  6
Continuous
100
AcDbLine
 10
618.9316809999998
 20
278.307033
 30
0.0
 11
619.9316809999998
 21
278.307033
 31
0.0
  0
LINE
  5
5222
330
4EDA
100
AcDbEntity
  8
1
  6
Continuous
100
AcDbLine
 10
603.612206
 20
277.3070329999999
 30
0.0
 11
605.1122059999999
 21
277.3070329999999
 31
0.0
  0
LINE
  5
5223
330
4EDA
100
AcDbEntity
  8
1
  6
Continuous
100
AcDbLine
 10
503.053871
 20
217.2636129999999
 30
0.0
 11
503.053871
 21
216.263613
 31
0.0
  0
LINE
  5
5224
330
4EDA
100
AcDbEntity
  8
1
  6
Continuous
100
AcDbLine
 10
505.041071
 20
217.2636129999999
 30
0.0
 11
503.053871
 21
217.2636129999999
 31
0.0
  0
LINE
  5
5225
330
4EDA
100
AcDbEntity
  8
1
  6
Continuous
100
AcDbLine
 10
262.47039
 20
76.5
 30
0.0
 11
267.068754
 21
72.184337
 31
0.0
  0
LINE
  5
5226
330
4EDA
100
AcDbEntity
  8
1
  6
Continuous
100
AcDbLine
 10
262.47039
 20
53.5
 30
0.0
 11
267.068754
 21
57.815663
 31
0.0
  0
CIRCLE
  5
5227
330
4EDA
100
AcDbEntity
  8
1
  6
Continuous
100
AcDbCircle
 10
505.708071
 20
269.3070329999998
 30
0.0
 40
7.0
  0
LINE
  5
5228
330
4EDA
100
AcDbEntity
  8
1
  6
Continuous
100
AcDbLine
 10
500.3340589999998
 20
269.5191649999998
 30
0.0
 11
505.4959389999998
 21
274.6810449999999
 31
0.0
  0
LINE
  5
5229
330
4EDA
100
AcDbEntity
  8
1
  6
Continuous
100
AcDbLine
 10
505.920203
 20
274.6810449999999
 30
0.0
 11
511.0820819999998
 21
269.5191649999998
 31
0.0
  0
CIRCLE
  5
522A
330
4EDA
100
AcDbEntity
  8
1
  6
Continuous
100
AcDbCircle
 10
505.708071
 20
269.3070329999998
 30
0.0
 40
3.458499999999999
  0
CIRCLE
  5
522B
330
4EDA
100
AcDbEntity
  8
1
  6
Continuous
100
AcDbCircle
 10
505.708071
 20
269.3070329999998
 30
0.0
 40
2.458499999999999
  0
CIRCLE
  5
522C
330
4EDA
100
AcDbEntity
  8
2
  6
Continuous
100
AcDbCircle
 10
505.708071
 20
269.3070329999998
 30
0.0
 40
3.0
  0
LINE
  5
522D
330
4EDA
100
AcDbEntity
  8
1
  6
Continuous
100
AcDbLine
 10
505.920203
 20
263.933022
 30
0.0
 11
511.0820819999998
 21
269.094901
 31
0.0
  0
ARC
  5
522E
330
4EDA
100
AcDbEntity
  8
1
  6
Continuous
100
AcDbCircle
 10
505.708071
 20
264.1451539999998
 30
0.0
 40
0.3
100
AcDbArc
 50
225.0
 51
315.0
  0
ARC
  5
522F
330
4EDA
100
AcDbEntity
  8
1
  6
Continuous
100
AcDbCircle
 10
500.546191
 20
269.3070329999998
 30
0.0
 40
0.3
100
AcDbArc
 50
135.0
 51
225.0
  0
LINE
  5
5230
330
4EDA
100
AcDbEntity
  8
1
  6
Continuous
100
AcDbLine
 10
500.3340589999998
 20
269.094901
 30
0.0
 11
505.4959389999998
 21
263.933022
 31
0.0
  0
ARC
  5
5231
330
4EDA
100
AcDbEntity
  8
1
  6
Continuous
100
AcDbCircle
 10
510.86995
 20
269.3070329999998
 30
0.0
 40
0.3
100
AcDbArc
 50
315.0
 51
45.0
  0
LINE
  5
5232
330
4EDA
100
AcDbEntity
  8
4
  6
CENTER
100
AcDbLine
 10
505.708071
 20
312.826848
 30
0.0
 11
505.708071
 21
340.8268479999999
 31
0.0
  0
ARC
  5
5233
330
4EDA
100
AcDbEntity
  8
1
  6
Continuous
100
AcDbCircle
 10
505.708071
 20
274.4689129999998
 30
0.0
 40
0.3
100
AcDbArc
 50
45.0
 51
135.0
  0
LINE
  5
5234
330
4EDA
100
AcDbEntity
  8
4
  6
CENTER
100
AcDbLine
 10
519.708071
 20
326.8268479999999
 30
0.0
 11
491.708071
 21
326.8268479999999
 31
0.0
  0
CIRCLE
  5
5235
330
4EDA
100
AcDbEntity
  8
1
  6
Continuous
100
AcDbCircle
 10
505.708071
 20
326.8268479999999
 30
0.0
 40
9.0
  0
CIRCLE
  5
5236
330
4EDA
100
AcDbEntity
  8
1
  6
Continuous
100
AcDbCircle
 10
505.708071
 20
326.8268479999999
 30
0.0
 40
8.0
  0
CIRCLE
  5
5237
330
4EDA
100
AcDbEntity
  8
1
  6
Continuous
100
AcDbCircle
 10
505.708071
 20
326.8268479999999
 30
0.0
 40
6.099999999999997
  0
LINE
  5
5238
330
4EDA
100
AcDbEntity
  8
1
  6
Continuous
100
AcDbLine
 10
510.7080709999998
 20
329.713848
 30
0.0
 11
510.7080709999998
 21
323.9398479999999
 31
0.0
  0
LINE
  5
5239
330
4EDA
100
AcDbEntity
  8
1
  6
Continuous
100
AcDbLine
 10
507.20643
 20
326.8105849999999
 30
0.0
 11
508.5343769999998
 21
325.435969
 31
0.0
  0
LINE
  5
523A
330
4EDA
100
AcDbEntity
  8
1
  6
Continuous
100
AcDbLine
 10
500.708071
 20
329.713848
 30
0.0
 11
500.708071
 21
323.9398479999999
 31
0.0
  0
LINE
  5
523B
330
4EDA
100
AcDbEntity
  8
1
  6
Continuous
100
AcDbLine
 10
504.208297
 20
326.8105849999999
 30
0.0
 11
502.8817649999998
 21
325.435969
 31
0.0
  0
CIRCLE
  5
523C
330
4EDA
100
AcDbEntity
  8
1
  6
Continuous
100
AcDbCircle
 10
505.708071
 20
326.8268479999999
 30
0.0
 40
5.0
  0
LINE
  5
523D
330
4EDA
100
AcDbEntity
  8
1
  6
Continuous
100
AcDbLine
 10
505.708071
 20
321.053848
 30
0.0
 11
510.7080709999998
 21
323.9398479999999
 31
0.0
  0
LINE
  5
523E
330
4EDA
100
AcDbEntity
  8
1
  6
Continuous
100
AcDbLine
 10
505.724334
 20
325.3284889999998
 30
0.0
 11
507.09895
 21
324.000542
 31
0.0
  0
LINE
  5
523F
330
4EDA
100
AcDbEntity
  8
1
  6
Continuous
100
AcDbLine
 10
500.708071
 20
323.9398479999999
 30
0.0
 11
505.708071
 21
321.053848
 31
0.0
  0
LINE
  5
5240
330
4EDA
100
AcDbEntity
  8
1
  6
Continuous
100
AcDbLine
 10
505.708071
 20
325.333439
 30
0.0
 11
505.6911
 21
325.3277819999999
 31
0.0
  0
LINE
  5
5241
330
4EDA
100
AcDbEntity
  8
1
  6
Continuous
100
AcDbLine
 10
505.6911
 20
325.3277819999999
 30
0.0
 11
504.3171919999998
 21
324.000542
 31
0.0
  0
LINE
  5
5242
330
4EDA
100
AcDbEntity
  8
1
  6
Continuous
100
AcDbLine
 10
505.708071
 20
325.333439
 30
0.0
 11
505.724334
 21
325.3284889999998
 31
0.0
  0
ARC
  5
5243
330
4EDA
100
AcDbEntity
  8
1
  6
Continuous
100
AcDbCircle
 10
505.708071
 20
326.8268479999999
 30
0.0
 40
3.149999999999999
100
AcDbArc
 50
206.203
 51
243.7969999999999
  0
ARC
  5
5244
330
4EDA
100
AcDbEntity
  8
1
  6
Continuous
100
AcDbCircle
 10
505.708071
 20
326.8268479999999
 30
0.0
 40
3.149999999999999
100
AcDbArc
 50
296.203
 51
333.7969999999998
  0
LINE
  5
5245
330
4EDA
100
AcDbEntity
  8
1
  6
Continuous
100
AcDbLine
 10
505.7236269999997
 20
328.325914
 30
0.0
 11
507.09895
 21
329.6531539999999
 31
0.0
  0
LINE
  5
5246
330
4EDA
100
AcDbEntity
  8
1
  6
Continuous
100
AcDbLine
 10
505.708071
 20
332.600848
 30
0.0
 11
510.7080709999998
 21
329.713848
 31
0.0
  0
LINE
  5
5247
330
4EDA
100
AcDbEntity
  8
1
  6
Continuous
100
AcDbLine
 10
505.7073639999998
 20
328.3209649999997
 30
0.0
 11
505.7236269999997
 21
328.325914
 31
0.0
  0
LINE
  5
5248
330
4EDA
100
AcDbEntity
  8
1
  6
Continuous
100
AcDbLine
 10
504.2139539999998
 20
326.8275549999997
 30
0.0
 11
504.2090039999997
 21
326.8438189999999
 31
0.0
  0
LINE
  5
5249
330
4EDA
100
AcDbEntity
  8
1
  6
Continuous
100
AcDbLine
 10
504.2090039999997
 20
326.8438189999999
 30
0.0
 11
502.8817649999998
 21
328.217727
 31
0.0
  0
LINE
  5
524A
330
4EDA
100
AcDbEntity
  8
1
  6
Continuous
100
AcDbLine
 10
505.6911
 20
328.325914
 30
0.0
 11
504.3171919999998
 21
329.6531539999999
 31
0.0
  0
LINE
  5
524B
330
4EDA
100
AcDbEntity
  8
1
  6
Continuous
100
AcDbLine
 10
505.7073639999998
 20
328.3209649999997
 30
0.0
 11
505.6911
 21
328.325914
 31
0.0
  0
LINE
  5
524C
330
4EDA
100
AcDbEntity
  8
1
  6
Continuous
100
AcDbLine
 10
504.2139539999998
 20
326.8275549999997
 30
0.0
 11
504.208297
 21
326.8105849999999
 31
0.0
  0
ARC
  5
524D
330
4EDA
100
AcDbEntity
  8
1
  6
Continuous
100
AcDbCircle
 10
505.708071
 20
326.8268479999999
 30
0.0
 40
3.149999999999999
100
AcDbArc
 50
116.2026
 51
153.797
  0
LINE
  5
524E
330
4EDA
100
AcDbEntity
  8
1
  6
Continuous
100
AcDbLine
 10
500.708071
 20
329.713848
 30
0.0
 11
505.708071
 21
332.600848
 31
0.0
  0
LINE
  5
524F
330
4EDA
100
AcDbEntity
  8
1
  6
Continuous
100
AcDbLine
 10
507.2014799999998
 20
326.8268479999999
 30
0.0
 11
507.20643
 21
326.843112
 31
0.0
  0
LINE
  5
5250
330
4EDA
100
AcDbEntity
  8
1
  6
Continuous
100
AcDbLine
 10
507.20643
 20
326.843112
 30
0.0
 11
508.5343769999998
 21
328.217727
 31
0.0
  0
LINE
  5
5251
330
4EDA
100
AcDbEntity
  8
1
  6
Continuous
100
AcDbLine
 10
507.2014799999998
 20
326.8268479999999
 30
0.0
 11
507.20643
 21
326.8105849999999
 31
0.0
  0
ARC
  5
5252
330
4EDA
100
AcDbEntity
  8
1
  6
Continuous
100
AcDbCircle
 10
505.708071
 20
326.8268479999999
 30
0.0
 40
3.149999999999999
100
AcDbArc
 50
26.20299999999998
 51
63.7974
  0
LINE
  5
5253
330
4EDA
100
AcDbEntity
  8
1
  6
Continuous
100
AcDbLine
 10
371.0216820000084
 20
407.3523460874183
 30
0.0
 11
370.3216820000593
 21
406.8067958346897
 31
0.0
  0
LINE
  5
5254
330
4EDA
100
AcDbEntity
  8
1
  6
Continuous
100
AcDbLine
 10
370.3216820000607
 20
412.1140659999992
 30
0.0
 11
370.3216820000582
 21
383.1140659999988
 31
0.0
  0
LINE
  5
5255
330
4EDA
100
AcDbEntity
  8
1
  6
Continuous
100
AcDbLine
 10
368.9216819999929
 20
412.1140660000015
 30
0.0
 11
368.9216819999836
 21
383.1140660000011
 31
0.0
  0
LINE
  5
5256
330
4EDA
100
AcDbEntity
  8
1
  6
Continuous
100
AcDbLine
 10
368.2216819999745
 20
385.7624462565252
 30
0.0
 11
368.5645054577615
 21
385.8768809228544
 31
0.0
  0
ARC
  5
5257
330
4EDA
100
AcDbEntity
  8
1
  6
Continuous
100
AcDbCircle
 10
363.5617405838459
 20
383.1140660000095
 30
0.0
 40
5.359941416177306
100
AcDbArc
 50
359.9999999999102
 51
29.6108290548139
  0
LINE
  5
5258
330
4EDA
100
AcDbEntity
  8
1
  6
Continuous
100
AcDbLine
 10
370.3216820000582
 20
383.1140659999988
 30
0.0
 11
368.9216819999836
 21
383.1140660000011
 31
0.0
  0
ARC
  5
5259
330
4EDA
100
AcDbEntity
  8
1
  6
Continuous
100
AcDbCircle
 10
345.7771270277855
 20
393.0160131259017
 30
0.0
 40
23.14455497217013
100
AcDbArc
 50
0.0
 51
14.12742288753736
  0
ARC
  5
525A
330
4EDA
100
AcDbEntity
  8
1
  6
Continuous
100
AcDbCircle
 10
371.3532651146361
 20
395.5861786399534
 30
0.0
 40
1.031583114680584
100
AcDbArc
 50
108.7495067078217
 51
180.0
  0
ARC
  5
525B
330
4EDA
100
AcDbEntity
  8
1
  6
Continuous
100
AcDbCircle
 10
356.1081830117303
 20
388.4213126606625
 30
0.0
 40
12.81349898822509
100
AcDbArc
 50
0.0
 51
19.02611019247348
  0
ARC
  5
525C
330
4EDA
100
AcDbEntity
  8
1
  6
Continuous
100
AcDbCircle
 10
366.5954776825025
 20
386.2124500942059
 30
0.0
 40
2.32620431752562
100
AcDbArc
 50
353.1575250995761
 51
45.64671286910765
  0
LINE
  5
525D
330
4EDA
100
AcDbEntity
  8
1
  6
Continuous
100
AcDbLine
 10
368.2216820000089
 20
387.8757861935348
 30
0.0
 11
368.9216819999854
 21
388.421312660686
 31
0.0
  0
LINE
  5
525E
330
4EDA
100
AcDbEntity
  8
1
  6
Continuous
100
AcDbLine
 10
368.5645054577615
 20
385.8768809228545
 30
0.0
 11
368.9216819999847
 21
385.938148021194
 31
0.0
  0
LINE
  5
525F
330
4EDA
100
AcDbEntity
  8
1
  6
Continuous
100
AcDbLine
 10
368.2216820000058
 20
392.5985005403608
 30
0.0
 11
368.921681999987
 21
393.0160131259207
 31
0.0
  0
ARC
  5
5260
330
4EDA
100
AcDbEntity
  8
1
  6
Continuous
100
AcDbCircle
 10
372.3390636217012
 20
389.7001674228856
 30
0.0
 40
2.017381621745911
100
AcDbArc
 50
130.7693511336351
 51
180.0
  0
LINE
  5
5261
330
4EDA
100
AcDbEntity
  8
1
  6
Continuous
100
AcDbLine
 10
371.0216820000084
 20
387.6041516570732
 30
0.0
 11
370.3216820000586
 21
387.9126352209245
 31
0.0
  0
LINE
  5
5262
330
4EDA
100
AcDbEntity
  8
1
  6
Continuous
100
AcDbLine
 10
371.0216820000084
 20
387.6041516570732
 30
0.0
 11
370.3216820000586
 21
387.0586014043443
 31
0.0
  0
LINE
  5
5263
330
4EDA
100
AcDbEntity
  8
1
  6
Continuous
100
AcDbLine
 10
371.0216820000048
 20
391.2280202530283
 30
0.0
 11
370.3216820000589
 21
392.0133876531382
 31
0.0
  0
ARC
  5
5264
330
4EDA
100
AcDbEntity
  8
1
  6
Continuous
100
AcDbCircle
 10
367.8900988853931
 20
399.6419533600439
 30
0.0
 40
1.031583114680584
100
AcDbArc
 50
288.7495067079116
 51
0.0000000000898481
  0
ARC
  5
5265
330
4EDA
100
AcDbEntity
  8
1
  6
Continuous
100
AcDbCircle
 10
366.9043003783185
 20
405.5279645771099
 30
0.0
 40
2.017381621745911
100
AcDbArc
 50
310.769351133725
 51
0.0000000000898481
  0
LINE
  5
5266
330
4EDA
100
AcDbEntity
  8
1
  6
Continuous
100
AcDbLine
 10
368.2216820000058
 20
404.0001224336003
 30
0.0
 11
368.9216819999878
 21
403.2147528513188
 31
0.0
  0
ARC
  5
5267
330
4EDA
100
AcDbEntity
  8
1
  6
Continuous
100
AcDbCircle
 10
393.4662369722234
 20
402.2121188740609
 30
0.0
 40
23.14455497217013
100
AcDbArc
 50
179.9999999999102
 51
194.1274228874474
  0
ARC
  5
5268
330
4EDA
100
AcDbEntity
  8
1
  6
Continuous
100
AcDbCircle
 10
383.1349769534071
 20
406.8067958346088
 30
0.0
 40
12.8132949534517
100
AcDbArc
 50
180.0
 51
199.0262630835801
  0
LINE
  5
5269
330
4EDA
100
AcDbEntity
  8
1
  6
Continuous
100
AcDbLine
 10
371.0216820000046
 20
402.6296421462677
 30
0.0
 11
370.3216820000591
 21
402.2121142063103
 31
0.0
  0
LINE
  5
526A
330
4EDA
100
AcDbEntity
  8
1
  6
Continuous
100
AcDbLine
 10
368.2216820000089
 20
407.6239806238795
 30
0.0
 11
368.9216819999858
 21
407.3154932498654
 31
0.0
  0
LINE
  5
526B
330
4EDA
100
AcDbEntity
  8
1
  6
Continuous
100
AcDbLine
 10
368.2216820000089
 20
407.6239806238795
 30
0.0
 11
368.9216819999872
 21
408.1695070910324
 31
0.0
  0
LINE
  5
526C
330
4EDA
100
AcDbEntity
  8
1
  6
Continuous
100
AcDbLine
 10
370.6788585422525
 20
409.3512510771445
 30
0.0
 11
370.3216820000589
 21
409.2899839788102
 31
0.0
  0
LINE
  5
526D
330
4EDA
100
AcDbEntity
  8
1
  6
Continuous
100
AcDbLine
 10
368.9216819999929
 20
412.1140660000015
 30
0.0
 11
370.3216819999929
 21
412.1140659999983
 31
0.0
  0
LINE
  5
526E
330
4EDA
100
AcDbEntity
  8
1
  6
Continuous
100
AcDbLine
 10
370.3216820000607
 20
412.1140659999992
 30
0.0
 11
368.9216820000606
 21
412.1140660000006
 31
0.0
  0
ARC
  5
526F
330
4EDA
100
AcDbEntity
  8
1
  6
Continuous
100
AcDbCircle
 10
372.6478863174812
 20
409.0156819057988
 30
0.0
 40
2.32620431752562
100
AcDbArc
 50
173.1575250998436
 51
225.6467128691971
  0
LINE
  5
5270
330
4EDA
100
AcDbEntity
  8
1
  6
Continuous
100
AcDbLine
 10
371.0216820000395
 20
409.4656857434737
 30
0.0
 11
370.6788585422525
 21
409.3512510771445
 31
0.0
  0
ARC
  5
5271
330
4EDA
100
AcDbEntity
  8
1
  6
Continuous
100
AcDbCircle
 10
375.6816234161703
 20
412.1140659999857
 30
0.0
 40
5.359941416177306
100
AcDbArc
 50
179.9999999998651
 51
209.6108290547688
  0
ARC
  5
5272
330
4EDA
100
AcDbEntity
  8
1
  6
Continuous
100
AcDbCircle
 10
393.4662369722234
 20
273.9050858740608
 30
0.0
 40
23.14455497217013
100
AcDbArc
 50
179.9999999999102
 51
194.1274228874474
  0
ARC
  5
5273
330
4EDA
100
AcDbEntity
  8
1
  6
Continuous
100
AcDbCircle
 10
367.8900988853931
 20
271.3349203600439
 30
0.0
 40
1.031583114680584
100
AcDbArc
 50
288.7495067079116
 51
0.0000000000898481
  0
LINE
  5
5274
330
4EDA
100
AcDbEntity
  8
1
  6
Continuous
100
AcDbLine
 10
368.9216819999929
 20
283.8070330000013
 30
0.0
 11
368.9216819999836
 21
254.807033000001
 31
0.0
  0
LINE
  5
5275
330
4EDA
100
AcDbEntity
  8
1
  6
Continuous
100
AcDbLine
 10
370.3216820000607
 20
283.8070329999994
 30
0.0
 11
370.3216820000582
 21
254.8070329999988
 31
0.0
  0
ARC
  5
5276
330
4EDA
100
AcDbEntity
  8
1
  6
Continuous
100
AcDbCircle
 10
356.1081830117303
 20
260.1142796606627
 30
0.0
 40
12.81349898822509
100
AcDbArc
 50
0.0
 51
19.02611019247348
  0
LINE
  5
5277
330
4EDA
100
AcDbEntity
  8
1
  6
Continuous
100
AcDbLine
 10
371.0216820000084
 20
259.2971186570731
 30
0.0
 11
370.3216820000586
 21
258.7515684043442
 31
0.0
  0
LINE
  5
5278
330
4EDA
100
AcDbEntity
  8
1
  6
Continuous
100
AcDbLine
 10
371.0216820000084
 20
259.2971186570731
 30
0.0
 11
370.3216820000586
 21
259.6056022209247
 31
0.0
  0
LINE
  5
5279
330
4EDA
100
AcDbEntity
  8
1
  6
Continuous
100
AcDbLine
 10
368.5645054577615
 20
257.5698479228544
 30
0.0
 11
368.9216819999847
 21
257.6311150211942
 31
0.0
  0
LINE
  5
527A
330
4EDA
100
AcDbEntity
  8
1
  6
Continuous
100
AcDbLine
 10
368.2216820000089
 20
259.5687531935345
 30
0.0
 11
368.9216819999854
 21
260.1142796606857
 31
0.0
  0
ARC
  5
527B
330
4EDA
100
AcDbEntity
  8
1
  6
Continuous
100
AcDbCircle
 10
366.5954776825025
 20
257.9054170942059
 30
0.0
 40
2.32620431752562
100
AcDbArc
 50
353.1575250995761
 51
45.64671286910765
  0
LINE
  5
527C
330
4EDA
100
AcDbEntity
  8
1
  6
Continuous
100
AcDbLine
 10
370.3216820000582
 20
254.8070329999988
 30
0.0
 11
368.9216819999836
 21
254.807033000001
 31
0.0
  0
ARC
  5
527D
330
4EDA
100
AcDbEntity
  8
1
  6
Continuous
100
AcDbCircle
 10
363.5617405838459
 20
254.8070330000094
 30
0.0
 40
5.359941416177306
100
AcDbArc
 50
359.9999999999102
 51
29.6108290548139
  0
LINE
  5
527E
330
4EDA
100
AcDbEntity
  8
1
  6
Continuous
100
AcDbLine
 10
368.2216819999745
 20
257.4554132565251
 30
0.0
 11
368.5645054577615
 21
257.5698479228544
 31
0.0
  0
LINE
  5
527F
330
4EDA
100
AcDbEntity
  8
1
  6
Continuous
100
AcDbLine
 10
371.0216820000048
 20
262.9209872530282
 30
0.0
 11
370.3216820000589
 21
263.7063546531383
 31
0.0
  0
ARC
  5
5280
330
4EDA
100
AcDbEntity
  8
1
  6
Continuous
100
AcDbCircle
 10
372.3390636217012
 20
261.3931344228855
 30
0.0
 40
2.017381621745911
100
AcDbArc
 50
130.7693511336351
 51
180.0
  0
LINE
  5
5281
330
4EDA
100
AcDbEntity
  8
1
  6
Continuous
100
AcDbLine
 10
368.2216820000058
 20
264.2914675403608
 30
0.0
 11
368.921681999987
 21
264.7089801259209
 31
0.0
  0
ARC
  5
5282
330
4EDA
100
AcDbEntity
  8
1
  6
Continuous
100
AcDbCircle
 10
371.3532651146361
 20
267.2791456399532
 30
0.0
 40
1.031583114680584
100
AcDbArc
 50
108.7495067078217
 51
180.0
  0
ARC
  5
5283
330
4EDA
100
AcDbEntity
  8
1
  6
Continuous
100
AcDbCircle
 10
345.7771270277855
 20
264.7089801259018
 30
0.0
 40
23.14455497217013
100
AcDbArc
 50
0.0
 51
14.12742288753736
  0
ARC
  5
5284
330
4EDA
100
AcDbEntity
  8
1
  6
Continuous
100
AcDbCircle
 10
375.6816234161703
 20
283.8070329999857
 30
0.0
 40
5.359941416177306
100
AcDbArc
 50
179.9999999998651
 51
209.6108290547688
  0
LINE
  5
5285
330
4EDA
100
AcDbEntity
  8
1
  6
Continuous
100
AcDbLine
 10
371.0216820000395
 20
281.1586527434735
 30
0.0
 11
370.6788585422525
 21
281.0442180771445
 31
0.0
  0
ARC
  5
5286
330
4EDA
100
AcDbEntity
  8
1
  6
Continuous
100
AcDbCircle
 10
372.6478863174812
 20
280.7086489057986
 30
0.0
 40
2.32620431752562
100
AcDbArc
 50
173.1575250998436
 51
225.6467128691971
  0
LINE
  5
5287
330
4EDA
100
AcDbEntity
  8
1
  6
Continuous
100
AcDbLine
 10
370.6788585422525
 20
281.0442180771445
 30
0.0
 11
370.3216820000589
 21
280.9829509788102
 31
0.0
  0
LINE
  5
5288
330
4EDA
100
AcDbEntity
  8
1
  6
Continuous
100
AcDbLine
 10
368.2216820000089
 20
279.3169476238797
 30
0.0
 11
368.9216819999872
 21
279.8624740910324
 31
0.0
  0
LINE
  5
5289
330
4EDA
100
AcDbEntity
  8
1
  6
Continuous
100
AcDbLine
 10
368.2216820000089
 20
279.3169476238797
 30
0.0
 11
368.9216819999858
 21
279.0084602498653
 31
0.0
  0
LINE
  5
528A
330
4EDA
100
AcDbEntity
  8
1
  6
Continuous
100
AcDbLine
 10
371.0216820000046
 20
274.3226091462676
 30
0.0
 11
370.3216820000591
 21
273.9050812063104
 31
0.0
  0
ARC
  5
528B
330
4EDA
100
AcDbEntity
  8
1
  6
Continuous
100
AcDbCircle
 10
383.1349769534071
 20
278.4997628346088
 30
0.0
 40
12.8132949534517
100
AcDbArc
 50
180.0
 51
199.0262630835801
  0
LINE
  5
528C
330
4EDA
100
AcDbEntity
  8
1
  6
Continuous
100
AcDbLine
 10
368.2216820000058
 20
275.6930894336002
 30
0.0
 11
368.9216819999878
 21
274.9077198513185
 31
0.0
  0
ARC
  5
528D
330
4EDA
100
AcDbEntity
  8
1
  6
Continuous
100
AcDbCircle
 10
366.9043003783185
 20
277.2209315771099
 30
0.0
 40
2.017381621745911
100
AcDbArc
 50
310.769351133725
 51
0.0000000000898481
  0
LINE
  5
528E
330
4EDA
100
AcDbEntity
  8
1
  6
Continuous
100
AcDbLine
 10
371.0216820000084
 20
279.0453130874181
 30
0.0
 11
370.3216820000593
 21
278.4997628346898
 31
0.0
  0
LINE
  5
528F
330
4EDA
100
AcDbEntity
  8
1
  6
Continuous
100
AcDbLine
 10
370.3216820000607
 20
283.8070329999994
 30
0.0
 11
368.9216820000606
 21
283.8070330000005
 31
0.0
  0
LINE
  5
5290
330
4EDA
100
AcDbEntity
  8
1
  6
Continuous
100
AcDbLine
 10
368.9216819999929
 20
283.8070330000013
 30
0.0
 11
370.3216819999929
 21
283.8070329999982
 31
0.0
  0
LINE
  5
5291
330
4EDA
100
AcDbEntity
  8
1
  6
Continuous
100
AcDbLine
 10
641.0944599999393
 20
283.8070329999994
 30
0.0
 11
641.0944599999416
 21
254.8070329999988
 31
0.0
  0
LINE
  5
5292
330
4EDA
100
AcDbEntity
  8
1
  6
Continuous
100
AcDbLine
 10
642.494460000007
 20
283.8070330000013
 30
0.0
 11
642.4944600000161
 21
254.807033000001
 31
0.0
  0
ARC
  5
5293
330
4EDA
100
AcDbEntity
  8
1
  6
Continuous
100
AcDbCircle
 10
617.9499050277764
 20
273.9050858740608
 30
0.0
 40
23.14455497217013
100
AcDbArc
 50
345.8725771125522
 51
0.000000000089775
  0
ARC
  5
5294
330
4EDA
100
AcDbEntity
  8
1
  6
Continuous
100
AcDbCircle
 10
695.5174599999999
 20
269.3070329999998
 30
0.0
 40
60.62219999999999
100
AcDbArc
 50
171.78684
 51
188.213
  0
ARC
  5
5295
330
4EDA
100
AcDbEntity
  8
1
  6
Continuous
100
AcDbCircle
 10
578.2724599999998
 20
269.3070329999998
 30
0.0
 40
60.62219999999999
100
AcDbArc
 50
351.7869999999998
 51
8.212999999999981
  0
LINE
  5
5296
330
4EDA
100
AcDbEntity
  8
1
  6
Continuous
100
AcDbLine
 10
640.3944599999999
 20
283.3070329999998
 30
0.0
 11
640.3944599999999
 21
255.307033
 31
0.0
  0
LINE
  5
5297
330
4EDA
100
AcDbEntity
  8
1
  6
Continuous
100
AcDbLine
 10
633.3944599999997
 20
283.3070329999998
 30
0.0
 11
633.3944599999997
 21
255.307033
 31
0.0
  0
LINE
  5
5298
330
4EDA
100
AcDbEntity
  8
1
  6
Continuous
100
AcDbLine
 10
634.89446
 20
284.3070329999998
 30
0.0
 11
634.89446
 21
254.3070329999999
 31
0.0
  0
LINE
  5
5299
330
4EDA
100
AcDbEntity
  8
1
  6
Continuous
100
AcDbLine
 10
638.89446
 20
284.3070329999998
 30
0.0
 11
638.89446
 21
254.3070329999999
 31
0.0
  0
ARC
  5
529A
330
4EDA
100
AcDbEntity
  8
1
  6
Continuous
100
AcDbCircle
 10
639.0770783782982
 20
261.3931344228855
 30
0.0
 40
2.017381621745911
100
AcDbArc
 50
0.000000000000007
 51
49.23064886636481
  0
ARC
  5
529B
330
4EDA
100
AcDbEntity
  8
1
  6
Continuous
100
AcDbCircle
 10
655.3079589882696
 20
260.1142796606627
 30
0.0
 40
12.81349898822509
100
AcDbArc
 50
160.9738898075264
 51
180.0
  0
ARC
  5
529C
330
4EDA
100
AcDbEntity
  8
1
  6
Continuous
100
AcDbCircle
 10
623.5064600000002
 20
256.3170329999999
 30
0.0
 40
15.3886
100
AcDbArc
 50
343.6569999999999
 51
16.34299999999998
  0
LINE
  5
529D
330
4EDA
100
AcDbEntity
  8
1
  6
Continuous
100
AcDbLine
 10
638.2724600000001
 20
251.9870329999999
 30
0.0
 11
638.89446
 21
254.3070329999999
 31
0.0
  0
LINE
  5
529E
330
4EDA
100
AcDbEntity
  8
1
  6
Continuous
100
AcDbLine
 10
643.1944600000254
 20
257.4554132565251
 30
0.0
 11
642.8516365422383
 21
257.5698479228544
 31
0.0
  0
ARC
  5
529F
330
4EDA
100
AcDbEntity
  8
1
  6
Continuous
100
AcDbCircle
 10
647.8544014161537
 20
254.8070330000094
 30
0.0
 40
5.359941416177306
100
AcDbArc
 50
150.389170945186
 51
180.0000000000897
  0
LINE
  5
52A0
330
4EDA
100
AcDbEntity
  8
1
  6
Continuous
100
AcDbLine
 10
641.0944599999416
 20
254.8070329999988
 30
0.0
 11
642.4944600000161
 21
254.807033000001
 31
0.0
  0
ARC
  5
52A1
330
4EDA
100
AcDbEntity
  8
1
  6
Continuous
100
AcDbCircle
 10
644.8206643174974
 20
257.9054170942059
 30
0.0
 40
2.32620431752562
100
AcDbArc
 50
134.3532871308923
 51
186.8424749004238
  0
LINE
  5
52A2
330
4EDA
100
AcDbEntity
  8
1
  6
Continuous
100
AcDbLine
 10
643.1944599999911
 20
259.5687531935345
 30
0.0
 11
642.4944600000142
 21
260.1142796606857
 31
0.0
  0
LINE
  5
52A3
330
4EDA
100
AcDbEntity
  8
1
  6
Continuous
100
AcDbLine
 10
642.8516365422382
 20
257.5698479228544
 30
0.0
 11
642.4944600000154
 21
257.6311150211942
 31
0.0
  0
LINE
  5
52A4
330
4EDA
100
AcDbEntity
  8
1
  6
Continuous
100
AcDbLine
 10
640.3944599999915
 20
259.2971186570731
 30
0.0
 11
641.0944599999412
 21
259.6056022209247
 31
0.0
  0
LINE
  5
52A5
330
4EDA
100
AcDbEntity
  8
1
  6
Continuous
100
AcDbLine
 10
640.3944599999915
 20
259.2971186570731
 30
0.0
 11
641.0944599999412
 21
258.7515684043442
 31
0.0
  0
LINE
  5
52A6
330
4EDA
100
AcDbEntity
  8
1
  6
Continuous
100
AcDbLine
 10
640.3944599999999
 20
255.307033
 30
0.0
 11
638.89446
 21
255.307033
 31
0.0
  0
ARC
  5
52A7
330
4EDA
100
AcDbEntity
  8
1
  6
Continuous
100
AcDbCircle
 10
650.2834599999999
 20
256.3170329999999
 30
0.0
 40
15.3886
100
AcDbArc
 50
163.6571
 51
196.3429999999999
  0
LINE
  5
52A8
330
4EDA
100
AcDbEntity
  8
1
  6
Continuous
100
AcDbLine
 10
638.2724600000001
 20
251.9870329999999
 30
0.0
 11
635.5164600000001
 21
251.9870329999999
 31
0.0
  0
LINE
  5
52A9
330
4EDA
100
AcDbEntity
  8
1
  6
Continuous
100
AcDbLine
 10
635.5164600000001
 20
251.9870329999999
 30
0.0
 11
634.89446
 21
254.3070329999999
 31
0.0
  0
LINE
  5
52AA
330
4EDA
100
AcDbEntity
  8
1
  6
Continuous
100
AcDbLine
 10
638.27346
 20
260.647033
 30
0.0
 11
635.5164600000001
 21
260.647033
 31
0.0
  0
LINE
  5
52AB
330
4EDA
100
AcDbEntity
  8
1
  6
Continuous
100
AcDbLine
 10
634.89446
 20
255.307033
 30
0.0
 11
633.3944599999997
 21
255.307033
 31
0.0
  0
ARC
  5
52AC
330
4EDA
100
AcDbEntity
  8
1
  6
Continuous
100
AcDbCircle
 10
665.6390149722143
 20
264.7089801259018
 30
0.0
 40
23.14455497217013
100
AcDbArc
 50
165.8725771124626
 51
180.0
  0
ARC
  5
52AD
330
4EDA
100
AcDbEntity
  8
1
  6
Continuous
100
AcDbCircle
 10
640.0628768853638
 20
267.2791456399532
 30
0.0
 40
1.031583114680584
100
AcDbArc
 50
0.000000000000007
 51
71.25049329217809
  0
LINE
  5
52AE
330
4EDA
100
AcDbEntity
  8
1
  6
Continuous
100
AcDbLine
 10
643.1944599999942
 20
264.2914675403608
 30
0.0
 11
642.4944600000127
 21
264.7089801259209
 31
0.0
  0
LINE
  5
52AF
330
4EDA
100
AcDbEntity
  8
1
  6
Continuous
100
AcDbLine
 10
640.3944599999952
 20
262.9209872530282
 30
0.0
 11
641.0944599999409
 21
263.7063546531383
 31
0.0
  0
ARC
  5
52B0
330
4EDA
100
AcDbEntity
  8
1
  6
Continuous
100
AcDbCircle
 10
643.5260431146067
 20
271.3349203600439
 30
0.0
 40
1.031583114680584
100
AcDbArc
 50
179.99999999991
 51
251.2504932920883
  0
ARC
  5
52B1
330
4EDA
100
AcDbEntity
  8
1
  6
Continuous
100
AcDbCircle
 10
635.7345185838296
 20
283.8070329999857
 30
0.0
 40
5.359941416177306
100
AcDbArc
 50
330.3891709452312
 51
0.000000000134888
  0
ARC
  5
52B2
330
4EDA
100
AcDbEntity
  8
1
  6
Continuous
100
AcDbCircle
 10
650.2834599999999
 20
282.2980329999999
 30
0.0
 40
15.3887
100
AcDbArc
 50
163.6571999999999
 51
196.3429999999999
  0
ARC
  5
52B3
330
4EDA
100
AcDbEntity
  8
1
  6
Continuous
100
AcDbCircle
 10
623.5064600000002
 20
282.2980329999999
 30
0.0
 40
15.3887
100
AcDbArc
 50
343.6569999999999
 51
16.34299999999998
  0
LINE
  5
52B4
330
4EDA
100
AcDbEntity
  8
1
  6
Continuous
100
AcDbLine
 10
640.3944599999915
 20
279.0453130874181
 30
0.0
 11
641.0944599999407
 21
278.4997628346898
 31
0.0
  0
ARC
  5
52B5
330
4EDA
100
AcDbEntity
  8
1
  6
Continuous
100
AcDbCircle
 10
644.5118416216812
 20
277.2209315771099
 30
0.0
 40
2.017381621745911
100
AcDbArc
 50
179.99999999991
 51
229.2306488662747
  0
LINE
  5
52B6
330
4EDA
100
AcDbEntity
  8
1
  6
Continuous
100
AcDbLine
 10
643.194459999994
 20
275.6930894336002
 30
0.0
 11
642.4944600000121
 21
274.9077198513185
 31
0.0
  0
ARC
  5
52B7
330
4EDA
100
AcDbEntity
  8
1
  6
Continuous
100
AcDbCircle
 10
628.2811650465926
 20
278.4997628346088
 30
0.0
 40
12.8132949534517
100
AcDbArc
 50
340.9737369164199
 51
0.000000000000007
  0
LINE
  5
52B8
330
4EDA
100
AcDbEntity
  8
1
  6
Continuous
100
AcDbLine
 10
640.3944599999952
 20
274.3226091462676
 30
0.0
 11
641.0944599999407
 21
273.9050812063104
 31
0.0
  0
LINE
  5
52B9
330
4EDA
100
AcDbEntity
  8
1
  6
Continuous
100
AcDbLine
 10
643.1944599999911
 20
279.3169476238797
 30
0.0
 11
642.494460000014
 21
279.0084602498653
 31
0.0
  0
LINE
  5
52BA
330
4EDA
100
AcDbEntity
  8
1
  6
Continuous
100
AcDbLine
 10
643.1944599999911
 20
279.3169476238797
 30
0.0
 11
642.4944600000127
 21
279.8624740910324
 31
0.0
  0
LINE
  5
52BB
330
4EDA
100
AcDbEntity
  8
1
  6
Continuous
100
AcDbLine
 10
640.7372834577475
 20
281.0442180771445
 30
0.0
 11
641.0944599999409
 21
280.9829509788102
 31
0.0
  0
ARC
  5
52BC
330
4EDA
100
AcDbEntity
  8
1
  6
Continuous
100
AcDbCircle
 10
638.7682556825186
 20
280.7086489057986
 30
0.0
 40
2.32620431752562
100
AcDbArc
 50
314.3532871308023
 51
6.842474900156338
  0
LINE
  5
52BD
330
4EDA
100
AcDbEntity
  8
1
  6
Continuous
100
AcDbLine
 10
640.3944599999604
 20
281.1586527434735
 30
0.0
 11
640.7372834577475
 21
281.0442180771445
 31
0.0
  0
LINE
  5
52BE
330
4EDA
100
AcDbEntity
  8
1
  6
Continuous
100
AcDbLine
 10
640.3944599999999
 20
283.3070329999998
 30
0.0
 11
638.89446
 21
283.3070329999998
 31
0.0
  0
LINE
  5
52BF
330
4EDA
100
AcDbEntity
  8
1
  6
Continuous
100
AcDbLine
 10
638.27346
 20
277.967033
 30
0.0
 11
635.5164600000001
 21
277.967033
 31
0.0
  0
LINE
  5
52C0
330
4EDA
100
AcDbEntity
  8
1
  6
Continuous
100
AcDbLine
 10
634.89446
 20
283.3070329999998
 30
0.0
 11
633.3944599999997
 21
283.3070329999998
 31
0.0
  0
LINE
  5
52C1
330
4EDA
100
AcDbEntity
  8
1
  6
Continuous
100
AcDbLine
 10
638.89446
 20
284.3070329999998
 30
0.0
 11
638.27346
 21
286.628033
 31
0.0
  0
LINE
  5
52C2
330
4EDA
100
AcDbEntity
  8
1
  6
Continuous
100
AcDbLine
 10
642.494460000007
 20
283.8070330000013
 30
0.0
 11
641.094460000007
 21
283.8070329999982
 31
0.0
  0
LINE
  5
52C3
330
4EDA
100
AcDbEntity
  8
1
  6
Continuous
100
AcDbLine
 10
641.0944599999393
 20
283.8070329999994
 30
0.0
 11
642.4944599999393
 21
283.8070330000005
 31
0.0
  0
LINE
  5
52C4
330
4EDA
100
AcDbEntity
  8
1
  6
Continuous
100
AcDbLine
 10
634.89446
 20
284.3070329999998
 30
0.0
 11
635.5164600000001
 21
286.628033
 31
0.0
  0
LINE
  5
52C5
330
4EDA
100
AcDbEntity
  8
1
  6
Continuous
100
AcDbLine
 10
638.27346
 20
286.628033
 30
0.0
 11
635.5164600000001
 21
286.628033
 31
0.0
  0
LINE
  5
52C6
330
4EDA
100
AcDbEntity
  8
1
  6
Continuous
100
AcDbLine
 10
370.3216820000607
 20
79.4999999999994
 30
0.0
 11
370.3216820000582
 21
50.49999999999892
 31
0.0
  0
LINE
  5
52C7
330
4EDA
100
AcDbEntity
  8
1
  6
Continuous
100
AcDbLine
 10
368.9216819999929
 20
79.50000000000156
 30
0.0
 11
368.9216819999836
 21
50.50000000000114
 31
0.0
  0
ARC
  5
52C8
330
4EDA
100
AcDbEntity
  8
1
  6
Continuous
100
AcDbCircle
 10
393.4662369722234
 20
69.59805287406084
 30
0.0
 40
23.14455497217013
100
AcDbArc
 50
179.9999999999102
 51
194.1274228874474
  0
ARC
  5
52C9
330
4EDA
100
AcDbEntity
  8
1
  6
Continuous
100
AcDbCircle
 10
372.3390636217012
 20
57.08610142288581
 30
0.0
 40
2.017381621745911
100
AcDbArc
 50
130.7693511336351
 51
180.0
  0
ARC
  5
52CA
330
4EDA
100
AcDbEntity
  8
1
  6
Continuous
100
AcDbCircle
 10
356.1081830117303
 20
55.8072466606627
 30
0.0
 40
12.81349898822509
100
AcDbArc
 50
0.0
 51
19.02611019247348
  0
LINE
  5
52CB
330
4EDA
100
AcDbEntity
  8
1
  6
Continuous
100
AcDbLine
 10
368.2216819999745
 20
53.14838025652517
 30
0.0
 11
368.5645054577615
 21
53.26281492285443
 31
0.0
  0
ARC
  5
52CC
330
4EDA
100
AcDbEntity
  8
1
  6
Continuous
100
AcDbCircle
 10
363.5617405838459
 20
50.50000000000943
 30
0.0
 40
5.359941416177306
100
AcDbArc
 50
359.9999999999102
 51
29.6108290548139
  0
LINE
  5
52CD
330
4EDA
100
AcDbEntity
  8
1
  6
Continuous
100
AcDbLine
 10
370.3216820000582
 20
50.49999999999892
 30
0.0
 11
368.9216819999836
 21
50.50000000000114
 31
0.0
  0
ARC
  5
52CE
330
4EDA
100
AcDbEntity
  8
1
  6
Continuous
100
AcDbCircle
 10
366.5954776825025
 20
53.59838409420593
 30
0.0
 40
2.32620431752562
100
AcDbArc
 50
353.1575250995761
 51
45.64671286910765
  0
LINE
  5
52CF
330
4EDA
100
AcDbEntity
  8
1
  6
Continuous
100
AcDbLine
 10
368.2216820000089
 20
55.26172019353476
 30
0.0
 11
368.9216819999854
 21
55.80724666068596
 31
0.0
  0
LINE
  5
52D0
330
4EDA
100
AcDbEntity
  8
1
  6
Continuous
100
AcDbLine
 10
368.5645054577615
 20
53.26281492285449
 30
0.0
 11
368.9216819999847
 21
53.3240820211942
 31
0.0
  0
LINE
  5
52D1
330
4EDA
100
AcDbEntity
  8
1
  6
Continuous
100
AcDbLine
 10
371.0216820000084
 20
54.99008565707322
 30
0.0
 11
370.3216820000586
 21
55.29856922092472
 31
0.0
  0
LINE
  5
52D2
330
4EDA
100
AcDbEntity
  8
1
  6
Continuous
100
AcDbLine
 10
371.0216820000084
 20
54.99008565707322
 30
0.0
 11
370.3216820000586
 21
54.44453540434427
 31
0.0
  0
ARC
  5
52D3
330
4EDA
100
AcDbEntity
  8
1
  6
Continuous
100
AcDbCircle
 10
345.7771270277855
 20
60.40194712590187
 30
0.0
 40
23.14455497217013
100
AcDbArc
 50
0.0
 51
14.12742288753736
  0
ARC
  5
52D4
330
4EDA
100
AcDbEntity
  8
1
  6
Continuous
100
AcDbCircle
 10
371.3532651146361
 20
62.97211263995336
 30
0.0
 40
1.031583114680584
100
AcDbArc
 50
108.7495067078217
 51
180.0
  0
LINE
  5
52D5
330
4EDA
100
AcDbEntity
  8
1
  6
Continuous
100
AcDbLine
 10
368.2216820000058
 20
59.98443454036088
 30
0.0
 11
368.921681999987
 21
60.4019471259208
 31
0.0
  0
LINE
  5
52D6
330
4EDA
100
AcDbEntity
  8
1
  6
Continuous
100
AcDbLine
 10
371.0216820000048
 20
58.61395425302826
 30
0.0
 11
370.3216820000589
 21
59.39932165313831
 31
0.0
  0
ARC
  5
52D7
330
4EDA
100
AcDbEntity
  8
1
  6
Continuous
100
AcDbCircle
 10
367.8900988853931
 20
67.02788736004389
 30
0.0
 40
1.031583114680584
100
AcDbArc
 50
288.7495067079116
 51
0.0000000000898481
  0
ARC
  5
52D8
330
4EDA
100
AcDbEntity
  8
1
  6
Continuous
100
AcDbCircle
 10
375.6816234161703
 20
79.4999999999858
 30
0.0
 40
5.359941416177306
100
AcDbArc
 50
179.9999999998651
 51
209.6108290547688
  0
LINE
  5
52D9
330
4EDA
100
AcDbEntity
  8
1
  6
Continuous
100
AcDbLine
 10
371.0216820000084
 20
74.73828008741827
 30
0.0
 11
370.3216820000593
 21
74.19272983468982
 31
0.0
  0
ARC
  5
52DA
330
4EDA
100
AcDbEntity
  8
1
  6
Continuous
100
AcDbCircle
 10
366.9043003783185
 20
72.91389857710993
 30
0.0
 40
2.017381621745911
100
AcDbArc
 50
310.769351133725
 51
0.0000000000898481
  0
LINE
  5
52DB
330
4EDA
100
AcDbEntity
  8
1
  6
Continuous
100
AcDbLine
 10
368.2216820000058
 20
71.38605643360029
 30
0.0
 11
368.9216819999878
 21
70.60068685131877
 31
0.0
  0
ARC
  5
52DC
330
4EDA
100
AcDbEntity
  8
1
  6
Continuous
100
AcDbCircle
 10
383.1349769534071
 20
74.1927298346091
 30
0.0
 40
12.8132949534517
100
AcDbArc
 50
180.0
 51
199.0262630835801
  0
LINE
  5
52DD
330
4EDA
100
AcDbEntity
  8
1
  6
Continuous
100
AcDbLine
 10
371.0216820000046
 20
70.01557614626768
 30
0.0
 11
370.3216820000591
 21
69.59804820631058
 31
0.0
  0
LINE
  5
52DE
330
4EDA
100
AcDbEntity
  8
1
  6
Continuous
100
AcDbLine
 10
368.2216820000089
 20
75.00991462387981
 30
0.0
 11
368.9216819999858
 21
74.7014272498655
 31
0.0
  0
LINE
  5
52DF
330
4EDA
100
AcDbEntity
  8
1
  6
Continuous
100
AcDbLine
 10
368.2216820000089
 20
75.00991462387981
 30
0.0
 11
368.9216819999872
 21
75.55544109103249
 31
0.0
  0
LINE
  5
52E0
330
4EDA
100
AcDbEntity
  8
1
  6
Continuous
100
AcDbLine
 10
370.6788585422525
 20
76.73718507714467
 30
0.0
 11
370.3216820000589
 21
76.67591797881022
 31
0.0
  0
ARC
  5
52E1
330
4EDA
100
AcDbEntity
  8
1
  6
Continuous
100
AcDbCircle
 10
372.6478863174812
 20
76.40161590579885
 30
0.0
 40
2.32620431752562
100
AcDbArc
 50
173.1575250998436
 51
225.6467128691971
  0
LINE
  5
52E2
330
4EDA
100
AcDbEntity
  8
1
  6
Continuous
100
AcDbLine
 10
371.0216820000395
 20
76.8516197434737
 30
0.0
 11
370.6788585422525
 21
76.73718507714467
 31
0.0
  0
LINE
  5
52E3
330
4EDA
100
AcDbEntity
  8
1
  6
Continuous
100
AcDbLine
 10
368.9216819999929
 20
79.50000000000156
 30
0.0
 11
370.3216819999929
 21
79.49999999999829
 31
0.0
  0
LINE
  5
52E4
330
4EDA
100
AcDbEntity
  8
1
  6
Continuous
100
AcDbLine
 10
370.3216820000607
 20
79.4999999999994
 30
0.0
 11
368.9216820000606
 21
79.50000000000058
 31
0.0
  0
LINE
  5
52E5
330
4EDA
100
AcDbEntity
  8
1
  6
Continuous
100
AcDbLine
 10
114.0915779191085
 20
267.3070329999998
 30
0.0
 11
121.019781149384
 21
255.307033
 31
0.0
  0
ARC
  5
52E6
330
4EDA
100
AcDbEntity
  8
1
  6
Continuous
100
AcDbCircle
 10
114.0915779191085
 20
251.307033
 30
0.0
 40
8.0
100
AcDbArc
 50
12.83958840690409
 51
167.1604115930958
  0
LINE
  5
52E7
330
4EDA
100
AcDbEntity
  8
1
  6
Continuous
100
AcDbLine
 10
103.3415779191084
 20
253.307033
 30
0.0
 11
103.3415779191084
 21
283.7648404369213
 31
0.0
  0
LINE
  5
52E8
330
4EDA
100
AcDbEntity
  8
1
  6
Continuous
100
AcDbLine
 10
107.1633746888328
 20
255.307033
 30
0.0
 11
114.0915779191084
 21
267.3070329999998
 31
0.0
  0
ARC
  5
52E9
330
4EDA
100
AcDbEntity
  8
1
  6
Continuous
100
AcDbCircle
 10
104.3415779191084
 20
253.307033
 30
0.0
 40
1.0
100
AcDbArc
 50
180.0
 51
270.0
  0
ARC
  5
52EA
330
4EDA
100
AcDbEntity
  8
1
  6
Continuous
100
AcDbCircle
 10
105.3166135317162
 20
253.307033
 30
0.0
 40
1.0
100
AcDbArc
 50
270.0
 51
347.1604115930956
  0
LINE
  5
52EB
330
4EDA
100
AcDbEntity
  8
1
  6
Continuous
100
AcDbLine
 10
104.3415779191084
 20
252.3070329999999
 30
0.0
 11
105.3166135317162
 21
252.3070329999999
 31
0.0
  0
LINE
  5
52EC
330
4EDA
100
AcDbEntity
  8
1
  6
Continuous
100
AcDbLine
 10
124.8415779191085
 20
253.307033
 30
0.0
 11
124.8415779191085
 21
283.7648404369213
 31
0.0
  0
ARC
  5
52ED
330
4EDA
100
AcDbEntity
  8
1
  6
Continuous
100
AcDbCircle
 10
123.8415779191085
 20
253.307033
 30
0.0
 40
1.0
100
AcDbArc
 50
270.0
 51
0.0
  0
ARC
  5
52EE
330
4EDA
100
AcDbEntity
  8
1
  6
Continuous
100
AcDbCircle
 10
122.8665423065007
 20
253.307033
 30
0.0
 40
1.0
100
AcDbArc
 50
192.8395884069044
 51
270.0
  0
LINE
  5
52EF
330
4EDA
100
AcDbEntity
  8
1
  6
Continuous
100
AcDbLine
 10
122.8665423065007
 20
252.3070329999999
 30
0.0
 11
123.8415779191085
 21
252.3070329999999
 31
0.0
  0
ARC
  5
52F0
330
4EDA
100
AcDbEntity
  8
1
  6
Continuous
100
AcDbCircle
 10
320.3387750000152
 20
397.614066
 30
0.0
 40
61.0
100
AcDbArc
 50
173.4784387157089
 51
186.5215612842905
  0
ARC
  5
52F1
330
4EDA
100
AcDbEntity
  8
1
  6
Continuous
100
AcDbCircle
 10
320.3387750000152
 20
397.614066
 30
0.0
 40
60.5
100
AcDbArc
 50
169.7649981201966
 51
190.2350018798031
  0
ARC
  5
52F2
330
4EDA
100
AcDbEntity
  8
1
  6
Continuous
100
AcDbCircle
 10
262.4703898488812
 20
386.1140659999999
 30
0.0
 40
1.0
100
AcDbArc
 50
191.2397730246918
 51
270.0
  0
ARC
  5
52F3
330
4EDA
100
AcDbEntity
  8
1
  6
Continuous
100
AcDbCircle
 10
320.3387750000152
 20
397.614066
 30
0.0
 40
60.0
100
AcDbArc
 50
190.3212242672974
 51
191.2397730246919
  0
LINE
  5
52F4
330
4EDA
100
AcDbEntity
  8
1
  6
Continuous
100
AcDbLine
 10
260.8014967619232
 20
386.864066
 30
0.0
 11
261.309650832364
 21
386.864066
 31
0.0
  0
LINE
  5
52F5
330
4EDA
100
AcDbEntity
  8
1
  6
Continuous
100
AcDbLine
 10
259.7334947020081
 20
390.6858627697247
 30
0.0
 11
260.2367783609683
 21
390.6858627697247
 31
0.0
  0
ARC
  5
52F6
330
4EDA
100
AcDbEntity
  8
1
  6
Continuous
100
AcDbCircle
 10
320.3387750000152
 20
397.614066
 30
0.0
 40
60.0
100
AcDbArc
 50
168.7602269753078
 51
169.6787757327026
  0
LINE
  5
52F7
330
4EDA
100
AcDbEntity
  8
1
  6
Continuous
100
AcDbLine
 10
259.7334947020081
 20
404.5422692302753
 30
0.0
 11
260.2367783609683
 21
404.5422692302753
 31
0.0
  0
LINE
  5
52F8
330
4EDA
100
AcDbEntity
  8
1
  6
Continuous
100
AcDbLine
 10
260.8014967619232
 20
408.3640659999998
 30
0.0
 11
261.309650832364
 21
408.3640659999998
 31
0.0
  0
ARC
  5
52F9
330
4EDA
100
AcDbEntity
  8
1
  6
Continuous
100
AcDbCircle
 10
262.4703898488812
 20
409.1140659999998
 30
0.0
 40
1.0
100
AcDbArc
 50
90.0
 51
168.7602269753078
  0
ARC
  5
52FA
330
4EDA
100
AcDbEntity
  8
1
  6
Continuous
100
AcDbCircle
 10
320.3387750000152
 20
65.0
 30
0.0
 40
60.5
100
AcDbArc
 50
169.7649981201966
 51
190.2350018798031
  0
LINE
  5
52FB
330
4EDA
100
AcDbEntity
  8
1
  6
Continuous
100
AcDbLine
 10
259.7334947020081
 20
58.07179676972463
 30
0.0
 11
260.2367783609683
 21
58.07179676972463
 31
0.0
  0
ARC
  5
52FC
330
4EDA
100
AcDbEntity
  8
1
  6
Continuous
100
AcDbCircle
 10
262.4703898488812
 20
53.5
 30
0.0
 40
1.0
100
AcDbArc
 50
191.2397730246918
 51
270.0
  0
ARC
  5
52FD
330
4EDA
100
AcDbEntity
  8
1
  6
Continuous
100
AcDbCircle
 10
320.3387750000152
 20
65.0
 30
0.0
 40
60.0
100
AcDbArc
 50
168.7602269753078
 51
191.2397730246919
  0
LINE
  5
52FE
330
4EDA
100
AcDbEntity
  8
1
  6
Continuous
100
AcDbLine
 10
260.8014967619232
 20
54.25
 30
0.0
 11
261.309650832364
 21
54.25
 31
0.0
  0
LINE
  5
52FF
330
4EDA
100
AcDbEntity
  8
1
  6
Continuous
100
AcDbLine
 10
259.7334947020081
 20
71.9282032302756
 30
0.0
 11
260.2367783609683
 21
71.9282032302756
 31
0.0
  0
ARC
  5
5300
330
4EDA
100
AcDbEntity
  8
1
  6
Continuous
100
AcDbCircle
 10
262.4703898488812
 20
76.5
 30
0.0
 40
1.0
100
AcDbArc
 50
90.0
 51
168.7602269753078
  0
LINE
  5
5301
330
4EDA
100
AcDbEntity
  8
1
  6
Continuous
100
AcDbLine
 10
260.8014967619232
 20
75.75
 30
0.0
 11
261.309650832364
 21
75.75
 31
0.0
  0
ARC
  5
5302
330
4EDA
100
AcDbEntity
  8
1
  6
Continuous
100
AcDbCircle
 10
320.3387750000152
 20
65.0
 30
0.0
 40
61.0
100
AcDbArc
 50
173.4784387157089
 51
186.5215612842905
  0
ARC
  5
5303
330
4EDA
100
AcDbEntity
  8
1
  6
Continuous
100
AcDbCircle
 10
550.9773669999998
 20
252.3070329999999
 30
0.0
 40
200.0
100
AcDbArc
 50
355.426945
 51
0.000000000000007
  0
LINE
  5
5304
330
4EDA
100
AcDbEntity
  8
4
  6
CENTER
100
AcDbLine
 10
756.5773670000003
 20
269.3070329999998
 30
0.0
 11
673.989858
 21
269.3070329999998
 31
0.0
  0
LINE
  5
5305
330
4EDA
100
AcDbEntity
  8
1
  6
Continuous
100
AcDbLine
 10
737.9773669999997
 20
251.985541
 30
0.0
 11
737.9773669999997
 21
188.7923149999997
 31
0.0
  0
LINE
  5
5306
330
4EDA
100
AcDbEntity
  8
1
  6
Continuous
100
AcDbLine
 10
745.124582
 20
171.147573
 30
0.0
 11
750.3406639999997
 21
236.361004
 31
0.0
  0
ARC
  5
5307
330
4EDA
100
AcDbEntity
  8
1
  6
Continuous
100
AcDbCircle
 10
743.1309490000001
 20
171.3070329999998
 30
0.0
 40
2.0
100
AcDbArc
 50
270.0
 51
355.426945
  0
ARC
  5
5308
330
4EDA
100
AcDbEntity
  8
1
  6
Continuous
100
AcDbCircle
 10
739.9773669999997
 20
176.3070329999999
 30
0.0
 40
7.0
100
AcDbArc
 50
180.0
 51
270.0
  0
LINE
  5
5309
330
4EDA
100
AcDbEntity
  8
1
  6
Continuous
100
AcDbLine
 10
743.1309490000001
 20
169.3070329999999
 30
0.0
 11
739.9773669999997
 21
169.3070329999999
 31
0.0
  0
LINE
  5
530A
330
4EDA
100
AcDbEntity
  8
1
  6
Continuous
100
AcDbLine
 10
734.734726
 20
183.0643929999999
 30
0.0
 11
736.220007
 21
184.549674
 31
0.0
  0
ARC
  5
530B
330
4EDA
100
AcDbEntity
  8
1
  6
Continuous
100
AcDbCircle
 10
731.9773669999997
 20
188.7923149999997
 30
0.0
 40
6.0
100
AcDbArc
 50
315.0
 51
0.000000000000007
  0
ARC
  5
530C
330
4EDA
100
AcDbEntity
  8
1
  6
Continuous
100
AcDbCircle
 10
738.9773669999997
 20
178.821752
 30
0.0
 40
6.0
100
AcDbArc
 50
135.0
 51
180.0
  0
LINE
  5
530D
330
4EDA
100
AcDbEntity
  8
1
  6
Continuous
100
AcDbLine
 10
732.9773669999997
 20
178.821752
 30
0.0
 11
732.9773669999997
 21
176.3070329999999
 31
0.0
  0
LINE
  5
530E
330
4EDA
100
AcDbEntity
  8
1
  6
Continuous
100
AcDbLine
 10
683.1273670000001
 20
279.0570329999998
 30
0.0
 11
696.9773669999997
 21
279.0570329999998
 31
0.0
  0
LINE
  5
530F
330
4EDA
100
AcDbEntity
  8
1
  6
Continuous
100
AcDbLine
 10
683.1273670000001
 20
259.557033
 30
0.0
 11
696.9773669999997
 21
259.557033
 31
0.0
  0
LINE
  5
5310
330
4EDA
100
AcDbEntity
  8
1
  6
Continuous
100
AcDbLine
 10
709.4273669999997
 20
283.11332
 30
0.0
 11
709.4273669999997
 21
255.500746
 31
0.0
  0
LINE
  5
5311
330
4EDA
100
AcDbEntity
  8
1
  6
Continuous
100
AcDbLine
 10
694.9773669999999
 20
279.0570329999998
 30
0.0
 11
694.9773669999999
 21
259.557033
 31
0.0
  0
LINE
  5
5312
330
4EDA
100
AcDbEntity
  8
1
  6
Continuous
100
AcDbLine
 10
701.4773669999997
 20
291.307033
 30
0.0
 11
701.4773669999997
 21
247.307033
 31
0.0
  0
LINE
  5
5313
330
4EDA
100
AcDbEntity
  8
1
  6
Continuous
100
AcDbLine
 10
697.977367
 20
293.3070329999998
 30
0.0
 11
697.977367
 21
245.307033
 31
0.0
  0
LINE
  5
5314
330
4EDA
100
AcDbEntity
  8
1
  6
Continuous
100
AcDbLine
 10
696.9773669999997
 20
293.3070329999998
 30
0.0
 11
696.9773669999997
 21
245.307033
 31
0.0
  0
LINE
  5
5315
330
4EDA
100
AcDbEntity
  8
1
  6
Continuous
100
AcDbLine
 10
709.4773669999997
 20
255.307033
 30
0.0
 11
709.4773669999997
 21
283.3070329999998
 31
0.0
  0
LINE
  5
5316
330
4EDA
100
AcDbEntity
  8
1
  6
Continuous
100
AcDbLine
 10
732.409973
 20
257.9699249999998
 30
0.0
 11
709.4773669999997
 21
259.6277029999999
 31
0.0
  0
LINE
  5
5317
330
4EDA
100
AcDbEntity
  8
1
  6
Continuous
100
AcDbLine
 10
737.841181
 20
253.256637
 30
0.0
 11
709.4773669999997
 21
255.307033
 31
0.0
  0
ARC
  5
5318
330
4EDA
100
AcDbEntity
  8
1
  6
Continuous
100
AcDbCircle
 10
731.9773669999997
 20
251.985541
 30
0.0
 40
6.0
100
AcDbArc
 50
0.000000000000007
 51
85.86532900000003
  0
ARC
  5
5319
330
4EDA
100
AcDbEntity
  8
1
  6
Continuous
100
AcDbCircle
 10
699.4773669999997
 20
247.307033
 30
0.0
 40
2.0
100
AcDbArc
 50
270.0
 51
317.644685
  0
LINE
  5
531A
330
4EDA
100
AcDbEntity
  8
1
  6
Continuous
100
AcDbLine
 10
699.4773669999997
 20
245.307033
 30
0.0
 11
697.977367
 21
245.307033
 31
0.0
  0
LINE
  5
531B
330
4EDA
100
AcDbEntity
  8
1
  6
Continuous
100
AcDbLine
 10
696.9773669999997
 20
245.307033
 30
0.0
 11
697.977367
 21
245.307033
 31
0.0
  0
LINE
  5
531C
330
4EDA
100
AcDbEntity
  8
1
  6
Continuous
100
AcDbLine
 10
705.171873
 20
255.013556
 30
0.0
 11
702.477367
 21
252.391574
 31
0.0
  0
LINE
  5
531D
330
4EDA
100
AcDbEntity
  8
1
  6
Continuous
100
AcDbLine
 10
709.2978580000001
 20
255.1649839999999
 30
0.0
 11
700.9593309999999
 21
245.9639839999999
 31
0.0
  0
LINE
  5
531E
330
4EDA
100
AcDbEntity
  8
1
  6
Continuous
100
AcDbLine
 10
709.3468569999997
 20
259.0761689999999
 30
0.0
 11
705.817042
 21
255.6413599999999
 31
0.0
  0
ARC
  5
531F
330
4EDA
100
AcDbEntity
  8
1
  6
Continuous
100
AcDbCircle
 10
708.9273669999997
 20
255.500746
 30
0.0
 40
0.5
100
AcDbArc
 50
317.8151449999999
 51
0.000000000000007
  0
LINE
  5
5320
330
4EDA
100
AcDbEntity
  8
1
  6
Continuous
100
AcDbLine
 10
709.4773669999997
 20
260.3070329999998
 30
0.0
 11
709.4273669999997
 21
260.3070329999998
 31
0.0
  0
LINE
  5
5321
330
4EDA
100
AcDbEntity
  8
1
  6
Continuous
100
AcDbLine
 10
695.4773669999997
 20
254.3070329999999
 30
0.0
 11
696.9773669999997
 21
254.3070329999999
 31
0.0
  0
LINE
  5
5322
330
4EDA
100
AcDbEntity
  8
1
  6
Continuous
100
AcDbLine
 10
695.4773669999997
 20
249.807033
 30
0.0
 11
696.9773669999997
 21
249.807033
 31
0.0
  0
ARC
  5
5323
330
4EDA
100
AcDbEntity
  8
1
  6
Continuous
100
AcDbCircle
 10
699.4773669999997
 20
247.307033
 30
0.0
 40
2.0
100
AcDbArc
 50
317.644685
 51
0.000000000000007
  0
LINE
  5
5324
330
4EDA
100
AcDbEntity
  8
1
  6
Continuous
100
AcDbLine
 10
695.4773669999997
 20
249.807033
 30
0.0
 11
695.4773669999997
 21
254.3070329999999
 31
0.0
  0
LINE
  5
5325
330
4EDA
100
AcDbEntity
  8
1
  6
Continuous
100
AcDbLine
 10
739.1253898960408
 20
282.4252025567389
 30
0.0
 11
709.4773670000392
 21
279.4366921850635
 31
0.0
  0
LINE
  5
5326
330
4EDA
100
AcDbEntity
  8
1
  6
Continuous
100
AcDbLine
 10
738.7391850000001
 20
286.256614
 30
0.0
 11
709.4773669999997
 21
283.3070329999998
 31
0.0
  0
LINE
  5
5327
330
4EDA
100
AcDbEntity
  8
1
  6
Continuous
100
AcDbLine
 10
748.7608397817231
 20
282.4562054028601
 30
0.0
 11
739.7420991898045
 21
282.456206043405
 31
0.0
  0
ARC
  5
5328
330
4EDA
100
AcDbEntity
  8
1
  6
Continuous
100
AcDbCircle
 10
739.7420991898045
 20
276.3070336405448
 30
0.0
 40
6.149172402860227
100
AcDbArc
 50
90.0
 51
95.75595255506378
  0
LINE
  5
5329
330
4EDA
100
AcDbEntity
  8
1
  6
Continuous
100
AcDbLine
 10
750.5773668101956
 20
286.3070329999998
 30
0.0
 11
739.742099
 21
286.3070329999998
 31
0.0
  0
ARC
  5
532A
330
4EDA
100
AcDbEntity
  8
1
  6
Continuous
100
AcDbCircle
 10
739.742099
 20
276.307033
 30
0.0
 40
10.0
100
AcDbArc
 50
90.0
 51
95.75595300000001
  0
LINE
  5
532B
330
4EDA
100
AcDbEntity
  8
1
  6
Continuous
100
AcDbLine
 10
702.477367
 20
286.222492
 30
0.0
 11
705.171873
 21
283.6005099999998
 31
0.0
  0
LINE
  5
532C
330
4EDA
100
AcDbEntity
  8
1
  6
Continuous
100
AcDbLine
 10
700.9593309999999
 20
292.650083
 30
0.0
 11
709.2978580000001
 21
283.4490829999999
 31
0.0
  0
ARC
  5
532D
330
4EDA
100
AcDbEntity
  8
1
  6
Continuous
100
AcDbCircle
 10
708.9273669999997
 20
283.11332
 30
0.0
 40
0.5
100
AcDbArc
 50
0.000000000000007
 51
42.18485499999998
  0
LINE
  5
532E
330
4EDA
100
AcDbEntity
  8
1
  6
Continuous
100
AcDbLine
 10
709.4273669999997
 20
280.8070329999998
 30
0.0
 11
709.4773669999997
 21
280.8070329999998
 31
0.0
  0
LINE
  5
532F
330
4EDA
100
AcDbEntity
  8
1
  6
Continuous
100
AcDbLine
 10
705.817042
 20
282.972706
 30
0.0
 11
709.3468569999997
 21
279.5378969999998
 31
0.0
  0
LINE
  5
5330
330
4EDA
100
AcDbEntity
  8
1
  6
Continuous
100
AcDbLine
 10
695.4773669999997
 20
284.3070329999998
 30
0.0
 11
696.9773669999997
 21
284.3070329999998
 31
0.0
  0
LINE
  5
5331
330
4EDA
100
AcDbEntity
  8
1
  6
Continuous
100
AcDbLine
 10
695.4773669999997
 20
288.807033
 30
0.0
 11
696.9773669999997
 21
288.807033
 31
0.0
  0
LINE
  5
5332
330
4EDA
100
AcDbEntity
  8
1
  6
Continuous
100
AcDbLine
 10
695.4773669999997
 20
288.807033
 30
0.0
 11
695.4773669999997
 21
284.3070329999998
 31
0.0
  0
LINE
  5
5333
330
4EDA
100
AcDbEntity
  8
1
  6
Continuous
100
AcDbLine
 10
699.4773669999997
 20
293.3070329999998
 30
0.0
 11
697.977367
 21
293.3070329999998
 31
0.0
  0
LINE
  5
5334
330
4EDA
100
AcDbEntity
  8
1
  6
Continuous
100
AcDbLine
 10
696.9773669999997
 20
293.3070329999998
 30
0.0
 11
697.977367
 21
293.3070329999998
 31
0.0
  0
ARC
  5
5335
330
4EDA
100
AcDbEntity
  8
1
  6
Continuous
100
AcDbCircle
 10
699.4773669999997
 20
291.307033
 30
0.0
 40
2.0
100
AcDbArc
 50
0.000000000000007
 51
42.35531499999999
  0
ARC
  5
5336
330
4EDA
100
AcDbEntity
  8
1
  6
Continuous
100
AcDbCircle
 10
699.4773669999997
 20
291.307033
 30
0.0
 40
2.0
100
AcDbArc
 50
42.35531499999999
 51
90.0
  0
LINE
  5
5337
330
4EDA
100
AcDbEntity
  8
1
  6
Continuous
100
AcDbLine
 10
684.277367
 20
279.0570329999998
 30
0.0
 11
684.277367
 21
259.557033
 31
0.0
  0
LINE
  5
5338
330
4EDA
100
AcDbEntity
  8
1
  6
Continuous
100
AcDbLine
 10
682.8773670000003
 20
278.807033
 30
0.0
 11
682.8773670000003
 21
259.807033
 31
0.0
  0
LINE
  5
5339
330
4EDA
100
AcDbEntity
  8
2
  6
Continuous
100
AcDbLine
 10
677.9773669999997
 20
274.7689129999999
 30
0.0
 11
682.677367
 21
269.3070329999998
 31
0.0
  0
LINE
  5
533A
330
4EDA
100
AcDbEntity
  8
2
  6
Continuous
100
AcDbLine
 10
677.9773669999997
 20
269.3070329999998
 30
0.0
 11
682.677367
 21
274.7689129999999
 31
0.0
  0
LINE
  5
533B
330
4EDA
100
AcDbEntity
  8
1
  6
Continuous
100
AcDbLine
 10
682.677367
 20
262.8070329999999
 30
0.0
 11
682.677367
 21
275.8070329999998
 31
0.0
  0
LINE
  5
533C
330
4EDA
100
AcDbEntity
  8
1
  6
Continuous
100
AcDbLine
 10
677.6773669999998
 20
274.4689129999998
 30
0.0
 11
677.6773669999998
 21
264.1451539999998
 31
0.0
  0
LINE
  5
533D
330
4EDA
100
AcDbEntity
  8
2
  6
Continuous
100
AcDbLine
 10
682.677367
 20
263.8451539999999
 30
0.0
 11
677.9773669999997
 21
269.3070329999998
 31
0.0
  0
LINE
  5
533E
330
4EDA
100
AcDbEntity
  8
2
  6
Continuous
100
AcDbLine
 10
682.677367
 20
269.3070329999998
 30
0.0
 11
677.9773669999997
 21
263.8451539999999
 31
0.0
  0
LINE
  5
533F
330
4EDA
100
AcDbEntity
  8
1
  6
Continuous
100
AcDbLine
 10
677.6773669999998
 20
269.3070329999998
 30
0.0
 11
682.677367
 21
269.3070329999998
 31
0.0
  0
LINE
  5
5340
330
4EDA
100
AcDbEntity
  8
1
  6
Continuous
100
AcDbLine
 10
677.9773669999997
 20
263.8451539999999
 30
0.0
 11
682.677367
 21
263.8451539999999
 31
0.0
  0
LINE
  5
5341
330
4EDA
100
AcDbEntity
  8
1
  6
Continuous
100
AcDbLine
 10
682.677367
 20
262.8070329999999
 30
0.0
 11
682.8773670000003
 21
262.607033
 31
0.0
  0
LINE
  5
5342
330
4EDA
100
AcDbEntity
  8
1
  6
Continuous
100
AcDbLine
 10
683.1273670000001
 20
259.557033
 30
0.0
 11
682.8773670000003
 21
259.807033
 31
0.0
  0
ARC
  5
5343
330
4EDA
100
AcDbEntity
  8
1
  6
Continuous
100
AcDbCircle
 10
677.9773669999997
 20
264.1451539999998
 30
0.0
 40
0.3
100
AcDbArc
 50
180.0
 51
270.0
  0
LINE
  5
5344
330
4EDA
100
AcDbEntity
  8
1
  6
Continuous
100
AcDbLine
 10
677.9773669999997
 20
274.7689129999999
 30
0.0
 11
682.677367
 21
274.7689129999999
 31
0.0
  0
LINE
  5
5345
330
4EDA
100
AcDbEntity
  8
1
  6
Continuous
100
AcDbLine
 10
682.8773670000003
 20
278.807033
 30
0.0
 11
683.1273670000001
 21
279.0570329999998
 31
0.0
  0
LINE
  5
5346
330
4EDA
100
AcDbEntity
  8
1
  6
Continuous
100
AcDbLine
 10
682.8773670000003
 20
276.007033
 30
0.0
 11
682.677367
 21
275.8070329999998
 31
0.0
  0
ARC
  5
5347
330
4EDA
100
AcDbEntity
  8
1
  6
Continuous
100
AcDbCircle
 10
677.9773669999997
 20
274.4689129999998
 30
0.0
 40
0.3
100
AcDbArc
 50
90.0
 51
180.0
  0
LINE
  5
5348
330
4EDA
100
AcDbEntity
  8
1
  6
Continuous
100
AcDbLine
 10
751.5773668101956
 20
285.3070329999998
 30
0.0
 11
751.5773668101956
 21
252.3070330000873
 31
0.0
  0
LINE
  5
5349
330
4EDA
100
AcDbEntity
  8
1
  6
Continuous
100
AcDbLine
 10
750.6146450482877
 20
283.7648404371325
 30
0.0
 11
750.6146450482877
 21
252.3070330000841
 31
0.0
  0
LINE
  5
534A
330
4EDA
100
AcDbEntity
  8
1
  6
Continuous
100
AcDbLine
 10
750.1064909778466
 20
283.7648404371337
 30
0.0
 11
750.1064909778466
 21
252.3070330000841
 31
0.0
  0
LINE
  5
534B
330
4EDA
100
AcDbEntity
  8
1
  6
Continuous
100
AcDbLine
 10
750.1064909778466
 20
252.3070330000841
 30
0.0
 11
751.5773668101956
 21
252.3070330000841
 31
0.0
  0
ARC
  5
534C
330
4EDA
100
AcDbEntity
  8
1
  6
Continuous
100
AcDbCircle
 10
750.5773668101956
 20
285.3070329999998
 30
0.0
 40
1.0
100
AcDbArc
 50
0.0
 51
90.0
  0
LINE
  5
534D
330
4EDA
100
AcDbEntity
  8
1
  6
Continuous
100
AcDbLine
 10
752.0773668101956
 20
255.3070330000497
 30
0.0
 11
751.5773668101702
 21
267.3070330001081
 31
0.0
  0
LINE
  5
534E
330
4EDA
100
AcDbEntity
  8
1
  6
Continuous
100
AcDbLine
 10
751.5773668101994
 20
255.3070330000497
 30
0.0
 11
752.0773668101956
 21
255.3070330000497
 31
0.0
  0
LINE
  5
534F
330
4EDA
100
AcDbEntity
  8
1
  6
Continuous
100
AcDbLine
 10
750.6146450482877
 20
283.7648404371325
 30
0.0
 11
751.1088673979402
 21
285.4756669371603
 31
0.0
  0
LINE
  5
5350
330
4EDA
100
AcDbEntity
  8
1
  6
Continuous
100
AcDbLine
 10
750.1064909779246
 20
283.7648404371337
 30
0.0
 11
749.6180390049651
 21
282.6346532864415
 31
0.0
  0
LINE
  5
5351
330
4EDA
100
AcDbEntity
  8
1
  6
Continuous
100
AcDbLine
 10
750.6146450482877
 20
283.7648404371325
 30
0.0
 11
750.1064909779246
 21
283.7648404371337
 31
0.0
  0
ARC
  5
5352
330
4EDA
100
AcDbEntity
  8
1
  6
Continuous
100
AcDbCircle
 10
748.7608397817231
 20
281.4562054028601
 30
0.0
 40
1.0
100
AcDbArc
 50
0.0
 51
90.0
  0
LINE
  5
5353
330
4EDA
100
AcDbEntity
  8
1
  6
Continuous
100
AcDbLine
 10
273.438775
 20
251.985541
 30
0.0
 11
273.438775
 21
188.7923149999997
 31
0.0
  0
LINE
  5
5354
330
4EDA
100
AcDbEntity
  8
1
  6
Continuous
100
AcDbLine
 10
266.29156
 20
171.147573
 30
0.0
 11
261.0754779999999
 21
236.361004
 31
0.0
  0
ARC
  5
5355
330
4EDA
100
AcDbEntity
  8
1
  6
Continuous
100
AcDbCircle
 10
268.2851929999998
 20
171.3070329999998
 30
0.0
 40
2.0
100
AcDbArc
 50
184.573055
 51
270.0
  0
ARC
  5
5356
330
4EDA
100
AcDbEntity
  8
1
  6
Continuous
100
AcDbCircle
 10
271.438775
 20
176.3070329999999
 30
0.0
 40
7.0
100
AcDbArc
 50
270.0
 51
0.000000000000007
  0
LINE
  5
5357
330
4EDA
100
AcDbEntity
  8
1
  6
Continuous
100
AcDbLine
 10
268.2851929999998
 20
169.3070329999999
 30
0.0
 11
271.438775
 21
169.3070329999999
 31
0.0
  0
LINE
  5
5358
330
4EDA
100
AcDbEntity
  8
1
  6
Continuous
100
AcDbLine
 10
276.681416
 20
183.0643929999999
 30
0.0
 11
275.196135
 21
184.549674
 31
0.0
  0
ARC
  5
5359
330
4EDA
100
AcDbEntity
  8
1
  6
Continuous
100
AcDbCircle
 10
272.438775
 20
178.821752
 30
0.0
 40
6.0
100
AcDbArc
 50
0.000000000000007
 51
45.0
  0
LINE
  5
535A
330
4EDA
100
AcDbEntity
  8
1
  6
Continuous
100
AcDbLine
 10
278.438775
 20
178.821752
 30
0.0
 11
278.438775
 21
176.3070329999999
 31
0.0
  0
ARC
  5
535B
330
4EDA
100
AcDbEntity
  8
1
  6
Continuous
100
AcDbCircle
 10
279.438775
 20
188.7923149999997
 30
0.0
 40
6.0
100
AcDbArc
 50
180.0
 51
225.0
  0
LINE
  5
535C
330
4EDA
100
AcDbEntity
  8
1
  6
Continuous
100
AcDbLine
 10
308.938775
 20
286.222492
 30
0.0
 11
306.2442689999999
 21
283.6005099999998
 31
0.0
  0
LINE
  5
535D
330
4EDA
100
AcDbEntity
  8
1
  6
Continuous
100
AcDbLine
 10
310.456811
 20
292.650083
 30
0.0
 11
302.1182839999996
 21
283.4490829999999
 31
0.0
  0
LINE
  5
535E
330
4EDA
100
AcDbEntity
  8
1
  6
Continuous
100
AcDbLine
 10
306.2442689999999
 20
255.013556
 30
0.0
 11
308.938775
 21
252.391574
 31
0.0
  0
LINE
  5
535F
330
4EDA
100
AcDbEntity
  8
1
  6
Continuous
100
AcDbLine
 10
302.1182839999996
 20
255.1649839999999
 30
0.0
 11
310.456811
 21
245.9639839999999
 31
0.0
  0
LINE
  5
5360
330
4EDA
100
AcDbEntity
  8
4
  6
CENTER
100
AcDbLine
 10
254.8387749999999
 20
269.3070329999998
 30
0.0
 11
337.426284
 21
269.3070329999998
 31
0.0
  0
LINE
  5
5361
330
4EDA
100
AcDbEntity
  8
1
  6
Continuous
100
AcDbLine
 10
316.438775
 20
279.0570329999998
 30
0.0
 11
316.438775
 21
259.557033
 31
0.0
  0
LINE
  5
5362
330
4EDA
100
AcDbEntity
  8
1
  6
Continuous
100
AcDbLine
 10
309.938775
 20
291.307033
 30
0.0
 11
309.938775
 21
247.307033
 31
0.0
  0
LINE
  5
5363
330
4EDA
100
AcDbEntity
  8
1
  6
Continuous
100
AcDbLine
 10
313.4387750000001
 20
293.3070329999998
 30
0.0
 11
313.4387750000001
 21
245.307033
 31
0.0
  0
LINE
  5
5364
330
4EDA
100
AcDbEntity
  8
1
  6
Continuous
100
AcDbLine
 10
314.438775
 20
293.3070329999998
 30
0.0
 11
314.438775
 21
245.307033
 31
0.0
  0
LINE
  5
5365
330
4EDA
100
AcDbEntity
  8
1
  6
Continuous
100
AcDbLine
 10
327.138775
 20
279.0570329999998
 30
0.0
 11
327.138775
 21
259.557033
 31
0.0
  0
LINE
  5
5366
330
4EDA
100
AcDbEntity
  8
1
  6
Continuous
100
AcDbLine
 10
328.5387749999998
 20
278.807033
 30
0.0
 11
328.5387749999998
 21
259.807033
 31
0.0
  0
LINE
  5
5367
330
4EDA
100
AcDbEntity
  8
2
  6
Continuous
100
AcDbLine
 10
333.438775
 20
274.7689129999999
 30
0.0
 11
328.7387749999999
 21
269.3070329999998
 31
0.0
  0
LINE
  5
5368
330
4EDA
100
AcDbEntity
  8
2
  6
Continuous
100
AcDbLine
 10
333.438775
 20
269.3070329999998
 30
0.0
 11
328.7387749999999
 21
274.7689129999999
 31
0.0
  0
LINE
  5
5369
330
4EDA
100
AcDbEntity
  8
1
  6
Continuous
100
AcDbLine
 10
328.7387749999999
 20
262.8070329999999
 30
0.0
 11
328.7387749999999
 21
275.8070329999998
 31
0.0
  0
LINE
  5
536A
330
4EDA
100
AcDbEntity
  8
1
  6
Continuous
100
AcDbLine
 10
333.7387749999999
 20
274.4689129999998
 30
0.0
 11
333.7387749999999
 21
264.1451539999998
 31
0.0
  0
ARC
  5
536B
330
4EDA
100
AcDbEntity
  8
1
  6
Continuous
100
AcDbCircle
 10
311.938775
 20
247.307033
 30
0.0
 40
2.0
100
AcDbArc
 50
222.3553149999999
 51
270.0
  0
LINE
  5
536C
330
4EDA
100
AcDbEntity
  8
1
  6
Continuous
100
AcDbLine
 10
311.938775
 20
245.307033
 30
0.0
 11
313.4387750000001
 21
245.307033
 31
0.0
  0
LINE
  5
536D
330
4EDA
100
AcDbEntity
  8
1
  6
Continuous
100
AcDbLine
 10
314.438775
 20
245.307033
 30
0.0
 11
313.4387750000001
 21
245.307033
 31
0.0
  0
LINE
  5
536E
330
4EDA
100
AcDbEntity
  8
1
  6
Continuous
100
AcDbLine
 10
328.2887749999998
 20
259.557033
 30
0.0
 11
314.438775
 21
259.557033
 31
0.0
  0
LINE
  5
536F
330
4EDA
100
AcDbEntity
  8
2
  6
Continuous
100
AcDbLine
 10
328.7387749999999
 20
263.8451539999999
 30
0.0
 11
333.438775
 21
269.3070329999998
 31
0.0
  0
LINE
  5
5370
330
4EDA
100
AcDbEntity
  8
2
  6
Continuous
100
AcDbLine
 10
328.7387749999999
 20
269.3070329999998
 30
0.0
 11
333.438775
 21
263.8451539999999
 31
0.0
  0
LINE
  5
5371
330
4EDA
100
AcDbEntity
  8
1
  6
Continuous
100
AcDbLine
 10
333.7387749999999
 20
269.3070329999998
 30
0.0
 11
328.7387749999999
 21
269.3070329999998
 31
0.0
  0
LINE
  5
5372
330
4EDA
100
AcDbEntity
  8
1
  6
Continuous
100
AcDbLine
 10
333.438775
 20
263.8451539999999
 30
0.0
 11
328.7387749999999
 21
263.8451539999999
 31
0.0
  0
ARC
  5
5373
330
4EDA
100
AcDbEntity
  8
1
  6
Continuous
100
AcDbCircle
 10
333.438775
 20
264.1451539999998
 30
0.0
 40
0.3
100
AcDbArc
 50
270.0
 51
0.000000000000007
  0
LINE
  5
5374
330
4EDA
100
AcDbEntity
  8
1
  6
Continuous
100
AcDbLine
 10
328.7387749999999
 20
262.8070329999999
 30
0.0
 11
328.5387749999998
 21
262.607033
 31
0.0
  0
LINE
  5
5375
330
4EDA
100
AcDbEntity
  8
1
  6
Continuous
100
AcDbLine
 10
328.2887749999998
 20
259.557033
 30
0.0
 11
328.5387749999998
 21
259.807033
 31
0.0
  0
LINE
  5
5376
330
4EDA
100
AcDbEntity
  8
1
  6
Continuous
100
AcDbLine
 10
315.938775
 20
254.3070329999999
 30
0.0
 11
314.438775
 21
254.3070329999999
 31
0.0
  0
LINE
  5
5377
330
4EDA
100
AcDbEntity
  8
1
  6
Continuous
100
AcDbLine
 10
315.938775
 20
249.807033
 30
0.0
 11
314.438775
 21
249.807033
 31
0.0
  0
LINE
  5
5378
330
4EDA
100
AcDbEntity
  8
1
  6
Continuous
100
AcDbLine
 10
315.938775
 20
249.807033
 30
0.0
 11
315.938775
 21
254.3070329999999
 31
0.0
  0
ARC
  5
5379
330
4EDA
100
AcDbEntity
  8
1
  6
Continuous
100
AcDbCircle
 10
311.938775
 20
247.307033
 30
0.0
 40
2.0
100
AcDbArc
 50
180.0
 51
222.3553149999999
  0
LINE
  5
537A
330
4EDA
100
AcDbEntity
  8
1
  6
Continuous
100
AcDbLine
 10
328.2887749999998
 20
279.0570329999998
 30
0.0
 11
314.438775
 21
279.0570329999998
 31
0.0
  0
LINE
  5
537B
330
4EDA
100
AcDbEntity
  8
1
  6
Continuous
100
AcDbLine
 10
333.438775
 20
274.7689129999999
 30
0.0
 11
328.7387749999999
 21
274.7689129999999
 31
0.0
  0
ARC
  5
537C
330
4EDA
100
AcDbEntity
  8
1
  6
Continuous
100
AcDbCircle
 10
333.438775
 20
274.4689129999998
 30
0.0
 40
0.3
100
AcDbArc
 50
0.000000000000007
 51
90.0
  0
LINE
  5
537D
330
4EDA
100
AcDbEntity
  8
1
  6
Continuous
100
AcDbLine
 10
328.5387749999998
 20
278.807033
 30
0.0
 11
328.2887749999998
 21
279.0570329999998
 31
0.0
  0
LINE
  5
537E
330
4EDA
100
AcDbEntity
  8
1
  6
Continuous
100
AcDbLine
 10
328.5387749999998
 20
276.007033
 30
0.0
 11
328.7387749999999
 21
275.8070329999998
 31
0.0
  0
LINE
  5
537F
330
4EDA
100
AcDbEntity
  8
1
  6
Continuous
100
AcDbLine
 10
315.938775
 20
284.3070329999998
 30
0.0
 11
314.438775
 21
284.3070329999998
 31
0.0
  0
LINE
  5
5380
330
4EDA
100
AcDbEntity
  8
1
  6
Continuous
100
AcDbLine
 10
315.938775
 20
288.807033
 30
0.0
 11
314.438775
 21
288.807033
 31
0.0
  0
LINE
  5
5381
330
4EDA
100
AcDbEntity
  8
1
  6
Continuous
100
AcDbLine
 10
315.938775
 20
288.807033
 30
0.0
 11
315.938775
 21
284.3070329999998
 31
0.0
  0
ARC
  5
5382
330
4EDA
100
AcDbEntity
  8
1
  6
Continuous
100
AcDbCircle
 10
311.938775
 20
291.307033
 30
0.0
 40
2.0
100
AcDbArc
 50
137.644685
 51
180.0
  0
LINE
  5
5383
330
4EDA
100
AcDbEntity
  8
1
  6
Continuous
100
AcDbLine
 10
311.938775
 20
293.3070329999998
 30
0.0
 11
313.4387750000001
 21
293.3070329999998
 31
0.0
  0
LINE
  5
5384
330
4EDA
100
AcDbEntity
  8
1
  6
Continuous
100
AcDbLine
 10
314.438775
 20
293.3070329999998
 30
0.0
 11
313.4387750000001
 21
293.3070329999998
 31
0.0
  0
ARC
  5
5385
330
4EDA
100
AcDbEntity
  8
1
  6
Continuous
100
AcDbCircle
 10
311.938775
 20
291.307033
 30
0.0
 40
2.0
100
AcDbArc
 50
90.0
 51
137.644685
  0
LINE
  5
5386
330
4EDA
100
AcDbEntity
  8
1
  6
Continuous
100
AcDbLine
 10
261.3096510221528
 20
283.7648404371337
 30
0.0
 11
261.3096510221528
 21
252.3070330000841
 31
0.0
  0
LINE
  5
5387
330
4EDA
100
AcDbEntity
  8
1
  6
Continuous
100
AcDbLine
 10
260.801496951712
 20
283.7648404371325
 30
0.0
 11
260.801496951712
 21
252.3070330000841
 31
0.0
  0
LINE
  5
5388
330
4EDA
100
AcDbEntity
  8
1
  6
Continuous
100
AcDbLine
 10
259.8387751898043
 20
285.3070329999998
 30
0.0
 11
259.8387751898043
 21
252.3070330000873
 31
0.0
  0
LINE
  5
5389
330
4EDA
100
AcDbEntity
  8
1
  6
Continuous
100
AcDbLine
 10
301.9887749999999
 20
283.11332
 30
0.0
 11
301.9887749999999
 21
255.500746
 31
0.0
  0
LINE
  5
538A
330
4EDA
100
AcDbEntity
  8
1
  6
Continuous
100
AcDbLine
 10
301.938775
 20
255.307033
 30
0.0
 11
301.938775
 21
283.3070329999998
 31
0.0
  0
ARC
  5
538B
330
4EDA
100
AcDbEntity
  8
1
  6
Continuous
100
AcDbCircle
 10
279.438775
 20
251.985541
 30
0.0
 40
6.0
100
AcDbArc
 50
94.13467099999996
 51
180.0
  0
LINE
  5
538C
330
4EDA
100
AcDbEntity
  8
1
  6
Continuous
100
AcDbLine
 10
273.5749609999999
 20
253.256637
 30
0.0
 11
301.938775
 21
255.307033
 31
0.0
  0
LINE
  5
538D
330
4EDA
100
AcDbEntity
  8
1
  6
Continuous
100
AcDbLine
 10
279.0061689999999
 20
257.9699249999998
 30
0.0
 11
301.938775
 21
259.6277029999999
 31
0.0
  0
LINE
  5
538E
330
4EDA
100
AcDbEntity
  8
1
  6
Continuous
100
AcDbLine
 10
302.0692849999999
 20
259.0761689999999
 30
0.0
 11
305.5991
 21
255.6413599999999
 31
0.0
  0
ARC
  5
538F
330
4EDA
100
AcDbEntity
  8
1
  6
Continuous
100
AcDbCircle
 10
302.4887749999999
 20
255.500746
 30
0.0
 40
0.5
100
AcDbArc
 50
180.0
 51
222.1848549999999
  0
LINE
  5
5390
330
4EDA
100
AcDbEntity
  8
1
  6
Continuous
100
AcDbLine
 10
301.938775
 20
260.3070329999998
 30
0.0
 11
301.9887749999999
 21
260.3070329999998
 31
0.0
  0
ARC
  5
5391
330
4EDA
100
AcDbEntity
  8
1
  6
Continuous
100
AcDbCircle
 10
460.4387749999999
 20
252.3070329999999
 30
0.0
 40
200.0
100
AcDbArc
 50
180.0
 51
184.573055
  0
LINE
  5
5392
330
4EDA
100
AcDbEntity
  8
1
  6
Continuous
100
AcDbLine
 10
261.3096510221528
 20
252.3070330000841
 30
0.0
 11
259.8387751898043
 21
252.3070330000841
 31
0.0
  0
LINE
  5
5393
330
4EDA
100
AcDbEntity
  8
1
  6
Continuous
100
AcDbLine
 10
259.3387751898043
 20
255.3070330000497
 30
0.0
 11
259.8387751898296
 21
267.3070330001081
 31
0.0
  0
LINE
  5
5394
330
4EDA
100
AcDbEntity
  8
1
  6
Continuous
100
AcDbLine
 10
259.8387751898004
 20
255.3070330000497
 30
0.0
 11
259.3387751898043
 21
255.3070330000497
 31
0.0
  0
LINE
  5
5395
330
4EDA
100
AcDbEntity
  8
1
  6
Continuous
100
AcDbLine
 10
272.2907521039592
 20
282.4252025567389
 30
0.0
 11
301.9387749999605
 21
279.4366921850635
 31
0.0
  0
LINE
  5
5396
330
4EDA
100
AcDbEntity
  8
1
  6
Continuous
100
AcDbLine
 10
272.6769569999999
 20
286.256614
 30
0.0
 11
301.938775
 21
283.3070329999998
 31
0.0
  0
ARC
  5
5397
330
4EDA
100
AcDbEntity
  8
1
  6
Continuous
100
AcDbCircle
 10
302.4887749999999
 20
283.11332
 30
0.0
 40
0.5
100
AcDbArc
 50
137.815145
 51
180.0
  0
LINE
  5
5398
330
4EDA
100
AcDbEntity
  8
1
  6
Continuous
100
AcDbLine
 10
301.9887749999999
 20
280.8070329999998
 30
0.0
 11
301.938775
 21
280.8070329999998
 31
0.0
  0
LINE
  5
5399
330
4EDA
100
AcDbEntity
  8
1
  6
Continuous
100
AcDbLine
 10
305.5991
 20
282.972706
 30
0.0
 11
302.0692849999999
 21
279.5378969999998
 31
0.0
  0
LINE
  5
539A
330
4EDA
100
AcDbEntity
  8
1
  6
Continuous
100
AcDbLine
 10
260.801496951712
 20
283.7648404371325
 30
0.0
 11
260.3072746020596
 21
285.4756669371603
 31
0.0
  0
ARC
  5
539B
330
4EDA
100
AcDbEntity
  8
1
  6
Continuous
100
AcDbCircle
 10
260.8387751898043
 20
285.3070329999998
 30
0.0
 40
1.0
100
AcDbArc
 50
90.0
 51
180.0
  0
LINE
  5
539C
330
4EDA
100
AcDbEntity
  8
1
  6
Continuous
100
AcDbLine
 10
261.3096510220754
 20
283.7648404371337
 30
0.0
 11
261.7981029950348
 21
282.6346532864415
 31
0.0
  0
LINE
  5
539D
330
4EDA
100
AcDbEntity
  8
1
  6
Continuous
100
AcDbLine
 10
262.6553022182767
 20
282.4562054028601
 30
0.0
 11
271.6740428101957
 21
282.456206043405
 31
0.0
  0
ARC
  5
539E
330
4EDA
100
AcDbEntity
  8
1
  6
Continuous
100
AcDbCircle
 10
271.6740428101957
 20
276.3070336405448
 30
0.0
 40
6.149172402860227
100
AcDbArc
 50
84.24404744493619
 51
90.0
  0
ARC
  5
539F
330
4EDA
100
AcDbEntity
  8
1
  6
Continuous
100
AcDbCircle
 10
262.6553022182767
 20
281.4562054028601
 30
0.0
 40
1.0
100
AcDbArc
 50
90.0
 51
180.0
  0
LINE
  5
53A0
330
4EDA
100
AcDbEntity
  8
1
  6
Continuous
100
AcDbLine
 10
260.8387751898043
 20
286.3070329999998
 30
0.0
 11
271.6740429999999
 21
286.3070329999998
 31
0.0
  0
ARC
  5
53A1
330
4EDA
100
AcDbEntity
  8
1
  6
Continuous
100
AcDbCircle
 10
271.6740429999999
 20
276.307033
 30
0.0
 40
10.0
100
AcDbArc
 50
84.24404700000001
 51
90.0
  0
LINE
  5
53A2
330
4EDA
100
AcDbEntity
  8
1
  6
Continuous
100
AcDbLine
 10
260.801496951712
 20
283.7648404371325
 30
0.0
 11
261.3096510220754
 21
283.7648404371337
 31
0.0
  0
ENDSEC
  0
SECTION
  2
OBJECTS
  0
DICTIONARY
  5
4EC8
330
0
100
AcDbDictionary
281
     1
  3
ACAD_CIP_PREVIOUS_PRODUCT_INFO
350
5408
  3
ACAD_COLOR
350
53EA
  3
ACAD_DETAILVIEWSTYLE
350
5403
  3
ACAD_GROUP
350
4EC9
  3
ACAD_LAYOUT
350
4ED5
  3
ACAD_MATERIAL
350
53B8
  3
ACAD_MLEADERSTYLE
350
53FF
  3
ACAD_MLINESTYLE
350
4ED2
  3
ACAD_PLOTSETTINGS
350
4ED4
  3
ACAD_PLOTSTYLENAME
350
53B6
  3
ACAD_SCALELIST
350
53ED
  3
ACAD_SECTIONVIEWSTYLE
350
5401
  3
ACAD_TABLESTYLE
350
53EB
  3
ACAD_VISUALSTYLE
350
53D1
  3
ACDB_RECOMPOSE_DATA
350
5426
  3
AcDbVariableDictionary
350
5419
  3
DWGPROPS
350
5427
  0
DICTIONARY
  5
5409
330
4ECC
100
AcDbDictionary
280
     1
281
     1
  3
ADSK_XREC_LAYER_RECONCILED
360
540A
  0
DICTIONARY
  5
540B
330
4EE2
100
AcDbDictionary
280
     1
281
     1
  3
ADSK_XREC_LAYER_RECONCILED
360
540C
  0
DICTIONARY
  5
540D
330
4EE3
100
AcDbDictionary
280
     1
281
     1
  3
ADSK_XREC_LAYER_RECONCILED
360
540E
  0
DICTIONARY
  5
540F
330
4EE4
100
AcDbDictionary
280
     1
281
     1
  3
ADSK_XREC_LAYER_RECONCILED
360
5410
  0
DICTIONARY
  5
5411
330
4EE5
100
AcDbDictionary
280
     1
281
     1
  3
ADSK_XREC_LAYER_RECONCILED
360
5412
  0
DICTIONARY
  5
5413
330
4EE6
100
AcDbDictionary
280
     1
281
     1
  3
ADSK_XREC_LAYER_RECONCILED
360
5414
  0
DICTIONARY
  5
5415
330
4EE7
100
AcDbDictionary
280
     1
281
     1
  3
ADSK_XREC_LAYER_RECONCILED
360
5416
  0
DICTIONARY
  5
5417
330
4EE8
100
AcDbDictionary
280
     1
281
     1
  3
ADSK_XREC_LAYER_RECONCILED
360
5418
  0
DICTIONARY
  5
53B1
330
4EDA
100
AcDbDictionary
281
     1
  3
ACAD_LAYOUTSELFREF
350
53B2
  0
DICTIONARY
  5
53AF
330
4ED6
100
AcDbDictionary
281
     1
  3
ACAD_LAYOUTSELFREF
350
53B0
  0
XRECORD
  5
5408
102
{ACAD_REACTORS
330
4EC8
102
}
330
4EC8
100
AcDbXrecord
280
     1
300
ACDLT
300
2014
300
ACDLT_F_S
  0
DICTIONARY
  5
53EA
102
{ACAD_REACTORS
330
4EC8
102
}
330
4EC8
100
AcDbDictionary
281
     1
  0
DICTIONARY
  5
5403
102
{ACAD_REACTORS
330
4EC8
102
}
330
4EC8
100
AcDbDictionary
281
     1
  3
Imperial24
350
5404
  0
DICTIONARY
  5
4EC9
102
{ACAD_REACTORS
330
4EC8
102
}
330
4EC8
100
AcDbDictionary
281
     1
  0
DICTIONARY
  5
4ED5
102
{ACAD_REACTORS
330
4EC8
102
}
330
4EC8
100
AcDbDictionary
281
     1
  3
Model
350
5405
  3
レイアウト1
350
5406
  0
DICTIONARY
  5
53B8
102
{ACAD_REACTORS
330
4EC8
102
}
330
4EC8
100
AcDbDictionary
281
     1
  3
ByBlock
350
53C1
  3
ByLayer
350
53B9
  3
Global
350
53C9
  0
DICTIONARY
  5
53FF
102
{ACAD_REACTORS
330
4EC8
102
}
330
4EC8
100
AcDbDictionary
281
     1
  3
Standard
350
5400
  0
DICTIONARY
  5
4ED2
102
{ACAD_REACTORS
330
4EC8
102
}
330
4EC8
100
AcDbDictionary
281
     1
  3
STANDARD
350
4ED3
  0
DICTIONARY
  5
4ED4
102
{ACAD_REACTORS
330
4EC8
102
}
330
4EC8
100
AcDbDictionary
281
     1
  0
ACDBDICTIONARYWDFLT
  5
53B6
102
{ACAD_REACTORS
330
4EC8
102
}
330
4EC8
100
AcDbDictionary
281
     1
  3
Normal
350
53B7
100
AcDbDictionaryWithDefault
340
53B7
  0
DICTIONARY
  5
53ED
102
{ACAD_REACTORS
330
4EC8
102
}
330
4EC8
100
AcDbDictionary
281
     1
  3
A0
350
53EE
  3
A1
350
53EF
  3
A2
350
53F0
  3
A3
350
53F1
  3
A4
350
53F2
  3
A5
350
53F3
  3
A6
350
53F4
  3
A7
350
53F5
  3
A8
350
53F6
  3
A9
350
53F7
  3
B0
350
53F8
  3
B1
350
53F9
  3
B2
350
53FA
  3
B3
350
53FB
  3
B4
350
53FC
  3
B5
350
53FD
  3
B6
350
53FE
  0
DICTIONARY
  5
5401
102
{ACAD_REACTORS
330
4EC8
102
}
330
4EC8
100
AcDbDictionary
281
     1
  3
Imperial24
350
5402
  0
DICTIONARY
  5
53EB
102
{ACAD_REACTORS
330
4EC8
102
}
330
4EC8
100
AcDbDictionary
281
     1
  3
Standard
350
53EC
  0
DICTIONARY
  5
53D1
102
{ACAD_REACTORS
330
4EC8
102
}
330
4EC8
100
AcDbDictionary
281
     1
  3
2dWireframe
350
53D7
  3
Basic
350
53D6
  3
Brighten
350
53DD
  3
ColorChange
350
53E1
  3
Conceptual
350
53DA
  3
Dim
350
53DC
  3
EdgeColorOff
350
53E9
  3
Facepattern
350
53E0
  3
Flat
350
53D2
  3
FlatWithEdges
350
53D3
  3
Gouraud
350
53D4
  3
GouraudWithEdges
350
53D5
  3
Hidden
350
53D9
  3
JitterOff
350
53E7
  3
Linepattern
350
53DF
  3
OverhangOff
350
53E8
  3
Realistic
350
53DB
  3
Shaded
350
53E6
  3
Shaded with edges
350
53E5
  3
Shades of Gray
350
53E2
  3
Sketchy
350
53E3
  3
Thicken
350
53DE
  3
Wireframe
350
53D8
  3
X-Ray
350
53E4
  0
XRECORD
  5
5426
102
{ACAD_REACTORS
330
4EC8
102
}
330
4EC8
100
AcDbXrecord
280
     1
 90
        1
330
53EC
  0
DICTIONARY
  5
5419
102
{ACAD_REACTORS
330
4EC8
102
}
330
4EC8
100
AcDbDictionary
281
     1
  3
CANNOSCALE
350
541E
  3
CMLEADERSTYLE
350
541B
  3
CTABLESTYLE
350
541A
  3
CVIEWDETAILSTYLE
350
541C
  3
CVIEWSECTIONSTYLE
350
541D
  3
DIMASSOC
350
5421
  3
INDEXCTL
350
5420
  3
SORTENTS
350
541F
  3
XCLIPFRAME
350
5422
  0
XRECORD
  5
5427
102
{ACAD_REACTORS
330
4EC8
102
}
330
4EC8
100
AcDbXrecord
280
     1
  1
DWGPROPS COOKIE
  2

  3

  4

  6

  7

  8
Yoshitsune
  9

300
=
301
=
302
=
303
=
304
=
305
=
306
=
307
=
308
=
309
=
 40
0.1013419097222222
 41
2451652.667219005
 42
2457192.641575197
  1

 90
        0
  0
XRECORD
  5
540A
102
{ACAD_REACTORS
330
5409
102
}
330
5409
100
AcDbXrecord
280
     1
290
     1
  0
XRECORD
  5
540C
102
{ACAD_REACTORS
330
540B
102
}
330
540B
100
AcDbXrecord
280
     1
290
     1
  0
XRECORD
  5
540E
102
{ACAD_REACTORS
330
540D
102
}
330
540D
100
AcDbXrecord
280
     1
290
     1
  0
XRECORD
  5
5410
102
{ACAD_REACTORS
330
540F
102
}
330
540F
100
AcDbXrecord
280
     1
290
     1
  0
XRECORD
  5
5412
102
{ACAD_REACTORS
330
5411
102
}
330
5411
100
AcDbXrecord
280
     1
290
     1
  0
XRECORD
  5
5414
102
{ACAD_REACTORS
330
5413
102
}
330
5413
100
AcDbXrecord
280
     1
290
     1
  0
XRECORD
  5
5416
102
{ACAD_REACTORS
330
5415
102
}
330
5415
100
AcDbXrecord
280
     1
290
     1
  0
XRECORD
  5
5418
102
{ACAD_REACTORS
330
5417
102
}
330
5417
100
AcDbXrecord
280
     1
290
     1
  0
XRECORD
  5
53B2
102
{ACAD_REACTORS
330
53B1
102
}
330
53B1
100
AcDbXrecord
280
     1
340
4EDA
  0
XRECORD
  5
53B0
102
{ACAD_REACTORS
330
53AF
102
}
330
53AF
100
AcDbXrecord
280
     1
340
4ED6
  0
ACDBDETAILVIEWSTYLE
  5
5404
102
{ACAD_XDICTIONARY
360
545F
102
}
102
{ACAD_REACTORS
330
5403
102
}
330
5403
100
AcDbModelDocViewStyle
 70
     0
  3
Imperial24
290
     0
100
AcDbDetailViewStyle
 70
     0
 71
     0
 90
        3
 71
     1
340
4ECD
 40
0.24
340
0
 40
0.24
300

 40
0.36
280
     3
 71
     2
340
4ED1
 90
       25
 71
     3
340
4ECD
 40
0.24
 90
        1
 40
0.75
 90
        1
300
%<\AcVar ViewType \f "%tc1">% %<\AcVar ViewDetailId>%\PSCALE %<\AcVar ViewScale \f "%sn">%
 71
     4
340
4ED1
 90
       25
340
4ED1
 90
       25
280
     0
  0
LAYOUT
  5
5405
102
{ACAD_XDICTIONARY
360
5461
102
}
102
{ACAD_REACTORS
330
4ED5
102
}
330
4ED5
100
AcDbPlotSettings
  1

  2
Canon LBP9100C
  4

  6

 40
0.0
 41
0.0
 42
0.0
 43
0.0
 44
0.0
 45
0.0
 46
0.0
 47
0.0
 48
0.0
 49
0.0
140
0.0
141
0.0
142
1.0
143
1.0
 70
  1712
 72
     0
 73
     0
 74
     0
  7

 75
     0
147
1.0
148
0.0
149
0.0
100
AcDbLayout
  1
Model
 70
     1
 71
     0
 10
0.0
 20
0.0
 11
12.0
 21
9.0
 12
0.0
 22
0.0
 32
0.0
 14
0.0
 24
0.0
 34
0.0
 15
0.0
 25
0.0
 35
0.0
146
0.0
 13
0.0
 23
0.0
 33
0.0
 16
1.0
 26
0.0
 36
0.0
 17
0.0
 27
1.0
 37
0.0
 76
     0
330
4EDA
331
53AE
  0
LAYOUT
  5
5406
102
{ACAD_XDICTIONARY
360
5463
102
}
102
{ACAD_REACTORS
330
4ED5
102
}
330
4ED5
100
AcDbPlotSettings
  1

  2
Canon LBP9100C
  4

  6

 40
0.0
 41
0.0
 42
0.0
 43
0.0
 44
0.0
 45
0.0
 46
0.0
 47
0.0
 48
0.0
 49
0.0
140
0.0
141
0.0
142
1.0
143
1.0
 70
   688
 72
     0
 73
     0
 74
     5
  7

 75
    16
147
1.0
148
0.0
149
0.0
100
AcDbLayout
  1
レイアウト1
 70
     1
 71
     1
 10
0.0
 20
0.0
 11
420.0
 21
297.0
 12
0.0
 22
0.0
 32
0.0
 14
1.000000000000000E+20
 24
1.000000000000000E+20
 34
1.000000000000000E+20
 15
-1.000000000000000E+20
 25
-1.000000000000000E+20
 35
-1.000000000000000E+20
146
0.0
 13
0.0
 23
0.0
 33
0.0
 16
1.0
 26
0.0
 36
0.0
 17
0.0
 27
1.0
 37
0.0
 76
     0
330
4ED6
  0
MATERIAL
  5
53C1
102
{ACAD_XDICTIONARY
360
53C2
102
}
102
{ACAD_REACTORS
330
53B8
102
}
330
53B8
100
AcDbMaterial
  1
ByBlock
 72
     0
 43
0.0208333333333333
 43
0.0
 43
0.0
 43
0.0
 43
0.0
 43
0.0208333333333333
 43
0.0
 43
0.0
 43
0.0
 43
0.0
 43
1.0
 43
0.0
 43
0.0
 43
0.0
 43
0.0
 43
1.0
 77
     0
 47
0.0208333333333333
 47
0.0
 47
0.0
 47
0.0
 47
0.0
 47
0.0208333333333333
 47
0.0
 47
0.0
 47
0.0
 47
0.0
 47
1.0
 47
0.0
 47
0.0
 47
0.0
 47
0.0
 47
1.0
171
     0
 49
0.0208333333333333
 49
0.0
 49
0.0
 49
0.0
 49
0.0
 49
0.0208333333333333
 49
0.0
 49
0.0
 49
0.0
 49
0.0
 49
1.0
 49
0.0
 49
0.0
 49
0.0
 49
0.0
 49
1.0
175
     0
142
0.0208333333333333
142
0.0
142
0.0
142
0.0
142
0.0
142
0.0208333333333333
142
0.0
142
0.0
142
0.0
142
0.0
142
1.0
142
0.0
142
0.0
142
0.0
142
0.0
142
1.0
179
     0
144
0.0208333333333333
144
0.0
144
0.0
144
0.0
144
0.0
144
0.0208333333333333
144
0.0
144
0.0
144
0.0
144
0.0
144
1.0
144
0.0
144
0.0
144
0.0
144
0.0
144
1.0
147
0.0208333333333333
147
0.0
147
0.0
147
0.0
147
0.0
147
0.0208333333333333
147
0.0
147
0.0
147
0.0
147
0.0
147
1.0
147
0.0
147
0.0
147
0.0
147
0.0
147
1.0
  0
MATERIAL
  5
53B9
102
{ACAD_XDICTIONARY
360
53BA
102
}
102
{ACAD_REACTORS
330
53B8
102
}
330
53B8
100
AcDbMaterial
  1
ByLayer
 72
     0
 43
0.0208333333333333
 43
0.0
 43
0.0
 43
0.0
 43
0.0
 43
0.0208333333333333
 43
0.0
 43
0.0
 43
0.0
 43
0.0
 43
1.0
 43
0.0
 43
0.0
 43
0.0
 43
0.0
 43
1.0
 77
     0
 47
0.0208333333333333
 47
0.0
 47
0.0
 47
0.0
 47
0.0
 47
0.0208333333333333
 47
0.0
 47
0.0
 47
0.0
 47
0.0
 47
1.0
 47
0.0
 47
0.0
 47
0.0
 47
0.0
 47
1.0
171
     0
 49
0.0208333333333333
 49
0.0
 49
0.0
 49
0.0
 49
0.0
 49
0.0208333333333333
 49
0.0
 49
0.0
 49
0.0
 49
0.0
 49
1.0
 49
0.0
 49
0.0
 49
0.0
 49
0.0
 49
1.0
175
     0
142
0.0208333333333333
142
0.0
142
0.0
142
0.0
142
0.0
142
0.0208333333333333
142
0.0
142
0.0
142
0.0
142
0.0
142
1.0
142
0.0
142
0.0
142
0.0
142
0.0
142
1.0
179
     0
144
0.0208333333333333
144
0.0
144
0.0
144
0.0
144
0.0
144
0.0208333333333333
144
0.0
144
0.0
144
0.0
144
0.0
144
1.0
144
0.0
144
0.0
144
0.0
144
0.0
144
1.0
147
0.0208333333333333
147
0.0
147
0.0
147
0.0
147
0.0
147
0.0208333333333333
147
0.0
147
0.0
147
0.0
147
0.0
147
1.0
147
0.0
147
0.0
147
0.0
147
0.0
147
1.0
  0
MATERIAL
  5
53C9
102
{ACAD_XDICTIONARY
360
53CA
102
}
102
{ACAD_REACTORS
330
53B8
102
}
330
53B8
100
AcDbMaterial
  1
Global
 72
     0
 43
0.0208333333333333
 43
0.0
 43
0.0
 43
0.0
 43
0.0
 43
0.0208333333333333
 43
0.0
 43
0.0
 43
0.0
 43
0.0
 43
1.0
 43
0.0
 43
0.0
 43
0.0
 43
0.0
 43
1.0
 77
     0
 47
0.0208333333333333
 47
0.0
 47
0.0
 47
0.0
 47
0.0
 47
0.0208333333333333
 47
0.0
 47
0.0
 47
0.0
 47
0.0
 47
1.0
 47
0.0
 47
0.0
 47
0.0
 47
0.0
 47
1.0
171
     0
 49
0.0208333333333333
 49
0.0
 49
0.0
 49
0.0
 49
0.0
 49
0.0208333333333333
 49
0.0
 49
0.0
 49
0.0
 49
0.0
 49
1.0
 49
0.0
 49
0.0
 49
0.0
 49
0.0
 49
1.0
175
     0
142
0.0208333333333333
142
0.0
142
0.0
142
0.0
142
0.0
142
0.0208333333333333
142
0.0
142
0.0
142
0.0
142
0.0
142
1.0
142
0.0
142
0.0
142
0.0
142
0.0
142
1.0
179
     0
144
0.0208333333333333
144
0.0
144
0.0
144
0.0
144
0.0
144
0.0208333333333333
144
0.0
144
0.0
144
0.0
144
0.0
144
1.0
144
0.0
144
0.0
144
0.0
144
0.0
144
1.0
147
0.0208333333333333
147
0.0
147
0.0
147
0.0
147
0.0
147
0.0208333333333333
147
0.0
147
0.0
147
0.0
147
0.0
147
1.0
147
0.0
147
0.0
147
0.0
147
0.0
147
1.0
  0
MLEADERSTYLE
  5
5400
102
{ACAD_REACTORS
330
53FF
102
}
330
53FF
100
AcDbMLeaderStyle
170
     2
171
     1
172
     0
 90
        2
 40
0.0
 41
0.0
173
     1
 91
-1056964608
340
4ECF
 92
       -2
290
     1
 42
0.09
291
     1
 43
0.36
  3
Standard
 44
0.18
300

342
4ECD
174
     1
178
     6
175
     1
176
     0
 93
-1056964608
 45
0.18
292
     0
297
     0
 46
0.18
 94
-1056964608
 47
1.0
 49
1.0
140
1.0
293
     1
141
0.0
294
     1
177
     0
142
1.0
295
     0
296
     0
143
0.125
1001
ACAD_MLEADERVER
1070
     2
  0
MLINESTYLE
  5
4ED3
102
{ACAD_REACTORS
330
4ED2
102
}
330
4ED2
100
AcDbMlineStyle
  2
STANDARD
 70
     0
  3

 62
   256
 51
90.0
 52
90.0
 71
     2
 49
0.5
 62
   256
  6
BYLAYER
 49
-0.5
 62
   256
  6
BYLAYER
  0
ACDBPLACEHOLDER
  5
53B7
102
{ACAD_REACTORS
330
53B6
102
}
330
53B6
  0
SCALE
  5
53EE
102
{ACAD_REACTORS
330
53ED
102
}
330
53ED
100
AcDbScale
 70
     0
300
1:1
140
1.0
141
1.0
290
     1
  0
SCALE
  5
53EF
102
{ACAD_REACTORS
330
53ED
102
}
330
53ED
100
AcDbScale
 70
     0
300
1/128" = 1'-0"
140
0.0078125
141
12.0
290
     0
  0
SCALE
  5
53F0
102
{ACAD_REACTORS
330
53ED
102
}
330
53ED
100
AcDbScale
 70
     0
300
1/64" = 1'-0"
140
0.015625
141
12.0
290
     0
  0
SCALE
  5
53F1
102
{ACAD_REACTORS
330
53ED
102
}
330
53ED
100
AcDbScale
 70
     0
300
1/32" = 1'-0"
140
0.03125
141
12.0
290
     0
  0
SCALE
  5
53F2
102
{ACAD_REACTORS
330
53ED
102
}
330
53ED
100
AcDbScale
 70
     0
300
1/16" = 1'-0"
140
0.0625
141
12.0
290
     0
  0
SCALE
  5
53F3
102
{ACAD_REACTORS
330
53ED
102
}
330
53ED
100
AcDbScale
 70
     0
300
3/32" = 1'-0"
140
0.09375
141
12.0
290
     0
  0
SCALE
  5
53F4
102
{ACAD_REACTORS
330
53ED
102
}
330
53ED
100
AcDbScale
 70
     0
300
1/8" = 1'-0"
140
0.125
141
12.0
290
     0
  0
SCALE
  5
53F5
102
{ACAD_REACTORS
330
53ED
102
}
330
53ED
100
AcDbScale
 70
     0
300
3/16" = 1'-0"
140
0.1875
141
12.0
290
     0
  0
SCALE
  5
53F6
102
{ACAD_REACTORS
330
53ED
102
}
330
53ED
100
AcDbScale
 70
     0
300
1/4" = 1'-0"
140
0.25
141
12.0
290
     0
  0
SCALE
  5
53F7
102
{ACAD_REACTORS
330
53ED
102
}
330
53ED
100
AcDbScale
 70
     0
300
3/8" = 1'-0"
140
0.375
141
12.0
290
     0
  0
SCALE
  5
53F8
102
{ACAD_REACTORS
330
53ED
102
}
330
53ED
100
AcDbScale
 70
     0
300
1/2" = 1'-0"
140
0.5
141
12.0
290
     0
  0
SCALE
  5
53F9
102
{ACAD_REACTORS
330
53ED
102
}
330
53ED
100
AcDbScale
 70
     0
300
3/4" = 1'-0"
140
0.75
141
12.0
290
     0
  0
SCALE
  5
53FA
102
{ACAD_REACTORS
330
53ED
102
}
330
53ED
100
AcDbScale
 70
     0
300
1" = 1'-0"
140
1.0
141
12.0
290
     0
  0
SCALE
  5
53FB
102
{ACAD_REACTORS
330
53ED
102
}
330
53ED
100
AcDbScale
 70
     0
300
1-1/2" = 1'-0"
140
1.5
141
12.0
290
     0
  0
SCALE
  5
53FC
102
{ACAD_REACTORS
330
53ED
102
}
330
53ED
100
AcDbScale
 70
     0
300
3" = 1'-0"
140
3.0
141
12.0
290
     0
  0
SCALE
  5
53FD
102
{ACAD_REACTORS
330
53ED
102
}
330
53ED
100
AcDbScale
 70
     0
300
6" = 1'-0"
140
6.0
141
12.0
290
     0
  0
SCALE
  5
53FE
102
{ACAD_REACTORS
330
53ED
102
}
330
53ED
100
AcDbScale
 70
     0
300
1'-0" = 1'-0"
140
12.0
141
12.0
290
     0
  0
ACDBSECTIONVIEWSTYLE
  5
5402
102
{ACAD_XDICTIONARY
360
545D
102
}
102
{ACAD_REACTORS
330
5401
102
}
330
5401
100
AcDbModelDocViewStyle
 70
     0
  3
Imperial24
290
     0
100
AcDbSectionViewStyle
 70
     0
 71
     0
 90
       78
 71
     1
340
4ECD
 40
0.24
340
0
340
0
 40
0.24
300
I, O, Q, S, X, Z
 40
0.48
 90
        3
 40
0.18
 90
        1
 71
     2
340
4ED1
 90
       25
340
4ED1
 90
       50
 40
0.24
 40
0.0
 40
0.24
 71
     3
340
4ECD
 40
0.24
 90
        1
 40
0.75
 90
        1
300
%<\AcVar ViewType \f "%tc1">% %<\AcVar ViewSectionStartId>%-%<\AcVar ViewSectionEndId>%\PSCALE %<\AcVar ViewScale \f "%sn">%
 71
     4
300
ANSI31
 40
1.0
 90
        0
290
     0
290
     0
 90
        6
 40
0.0
 40
1.570796326794896
 40
0.2617993877991494
 40
1.308996938995747
 40
-0.2617993877991494
 40
1.832595714594046
  0
TABLESTYLE
  5
53EC
102
{ACAD_XDICTIONARY
360
5424
102
}
102
{ACAD_REACTORS
330
53EB
102
}
330
53EB
100
AcDbTableStyle
  3
Standard
 70
     0
 71
     0
 40
0.06
 41
0.06
280
     0
281
     0
  7
STANDARD
140
0.18
170
     2
 62
     0
 63
     7
283
     0
274
    -2
284
     1
 64
     0
275
    -2
285
     1
 65
     0
276
    -2
286
     1
 66
     0
277
    -2
287
     1
 67
     0
278
    -2
288
     1
 68
     0
279
    -2
289
     1
 69
     0
  7
STANDARD
140
0.25
170
     5
 62
     0
 63
     7
283
     0
274
    -2
284
     1
 64
     0
275
    -2
285
     1
 65
     0
276
    -2
286
     1
 66
     0
277
    -2
287
     1
 67
     0
278
    -2
288
     1
 68
     0
279
    -2
289
     1
 69
     0
  7
STANDARD
140
0.18
170
     5
 62
     0
 63
     7
283
     0
274
    -2
284
     1
 64
     0
275
    -2
285
     1
 65
     0
276
    -2
286
     1
 66
     0
277
    -2
287
     1
 67
     0
278
    -2
288
     1
 68
     0
279
    -2
289
     1
 69
     0
  0
VISUALSTYLE
  5
53D7
102
{ACAD_XDICTIONARY
360
5435
102
}
102
{ACAD_REACTORS
330
53D1
102
}
330
53D1
100
AcDbVisualStyle
  2
2dWireframe
 70
     4
 71
     0
 72
     2
 73
     0
 90
        0
 40
-0.6
 41
-30.0
 62
     5
 63
     7
 74
     1
 91
        4
 64
     7
 65
   257
 75
     1
175
     1
 42
1.0
 92
        0
 66
   257
 43
1.0
 76
     1
 77
     6
 78
     2
 67
     7
 79
     5
170
     0
171
     0
290
     0
174
     0
 93
        1
 44
0.0
173
     0
291
     0
 45
0.0
1001
ACAD
1000
AcDbSavedByObjectVersion
1070
     0
  0
VISUALSTYLE
  5
53D6
102
{ACAD_XDICTIONARY
360
5433
102
}
102
{ACAD_REACTORS
330
53D1
102
}
330
53D1
100
AcDbVisualStyle
  2
Basic
 70
     7
 71
     1
 72
     0
 73
     1
 90
        0
 40
-0.6
 41
-30.0
 62
     5
 63
     7
 74
     0
 91
        4
 64
     7
 65
   257
 75
     1
175
     1
 42
1.0
 92
        8
 66
     7
 43
1.0
 76
     1
 77
     6
 78
     2
 67
     7
 79
     5
170
     0
171
     0
290
     0
174
     0
 93
        1
 44
0.0
173
     0
291
     1
 45
0.0
1001
ACAD
1000
AcDbSavedByObjectVersion
1070
     0
  0
VISUALSTYLE
  5
53DD
102
{ACAD_XDICTIONARY
360
5441
102
}
102
{ACAD_REACTORS
330
53D1
102
}
330
53D1
100
AcDbVisualStyle
  2
Brighten
 70
    12
 71
     2
 72
     2
 73
     0
 90
        0
 40
-0.6
 41
-30.0
 62
     5
 63
     7
 74
     1
 91
        4
 64
     7
 65
   257
 75
     1
175
     1
 42
1.0
 92
        8
 66
     7
 43
1.0
 76
     1
 77
     6
 78
     2
 67
     7
 79
     5
170
     0
171
     0
290
     0
174
     0
 93
        1
 44
50.0
173
     0
291
     1
 45
0.0
1001
ACAD
1000
AcDbSavedByObjectVersion
1070
     0
  0
VISUALSTYLE
  5
53E1
102
{ACAD_XDICTIONARY
360
5449
102
}
102
{ACAD_REACTORS
330
53D1
102
}
330
53D1
100
AcDbVisualStyle
  2
ColorChange
 70
    16
 71
     2
 72
     2
 73
     3
 90
        0
 40
-0.6
 41
-30.0
 62
     5
 63
     8
 74
     1
 91
        4
 64
     7
 65
   257
 75
     1
175
     1
 42
1.0
 92
        8
 66
     8
 43
1.0
 76
     1
 77
     6
 78
     2
 67
     7
 79
     5
170
     0
171
     0
290
     0
174
     0
 93
        1
 44
0.0
173
     0
291
     1
 45
0.0
1001
ACAD
1000
AcDbSavedByObjectVersion
1070
     0
  0
VISUALSTYLE
  5
53DA
102
{ACAD_XDICTIONARY
360
543B
102
}
102
{ACAD_REACTORS
330
53D1
102
}
330
53D1
100
AcDbVisualStyle
  2
Conceptual
 70
     9
 71
     3
 72
     2
 73
     0
 90
        0
 40
-0.6
 41
-30.0
 62
     5
 63
     7
 74
     2
 91
        2
 64
     7
 65
   257
 75
     1
175
     1
 42
179.0
 92
        8
 66
     7
 43
1.0
 76
     1
 77
     6
 78
     2
 67
     7
 79
     3
170
     0
171
     0
290
     0
174
     0
 93
        1
 44
0.0
173
     0
291
     0
 45
0.0
1001
ACAD
1000
AcDbSavedByObjectVersion
1070
     0
  0
VISUALSTYLE
  5
53DC
102
{ACAD_XDICTIONARY
360
543F
102
}
102
{ACAD_REACTORS
330
53D1
102
}
330
53D1
100
AcDbVisualStyle
  2
Dim
 70
    11
 71
     2
 72
     2
 73
     0
 90
        0
 40
-0.6
 41
-30.0
 62
     5
 63
     7
 74
     1
 91
        4
 64
     7
 65
   257
 75
     1
175
     1
 42
1.0
 92
        8
 66
     7
 43
1.0
 76
     1
 77
     6
 78
     2
 67
     7
 79
     5
170
     0
171
     0
290
     0
174
     0
 93
        1
 44
-50.0
173
     0
291
     1
 45
0.0
1001
ACAD
1000
AcDbSavedByObjectVersion
1070
     0
  0
VISUALSTYLE
  5
53E9
102
{ACAD_XDICTIONARY
360
5459
102
}
102
{ACAD_REACTORS
330
53D1
102
}
330
53D1
100
AcDbVisualStyle
  2
EdgeColorOff
 70
    22
 71
     2
 72
     2
 73
     0
 90
        0
 40
-0.6
 41
-30.0
 62
     5
 63
     7
 74
     1
 91
        4
 64
     7
 65
   257
 75
     1
175
     1
 42
1.0
 92
        8
 66
     7
 43
1.0
 76
     1
 77
     6
 78
     2
 67
     7
 79
     5
170
     0
171
     0
290
     0
174
     0
 93
        1
 44
0.0
173
     0
291
     1
 45
0.0
1001
ACAD
1000
AcDbSavedByObjectVersion
1070
     0
  0
VISUALSTYLE
  5
53E0
102
{ACAD_XDICTIONARY
360
5447
102
}
102
{ACAD_REACTORS
330
53D1
102
}
330
53D1
100
AcDbVisualStyle
  2
Facepattern
 70
    15
 71
     2
 72
     2
 73
     0
 90
        0
 40
-0.6
 41
-30.0
 62
     5
 63
     7
 74
     1
 91
        4
 64
     7
 65
   257
 75
     1
175
     1
 42
1.0
 92
        8
 66
     7
 43
1.0
 76
     1
 77
     6
 78
     2
 67
     7
 79
     5
170
     0
171
     0
290
     0
174
     0
 93
        1
 44
0.0
173
     0
291
     1
 45
0.0
1001
ACAD
1000
AcDbSavedByObjectVersion
1070
     0
  0
VISUALSTYLE
  5
53D2
102
{ACAD_XDICTIONARY
360
542B
102
}
102
{ACAD_REACTORS
330
53D1
102
}
330
53D1
100
AcDbVisualStyle
  2
Flat
 70
     0
 71
     2
 72
     1
 73
     1
 90
        2
 40
-0.6
 41
30.0
 62
     5
 63
     7
 74
     0
 91
        0
 64
     7
 65
   257
 75
     1
175
     1
 42
1.0
 92
        8
 66
     7
 43
1.0
 76
     1
 77
     6
 78
     2
 67
     7
 79
     5
170
     0
171
     0
290
     0
174
     0
 93
       13
 44
0.0
173
     0
291
     1
 45
0.0
1001
ACAD
1000
AcDbSavedByObjectVersion
1070
     0
  0
VISUALSTYLE
  5
53D3
102
{ACAD_XDICTIONARY
360
542D
102
}
102
{ACAD_REACTORS
330
53D1
102
}
330
53D1
100
AcDbVisualStyle
  2
FlatWithEdges
 70
     1
 71
     2
 72
     1
 73
     1
 90
        2
 40
-0.6
 41
30.0
 62
     5
 63
     7
 74
     1
 91
        0
 64
     7
 65
   257
 75
     1
175
     1
 42
1.0
 92
        0
 66
   257
 43
1.0
 76
     1
 77
     6
 78
     2
 67
     7
 79
     5
170
     0
171
     0
290
     0
174
     0
 93
       13
 44
0.0
173
     0
291
     1
 45
0.0
1001
ACAD
1000
AcDbSavedByObjectVersion
1070
     0
  0
VISUALSTYLE
  5
53D4
102
{ACAD_XDICTIONARY
360
542F
102
}
102
{ACAD_REACTORS
330
53D1
102
}
330
53D1
100
AcDbVisualStyle
  2
Gouraud
 70
     2
 71
     2
 72
     2
 73
     1
 90
        2
 40
-0.6
 41
30.0
 62
     5
 63
     7
 74
     0
 91
        0
 64
     7
 65
   257
 75
     1
175
     1
 42
1.0
 92
        0
 66
     7
 43
1.0
 76
     1
 77
     6
 78
     2
 67
     7
 79
     5
170
     0
171
     0
290
     0
174
     0
 93
       13
 44
0.0
173
     0
291
     1
 45
0.0
1001
ACAD
1000
AcDbSavedByObjectVersion
1070
     0
  0
VISUALSTYLE
  5
53D5
102
{ACAD_XDICTIONARY
360
5431
102
}
102
{ACAD_REACTORS
330
53D1
102
}
330
53D1
100
AcDbVisualStyle
  2
GouraudWithEdges
 70
     3
 71
     2
 72
     2
 73
     1
 90
        2
 40
-0.6
 41
30.0
 62
     5
 63
     7
 74
     1
 91
        0
 64
     7
 65
   257
 75
     1
175
     1
 42
1.0
 92
        0
 66
   257
 43
1.0
 76
     1
 77
     6
 78
     2
 67
     7
 79
     5
170
     0
171
     0
290
     0
174
     0
 93
       13
 44
0.0
173
     0
291
     1
 45
0.0
1001
ACAD
1000
AcDbSavedByObjectVersion
1070
     0
  0
VISUALSTYLE
  5
53D9
102
{ACAD_XDICTIONARY
360
5439
102
}
102
{ACAD_REACTORS
330
53D1
102
}
330
53D1
100
AcDbVisualStyle
  2
Hidden
 70
     6
 71
     1
 72
     2
 73
     2
 90
        0
 40
-0.6
 41
-30.0
 62
     5
 63
     7
 74
     2
 91
        2
 64
     7
 65
   257
 75
     2
175
     1
 42
40.0
 92
        0
 66
   257
 43
1.0
 76
     1
 77
     6
 78
     2
 67
     7
 79
     3
170
     0
171
     0
290
     0
174
     0
 93
        1
 44
0.0
173
     0
291
     0
 45
0.0
1001
ACAD
1000
AcDbSavedByObjectVersion
1070
     0
  0
VISUALSTYLE
  5
53E7
102
{ACAD_XDICTIONARY
360
5455
102
}
102
{ACAD_REACTORS
330
53D1
102
}
330
53D1
100
AcDbVisualStyle
  2
JitterOff
 70
    20
 71
     2
 72
     2
 73
     0
 90
        0
 40
-0.6
 41
-30.0
 62
     5
 63
     7
 74
     1
 91
        4
 64
     7
 65
   257
 75
     1
175
     1
 42
1.0
 92
       10
 66
     7
 43
1.0
 76
     1
 77
     6
 78
     2
 67
     7
 79
     5
170
     0
171
     0
290
     0
174
     0
 93
        1
 44
0.0
173
     0
291
     1
 45
0.0
1001
ACAD
1000
AcDbSavedByObjectVersion
1070
     0
  0
VISUALSTYLE
  5
53DF
102
{ACAD_XDICTIONARY
360
5445
102
}
102
{ACAD_REACTORS
330
53D1
102
}
330
53D1
100
AcDbVisualStyle
  2
Linepattern
 70
    14
 71
     2
 72
     2
 73
     0
 90
        0
 40
-0.6
 41
-30.0
 62
     5
 63
     7
 74
     1
 91
        4
 64
     7
 65
   257
 75
     7
175
     7
 42
1.0
 92
        8
 66
     7
 43
1.0
 76
     1
 77
     6
 78
     2
 67
     7
 79
     5
170
     0
171
     0
290
     0
174
     0
 93
        1
 44
0.0
173
     0
291
     1
 45
0.0
1001
ACAD
1000
AcDbSavedByObjectVersion
1070
     0
  0
VISUALSTYLE
  5
53E8
102
{ACAD_XDICTIONARY
360
5457
102
}
102
{ACAD_REACTORS
330
53D1
102
}
330
53D1
100
AcDbVisualStyle
  2
OverhangOff
 70
    21
 71
     2
 72
     2
 73
     0
 90
        0
 40
-0.6
 41
-30.0
 62
     5
 63
     7
 74
     1
 91
        4
 64
     7
 65
   257
 75
     1
175
     1
 42
1.0
 92
        9
 66
     7
 43
1.0
 76
     1
 77
     6
 78
     2
 67
     7
 79
     5
170
     0
171
     0
290
     0
174
     0
 93
        1
 44
0.0
173
     0
291
     1
 45
0.0
1001
ACAD
1000
AcDbSavedByObjectVersion
1070
     0
  0
VISUALSTYLE
  5
53DB
102
{ACAD_XDICTIONARY
360
543D
102
}
102
{ACAD_REACTORS
330
53D1
102
}
330
53D1
100
AcDbVisualStyle
  2
Realistic
 70
     8
 71
     2
 72
     3
 73
     0
 90
        2
 40
-0.6
 41
30.0
 62
     5
 63
     7
 74
     0
 91
        0
 64
     7
 65
   257
 75
     1
175
     1
 42
1.0
 92
        8
 66
   257
 43
1.0
 76
     1
 77
     6
 78
     2
 67
     7
 79
     3
170
     0
171
     0
290
     0
174
     0
 93
       13
 44
0.0
173
     0
291
     0
 45
0.0
1001
ACAD
1000
AcDbSavedByObjectVersion
1070
     0
  0
VISUALSTYLE
  5
53E6
102
{ACAD_XDICTIONARY
360
5453
102
}
102
{ACAD_REACTORS
330
53D1
102
}
330
53D1
100
AcDbVisualStyle
  2
Shaded
 70
    27
 71
     2
 72
     2
 73
     1
 90
        2
 40
-0.6
 41
30.0
 62
     5
 63
     7
 74
     0
 91
        4
 64
     7
 65
   257
 75
     1
175
     1
 42
1.0
 92
        8
 66
   257
 43
1.0
 76
     1
 77
     6
 78
     2
 67
     8
 79
     3
170
     0
171
     0
290
     0
174
     0
 93
        5
 44
0.0
173
     0
291
     0
 45
0.0
1001
ACAD
1000
AcDbSavedByObjectVersion
1070
     0
  0
VISUALSTYLE
  5
53E5
102
{ACAD_XDICTIONARY
360
5451
102
}
102
{ACAD_REACTORS
330
53D1
102
}
330
53D1
100
AcDbVisualStyle
  2
Shaded with edges
 70
    26
 71
     2
 72
     2
 73
     1
 90
        2
 40
-0.6
 41
30.0
 62
     5
 63
     7
 74
     1
 91
       10
 64
     7
 65
   257
 75
     2
175
     1
 42
1.0
 92
        8
 66
   257
 43
1.0
 76
     1
 77
     6
 78
     2
 67
     7
 79
     3
170
     0
171
     0
290
     0
174
     0
 93
        5
 44
0.0
173
     0
291
     0
 45
0.0
1001
ACAD
1000
AcDbSavedByObjectVersion
1070
     0
  0
VISUALSTYLE
  5
53E2
102
{ACAD_XDICTIONARY
360
544B
102
}
102
{ACAD_REACTORS
330
53D1
102
}
330
53D1
100
AcDbVisualStyle
  2
Shades of Gray
 70
    23
 71
     2
 72
     2
 73
     3
 90
        0
 40
-0.6
 41
-30.0
 62
     5
 63
     7
 74
     2
 91
        2
 64
     7
 65
     7
 75
     1
175
     1
 42
40.0
 92
        8
 66
     7
 43
1.0
 76
     1
 77
     6
 78
     2
 67
     7
 79
     3
170
     0
171
     0
290
     0
174
     0
 93
        1
 44
0.0
173
     0
291
     0
 45
0.0
1001
ACAD
1000
AcDbSavedByObjectVersion
1070
     0
  0
VISUALSTYLE
  5
53E3
102
{ACAD_XDICTIONARY
360
544D
102
}
102
{ACAD_REACTORS
330
53D1
102
}
330
53D1
100
AcDbVisualStyle
  2
Sketchy
 70
    24
 71
     1
 72
     2
 73
     2
 90
        0
 40
-0.6
 41
-30.0
 62
     5
 63
     7
 74
     2
 91
        2
 64
     7
 65
     7
 75
     1
175
     1
 42
40.0
 92
       11
 66
     7
 43
1.0
 76
     1
 77
     6
 78
     2
 67
     7
 79
     6
170
     0
171
     0
290
     0
174
     0
 93
        1
 44
0.0
173
     0
291
     0
 45
0.0
1001
ACAD
1000
AcDbSavedByObjectVersion
1070
     0
  0
VISUALSTYLE
  5
53DE
102
{ACAD_XDICTIONARY
360
5443
102
}
102
{ACAD_REACTORS
330
53D1
102
}
330
53D1
100
AcDbVisualStyle
  2
Thicken
 70
    13
 71
     2
 72
     2
 73
     0
 90
        0
 40
-0.6
 41
-30.0
 62
     5
 63
     7
 74
     1
 91
        4
 64
     7
 65
   257
 75
     1
175
     1
 42
1.0
 92
       12
 66
     7
 43
1.0
 76
     1
 77
     6
 78
     2
 67
     7
 79
     5
170
     0
171
     0
290
     0
174
     0
 93
        1
 44
0.0
173
     0
291
     1
 45
0.0
1001
ACAD
1000
AcDbSavedByObjectVersion
1070
     0
  0
VISUALSTYLE
  5
53D8
102
{ACAD_XDICTIONARY
360
5437
102
}
102
{ACAD_REACTORS
330
53D1
102
}
330
53D1
100
AcDbVisualStyle
  2
Wireframe
 70
     5
 71
     0
 72
     2
 73
     0
 90
        0
 40
-0.6
 41
-30.0
 62
     5
 63
     7
 74
     1
 91
        4
 64
     7
 65
   257
 75
     1
175
     1
 42
1.0
 92
        0
 66
   257
 43
1.0
 76
     1
 77
     6
 78
     2
 67
     7
 79
     3
170
     0
171
     0
290
     0
174
     0
 93
        1
 44
0.0
173
     0
291
     0
 45
0.0
1001
ACAD
1000
AcDbSavedByObjectVersion
1070
     0
  0
VISUALSTYLE
  5
53E4
102
{ACAD_XDICTIONARY
360
544F
102
}
102
{ACAD_REACTORS
330
53D1
102
}
330
53D1
100
AcDbVisualStyle
  2
X-Ray
 70
    25
 71
     2
 72
     2
 73
     1
 90
        1
 40
0.5
 41
-30.0
 62
     5
 63
     7
 74
     1
 91
        0
 64
     7
 65
   257
 75
     1
175
     1
 42
1.0
 92
        8
 66
     7
 43
1.0
 76
     1
 77
     6
 78
     2
 67
     7
 79
     3
170
     0
171
     0
290
     0
174
     0
 93
       13
 44
0.0
173
     0
291
     0
 45
0.0
1001
ACAD
1000
AcDbSavedByObjectVersion
1070
     0
  0
DICTIONARYVAR
  5
541E
102
{ACAD_REACTORS
330
5419
102
}
330
5419
100
DictionaryVariables
280
     0
  1
1:1
  0
DICTIONARYVAR
  5
541B
102
{ACAD_REACTORS
330
5419
102
}
330
5419
100
DictionaryVariables
280
     0
  1
STANDARD
  0
DICTIONARYVAR
  5
541A
102
{ACAD_REACTORS
330
5419
102
}
330
5419
100
DictionaryVariables
280
     0
  1
STANDARD
  0
DICTIONARYVAR
  5
541C
102
{ACAD_REACTORS
330
5419
102
}
330
5419
100
DictionaryVariables
280
     0
  1
Imperial24
  0
DICTIONARYVAR
  5
541D
102
{ACAD_REACTORS
330
5419
102
}
330
5419
100
DictionaryVariables
280
     0
  1
Imperial24
  0
DICTIONARYVAR
  5
5421
102
{ACAD_REACTORS
330
5419
102
}
330
5419
100
DictionaryVariables
280
     0
  1
1
  0
DICTIONARYVAR
  5
5420
102
{ACAD_REACTORS
330
5419
102
}
330
5419
100
DictionaryVariables
280
     0
  1
0
  0
DICTIONARYVAR
  5
541F
102
{ACAD_REACTORS
330
5419
102
}
330
5419
100
DictionaryVariables
280
     0
  1
127
  0
DICTIONARYVAR
  5
5422
102
{ACAD_REACTORS
330
5419
102
}
330
5419
100
DictionaryVariables
280
     0
  1
2
  0
DICTIONARY
  5
545F
330
5404
100
AcDbDictionary
280
     1
281
     1
  3
ACAD_XREC_ROUNDTRIP
360
5460
  0
DICTIONARY
  5
5461
330
5405
100
AcDbDictionary
280
     1
281
     1
  3
ACAD_XREC_ROUNDTRIP
360
5462
  0
DICTIONARY
  5
5463
330
5406
100
AcDbDictionary
280
     1
281
     1
  3
ACAD_XREC_ROUNDTRIP
360
5464
  0
DICTIONARY
  5
53C2
330
53C1
100
AcDbDictionary
280
     1
281
     1
  3
ACAD_XREC_ROUNDTRIP
360
5429
  3
BUMPTILE
360
53C4
  3
DIFFUSETILE
360
53C3
  3
OPACITYTILE
360
53C7
  3
REFLECTIONTILE
360
53C6
  3
REFRACTIONTILE
360
53C8
  3
SPECULARTILE
360
53C5
  0
DICTIONARY
  5
53BA
330
53B9
100
AcDbDictionary
280
     1
281
     1
  3
ACAD_XREC_ROUNDTRIP
360
5428
  3
BUMPTILE
360
53BC
  3
DIFFUSETILE
360
53BB
  3
OPACITYTILE
360
53BF
  3
REFLECTIONTILE
360
53BE
  3
REFRACTIONTILE
360
53C0
  3
SPECULARTILE
360
53BD
  0
DICTIONARY
  5
53CA
330
53C9
100
AcDbDictionary
280
     1
281
     1
  3
ACAD_XREC_ROUNDTRIP
360
542A
  3
BUMPTILE
360
53CC
  3
DIFFUSETILE
360
53CB
  3
OPACITYTILE
360
53CF
  3
REFLECTIONTILE
360
53CE
  3
REFRACTIONTILE
360
53D0
  3
SPECULARTILE
360
53CD
  0
DICTIONARY
  5
545D
330
5402
100
AcDbDictionary
280
     1
281
     1
  3
ACAD_XREC_ROUNDTRIP
360
545E
  0
DICTIONARY
  5
5424
330
53EC
100
AcDbDictionary
280
     1
281
     1
  3
ACAD_ROUNDTRIP_2008_TABLESTYLE_CELLSTYLEMAP
360
5425
  3
ACAD_XREC_ROUNDTRIP
360
545B
  0
DICTIONARY
  5
5435
330
53D7
100
AcDbDictionary
280
     1
281
     1
  3
ACAD_XREC_ROUNDTRIP
360
5436
  0
DICTIONARY
  5
5433
330
53D6
100
AcDbDictionary
280
     1
281
     1
  3
ACAD_XREC_ROUNDTRIP
360
5434
  0
DICTIONARY
  5
5441
330
53DD
100
AcDbDictionary
280
     1
281
     1
  3
ACAD_XREC_ROUNDTRIP
360
5442
  0
DICTIONARY
  5
5449
330
53E1
100
AcDbDictionary
280
     1
281
     1
  3
ACAD_XREC_ROUNDTRIP
360
544A
  0
DICTIONARY
  5
543B
330
53DA
100
AcDbDictionary
280
     1
281
     1
  3
ACAD_XREC_ROUNDTRIP
360
543C
  0
DICTIONARY
  5
543F
330
53DC
100
AcDbDictionary
280
     1
281
     1
  3
ACAD_XREC_ROUNDTRIP
360
5440
  0
DICTIONARY
  5
5459
330
53E9
100
AcDbDictionary
280
     1
281
     1
  3
ACAD_XREC_ROUNDTRIP
360
545A
  0
DICTIONARY
  5
5447
330
53E0
100
AcDbDictionary
280
     1
281
     1
  3
ACAD_XREC_ROUNDTRIP
360
5448
  0
DICTIONARY
  5
542B
330
53D2
100
AcDbDictionary
280
     1
281
     1
  3
ACAD_XREC_ROUNDTRIP
360
542C
  0
DICTIONARY
  5
542D
330
53D3
100
AcDbDictionary
280
     1
281
     1
  3
ACAD_XREC_ROUNDTRIP
360
542E
  0
DICTIONARY
  5
542F
330
53D4
100
AcDbDictionary
280
     1
281
     1
  3
ACAD_XREC_ROUNDTRIP
360
5430
  0
DICTIONARY
  5
5431
330
53D5
100
AcDbDictionary
280
     1
281
     1
  3
ACAD_XREC_ROUNDTRIP
360
5432
  0
DICTIONARY
  5
5439
330
53D9
100
AcDbDictionary
280
     1
281
     1
  3
ACAD_XREC_ROUNDTRIP
360
543A
  0
DICTIONARY
  5
5455
330
53E7
100
AcDbDictionary
280
     1
281
     1
  3
ACAD_XREC_ROUNDTRIP
360
5456
  0
DICTIONARY
  5
5445
330
53DF
100
AcDbDictionary
280
     1
281
     1
  3
ACAD_XREC_ROUNDTRIP
360
5446
  0
DICTIONARY
  5
5457
330
53E8
100
AcDbDictionary
280
     1
281
     1
  3
ACAD_XREC_ROUNDTRIP
360
5458
  0
DICTIONARY
  5
543D
330
53DB
100
AcDbDictionary
280
     1
281
     1
  3
ACAD_XREC_ROUNDTRIP
360
543E
  0
DICTIONARY
  5
5453
330
53E6
100
AcDbDictionary
280
     1
281
     1
  3
ACAD_XREC_ROUNDTRIP
360
5454
  0
DICTIONARY
  5
5451
330
53E5
100
AcDbDictionary
280
     1
281
     1
  3
ACAD_XREC_ROUNDTRIP
360
5452
  0
DICTIONARY
  5
544B
330
53E2
100
AcDbDictionary
280
     1
281
     1
  3
ACAD_XREC_ROUNDTRIP
360
544C
  0
DICTIONARY
  5
544D
330
53E3
100
AcDbDictionary
280
     1
281
     1
  3
ACAD_XREC_ROUNDTRIP
360
544E
  0
DICTIONARY
  5
5443
330
53DE
100
AcDbDictionary
280
     1
281
     1
  3
ACAD_XREC_ROUNDTRIP
360
5444
  0
DICTIONARY
  5
5437
330
53D8
100
AcDbDictionary
280
     1
281
     1
  3
ACAD_XREC_ROUNDTRIP
360
5438
  0
DICTIONARY
  5
544F
330
53E4
100
AcDbDictionary
280
     1
281
     1
  3
ACAD_XREC_ROUNDTRIP
360
5450
  0
XRECORD
  5
5460
102
{ACAD_REACTORS
330
545F
102
}
330
545F
100
AcDbXrecord
280
     1
102
DISPLAYNAME
  1
Imperial24
102
FLAGS
 90
        0
  0
XRECORD
  5
5462
102
{ACAD_REACTORS
330
5461
102
}
330
5461
100
AcDbXrecord
280
     1
102
SHADEPLOT
 70
     0
102
SHADEPLOTRESLEVEL
 70
     2
102
SHADEPLOTCUSTOMDPI
 70
   300
  0
XRECORD
  5
5464
102
{ACAD_REACTORS
330
5463
102
}
330
5463
100
AcDbXrecord
280
     1
102
SHADEPLOT
 70
     0
102
SHADEPLOTRESLEVEL
 70
     2
102
SHADEPLOTCUSTOMDPI
 70
   300
  0
XRECORD
  5
5429
102
{ACAD_REACTORS
330
53C2
102
}
330
53C2
100
AcDbXrecord
280
     1
102
MATERIAL
148
0.0
149
0.0
149
0.0
 93
        0
 94
      127
282
     0
 72
     0
 77
     0
171
     0
175
     0
179
     0
273
     0
  0
XRECORD
  5
53C4
102
{ACAD_REACTORS
330
53C2
102
}
330
53C2
100
AcDbXrecord
280
     1
270
     1
271
     1
  0
XRECORD
  5
53C3
102
{ACAD_REACTORS
330
53C2
102
}
330
53C2
100
AcDbXrecord
280
     1
270
     1
271
     1
  0
XRECORD
  5
53C7
102
{ACAD_REACTORS
330
53C2
102
}
330
53C2
100
AcDbXrecord
280
     1
270
     1
271
     1
  0
XRECORD
  5
53C6
102
{ACAD_REACTORS
330
53C2
102
}
330
53C2
100
AcDbXrecord
280
     1
270
     1
271
     1
  0
XRECORD
  5
53C8
102
{ACAD_REACTORS
330
53C2
102
}
330
53C2
100
AcDbXrecord
280
     1
270
     1
271
     1
  0
XRECORD
  5
53C5
102
{ACAD_REACTORS
330
53C2
102
}
330
53C2
100
AcDbXrecord
280
     1
270
     1
271
     1
  0
XRECORD
  5
5428
102
{ACAD_REACTORS
330
53BA
102
}
330
53BA
100
AcDbXrecord
280
     1
102
MATERIAL
148
0.0
149
0.0
149
0.0
 93
        0
 94
      127
282
     0
 72
     0
 77
     0
171
     0
175
     0
179
     0
273
     0
  0
XRECORD
  5
53BC
102
{ACAD_REACTORS
330
53BA
102
}
330
53BA
100
AcDbXrecord
280
     1
270
     1
271
     1
  0
XRECORD
  5
53BB
102
{ACAD_REACTORS
330
53BA
102
}
330
53BA
100
AcDbXrecord
280
     1
270
     1
271
     1
  0
XRECORD
  5
53BF
102
{ACAD_REACTORS
330
53BA
102
}
330
53BA
100
AcDbXrecord
280
     1
270
     1
271
     1
  0
XRECORD
  5
53BE
102
{ACAD_REACTORS
330
53BA
102
}
330
53BA
100
AcDbXrecord
280
     1
270
     1
271
     1
  0
XRECORD
  5
53C0
102
{ACAD_REACTORS
330
53BA
102
}
330
53BA
100
AcDbXrecord
280
     1
270
     1
271
     1
  0
XRECORD
  5
53BD
102
{ACAD_REACTORS
330
53BA
102
}
330
53BA
100
AcDbXrecord
280
     1
270
     1
271
     1
  0
XRECORD
  5
542A
102
{ACAD_REACTORS
330
53CA
102
}
330
53CA
100
AcDbXrecord
280
     1
102
MATERIAL
148
0.0
149
0.0
149
0.0
 93
        0
 94
      127
282
     0
 72
     0
 77
     0
171
     0
175
     0
179
     0
273
     0
  0
XRECORD
  5
53CC
102
{ACAD_REACTORS
330
53CA
102
}
330
53CA
100
AcDbXrecord
280
     1
270
     1
271
     1
  0
XRECORD
  5
53CB
102
{ACAD_REACTORS
330
53CA
102
}
330
53CA
100
AcDbXrecord
280
     1
270
     1
271
     1
  0
XRECORD
  5
53CF
102
{ACAD_REACTORS
330
53CA
102
}
330
53CA
100
AcDbXrecord
280
     1
270
     1
271
     1
  0
XRECORD
  5
53CE
102
{ACAD_REACTORS
330
53CA
102
}
330
53CA
100
AcDbXrecord
280
     1
270
     1
271
     1
  0
XRECORD
  5
53D0
102
{ACAD_REACTORS
330
53CA
102
}
330
53CA
100
AcDbXrecord
280
     1
270
     1
271
     1
  0
XRECORD
  5
53CD
102
{ACAD_REACTORS
330
53CA
102
}
330
53CA
100
AcDbXrecord
280
     1
270
     1
271
     1
  0
XRECORD
  5
545E
102
{ACAD_REACTORS
330
545D
102
}
330
545D
100
AcDbXrecord
280
     1
102
DISPLAYNAME
  1
Imperial24
102
FLAGS
 90
        0
  0
CELLSTYLEMAP
  5
5425
102
{ACAD_REACTORS
330
5424
102
}
330
5424
100
AcDbCellStyleMap
 90
        3
300
CELLSTYLE
  1
TABLEFORMAT_BEGIN
 90
        5
170
     1
 91
        0
 92
    32768
 62
   257
 93
        1
300
CONTENTFORMAT
  1
CONTENTFORMAT_BEGIN
 90
        0
 91
        0
 92
      512
 93
        0
300

 40
0.0
140
1.0
 94
        5
 62
     0
340
4ECD
144
0.25
309
CONTENTFORMAT_END
171
     0
 94
        0
309
TABLEFORMAT_END
  1
CELLSTYLE_BEGIN
 90
        1
 91
        1
300
_TITLE
309
CELLSTYLE_END
300
CELLSTYLE
  1
TABLEFORMAT_BEGIN
 90
        5
170
     1
 91
        0
 92
        0
 62
   257
 93
        1
300
CONTENTFORMAT
  1
CONTENTFORMAT_BEGIN
 90
        0
 91
        0
 92
      512
 93
        0
300

 40
0.0
140
1.0
 94
        5
 62
     0
340
4ECD
144
0.18
309
CONTENTFORMAT_END
171
     0
 94
        0
309
TABLEFORMAT_END
  1
CELLSTYLE_BEGIN
 90
        2
 91
        1
300
_HEADER
309
CELLSTYLE_END
300
CELLSTYLE
  1
TABLEFORMAT_BEGIN
 90
        5
170
     1
 91
        0
 92
        0
 62
   257
 93
        1
300
CONTENTFORMAT
  1
CONTENTFORMAT_BEGIN
 90
        0
 91
        0
 92
      512
 93
        0
300

 40
0.0
140
1.0
 94
        2
 62
     0
340
4ECD
144
0.18
309
CONTENTFORMAT_END
171
     0
 94
        0
309
TABLEFORMAT_END
  1
CELLSTYLE_BEGIN
 90
        3
 91
        2
300
_DATA
309
CELLSTYLE_END
  0
XRECORD
  5
545B
102
{ACAD_REACTORS
330
5424
102
}
330
5424
100
AcDbXrecord
280
     1
102
ACAD_ROUNDTRIP_PRE2007_TABLESTYLE
 90
      512
 91
        0
  1

 92
      512
 93
        0
  2

 94
      512
 95
        0
  3

  0
XRECORD
  5
5436
102
{ACAD_REACTORS
330
5435
102
}
330
5435
100
AcDbXrecord
280
     1
102
RTVSPost2010Prop28
280
     1
102
RTVSPost2010PropOp28
 70
     1
102
RTVSPost2010Prop29
280
     1
102
RTVSPost2010PropOp29
 70
     1
102
RTVSPost2010Prop30
280
     0
102
RTVSPost2010PropOp30
 70
     1
102
RTVSPost2010Prop31
280
     0
102
RTVSPost2010PropOp31
 70
     1
102
RTVSPost2010Prop32
280
     0
102
RTVSPost2010PropOp32
 70
     1
102
RTVSPost2010Prop33
280
     0
102
RTVSPost2010PropOp33
 70
     1
102
RTVSPost2010Prop34
280
     0
102
RTVSPost2010PropOp34
 70
     1
102
RTVSPost2010Prop35
280
     0
102
RTVSPost2010PropOp35
 70
     1
102
RTVSPost2010Prop36
280
     0
102
RTVSPost2010PropOp36
 70
     1
102
RTVSPost2010Prop37
 90
       50
102
RTVSPost2010PropOp37
 70
     1
102
RTVSPost2010Prop38
140
0.0
102
RTVSPost2010PropOp38
 70
     1
102
RTVSPost2010Prop39
140
1.0
102
RTVSPost2010PropOp39
 70
     1
102
RTVSPost2010Prop40
 90
        0
102
RTVSPost2010PropOp40
 70
     1
102
RTVSPost2010Prop41ColorIndex
 90
       18
102
RTVSPost2010Prop41ColorRGB
 90
        0
102
RTVSPost2010PropOp41
 70
     1
102
RTVSPost2010Prop42
 90
       50
102
RTVSPost2010PropOp42
 70
     1
102
RTVSPost2010Prop43
 90
        3
102
RTVSPost2010PropOp43
 70
     1
102
RTVSPost2010Prop44ColorIndex
 90
        5
102
RTVSPost2010Prop44ColorRGB
 90
      255
102
RTVSPost2010PropOp44
 70
     1
102
RTVSPost2010Prop45
280
     0
102
RTVSPost2010PropOp45
 70
     1
102
RTVSPost2010Prop46
 90
       50
102
RTVSPost2010PropOp46
 70
     1
102
RTVSPost2010Prop47
 90
       50
102
RTVSPost2010PropOp47
 70
     1
102
RTVSPost2010Prop48
 90
       50
102
RTVSPost2010PropOp48
 70
     1
102
RTVSPost2010Prop49
280
     0
102
RTVSPost2010PropOp49
 70
     1
102
RTVSPost2010Prop50
 90
       50
102
RTVSPost2010PropOp50
 70
     1
102
RTVSPost2010Prop51ColorIndex
 90
      256
102
RTVSPost2010Prop51ColorRGB
 90
-16777216
102
RTVSPost2010PropOp51
 70
     0
102
RTVSPost2010Prop52
140
1.0
102
RTVSPost2010PropOp52
 70
     0
102
RTVSPost2010Prop53
 90
        2
102
RTVSPost2010PropOp53
 70
     1
102
RTVSPost2010Prop54
  1
strokes_ogs.tif
102
RTVSPost2010PropOp54
 70
     1
102
RTVSPost2010Prop55
280
     0
102
RTVSPost2010PropOp55
 70
     1
102
RTVSPost2010Prop56
140
1.0
102
RTVSPost2010PropOp56
 70
     1
102
RTVSPost2010Prop57
140
1.0
102
RTVSPost2010PropOp57
 70
     1
102
RTVSPropertyOp0
 70
     1
102
RTVSPropertyOp1
 70
     1
102
RTVSPropertyOp2
 70
     1
102
RTVSPropertyOp3
 70
     1
102
RTVSPropertyOp4
 70
     1
102
RTVSPropertyOp5
 70
     1
102
RTVSPropertyOp6
 70
     1
102
RTVSPropertyOp7
 70
     1
102
RTVSPropertyOp8
 70
     1
102
RTVSPropertyOp9
 70
     1
102
RTVSPropertyOp10
 70
     1
102
RTVSPropertyOp11
 70
     1
102
RTVSPropertyOp12
 70
     1
102
RTVSPropertyOp13
 70
     1
102
RTVSPropertyOp14
 70
     1
102
RTVSPropertyOp15
 70
     1
102
RTVSPropertyOp16
 70
     1
102
RTVSPropertyOp17
 70
     1
102
RTVSPropertyOp18
 70
     1
102
RTVSPropertyOp19
 70
     1
102
RTVSPropertyOp20
 70
     1
102
RTVSPropertyOp21
 70
     1
102
RTVSPropertyOp22
 70
     1
102
RTVSPropertyOp23
 70
     1
102
RTVSPropertyOp24
 70
     1
102
RTVSPropertyOp25
 70
     1
102
RTVSPropertyOp26
 70
     1
102
RTVSPropertyOp27
 70
     1
102
RTVSPropertyOp28
 70
     1
102
RTVSPropertyOp29
 70
     1
102
RTVSPropertyOp30
 70
     1
102
RTVSPropertyOp31
 70
     1
102
RTVSPropertyOp32
 70
     1
102
RTVSPropertyOp33
 70
     1
102
RTVSPropertyOp34
 70
     1
102
RTVSPropertyOp35
 70
     1
102
RTVSPropertyOp36
 70
     1
102
RTVSPropertyOp37
 70
     1
102
RTVSPropertyOp38
 70
     1
102
RTVSPropertyOp39
 70
     1
102
RTVSPropertyOp40
 70
     1
102
RTVSPropertyOp41
 70
     1
102
RTVSPropertyOp42
 70
     1
102
RTVSPropertyOp43
 70
     1
102
RTVSPropertyOp44
 70
     1
102
RTVSPropertyOp45
 70
     1
102
RTVSPropertyOp46
 70
     1
102
RTVSPropertyOp47
 70
     1
102
RTVSPropertyOp48
 70
     1
102
RTVSPropertyOp49
 70
     1
102
RTVSPropertyOp50
 70
     1
102
RTVSPropertyOp51
 70
     0
102
RTVSPropertyOp52
 70
     0
102
RTVSPropertyOp53
 70
     1
102
RTVSPropertyOp54
 70
     1
102
RTVSPropertyOp55
 70
     1
102
RTVSPropertyOp56
 70
     1
102
RTVSPropertyOp57
 70
     1
102
RTVSPropertyOp58
 70
     1
102
RTVSPropertyOp59
 70
     1
102
RTVSPropertyOp60
 70
     1
102
RTVSPropertyOp61
 70
     1
102
RTVSPropertyOp62
 70
     1
  0
XRECORD
  5
5434
102
{ACAD_REACTORS
330
5433
102
}
330
5433
100
AcDbXrecord
280
     1
102
RTVSPost2010Prop28
280
     0
102
RTVSPost2010PropOp28
 70
     1
102
RTVSPost2010Prop29
280
     1
102
RTVSPost2010PropOp29
 70
     1
102
RTVSPost2010Prop30
280
     1
102
RTVSPost2010PropOp30
 70
     1
102
RTVSPost2010Prop31
280
     0
102
RTVSPost2010PropOp31
 70
     1
102
RTVSPost2010Prop32
280
     0
102
RTVSPost2010PropOp32
 70
     1
102
RTVSPost2010Prop33
280
     0
102
RTVSPost2010PropOp33
 70
     1
102
RTVSPost2010Prop34
280
     0
102
RTVSPost2010PropOp34
 70
     1
102
RTVSPost2010Prop35
280
     0
102
RTVSPost2010PropOp35
 70
     1
102
RTVSPost2010Prop36
280
     0
102
RTVSPost2010PropOp36
 70
     1
102
RTVSPost2010Prop37
 90
       50
102
RTVSPost2010PropOp37
 70
     1
102
RTVSPost2010Prop38
140
0.0
102
RTVSPost2010PropOp38
 70
     1
102
RTVSPost2010Prop39
140
1.0
102
RTVSPost2010PropOp39
 70
     1
102
RTVSPost2010Prop40
 90
        0
102
RTVSPost2010PropOp40
 70
     1
102
RTVSPost2010Prop41ColorIndex
 90
       18
102
RTVSPost2010Prop41ColorRGB
 90
        0
102
RTVSPost2010PropOp41
 70
     1
102
RTVSPost2010Prop42
 90
       50
102
RTVSPost2010PropOp42
 70
     1
102
RTVSPost2010Prop43
 90
        3
102
RTVSPost2010PropOp43
 70
     1
102
RTVSPost2010Prop44ColorIndex
 90
        5
102
RTVSPost2010Prop44ColorRGB
 90
      255
102
RTVSPost2010PropOp44
 70
     1
102
RTVSPost2010Prop45
280
     0
102
RTVSPost2010PropOp45
 70
     1
102
RTVSPost2010Prop46
 90
       50
102
RTVSPost2010PropOp46
 70
     1
102
RTVSPost2010Prop47
 90
       50
102
RTVSPost2010PropOp47
 70
     1
102
RTVSPost2010Prop48
 90
       50
102
RTVSPost2010PropOp48
 70
     1
102
RTVSPost2010Prop49
280
     0
102
RTVSPost2010PropOp49
 70
     1
102
RTVSPost2010Prop50
 90
       50
102
RTVSPost2010PropOp50
 70
     1
102
RTVSPost2010Prop51ColorIndex
 90
      256
102
RTVSPost2010Prop51ColorRGB
 90
-16777216
102
RTVSPost2010PropOp51
 70
     0
102
RTVSPost2010Prop52
140
1.0
102
RTVSPost2010PropOp52
 70
     0
102
RTVSPost2010Prop53
 90
        2
102
RTVSPost2010PropOp53
 70
     1
102
RTVSPost2010Prop54
  1
strokes_ogs.tif
102
RTVSPost2010PropOp54
 70
     1
102
RTVSPost2010Prop55
280
     0
102
RTVSPost2010PropOp55
 70
     1
102
RTVSPost2010Prop56
140
1.0
102
RTVSPost2010PropOp56
 70
     1
102
RTVSPost2010Prop57
140
1.0
102
RTVSPost2010PropOp57
 70
     1
102
RTVSPropertyOp0
 70
     1
102
RTVSPropertyOp1
 70
     1
102
RTVSPropertyOp2
 70
     1
102
RTVSPropertyOp3
 70
     1
102
RTVSPropertyOp4
 70
     1
102
RTVSPropertyOp5
 70
     1
102
RTVSPropertyOp6
 70
     1
102
RTVSPropertyOp7
 70
     1
102
RTVSPropertyOp8
 70
     1
102
RTVSPropertyOp9
 70
     1
102
RTVSPropertyOp10
 70
     1
102
RTVSPropertyOp11
 70
     1
102
RTVSPropertyOp12
 70
     1
102
RTVSPropertyOp13
 70
     1
102
RTVSPropertyOp14
 70
     1
102
RTVSPropertyOp15
 70
     1
102
RTVSPropertyOp16
 70
     1
102
RTVSPropertyOp17
 70
     1
102
RTVSPropertyOp18
 70
     1
102
RTVSPropertyOp19
 70
     1
102
RTVSPropertyOp20
 70
     1
102
RTVSPropertyOp21
 70
     1
102
RTVSPropertyOp22
 70
     1
102
RTVSPropertyOp23
 70
     1
102
RTVSPropertyOp24
 70
     1
102
RTVSPropertyOp25
 70
     1
102
RTVSPropertyOp26
 70
     1
102
RTVSPropertyOp27
 70
     1
102
RTVSPropertyOp28
 70
     1
102
RTVSPropertyOp29
 70
     1
102
RTVSPropertyOp30
 70
     1
102
RTVSPropertyOp31
 70
     1
102
RTVSPropertyOp32
 70
     1
102
RTVSPropertyOp33
 70
     1
102
RTVSPropertyOp34
 70
     1
102
RTVSPropertyOp35
 70
     1
102
RTVSPropertyOp36
 70
     1
102
RTVSPropertyOp37
 70
     1
102
RTVSPropertyOp38
 70
     1
102
RTVSPropertyOp39
 70
     1
102
RTVSPropertyOp40
 70
     1
102
RTVSPropertyOp41
 70
     1
102
RTVSPropertyOp42
 70
     1
102
RTVSPropertyOp43
 70
     1
102
RTVSPropertyOp44
 70
     1
102
RTVSPropertyOp45
 70
     1
102
RTVSPropertyOp46
 70
     1
102
RTVSPropertyOp47
 70
     1
102
RTVSPropertyOp48
 70
     1
102
RTVSPropertyOp49
 70
     1
102
RTVSPropertyOp50
 70
     1
102
RTVSPropertyOp51
 70
     0
102
RTVSPropertyOp52
 70
     0
102
RTVSPropertyOp53
 70
     1
102
RTVSPropertyOp54
 70
     1
102
RTVSPropertyOp55
 70
     1
102
RTVSPropertyOp56
 70
     1
102
RTVSPropertyOp57
 70
     1
102
RTVSPropertyOp58
 70
     1
102
RTVSPropertyOp59
 70
     1
102
RTVSPropertyOp60
 70
     1
102
RTVSPropertyOp61
 70
     1
102
RTVSPropertyOp62
 70
     1
  0
XRECORD
  5
5442
102
{ACAD_REACTORS
330
5441
102
}
330
5441
100
AcDbXrecord
280
     1
102
RTVSPost2010Prop28
280
     0
102
RTVSPost2010PropOp28
 70
     1
102
RTVSPost2010Prop29
280
     1
102
RTVSPost2010PropOp29
 70
     1
102
RTVSPost2010Prop30
280
     1
102
RTVSPost2010PropOp30
 70
     1
102
RTVSPost2010Prop31
280
     0
102
RTVSPost2010PropOp31
 70
     1
102
RTVSPost2010Prop32
280
     0
102
RTVSPost2010PropOp32
 70
     1
102
RTVSPost2010Prop33
280
     0
102
RTVSPost2010PropOp33
 70
     1
102
RTVSPost2010Prop34
280
     0
102
RTVSPost2010PropOp34
 70
     1
102
RTVSPost2010Prop35
280
     0
102
RTVSPost2010PropOp35
 70
     1
102
RTVSPost2010Prop36
280
     0
102
RTVSPost2010PropOp36
 70
     1
102
RTVSPost2010Prop37
 90
       50
102
RTVSPost2010PropOp37
 70
     1
102
RTVSPost2010Prop38
140
0.0
102
RTVSPost2010PropOp38
 70
     1
102
RTVSPost2010Prop39
140
1.0
102
RTVSPost2010PropOp39
 70
     1
102
RTVSPost2010Prop40
 90
        0
102
RTVSPost2010PropOp40
 70
     1
102
RTVSPost2010Prop41ColorIndex
 90
       18
102
RTVSPost2010Prop41ColorRGB
 90
        0
102
RTVSPost2010PropOp41
 70
     1
102
RTVSPost2010Prop42
 90
       50
102
RTVSPost2010PropOp42
 70
     1
102
RTVSPost2010Prop43
 90
        3
102
RTVSPost2010PropOp43
 70
     1
102
RTVSPost2010Prop44ColorIndex
 90
        5
102
RTVSPost2010Prop44ColorRGB
 90
      255
102
RTVSPost2010PropOp44
 70
     1
102
RTVSPost2010Prop45
280
     0
102
RTVSPost2010PropOp45
 70
     1
102
RTVSPost2010Prop46
 90
       50
102
RTVSPost2010PropOp46
 70
     1
102
RTVSPost2010Prop47
 90
       50
102
RTVSPost2010PropOp47
 70
     1
102
RTVSPost2010Prop48
 90
       50
102
RTVSPost2010PropOp48
 70
     1
102
RTVSPost2010Prop49
280
     0
102
RTVSPost2010PropOp49
 70
     1
102
RTVSPost2010Prop50
 90
       50
102
RTVSPost2010PropOp50
 70
     1
102
RTVSPost2010Prop51ColorIndex
 90
      256
102
RTVSPost2010Prop51ColorRGB
 90
-16777216
102
RTVSPost2010PropOp51
 70
     0
102
RTVSPost2010Prop52
140
1.0
102
RTVSPost2010PropOp52
 70
     0
102
RTVSPost2010Prop53
 90
        2
102
RTVSPost2010PropOp53
 70
     1
102
RTVSPost2010Prop54
  1
strokes_ogs.tif
102
RTVSPost2010PropOp54
 70
     1
102
RTVSPost2010Prop55
280
     0
102
RTVSPost2010PropOp55
 70
     1
102
RTVSPost2010Prop56
140
1.0
102
RTVSPost2010PropOp56
 70
     1
102
RTVSPost2010Prop57
140
1.0
102
RTVSPost2010PropOp57
 70
     1
102
RTVSPropertyOp0
 70
     1
102
RTVSPropertyOp1
 70
     1
102
RTVSPropertyOp2
 70
     1
102
RTVSPropertyOp3
 70
     1
102
RTVSPropertyOp4
 70
     1
102
RTVSPropertyOp5
 70
     1
102
RTVSPropertyOp6
 70
     1
102
RTVSPropertyOp7
 70
     1
102
RTVSPropertyOp8
 70
     1
102
RTVSPropertyOp9
 70
     1
102
RTVSPropertyOp10
 70
     1
102
RTVSPropertyOp11
 70
     1
102
RTVSPropertyOp12
 70
     1
102
RTVSPropertyOp13
 70
     1
102
RTVSPropertyOp14
 70
     1
102
RTVSPropertyOp15
 70
     1
102
RTVSPropertyOp16
 70
     1
102
RTVSPropertyOp17
 70
     1
102
RTVSPropertyOp18
 70
     1
102
RTVSPropertyOp19
 70
     1
102
RTVSPropertyOp20
 70
     1
102
RTVSPropertyOp21
 70
     1
102
RTVSPropertyOp22
 70
     1
102
RTVSPropertyOp23
 70
     1
102
RTVSPropertyOp24
 70
     1
102
RTVSPropertyOp25
 70
     1
102
RTVSPropertyOp26
 70
     1
102
RTVSPropertyOp27
 70
     1
102
RTVSPropertyOp28
 70
     1
102
RTVSPropertyOp29
 70
     1
102
RTVSPropertyOp30
 70
     1
102
RTVSPropertyOp31
 70
     1
102
RTVSPropertyOp32
 70
     1
102
RTVSPropertyOp33
 70
     1
102
RTVSPropertyOp34
 70
     1
102
RTVSPropertyOp35
 70
     1
102
RTVSPropertyOp36
 70
     1
102
RTVSPropertyOp37
 70
     1
102
RTVSPropertyOp38
 70
     1
102
RTVSPropertyOp39
 70
     1
102
RTVSPropertyOp40
 70
     1
102
RTVSPropertyOp41
 70
     1
102
RTVSPropertyOp42
 70
     1
102
RTVSPropertyOp43
 70
     1
102
RTVSPropertyOp44
 70
     1
102
RTVSPropertyOp45
 70
     1
102
RTVSPropertyOp46
 70
     1
102
RTVSPropertyOp47
 70
     1
102
RTVSPropertyOp48
 70
     1
102
RTVSPropertyOp49
 70
     1
102
RTVSPropertyOp50
 70
     1
102
RTVSPropertyOp51
 70
     0
102
RTVSPropertyOp52
 70
     0
102
RTVSPropertyOp53
 70
     1
102
RTVSPropertyOp54
 70
     1
102
RTVSPropertyOp55
 70
     1
102
RTVSPropertyOp56
 70
     1
102
RTVSPropertyOp57
 70
     1
102
RTVSPropertyOp58
 70
     1
102
RTVSPropertyOp59
 70
     1
102
RTVSPropertyOp60
 70
     1
102
RTVSPropertyOp61
 70
     1
102
RTVSPropertyOp62
 70
     1
  0
XRECORD
  5
544A
102
{ACAD_REACTORS
330
5449
102
}
330
5449
100
AcDbXrecord
280
     1
102
RTVSPost2010Prop28
280
     0
102
RTVSPost2010PropOp28
 70
     1
102
RTVSPost2010Prop29
280
     1
102
RTVSPost2010PropOp29
 70
     1
102
RTVSPost2010Prop30
280
     1
102
RTVSPost2010PropOp30
 70
     1
102
RTVSPost2010Prop31
280
     0
102
RTVSPost2010PropOp31
 70
     1
102
RTVSPost2010Prop32
280
     0
102
RTVSPost2010PropOp32
 70
     1
102
RTVSPost2010Prop33
280
     0
102
RTVSPost2010PropOp33
 70
     1
102
RTVSPost2010Prop34
280
     0
102
RTVSPost2010PropOp34
 70
     1
102
RTVSPost2010Prop35
280
     0
102
RTVSPost2010PropOp35
 70
     1
102
RTVSPost2010Prop36
280
     0
102
RTVSPost2010PropOp36
 70
     1
102
RTVSPost2010Prop37
 90
       50
102
RTVSPost2010PropOp37
 70
     1
102
RTVSPost2010Prop38
140
0.0
102
RTVSPost2010PropOp38
 70
     1
102
RTVSPost2010Prop39
140
1.0
102
RTVSPost2010PropOp39
 70
     1
102
RTVSPost2010Prop40
 90
        0
102
RTVSPost2010PropOp40
 70
     1
102
RTVSPost2010Prop41ColorIndex
 90
       18
102
RTVSPost2010Prop41ColorRGB
 90
        0
102
RTVSPost2010PropOp41
 70
     1
102
RTVSPost2010Prop42
 90
       50
102
RTVSPost2010PropOp42
 70
     1
102
RTVSPost2010Prop43
 90
        3
102
RTVSPost2010PropOp43
 70
     1
102
RTVSPost2010Prop44ColorIndex
 90
        5
102
RTVSPost2010Prop44ColorRGB
 90
      255
102
RTVSPost2010PropOp44
 70
     1
102
RTVSPost2010Prop45
280
     0
102
RTVSPost2010PropOp45
 70
     1
102
RTVSPost2010Prop46
 90
       50
102
RTVSPost2010PropOp46
 70
     1
102
RTVSPost2010Prop47
 90
       50
102
RTVSPost2010PropOp47
 70
     1
102
RTVSPost2010Prop48
 90
       50
102
RTVSPost2010PropOp48
 70
     1
102
RTVSPost2010Prop49
280
     0
102
RTVSPost2010PropOp49
 70
     1
102
RTVSPost2010Prop50
 90
       50
102
RTVSPost2010PropOp50
 70
     1
102
RTVSPost2010Prop51ColorIndex
 90
      256
102
RTVSPost2010Prop51ColorRGB
 90
-16777216
102
RTVSPost2010PropOp51
 70
     0
102
RTVSPost2010Prop52
140
1.0
102
RTVSPost2010PropOp52
 70
     0
102
RTVSPost2010Prop53
 90
        2
102
RTVSPost2010PropOp53
 70
     1
102
RTVSPost2010Prop54
  1
strokes_ogs.tif
102
RTVSPost2010PropOp54
 70
     1
102
RTVSPost2010Prop55
280
     0
102
RTVSPost2010PropOp55
 70
     1
102
RTVSPost2010Prop56
140
1.0
102
RTVSPost2010PropOp56
 70
     1
102
RTVSPost2010Prop57
140
1.0
102
RTVSPost2010PropOp57
 70
     1
102
RTVSPropertyOp0
 70
     1
102
RTVSPropertyOp1
 70
     1
102
RTVSPropertyOp2
 70
     1
102
RTVSPropertyOp3
 70
     1
102
RTVSPropertyOp4
 70
     1
102
RTVSPropertyOp5
 70
     1
102
RTVSPropertyOp6
 70
     1
102
RTVSPropertyOp7
 70
     1
102
RTVSPropertyOp8
 70
     1
102
RTVSPropertyOp9
 70
     1
102
RTVSPropertyOp10
 70
     1
102
RTVSPropertyOp11
 70
     1
102
RTVSPropertyOp12
 70
     1
102
RTVSPropertyOp13
 70
     1
102
RTVSPropertyOp14
 70
     1
102
RTVSPropertyOp15
 70
     1
102
RTVSPropertyOp16
 70
     1
102
RTVSPropertyOp17
 70
     1
102
RTVSPropertyOp18
 70
     1
102
RTVSPropertyOp19
 70
     1
102
RTVSPropertyOp20
 70
     1
102
RTVSPropertyOp21
 70
     1
102
RTVSPropertyOp22
 70
     1
102
RTVSPropertyOp23
 70
     1
102
RTVSPropertyOp24
 70
     1
102
RTVSPropertyOp25
 70
     1
102
RTVSPropertyOp26
 70
     1
102
RTVSPropertyOp27
 70
     1
102
RTVSPropertyOp28
 70
     1
102
RTVSPropertyOp29
 70
     1
102
RTVSPropertyOp30
 70
     1
102
RTVSPropertyOp31
 70
     1
102
RTVSPropertyOp32
 70
     1
102
RTVSPropertyOp33
 70
     1
102
RTVSPropertyOp34
 70
     1
102
RTVSPropertyOp35
 70
     1
102
RTVSPropertyOp36
 70
     1
102
RTVSPropertyOp37
 70
     1
102
RTVSPropertyOp38
 70
     1
102
RTVSPropertyOp39
 70
     1
102
RTVSPropertyOp40
 70
     1
102
RTVSPropertyOp41
 70
     1
102
RTVSPropertyOp42
 70
     1
102
RTVSPropertyOp43
 70
     1
102
RTVSPropertyOp44
 70
     1
102
RTVSPropertyOp45
 70
     1
102
RTVSPropertyOp46
 70
     1
102
RTVSPropertyOp47
 70
     1
102
RTVSPropertyOp48
 70
     1
102
RTVSPropertyOp49
 70
     1
102
RTVSPropertyOp50
 70
     1
102
RTVSPropertyOp51
 70
     0
102
RTVSPropertyOp52
 70
     0
102
RTVSPropertyOp53
 70
     1
102
RTVSPropertyOp54
 70
     1
102
RTVSPropertyOp55
 70
     1
102
RTVSPropertyOp56
 70
     1
102
RTVSPropertyOp57
 70
     1
102
RTVSPropertyOp58
 70
     1
102
RTVSPropertyOp59
 70
     1
102
RTVSPropertyOp60
 70
     1
102
RTVSPropertyOp61
 70
     1
102
RTVSPropertyOp62
 70
     1
  0
XRECORD
  5
543C
102
{ACAD_REACTORS
330
543B
102
}
330
543B
100
AcDbXrecord
280
     1
102
RTVSPost2010Prop28
280
     0
102
RTVSPost2010PropOp28
 70
     1
102
RTVSPost2010Prop29
280
     1
102
RTVSPost2010PropOp29
 70
     1
102
RTVSPost2010Prop30
280
     1
102
RTVSPost2010PropOp30
 70
     1
102
RTVSPost2010Prop31
280
     0
102
RTVSPost2010PropOp31
 70
     1
102
RTVSPost2010Prop32
280
     0
102
RTVSPost2010PropOp32
 70
     1
102
RTVSPost2010Prop33
280
     0
102
RTVSPost2010PropOp33
 70
     1
102
RTVSPost2010Prop34
280
     0
102
RTVSPost2010PropOp34
 70
     1
102
RTVSPost2010Prop35
280
     0
102
RTVSPost2010PropOp35
 70
     1
102
RTVSPost2010Prop36
280
     0
102
RTVSPost2010PropOp36
 70
     1
102
RTVSPost2010Prop37
 90
       50
102
RTVSPost2010PropOp37
 70
     1
102
RTVSPost2010Prop38
140
0.0
102
RTVSPost2010PropOp38
 70
     1
102
RTVSPost2010Prop39
140
1.0
102
RTVSPost2010PropOp39
 70
     1
102
RTVSPost2010Prop40
 90
        0
102
RTVSPost2010PropOp40
 70
     1
102
RTVSPost2010Prop41ColorIndex
 90
       18
102
RTVSPost2010Prop41ColorRGB
 90
        0
102
RTVSPost2010PropOp41
 70
     1
102
RTVSPost2010Prop42
 90
       50
102
RTVSPost2010PropOp42
 70
     1
102
RTVSPost2010Prop43
 90
        3
102
RTVSPost2010PropOp43
 70
     1
102
RTVSPost2010Prop44ColorIndex
 90
        5
102
RTVSPost2010Prop44ColorRGB
 90
      255
102
RTVSPost2010PropOp44
 70
     1
102
RTVSPost2010Prop45
280
     0
102
RTVSPost2010PropOp45
 70
     1
102
RTVSPost2010Prop46
 90
       50
102
RTVSPost2010PropOp46
 70
     1
102
RTVSPost2010Prop47
 90
       50
102
RTVSPost2010PropOp47
 70
     1
102
RTVSPost2010Prop48
 90
       50
102
RTVSPost2010PropOp48
 70
     1
102
RTVSPost2010Prop49
280
     0
102
RTVSPost2010PropOp49
 70
     1
102
RTVSPost2010Prop50
 90
       50
102
RTVSPost2010PropOp50
 70
     1
102
RTVSPost2010Prop51ColorIndex
 90
      256
102
RTVSPost2010Prop51ColorRGB
 90
-16777216
102
RTVSPost2010PropOp51
 70
     0
102
RTVSPost2010Prop52
140
1.0
102
RTVSPost2010PropOp52
 70
     0
102
RTVSPost2010Prop53
 90
        2
102
RTVSPost2010PropOp53
 70
     1
102
RTVSPost2010Prop54
  1
strokes_ogs.tif
102
RTVSPost2010PropOp54
 70
     1
102
RTVSPost2010Prop55
280
     0
102
RTVSPost2010PropOp55
 70
     1
102
RTVSPost2010Prop56
140
1.0
102
RTVSPost2010PropOp56
 70
     1
102
RTVSPost2010Prop57
140
1.0
102
RTVSPost2010PropOp57
 70
     1
102
RTVSPropertyOp0
 70
     1
102
RTVSPropertyOp1
 70
     1
102
RTVSPropertyOp2
 70
     1
102
RTVSPropertyOp3
 70
     1
102
RTVSPropertyOp4
 70
     1
102
RTVSPropertyOp5
 70
     1
102
RTVSPropertyOp6
 70
     1
102
RTVSPropertyOp7
 70
     1
102
RTVSPropertyOp8
 70
     1
102
RTVSPropertyOp9
 70
     1
102
RTVSPropertyOp10
 70
     1
102
RTVSPropertyOp11
 70
     1
102
RTVSPropertyOp12
 70
     1
102
RTVSPropertyOp13
 70
     1
102
RTVSPropertyOp14
 70
     1
102
RTVSPropertyOp15
 70
     1
102
RTVSPropertyOp16
 70
     1
102
RTVSPropertyOp17
 70
     1
102
RTVSPropertyOp18
 70
     1
102
RTVSPropertyOp19
 70
     1
102
RTVSPropertyOp20
 70
     1
102
RTVSPropertyOp21
 70
     1
102
RTVSPropertyOp22
 70
     1
102
RTVSPropertyOp23
 70
     1
102
RTVSPropertyOp24
 70
     1
102
RTVSPropertyOp25
 70
     1
102
RTVSPropertyOp26
 70
     1
102
RTVSPropertyOp27
 70
     1
102
RTVSPropertyOp28
 70
     1
102
RTVSPropertyOp29
 70
     1
102
RTVSPropertyOp30
 70
     1
102
RTVSPropertyOp31
 70
     1
102
RTVSPropertyOp32
 70
     1
102
RTVSPropertyOp33
 70
     1
102
RTVSPropertyOp34
 70
     1
102
RTVSPropertyOp35
 70
     1
102
RTVSPropertyOp36
 70
     1
102
RTVSPropertyOp37
 70
     1
102
RTVSPropertyOp38
 70
     1
102
RTVSPropertyOp39
 70
     1
102
RTVSPropertyOp40
 70
     1
102
RTVSPropertyOp41
 70
     1
102
RTVSPropertyOp42
 70
     1
102
RTVSPropertyOp43
 70
     1
102
RTVSPropertyOp44
 70
     1
102
RTVSPropertyOp45
 70
     1
102
RTVSPropertyOp46
 70
     1
102
RTVSPropertyOp47
 70
     1
102
RTVSPropertyOp48
 70
     1
102
RTVSPropertyOp49
 70
     1
102
RTVSPropertyOp50
 70
     1
102
RTVSPropertyOp51
 70
     0
102
RTVSPropertyOp52
 70
     0
102
RTVSPropertyOp53
 70
     1
102
RTVSPropertyOp54
 70
     1
102
RTVSPropertyOp55
 70
     1
102
RTVSPropertyOp56
 70
     1
102
RTVSPropertyOp57
 70
     1
102
RTVSPropertyOp58
 70
     1
102
RTVSPropertyOp59
 70
     1
102
RTVSPropertyOp60
 70
     1
102
RTVSPropertyOp61
 70
     1
102
RTVSPropertyOp62
 70
     1
  0
XRECORD
  5
5440
102
{ACAD_REACTORS
330
543F
102
}
330
543F
100
AcDbXrecord
280
     1
102
RTVSPost2010Prop28
280
     0
102
RTVSPost2010PropOp28
 70
     1
102
RTVSPost2010Prop29
280
     1
102
RTVSPost2010PropOp29
 70
     1
102
RTVSPost2010Prop30
280
     1
102
RTVSPost2010PropOp30
 70
     1
102
RTVSPost2010Prop31
280
     0
102
RTVSPost2010PropOp31
 70
     1
102
RTVSPost2010Prop32
280
     0
102
RTVSPost2010PropOp32
 70
     1
102
RTVSPost2010Prop33
280
     0
102
RTVSPost2010PropOp33
 70
     1
102
RTVSPost2010Prop34
280
     0
102
RTVSPost2010PropOp34
 70
     1
102
RTVSPost2010Prop35
280
     0
102
RTVSPost2010PropOp35
 70
     1
102
RTVSPost2010Prop36
280
     0
102
RTVSPost2010PropOp36
 70
     1
102
RTVSPost2010Prop37
 90
       50
102
RTVSPost2010PropOp37
 70
     1
102
RTVSPost2010Prop38
140
0.0
102
RTVSPost2010PropOp38
 70
     1
102
RTVSPost2010Prop39
140
1.0
102
RTVSPost2010PropOp39
 70
     1
102
RTVSPost2010Prop40
 90
        0
102
RTVSPost2010PropOp40
 70
     1
102
RTVSPost2010Prop41ColorIndex
 90
       18
102
RTVSPost2010Prop41ColorRGB
 90
        0
102
RTVSPost2010PropOp41
 70
     1
102
RTVSPost2010Prop42
 90
       50
102
RTVSPost2010PropOp42
 70
     1
102
RTVSPost2010Prop43
 90
        3
102
RTVSPost2010PropOp43
 70
     1
102
RTVSPost2010Prop44ColorIndex
 90
        5
102
RTVSPost2010Prop44ColorRGB
 90
      255
102
RTVSPost2010PropOp44
 70
     1
102
RTVSPost2010Prop45
280
     0
102
RTVSPost2010PropOp45
 70
     1
102
RTVSPost2010Prop46
 90
       50
102
RTVSPost2010PropOp46
 70
     1
102
RTVSPost2010Prop47
 90
       50
102
RTVSPost2010PropOp47
 70
     1
102
RTVSPost2010Prop48
 90
       50
102
RTVSPost2010PropOp48
 70
     1
102
RTVSPost2010Prop49
280
     0
102
RTVSPost2010PropOp49
 70
     1
102
RTVSPost2010Prop50
 90
       50
102
RTVSPost2010PropOp50
 70
     1
102
RTVSPost2010Prop51ColorIndex
 90
      256
102
RTVSPost2010Prop51ColorRGB
 90
-16777216
102
RTVSPost2010PropOp51
 70
     0
102
RTVSPost2010Prop52
140
1.0
102
RTVSPost2010PropOp52
 70
     0
102
RTVSPost2010Prop53
 90
        2
102
RTVSPost2010PropOp53
 70
     1
102
RTVSPost2010Prop54
  1
strokes_ogs.tif
102
RTVSPost2010PropOp54
 70
     1
102
RTVSPost2010Prop55
280
     0
102
RTVSPost2010PropOp55
 70
     1
102
RTVSPost2010Prop56
140
1.0
102
RTVSPost2010PropOp56
 70
     1
102
RTVSPost2010Prop57
140
1.0
102
RTVSPost2010PropOp57
 70
     1
102
RTVSPropertyOp0
 70
     1
102
RTVSPropertyOp1
 70
     1
102
RTVSPropertyOp2
 70
     1
102
RTVSPropertyOp3
 70
     1
102
RTVSPropertyOp4
 70
     1
102
RTVSPropertyOp5
 70
     1
102
RTVSPropertyOp6
 70
     1
102
RTVSPropertyOp7
 70
     1
102
RTVSPropertyOp8
 70
     1
102
RTVSPropertyOp9
 70
     1
102
RTVSPropertyOp10
 70
     1
102
RTVSPropertyOp11
 70
     1
102
RTVSPropertyOp12
 70
     1
102
RTVSPropertyOp13
 70
     1
102
RTVSPropertyOp14
 70
     1
102
RTVSPropertyOp15
 70
     1
102
RTVSPropertyOp16
 70
     1
102
RTVSPropertyOp17
 70
     1
102
RTVSPropertyOp18
 70
     1
102
RTVSPropertyOp19
 70
     1
102
RTVSPropertyOp20
 70
     1
102
RTVSPropertyOp21
 70
     1
102
RTVSPropertyOp22
 70
     1
102
RTVSPropertyOp23
 70
     1
102
RTVSPropertyOp24
 70
     1
102
RTVSPropertyOp25
 70
     1
102
RTVSPropertyOp26
 70
     1
102
RTVSPropertyOp27
 70
     1
102
RTVSPropertyOp28
 70
     1
102
RTVSPropertyOp29
 70
     1
102
RTVSPropertyOp30
 70
     1
102
RTVSPropertyOp31
 70
     1
102
RTVSPropertyOp32
 70
     1
102
RTVSPropertyOp33
 70
     1
102
RTVSPropertyOp34
 70
     1
102
RTVSPropertyOp35
 70
     1
102
RTVSPropertyOp36
 70
     1
102
RTVSPropertyOp37
 70
     1
102
RTVSPropertyOp38
 70
     1
102
RTVSPropertyOp39
 70
     1
102
RTVSPropertyOp40
 70
     1
102
RTVSPropertyOp41
 70
     1
102
RTVSPropertyOp42
 70
     1
102
RTVSPropertyOp43
 70
     1
102
RTVSPropertyOp44
 70
     1
102
RTVSPropertyOp45
 70
     1
102
RTVSPropertyOp46
 70
     1
102
RTVSPropertyOp47
 70
     1
102
RTVSPropertyOp48
 70
     1
102
RTVSPropertyOp49
 70
     1
102
RTVSPropertyOp50
 70
     1
102
RTVSPropertyOp51
 70
     0
102
RTVSPropertyOp52
 70
     0
102
RTVSPropertyOp53
 70
     1
102
RTVSPropertyOp54
 70
     1
102
RTVSPropertyOp55
 70
     1
102
RTVSPropertyOp56
 70
     1
102
RTVSPropertyOp57
 70
     1
102
RTVSPropertyOp58
 70
     1
102
RTVSPropertyOp59
 70
     1
102
RTVSPropertyOp60
 70
     1
102
RTVSPropertyOp61
 70
     1
102
RTVSPropertyOp62
 70
     1
  0
XRECORD
  5
545A
102
{ACAD_REACTORS
330
5459
102
}
330
5459
100
AcDbXrecord
280
     1
102
RTVSPost2010Prop28
280
     0
102
RTVSPost2010PropOp28
 70
     1
102
RTVSPost2010Prop29
280
     1
102
RTVSPost2010PropOp29
 70
     1
102
RTVSPost2010Prop30
280
     1
102
RTVSPost2010PropOp30
 70
     1
102
RTVSPost2010Prop31
280
     0
102
RTVSPost2010PropOp31
 70
     1
102
RTVSPost2010Prop32
280
     0
102
RTVSPost2010PropOp32
 70
     1
102
RTVSPost2010Prop33
280
     0
102
RTVSPost2010PropOp33
 70
     1
102
RTVSPost2010Prop34
280
     0
102
RTVSPost2010PropOp34
 70
     1
102
RTVSPost2010Prop35
280
     0
102
RTVSPost2010PropOp35
 70
     1
102
RTVSPost2010Prop36
280
     0
102
RTVSPost2010PropOp36
 70
     1
102
RTVSPost2010Prop37
 90
       50
102
RTVSPost2010PropOp37
 70
     0
102
RTVSPost2010Prop38
140
0.0
102
RTVSPost2010PropOp38
 70
     0
102
RTVSPost2010Prop39
140
1.0
102
RTVSPost2010PropOp39
 70
     0
102
RTVSPost2010Prop40
 90
        0
102
RTVSPost2010PropOp40
 70
     0
102
RTVSPost2010Prop41ColorIndex
 90
       18
102
RTVSPost2010Prop41ColorRGB
 90
        0
102
RTVSPost2010PropOp41
 70
     0
102
RTVSPost2010Prop42
 90
       50
102
RTVSPost2010PropOp42
 70
     0
102
RTVSPost2010Prop43
 90
        3
102
RTVSPost2010PropOp43
 70
     0
102
RTVSPost2010Prop44ColorIndex
 90
        5
102
RTVSPost2010Prop44ColorRGB
 90
      255
102
RTVSPost2010PropOp44
 70
     0
102
RTVSPost2010Prop45
280
     0
102
RTVSPost2010PropOp45
 70
     1
102
RTVSPost2010Prop46
 90
       50
102
RTVSPost2010PropOp46
 70
     0
102
RTVSPost2010Prop47
 90
       50
102
RTVSPost2010PropOp47
 70
     0
102
RTVSPost2010Prop48
 90
       50
102
RTVSPost2010PropOp48
 70
     0
102
RTVSPost2010Prop49
280
     0
102
RTVSPost2010PropOp49
 70
     1
102
RTVSPost2010Prop50
 90
       50
102
RTVSPost2010PropOp50
 70
     0
102
RTVSPost2010Prop51ColorIndex
 90
      256
102
RTVSPost2010Prop51ColorRGB
 90
-16777216
102
RTVSPost2010PropOp51
 70
     0
102
RTVSPost2010Prop52
140
1.0
102
RTVSPost2010PropOp52
 70
     0
102
RTVSPost2010Prop53
 90
        2
102
RTVSPost2010PropOp53
 70
     0
102
RTVSPost2010Prop54
  1
strokes_ogs.tif
102
RTVSPost2010PropOp54
 70
     0
102
RTVSPost2010Prop55
280
     0
102
RTVSPost2010PropOp55
 70
     1
102
RTVSPost2010Prop56
140
1.0
102
RTVSPost2010PropOp56
 70
     0
102
RTVSPost2010Prop57
140
1.0
102
RTVSPost2010PropOp57
 70
     0
102
RTVSPropertyOp0
 70
     0
102
RTVSPropertyOp1
 70
     0
102
RTVSPropertyOp2
 70
     0
102
RTVSPropertyOp3
 70
     0
102
RTVSPropertyOp4
 70
     0
102
RTVSPropertyOp5
 70
     0
102
RTVSPropertyOp6
 70
     0
102
RTVSPropertyOp7
 70
     0
102
RTVSPropertyOp8
 70
     0
102
RTVSPropertyOp9
 70
     0
102
RTVSPropertyOp10
 70
     0
102
RTVSPropertyOp11
 70
     0
102
RTVSPropertyOp12
 70
     0
102
RTVSPropertyOp13
 70
     0
102
RTVSPropertyOp14
 70
     2
102
RTVSPropertyOp15
 70
     0
102
RTVSPropertyOp16
 70
     0
102
RTVSPropertyOp17
 70
     0
102
RTVSPropertyOp18
 70
     0
102
RTVSPropertyOp19
 70
     0
102
RTVSPropertyOp20
 70
     0
102
RTVSPropertyOp21
 70
     0
102
RTVSPropertyOp22
 70
     0
102
RTVSPropertyOp23
 70
     0
102
RTVSPropertyOp24
 70
     0
102
RTVSPropertyOp25
 70
     0
102
RTVSPropertyOp26
 70
     0
102
RTVSPropertyOp27
 70
     0
102
RTVSPropertyOp28
 70
     1
102
RTVSPropertyOp29
 70
     1
102
RTVSPropertyOp30
 70
     1
102
RTVSPropertyOp31
 70
     1
102
RTVSPropertyOp32
 70
     1
102
RTVSPropertyOp33
 70
     1
102
RTVSPropertyOp34
 70
     1
102
RTVSPropertyOp35
 70
     1
102
RTVSPropertyOp36
 70
     1
102
RTVSPropertyOp37
 70
     0
102
RTVSPropertyOp38
 70
     0
102
RTVSPropertyOp39
 70
     0
102
RTVSPropertyOp40
 70
     0
102
RTVSPropertyOp41
 70
     0
102
RTVSPropertyOp42
 70
     0
102
RTVSPropertyOp43
 70
     0
102
RTVSPropertyOp44
 70
     0
102
RTVSPropertyOp45
 70
     1
102
RTVSPropertyOp46
 70
     0
102
RTVSPropertyOp47
 70
     0
102
RTVSPropertyOp48
 70
     0
102
RTVSPropertyOp49
 70
     1
102
RTVSPropertyOp50
 70
     0
102
RTVSPropertyOp51
 70
     0
102
RTVSPropertyOp52
 70
     0
102
RTVSPropertyOp53
 70
     0
102
RTVSPropertyOp54
 70
     0
102
RTVSPropertyOp55
 70
     1
102
RTVSPropertyOp56
 70
     0
102
RTVSPropertyOp57
 70
     0
102
RTVSPropertyOp58
 70
     0
102
RTVSPropertyOp59
 70
     0
102
RTVSPropertyOp60
 70
     0
102
RTVSPropertyOp61
 70
     0
102
RTVSPropertyOp62
 70
     0
  0
XRECORD
  5
5448
102
{ACAD_REACTORS
330
5447
102
}
330
5447
100
AcDbXrecord
280
     1
102
RTVSPost2010Prop28
280
     0
102
RTVSPost2010PropOp28
 70
     1
102
RTVSPost2010Prop29
280
     1
102
RTVSPost2010PropOp29
 70
     1
102
RTVSPost2010Prop30
280
     1
102
RTVSPost2010PropOp30
 70
     1
102
RTVSPost2010Prop31
280
     0
102
RTVSPost2010PropOp31
 70
     1
102
RTVSPost2010Prop32
280
     0
102
RTVSPost2010PropOp32
 70
     1
102
RTVSPost2010Prop33
280
     0
102
RTVSPost2010PropOp33
 70
     1
102
RTVSPost2010Prop34
280
     0
102
RTVSPost2010PropOp34
 70
     1
102
RTVSPost2010Prop35
280
     0
102
RTVSPost2010PropOp35
 70
     1
102
RTVSPost2010Prop36
280
     0
102
RTVSPost2010PropOp36
 70
     1
102
RTVSPost2010Prop37
 90
       50
102
RTVSPost2010PropOp37
 70
     1
102
RTVSPost2010Prop38
140
0.0
102
RTVSPost2010PropOp38
 70
     1
102
RTVSPost2010Prop39
140
1.0
102
RTVSPost2010PropOp39
 70
     1
102
RTVSPost2010Prop40
 90
        0
102
RTVSPost2010PropOp40
 70
     1
102
RTVSPost2010Prop41ColorIndex
 90
       18
102
RTVSPost2010Prop41ColorRGB
 90
        0
102
RTVSPost2010PropOp41
 70
     1
102
RTVSPost2010Prop42
 90
       50
102
RTVSPost2010PropOp42
 70
     1
102
RTVSPost2010Prop43
 90
        3
102
RTVSPost2010PropOp43
 70
     1
102
RTVSPost2010Prop44ColorIndex
 90
        5
102
RTVSPost2010Prop44ColorRGB
 90
      255
102
RTVSPost2010PropOp44
 70
     1
102
RTVSPost2010Prop45
280
     0
102
RTVSPost2010PropOp45
 70
     1
102
RTVSPost2010Prop46
 90
       50
102
RTVSPost2010PropOp46
 70
     1
102
RTVSPost2010Prop47
 90
       50
102
RTVSPost2010PropOp47
 70
     1
102
RTVSPost2010Prop48
 90
       50
102
RTVSPost2010PropOp48
 70
     1
102
RTVSPost2010Prop49
280
     0
102
RTVSPost2010PropOp49
 70
     1
102
RTVSPost2010Prop50
 90
       50
102
RTVSPost2010PropOp50
 70
     1
102
RTVSPost2010Prop51ColorIndex
 90
      256
102
RTVSPost2010Prop51ColorRGB
 90
-16777216
102
RTVSPost2010PropOp51
 70
     0
102
RTVSPost2010Prop52
140
1.0
102
RTVSPost2010PropOp52
 70
     0
102
RTVSPost2010Prop53
 90
        2
102
RTVSPost2010PropOp53
 70
     1
102
RTVSPost2010Prop54
  1
strokes_ogs.tif
102
RTVSPost2010PropOp54
 70
     1
102
RTVSPost2010Prop55
280
     0
102
RTVSPost2010PropOp55
 70
     1
102
RTVSPost2010Prop56
140
1.0
102
RTVSPost2010PropOp56
 70
     1
102
RTVSPost2010Prop57
140
1.0
102
RTVSPost2010PropOp57
 70
     1
102
RTVSPropertyOp0
 70
     1
102
RTVSPropertyOp1
 70
     1
102
RTVSPropertyOp2
 70
     1
102
RTVSPropertyOp3
 70
     1
102
RTVSPropertyOp4
 70
     1
102
RTVSPropertyOp5
 70
     1
102
RTVSPropertyOp6
 70
     1
102
RTVSPropertyOp7
 70
     1
102
RTVSPropertyOp8
 70
     1
102
RTVSPropertyOp9
 70
     1
102
RTVSPropertyOp10
 70
     1
102
RTVSPropertyOp11
 70
     1
102
RTVSPropertyOp12
 70
     1
102
RTVSPropertyOp13
 70
     1
102
RTVSPropertyOp14
 70
     1
102
RTVSPropertyOp15
 70
     1
102
RTVSPropertyOp16
 70
     1
102
RTVSPropertyOp17
 70
     1
102
RTVSPropertyOp18
 70
     1
102
RTVSPropertyOp19
 70
     1
102
RTVSPropertyOp20
 70
     1
102
RTVSPropertyOp21
 70
     1
102
RTVSPropertyOp22
 70
     1
102
RTVSPropertyOp23
 70
     1
102
RTVSPropertyOp24
 70
     1
102
RTVSPropertyOp25
 70
     1
102
RTVSPropertyOp26
 70
     1
102
RTVSPropertyOp27
 70
     1
102
RTVSPropertyOp28
 70
     1
102
RTVSPropertyOp29
 70
     1
102
RTVSPropertyOp30
 70
     1
102
RTVSPropertyOp31
 70
     1
102
RTVSPropertyOp32
 70
     1
102
RTVSPropertyOp33
 70
     1
102
RTVSPropertyOp34
 70
     1
102
RTVSPropertyOp35
 70
     1
102
RTVSPropertyOp36
 70
     1
102
RTVSPropertyOp37
 70
     1
102
RTVSPropertyOp38
 70
     1
102
RTVSPropertyOp39
 70
     1
102
RTVSPropertyOp40
 70
     1
102
RTVSPropertyOp41
 70
     1
102
RTVSPropertyOp42
 70
     1
102
RTVSPropertyOp43
 70
     1
102
RTVSPropertyOp44
 70
     1
102
RTVSPropertyOp45
 70
     1
102
RTVSPropertyOp46
 70
     1
102
RTVSPropertyOp47
 70
     1
102
RTVSPropertyOp48
 70
     1
102
RTVSPropertyOp49
 70
     1
102
RTVSPropertyOp50
 70
     1
102
RTVSPropertyOp51
 70
     0
102
RTVSPropertyOp52
 70
     0
102
RTVSPropertyOp53
 70
     1
102
RTVSPropertyOp54
 70
     1
102
RTVSPropertyOp55
 70
     1
102
RTVSPropertyOp56
 70
     1
102
RTVSPropertyOp57
 70
     1
102
RTVSPropertyOp58
 70
     1
102
RTVSPropertyOp59
 70
     1
102
RTVSPropertyOp60
 70
     1
102
RTVSPropertyOp61
 70
     1
102
RTVSPropertyOp62
 70
     1
  0
XRECORD
  5
542C
102
{ACAD_REACTORS
330
542B
102
}
330
542B
100
AcDbXrecord
280
     1
102
RTVSPost2010Prop28
280
     0
102
RTVSPost2010PropOp28
 70
     1
102
RTVSPost2010Prop29
280
     1
102
RTVSPost2010PropOp29
 70
     1
102
RTVSPost2010Prop30
280
     1
102
RTVSPost2010PropOp30
 70
     1
102
RTVSPost2010Prop31
280
     0
102
RTVSPost2010PropOp31
 70
     1
102
RTVSPost2010Prop32
280
     0
102
RTVSPost2010PropOp32
 70
     1
102
RTVSPost2010Prop33
280
     0
102
RTVSPost2010PropOp33
 70
     1
102
RTVSPost2010Prop34
280
     0
102
RTVSPost2010PropOp34
 70
     1
102
RTVSPost2010Prop35
280
     0
102
RTVSPost2010PropOp35
 70
     1
102
RTVSPost2010Prop36
280
     0
102
RTVSPost2010PropOp36
 70
     1
102
RTVSPost2010Prop37
 90
       50
102
RTVSPost2010PropOp37
 70
     1
102
RTVSPost2010Prop38
140
0.0
102
RTVSPost2010PropOp38
 70
     1
102
RTVSPost2010Prop39
140
1.0
102
RTVSPost2010PropOp39
 70
     1
102
RTVSPost2010Prop40
 90
        0
102
RTVSPost2010PropOp40
 70
     1
102
RTVSPost2010Prop41ColorIndex
 90
       18
102
RTVSPost2010Prop41ColorRGB
 90
        0
102
RTVSPost2010PropOp41
 70
     1
102
RTVSPost2010Prop42
 90
       50
102
RTVSPost2010PropOp42
 70
     1
102
RTVSPost2010Prop43
 90
        3
102
RTVSPost2010PropOp43
 70
     1
102
RTVSPost2010Prop44ColorIndex
 90
        5
102
RTVSPost2010Prop44ColorRGB
 90
      255
102
RTVSPost2010PropOp44
 70
     1
102
RTVSPost2010Prop45
280
     0
102
RTVSPost2010PropOp45
 70
     1
102
RTVSPost2010Prop46
 90
       50
102
RTVSPost2010PropOp46
 70
     1
102
RTVSPost2010Prop47
 90
       50
102
RTVSPost2010PropOp47
 70
     1
102
RTVSPost2010Prop48
 90
       50
102
RTVSPost2010PropOp48
 70
     1
102
RTVSPost2010Prop49
280
     0
102
RTVSPost2010PropOp49
 70
     1
102
RTVSPost2010Prop50
 90
       50
102
RTVSPost2010PropOp50
 70
     1
102
RTVSPost2010Prop51ColorIndex
 90
      256
102
RTVSPost2010Prop51ColorRGB
 90
-16777216
102
RTVSPost2010PropOp51
 70
     0
102
RTVSPost2010Prop52
140
1.0
102
RTVSPost2010PropOp52
 70
     0
102
RTVSPost2010Prop53
 90
        2
102
RTVSPost2010PropOp53
 70
     1
102
RTVSPost2010Prop54
  1
strokes_ogs.tif
102
RTVSPost2010PropOp54
 70
     1
102
RTVSPost2010Prop55
280
     0
102
RTVSPost2010PropOp55
 70
     1
102
RTVSPost2010Prop56
140
1.0
102
RTVSPost2010PropOp56
 70
     1
102
RTVSPost2010Prop57
140
1.0
102
RTVSPost2010PropOp57
 70
     1
102
RTVSPropertyOp0
 70
     1
102
RTVSPropertyOp1
 70
     1
102
RTVSPropertyOp2
 70
     1
102
RTVSPropertyOp3
 70
     1
102
RTVSPropertyOp4
 70
     1
102
RTVSPropertyOp5
 70
     1
102
RTVSPropertyOp6
 70
     1
102
RTVSPropertyOp7
 70
     1
102
RTVSPropertyOp8
 70
     1
102
RTVSPropertyOp9
 70
     1
102
RTVSPropertyOp10
 70
     1
102
RTVSPropertyOp11
 70
     1
102
RTVSPropertyOp12
 70
     1
102
RTVSPropertyOp13
 70
     1
102
RTVSPropertyOp14
 70
     1
102
RTVSPropertyOp15
 70
     1
102
RTVSPropertyOp16
 70
     1
102
RTVSPropertyOp17
 70
     1
102
RTVSPropertyOp18
 70
     1
102
RTVSPropertyOp19
 70
     1
102
RTVSPropertyOp20
 70
     1
102
RTVSPropertyOp21
 70
     1
102
RTVSPropertyOp22
 70
     1
102
RTVSPropertyOp23
 70
     1
102
RTVSPropertyOp24
 70
     1
102
RTVSPropertyOp25
 70
     1
102
RTVSPropertyOp26
 70
     1
102
RTVSPropertyOp27
 70
     1
102
RTVSPropertyOp28
 70
     1
102
RTVSPropertyOp29
 70
     1
102
RTVSPropertyOp30
 70
     1
102
RTVSPropertyOp31
 70
     1
102
RTVSPropertyOp32
 70
     1
102
RTVSPropertyOp33
 70
     1
102
RTVSPropertyOp34
 70
     1
102
RTVSPropertyOp35
 70
     1
102
RTVSPropertyOp36
 70
     1
102
RTVSPropertyOp37
 70
     1
102
RTVSPropertyOp38
 70
     1
102
RTVSPropertyOp39
 70
     1
102
RTVSPropertyOp40
 70
     1
102
RTVSPropertyOp41
 70
     1
102
RTVSPropertyOp42
 70
     1
102
RTVSPropertyOp43
 70
     1
102
RTVSPropertyOp44
 70
     1
102
RTVSPropertyOp45
 70
     1
102
RTVSPropertyOp46
 70
     1
102
RTVSPropertyOp47
 70
     1
102
RTVSPropertyOp48
 70
     1
102
RTVSPropertyOp49
 70
     1
102
RTVSPropertyOp50
 70
     1
102
RTVSPropertyOp51
 70
     0
102
RTVSPropertyOp52
 70
     0
102
RTVSPropertyOp53
 70
     1
102
RTVSPropertyOp54
 70
     1
102
RTVSPropertyOp55
 70
     1
102
RTVSPropertyOp56
 70
     1
102
RTVSPropertyOp57
 70
     1
102
RTVSPropertyOp58
 70
     1
102
RTVSPropertyOp59
 70
     1
102
RTVSPropertyOp60
 70
     1
102
RTVSPropertyOp61
 70
     1
102
RTVSPropertyOp62
 70
     1
  0
XRECORD
  5
542E
102
{ACAD_REACTORS
330
542D
102
}
330
542D
100
AcDbXrecord
280
     1
102
RTVSPost2010Prop28
280
     0
102
RTVSPost2010PropOp28
 70
     1
102
RTVSPost2010Prop29
280
     1
102
RTVSPost2010PropOp29
 70
     1
102
RTVSPost2010Prop30
280
     1
102
RTVSPost2010PropOp30
 70
     1
102
RTVSPost2010Prop31
280
     0
102
RTVSPost2010PropOp31
 70
     1
102
RTVSPost2010Prop32
280
     0
102
RTVSPost2010PropOp32
 70
     1
102
RTVSPost2010Prop33
280
     0
102
RTVSPost2010PropOp33
 70
     1
102
RTVSPost2010Prop34
280
     0
102
RTVSPost2010PropOp34
 70
     1
102
RTVSPost2010Prop35
280
     0
102
RTVSPost2010PropOp35
 70
     1
102
RTVSPost2010Prop36
280
     0
102
RTVSPost2010PropOp36
 70
     1
102
RTVSPost2010Prop37
 90
       50
102
RTVSPost2010PropOp37
 70
     1
102
RTVSPost2010Prop38
140
0.0
102
RTVSPost2010PropOp38
 70
     1
102
RTVSPost2010Prop39
140
1.0
102
RTVSPost2010PropOp39
 70
     1
102
RTVSPost2010Prop40
 90
        0
102
RTVSPost2010PropOp40
 70
     1
102
RTVSPost2010Prop41ColorIndex
 90
       18
102
RTVSPost2010Prop41ColorRGB
 90
        0
102
RTVSPost2010PropOp41
 70
     1
102
RTVSPost2010Prop42
 90
       50
102
RTVSPost2010PropOp42
 70
     1
102
RTVSPost2010Prop43
 90
        3
102
RTVSPost2010PropOp43
 70
     1
102
RTVSPost2010Prop44ColorIndex
 90
        5
102
RTVSPost2010Prop44ColorRGB
 90
      255
102
RTVSPost2010PropOp44
 70
     1
102
RTVSPost2010Prop45
280
     0
102
RTVSPost2010PropOp45
 70
     1
102
RTVSPost2010Prop46
 90
       50
102
RTVSPost2010PropOp46
 70
     1
102
RTVSPost2010Prop47
 90
       50
102
RTVSPost2010PropOp47
 70
     1
102
RTVSPost2010Prop48
 90
       50
102
RTVSPost2010PropOp48
 70
     1
102
RTVSPost2010Prop49
280
     0
102
RTVSPost2010PropOp49
 70
     1
102
RTVSPost2010Prop50
 90
       50
102
RTVSPost2010PropOp50
 70
     1
102
RTVSPost2010Prop51ColorIndex
 90
      256
102
RTVSPost2010Prop51ColorRGB
 90
-16777216
102
RTVSPost2010PropOp51
 70
     0
102
RTVSPost2010Prop52
140
1.0
102
RTVSPost2010PropOp52
 70
     0
102
RTVSPost2010Prop53
 90
        2
102
RTVSPost2010PropOp53
 70
     1
102
RTVSPost2010Prop54
  1
strokes_ogs.tif
102
RTVSPost2010PropOp54
 70
     1
102
RTVSPost2010Prop55
280
     0
102
RTVSPost2010PropOp55
 70
     1
102
RTVSPost2010Prop56
140
1.0
102
RTVSPost2010PropOp56
 70
     1
102
RTVSPost2010Prop57
140
1.0
102
RTVSPost2010PropOp57
 70
     1
102
RTVSPropertyOp0
 70
     1
102
RTVSPropertyOp1
 70
     1
102
RTVSPropertyOp2
 70
     1
102
RTVSPropertyOp3
 70
     1
102
RTVSPropertyOp4
 70
     1
102
RTVSPropertyOp5
 70
     1
102
RTVSPropertyOp6
 70
     1
102
RTVSPropertyOp7
 70
     1
102
RTVSPropertyOp8
 70
     1
102
RTVSPropertyOp9
 70
     1
102
RTVSPropertyOp10
 70
     1
102
RTVSPropertyOp11
 70
     1
102
RTVSPropertyOp12
 70
     1
102
RTVSPropertyOp13
 70
     1
102
RTVSPropertyOp14
 70
     1
102
RTVSPropertyOp15
 70
     1
102
RTVSPropertyOp16
 70
     1
102
RTVSPropertyOp17
 70
     1
102
RTVSPropertyOp18
 70
     1
102
RTVSPropertyOp19
 70
     1
102
RTVSPropertyOp20
 70
     1
102
RTVSPropertyOp21
 70
     1
102
RTVSPropertyOp22
 70
     1
102
RTVSPropertyOp23
 70
     1
102
RTVSPropertyOp24
 70
     1
102
RTVSPropertyOp25
 70
     1
102
RTVSPropertyOp26
 70
     1
102
RTVSPropertyOp27
 70
     1
102
RTVSPropertyOp28
 70
     1
102
RTVSPropertyOp29
 70
     1
102
RTVSPropertyOp30
 70
     1
102
RTVSPropertyOp31
 70
     1
102
RTVSPropertyOp32
 70
     1
102
RTVSPropertyOp33
 70
     1
102
RTVSPropertyOp34
 70
     1
102
RTVSPropertyOp35
 70
     1
102
RTVSPropertyOp36
 70
     1
102
RTVSPropertyOp37
 70
     1
102
RTVSPropertyOp38
 70
     1
102
RTVSPropertyOp39
 70
     1
102
RTVSPropertyOp40
 70
     1
102
RTVSPropertyOp41
 70
     1
102
RTVSPropertyOp42
 70
     1
102
RTVSPropertyOp43
 70
     1
102
RTVSPropertyOp44
 70
     1
102
RTVSPropertyOp45
 70
     1
102
RTVSPropertyOp46
 70
     1
102
RTVSPropertyOp47
 70
     1
102
RTVSPropertyOp48
 70
     1
102
RTVSPropertyOp49
 70
     1
102
RTVSPropertyOp50
 70
     1
102
RTVSPropertyOp51
 70
     0
102
RTVSPropertyOp52
 70
     0
102
RTVSPropertyOp53
 70
     1
102
RTVSPropertyOp54
 70
     1
102
RTVSPropertyOp55
 70
     1
102
RTVSPropertyOp56
 70
     1
102
RTVSPropertyOp57
 70
     1
102
RTVSPropertyOp58
 70
     1
102
RTVSPropertyOp59
 70
     1
102
RTVSPropertyOp60
 70
     1
102
RTVSPropertyOp61
 70
     1
102
RTVSPropertyOp62
 70
     1
  0
XRECORD
  5
5430
102
{ACAD_REACTORS
330
542F
102
}
330
542F
100
AcDbXrecord
280
     1
102
RTVSPost2010Prop28
280
     0
102
RTVSPost2010PropOp28
 70
     1
102
RTVSPost2010Prop29
280
     1
102
RTVSPost2010PropOp29
 70
     1
102
RTVSPost2010Prop30
280
     1
102
RTVSPost2010PropOp30
 70
     1
102
RTVSPost2010Prop31
280
     0
102
RTVSPost2010PropOp31
 70
     1
102
RTVSPost2010Prop32
280
     0
102
RTVSPost2010PropOp32
 70
     1
102
RTVSPost2010Prop33
280
     0
102
RTVSPost2010PropOp33
 70
     1
102
RTVSPost2010Prop34
280
     0
102
RTVSPost2010PropOp34
 70
     1
102
RTVSPost2010Prop35
280
     0
102
RTVSPost2010PropOp35
 70
     1
102
RTVSPost2010Prop36
280
     0
102
RTVSPost2010PropOp36
 70
     1
102
RTVSPost2010Prop37
 90
       50
102
RTVSPost2010PropOp37
 70
     1
102
RTVSPost2010Prop38
140
0.0
102
RTVSPost2010PropOp38
 70
     1
102
RTVSPost2010Prop39
140
1.0
102
RTVSPost2010PropOp39
 70
     1
102
RTVSPost2010Prop40
 90
        0
102
RTVSPost2010PropOp40
 70
     1
102
RTVSPost2010Prop41ColorIndex
 90
       18
102
RTVSPost2010Prop41ColorRGB
 90
        0
102
RTVSPost2010PropOp41
 70
     1
102
RTVSPost2010Prop42
 90
       50
102
RTVSPost2010PropOp42
 70
     1
102
RTVSPost2010Prop43
 90
        3
102
RTVSPost2010PropOp43
 70
     1
102
RTVSPost2010Prop44ColorIndex
 90
        5
102
RTVSPost2010Prop44ColorRGB
 90
      255
102
RTVSPost2010PropOp44
 70
     1
102
RTVSPost2010Prop45
280
     0
102
RTVSPost2010PropOp45
 70
     1
102
RTVSPost2010Prop46
 90
       50
102
RTVSPost2010PropOp46
 70
     1
102
RTVSPost2010Prop47
 90
       50
102
RTVSPost2010PropOp47
 70
     1
102
RTVSPost2010Prop48
 90
       50
102
RTVSPost2010PropOp48
 70
     1
102
RTVSPost2010Prop49
280
     0
102
RTVSPost2010PropOp49
 70
     1
102
RTVSPost2010Prop50
 90
       50
102
RTVSPost2010PropOp50
 70
     1
102
RTVSPost2010Prop51ColorIndex
 90
      256
102
RTVSPost2010Prop51ColorRGB
 90
-16777216
102
RTVSPost2010PropOp51
 70
     0
102
RTVSPost2010Prop52
140
1.0
102
RTVSPost2010PropOp52
 70
     0
102
RTVSPost2010Prop53
 90
        2
102
RTVSPost2010PropOp53
 70
     1
102
RTVSPost2010Prop54
  1
strokes_ogs.tif
102
RTVSPost2010PropOp54
 70
     1
102
RTVSPost2010Prop55
280
     0
102
RTVSPost2010PropOp55
 70
     1
102
RTVSPost2010Prop56
140
1.0
102
RTVSPost2010PropOp56
 70
     1
102
RTVSPost2010Prop57
140
1.0
102
RTVSPost2010PropOp57
 70
     1
102
RTVSPropertyOp0
 70
     1
102
RTVSPropertyOp1
 70
     1
102
RTVSPropertyOp2
 70
     1
102
RTVSPropertyOp3
 70
     1
102
RTVSPropertyOp4
 70
     1
102
RTVSPropertyOp5
 70
     1
102
RTVSPropertyOp6
 70
     1
102
RTVSPropertyOp7
 70
     1
102
RTVSPropertyOp8
 70
     1
102
RTVSPropertyOp9
 70
     1
102
RTVSPropertyOp10
 70
     1
102
RTVSPropertyOp11
 70
     1
102
RTVSPropertyOp12
 70
     1
102
RTVSPropertyOp13
 70
     1
102
RTVSPropertyOp14
 70
     1
102
RTVSPropertyOp15
 70
     1
102
RTVSPropertyOp16
 70
     1
102
RTVSPropertyOp17
 70
     1
102
RTVSPropertyOp18
 70
     1
102
RTVSPropertyOp19
 70
     1
102
RTVSPropertyOp20
 70
     1
102
RTVSPropertyOp21
 70
     1
102
RTVSPropertyOp22
 70
     1
102
RTVSPropertyOp23
 70
     1
102
RTVSPropertyOp24
 70
     1
102
RTVSPropertyOp25
 70
     1
102
RTVSPropertyOp26
 70
     1
102
RTVSPropertyOp27
 70
     1
102
RTVSPropertyOp28
 70
     1
102
RTVSPropertyOp29
 70
     1
102
RTVSPropertyOp30
 70
     1
102
RTVSPropertyOp31
 70
     1
102
RTVSPropertyOp32
 70
     1
102
RTVSPropertyOp33
 70
     1
102
RTVSPropertyOp34
 70
     1
102
RTVSPropertyOp35
 70
     1
102
RTVSPropertyOp36
 70
     1
102
RTVSPropertyOp37
 70
     1
102
RTVSPropertyOp38
 70
     1
102
RTVSPropertyOp39
 70
     1
102
RTVSPropertyOp40
 70
     1
102
RTVSPropertyOp41
 70
     1
102
RTVSPropertyOp42
 70
     1
102
RTVSPropertyOp43
 70
     1
102
RTVSPropertyOp44
 70
     1
102
RTVSPropertyOp45
 70
     1
102
RTVSPropertyOp46
 70
     1
102
RTVSPropertyOp47
 70
     1
102
RTVSPropertyOp48
 70
     1
102
RTVSPropertyOp49
 70
     1
102
RTVSPropertyOp50
 70
     1
102
RTVSPropertyOp51
 70
     0
102
RTVSPropertyOp52
 70
     0
102
RTVSPropertyOp53
 70
     1
102
RTVSPropertyOp54
 70
     1
102
RTVSPropertyOp55
 70
     1
102
RTVSPropertyOp56
 70
     1
102
RTVSPropertyOp57
 70
     1
102
RTVSPropertyOp58
 70
     1
102
RTVSPropertyOp59
 70
     1
102
RTVSPropertyOp60
 70
     1
102
RTVSPropertyOp61
 70
     1
102
RTVSPropertyOp62
 70
     1
  0
XRECORD
  5
5432
102
{ACAD_REACTORS
330
5431
102
}
330
5431
100
AcDbXrecord
280
     1
102
RTVSPost2010Prop28
280
     0
102
RTVSPost2010PropOp28
 70
     1
102
RTVSPost2010Prop29
280
     1
102
RTVSPost2010PropOp29
 70
     1
102
RTVSPost2010Prop30
280
     1
102
RTVSPost2010PropOp30
 70
     1
102
RTVSPost2010Prop31
280
     0
102
RTVSPost2010PropOp31
 70
     1
102
RTVSPost2010Prop32
280
     0
102
RTVSPost2010PropOp32
 70
     1
102
RTVSPost2010Prop33
280
     0
102
RTVSPost2010PropOp33
 70
     1
102
RTVSPost2010Prop34
280
     0
102
RTVSPost2010PropOp34
 70
     1
102
RTVSPost2010Prop35
280
     0
102
RTVSPost2010PropOp35
 70
     1
102
RTVSPost2010Prop36
280
     0
102
RTVSPost2010PropOp36
 70
     1
102
RTVSPost2010Prop37
 90
       50
102
RTVSPost2010PropOp37
 70
     1
102
RTVSPost2010Prop38
140
0.0
102
RTVSPost2010PropOp38
 70
     1
102
RTVSPost2010Prop39
140
1.0
102
RTVSPost2010PropOp39
 70
     1
102
RTVSPost2010Prop40
 90
        0
102
RTVSPost2010PropOp40
 70
     1
102
RTVSPost2010Prop41ColorIndex
 90
       18
102
RTVSPost2010Prop41ColorRGB
 90
        0
102
RTVSPost2010PropOp41
 70
     1
102
RTVSPost2010Prop42
 90
       50
102
RTVSPost2010PropOp42
 70
     1
102
RTVSPost2010Prop43
 90
        3
102
RTVSPost2010PropOp43
 70
     1
102
RTVSPost2010Prop44ColorIndex
 90
        5
102
RTVSPost2010Prop44ColorRGB
 90
      255
102
RTVSPost2010PropOp44
 70
     1
102
RTVSPost2010Prop45
280
     0
102
RTVSPost2010PropOp45
 70
     1
102
RTVSPost2010Prop46
 90
       50
102
RTVSPost2010PropOp46
 70
     1
102
RTVSPost2010Prop47
 90
       50
102
RTVSPost2010PropOp47
 70
     1
102
RTVSPost2010Prop48
 90
       50
102
RTVSPost2010PropOp48
 70
     1
102
RTVSPost2010Prop49
280
     0
102
RTVSPost2010PropOp49
 70
     1
102
RTVSPost2010Prop50
 90
       50
102
RTVSPost2010PropOp50
 70
     1
102
RTVSPost2010Prop51ColorIndex
 90
      256
102
RTVSPost2010Prop51ColorRGB
 90
-16777216
102
RTVSPost2010PropOp51
 70
     0
102
RTVSPost2010Prop52
140
1.0
102
RTVSPost2010PropOp52
 70
     0
102
RTVSPost2010Prop53
 90
        2
102
RTVSPost2010PropOp53
 70
     1
102
RTVSPost2010Prop54
  1
strokes_ogs.tif
102
RTVSPost2010PropOp54
 70
     1
102
RTVSPost2010Prop55
280
     0
102
RTVSPost2010PropOp55
 70
     1
102
RTVSPost2010Prop56
140
1.0
102
RTVSPost2010PropOp56
 70
     1
102
RTVSPost2010Prop57
140
1.0
102
RTVSPost2010PropOp57
 70
     1
102
RTVSPropertyOp0
 70
     1
102
RTVSPropertyOp1
 70
     1
102
RTVSPropertyOp2
 70
     1
102
RTVSPropertyOp3
 70
     1
102
RTVSPropertyOp4
 70
     1
102
RTVSPropertyOp5
 70
     1
102
RTVSPropertyOp6
 70
     1
102
RTVSPropertyOp7
 70
     1
102
RTVSPropertyOp8
 70
     1
102
RTVSPropertyOp9
 70
     1
102
RTVSPropertyOp10
 70
     1
102
RTVSPropertyOp11
 70
     1
102
RTVSPropertyOp12
 70
     1
102
RTVSPropertyOp13
 70
     1
102
RTVSPropertyOp14
 70
     1
102
RTVSPropertyOp15
 70
     1
102
RTVSPropertyOp16
 70
     1
102
RTVSPropertyOp17
 70
     1
102
RTVSPropertyOp18
 70
     1
102
RTVSPropertyOp19
 70
     1
102
RTVSPropertyOp20
 70
     1
102
RTVSPropertyOp21
 70
     1
102
RTVSPropertyOp22
 70
     1
102
RTVSPropertyOp23
 70
     1
102
RTVSPropertyOp24
 70
     1
102
RTVSPropertyOp25
 70
     1
102
RTVSPropertyOp26
 70
     1
102
RTVSPropertyOp27
 70
     1
102
RTVSPropertyOp28
 70
     1
102
RTVSPropertyOp29
 70
     1
102
RTVSPropertyOp30
 70
     1
102
RTVSPropertyOp31
 70
     1
102
RTVSPropertyOp32
 70
     1
102
RTVSPropertyOp33
 70
     1
102
RTVSPropertyOp34
 70
     1
102
RTVSPropertyOp35
 70
     1
102
RTVSPropertyOp36
 70
     1
102
RTVSPropertyOp37
 70
     1
102
RTVSPropertyOp38
 70
     1
102
RTVSPropertyOp39
 70
     1
102
RTVSPropertyOp40
 70
     1
102
RTVSPropertyOp41
 70
     1
102
RTVSPropertyOp42
 70
     1
102
RTVSPropertyOp43
 70
     1
102
RTVSPropertyOp44
 70
     1
102
RTVSPropertyOp45
 70
     1
102
RTVSPropertyOp46
 70
     1
102
RTVSPropertyOp47
 70
     1
102
RTVSPropertyOp48
 70
     1
102
RTVSPropertyOp49
 70
     1
102
RTVSPropertyOp50
 70
     1
102
RTVSPropertyOp51
 70
     0
102
RTVSPropertyOp52
 70
     0
102
RTVSPropertyOp53
 70
     1
102
RTVSPropertyOp54
 70
     1
102
RTVSPropertyOp55
 70
     1
102
RTVSPropertyOp56
 70
     1
102
RTVSPropertyOp57
 70
     1
102
RTVSPropertyOp58
 70
     1
102
RTVSPropertyOp59
 70
     1
102
RTVSPropertyOp60
 70
     1
102
RTVSPropertyOp61
 70
     1
102
RTVSPropertyOp62
 70
     1
  0
XRECORD
  5
543A
102
{ACAD_REACTORS
330
5439
102
}
330
5439
100
AcDbXrecord
280
     1
102
RTVSPost2010Prop28
280
     0
102
RTVSPost2010PropOp28
 70
     1
102
RTVSPost2010Prop29
280
     1
102
RTVSPost2010PropOp29
 70
     1
102
RTVSPost2010Prop30
280
     1
102
RTVSPost2010PropOp30
 70
     1
102
RTVSPost2010Prop31
280
     0
102
RTVSPost2010PropOp31
 70
     1
102
RTVSPost2010Prop32
280
     0
102
RTVSPost2010PropOp32
 70
     1
102
RTVSPost2010Prop33
280
     0
102
RTVSPost2010PropOp33
 70
     1
102
RTVSPost2010Prop34
280
     0
102
RTVSPost2010PropOp34
 70
     1
102
RTVSPost2010Prop35
280
     0
102
RTVSPost2010PropOp35
 70
     1
102
RTVSPost2010Prop36
280
     0
102
RTVSPost2010PropOp36
 70
     1
102
RTVSPost2010Prop37
 90
       50
102
RTVSPost2010PropOp37
 70
     1
102
RTVSPost2010Prop38
140
0.0
102
RTVSPost2010PropOp38
 70
     1
102
RTVSPost2010Prop39
140
1.0
102
RTVSPost2010PropOp39
 70
     1
102
RTVSPost2010Prop40
 90
        0
102
RTVSPost2010PropOp40
 70
     1
102
RTVSPost2010Prop41ColorIndex
 90
       18
102
RTVSPost2010Prop41ColorRGB
 90
        0
102
RTVSPost2010PropOp41
 70
     1
102
RTVSPost2010Prop42
 90
       50
102
RTVSPost2010PropOp42
 70
     1
102
RTVSPost2010Prop43
 90
        3
102
RTVSPost2010PropOp43
 70
     1
102
RTVSPost2010Prop44ColorIndex
 90
        5
102
RTVSPost2010Prop44ColorRGB
 90
      255
102
RTVSPost2010PropOp44
 70
     1
102
RTVSPost2010Prop45
280
     0
102
RTVSPost2010PropOp45
 70
     1
102
RTVSPost2010Prop46
 90
       50
102
RTVSPost2010PropOp46
 70
     1
102
RTVSPost2010Prop47
 90
       50
102
RTVSPost2010PropOp47
 70
     1
102
RTVSPost2010Prop48
 90
       50
102
RTVSPost2010PropOp48
 70
     1
102
RTVSPost2010Prop49
280
     0
102
RTVSPost2010PropOp49
 70
     1
102
RTVSPost2010Prop50
 90
       50
102
RTVSPost2010PropOp50
 70
     1
102
RTVSPost2010Prop51ColorIndex
 90
      256
102
RTVSPost2010Prop51ColorRGB
 90
-16777216
102
RTVSPost2010PropOp51
 70
     0
102
RTVSPost2010Prop52
140
1.0
102
RTVSPost2010PropOp52
 70
     0
102
RTVSPost2010Prop53
 90
        2
102
RTVSPost2010PropOp53
 70
     1
102
RTVSPost2010Prop54
  1
strokes_ogs.tif
102
RTVSPost2010PropOp54
 70
     1
102
RTVSPost2010Prop55
280
     0
102
RTVSPost2010PropOp55
 70
     1
102
RTVSPost2010Prop56
140
1.0
102
RTVSPost2010PropOp56
 70
     1
102
RTVSPost2010Prop57
140
1.0
102
RTVSPost2010PropOp57
 70
     1
102
RTVSPropertyOp0
 70
     1
102
RTVSPropertyOp1
 70
     1
102
RTVSPropertyOp2
 70
     1
102
RTVSPropertyOp3
 70
     1
102
RTVSPropertyOp4
 70
     1
102
RTVSPropertyOp5
 70
     1
102
RTVSPropertyOp6
 70
     1
102
RTVSPropertyOp7
 70
     1
102
RTVSPropertyOp8
 70
     1
102
RTVSPropertyOp9
 70
     1
102
RTVSPropertyOp10
 70
     1
102
RTVSPropertyOp11
 70
     1
102
RTVSPropertyOp12
 70
     1
102
RTVSPropertyOp13
 70
     1
102
RTVSPropertyOp14
 70
     1
102
RTVSPropertyOp15
 70
     1
102
RTVSPropertyOp16
 70
     1
102
RTVSPropertyOp17
 70
     1
102
RTVSPropertyOp18
 70
     1
102
RTVSPropertyOp19
 70
     1
102
RTVSPropertyOp20
 70
     1
102
RTVSPropertyOp21
 70
     1
102
RTVSPropertyOp22
 70
     1
102
RTVSPropertyOp23
 70
     1
102
RTVSPropertyOp24
 70
     1
102
RTVSPropertyOp25
 70
     1
102
RTVSPropertyOp26
 70
     1
102
RTVSPropertyOp27
 70
     1
102
RTVSPropertyOp28
 70
     1
102
RTVSPropertyOp29
 70
     1
102
RTVSPropertyOp30
 70
     1
102
RTVSPropertyOp31
 70
     1
102
RTVSPropertyOp32
 70
     1
102
RTVSPropertyOp33
 70
     1
102
RTVSPropertyOp34
 70
     1
102
RTVSPropertyOp35
 70
     1
102
RTVSPropertyOp36
 70
     1
102
RTVSPropertyOp37
 70
     1
102
RTVSPropertyOp38
 70
     1
102
RTVSPropertyOp39
 70
     1
102
RTVSPropertyOp40
 70
     1
102
RTVSPropertyOp41
 70
     1
102
RTVSPropertyOp42
 70
     1
102
RTVSPropertyOp43
 70
     1
102
RTVSPropertyOp44
 70
     1
102
RTVSPropertyOp45
 70
     1
102
RTVSPropertyOp46
 70
     1
102
RTVSPropertyOp47
 70
     1
102
RTVSPropertyOp48
 70
     1
102
RTVSPropertyOp49
 70
     1
102
RTVSPropertyOp50
 70
     1
102
RTVSPropertyOp51
 70
     0
102
RTVSPropertyOp52
 70
     0
102
RTVSPropertyOp53
 70
     1
102
RTVSPropertyOp54
 70
     1
102
RTVSPropertyOp55
 70
     1
102
RTVSPropertyOp56
 70
     1
102
RTVSPropertyOp57
 70
     1
102
RTVSPropertyOp58
 70
     1
102
RTVSPropertyOp59
 70
     1
102
RTVSPropertyOp60
 70
     1
102
RTVSPropertyOp61
 70
     1
102
RTVSPropertyOp62
 70
     1
  0
XRECORD
  5
5456
102
{ACAD_REACTORS
330
5455
102
}
330
5455
100
AcDbXrecord
280
     1
102
RTVSPost2010Prop28
280
     0
102
RTVSPost2010PropOp28
 70
     1
102
RTVSPost2010Prop29
280
     1
102
RTVSPost2010PropOp29
 70
     1
102
RTVSPost2010Prop30
280
     1
102
RTVSPost2010PropOp30
 70
     1
102
RTVSPost2010Prop31
280
     0
102
RTVSPost2010PropOp31
 70
     1
102
RTVSPost2010Prop32
280
     0
102
RTVSPost2010PropOp32
 70
     1
102
RTVSPost2010Prop33
280
     0
102
RTVSPost2010PropOp33
 70
     1
102
RTVSPost2010Prop34
280
     0
102
RTVSPost2010PropOp34
 70
     1
102
RTVSPost2010Prop35
280
     0
102
RTVSPost2010PropOp35
 70
     1
102
RTVSPost2010Prop36
280
     0
102
RTVSPost2010PropOp36
 70
     1
102
RTVSPost2010Prop37
 90
       50
102
RTVSPost2010PropOp37
 70
     0
102
RTVSPost2010Prop38
140
0.0
102
RTVSPost2010PropOp38
 70
     0
102
RTVSPost2010Prop39
140
1.0
102
RTVSPost2010PropOp39
 70
     0
102
RTVSPost2010Prop40
 90
        0
102
RTVSPost2010PropOp40
 70
     0
102
RTVSPost2010Prop41ColorIndex
 90
       18
102
RTVSPost2010Prop41ColorRGB
 90
        0
102
RTVSPost2010PropOp41
 70
     0
102
RTVSPost2010Prop42
 90
       50
102
RTVSPost2010PropOp42
 70
     0
102
RTVSPost2010Prop43
 90
        3
102
RTVSPost2010PropOp43
 70
     0
102
RTVSPost2010Prop44ColorIndex
 90
        5
102
RTVSPost2010Prop44ColorRGB
 90
      255
102
RTVSPost2010PropOp44
 70
     0
102
RTVSPost2010Prop45
280
     0
102
RTVSPost2010PropOp45
 70
     1
102
RTVSPost2010Prop46
 90
       50
102
RTVSPost2010PropOp46
 70
     0
102
RTVSPost2010Prop47
 90
       50
102
RTVSPost2010PropOp47
 70
     0
102
RTVSPost2010Prop48
 90
       50
102
RTVSPost2010PropOp48
 70
     0
102
RTVSPost2010Prop49
280
     0
102
RTVSPost2010PropOp49
 70
     1
102
RTVSPost2010Prop50
 90
       50
102
RTVSPost2010PropOp50
 70
     0
102
RTVSPost2010Prop51ColorIndex
 90
      256
102
RTVSPost2010Prop51ColorRGB
 90
-16777216
102
RTVSPost2010PropOp51
 70
     0
102
RTVSPost2010Prop52
140
1.0
102
RTVSPost2010PropOp52
 70
     0
102
RTVSPost2010Prop53
 90
        2
102
RTVSPost2010PropOp53
 70
     0
102
RTVSPost2010Prop54
  1
strokes_ogs.tif
102
RTVSPost2010PropOp54
 70
     0
102
RTVSPost2010Prop55
280
     0
102
RTVSPost2010PropOp55
 70
     1
102
RTVSPost2010Prop56
140
1.0
102
RTVSPost2010PropOp56
 70
     0
102
RTVSPost2010Prop57
140
1.0
102
RTVSPost2010PropOp57
 70
     0
102
RTVSPropertyOp0
 70
     0
102
RTVSPropertyOp1
 70
     0
102
RTVSPropertyOp2
 70
     0
102
RTVSPropertyOp3
 70
     0
102
RTVSPropertyOp4
 70
     0
102
RTVSPropertyOp5
 70
     0
102
RTVSPropertyOp6
 70
     0
102
RTVSPropertyOp7
 70
     0
102
RTVSPropertyOp8
 70
     0
102
RTVSPropertyOp9
 70
     0
102
RTVSPropertyOp10
 70
     0
102
RTVSPropertyOp11
 70
     0
102
RTVSPropertyOp12
 70
     0
102
RTVSPropertyOp13
 70
     0
102
RTVSPropertyOp14
 70
     2
102
RTVSPropertyOp15
 70
     0
102
RTVSPropertyOp16
 70
     0
102
RTVSPropertyOp17
 70
     0
102
RTVSPropertyOp18
 70
     0
102
RTVSPropertyOp19
 70
     0
102
RTVSPropertyOp20
 70
     0
102
RTVSPropertyOp21
 70
     0
102
RTVSPropertyOp22
 70
     0
102
RTVSPropertyOp23
 70
     0
102
RTVSPropertyOp24
 70
     0
102
RTVSPropertyOp25
 70
     0
102
RTVSPropertyOp26
 70
     0
102
RTVSPropertyOp27
 70
     0
102
RTVSPropertyOp28
 70
     1
102
RTVSPropertyOp29
 70
     1
102
RTVSPropertyOp30
 70
     1
102
RTVSPropertyOp31
 70
     1
102
RTVSPropertyOp32
 70
     1
102
RTVSPropertyOp33
 70
     1
102
RTVSPropertyOp34
 70
     1
102
RTVSPropertyOp35
 70
     1
102
RTVSPropertyOp36
 70
     1
102
RTVSPropertyOp37
 70
     0
102
RTVSPropertyOp38
 70
     0
102
RTVSPropertyOp39
 70
     0
102
RTVSPropertyOp40
 70
     0
102
RTVSPropertyOp41
 70
     0
102
RTVSPropertyOp42
 70
     0
102
RTVSPropertyOp43
 70
     0
102
RTVSPropertyOp44
 70
     0
102
RTVSPropertyOp45
 70
     1
102
RTVSPropertyOp46
 70
     0
102
RTVSPropertyOp47
 70
     0
102
RTVSPropertyOp48
 70
     0
102
RTVSPropertyOp49
 70
     1
102
RTVSPropertyOp50
 70
     0
102
RTVSPropertyOp51
 70
     0
102
RTVSPropertyOp52
 70
     0
102
RTVSPropertyOp53
 70
     0
102
RTVSPropertyOp54
 70
     0
102
RTVSPropertyOp55
 70
     1
102
RTVSPropertyOp56
 70
     0
102
RTVSPropertyOp57
 70
     0
102
RTVSPropertyOp58
 70
     0
102
RTVSPropertyOp59
 70
     0
102
RTVSPropertyOp60
 70
     0
102
RTVSPropertyOp61
 70
     0
102
RTVSPropertyOp62
 70
     0
  0
XRECORD
  5
5446
102
{ACAD_REACTORS
330
5445
102
}
330
5445
100
AcDbXrecord
280
     1
102
RTVSPost2010Prop28
280
     0
102
RTVSPost2010PropOp28
 70
     1
102
RTVSPost2010Prop29
280
     1
102
RTVSPost2010PropOp29
 70
     1
102
RTVSPost2010Prop30
280
     1
102
RTVSPost2010PropOp30
 70
     1
102
RTVSPost2010Prop31
280
     0
102
RTVSPost2010PropOp31
 70
     1
102
RTVSPost2010Prop32
280
     0
102
RTVSPost2010PropOp32
 70
     1
102
RTVSPost2010Prop33
280
     0
102
RTVSPost2010PropOp33
 70
     1
102
RTVSPost2010Prop34
280
     0
102
RTVSPost2010PropOp34
 70
     1
102
RTVSPost2010Prop35
280
     0
102
RTVSPost2010PropOp35
 70
     1
102
RTVSPost2010Prop36
280
     0
102
RTVSPost2010PropOp36
 70
     1
102
RTVSPost2010Prop37
 90
       50
102
RTVSPost2010PropOp37
 70
     1
102
RTVSPost2010Prop38
140
0.0
102
RTVSPost2010PropOp38
 70
     1
102
RTVSPost2010Prop39
140
1.0
102
RTVSPost2010PropOp39
 70
     1
102
RTVSPost2010Prop40
 90
        0
102
RTVSPost2010PropOp40
 70
     1
102
RTVSPost2010Prop41ColorIndex
 90
       18
102
RTVSPost2010Prop41ColorRGB
 90
        0
102
RTVSPost2010PropOp41
 70
     1
102
RTVSPost2010Prop42
 90
       50
102
RTVSPost2010PropOp42
 70
     1
102
RTVSPost2010Prop43
 90
        3
102
RTVSPost2010PropOp43
 70
     1
102
RTVSPost2010Prop44ColorIndex
 90
        5
102
RTVSPost2010Prop44ColorRGB
 90
      255
102
RTVSPost2010PropOp44
 70
     1
102
RTVSPost2010Prop45
280
     0
102
RTVSPost2010PropOp45
 70
     1
102
RTVSPost2010Prop46
 90
       50
102
RTVSPost2010PropOp46
 70
     1
102
RTVSPost2010Prop47
 90
       50
102
RTVSPost2010PropOp47
 70
     1
102
RTVSPost2010Prop48
 90
       50
102
RTVSPost2010PropOp48
 70
     1
102
RTVSPost2010Prop49
280
     0
102
RTVSPost2010PropOp49
 70
     1
102
RTVSPost2010Prop50
 90
       50
102
RTVSPost2010PropOp50
 70
     1
102
RTVSPost2010Prop51ColorIndex
 90
      256
102
RTVSPost2010Prop51ColorRGB
 90
-16777216
102
RTVSPost2010PropOp51
 70
     0
102
RTVSPost2010Prop52
140
1.0
102
RTVSPost2010PropOp52
 70
     0
102
RTVSPost2010Prop53
 90
        2
102
RTVSPost2010PropOp53
 70
     1
102
RTVSPost2010Prop54
  1
strokes_ogs.tif
102
RTVSPost2010PropOp54
 70
     1
102
RTVSPost2010Prop55
280
     0
102
RTVSPost2010PropOp55
 70
     1
102
RTVSPost2010Prop56
140
1.0
102
RTVSPost2010PropOp56
 70
     1
102
RTVSPost2010Prop57
140
1.0
102
RTVSPost2010PropOp57
 70
     1
102
RTVSPropertyOp0
 70
     1
102
RTVSPropertyOp1
 70
     1
102
RTVSPropertyOp2
 70
     1
102
RTVSPropertyOp3
 70
     1
102
RTVSPropertyOp4
 70
     1
102
RTVSPropertyOp5
 70
     1
102
RTVSPropertyOp6
 70
     1
102
RTVSPropertyOp7
 70
     1
102
RTVSPropertyOp8
 70
     1
102
RTVSPropertyOp9
 70
     1
102
RTVSPropertyOp10
 70
     1
102
RTVSPropertyOp11
 70
     1
102
RTVSPropertyOp12
 70
     1
102
RTVSPropertyOp13
 70
     1
102
RTVSPropertyOp14
 70
     1
102
RTVSPropertyOp15
 70
     1
102
RTVSPropertyOp16
 70
     1
102
RTVSPropertyOp17
 70
     1
102
RTVSPropertyOp18
 70
     1
102
RTVSPropertyOp19
 70
     1
102
RTVSPropertyOp20
 70
     1
102
RTVSPropertyOp21
 70
     1
102
RTVSPropertyOp22
 70
     1
102
RTVSPropertyOp23
 70
     1
102
RTVSPropertyOp24
 70
     1
102
RTVSPropertyOp25
 70
     1
102
RTVSPropertyOp26
 70
     1
102
RTVSPropertyOp27
 70
     1
102
RTVSPropertyOp28
 70
     1
102
RTVSPropertyOp29
 70
     1
102
RTVSPropertyOp30
 70
     1
102
RTVSPropertyOp31
 70
     1
102
RTVSPropertyOp32
 70
     1
102
RTVSPropertyOp33
 70
     1
102
RTVSPropertyOp34
 70
     1
102
RTVSPropertyOp35
 70
     1
102
RTVSPropertyOp36
 70
     1
102
RTVSPropertyOp37
 70
     1
102
RTVSPropertyOp38
 70
     1
102
RTVSPropertyOp39
 70
     1
102
RTVSPropertyOp40
 70
     1
102
RTVSPropertyOp41
 70
     1
102
RTVSPropertyOp42
 70
     1
102
RTVSPropertyOp43
 70
     1
102
RTVSPropertyOp44
 70
     1
102
RTVSPropertyOp45
 70
     1
102
RTVSPropertyOp46
 70
     1
102
RTVSPropertyOp47
 70
     1
102
RTVSPropertyOp48
 70
     1
102
RTVSPropertyOp49
 70
     1
102
RTVSPropertyOp50
 70
     1
102
RTVSPropertyOp51
 70
     0
102
RTVSPropertyOp52
 70
     0
102
RTVSPropertyOp53
 70
     1
102
RTVSPropertyOp54
 70
     1
102
RTVSPropertyOp55
 70
     1
102
RTVSPropertyOp56
 70
     1
102
RTVSPropertyOp57
 70
     1
102
RTVSPropertyOp58
 70
     1
102
RTVSPropertyOp59
 70
     1
102
RTVSPropertyOp60
 70
     1
102
RTVSPropertyOp61
 70
     1
102
RTVSPropertyOp62
 70
     1
  0
XRECORD
  5
5458
102
{ACAD_REACTORS
330
5457
102
}
330
5457
100
AcDbXrecord
280
     1
102
RTVSPost2010Prop28
280
     0
102
RTVSPost2010PropOp28
 70
     1
102
RTVSPost2010Prop29
280
     1
102
RTVSPost2010PropOp29
 70
     1
102
RTVSPost2010Prop30
280
     1
102
RTVSPost2010PropOp30
 70
     1
102
RTVSPost2010Prop31
280
     0
102
RTVSPost2010PropOp31
 70
     1
102
RTVSPost2010Prop32
280
     0
102
RTVSPost2010PropOp32
 70
     1
102
RTVSPost2010Prop33
280
     0
102
RTVSPost2010PropOp33
 70
     1
102
RTVSPost2010Prop34
280
     0
102
RTVSPost2010PropOp34
 70
     1
102
RTVSPost2010Prop35
280
     0
102
RTVSPost2010PropOp35
 70
     1
102
RTVSPost2010Prop36
280
     0
102
RTVSPost2010PropOp36
 70
     1
102
RTVSPost2010Prop37
 90
       50
102
RTVSPost2010PropOp37
 70
     0
102
RTVSPost2010Prop38
140
0.0
102
RTVSPost2010PropOp38
 70
     0
102
RTVSPost2010Prop39
140
1.0
102
RTVSPost2010PropOp39
 70
     0
102
RTVSPost2010Prop40
 90
        0
102
RTVSPost2010PropOp40
 70
     0
102
RTVSPost2010Prop41ColorIndex
 90
       18
102
RTVSPost2010Prop41ColorRGB
 90
        0
102
RTVSPost2010PropOp41
 70
     0
102
RTVSPost2010Prop42
 90
       50
102
RTVSPost2010PropOp42
 70
     0
102
RTVSPost2010Prop43
 90
        3
102
RTVSPost2010PropOp43
 70
     0
102
RTVSPost2010Prop44ColorIndex
 90
        5
102
RTVSPost2010Prop44ColorRGB
 90
      255
102
RTVSPost2010PropOp44
 70
     0
102
RTVSPost2010Prop45
280
     0
102
RTVSPost2010PropOp45
 70
     1
102
RTVSPost2010Prop46
 90
       50
102
RTVSPost2010PropOp46
 70
     0
102
RTVSPost2010Prop47
 90
       50
102
RTVSPost2010PropOp47
 70
     0
102
RTVSPost2010Prop48
 90
       50
102
RTVSPost2010PropOp48
 70
     0
102
RTVSPost2010Prop49
280
     0
102
RTVSPost2010PropOp49
 70
     1
102
RTVSPost2010Prop50
 90
       50
102
RTVSPost2010PropOp50
 70
     0
102
RTVSPost2010Prop51ColorIndex
 90
      256
102
RTVSPost2010Prop51ColorRGB
 90
-16777216
102
RTVSPost2010PropOp51
 70
     0
102
RTVSPost2010Prop52
140
1.0
102
RTVSPost2010PropOp52
 70
     0
102
RTVSPost2010Prop53
 90
        2
102
RTVSPost2010PropOp53
 70
     0
102
RTVSPost2010Prop54
  1
strokes_ogs.tif
102
RTVSPost2010PropOp54
 70
     0
102
RTVSPost2010Prop55
280
     0
102
RTVSPost2010PropOp55
 70
     1
102
RTVSPost2010Prop56
140
1.0
102
RTVSPost2010PropOp56
 70
     0
102
RTVSPost2010Prop57
140
1.0
102
RTVSPost2010PropOp57
 70
     0
102
RTVSPropertyOp0
 70
     0
102
RTVSPropertyOp1
 70
     0
102
RTVSPropertyOp2
 70
     0
102
RTVSPropertyOp3
 70
     0
102
RTVSPropertyOp4
 70
     0
102
RTVSPropertyOp5
 70
     0
102
RTVSPropertyOp6
 70
     0
102
RTVSPropertyOp7
 70
     0
102
RTVSPropertyOp8
 70
     0
102
RTVSPropertyOp9
 70
     0
102
RTVSPropertyOp10
 70
     0
102
RTVSPropertyOp11
 70
     0
102
RTVSPropertyOp12
 70
     0
102
RTVSPropertyOp13
 70
     0
102
RTVSPropertyOp14
 70
     2
102
RTVSPropertyOp15
 70
     0
102
RTVSPropertyOp16
 70
     0
102
RTVSPropertyOp17
 70
     0
102
RTVSPropertyOp18
 70
     0
102
RTVSPropertyOp19
 70
     0
102
RTVSPropertyOp20
 70
     0
102
RTVSPropertyOp21
 70
     0
102
RTVSPropertyOp22
 70
     0
102
RTVSPropertyOp23
 70
     0
102
RTVSPropertyOp24
 70
     0
102
RTVSPropertyOp25
 70
     0
102
RTVSPropertyOp26
 70
     0
102
RTVSPropertyOp27
 70
     0
102
RTVSPropertyOp28
 70
     1
102
RTVSPropertyOp29
 70
     1
102
RTVSPropertyOp30
 70
     1
102
RTVSPropertyOp31
 70
     1
102
RTVSPropertyOp32
 70
     1
102
RTVSPropertyOp33
 70
     1
102
RTVSPropertyOp34
 70
     1
102
RTVSPropertyOp35
 70
     1
102
RTVSPropertyOp36
 70
     1
102
RTVSPropertyOp37
 70
     0
102
RTVSPropertyOp38
 70
     0
102
RTVSPropertyOp39
 70
     0
102
RTVSPropertyOp40
 70
     0
102
RTVSPropertyOp41
 70
     0
102
RTVSPropertyOp42
 70
     0
102
RTVSPropertyOp43
 70
     0
102
RTVSPropertyOp44
 70
     0
102
RTVSPropertyOp45
 70
     1
102
RTVSPropertyOp46
 70
     0
102
RTVSPropertyOp47
 70
     0
102
RTVSPropertyOp48
 70
     0
102
RTVSPropertyOp49
 70
     1
102
RTVSPropertyOp50
 70
     0
102
RTVSPropertyOp51
 70
     0
102
RTVSPropertyOp52
 70
     0
102
RTVSPropertyOp53
 70
     0
102
RTVSPropertyOp54
 70
     0
102
RTVSPropertyOp55
 70
     1
102
RTVSPropertyOp56
 70
     0
102
RTVSPropertyOp57
 70
     0
102
RTVSPropertyOp58
 70
     0
102
RTVSPropertyOp59
 70
     0
102
RTVSPropertyOp60
 70
     0
102
RTVSPropertyOp61
 70
     0
102
RTVSPropertyOp62
 70
     0
  0
XRECORD
  5
543E
102
{ACAD_REACTORS
330
543D
102
}
330
543D
100
AcDbXrecord
280
     1
102
RTVSPost2010Prop28
280
     0
102
RTVSPost2010PropOp28
 70
     1
102
RTVSPost2010Prop29
280
     1
102
RTVSPost2010PropOp29
 70
     1
102
RTVSPost2010Prop30
280
     1
102
RTVSPost2010PropOp30
 70
     1
102
RTVSPost2010Prop31
280
     0
102
RTVSPost2010PropOp31
 70
     1
102
RTVSPost2010Prop32
280
     0
102
RTVSPost2010PropOp32
 70
     1
102
RTVSPost2010Prop33
280
     0
102
RTVSPost2010PropOp33
 70
     1
102
RTVSPost2010Prop34
280
     0
102
RTVSPost2010PropOp34
 70
     1
102
RTVSPost2010Prop35
280
     0
102
RTVSPost2010PropOp35
 70
     1
102
RTVSPost2010Prop36
280
     0
102
RTVSPost2010PropOp36
 70
     1
102
RTVSPost2010Prop37
 90
       50
102
RTVSPost2010PropOp37
 70
     1
102
RTVSPost2010Prop38
140
0.0
102
RTVSPost2010PropOp38
 70
     1
102
RTVSPost2010Prop39
140
1.0
102
RTVSPost2010PropOp39
 70
     1
102
RTVSPost2010Prop40
 90
        0
102
RTVSPost2010PropOp40
 70
     1
102
RTVSPost2010Prop41ColorIndex
 90
       18
102
RTVSPost2010Prop41ColorRGB
 90
        0
102
RTVSPost2010PropOp41
 70
     1
102
RTVSPost2010Prop42
 90
       50
102
RTVSPost2010PropOp42
 70
     1
102
RTVSPost2010Prop43
 90
        3
102
RTVSPost2010PropOp43
 70
     1
102
RTVSPost2010Prop44ColorIndex
 90
        5
102
RTVSPost2010Prop44ColorRGB
 90
      255
102
RTVSPost2010PropOp44
 70
     1
102
RTVSPost2010Prop45
280
     0
102
RTVSPost2010PropOp45
 70
     1
102
RTVSPost2010Prop46
 90
       50
102
RTVSPost2010PropOp46
 70
     1
102
RTVSPost2010Prop47
 90
       50
102
RTVSPost2010PropOp47
 70
     1
102
RTVSPost2010Prop48
 90
       50
102
RTVSPost2010PropOp48
 70
     1
102
RTVSPost2010Prop49
280
     0
102
RTVSPost2010PropOp49
 70
     1
102
RTVSPost2010Prop50
 90
       50
102
RTVSPost2010PropOp50
 70
     1
102
RTVSPost2010Prop51ColorIndex
 90
      256
102
RTVSPost2010Prop51ColorRGB
 90
-16777216
102
RTVSPost2010PropOp51
 70
     0
102
RTVSPost2010Prop52
140
1.0
102
RTVSPost2010PropOp52
 70
     0
102
RTVSPost2010Prop53
 90
        2
102
RTVSPost2010PropOp53
 70
     1
102
RTVSPost2010Prop54
  1
strokes_ogs.tif
102
RTVSPost2010PropOp54
 70
     1
102
RTVSPost2010Prop55
280
     0
102
RTVSPost2010PropOp55
 70
     1
102
RTVSPost2010Prop56
140
1.0
102
RTVSPost2010PropOp56
 70
     1
102
RTVSPost2010Prop57
140
1.0
102
RTVSPost2010PropOp57
 70
     1
102
RTVSPropertyOp0
 70
     1
102
RTVSPropertyOp1
 70
     1
102
RTVSPropertyOp2
 70
     1
102
RTVSPropertyOp3
 70
     1
102
RTVSPropertyOp4
 70
     1
102
RTVSPropertyOp5
 70
     1
102
RTVSPropertyOp6
 70
     1
102
RTVSPropertyOp7
 70
     1
102
RTVSPropertyOp8
 70
     1
102
RTVSPropertyOp9
 70
     1
102
RTVSPropertyOp10
 70
     1
102
RTVSPropertyOp11
 70
     1
102
RTVSPropertyOp12
 70
     1
102
RTVSPropertyOp13
 70
     1
102
RTVSPropertyOp14
 70
     1
102
RTVSPropertyOp15
 70
     1
102
RTVSPropertyOp16
 70
     1
102
RTVSPropertyOp17
 70
     1
102
RTVSPropertyOp18
 70
     1
102
RTVSPropertyOp19
 70
     1
102
RTVSPropertyOp20
 70
     1
102
RTVSPropertyOp21
 70
     1
102
RTVSPropertyOp22
 70
     1
102
RTVSPropertyOp23
 70
     1
102
RTVSPropertyOp24
 70
     1
102
RTVSPropertyOp25
 70
     1
102
RTVSPropertyOp26
 70
     1
102
RTVSPropertyOp27
 70
     1
102
RTVSPropertyOp28
 70
     1
102
RTVSPropertyOp29
 70
     1
102
RTVSPropertyOp30
 70
     1
102
RTVSPropertyOp31
 70
     1
102
RTVSPropertyOp32
 70
     1
102
RTVSPropertyOp33
 70
     1
102
RTVSPropertyOp34
 70
     1
102
RTVSPropertyOp35
 70
     1
102
RTVSPropertyOp36
 70
     1
102
RTVSPropertyOp37
 70
     1
102
RTVSPropertyOp38
 70
     1
102
RTVSPropertyOp39
 70
     1
102
RTVSPropertyOp40
 70
     1
102
RTVSPropertyOp41
 70
     1
102
RTVSPropertyOp42
 70
     1
102
RTVSPropertyOp43
 70
     1
102
RTVSPropertyOp44
 70
     1
102
RTVSPropertyOp45
 70
     1
102
RTVSPropertyOp46
 70
     1
102
RTVSPropertyOp47
 70
     1
102
RTVSPropertyOp48
 70
     1
102
RTVSPropertyOp49
 70
     1
102
RTVSPropertyOp50
 70
     1
102
RTVSPropertyOp51
 70
     0
102
RTVSPropertyOp52
 70
     0
102
RTVSPropertyOp53
 70
     1
102
RTVSPropertyOp54
 70
     1
102
RTVSPropertyOp55
 70
     1
102
RTVSPropertyOp56
 70
     1
102
RTVSPropertyOp57
 70
     1
102
RTVSPropertyOp58
 70
     1
102
RTVSPropertyOp59
 70
     1
102
RTVSPropertyOp60
 70
     1
102
RTVSPropertyOp61
 70
     1
102
RTVSPropertyOp62
 70
     1
  0
XRECORD
  5
5454
102
{ACAD_REACTORS
330
5453
102
}
330
5453
100
AcDbXrecord
280
     1
102
RTVSPost2010Prop28
280
     0
102
RTVSPost2010PropOp28
 70
     1
102
RTVSPost2010Prop29
280
     1
102
RTVSPost2010PropOp29
 70
     1
102
RTVSPost2010Prop30
280
     1
102
RTVSPost2010PropOp30
 70
     1
102
RTVSPost2010Prop31
280
     0
102
RTVSPost2010PropOp31
 70
     1
102
RTVSPost2010Prop32
280
     0
102
RTVSPost2010PropOp32
 70
     1
102
RTVSPost2010Prop33
280
     0
102
RTVSPost2010PropOp33
 70
     1
102
RTVSPost2010Prop34
280
     0
102
RTVSPost2010PropOp34
 70
     1
102
RTVSPost2010Prop35
280
     0
102
RTVSPost2010PropOp35
 70
     1
102
RTVSPost2010Prop36
280
     0
102
RTVSPost2010PropOp36
 70
     1
102
RTVSPost2010Prop37
 90
       50
102
RTVSPost2010PropOp37
 70
     1
102
RTVSPost2010Prop38
140
0.0
102
RTVSPost2010PropOp38
 70
     1
102
RTVSPost2010Prop39
140
1.0
102
RTVSPost2010PropOp39
 70
     1
102
RTVSPost2010Prop40
 90
        0
102
RTVSPost2010PropOp40
 70
     1
102
RTVSPost2010Prop41ColorIndex
 90
       18
102
RTVSPost2010Prop41ColorRGB
 90
        0
102
RTVSPost2010PropOp41
 70
     1
102
RTVSPost2010Prop42
 90
       50
102
RTVSPost2010PropOp42
 70
     1
102
RTVSPost2010Prop43
 90
        3
102
RTVSPost2010PropOp43
 70
     1
102
RTVSPost2010Prop44ColorIndex
 90
        5
102
RTVSPost2010Prop44ColorRGB
 90
      255
102
RTVSPost2010PropOp44
 70
     1
102
RTVSPost2010Prop45
280
     0
102
RTVSPost2010PropOp45
 70
     1
102
RTVSPost2010Prop46
 90
       50
102
RTVSPost2010PropOp46
 70
     1
102
RTVSPost2010Prop47
 90
       50
102
RTVSPost2010PropOp47
 70
     1
102
RTVSPost2010Prop48
 90
       50
102
RTVSPost2010PropOp48
 70
     1
102
RTVSPost2010Prop49
280
     0
102
RTVSPost2010PropOp49
 70
     1
102
RTVSPost2010Prop50
 90
       50
102
RTVSPost2010PropOp50
 70
     1
102
RTVSPost2010Prop51ColorIndex
 90
      256
102
RTVSPost2010Prop51ColorRGB
 90
-16777216
102
RTVSPost2010PropOp51
 70
     0
102
RTVSPost2010Prop52
140
1.0
102
RTVSPost2010PropOp52
 70
     0
102
RTVSPost2010Prop53
 90
        2
102
RTVSPost2010PropOp53
 70
     1
102
RTVSPost2010Prop54
  1
strokes_ogs.tif
102
RTVSPost2010PropOp54
 70
     1
102
RTVSPost2010Prop55
280
     0
102
RTVSPost2010PropOp55
 70
     1
102
RTVSPost2010Prop56
140
1.0
102
RTVSPost2010PropOp56
 70
     1
102
RTVSPost2010Prop57
140
1.0
102
RTVSPost2010PropOp57
 70
     1
102
RTVSPropertyOp0
 70
     1
102
RTVSPropertyOp1
 70
     1
102
RTVSPropertyOp2
 70
     1
102
RTVSPropertyOp3
 70
     1
102
RTVSPropertyOp4
 70
     1
102
RTVSPropertyOp5
 70
     1
102
RTVSPropertyOp6
 70
     1
102
RTVSPropertyOp7
 70
     1
102
RTVSPropertyOp8
 70
     1
102
RTVSPropertyOp9
 70
     1
102
RTVSPropertyOp10
 70
     1
102
RTVSPropertyOp11
 70
     1
102
RTVSPropertyOp12
 70
     1
102
RTVSPropertyOp13
 70
     1
102
RTVSPropertyOp14
 70
     1
102
RTVSPropertyOp15
 70
     1
102
RTVSPropertyOp16
 70
     1
102
RTVSPropertyOp17
 70
     1
102
RTVSPropertyOp18
 70
     1
102
RTVSPropertyOp19
 70
     1
102
RTVSPropertyOp20
 70
     1
102
RTVSPropertyOp21
 70
     1
102
RTVSPropertyOp22
 70
     1
102
RTVSPropertyOp23
 70
     1
102
RTVSPropertyOp24
 70
     1
102
RTVSPropertyOp25
 70
     1
102
RTVSPropertyOp26
 70
     1
102
RTVSPropertyOp27
 70
     1
102
RTVSPropertyOp28
 70
     1
102
RTVSPropertyOp29
 70
     1
102
RTVSPropertyOp30
 70
     1
102
RTVSPropertyOp31
 70
     1
102
RTVSPropertyOp32
 70
     1
102
RTVSPropertyOp33
 70
     1
102
RTVSPropertyOp34
 70
     1
102
RTVSPropertyOp35
 70
     1
102
RTVSPropertyOp36
 70
     1
102
RTVSPropertyOp37
 70
     1
102
RTVSPropertyOp38
 70
     1
102
RTVSPropertyOp39
 70
     1
102
RTVSPropertyOp40
 70
     1
102
RTVSPropertyOp41
 70
     1
102
RTVSPropertyOp42
 70
     1
102
RTVSPropertyOp43
 70
     1
102
RTVSPropertyOp44
 70
     1
102
RTVSPropertyOp45
 70
     1
102
RTVSPropertyOp46
 70
     1
102
RTVSPropertyOp47
 70
     1
102
RTVSPropertyOp48
 70
     1
102
RTVSPropertyOp49
 70
     1
102
RTVSPropertyOp50
 70
     1
102
RTVSPropertyOp51
 70
     0
102
RTVSPropertyOp52
 70
     0
102
RTVSPropertyOp53
 70
     1
102
RTVSPropertyOp54
 70
     1
102
RTVSPropertyOp55
 70
     1
102
RTVSPropertyOp56
 70
     1
102
RTVSPropertyOp57
 70
     1
102
RTVSPropertyOp58
 70
     1
102
RTVSPropertyOp59
 70
     1
102
RTVSPropertyOp60
 70
     1
102
RTVSPropertyOp61
 70
     1
102
RTVSPropertyOp62
 70
     1
  0
XRECORD
  5
5452
102
{ACAD_REACTORS
330
5451
102
}
330
5451
100
AcDbXrecord
280
     1
102
RTVSPost2010Prop28
280
     0
102
RTVSPost2010PropOp28
 70
     1
102
RTVSPost2010Prop29
280
     1
102
RTVSPost2010PropOp29
 70
     1
102
RTVSPost2010Prop30
280
     1
102
RTVSPost2010PropOp30
 70
     1
102
RTVSPost2010Prop31
280
     0
102
RTVSPost2010PropOp31
 70
     1
102
RTVSPost2010Prop32
280
     0
102
RTVSPost2010PropOp32
 70
     1
102
RTVSPost2010Prop33
280
     0
102
RTVSPost2010PropOp33
 70
     1
102
RTVSPost2010Prop34
280
     0
102
RTVSPost2010PropOp34
 70
     1
102
RTVSPost2010Prop35
280
     0
102
RTVSPost2010PropOp35
 70
     1
102
RTVSPost2010Prop36
280
     0
102
RTVSPost2010PropOp36
 70
     1
102
RTVSPost2010Prop37
 90
       50
102
RTVSPost2010PropOp37
 70
     1
102
RTVSPost2010Prop38
140
0.0
102
RTVSPost2010PropOp38
 70
     1
102
RTVSPost2010Prop39
140
1.0
102
RTVSPost2010PropOp39
 70
     1
102
RTVSPost2010Prop40
 90
        0
102
RTVSPost2010PropOp40
 70
     1
102
RTVSPost2010Prop41ColorIndex
 90
       18
102
RTVSPost2010Prop41ColorRGB
 90
        0
102
RTVSPost2010PropOp41
 70
     1
102
RTVSPost2010Prop42
 90
       50
102
RTVSPost2010PropOp42
 70
     1
102
RTVSPost2010Prop43
 90
        3
102
RTVSPost2010PropOp43
 70
     1
102
RTVSPost2010Prop44ColorIndex
 90
        5
102
RTVSPost2010Prop44ColorRGB
 90
      255
102
RTVSPost2010PropOp44
 70
     1
102
RTVSPost2010Prop45
280
     0
102
RTVSPost2010PropOp45
 70
     1
102
RTVSPost2010Prop46
 90
       50
102
RTVSPost2010PropOp46
 70
     1
102
RTVSPost2010Prop47
 90
       50
102
RTVSPost2010PropOp47
 70
     1
102
RTVSPost2010Prop48
 90
       50
102
RTVSPost2010PropOp48
 70
     1
102
RTVSPost2010Prop49
280
     0
102
RTVSPost2010PropOp49
 70
     1
102
RTVSPost2010Prop50
 90
       50
102
RTVSPost2010PropOp50
 70
     1
102
RTVSPost2010Prop51ColorIndex
 90
      256
102
RTVSPost2010Prop51ColorRGB
 90
-16777216
102
RTVSPost2010PropOp51
 70
     0
102
RTVSPost2010Prop52
140
1.0
102
RTVSPost2010PropOp52
 70
     0
102
RTVSPost2010Prop53
 90
        2
102
RTVSPost2010PropOp53
 70
     1
102
RTVSPost2010Prop54
  1
strokes_ogs.tif
102
RTVSPost2010PropOp54
 70
     1
102
RTVSPost2010Prop55
280
     0
102
RTVSPost2010PropOp55
 70
     1
102
RTVSPost2010Prop56
140
1.0
102
RTVSPost2010PropOp56
 70
     1
102
RTVSPost2010Prop57
140
1.0
102
RTVSPost2010PropOp57
 70
     1
102
RTVSPropertyOp0
 70
     1
102
RTVSPropertyOp1
 70
     1
102
RTVSPropertyOp2
 70
     1
102
RTVSPropertyOp3
 70
     1
102
RTVSPropertyOp4
 70
     1
102
RTVSPropertyOp5
 70
     1
102
RTVSPropertyOp6
 70
     1
102
RTVSPropertyOp7
 70
     1
102
RTVSPropertyOp8
 70
     1
102
RTVSPropertyOp9
 70
     1
102
RTVSPropertyOp10
 70
     1
102
RTVSPropertyOp11
 70
     1
102
RTVSPropertyOp12
 70
     1
102
RTVSPropertyOp13
 70
     1
102
RTVSPropertyOp14
 70
     1
102
RTVSPropertyOp15
 70
     1
102
RTVSPropertyOp16
 70
     1
102
RTVSPropertyOp17
 70
     1
102
RTVSPropertyOp18
 70
     1
102
RTVSPropertyOp19
 70
     1
102
RTVSPropertyOp20
 70
     1
102
RTVSPropertyOp21
 70
     1
102
RTVSPropertyOp22
 70
     1
102
RTVSPropertyOp23
 70
     1
102
RTVSPropertyOp24
 70
     1
102
RTVSPropertyOp25
 70
     1
102
RTVSPropertyOp26
 70
     1
102
RTVSPropertyOp27
 70
     1
102
RTVSPropertyOp28
 70
     1
102
RTVSPropertyOp29
 70
     1
102
RTVSPropertyOp30
 70
     1
102
RTVSPropertyOp31
 70
     1
102
RTVSPropertyOp32
 70
     1
102
RTVSPropertyOp33
 70
     1
102
RTVSPropertyOp34
 70
     1
102
RTVSPropertyOp35
 70
     1
102
RTVSPropertyOp36
 70
     1
102
RTVSPropertyOp37
 70
     1
102
RTVSPropertyOp38
 70
     1
102
RTVSPropertyOp39
 70
     1
102
RTVSPropertyOp40
 70
     1
102
RTVSPropertyOp41
 70
     1
102
RTVSPropertyOp42
 70
     1
102
RTVSPropertyOp43
 70
     1
102
RTVSPropertyOp44
 70
     1
102
RTVSPropertyOp45
 70
     1
102
RTVSPropertyOp46
 70
     1
102
RTVSPropertyOp47
 70
     1
102
RTVSPropertyOp48
 70
     1
102
RTVSPropertyOp49
 70
     1
102
RTVSPropertyOp50
 70
     1
102
RTVSPropertyOp51
 70
     0
102
RTVSPropertyOp52
 70
     0
102
RTVSPropertyOp53
 70
     1
102
RTVSPropertyOp54
 70
     1
102
RTVSPropertyOp55
 70
     1
102
RTVSPropertyOp56
 70
     1
102
RTVSPropertyOp57
 70
     1
102
RTVSPropertyOp58
 70
     1
102
RTVSPropertyOp59
 70
     1
102
RTVSPropertyOp60
 70
     1
102
RTVSPropertyOp61
 70
     1
102
RTVSPropertyOp62
 70
     1
  0
XRECORD
  5
544C
102
{ACAD_REACTORS
330
544B
102
}
330
544B
100
AcDbXrecord
280
     1
102
RTVSPost2010Prop28
280
     0
102
RTVSPost2010PropOp28
 70
     1
102
RTVSPost2010Prop29
280
     1
102
RTVSPost2010PropOp29
 70
     1
102
RTVSPost2010Prop30
280
     1
102
RTVSPost2010PropOp30
 70
     1
102
RTVSPost2010Prop31
280
     0
102
RTVSPost2010PropOp31
 70
     1
102
RTVSPost2010Prop32
280
     0
102
RTVSPost2010PropOp32
 70
     1
102
RTVSPost2010Prop33
280
     0
102
RTVSPost2010PropOp33
 70
     1
102
RTVSPost2010Prop34
280
     0
102
RTVSPost2010PropOp34
 70
     1
102
RTVSPost2010Prop35
280
     0
102
RTVSPost2010PropOp35
 70
     1
102
RTVSPost2010Prop36
280
     0
102
RTVSPost2010PropOp36
 70
     1
102
RTVSPost2010Prop37
 90
       50
102
RTVSPost2010PropOp37
 70
     1
102
RTVSPost2010Prop38
140
0.0
102
RTVSPost2010PropOp38
 70
     1
102
RTVSPost2010Prop39
140
1.0
102
RTVSPost2010PropOp39
 70
     1
102
RTVSPost2010Prop40
 90
        0
102
RTVSPost2010PropOp40
 70
     1
102
RTVSPost2010Prop41ColorIndex
 90
       18
102
RTVSPost2010Prop41ColorRGB
 90
        0
102
RTVSPost2010PropOp41
 70
     1
102
RTVSPost2010Prop42
 90
       50
102
RTVSPost2010PropOp42
 70
     1
102
RTVSPost2010Prop43
 90
        3
102
RTVSPost2010PropOp43
 70
     1
102
RTVSPost2010Prop44ColorIndex
 90
        5
102
RTVSPost2010Prop44ColorRGB
 90
      255
102
RTVSPost2010PropOp44
 70
     1
102
RTVSPost2010Prop45
280
     0
102
RTVSPost2010PropOp45
 70
     1
102
RTVSPost2010Prop46
 90
       50
102
RTVSPost2010PropOp46
 70
     1
102
RTVSPost2010Prop47
 90
       50
102
RTVSPost2010PropOp47
 70
     1
102
RTVSPost2010Prop48
 90
       50
102
RTVSPost2010PropOp48
 70
     1
102
RTVSPost2010Prop49
280
     0
102
RTVSPost2010PropOp49
 70
     1
102
RTVSPost2010Prop50
 90
       50
102
RTVSPost2010PropOp50
 70
     1
102
RTVSPost2010Prop51ColorIndex
 90
      256
102
RTVSPost2010Prop51ColorRGB
 90
-16777216
102
RTVSPost2010PropOp51
 70
     0
102
RTVSPost2010Prop52
140
1.0
102
RTVSPost2010PropOp52
 70
     0
102
RTVSPost2010Prop53
 90
        2
102
RTVSPost2010PropOp53
 70
     1
102
RTVSPost2010Prop54
  1
strokes_ogs.tif
102
RTVSPost2010PropOp54
 70
     1
102
RTVSPost2010Prop55
280
     0
102
RTVSPost2010PropOp55
 70
     1
102
RTVSPost2010Prop56
140
1.0
102
RTVSPost2010PropOp56
 70
     1
102
RTVSPost2010Prop57
140
1.0
102
RTVSPost2010PropOp57
 70
     1
102
RTVSPropertyOp0
 70
     1
102
RTVSPropertyOp1
 70
     1
102
RTVSPropertyOp2
 70
     1
102
RTVSPropertyOp3
 70
     1
102
RTVSPropertyOp4
 70
     1
102
RTVSPropertyOp5
 70
     1
102
RTVSPropertyOp6
 70
     1
102
RTVSPropertyOp7
 70
     1
102
RTVSPropertyOp8
 70
     1
102
RTVSPropertyOp9
 70
     1
102
RTVSPropertyOp10
 70
     1
102
RTVSPropertyOp11
 70
     1
102
RTVSPropertyOp12
 70
     1
102
RTVSPropertyOp13
 70
     1
102
RTVSPropertyOp14
 70
     1
102
RTVSPropertyOp15
 70
     1
102
RTVSPropertyOp16
 70
     1
102
RTVSPropertyOp17
 70
     1
102
RTVSPropertyOp18
 70
     1
102
RTVSPropertyOp19
 70
     1
102
RTVSPropertyOp20
 70
     1
102
RTVSPropertyOp21
 70
     1
102
RTVSPropertyOp22
 70
     1
102
RTVSPropertyOp23
 70
     1
102
RTVSPropertyOp24
 70
     1
102
RTVSPropertyOp25
 70
     1
102
RTVSPropertyOp26
 70
     1
102
RTVSPropertyOp27
 70
     1
102
RTVSPropertyOp28
 70
     1
102
RTVSPropertyOp29
 70
     1
102
RTVSPropertyOp30
 70
     1
102
RTVSPropertyOp31
 70
     1
102
RTVSPropertyOp32
 70
     1
102
RTVSPropertyOp33
 70
     1
102
RTVSPropertyOp34
 70
     1
102
RTVSPropertyOp35
 70
     1
102
RTVSPropertyOp36
 70
     1
102
RTVSPropertyOp37
 70
     1
102
RTVSPropertyOp38
 70
     1
102
RTVSPropertyOp39
 70
     1
102
RTVSPropertyOp40
 70
     1
102
RTVSPropertyOp41
 70
     1
102
RTVSPropertyOp42
 70
     1
102
RTVSPropertyOp43
 70
     1
102
RTVSPropertyOp44
 70
     1
102
RTVSPropertyOp45
 70
     1
102
RTVSPropertyOp46
 70
     1
102
RTVSPropertyOp47
 70
     1
102
RTVSPropertyOp48
 70
     1
102
RTVSPropertyOp49
 70
     1
102
RTVSPropertyOp50
 70
     1
102
RTVSPropertyOp51
 70
     0
102
RTVSPropertyOp52
 70
     0
102
RTVSPropertyOp53
 70
     1
102
RTVSPropertyOp54
 70
     1
102
RTVSPropertyOp55
 70
     1
102
RTVSPropertyOp56
 70
     1
102
RTVSPropertyOp57
 70
     1
102
RTVSPropertyOp58
 70
     1
102
RTVSPropertyOp59
 70
     1
102
RTVSPropertyOp60
 70
     1
102
RTVSPropertyOp61
 70
     1
102
RTVSPropertyOp62
 70
     1
  0
XRECORD
  5
544E
102
{ACAD_REACTORS
330
544D
102
}
330
544D
100
AcDbXrecord
280
     1
102
RTVSPost2010Prop28
280
     0
102
RTVSPost2010PropOp28
 70
     1
102
RTVSPost2010Prop29
280
     1
102
RTVSPost2010PropOp29
 70
     1
102
RTVSPost2010Prop30
280
     1
102
RTVSPost2010PropOp30
 70
     1
102
RTVSPost2010Prop31
280
     0
102
RTVSPost2010PropOp31
 70
     1
102
RTVSPost2010Prop32
280
     0
102
RTVSPost2010PropOp32
 70
     1
102
RTVSPost2010Prop33
280
     0
102
RTVSPost2010PropOp33
 70
     1
102
RTVSPost2010Prop34
280
     0
102
RTVSPost2010PropOp34
 70
     1
102
RTVSPost2010Prop35
280
     0
102
RTVSPost2010PropOp35
 70
     1
102
RTVSPost2010Prop36
280
     0
102
RTVSPost2010PropOp36
 70
     1
102
RTVSPost2010Prop37
 90
       50
102
RTVSPost2010PropOp37
 70
     1
102
RTVSPost2010Prop38
140
0.0
102
RTVSPost2010PropOp38
 70
     1
102
RTVSPost2010Prop39
140
1.0
102
RTVSPost2010PropOp39
 70
     1
102
RTVSPost2010Prop40
 90
        0
102
RTVSPost2010PropOp40
 70
     1
102
RTVSPost2010Prop41ColorIndex
 90
       18
102
RTVSPost2010Prop41ColorRGB
 90
        0
102
RTVSPost2010PropOp41
 70
     1
102
RTVSPost2010Prop42
 90
       50
102
RTVSPost2010PropOp42
 70
     1
102
RTVSPost2010Prop43
 90
        3
102
RTVSPost2010PropOp43
 70
     1
102
RTVSPost2010Prop44ColorIndex
 90
        5
102
RTVSPost2010Prop44ColorRGB
 90
      255
102
RTVSPost2010PropOp44
 70
     1
102
RTVSPost2010Prop45
280
     0
102
RTVSPost2010PropOp45
 70
     1
102
RTVSPost2010Prop46
 90
       50
102
RTVSPost2010PropOp46
 70
     1
102
RTVSPost2010Prop47
 90
       50
102
RTVSPost2010PropOp47
 70
     1
102
RTVSPost2010Prop48
 90
       50
102
RTVSPost2010PropOp48
 70
     1
102
RTVSPost2010Prop49
280
     0
102
RTVSPost2010PropOp49
 70
     1
102
RTVSPost2010Prop50
 90
       50
102
RTVSPost2010PropOp50
 70
     1
102
RTVSPost2010Prop51ColorIndex
 90
      256
102
RTVSPost2010Prop51ColorRGB
 90
-16777216
102
RTVSPost2010PropOp51
 70
     0
102
RTVSPost2010Prop52
140
1.0
102
RTVSPost2010PropOp52
 70
     0
102
RTVSPost2010Prop53
 90
        2
102
RTVSPost2010PropOp53
 70
     1
102
RTVSPost2010Prop54
  1
strokes_ogs.tif
102
RTVSPost2010PropOp54
 70
     1
102
RTVSPost2010Prop55
280
     0
102
RTVSPost2010PropOp55
 70
     1
102
RTVSPost2010Prop56
140
1.0
102
RTVSPost2010PropOp56
 70
     1
102
RTVSPost2010Prop57
140
1.0
102
RTVSPost2010PropOp57
 70
     1
102
RTVSPropertyOp0
 70
     1
102
RTVSPropertyOp1
 70
     1
102
RTVSPropertyOp2
 70
     1
102
RTVSPropertyOp3
 70
     1
102
RTVSPropertyOp4
 70
     1
102
RTVSPropertyOp5
 70
     1
102
RTVSPropertyOp6
 70
     1
102
RTVSPropertyOp7
 70
     1
102
RTVSPropertyOp8
 70
     1
102
RTVSPropertyOp9
 70
     1
102
RTVSPropertyOp10
 70
     1
102
RTVSPropertyOp11
 70
     1
102
RTVSPropertyOp12
 70
     1
102
RTVSPropertyOp13
 70
     1
102
RTVSPropertyOp14
 70
     1
102
RTVSPropertyOp15
 70
     1
102
RTVSPropertyOp16
 70
     1
102
RTVSPropertyOp17
 70
     1
102
RTVSPropertyOp18
 70
     1
102
RTVSPropertyOp19
 70
     1
102
RTVSPropertyOp20
 70
     1
102
RTVSPropertyOp21
 70
     1
102
RTVSPropertyOp22
 70
     1
102
RTVSPropertyOp23
 70
     1
102
RTVSPropertyOp24
 70
     1
102
RTVSPropertyOp25
 70
     1
102
RTVSPropertyOp26
 70
     1
102
RTVSPropertyOp27
 70
     1
102
RTVSPropertyOp28
 70
     1
102
RTVSPropertyOp29
 70
     1
102
RTVSPropertyOp30
 70
     1
102
RTVSPropertyOp31
 70
     1
102
RTVSPropertyOp32
 70
     1
102
RTVSPropertyOp33
 70
     1
102
RTVSPropertyOp34
 70
     1
102
RTVSPropertyOp35
 70
     1
102
RTVSPropertyOp36
 70
     1
102
RTVSPropertyOp37
 70
     1
102
RTVSPropertyOp38
 70
     1
102
RTVSPropertyOp39
 70
     1
102
RTVSPropertyOp40
 70
     1
102
RTVSPropertyOp41
 70
     1
102
RTVSPropertyOp42
 70
     1
102
RTVSPropertyOp43
 70
     1
102
RTVSPropertyOp44
 70
     1
102
RTVSPropertyOp45
 70
     1
102
RTVSPropertyOp46
 70
     1
102
RTVSPropertyOp47
 70
     1
102
RTVSPropertyOp48
 70
     1
102
RTVSPropertyOp49
 70
     1
102
RTVSPropertyOp50
 70
     1
102
RTVSPropertyOp51
 70
     0
102
RTVSPropertyOp52
 70
     0
102
RTVSPropertyOp53
 70
     1
102
RTVSPropertyOp54
 70
     1
102
RTVSPropertyOp55
 70
     1
102
RTVSPropertyOp56
 70
     1
102
RTVSPropertyOp57
 70
     1
102
RTVSPropertyOp58
 70
     1
102
RTVSPropertyOp59
 70
     1
102
RTVSPropertyOp60
 70
     1
102
RTVSPropertyOp61
 70
     1
102
RTVSPropertyOp62
 70
     1
  0
XRECORD
  5
5444
102
{ACAD_REACTORS
330
5443
102
}
330
5443
100
AcDbXrecord
280
     1
102
RTVSPost2010Prop28
280
     0
102
RTVSPost2010PropOp28
 70
     1
102
RTVSPost2010Prop29
280
     1
102
RTVSPost2010PropOp29
 70
     1
102
RTVSPost2010Prop30
280
     1
102
RTVSPost2010PropOp30
 70
     1
102
RTVSPost2010Prop31
280
     0
102
RTVSPost2010PropOp31
 70
     1
102
RTVSPost2010Prop32
280
     0
102
RTVSPost2010PropOp32
 70
     1
102
RTVSPost2010Prop33
280
     0
102
RTVSPost2010PropOp33
 70
     1
102
RTVSPost2010Prop34
280
     0
102
RTVSPost2010PropOp34
 70
     1
102
RTVSPost2010Prop35
280
     0
102
RTVSPost2010PropOp35
 70
     1
102
RTVSPost2010Prop36
280
     0
102
RTVSPost2010PropOp36
 70
     1
102
RTVSPost2010Prop37
 90
       50
102
RTVSPost2010PropOp37
 70
     1
102
RTVSPost2010Prop38
140
0.0
102
RTVSPost2010PropOp38
 70
     1
102
RTVSPost2010Prop39
140
1.0
102
RTVSPost2010PropOp39
 70
     1
102
RTVSPost2010Prop40
 90
        0
102
RTVSPost2010PropOp40
 70
     1
102
RTVSPost2010Prop41ColorIndex
 90
       18
102
RTVSPost2010Prop41ColorRGB
 90
        0
102
RTVSPost2010PropOp41
 70
     1
102
RTVSPost2010Prop42
 90
       50
102
RTVSPost2010PropOp42
 70
     1
102
RTVSPost2010Prop43
 90
        3
102
RTVSPost2010PropOp43
 70
     1
102
RTVSPost2010Prop44ColorIndex
 90
        5
102
RTVSPost2010Prop44ColorRGB
 90
      255
102
RTVSPost2010PropOp44
 70
     1
102
RTVSPost2010Prop45
280
     0
102
RTVSPost2010PropOp45
 70
     1
102
RTVSPost2010Prop46
 90
       50
102
RTVSPost2010PropOp46
 70
     1
102
RTVSPost2010Prop47
 90
       50
102
RTVSPost2010PropOp47
 70
     1
102
RTVSPost2010Prop48
 90
       50
102
RTVSPost2010PropOp48
 70
     1
102
RTVSPost2010Prop49
280
     0
102
RTVSPost2010PropOp49
 70
     1
102
RTVSPost2010Prop50
 90
       50
102
RTVSPost2010PropOp50
 70
     1
102
RTVSPost2010Prop51ColorIndex
 90
      256
102
RTVSPost2010Prop51ColorRGB
 90
-16777216
102
RTVSPost2010PropOp51
 70
     0
102
RTVSPost2010Prop52
140
1.0
102
RTVSPost2010PropOp52
 70
     0
102
RTVSPost2010Prop53
 90
        2
102
RTVSPost2010PropOp53
 70
     1
102
RTVSPost2010Prop54
  1
strokes_ogs.tif
102
RTVSPost2010PropOp54
 70
     1
102
RTVSPost2010Prop55
280
     0
102
RTVSPost2010PropOp55
 70
     1
102
RTVSPost2010Prop56
140
1.0
102
RTVSPost2010PropOp56
 70
     1
102
RTVSPost2010Prop57
140
1.0
102
RTVSPost2010PropOp57
 70
     1
102
RTVSPropertyOp0
 70
     1
102
RTVSPropertyOp1
 70
     1
102
RTVSPropertyOp2
 70
     1
102
RTVSPropertyOp3
 70
     1
102
RTVSPropertyOp4
 70
     1
102
RTVSPropertyOp5
 70
     1
102
RTVSPropertyOp6
 70
     1
102
RTVSPropertyOp7
 70
     1
102
RTVSPropertyOp8
 70
     1
102
RTVSPropertyOp9
 70
     1
102
RTVSPropertyOp10
 70
     1
102
RTVSPropertyOp11
 70
     1
102
RTVSPropertyOp12
 70
     1
102
RTVSPropertyOp13
 70
     1
102
RTVSPropertyOp14
 70
     1
102
RTVSPropertyOp15
 70
     1
102
RTVSPropertyOp16
 70
     1
102
RTVSPropertyOp17
 70
     1
102
RTVSPropertyOp18
 70
     1
102
RTVSPropertyOp19
 70
     1
102
RTVSPropertyOp20
 70
     1
102
RTVSPropertyOp21
 70
     1
102
RTVSPropertyOp22
 70
     1
102
RTVSPropertyOp23
 70
     1
102
RTVSPropertyOp24
 70
     1
102
RTVSPropertyOp25
 70
     1
102
RTVSPropertyOp26
 70
     1
102
RTVSPropertyOp27
 70
     1
102
RTVSPropertyOp28
 70
     1
102
RTVSPropertyOp29
 70
     1
102
RTVSPropertyOp30
 70
     1
102
RTVSPropertyOp31
 70
     1
102
RTVSPropertyOp32
 70
     1
102
RTVSPropertyOp33
 70
     1
102
RTVSPropertyOp34
 70
     1
102
RTVSPropertyOp35
 70
     1
102
RTVSPropertyOp36
 70
     1
102
RTVSPropertyOp37
 70
     1
102
RTVSPropertyOp38
 70
     1
102
RTVSPropertyOp39
 70
     1
102
RTVSPropertyOp40
 70
     1
102
RTVSPropertyOp41
 70
     1
102
RTVSPropertyOp42
 70
     1
102
RTVSPropertyOp43
 70
     1
102
RTVSPropertyOp44
 70
     1
102
RTVSPropertyOp45
 70
     1
102
RTVSPropertyOp46
 70
     1
102
RTVSPropertyOp47
 70
     1
102
RTVSPropertyOp48
 70
     1
102
RTVSPropertyOp49
 70
     1
102
RTVSPropertyOp50
 70
     1
102
RTVSPropertyOp51
 70
     0
102
RTVSPropertyOp52
 70
     0
102
RTVSPropertyOp53
 70
     1
102
RTVSPropertyOp54
 70
     1
102
RTVSPropertyOp55
 70
     1
102
RTVSPropertyOp56
 70
     1
102
RTVSPropertyOp57
 70
     1
102
RTVSPropertyOp58
 70
     1
102
RTVSPropertyOp59
 70
     1
102
RTVSPropertyOp60
 70
     1
102
RTVSPropertyOp61
 70
     1
102
RTVSPropertyOp62
 70
     1
  0
XRECORD
  5
5438
102
{ACAD_REACTORS
330
5437
102
}
330
5437
100
AcDbXrecord
280
     1
102
RTVSPost2010Prop28
280
     0
102
RTVSPost2010PropOp28
 70
     1
102
RTVSPost2010Prop29
280
     1
102
RTVSPost2010PropOp29
 70
     1
102
RTVSPost2010Prop30
280
     1
102
RTVSPost2010PropOp30
 70
     1
102
RTVSPost2010Prop31
280
     0
102
RTVSPost2010PropOp31
 70
     1
102
RTVSPost2010Prop32
280
     0
102
RTVSPost2010PropOp32
 70
     1
102
RTVSPost2010Prop33
280
     0
102
RTVSPost2010PropOp33
 70
     1
102
RTVSPost2010Prop34
280
     0
102
RTVSPost2010PropOp34
 70
     1
102
RTVSPost2010Prop35
280
     0
102
RTVSPost2010PropOp35
 70
     1
102
RTVSPost2010Prop36
280
     0
102
RTVSPost2010PropOp36
 70
     1
102
RTVSPost2010Prop37
 90
       50
102
RTVSPost2010PropOp37
 70
     1
102
RTVSPost2010Prop38
140
0.0
102
RTVSPost2010PropOp38
 70
     1
102
RTVSPost2010Prop39
140
1.0
102
RTVSPost2010PropOp39
 70
     1
102
RTVSPost2010Prop40
 90
        0
102
RTVSPost2010PropOp40
 70
     1
102
RTVSPost2010Prop41ColorIndex
 90
       18
102
RTVSPost2010Prop41ColorRGB
 90
        0
102
RTVSPost2010PropOp41
 70
     1
102
RTVSPost2010Prop42
 90
       50
102
RTVSPost2010PropOp42
 70
     1
102
RTVSPost2010Prop43
 90
        3
102
RTVSPost2010PropOp43
 70
     1
102
RTVSPost2010Prop44ColorIndex
 90
        5
102
RTVSPost2010Prop44ColorRGB
 90
      255
102
RTVSPost2010PropOp44
 70
     1
102
RTVSPost2010Prop45
280
     0
102
RTVSPost2010PropOp45
 70
     1
102
RTVSPost2010Prop46
 90
       50
102
RTVSPost2010PropOp46
 70
     1
102
RTVSPost2010Prop47
 90
       50
102
RTVSPost2010PropOp47
 70
     1
102
RTVSPost2010Prop48
 90
       50
102
RTVSPost2010PropOp48
 70
     1
102
RTVSPost2010Prop49
280
     0
102
RTVSPost2010PropOp49
 70
     1
102
RTVSPost2010Prop50
 90
       50
102
RTVSPost2010PropOp50
 70
     1
102
RTVSPost2010Prop51ColorIndex
 90
      256
102
RTVSPost2010Prop51ColorRGB
 90
-16777216
102
RTVSPost2010PropOp51
 70
     0
102
RTVSPost2010Prop52
140
1.0
102
RTVSPost2010PropOp52
 70
     0
102
RTVSPost2010Prop53
 90
        2
102
RTVSPost2010PropOp53
 70
     1
102
RTVSPost2010Prop54
  1
strokes_ogs.tif
102
RTVSPost2010PropOp54
 70
     1
102
RTVSPost2010Prop55
280
     0
102
RTVSPost2010PropOp55
 70
     1
102
RTVSPost2010Prop56
140
1.0
102
RTVSPost2010PropOp56
 70
     1
102
RTVSPost2010Prop57
140
1.0
102
RTVSPost2010PropOp57
 70
     1
102
RTVSPropertyOp0
 70
     1
102
RTVSPropertyOp1
 70
     1
102
RTVSPropertyOp2
 70
     1
102
RTVSPropertyOp3
 70
     1
102
RTVSPropertyOp4
 70
     1
102
RTVSPropertyOp5
 70
     1
102
RTVSPropertyOp6
 70
     1
102
RTVSPropertyOp7
 70
     1
102
RTVSPropertyOp8
 70
     1
102
RTVSPropertyOp9
 70
     1
102
RTVSPropertyOp10
 70
     1
102
RTVSPropertyOp11
 70
     1
102
RTVSPropertyOp12
 70
     1
102
RTVSPropertyOp13
 70
     1
102
RTVSPropertyOp14
 70
     1
102
RTVSPropertyOp15
 70
     1
102
RTVSPropertyOp16
 70
     1
102
RTVSPropertyOp17
 70
     1
102
RTVSPropertyOp18
 70
     1
102
RTVSPropertyOp19
 70
     1
102
RTVSPropertyOp20
 70
     1
102
RTVSPropertyOp21
 70
     1
102
RTVSPropertyOp22
 70
     1
102
RTVSPropertyOp23
 70
     1
102
RTVSPropertyOp24
 70
     1
102
RTVSPropertyOp25
 70
     1
102
RTVSPropertyOp26
 70
     1
102
RTVSPropertyOp27
 70
     1
102
RTVSPropertyOp28
 70
     1
102
RTVSPropertyOp29
 70
     1
102
RTVSPropertyOp30
 70
     1
102
RTVSPropertyOp31
 70
     1
102
RTVSPropertyOp32
 70
     1
102
RTVSPropertyOp33
 70
     1
102
RTVSPropertyOp34
 70
     1
102
RTVSPropertyOp35
 70
     1
102
RTVSPropertyOp36
 70
     1
102
RTVSPropertyOp37
 70
     1
102
RTVSPropertyOp38
 70
     1
102
RTVSPropertyOp39
 70
     1
102
RTVSPropertyOp40
 70
     1
102
RTVSPropertyOp41
 70
     1
102
RTVSPropertyOp42
 70
     1
102
RTVSPropertyOp43
 70
     1
102
RTVSPropertyOp44
 70
     1
102
RTVSPropertyOp45
 70
     1
102
RTVSPropertyOp46
 70
     1
102
RTVSPropertyOp47
 70
     1
102
RTVSPropertyOp48
 70
     1
102
RTVSPropertyOp49
 70
     1
102
RTVSPropertyOp50
 70
     1
102
RTVSPropertyOp51
 70
     0
102
RTVSPropertyOp52
 70
     0
102
RTVSPropertyOp53
 70
     1
102
RTVSPropertyOp54
 70
     1
102
RTVSPropertyOp55
 70
     1
102
RTVSPropertyOp56
 70
     1
102
RTVSPropertyOp57
 70
     1
102
RTVSPropertyOp58
 70
     1
102
RTVSPropertyOp59
 70
     1
102
RTVSPropertyOp60
 70
     1
102
RTVSPropertyOp61
 70
     1
102
RTVSPropertyOp62
 70
     1
  0
XRECORD
  5
5450
102
{ACAD_REACTORS
330
544F
102
}
330
544F
100
AcDbXrecord
280
     1
102
RTVSPost2010Prop28
280
     0
102
RTVSPost2010PropOp28
 70
     1
102
RTVSPost2010Prop29
280
     1
102
RTVSPost2010PropOp29
 70
     1
102
RTVSPost2010Prop30
280
     1
102
RTVSPost2010PropOp30
 70
     1
102
RTVSPost2010Prop31
280
     0
102
RTVSPost2010PropOp31
 70
     1
102
RTVSPost2010Prop32
280
     0
102
RTVSPost2010PropOp32
 70
     1
102
RTVSPost2010Prop33
280
     0
102
RTVSPost2010PropOp33
 70
     1
102
RTVSPost2010Prop34
280
     0
102
RTVSPost2010PropOp34
 70
     1
102
RTVSPost2010Prop35
280
     0
102
RTVSPost2010PropOp35
 70
     1
102
RTVSPost2010Prop36
280
     0
102
RTVSPost2010PropOp36
 70
     1
102
RTVSPost2010Prop37
 90
       50
102
RTVSPost2010PropOp37
 70
     1
102
RTVSPost2010Prop38
140
0.0
102
RTVSPost2010PropOp38
 70
     1
102
RTVSPost2010Prop39
140
1.0
102
RTVSPost2010PropOp39
 70
     1
102
RTVSPost2010Prop40
 90
        0
102
RTVSPost2010PropOp40
 70
     1
102
RTVSPost2010Prop41ColorIndex
 90
       18
102
RTVSPost2010Prop41ColorRGB
 90
        0
102
RTVSPost2010PropOp41
 70
     1
102
RTVSPost2010Prop42
 90
       50
102
RTVSPost2010PropOp42
 70
     1
102
RTVSPost2010Prop43
 90
        3
102
RTVSPost2010PropOp43
 70
     1
102
RTVSPost2010Prop44ColorIndex
 90
        5
102
RTVSPost2010Prop44ColorRGB
 90
      255
102
RTVSPost2010PropOp44
 70
     1
102
RTVSPost2010Prop45
280
     0
102
RTVSPost2010PropOp45
 70
     1
102
RTVSPost2010Prop46
 90
       50
102
RTVSPost2010PropOp46
 70
     1
102
RTVSPost2010Prop47
 90
       50
102
RTVSPost2010PropOp47
 70
     1
102
RTVSPost2010Prop48
 90
       50
102
RTVSPost2010PropOp48
 70
     1
102
RTVSPost2010Prop49
280
     0
102
RTVSPost2010PropOp49
 70
     1
102
RTVSPost2010Prop50
 90
       50
102
RTVSPost2010PropOp50
 70
     1
102
RTVSPost2010Prop51ColorIndex
 90
      256
102
RTVSPost2010Prop51ColorRGB
 90
-16777216
102
RTVSPost2010PropOp51
 70
     0
102
RTVSPost2010Prop52
140
1.0
102
RTVSPost2010PropOp52
 70
     0
102
RTVSPost2010Prop53
 90
        2
102
RTVSPost2010PropOp53
 70
     1
102
RTVSPost2010Prop54
  1
strokes_ogs.tif
102
RTVSPost2010PropOp54
 70
     1
102
RTVSPost2010Prop55
280
     0
102
RTVSPost2010PropOp55
 70
     1
102
RTVSPost2010Prop56
140
1.0
102
RTVSPost2010PropOp56
 70
     1
102
RTVSPost2010Prop57
140
1.0
102
RTVSPost2010PropOp57
 70
     1
102
RTVSPropertyOp0
 70
     1
102
RTVSPropertyOp1
 70
     1
102
RTVSPropertyOp2
 70
     1
102
RTVSPropertyOp3
 70
     1
102
RTVSPropertyOp4
 70
     1
102
RTVSPropertyOp5
 70
     1
102
RTVSPropertyOp6
 70
     1
102
RTVSPropertyOp7
 70
     1
102
RTVSPropertyOp8
 70
     1
102
RTVSPropertyOp9
 70
     1
102
RTVSPropertyOp10
 70
     1
102
RTVSPropertyOp11
 70
     1
102
RTVSPropertyOp12
 70
     1
102
RTVSPropertyOp13
 70
     1
102
RTVSPropertyOp14
 70
     1
102
RTVSPropertyOp15
 70
     1
102
RTVSPropertyOp16
 70
     1
102
RTVSPropertyOp17
 70
     1
102
RTVSPropertyOp18
 70
     1
102
RTVSPropertyOp19
 70
     1
102
RTVSPropertyOp20
 70
     1
102
RTVSPropertyOp21
 70
     1
102
RTVSPropertyOp22
 70
     1
102
RTVSPropertyOp23
 70
     1
102
RTVSPropertyOp24
 70
     1
102
RTVSPropertyOp25
 70
     1
102
RTVSPropertyOp26
 70
     1
102
RTVSPropertyOp27
 70
     1
102
RTVSPropertyOp28
 70
     1
102
RTVSPropertyOp29
 70
     1
102
RTVSPropertyOp30
 70
     1
102
RTVSPropertyOp31
 70
     1
102
RTVSPropertyOp32
 70
     1
102
RTVSPropertyOp33
 70
     1
102
RTVSPropertyOp34
 70
     1
102
RTVSPropertyOp35
 70
     1
102
RTVSPropertyOp36
 70
     1
102
RTVSPropertyOp37
 70
     1
102
RTVSPropertyOp38
 70
     1
102
RTVSPropertyOp39
 70
     1
102
RTVSPropertyOp40
 70
     1
102
RTVSPropertyOp41
 70
     1
102
RTVSPropertyOp42
 70
     1
102
RTVSPropertyOp43
 70
     1
102
RTVSPropertyOp44
 70
     1
102
RTVSPropertyOp45
 70
     1
102
RTVSPropertyOp46
 70
     1
102
RTVSPropertyOp47
 70
     1
102
RTVSPropertyOp48
 70
     1
102
RTVSPropertyOp49
 70
     1
102
RTVSPropertyOp50
 70
     1
102
RTVSPropertyOp51
 70
     0
102
RTVSPropertyOp52
 70
     0
102
RTVSPropertyOp53
 70
     1
102
RTVSPropertyOp54
 70
     1
102
RTVSPropertyOp55
 70
     1
102
RTVSPropertyOp56
 70
     1
102
RTVSPropertyOp57
 70
     1
102
RTVSPropertyOp58
 70
     1
102
RTVSPropertyOp59
 70
     1
102
RTVSPropertyOp60
 70
     1
102
RTVSPropertyOp61
 70
     1
102
RTVSPropertyOp62
 70
     1
  0
ENDSEC
  0
EOF
