  0
SECTION
  2
HEADER
  9
$ACADVER
  1
AC1015
  9
$ACADMAINTVER
 70
    20
  9
$DWGCODEPAGE
  3
ANSI_932
  9
$INSBASE
 10
0.0
 20
0.0
 30
0.0
  9
$EXTMIN
 10
9.999997999999997
 20
10.0
 30
0.0
  9
$EXTMAX
 10
736.1358299999997
 20
503.0
 30
0.0
  9
$LIMMIN
 10
0.000002
 20
0.0
  9
$LIMMAX
 10
792.0000019999998
 20
546.0
  9
$ORTHOMODE
 70
     1
  9
$REGENMODE
 70
     1
  9
$FILLMODE
 70
     1
  9
$QTEXTMODE
 70
     0
  9
$MIRRTEXT
 70
     1
  9
$LTSCALE
 40
1.0
  9
$ATTMODE
 70
     1
  9
$TEXTSIZE
 40
2.5
  9
$TRACEWID
 40
1.0
  9
$TEXTSTYLE
  7
STANDARD
  9
$CLAYER
  8
0
  9
$CELTYPE
  6
BYLAYER
  9
$CECOLOR
 62
   256
  9
$CELTSCALE
 40
1.0
  9
$DISPSILH
 70
     0
  9
$DIMSCALE
 40
1.0
  9
$DIMASZ
 40
3.0
  9
$DIMEXO
 40
1.0
  9
$DIMDLI
 40
10.0
  9
$DIMRND
 40
0.0
  9
$DIMDLE
 40
0.0
  9
$DIMEXE
 40
1.0
  9
$DIMTP
 40
0.0
  9
$DIMTM
 40
0.0
  9
$DIMTXT
 40
3.2
  9
$DIMCEN
 40
0.0
  9
$DIMTSZ
 40
0.0
  9
$DIMTOL
 70
     0
  9
$DIMLIM
 70
     0
  9
$DIMTIH
 70
     0
  9
$DIMTOH
 70
     0
  9
$DIMSE1
 70
     0
  9
$DIMSE2
 70
     0
  9
$DIMTAD
 70
     3
  9
$DIMZIN
 70
     8
  9
$DIMBLK
  1

  9
$DIMASO
 70
     1
  9
$DIMSHO
 70
     1
  9
$DIMPOST
  1

  9
$DIMAPOST
  1

  9
$DIMALT
 70
     0
  9
$DIMALTD
 70
     2
  9
$DIMALTF
 40
25.4
  9
$DIMLFAC
 40
1.0
  9
$DIMTOFL
 70
     1
  9
$DIMTVP
 40
0.0
  9
$DIMTIX
 70
     0
  9
$DIMSOXD
 70
     0
  9
$DIMSAH
 70
     1
  9
$DIMBLK1
  1
OPEN
  9
$DIMBLK2
  1
OPEN
  9
$DIMSTYLE
  2
STANDARD
  9
$DIMCLRD
 70
     0
  9
$DIMCLRE
 70
     0
  9
$DIMCLRT
 70
     0
  9
$DIMTFAC
 40
1.0
  9
$DIMGAP
 40
1.0
  9
$DIMJUST
 70
     0
  9
$DIMSD1
 70
     0
  9
$DIMSD2
 70
     0
  9
$DIMTOLJ
 70
     1
  9
$DIMTZIN
 70
     0
  9
$DIMALTZ
 70
     0
  9
$DIMALTTZ
 70
     0
  9
$DIMUPT
 70
     0
  9
$DIMDEC
 70
     4
  9
$DIMTDEC
 70
     4
  9
$DIMALTU
 70
     2
  9
$DIMALTTD
 70
     2
  9
$DIMTXSTY
  7
STANDARD
  9
$DIMAUNIT
 70
     0
  9
$DIMADEC
 70
     0
  9
$DIMALTRND
 40
0.0
  9
$DIMAZIN
 70
     0
  9
$DIMDSEP
 70
    46
  9
$DIMATFIT
 70
     3
  9
$DIMFRAC
 70
     0
  9
$DIMLDRBLK
  1
OPEN
  9
$DIMLUNIT
 70
     2
  9
$DIMLWD
 70
    -2
  9
$DIMLWE
 70
    -2
  9
$DIMTMOVE
 70
     0
  9
$LUNITS
 70
     2
  9
$LUPREC
 70
     4
  9
$SKETCHINC
 40
1.0
  9
$FILLETRAD
 40
0.0
  9
$AUNITS
 70
     0
  9
$AUPREC
 70
     0
  9
$MENU
  1
.
  9
$ELEVATION
 40
0.0
  9
$PELEVATION
 40
0.0
  9
$THICKNESS
 40
0.0
  9
$LIMCHECK
 70
     0
  9
$CHAMFERA
 40
10.0
  9
$CHAMFERB
 40
10.0
  9
$CHAMFERC
 40
0.0
  9
$CHAMFERD
 40
0.0
  9
$SKPOLY
 70
     0
  9
$TDCREATE
 40
2452065.479644005
  9
$TDUCREATE
 40
2452065.104644005
  9
$TDUPDATE
 40
2457192.641630845
  9
$TDUUPDATE
 40
2457192.266630845
  9
$TDINDWG
 40
0.0525390972
  9
$TDUSRTIMER
 40
0.0525389583
  9
$USRTIMER
 70
     1
  9
$ANGBASE
 50
0.0
  9
$ANGDIR
 70
     0
  9
$PDMODE
 70
     0
  9
$PDSIZE
 40
0.0
  9
$PLINEWID
 40
0.0
  9
$SPLFRAME
 70
     0
  9
$SPLINETYPE
 70
     6
  9
$SPLINESEGS
 70
     8
  9
$HANDSEED
  5
14C1
  9
$SURFTAB1
 70
     6
  9
$SURFTAB2
 70
     6
  9
$SURFTYPE
 70
     6
  9
$SURFU
 70
     6
  9
$SURFV
 70
     6
  9
$UCSBASE
  2

  9
$UCSNAME
  2

  9
$UCSORG
 10
0.0
 20
0.0
 30
0.0
  9
$UCSXDIR
 10
1.0
 20
0.0
 30
0.0
  9
$UCSYDIR
 10
0.0
 20
1.0
 30
0.0
  9
$UCSORTHOREF
  2

  9
$UCSORTHOVIEW
 70
     0
  9
$UCSORGTOP
 10
0.0
 20
0.0
 30
0.0
  9
$UCSORGBOTTOM
 10
0.0
 20
0.0
 30
0.0
  9
$UCSORGLEFT
 10
0.0
 20
0.0
 30
0.0
  9
$UCSORGRIGHT
 10
0.0
 20
0.0
 30
0.0
  9
$UCSORGFRONT
 10
0.0
 20
0.0
 30
0.0
  9
$UCSORGBACK
 10
0.0
 20
0.0
 30
0.0
  9
$PUCSBASE
  2

  9
$PUCSNAME
  2

  9
$PUCSORG
 10
0.0
 20
0.0
 30
0.0
  9
$PUCSXDIR
 10
1.0
 20
0.0
 30
0.0
  9
$PUCSYDIR
 10
0.0
 20
1.0
 30
0.0
  9
$PUCSORTHOREF
  2

  9
$PUCSORTHOVIEW
 70
     0
  9
$PUCSORGTOP
 10
0.0
 20
0.0
 30
0.0
  9
$PUCSORGBOTTOM
 10
0.0
 20
0.0
 30
0.0
  9
$PUCSORGLEFT
 10
0.0
 20
0.0
 30
0.0
  9
$PUCSORGRIGHT
 10
0.0
 20
0.0
 30
0.0
  9
$PUCSORGFRONT
 10
0.0
 20
0.0
 30
0.0
  9
$PUCSORGBACK
 10
0.0
 20
0.0
 30
0.0
  9
$USERI1
 70
     0
  9
$USERI2
 70
     0
  9
$USERI3
 70
     0
  9
$USERI4
 70
     0
  9
$USERI5
 70
     0
  9
$USERR1
 40
0.0
  9
$USERR2
 40
0.0
  9
$USERR3
 40
0.0
  9
$USERR4
 40
0.0
  9
$USERR5
 40
0.0
  9
$WORLDVIEW
 70
     1
  9
$SHADEDGE
 70
     3
  9
$SHADEDIF
 70
    70
  9
$TILEMODE
 70
     1
  9
$MAXACTVP
 70
    48
  9
$PINSBASE
 10
0.0
 20
0.0
 30
0.0
  9
$PLIMCHECK
 70
     0
  9
$PEXTMIN
 10
1.000000000000000E+20
 20
1.000000000000000E+20
 30
1.000000000000000E+20
  9
$PEXTMAX
 10
-1.000000000000000E+20
 20
-1.000000000000000E+20
 30
-1.000000000000000E+20
  9
$PLIMMIN
 10
0.0
 20
0.0
  9
$PLIMMAX
 10
420.0
 20
297.0
  9
$UNITMODE
 70
     0
  9
$VISRETAIN
 70
     1
  9
$PLINEGEN
 70
     0
  9
$PSLTSCALE
 70
     1
  9
$TREEDEPTH
 70
  3020
  9
$CMLSTYLE
  2
STANDARD
  9
$CMLJUST
 70
     0
  9
$CMLSCALE
 40
1.0
  9
$PROXYGRAPHICS
 70
     1
  9
$MEASUREMENT
 70
     0
  9
$CELWEIGHT
370
    -1
  9
$ENDCAPS
280
     0
  9
$JOINSTYLE
280
     0
  9
$LWDISPLAY
290
     0
  9
$INSUNITS
 70
     0
  9
$HYPERLINKBASE
  1

  9
$STYLESHEET
  1

  9
$XEDIT
290
     1
  9
$CEPSNTYPE
380
     0
  9
$PSTYLEMODE
290
     1
  9
$FINGERPRINTGUID
  2
{B4B18928-58E3-4059-83C1-012A0980AB5D}
  9
$VERSIONGUID
  2
{29CA5DDA-F4EE-4824-97C4-9F1F903239B1}
  9
$EXTNAMES
290
     1
  9
$PSVPSCALE
 40
0.0
  9
$OLESTARTUP
290
     0
  0
ENDSEC
  0
SECTION
  2
CLASSES
  0
CLASS
  1
ACDBDICTIONARYWDFLT
  2
AcDbDictionaryWithDefault
  3
ObjectDBX Classes
 90
        0
280
     0
281
     0
  0
CLASS
  1
ACDBPLACEHOLDER
  2
AcDbPlaceHolder
  3
ObjectDBX Classes
 90
        0
280
     0
281
     0
  0
CLASS
  1
LAYOUT
  2
AcDbLayout
  3
ObjectDBX Classes
 90
        0
280
     0
281
     0
  0
CLASS
  1
DICTIONARYVAR
  2
AcDbDictionaryVar
  3
ObjectDBX Classes
 90
        0
280
     0
281
     0
  0
CLASS
  1
MATERIAL
  2
AcDbMaterial
  3
ObjectDBX Classes
 90
     1153
280
     0
281
     0
  0
CLASS
  1
VISUALSTYLE
  2
AcDbVisualStyle
  3
ObjectDBX Classes
 90
     4095
280
     0
281
     0
  0
CLASS
  1
TABLESTYLE
  2
AcDbTableStyle
  3
ObjectDBX Classes
 90
     4095
280
     0
281
     0
  0
CLASS
  1
SCALE
  2
AcDbScale
  3
ObjectDBX Classes
 90
     1153
280
     0
281
     0
  0
CLASS
  1
MLEADERSTYLE
  2
AcDbMLeaderStyle
  3
ACDB_MLEADERSTYLE_CLASS
 90
     4095
280
     0
281
     0
  0
CLASS
  1
ACDBSECTIONVIEWSTYLE
  2
AcDbSectionViewStyle
  3
ObjectDBX Classes
 90
     1025
280
     0
281
     0
  0
CLASS
  1
ACDBDETAILVIEWSTYLE
  2
AcDbDetailViewStyle
  3
ObjectDBX Classes
 90
     1025
280
     0
281
     0
  0
CLASS
  1
CELLSTYLEMAP
  2
AcDbCellStyleMap
  3
ObjectDBX Classes
 90
     1152
280
     0
281
     0
  0
ENDSEC
  0
SECTION
  2
TABLES
  0
TABLE
  2
VPORT
  5
F02
330
0
100
AcDbSymbolTable
 70
     1
  0
VPORT
  5
140B
330
F02
100
AcDbSymbolTableRecord
100
AcDbViewportTableRecord
  2
*ACTIVE
 70
     0
 10
0.0
 20
0.0
 11
1.0
 21
1.0
 12
522.4036073542645
 22
256.5040295723639
 13
0.0
 23
0.0
 14
10.0
 24
10.0
 15
10.0
 25
10.0
 16
0.0
 26
0.0
 36
1.0
 17
0.0
 27
0.0
 37
0.0
 40
498.5606999459737
 41
1.899603698811096
 42
50.0
 43
0.0
 44
0.0
 50
0.0
 51
0.0
 71
     0
 72
   100
 73
     1
 74
     0
 75
     0
 76
     0
 77
     0
 78
     0
281
     0
 65
     1
110
0.0
120
0.0
130
0.0
111
1.0
121
0.0
131
0.0
112
0.0
122
1.0
132
0.0
 79
     0
146
0.0
1001
ACAD_NAV_VCDISPLAY
1070
     3
  0
ENDTAB
  0
TABLE
  2
LTYPE
  5
EFF
330
0
100
AcDbSymbolTable
 70
     4
  0
LTYPE
  5
F0D
330
EFF
100
AcDbSymbolTableRecord
100
AcDbLinetypeTableRecord
  2
BYBLOCK
 70
     0
  3

 72
    65
 73
     0
 40
0.0
  0
LTYPE
  5
F0E
330
EFF
100
AcDbSymbolTableRecord
100
AcDbLinetypeTableRecord
  2
BYLAYER
 70
     0
  3

 72
    65
 73
     0
 40
0.0
  0
LTYPE
  5
F0F
330
EFF
100
AcDbSymbolTableRecord
100
AcDbLinetypeTableRecord
  2
CONTINUOUS
 70
     0
  3
Solid line
 72
    65
 73
     0
 40
0.0
  0
LTYPE
  5
F1D
330
EFF
100
AcDbSymbolTableRecord
100
AcDbLinetypeTableRecord
  2
DASHED
 70
     0
  3
Dashed __ __ __ __ __ __ __ __ __ __ __ __ __ _
 72
    65
 73
     2
 40
19.05
 49
12.7
 74
     0
 49
-6.349999999999997
 74
     0
  0
LTYPE
  5
F1E
330
EFF
100
AcDbSymbolTableRecord
100
AcDbLinetypeTableRecord
  2
CENTER
 70
     0
  3
Center ____ _ ____ _ ____ _ ____ _ ____ _ ____
 72
    65
 73
     4
 40
50.8
 49
31.75
 74
     0
 49
-6.349999999999997
 74
     0
 49
6.349999999999997
 74
     0
 49
-6.349999999999997
 74
     0
  0
LTYPE
  5
F1F
330
EFF
100
AcDbSymbolTableRecord
100
AcDbLinetypeTableRecord
  2
PHANTOM
 70
     0
  3
Phantom ______  __  __  ______  __  __  ______
 72
    65
 73
     6
 40
63.5
 49
31.75
 74
     0
 49
-6.349999999999997
 74
     0
 49
6.349999999999997
 74
     0
 49
-6.349999999999997
 74
     0
 49
6.349999999999997
 74
     0
 49
-6.349999999999997
 74
     0
  0
ENDTAB
  0
TABLE
  2
LAYER
  5
EFC
330
0
100
AcDbSymbolTable
 70
     8
  0
LAYER
  5
F0A
102
{ACAD_XDICTIONARY
360
1465
102
}
330
EFC
100
AcDbSymbolTableRecord
100
AcDbLayerTableRecord
  2
0
 70
     0
 62
     7
  6
CONTINUOUS
370
    -3
390
1414
  0
LAYER
  5
F20
102
{ACAD_XDICTIONARY
360
1467
102
}
330
EFC
100
AcDbSymbolTableRecord
100
AcDbLayerTableRecord
  2
4
 70
     0
 62
     1
  6
CENTER
370
    -3
390
1414
  0
LAYER
  5
F21
102
{ACAD_XDICTIONARY
360
1469
102
}
330
EFC
100
AcDbSymbolTableRecord
100
AcDbLayerTableRecord
  2
5
 70
     0
 62
     6
  6
PHANTOM
370
    -3
390
1414
  0
LAYER
  5
F22
102
{ACAD_XDICTIONARY
360
146B
102
}
330
EFC
100
AcDbSymbolTableRecord
100
AcDbLayerTableRecord
  2
1
 70
     0
 62
     7
  6
CONTINUOUS
370
    -3
390
1414
  0
LAYER
  5
F23
102
{ACAD_XDICTIONARY
360
146D
102
}
330
EFC
100
AcDbSymbolTableRecord
100
AcDbLayerTableRecord
  2
2
 70
     0
 62
     4
  6
CONTINUOUS
370
    -3
390
1414
  0
LAYER
  5
F24
102
{ACAD_XDICTIONARY
360
146F
102
}
330
EFC
100
AcDbSymbolTableRecord
100
AcDbLayerTableRecord
  2
3
 70
     0
 62
     2
  6
DASHED
370
    -3
390
1414
  0
LAYER
  5
F25
102
{ACAD_XDICTIONARY
360
1471
102
}
330
EFC
100
AcDbSymbolTableRecord
100
AcDbLayerTableRecord
  2
6
 70
     0
 62
     5
  6
CONTINUOUS
370
    -3
390
1414
  0
LAYER
  5
F26
102
{ACAD_XDICTIONARY
360
1473
102
}
330
EFC
100
AcDbSymbolTableRecord
100
AcDbLayerTableRecord
  2
7
 70
     0
 62
     3
  6
CONTINUOUS
370
    -3
390
1414
  0
ENDTAB
  0
TABLE
  2
STYLE
  5
EFD
330
0
100
AcDbSymbolTable
 70
     1
  0
STYLE
  5
F0B
330
EFD
100
AcDbSymbolTableRecord
100
AcDbTextStyleTableRecord
  2
STANDARD
 70
     0
 40
0.0
 41
1.0
 50
0.0
 71
     0
 42
2.5
  3
simplex.shx
  4

  0
ENDTAB
  0
TABLE
  2
VIEW
  5
F00
330
0
100
AcDbSymbolTable
 70
     0
  0
ENDTAB
  0
TABLE
  2
UCS
  5
F01
330
0
100
AcDbSymbolTable
 70
     0
  0
ENDTAB
  0
TABLE
  2
APPID
  5
F03
330
0
100
AcDbSymbolTable
 70
     5
  0
APPID
  5
F0C
330
F03
100
AcDbSymbolTableRecord
100
AcDbRegAppTableRecord
  2
ACAD
 70
     0
  0
APPID
  5
F27
330
F03
100
AcDbSymbolTableRecord
100
AcDbRegAppTableRecord
  2
CONTENTTABDATA
 70
     0
  0
APPID
  5
F28
330
F03
100
AcDbSymbolTableRecord
100
AcDbRegAppTableRecord
  2
CONTENTCURRENTTAB
 70
     0
  0
APPID
  5
147F
330
F03
100
AcDbSymbolTableRecord
100
AcDbRegAppTableRecord
  2
ACAD_NAV_VCDISPLAY
 70
     0
  0
APPID
  5
14B8
330
F03
100
AcDbSymbolTableRecord
100
AcDbRegAppTableRecord
  2
ACAD_MLEADERVER
 70
     0
  0
ENDTAB
  0
TABLE
  2
DIMSTYLE
  5
F04
330
0
100
AcDbSymbolTable
 70
     1
100
AcDbDimStyleTable
 71
     0
  0
DIMSTYLE
105
F29
330
F04
100
AcDbSymbolTableRecord
100
AcDbDimStyleTableRecord
  2
STANDARD
 70
     0
 41
3.0
 42
1.0
 43
10.0
 44
1.0
 73
     0
 74
     0
 77
     3
 78
     8
140
3.2
141
0.0
147
1.0
172
     1
173
     1
284
     8
285
     8
286
     8
340
F0B
  0
ENDTAB
  0
TABLE
  2
BLOCK_RECORD
  5
EFB
330
0
100
AcDbSymbolTable
 70
     1
  0
BLOCK_RECORD
  5
F18
102
{ACAD_XDICTIONARY
360
140E
102
}
330
EFB
100
AcDbSymbolTableRecord
100
AcDbBlockTableRecord
  2
*MODEL_SPACE
340
1462
  0
BLOCK_RECORD
  5
F14
102
{ACAD_XDICTIONARY
360
140C
102
}
330
EFB
100
AcDbSymbolTableRecord
100
AcDbBlockTableRecord
  2
*PAPER_SPACE
340
1463
  0
BLOCK_RECORD
  5
F31
330
EFB
100
AcDbSymbolTableRecord
100
AcDbBlockTableRecord
  2
_OPEN
340
0
  0
ENDTAB
  0
ENDSEC
  0
SECTION
  2
BLOCKS
  0
BLOCK
  5
F19
330
F18
100
AcDbEntity
  8
0
100
AcDbBlockBegin
  2
*MODEL_SPACE
 70
     0
 10
0.0
 20
0.0
 30
0.0
  3
*MODEL_SPACE
  1

  0
ENDBLK
  5
F1A
330
F18
100
AcDbEntity
  8
0
100
AcDbBlockEnd
  0
BLOCK
  5
F15
330
F14
100
AcDbEntity
 67
     1
  8
0
100
AcDbBlockBegin
  2
*PAPER_SPACE
 70
     0
 10
0.0
 20
0.0
 30
0.0
  3
*PAPER_SPACE
  1

  0
ENDBLK
  5
F16
330
F14
100
AcDbEntity
 67
     1
  8
0
100
AcDbBlockEnd
  0
BLOCK
  5
F32
330
F31
100
AcDbEntity
  8
0
100
AcDbBlockBegin
  2
_OPEN
 70
     0
 10
0.0
 20
0.0
 30
0.0
  3
_OPEN
  1

  0
LINE
  5
F33
330
F31
100
AcDbEntity
  8
0
  6
ByBlock
 62
     0
100
AcDbLine
 10
-1.0
 20
0.166667
 30
0.0
 11
0.0
 21
0.0
 31
0.0
  0
LINE
  5
F34
330
F31
100
AcDbEntity
  8
0
  6
ByBlock
 62
     0
100
AcDbLine
 10
0.0
 20
0.0
 30
0.0
 11
-1.0
 21
-0.166667
 31
0.0
  0
LINE
  5
F35
330
F31
100
AcDbEntity
  8
0
  6
ByBlock
 62
     0
100
AcDbLine
 10
0.0
 20
0.0
 30
0.0
 11
-1.0
 21
0.0
 31
0.0
  0
ENDBLK
  5
F36
330
F31
100
AcDbEntity
  8
0
100
AcDbBlockEnd
  0
ENDSEC
  0
SECTION
  2
ENTITIES
  0
TEXT
  5
F37
330
F18
100
AcDbEntity
  8
4
  6
CENTER
100
AcDbText
 10
23.979509
 20
10.0
 30
0.0
 40
1.399999999999999
  1
4
100
AcDbText
  0
TEXT
  5
F38
330
F18
100
AcDbEntity
  8
7
  6
Continuous
100
AcDbText
 10
9.999997999999999
 20
26.000001
 30
0.0
 40
3.0
  1
CODE No.13186
100
AcDbText
  0
TEXT
  5
F39
330
F18
100
AcDbEntity
  8
7
  6
Continuous
100
AcDbText
 10
9.999997999999999
 20
18.000001
 30
0.0
 40
3.0
  1
TYPE No.THA-330SF-1
100
AcDbText
  0
TEXT
  5
F3A
330
F18
100
AcDbEntity
  8
1
  6
Continuous
100
AcDbText
 10
9.999997999999999
 20
10.000001
 30
0.0
 40
1.399999999999999
  1
LAYER
100
AcDbText
  0
TEXT
  5
F3B
330
F18
100
AcDbEntity
  8
2
  6
Continuous
100
AcDbText
 10
19.979509
 20
10.0
 30
0.0
 40
1.399999999999999
  1
2
100
AcDbText
  0
TEXT
  5
F3C
330
F18
100
AcDbEntity
  8
3
  6
DASHED
100
AcDbText
 10
21.97950899999999
 20
10.0
 30
0.0
 40
1.399999999999999
  1
3
100
AcDbText
  0
TEXT
  5
F3D
330
F18
100
AcDbEntity
  8
1
  6
Continuous
100
AcDbText
 10
17.979509
 20
10.0
 30
0.0
 40
1.399999999999999
  1
1
100
AcDbText
  0
TEXT
  5
F3E
330
F18
100
AcDbEntity
  8
5
  6
PHANTOM
100
AcDbText
 10
25.979509
 20
10.0
 30
0.0
 40
1.399999999999999
  1
5
100
AcDbText
  0
TEXT
  5
F3F
330
F18
100
AcDbEntity
  8
6
  6
Continuous
100
AcDbText
 10
27.979509
 20
10.0
 30
0.0
 40
1.399999999999999
  1
6
100
AcDbText
  0
TEXT
  5
F40
330
F18
100
AcDbEntity
  8
7
  6
Continuous
100
AcDbText
 10
29.97950900000001
 20
10.0
 30
0.0
 40
1.399999999999999
  1
7
100
AcDbText
  0
LINE
  5
F41
330
F18
100
AcDbEntity
  8
1
  6
Continuous
100
AcDbLine
 10
229.4759439999999
 20
294.468049
 30
0.0
 11
229.4759439999999
 21
213.682531
 31
0.0
  0
LINE
  5
F42
330
F18
100
AcDbEntity
  8
1
  6
Continuous
100
AcDbLine
 10
215.187965
 20
277.75022
 30
0.0
 11
222.320995
 21
193.442851
 31
0.0
  0
LINE
  5
F43
330
F18
100
AcDbEntity
  8
1
  6
Continuous
100
AcDbLine
 10
257.575944
 20
45.0
 30
0.0
 11
257.575944
 21
101.0
 31
0.0
  0
LINE
  5
F44
330
F18
100
AcDbEntity
  8
1
  6
Continuous
100
AcDbLine
 10
263.5759439999998
 20
43.0
 30
0.0
 11
263.5759439999998
 21
103.0
 31
0.0
  0
LINE
  5
F45
330
F18
100
AcDbEntity
  8
1
  6
Continuous
100
AcDbLine
 10
261.575944
 20
43.0
 30
0.0
 11
261.575944
 21
103.0
 31
0.0
  0
LINE
  5
F46
330
F18
100
AcDbEntity
  8
1
  6
Continuous
100
AcDbLine
 10
247.975944
 20
86.5
 30
0.0
 11
216.815299
 21
86.5
 31
0.0
  0
ARC
  5
F47
330
F18
100
AcDbEntity
  8
1
  6
Continuous
100
AcDbCircle
 10
228.475944
 20
71.82550000000002
 30
0.0
 40
7.0
100
AcDbArc
 50
270.0
 51
0.0
  0
ARC
  5
F48
330
F18
100
AcDbEntity
  8
1
  6
Continuous
100
AcDbCircle
 10
228.475944
 20
74.17449999999998
 30
0.0
 40
7.0
100
AcDbArc
 50
0.0
 51
90.0
  0
LINE
  5
F49
330
F18
100
AcDbEntity
  8
1
  6
Continuous
100
AcDbLine
 10
247.975944
 20
59.5
 30
0.0
 11
216.815299
 21
59.5
 31
0.0
  0
LINE
  5
F4A
330
F18
100
AcDbEntity
  8
4
  6
CENTER
100
AcDbLine
 10
307.14945
 20
73.0
 30
0.0
 11
208.875944
 21
73.0
 31
0.0
  0
ARC
  5
F4B
330
F18
100
AcDbEntity
  8
1
  6
Continuous
100
AcDbCircle
 10
274.4759439999999
 20
73.0
 30
0.0
 40
60.0
100
AcDbArc
 50
167.7683659999999
 51
192.231634
  0
ARC
  5
F4C
330
F18
100
AcDbEntity
  8
1
  6
Continuous
100
AcDbCircle
 10
282.4759439999999
 20
73.0
 30
0.0
 40
60.0
100
AcDbArc
 50
173.0154499999999
 51
186.98455
  0
ARC
  5
F4D
330
F18
100
AcDbEntity
  8
1
  6
Continuous
100
AcDbCircle
 10
274.4759439999999
 20
73.0
 30
0.0
 40
61.0
100
AcDbArc
 50
172.4640909999999
 51
187.535909
  0
ARC
  5
F4E
330
F18
100
AcDbEntity
  8
1
  6
Continuous
100
AcDbCircle
 10
274.4759439999999
 20
73.0
 30
0.0
 40
60.5
100
AcDbArc
 50
169.042393
 51
190.957607
  0
LINE
  5
F4F
330
F18
100
AcDbEntity
  8
1
  6
Continuous
100
AcDbLine
 10
229.4759439999999
 20
78.0
 30
0.0
 11
229.4759439999999
 21
68.0
 31
0.0
  0
LINE
  5
F50
330
F18
100
AcDbEntity
  8
1
  6
Continuous
100
AcDbLine
 10
223.2510629999999
 20
65.076633
 30
0.0
 11
216.1875499999999
 21
59.721583
 31
0.0
  0
ARC
  5
F51
330
F18
100
AcDbEntity
  8
1
  6
Continuous
100
AcDbCircle
 10
216.815299
 20
60.5
 30
0.0
 40
1.0
100
AcDbArc
 50
192.231634
 51
270.0
  0
LINE
  5
F52
330
F18
100
AcDbEntity
  8
1
  6
Continuous
100
AcDbLine
 10
214.507202
 20
65.0
 30
0.0
 11
214.0028089999999
 21
65.0
 31
0.0
  0
LINE
  5
F53
330
F18
100
AcDbEntity
  8
1
  6
Continuous
100
AcDbLine
 10
215.588339
 20
61.5
 30
0.0
 11
215.078974
 21
61.5
 31
0.0
  0
LINE
  5
F54
330
F18
100
AcDbEntity
  8
1
  6
Continuous
100
AcDbLine
 10
228.475944
 20
64.8255
 30
0.0
 11
223.913784
 21
64.8255
 31
0.0
  0
ARC
  5
F55
330
F18
100
AcDbEntity
  8
1
  6
Continuous
100
AcDbCircle
 10
223.913784
 20
65.82550000000001
 30
0.0
 40
1.0
100
AcDbArc
 50
186.98455
 51
270.0
  0
LINE
  5
F56
330
F18
100
AcDbEntity
  8
1
  6
Continuous
100
AcDbLine
 10
229.4759439999999
 20
64.897296
 30
0.0
 11
229.4759439999999
 21
59.5
 31
0.0
  0
LINE
  5
F57
330
F18
100
AcDbEntity
  8
1
  6
Continuous
100
AcDbLine
 10
223.2510629999999
 20
80.92336600000001
 30
0.0
 11
216.1875499999999
 21
86.27841600000001
 31
0.0
  0
ARC
  5
F58
330
F18
100
AcDbEntity
  8
1
  6
Continuous
100
AcDbCircle
 10
216.815299
 20
85.5
 30
0.0
 40
1.0
100
AcDbArc
 50
90.0
 51
167.7683659999999
  0
LINE
  5
F59
330
F18
100
AcDbEntity
  8
1
  6
Continuous
100
AcDbLine
 10
215.588339
 20
84.50000000000001
 30
0.0
 11
215.078974
 21
84.50000000000001
 31
0.0
  0
LINE
  5
F5A
330
F18
100
AcDbEntity
  8
1
  6
Continuous
100
AcDbLine
 10
214.507202
 20
81.0
 30
0.0
 11
214.0028089999999
 21
81.0
 31
0.0
  0
LINE
  5
F5B
330
F18
100
AcDbEntity
  8
1
  6
Continuous
100
AcDbLine
 10
235.475944
 20
74.17449999999998
 30
0.0
 11
235.475944
 21
71.82550000000002
 31
0.0
  0
LINE
  5
F5C
330
F18
100
AcDbEntity
  8
1
  6
Continuous
100
AcDbLine
 10
228.475944
 20
81.17449999999998
 30
0.0
 11
223.913784
 21
81.17449999999998
 31
0.0
  0
ARC
  5
F5D
330
F18
100
AcDbEntity
  8
1
  6
Continuous
100
AcDbCircle
 10
223.913784
 20
80.17449999999998
 30
0.0
 40
1.0
100
AcDbArc
 50
90.0
 51
173.0154499999999
  0
LINE
  5
F5E
330
F18
100
AcDbEntity
  8
1
  6
Continuous
100
AcDbLine
 10
229.4759439999999
 20
86.5
 30
0.0
 11
229.4759439999999
 21
81.10270300000001
 31
0.0
  0
LINE
  5
F5F
330
F18
100
AcDbEntity
  8
1
  6
Continuous
100
AcDbLine
 10
263.5759439999998
 20
43.0
 30
0.0
 11
259.575944
 21
43.0
 31
0.0
  0
ARC
  5
F60
330
F18
100
AcDbEntity
  8
1
  6
Continuous
100
AcDbCircle
 10
259.575944
 20
45.0
 30
0.0
 40
2.0
100
AcDbArc
 50
180.0
 51
270.0
  0
LINE
  5
F61
330
F18
100
AcDbEntity
  8
1
  6
Continuous
100
AcDbLine
 10
283.375944
 20
84.0
 30
0.0
 11
263.5759439999998
 21
84.0
 31
0.0
  0
LINE
  5
F62
330
F18
100
AcDbEntity
  8
1
  6
Continuous
100
AcDbLine
 10
283.375944
 20
62.0
 30
0.0
 11
263.5759439999998
 21
62.0
 31
0.0
  0
LINE
  5
F63
330
F18
100
AcDbEntity
  8
2
  6
Continuous
100
AcDbLine
 10
284.1879439999999
 20
83.18800000000001
 30
0.0
 11
266.982369
 21
83.18800000000001
 31
0.0
  0
LINE
  5
F64
330
F18
100
AcDbEntity
  8
2
  6
Continuous
100
AcDbLine
 10
284.1879439999999
 20
62.812
 30
0.0
 11
266.982369
 21
62.812
 31
0.0
  0
LINE
  5
F65
330
F18
100
AcDbEntity
  8
1
  6
Continuous
100
AcDbLine
 10
283.375944
 20
78.0929
 30
0.0
 11
263.5759439999998
 21
78.0929
 31
0.0
  0
LINE
  5
F66
330
F18
100
AcDbEntity
  8
1
  6
Continuous
100
AcDbLine
 10
283.375944
 20
67.9071
 30
0.0
 11
263.5759439999998
 21
67.9071
 31
0.0
  0
LINE
  5
F67
330
F18
100
AcDbEntity
  8
2
  6
Continuous
100
AcDbLine
 10
268.1759439999998
 20
75.44931948466256
 30
0.0
 11
283.375944
 21
67.9071
 31
0.0
  0
LINE
  5
F68
330
F18
100
AcDbEntity
  8
2
  6
Continuous
100
AcDbLine
 10
283.375944
 20
78.0929
 30
0.0
 11
268.1759439999998
 21
70.55068051533743
 31
0.0
  0
LINE
  5
F69
330
F18
100
AcDbEntity
  8
1
  6
Continuous
100
AcDbLine
 10
247.975944
 20
59.5
 30
0.0
 11
247.975944
 21
86.5
 31
0.0
  0
LINE
  5
F6A
330
F18
100
AcDbEntity
  8
1
  6
Continuous
100
AcDbLine
 10
248.0259439999999
 20
59.5
 30
0.0
 11
248.0259439999999
 21
86.5
 31
0.0
  0
LINE
  5
F6B
330
F18
100
AcDbEntity
  8
1
  6
Continuous
100
AcDbLine
 10
248.0259439999999
 20
59.5
 30
0.0
 11
257.575944
 21
56.0
 31
0.0
  0
LINE
  5
F6C
330
F18
100
AcDbEntity
  8
1
  6
Continuous
100
AcDbLine
 10
266.982369
 20
67.9071
 30
0.0
 11
266.982369
 21
62.0
 31
0.0
  0
LINE
  5
F6D
330
F18
100
AcDbEntity
  8
2
  6
Continuous
100
AcDbLine
 10
265.575944
 20
62.0
 30
0.0
 11
266.982369
 21
62.812
 31
0.0
  0
LINE
  5
F6E
330
F18
100
AcDbEntity
  8
1
  6
Continuous
100
AcDbLine
 10
248.0259439999999
 20
86.5
 30
0.0
 11
257.575944
 21
90.0
 31
0.0
  0
LINE
  5
F6F
330
F18
100
AcDbEntity
  8
1
  6
Continuous
100
AcDbLine
 10
266.982369
 20
84.0
 30
0.0
 11
266.982369
 21
78.0929
 31
0.0
  0
LINE
  5
F70
330
F18
100
AcDbEntity
  8
1
  6
Continuous
100
AcDbLine
 10
268.1759439999998
 20
76.25
 30
0.0
 11
268.1759439999998
 21
69.75
 31
0.0
  0
LINE
  5
F71
330
F18
100
AcDbEntity
  8
1
  6
Continuous
100
AcDbLine
 10
263.5759439999998
 20
76.25
 30
0.0
 11
268.1759439999998
 21
76.25
 31
0.0
  0
LINE
  5
F72
330
F18
100
AcDbEntity
  8
1
  6
Continuous
100
AcDbLine
 10
263.5759439999998
 20
69.75
 30
0.0
 11
268.1759439999998
 21
69.75
 31
0.0
  0
LINE
  5
F73
330
F18
100
AcDbEntity
  8
2
  6
Continuous
100
AcDbLine
 10
265.575944
 20
84.0
 30
0.0
 11
266.982369
 21
83.18800000000001
 31
0.0
  0
LINE
  5
F74
330
F18
100
AcDbEntity
  8
1
  6
Continuous
100
AcDbLine
 10
284.925944
 20
83.0
 30
0.0
 11
284.925944
 21
63.0
 31
0.0
  0
ARC
  5
F75
330
F18
100
AcDbEntity
  8
1
  6
Continuous
100
AcDbCircle
 10
273.1685979999999
 20
73.0
 30
0.0
 40
11.407346
100
AcDbArc
 50
333.483346
 51
26.516654
  0
LINE
  5
F76
330
F18
100
AcDbEntity
  8
1
  6
Continuous
100
AcDbLine
 10
283.375944
 20
62.0
 30
0.0
 11
284.925944
 21
63.55
 31
0.0
  0
LINE
  5
F77
330
F18
100
AcDbEntity
  8
1
  6
Continuous
100
AcDbLine
 10
283.375944
 20
67.9071
 30
0.0
 11
283.375944
 21
62.0
 31
0.0
  0
LINE
  5
F78
330
F18
100
AcDbEntity
  8
1
  6
Continuous
100
AcDbLine
 10
283.375944
 20
84.0
 30
0.0
 11
283.375944
 21
78.0929
 31
0.0
  0
LINE
  5
F79
330
F18
100
AcDbEntity
  8
1
  6
Continuous
100
AcDbLine
 10
283.375944
 20
84.0
 30
0.0
 11
284.925944
 21
82.45
 31
0.0
  0
ARC
  5
F7A
330
F18
100
AcDbEntity
  8
1
  6
Continuous
100
AcDbCircle
 10
309.4618179999998
 20
64.25
 30
0.0
 40
34.52106099999999
100
AcDbArc
 50
345.317147
 51
14.68285299999999
  0
ARC
  5
F7B
330
F18
100
AcDbEntity
  8
1
  6
Continuous
100
AcDbCircle
 10
371.50394
 20
64.25
 30
0.0
 40
34.52106099999999
100
AcDbArc
 50
165.317147
 51
194.6828529999999
  0
LINE
  5
F7C
330
F18
100
AcDbEntity
  8
1
  6
Continuous
100
AcDbLine
 10
336.9828790000001
 20
90.5
 30
0.0
 11
336.9828790000001
 21
55.5
 31
0.0
  0
LINE
  5
F7D
330
F18
100
AcDbEntity
  8
1
  6
Continuous
100
AcDbLine
 10
343.982879
 20
90.5
 30
0.0
 11
343.982879
 21
55.5
 31
0.0
  0
LINE
  5
F7E
330
F18
100
AcDbEntity
  8
1
  6
Continuous
100
AcDbLine
 10
345.482879
 20
89.0
 30
0.0
 11
345.482879
 21
57.0
 31
0.0
  0
LINE
  5
F7F
330
F18
100
AcDbEntity
  8
1
  6
Continuous
100
AcDbLine
 10
335.182879
 20
55.5
 30
0.0
 11
335.182879
 21
90.5
 31
0.0
  0
LINE
  5
F80
330
F18
100
AcDbEntity
  8
1
  6
Continuous
100
AcDbLine
 10
333.7828789999999
 20
90.5
 30
0.0
 11
333.7828789999999
 21
55.5
 31
0.0
  0
LINE
  5
F81
330
F18
100
AcDbEntity
  8
1
  6
Continuous
100
AcDbLine
 10
335.482879
 20
89.0
 30
0.0
 11
335.482879
 21
57.0
 31
0.0
  0
LINE
  5
F82
330
F18
100
AcDbEntity
  8
1
  6
Continuous
100
AcDbLine
 10
336.9828790000001
 20
55.5
 30
0.0
 11
343.982879
 21
55.5
 31
0.0
  0
LINE
  5
F83
330
F18
100
AcDbEntity
  8
1
  6
Continuous
100
AcDbLine
 10
335.482879
 20
57.0
 30
0.0
 11
336.9828790000001
 21
57.0
 31
0.0
  0
LINE
  5
F84
330
F18
100
AcDbEntity
  8
1
  6
Continuous
100
AcDbLine
 10
333.7828789999999
 20
55.5
 30
0.0
 11
335.182879
 21
55.5
 31
0.0
  0
LINE
  5
F85
330
F18
100
AcDbEntity
  8
1
  6
Continuous
100
AcDbLine
 10
335.182879
 20
65.94049
 30
0.0
 11
335.482879
 21
66.24049000000001
 31
0.0
  0
LINE
  5
F86
330
F18
100
AcDbEntity
  8
1
  6
Continuous
100
AcDbLine
 10
335.482879
 20
66.24049000000001
 30
0.0
 11
335.182879
 21
66.54049999999999
 31
0.0
  0
LINE
  5
F87
330
F18
100
AcDbEntity
  8
1
  6
Continuous
100
AcDbLine
 10
335.182879
 20
62.06285
 30
0.0
 11
335.482879
 21
62.06285
 31
0.0
  0
LINE
  5
F88
330
F18
100
AcDbEntity
  8
1
  6
Continuous
100
AcDbLine
 10
335.482879
 20
62.06285
 30
0.0
 11
335.182879
 21
60.90469999999999
 31
0.0
  0
LINE
  5
F89
330
F18
100
AcDbEntity
  8
1
  6
Continuous
100
AcDbLine
 10
333.482879
 20
66.24049000000001
 30
0.0
 11
333.7828789999999
 21
66.54049999999999
 31
0.0
  0
LINE
  5
F8A
330
F18
100
AcDbEntity
  8
1
  6
Continuous
100
AcDbLine
 10
333.482879
 20
66.24049000000001
 30
0.0
 11
333.7828789999999
 21
65.94049
 31
0.0
  0
LINE
  5
F8B
330
F18
100
AcDbEntity
  8
1
  6
Continuous
100
AcDbLine
 10
333.7828789999999
 20
62.06285
 30
0.0
 11
333.482879
 21
62.06285
 31
0.0
  0
LINE
  5
F8C
330
F18
100
AcDbEntity
  8
1
  6
Continuous
100
AcDbLine
 10
333.482879
 20
62.06285
 30
0.0
 11
333.7828789999999
 21
60.90469999999999
 31
0.0
  0
LINE
  5
F8D
330
F18
100
AcDbEntity
  8
1
  6
Continuous
100
AcDbLine
 10
345.482879
 20
57.0
 30
0.0
 11
343.982879
 21
57.0
 31
0.0
  0
LINE
  5
F8E
330
F18
100
AcDbEntity
  8
1
  6
Continuous
100
AcDbLine
 10
336.9828790000001
 20
90.5
 30
0.0
 11
343.982879
 21
90.5
 31
0.0
  0
LINE
  5
F8F
330
F18
100
AcDbEntity
  8
1
  6
Continuous
100
AcDbLine
 10
338.110211
 20
73.0
 30
0.0
 11
342.855547
 21
73.0
 31
0.0
  0
LINE
  5
F90
330
F18
100
AcDbEntity
  8
4
  6
CENTER
100
AcDbLine
 10
328.932875
 20
73.0
 30
0.0
 11
350.482879
 21
73.0
 31
0.0
  0
LINE
  5
F91
330
F18
100
AcDbEntity
  8
1
  6
Continuous
100
AcDbLine
 10
335.182879
 20
80.05953000000003
 30
0.0
 11
335.482879
 21
79.75953
 31
0.0
  0
LINE
  5
F92
330
F18
100
AcDbEntity
  8
1
  6
Continuous
100
AcDbLine
 10
333.482879
 20
79.75953
 30
0.0
 11
333.7828789999999
 21
80.05953000000003
 31
0.0
  0
ARC
  5
F93
330
F18
100
AcDbEntity
  8
1
  6
Continuous
100
AcDbCircle
 10
371.50394
 20
81.75
 30
0.0
 40
34.52106099999999
100
AcDbArc
 50
165.317147
 51
194.6828529999999
  0
LINE
  5
F94
330
F18
100
AcDbEntity
  8
1
  6
Continuous
100
AcDbLine
 10
335.482879
 20
79.75953
 30
0.0
 11
335.182879
 21
79.45953
 31
0.0
  0
LINE
  5
F95
330
F18
100
AcDbEntity
  8
1
  6
Continuous
100
AcDbLine
 10
335.182879
 20
73.28995
 30
0.0
 11
335.482879
 21
72.98994999999997
 31
0.0
  0
LINE
  5
F96
330
F18
100
AcDbEntity
  8
1
  6
Continuous
100
AcDbLine
 10
335.482879
 20
72.98994999999997
 30
0.0
 11
335.182879
 21
72.68994999999998
 31
0.0
  0
LINE
  5
F97
330
F18
100
AcDbEntity
  8
1
  6
Continuous
100
AcDbLine
 10
333.482879
 20
79.75953
 30
0.0
 11
333.7828789999999
 21
79.45953
 31
0.0
  0
LINE
  5
F98
330
F18
100
AcDbEntity
  8
1
  6
Continuous
100
AcDbLine
 10
333.482879
 20
73.01003
 30
0.0
 11
333.7828789999999
 21
72.71003
 31
0.0
  0
LINE
  5
F99
330
F18
100
AcDbEntity
  8
1
  6
Continuous
100
AcDbLine
 10
333.482879
 20
73.01003
 30
0.0
 11
333.7828789999999
 21
73.31002999999999
 31
0.0
  0
LINE
  5
F9A
330
F18
100
AcDbEntity
  8
1
  6
Continuous
100
AcDbLine
 10
335.482879
 20
89.0
 30
0.0
 11
336.9828790000001
 21
89.0
 31
0.0
  0
LINE
  5
F9B
330
F18
100
AcDbEntity
  8
1
  6
Continuous
100
AcDbLine
 10
335.482879
 20
83.93715
 30
0.0
 11
335.182879
 21
85.09529999999998
 31
0.0
  0
LINE
  5
F9C
330
F18
100
AcDbEntity
  8
1
  6
Continuous
100
AcDbLine
 10
335.182879
 20
83.93715
 30
0.0
 11
335.482879
 21
83.93715
 31
0.0
  0
LINE
  5
F9D
330
F18
100
AcDbEntity
  8
1
  6
Continuous
100
AcDbLine
 10
333.482879
 20
83.93715
 30
0.0
 11
333.7828789999999
 21
85.09529999999998
 31
0.0
  0
LINE
  5
F9E
330
F18
100
AcDbEntity
  8
1
  6
Continuous
100
AcDbLine
 10
333.7828789999999
 20
83.93715
 30
0.0
 11
333.482879
 21
83.93715
 31
0.0
  0
LINE
  5
F9F
330
F18
100
AcDbEntity
  8
1
  6
Continuous
100
AcDbLine
 10
333.7828789999999
 20
90.5
 30
0.0
 11
335.182879
 21
90.5
 31
0.0
  0
ARC
  5
FA0
330
F18
100
AcDbEntity
  8
1
  6
Continuous
100
AcDbCircle
 10
309.4618179999998
 20
81.75
 30
0.0
 40
34.52106099999999
100
AcDbArc
 50
345.317147
 51
14.68285299999999
  0
LINE
  5
FA1
330
F18
100
AcDbEntity
  8
1
  6
Continuous
100
AcDbLine
 10
345.482879
 20
89.0
 30
0.0
 11
343.982879
 21
89.0
 31
0.0
  0
LINE
  5
FA2
330
F18
100
AcDbEntity
  8
1
  6
Continuous
100
AcDbLine
 10
295.925944
 20
63.5
 30
0.0
 11
295.925944
 21
82.5
 31
0.0
  0
LINE
  5
FA3
330
F18
100
AcDbEntity
  8
1
  6
Continuous
100
AcDbLine
 10
295.425944
 20
63.0
 30
0.0
 11
284.925944
 21
63.0
 31
0.0
  0
ARC
  5
FA4
330
F18
100
AcDbEntity
  8
1
  6
Continuous
100
AcDbCircle
 10
295.425944
 20
63.5
 30
0.0
 40
0.5
100
AcDbArc
 50
270.0
 51
0.0
  0
LINE
  5
FA5
330
F18
100
AcDbEntity
  8
1
  6
Continuous
100
AcDbLine
 10
295.425944
 20
83.0
 30
0.0
 11
284.925944
 21
83.0
 31
0.0
  0
ARC
  5
FA6
330
F18
100
AcDbEntity
  8
1
  6
Continuous
100
AcDbCircle
 10
295.425944
 20
82.5
 30
0.0
 40
0.5
100
AcDbArc
 50
0.0
 51
90.0
  0
LINE
  5
FA7
330
F18
100
AcDbEntity
  8
1
  6
Continuous
100
AcDbLine
 10
297.5259439999998
 20
81.0
 30
0.0
 11
297.5259439999998
 21
65.0
 31
0.0
  0
LINE
  5
FA8
330
F18
100
AcDbEntity
  8
1
  6
Continuous
100
AcDbLine
 10
299.0259439999999
 20
66.90000000000001
 30
0.0
 11
299.0259439999999
 21
79.09999999999998
 31
0.0
  0
ARC
  5
FA9
330
F18
100
AcDbEntity
  8
1
  6
Continuous
100
AcDbCircle
 10
306.2512359999999
 20
70.5
 30
0.0
 40
7.225291999999996
100
AcDbArc
 50
159.7567339999999
 51
200.243266
  0
LINE
  5
FAA
330
F18
100
AcDbEntity
  8
1
  6
Continuous
100
AcDbLine
 10
303.025944
 20
78.0
 30
0.0
 11
303.025944
 21
68.0
 31
0.0
  0
ARC
  5
FAB
330
F18
100
AcDbEntity
  8
1
  6
Continuous
100
AcDbCircle
 10
295.8006519999999
 20
70.5
 30
0.0
 40
7.225291999999996
100
AcDbArc
 50
339.756734
 51
20.24326599999999
  0
LINE
  5
FAC
330
F18
100
AcDbEntity
  8
1
  6
Continuous
100
AcDbLine
 10
295.925944
 20
65.0
 30
0.0
 11
297.5259439999998
 21
65.0
 31
0.0
  0
LINE
  5
FAD
330
F18
100
AcDbEntity
  8
1
  6
Continuous
100
AcDbLine
 10
299.0259439999999
 20
66.90000000000001
 30
0.0
 11
297.5259439999998
 21
66.90000000000001
 31
0.0
  0
LINE
  5
FAE
330
F18
100
AcDbEntity
  8
1
  6
Continuous
100
AcDbLine
 10
303.025944
 20
68.0
 30
0.0
 11
299.0259439999999
 21
68.0
 31
0.0
  0
LINE
  5
FAF
330
F18
100
AcDbEntity
  8
1
  6
Continuous
100
AcDbLine
 10
297.5259439999998
 20
73.0
 30
0.0
 11
299.0259439999999
 21
74.5
 31
0.0
  0
LINE
  5
FB0
330
F18
100
AcDbEntity
  8
1
  6
Continuous
100
AcDbLine
 10
297.5259439999998
 20
71.496043
 30
0.0
 11
299.0259439999999
 21
72.996043
 31
0.0
  0
LINE
  5
FB1
330
F18
100
AcDbEntity
  8
1
  6
Continuous
100
AcDbLine
 10
299.0259439999999
 20
79.09999999999998
 30
0.0
 11
297.5259439999998
 21
79.09999999999998
 31
0.0
  0
LINE
  5
FB2
330
F18
100
AcDbEntity
  8
1
  6
Continuous
100
AcDbLine
 10
299.472236
 20
73.0
 30
0.0
 11
302.579652
 21
73.0
 31
0.0
  0
LINE
  5
FB3
330
F18
100
AcDbEntity
  8
1
  6
Continuous
100
AcDbLine
 10
303.025944
 20
78.0
 30
0.0
 11
299.0259439999999
 21
78.0
 31
0.0
  0
ARC
  5
FB4
330
F18
100
AcDbEntity
  8
1
  6
Continuous
100
AcDbCircle
 10
306.2512359999999
 20
75.5
 30
0.0
 40
7.225291999999996
100
AcDbArc
 50
159.7567339999999
 51
200.243266
  0
ARC
  5
FB5
330
F18
100
AcDbEntity
  8
1
  6
Continuous
100
AcDbCircle
 10
295.8006519999999
 20
75.5
 30
0.0
 40
7.225291999999996
100
AcDbArc
 50
339.756734
 51
20.24326599999999
  0
LINE
  5
FB6
330
F18
100
AcDbEntity
  8
1
  6
Continuous
100
AcDbLine
 10
295.925944
 20
81.0
 30
0.0
 11
297.5259439999998
 21
81.0
 31
0.0
  0
ARC
  5
FB7
330
F18
100
AcDbEntity
  8
1
  6
Continuous
100
AcDbCircle
 10
259.575944
 20
101.0
 30
0.0
 40
2.0
100
AcDbArc
 50
90.0
 51
180.0
  0
LINE
  5
FB8
330
F18
100
AcDbEntity
  8
1
  6
Continuous
100
AcDbLine
 10
263.5759439999998
 20
103.0
 30
0.0
 11
259.575944
 21
103.0
 31
0.0
  0
ARC
  5
FB9
330
F18
100
AcDbEntity
  8
1
  6
Continuous
100
AcDbCircle
 10
227.4759439999999
 20
199.6114629999999
 30
0.0
 40
8.0
100
AcDbArc
 50
270.0
 51
0.0
  0
ARC
  5
FBA
330
F18
100
AcDbEntity
  8
1
  6
Continuous
100
AcDbCircle
 10
227.4759439999999
 20
202.2977549999999
 30
0.0
 40
8.0
100
AcDbArc
 50
0.0
 51
45.0
  0
LINE
  5
FBB
330
F18
100
AcDbEntity
  8
1
  6
Continuous
100
AcDbLine
 10
224.3138749999999
 20
191.6114629999999
 30
0.0
 11
227.4759439999999
 21
191.6114629999999
 31
0.0
  0
ARC
  5
FBC
330
F18
100
AcDbEntity
  8
1
  6
Continuous
100
AcDbCircle
 10
224.3138749999999
 20
193.6114629999999
 30
0.0
 40
2.0
100
AcDbArc
 50
184.8361309999999
 51
270.0
  0
LINE
  5
FBD
330
F18
100
AcDbEntity
  8
1
  6
Continuous
100
AcDbLine
 10
235.475944
 20
202.2977549999999
 30
0.0
 11
235.475944
 21
199.6114629999999
 31
0.0
  0
LINE
  5
FBE
330
F18
100
AcDbEntity
  8
1
  6
Continuous
100
AcDbLine
 10
233.132798
 20
207.954609
 30
0.0
 11
230.94041
 21
210.146997
 31
0.0
  0
ARC
  5
FBF
330
F18
100
AcDbEntity
  8
1
  6
Continuous
100
AcDbCircle
 10
234.475944
 20
213.682531
 30
0.0
 40
5.0
100
AcDbArc
 50
180.0
 51
225.0
  0
LINE
  5
FC0
330
F18
100
AcDbEntity
  8
1
  6
Continuous
100
AcDbLine
 10
257.575944
 20
340.5733769999998
 30
0.0
 11
257.575944
 21
336.1738609999998
 31
0.0
  0
LINE
  5
FC1
330
F18
100
AcDbEntity
  8
1
  6
Continuous
100
AcDbLine
 10
261.575944
 20
341.611463
 30
0.0
 11
261.575944
 21
281.611463
 31
0.0
  0
LINE
  5
FC2
330
F18
100
AcDbEntity
  8
1
  6
Continuous
100
AcDbLine
 10
263.5759439999998
 20
341.611463
 30
0.0
 11
263.5759439999998
 21
281.611463
 31
0.0
  0
LINE
  5
FC3
330
F18
100
AcDbEntity
  8
1
  6
Continuous
100
AcDbLine
 10
248.0870069999999
 20
325.722773
 30
0.0
 11
257.0042199999999
 21
340.569246
 31
0.0
  0
LINE
  5
FC4
330
F18
100
AcDbEntity
  8
1
  6
Continuous
100
AcDbLine
 10
229.0243729999999
 20
328.4974889999999
 30
0.0
 11
247.975944
 21
325.611463
 31
0.0
  0
LINE
  5
FC5
330
F18
100
AcDbEntity
  8
1
  6
Continuous
100
AcDbLine
 10
228.435237
 20
324.628831
 30
0.0
 11
247.3868079999999
 21
321.7428049999999
 31
0.0
  0
LINE
  5
FC6
330
F18
100
AcDbEntity
  8
1
  6
Continuous
100
AcDbLine
 10
247.975944
 20
301.611463
 30
0.0
 11
234.940772
 21
300.4441339999999
 31
0.0
  0
LINE
  5
FC7
330
F18
100
AcDbEntity
  8
1
  6
Continuous
100
AcDbLine
 10
247.975944
 20
297.611463
 30
0.0
 11
231.134196
 21
296.103247
 31
0.0
  0
LINE
  5
FC8
330
F18
100
AcDbEntity
  8
4
  6
CENTER
100
AcDbLine
 10
210.52865
 20
311.611463
 30
0.0
 11
307.0618679999999
 21
311.611463
 31
0.0
  0
ARC
  5
FC9
330
F18
100
AcDbEntity
  8
1
  6
Continuous
100
AcDbCircle
 10
414.4759439999998
 20
294.611463
 30
0.0
 40
200.0
100
AcDbArc
 50
180.0
 51
184.8361309999999
  0
LINE
  5
FCA
330
F18
100
AcDbEntity
  8
1
  6
Continuous
100
AcDbLine
 10
213.975944
 20
327.611463
 30
0.0
 11
213.975944
 21
309.611463
 31
0.0
  0
LINE
  5
FCB
330
F18
100
AcDbEntity
  8
1
  6
Continuous
100
AcDbLine
 10
215.588339
 20
325.929911
 30
0.0
 11
215.588339
 21
294.611463
 31
0.0
  0
LINE
  5
FCC
330
F18
100
AcDbEntity
  8
1
  6
Continuous
100
AcDbLine
 10
215.078974
 20
325.929911
 30
0.0
 11
215.078974
 21
294.611463
 31
0.0
  0
LINE
  5
FCD
330
F18
100
AcDbEntity
  8
1
  6
Continuous
100
AcDbLine
 10
213.975944
 20
304.611463
 30
0.0
 11
213.4759439999999
 21
304.111463
 31
0.0
  0
LINE
  5
FCE
330
F18
100
AcDbEntity
  8
1
  6
Continuous
100
AcDbLine
 10
213.975944
 20
297.611463
 30
0.0
 11
213.975944
 21
294.611463
 31
0.0
  0
LINE
  5
FCF
330
F18
100
AcDbEntity
  8
1
  6
Continuous
100
AcDbLine
 10
213.975944
 20
294.611463
 30
0.0
 11
215.588339
 21
294.611463
 31
0.0
  0
LINE
  5
FD0
330
F18
100
AcDbEntity
  8
1
  6
Continuous
100
AcDbLine
 10
213.4759439999999
 20
298.111463
 30
0.0
 11
213.975944
 21
297.611463
 31
0.0
  0
LINE
  5
FD1
330
F18
100
AcDbEntity
  8
1
  6
Continuous
100
AcDbLine
 10
213.975944
 20
298.611463
 30
0.0
 11
213.4759439999999
 21
298.111463
 31
0.0
  0
LINE
  5
FD2
330
F18
100
AcDbEntity
  8
1
  6
Continuous
100
AcDbLine
 10
213.4759439999999
 20
299.111463
 30
0.0
 11
213.975944
 21
298.611463
 31
0.0
  0
LINE
  5
FD3
330
F18
100
AcDbEntity
  8
1
  6
Continuous
100
AcDbLine
 10
213.975944
 20
299.611463
 30
0.0
 11
213.4759439999999
 21
299.111463
 31
0.0
  0
LINE
  5
FD4
330
F18
100
AcDbEntity
  8
1
  6
Continuous
100
AcDbLine
 10
213.4759439999999
 20
300.111463
 30
0.0
 11
213.975944
 21
299.611463
 31
0.0
  0
LINE
  5
FD5
330
F18
100
AcDbEntity
  8
1
  6
Continuous
100
AcDbLine
 10
213.975944
 20
300.611463
 30
0.0
 11
213.4759439999999
 21
300.111463
 31
0.0
  0
LINE
  5
FD6
330
F18
100
AcDbEntity
  8
1
  6
Continuous
100
AcDbLine
 10
213.4759439999999
 20
301.111463
 30
0.0
 11
213.975944
 21
300.611463
 31
0.0
  0
LINE
  5
FD7
330
F18
100
AcDbEntity
  8
1
  6
Continuous
100
AcDbLine
 10
213.975944
 20
301.611463
 30
0.0
 11
213.4759439999999
 21
301.111463
 31
0.0
  0
LINE
  5
FD8
330
F18
100
AcDbEntity
  8
1
  6
Continuous
100
AcDbLine
 10
213.4759439999999
 20
302.111463
 30
0.0
 11
213.975944
 21
301.611463
 31
0.0
  0
LINE
  5
FD9
330
F18
100
AcDbEntity
  8
1
  6
Continuous
100
AcDbLine
 10
213.975944
 20
302.611463
 30
0.0
 11
213.4759439999999
 21
302.111463
 31
0.0
  0
LINE
  5
FDA
330
F18
100
AcDbEntity
  8
1
  6
Continuous
100
AcDbLine
 10
213.4759439999999
 20
303.111463
 30
0.0
 11
213.975944
 21
302.611463
 31
0.0
  0
LINE
  5
FDB
330
F18
100
AcDbEntity
  8
1
  6
Continuous
100
AcDbLine
 10
213.975944
 20
303.611463
 30
0.0
 11
213.4759439999999
 21
303.111463
 31
0.0
  0
LINE
  5
FDC
330
F18
100
AcDbEntity
  8
1
  6
Continuous
100
AcDbLine
 10
213.4759439999999
 20
304.111463
 30
0.0
 11
213.975944
 21
303.611463
 31
0.0
  0
LINE
  5
FDD
330
F18
100
AcDbEntity
  8
1
  6
Continuous
100
AcDbLine
 10
213.4759439999999
 20
305.111463
 30
0.0
 11
213.975944
 21
304.611463
 31
0.0
  0
LINE
  5
FDE
330
F18
100
AcDbEntity
  8
1
  6
Continuous
100
AcDbLine
 10
213.975944
 20
305.611463
 30
0.0
 11
213.4759439999999
 21
305.111463
 31
0.0
  0
LINE
  5
FDF
330
F18
100
AcDbEntity
  8
1
  6
Continuous
100
AcDbLine
 10
213.4759439999999
 20
306.111463
 30
0.0
 11
213.975944
 21
305.611463
 31
0.0
  0
LINE
  5
FE0
330
F18
100
AcDbEntity
  8
1
  6
Continuous
100
AcDbLine
 10
213.975944
 20
306.611463
 30
0.0
 11
213.4759439999999
 21
306.111463
 31
0.0
  0
LINE
  5
FE1
330
F18
100
AcDbEntity
  8
1
  6
Continuous
100
AcDbLine
 10
213.4759439999999
 20
307.111463
 30
0.0
 11
213.975944
 21
306.611463
 31
0.0
  0
LINE
  5
FE2
330
F18
100
AcDbEntity
  8
1
  6
Continuous
100
AcDbLine
 10
213.975944
 20
307.611463
 30
0.0
 11
213.4759439999999
 21
307.111463
 31
0.0
  0
LINE
  5
FE3
330
F18
100
AcDbEntity
  8
1
  6
Continuous
100
AcDbLine
 10
213.4759439999999
 20
308.111463
 30
0.0
 11
213.975944
 21
307.611463
 31
0.0
  0
LINE
  5
FE4
330
F18
100
AcDbEntity
  8
1
  6
Continuous
100
AcDbLine
 10
213.975944
 20
308.611463
 30
0.0
 11
213.4759439999999
 21
308.111463
 31
0.0
  0
LINE
  5
FE5
330
F18
100
AcDbEntity
  8
1
  6
Continuous
100
AcDbLine
 10
213.4759439999999
 20
309.111463
 30
0.0
 11
213.975944
 21
308.611463
 31
0.0
  0
LINE
  5
FE6
330
F18
100
AcDbEntity
  8
1
  6
Continuous
100
AcDbLine
 10
213.975944
 20
309.611463
 30
0.0
 11
213.4759439999999
 21
309.111463
 31
0.0
  0
ARC
  5
FE7
330
F18
100
AcDbEntity
  8
1
  6
Continuous
100
AcDbCircle
 10
235.475944
 20
294.468049
 30
0.0
 40
6.0
100
AcDbArc
 50
95.11731500000001
 51
180.0
  0
ARC
  5
FE8
330
F18
100
AcDbEntity
  8
1
  6
Continuous
100
AcDbCircle
 10
232.472126
 20
281.1630349999999
 30
0.0
 40
15.0
100
AcDbArc
 50
95.11731500000001
 51
100.851964
  0
LINE
  5
FE9
330
F18
100
AcDbEntity
  8
1
  6
Continuous
100
AcDbLine
 10
217.014418
 20
324.6982039999999
 30
0.0
 11
227.5188859999999
 21
324.6982039999999
 31
0.0
  0
LINE
  5
FEA
330
F18
100
AcDbEntity
  8
1
  6
Continuous
100
AcDbLine
 10
214.9759439999999
 20
328.611463
 30
0.0
 11
227.5188859999999
 21
328.611463
 31
0.0
  0
LINE
  5
FEB
330
F18
100
AcDbEntity
  8
1
  6
Continuous
100
AcDbLine
 10
215.078974
 20
325.929911
 30
0.0
 11
214.6603869999999
 21
327.746119
 31
0.0
  0
LINE
  5
FEC
330
F18
100
AcDbEntity
  8
1
  6
Continuous
100
AcDbLine
 10
215.078974
 20
325.929911
 30
0.0
 11
215.588339
 21
325.929911
 31
0.0
  0
ARC
  5
FED
330
F18
100
AcDbEntity
  8
1
  6
Continuous
100
AcDbCircle
 10
217.014418
 20
323.698204
 30
0.0
 40
1.0
100
AcDbArc
 50
90.0
 51
180.0
  0
LINE
  5
FEE
330
F18
100
AcDbEntity
  8
1
  6
Continuous
100
AcDbLine
 10
215.588339
 20
325.929911
 30
0.0
 11
216.384462
 21
324.7756109999999
 31
0.0
  0
ARC
  5
FEF
330
F18
100
AcDbEntity
  8
1
  6
Continuous
100
AcDbCircle
 10
214.9759439999999
 20
327.611463
 30
0.0
 40
1.0
100
AcDbArc
 50
90.0
 51
180.0
  0
ARC
  5
FF0
330
F18
100
AcDbEntity
  8
1
  6
Continuous
100
AcDbCircle
 10
227.5188859999999
 20
318.611463
 30
0.0
 40
6.086740999999999
100
AcDbArc
 50
81.34127900000001
 51
90.0
  0
ARC
  5
FF1
330
F18
100
AcDbEntity
  8
1
  6
Continuous
100
AcDbCircle
 10
227.5188859999999
 20
318.611463
 30
0.0
 40
10.0
100
AcDbArc
 50
81.34127900000001
 51
90.0
  0
LINE
  5
FF2
330
F18
100
AcDbEntity
  8
1
  6
Continuous
100
AcDbLine
 10
268.1759439999998
 20
294.111463
 30
0.0
 11
268.1759439999998
 21
287.611463
 31
0.0
  0
LINE
  5
FF3
330
F18
100
AcDbEntity
  8
1
  6
Continuous
100
AcDbLine
 10
257.0064789999999
 20
287.9010349999999
 30
0.0
 11
248.037572
 21
301.319321
 31
0.0
  0
LINE
  5
FF4
330
F18
100
AcDbEntity
  8
1
  6
Continuous
100
AcDbLine
 10
248.0869429999999
 20
297.510626
 30
0.0
 11
257.003965
 21
282.654147
 31
0.0
  0
LINE
  5
FF5
330
F18
100
AcDbEntity
  8
1
  6
Continuous
100
AcDbLine
 10
257.575944
 20
335.3218909999998
 30
0.0
 11
257.575944
 21
287.9010349999999
 31
0.0
  0
ARC
  5
FF6
330
F18
100
AcDbEntity
  8
1
  6
Continuous
100
AcDbCircle
 10
258.759968
 20
283.611463
 30
0.0
 40
2.0
100
AcDbArc
 50
208.597786
 51
270.0
  0
LINE
  5
FF7
330
F18
100
AcDbEntity
  8
1
  6
Continuous
100
AcDbLine
 10
258.759968
 20
281.611463
 30
0.0
 11
263.5759439999998
 21
281.611463
 31
0.0
  0
LINE
  5
FF8
330
F18
100
AcDbEntity
  8
1
  6
Continuous
100
AcDbLine
 10
257.575944
 20
282.6495489999999
 30
0.0
 11
257.575944
 21
287.0490649999999
 31
0.0
  0
LINE
  5
FF9
330
F18
100
AcDbEntity
  8
1
  6
Continuous
100
AcDbLine
 10
263.5759439999998
 20
287.611463
 30
0.0
 11
268.1759439999998
 21
287.611463
 31
0.0
  0
LINE
  5
FFA
330
F18
100
AcDbEntity
  8
1
  6
Continuous
100
AcDbLine
 10
263.5759439999998
 20
301.861463
 30
0.0
 11
284.625944
 21
301.861463
 31
0.0
  0
LINE
  5
FFB
330
F18
100
AcDbEntity
  8
1
  6
Continuous
100
AcDbLine
 10
263.5759439999998
 20
321.361463
 30
0.0
 11
284.625944
 21
321.361463
 31
0.0
  0
LINE
  5
FFC
330
F18
100
AcDbEntity
  8
1
  6
Continuous
100
AcDbLine
 10
248.0259439999999
 20
297.749955
 30
0.0
 11
248.0259439999999
 21
325.4833269999999
 31
0.0
  0
LINE
  5
FFD
330
F18
100
AcDbEntity
  8
1
  6
Continuous
100
AcDbLine
 10
247.975944
 20
297.611463
 30
0.0
 11
247.975944
 21
325.611463
 31
0.0
  0
ARC
  5
FFE
330
F18
100
AcDbEntity
  8
1
  6
Continuous
100
AcDbCircle
 10
248.5259439999999
 20
297.749955
 30
0.0
 40
0.5
100
AcDbArc
 50
180.0
 51
210.963757
  0
LINE
  5
FFF
330
F18
100
AcDbEntity
  8
1
  6
Continuous
100
AcDbLine
 10
247.975944
 20
301.611463
 30
0.0
 11
248.0259439999999
 21
301.611463
 31
0.0
  0
LINE
  5
1000
330
F18
100
AcDbEntity
  8
1
  6
Continuous
100
AcDbLine
 10
263.5759439999998
 20
294.111463
 30
0.0
 11
268.1759439999998
 21
294.111463
 31
0.0
  0
LINE
  5
1001
330
F18
100
AcDbEntity
  8
1
  6
Continuous
100
AcDbLine
 10
257.0064789999999
 20
335.3218909999998
 30
0.0
 11
248.037572
 21
321.9036049999999
 31
0.0
  0
ARC
  5
1002
330
F18
100
AcDbEntity
  8
1
  6
Continuous
100
AcDbCircle
 10
248.5259439999999
 20
325.4833269999999
 30
0.0
 40
0.5
100
AcDbArc
 50
151.2520859999999
 51
180.0
  0
LINE
  5
1003
330
F18
100
AcDbEntity
  8
1
  6
Continuous
100
AcDbLine
 10
247.975944
 20
324.111463
 30
0.0
 11
248.0259439999999
 21
324.111463
 31
0.0
  0
LINE
  5
1004
330
F18
100
AcDbEntity
  8
1
  6
Continuous
100
AcDbLine
 10
247.975944
 20
321.2808739999999
 30
0.0
 11
248.0259439999999
 21
321.2808739999999
 31
0.0
  0
LINE
  5
1005
330
F18
100
AcDbEntity
  8
1
  6
Continuous
100
AcDbLine
 10
263.5759439999998
 20
335.611463
 30
0.0
 11
268.1759439999998
 21
335.611463
 31
0.0
  0
LINE
  5
1006
330
F18
100
AcDbEntity
  8
1
  6
Continuous
100
AcDbLine
 10
263.5759439999998
 20
329.111463
 30
0.0
 11
268.1759439999998
 21
329.111463
 31
0.0
  0
LINE
  5
1007
330
F18
100
AcDbEntity
  8
1
  6
Continuous
100
AcDbLine
 10
268.1759439999998
 20
335.611463
 30
0.0
 11
268.1759439999998
 21
329.111463
 31
0.0
  0
LINE
  5
1008
330
F18
100
AcDbEntity
  8
1
  6
Continuous
100
AcDbLine
 10
284.925944
 20
321.611441
 30
0.0
 11
284.925944
 21
301.611441
 31
0.0
  0
LINE
  5
1009
330
F18
100
AcDbEntity
  8
1
  6
Continuous
100
AcDbLine
 10
284.625944
 20
301.861463
 30
0.0
 11
284.925944
 21
302.1614629999999
 31
0.0
  0
LINE
  5
100A
330
F18
100
AcDbEntity
  8
1
  6
Continuous
100
AcDbLine
 10
284.625944
 20
321.361463
 30
0.0
 11
284.925944
 21
321.061463
 31
0.0
  0
LINE
  5
100B
330
F18
100
AcDbEntity
  8
1
  6
Continuous
100
AcDbLine
 10
258.759968
 20
341.611463
 30
0.0
 11
263.5759439999998
 21
341.611463
 31
0.0
  0
ARC
  5
100C
330
F18
100
AcDbEntity
  8
1
  6
Continuous
100
AcDbCircle
 10
258.759968
 20
339.611463
 30
0.0
 40
2.0
100
AcDbArc
 50
90.0
 51
151.386961
  0
LINE
  5
100D
330
F18
100
AcDbEntity
  8
1
  6
Continuous
100
AcDbLine
 10
336.9828769999998
 20
294.111463
 30
0.0
 11
338.545914
 21
291.404203
 31
0.0
  0
LINE
  5
100E
330
F18
100
AcDbEntity
  8
1
  6
Continuous
100
AcDbLine
 10
343.9828769999999
 20
294.111463
 30
0.0
 11
342.4198399999997
 21
291.404203
 31
0.0
  0
ARC
  5
100F
330
F18
100
AcDbEntity
  8
1
  6
Continuous
100
AcDbCircle
 10
348.865673
 20
296.4560189999999
 30
0.0
 40
11.882796
100
AcDbArc
 50
154.840673
 51
194.726372
  0
ARC
  5
1010
330
F18
100
AcDbEntity
  8
1
  6
Continuous
100
AcDbCircle
 10
332.100081
 20
296.4560189999999
 30
0.0
 40
11.882796
100
AcDbArc
 50
345.2736279999998
 51
25.159327
  0
LINE
  5
1011
330
F18
100
AcDbEntity
  8
1
  6
Continuous
100
AcDbLine
 10
342.4198399999997
 20
291.404204
 30
0.0
 11
338.545914
 21
291.404204
 31
0.0
  0
LINE
  5
1012
330
F18
100
AcDbEntity
  8
1
  6
Continuous
100
AcDbLine
 10
345.4828769999999
 20
295.611463
 30
0.0
 11
345.4828769999999
 21
327.611463
 31
0.0
  0
LINE
  5
1013
330
F18
100
AcDbEntity
  8
1
  6
Continuous
100
AcDbLine
 10
343.9828769999999
 20
294.111463
 30
0.0
 11
343.9828769999999
 21
329.111463
 31
0.0
  0
LINE
  5
1014
330
F18
100
AcDbEntity
  8
1
  6
Continuous
100
AcDbLine
 10
336.9828769999998
 20
294.111463
 30
0.0
 11
336.9828769999998
 21
329.111463
 31
0.0
  0
LINE
  5
1015
330
F18
100
AcDbEntity
  8
1
  6
Continuous
100
AcDbLine
 10
335.182877
 20
294.111463
 30
0.0
 11
335.182877
 21
329.111463
 31
0.0
  0
ARC
  5
1016
330
F18
100
AcDbEntity
  8
1
  6
Continuous
100
AcDbCircle
 10
382.8230709999999
 20
311.611463
 30
0.0
 40
45.84019399999998
100
AcDbArc
 50
167.266894
 51
192.733106
  0
ARC
  5
1017
330
F18
100
AcDbEntity
  8
1
  6
Continuous
100
AcDbCircle
 10
298.1426819999999
 20
311.611463
 30
0.0
 40
45.84019399999998
100
AcDbArc
 50
347.266894
 51
12.733106
  0
LINE
  5
1018
330
F18
100
AcDbEntity
  8
1
  6
Continuous
100
AcDbLine
 10
335.4828769999999
 20
327.611463
 30
0.0
 11
335.4828769999999
 21
295.611463
 31
0.0
  0
LINE
  5
1019
330
F18
100
AcDbEntity
  8
1
  6
Continuous
100
AcDbLine
 10
333.7828769999999
 20
329.111463
 30
0.0
 11
333.7828769999999
 21
294.111463
 31
0.0
  0
LINE
  5
101A
330
F18
100
AcDbEntity
  8
1
  6
Continuous
100
AcDbLine
 10
342.855545
 20
301.507833
 30
0.0
 11
338.110209
 21
301.507833
 31
0.0
  0
LINE
  5
101B
330
F18
100
AcDbEntity
  8
4
  6
CENTER
100
AcDbLine
 10
328.882877
 20
311.611463
 30
0.0
 11
350.4828769999999
 21
311.611463
 31
0.0
  0
LINE
  5
101C
330
F18
100
AcDbEntity
  8
1
  6
Continuous
100
AcDbLine
 10
335.4828769999999
 20
295.611463
 30
0.0
 11
336.9828769999998
 21
295.611463
 31
0.0
  0
LINE
  5
101D
330
F18
100
AcDbEntity
  8
1
  6
Continuous
100
AcDbLine
 10
335.4828769999999
 20
300.6743129999999
 30
0.0
 11
335.182877
 21
299.516163
 31
0.0
  0
LINE
  5
101E
330
F18
100
AcDbEntity
  8
1
  6
Continuous
100
AcDbLine
 10
335.182877
 20
300.6743129999999
 30
0.0
 11
335.4828769999999
 21
300.6743129999999
 31
0.0
  0
LINE
  5
101F
330
F18
100
AcDbEntity
  8
1
  6
Continuous
100
AcDbLine
 10
333.4828769999999
 20
300.6743129999999
 30
0.0
 11
333.7828769999999
 21
299.516163
 31
0.0
  0
LINE
  5
1020
330
F18
100
AcDbEntity
  8
1
  6
Continuous
100
AcDbLine
 10
333.7828769999999
 20
300.6743129999999
 30
0.0
 11
333.4828769999999
 21
300.6743129999999
 31
0.0
  0
LINE
  5
1021
330
F18
100
AcDbEntity
  8
1
  6
Continuous
100
AcDbLine
 10
333.7828769999999
 20
294.111463
 30
0.0
 11
335.182877
 21
294.111463
 31
0.0
  0
LINE
  5
1022
330
F18
100
AcDbEntity
  8
1
  6
Continuous
100
AcDbLine
 10
335.4828769999999
 20
311.6014129999999
 30
0.0
 11
335.182877
 21
311.3014129999999
 31
0.0
  0
LINE
  5
1023
330
F18
100
AcDbEntity
  8
1
  6
Continuous
100
AcDbLine
 10
335.182877
 20
311.901413
 30
0.0
 11
335.4828769999999
 21
311.6014129999999
 31
0.0
  0
LINE
  5
1024
330
F18
100
AcDbEntity
  8
1
  6
Continuous
100
AcDbLine
 10
335.4828769999999
 20
304.851953
 30
0.0
 11
335.182877
 21
305.1519629999999
 31
0.0
  0
LINE
  5
1025
330
F18
100
AcDbEntity
  8
1
  6
Continuous
100
AcDbLine
 10
335.182877
 20
304.5519529999999
 30
0.0
 11
335.4828769999999
 21
304.851953
 31
0.0
  0
LINE
  5
1026
330
F18
100
AcDbEntity
  8
1
  6
Continuous
100
AcDbLine
 10
333.4828769999999
 20
311.6214929999998
 30
0.0
 11
333.7828769999999
 21
311.921493
 31
0.0
  0
LINE
  5
1027
330
F18
100
AcDbEntity
  8
1
  6
Continuous
100
AcDbLine
 10
333.4828769999999
 20
311.6214929999998
 30
0.0
 11
333.7828769999999
 21
311.3214929999998
 31
0.0
  0
LINE
  5
1028
330
F18
100
AcDbEntity
  8
1
  6
Continuous
100
AcDbLine
 10
333.4828769999999
 20
304.851953
 30
0.0
 11
333.7828769999999
 21
304.5519529999999
 31
0.0
  0
LINE
  5
1029
330
F18
100
AcDbEntity
  8
1
  6
Continuous
100
AcDbLine
 10
333.4828769999999
 20
304.851953
 30
0.0
 11
333.7828769999999
 21
305.1519629999999
 31
0.0
  0
LINE
  5
102A
330
F18
100
AcDbEntity
  8
1
  6
Continuous
100
AcDbLine
 10
345.4828769999999
 20
295.611463
 30
0.0
 11
343.9828769999999
 21
295.611463
 31
0.0
  0
LINE
  5
102B
330
F18
100
AcDbEntity
  8
1
  6
Continuous
100
AcDbLine
 10
342.4198399999997
 20
331.8187229999999
 30
0.0
 11
338.545914
 21
331.8187229999999
 31
0.0
  0
LINE
  5
102C
330
F18
100
AcDbEntity
  8
1
  6
Continuous
100
AcDbLine
 10
342.855545
 20
321.715093
 30
0.0
 11
338.110209
 21
321.715093
 31
0.0
  0
ARC
  5
102D
330
F18
100
AcDbEntity
  8
1
  6
Continuous
100
AcDbCircle
 10
348.865673
 20
326.766908
 30
0.0
 40
11.882796
100
AcDbArc
 50
165.2736289999998
 51
205.159327
  0
LINE
  5
102E
330
F18
100
AcDbEntity
  8
1
  6
Continuous
100
AcDbLine
 10
335.182877
 20
322.548613
 30
0.0
 11
335.4828769999999
 21
322.548613
 31
0.0
  0
LINE
  5
102F
330
F18
100
AcDbEntity
  8
1
  6
Continuous
100
AcDbLine
 10
335.4828769999999
 20
322.548613
 30
0.0
 11
335.182877
 21
323.7067629999998
 31
0.0
  0
LINE
  5
1030
330
F18
100
AcDbEntity
  8
1
  6
Continuous
100
AcDbLine
 10
335.182877
 20
318.670993
 30
0.0
 11
335.4828769999999
 21
318.370993
 31
0.0
  0
LINE
  5
1031
330
F18
100
AcDbEntity
  8
1
  6
Continuous
100
AcDbLine
 10
335.4828769999999
 20
318.370993
 30
0.0
 11
335.182877
 21
318.0709929999999
 31
0.0
  0
LINE
  5
1032
330
F18
100
AcDbEntity
  8
1
  6
Continuous
100
AcDbLine
 10
333.7828769999999
 20
322.548613
 30
0.0
 11
333.4828769999999
 21
322.548613
 31
0.0
  0
LINE
  5
1033
330
F18
100
AcDbEntity
  8
1
  6
Continuous
100
AcDbLine
 10
333.4828769999999
 20
322.548613
 30
0.0
 11
333.7828769999999
 21
323.7067629999998
 31
0.0
  0
LINE
  5
1034
330
F18
100
AcDbEntity
  8
1
  6
Continuous
100
AcDbLine
 10
333.4828769999999
 20
318.370993
 30
0.0
 11
333.7828769999999
 21
318.0709929999999
 31
0.0
  0
LINE
  5
1035
330
F18
100
AcDbEntity
  8
1
  6
Continuous
100
AcDbLine
 10
333.4828769999999
 20
318.370993
 30
0.0
 11
333.7828769999999
 21
318.670993
 31
0.0
  0
LINE
  5
1036
330
F18
100
AcDbEntity
  8
1
  6
Continuous
100
AcDbLine
 10
335.4828769999999
 20
327.611463
 30
0.0
 11
336.9828769999998
 21
327.611463
 31
0.0
  0
LINE
  5
1037
330
F18
100
AcDbEntity
  8
1
  6
Continuous
100
AcDbLine
 10
333.7828769999999
 20
329.111463
 30
0.0
 11
335.182877
 21
329.111463
 31
0.0
  0
LINE
  5
1038
330
F18
100
AcDbEntity
  8
1
  6
Continuous
100
AcDbLine
 10
336.9828769999998
 20
329.111463
 30
0.0
 11
338.545914
 21
331.8187229999999
 31
0.0
  0
ARC
  5
1039
330
F18
100
AcDbEntity
  8
1
  6
Continuous
100
AcDbCircle
 10
332.100081
 20
326.766908
 30
0.0
 40
11.882796
100
AcDbArc
 50
334.8406729999999
 51
14.726371
  0
LINE
  5
103A
330
F18
100
AcDbEntity
  8
1
  6
Continuous
100
AcDbLine
 10
345.4828769999999
 20
327.611463
 30
0.0
 11
343.9828769999999
 21
327.611463
 31
0.0
  0
LINE
  5
103B
330
F18
100
AcDbEntity
  8
1
  6
Continuous
100
AcDbLine
 10
343.9828769999999
 20
329.111463
 30
0.0
 11
342.4198399999997
 21
331.8187229999999
 31
0.0
  0
LINE
  5
103C
330
F18
100
AcDbEntity
  8
1
  6
Continuous
100
AcDbLine
 10
295.925944
 20
302.111441
 30
0.0
 11
295.925944
 21
321.111441
 31
0.0
  0
LINE
  5
103D
330
F18
100
AcDbEntity
  8
1
  6
Continuous
100
AcDbLine
 10
295.425944
 20
301.611441
 30
0.0
 11
284.925944
 21
301.611441
 31
0.0
  0
ARC
  5
103E
330
F18
100
AcDbEntity
  8
1
  6
Continuous
100
AcDbCircle
 10
295.425944
 20
302.111441
 30
0.0
 40
0.5
100
AcDbArc
 50
270.0
 51
0.0
  0
LINE
  5
103F
330
F18
100
AcDbEntity
  8
1
  6
Continuous
100
AcDbLine
 10
295.425944
 20
321.611441
 30
0.0
 11
284.925944
 21
321.611441
 31
0.0
  0
ARC
  5
1040
330
F18
100
AcDbEntity
  8
1
  6
Continuous
100
AcDbCircle
 10
295.425944
 20
321.111441
 30
0.0
 40
0.5
100
AcDbArc
 50
0.0
 51
90.0
  0
ARC
  5
1041
330
F18
100
AcDbEntity
  8
1
  6
Continuous
100
AcDbCircle
 10
301.581924
 20
315.937964
 30
0.0
 40
2.555979999999999
100
AcDbArc
 50
154.371637
 51
214.371637
  0
ARC
  5
1042
330
F18
100
AcDbEntity
  8
1
  6
Continuous
100
AcDbCircle
 10
300.469964
 20
315.937964
 30
0.0
 40
2.555979999999999
100
AcDbArc
 50
325.6283629999999
 51
25.628363
  0
LINE
  5
1043
330
F18
100
AcDbEntity
  8
1
  6
Continuous
100
AcDbLine
 10
297.5259439999998
 20
319.611421
 30
0.0
 11
297.5259439999998
 21
303.611421
 31
0.0
  0
LINE
  5
1044
330
F18
100
AcDbEntity
  8
1
  6
Continuous
100
AcDbLine
 10
299.0259439999999
 20
305.5114209999999
 30
0.0
 11
299.0259439999999
 21
317.7114209999999
 31
0.0
  0
LINE
  5
1045
330
F18
100
AcDbEntity
  8
1
  6
Continuous
100
AcDbLine
 10
299.0259439999999
 20
305.837918
 30
0.0
 11
299.0259439999999
 21
317.384924
 31
0.0
  0
LINE
  5
1046
330
F18
100
AcDbEntity
  8
1
  6
Continuous
100
AcDbLine
 10
303.025944
 20
316.6079639999999
 30
0.0
 11
303.025944
 21
306.606964
 31
0.0
  0
LINE
  5
1047
330
F18
100
AcDbEntity
  8
1
  6
Continuous
100
AcDbLine
 10
295.925944
 20
303.611421
 30
0.0
 11
297.5259439999998
 21
303.611421
 31
0.0
  0
LINE
  5
1048
330
F18
100
AcDbEntity
  8
1
  6
Continuous
100
AcDbLine
 10
297.5259439999998
 20
310.107464
 30
0.0
 11
299.0259439999999
 21
311.6074639999999
 31
0.0
  0
LINE
  5
1049
330
F18
100
AcDbEntity
  8
1
  6
Continuous
100
AcDbLine
 10
297.5259439999998
 20
311.611421
 30
0.0
 11
299.0259439999999
 21
313.111421
 31
0.0
  0
LINE
  5
104A
330
F18
100
AcDbEntity
  8
1
  6
Continuous
100
AcDbLine
 10
299.472236
 20
314.494964
 30
0.0
 11
302.579652
 21
314.494964
 31
0.0
  0
LINE
  5
104B
330
F18
100
AcDbEntity
  8
1
  6
Continuous
100
AcDbLine
 10
299.0259439999999
 20
305.5114209999999
 30
0.0
 11
297.5259439999998
 21
305.5114209999999
 31
0.0
  0
LINE
  5
104C
330
F18
100
AcDbEntity
  8
1
  6
Continuous
100
AcDbLine
 10
299.472236
 20
308.7209639999999
 30
0.0
 11
302.579652
 21
308.7209639999999
 31
0.0
  0
LINE
  5
104D
330
F18
100
AcDbEntity
  8
1
  6
Continuous
100
AcDbLine
 10
299.472236
 20
305.8339639999999
 30
0.0
 11
302.579652
 21
305.8339639999999
 31
0.0
  0
ARC
  5
104E
330
F18
100
AcDbEntity
  8
1
  6
Continuous
100
AcDbCircle
 10
301.581944
 20
307.277964
 30
0.0
 40
2.55582
100
AcDbArc
 50
214.3528569999999
 51
214.3839999999999
  0
ARC
  5
104F
330
F18
100
AcDbEntity
  8
1
  6
Continuous
100
AcDbCircle
 10
301.581924
 20
307.276964
 30
0.0
 40
2.555979999999999
100
AcDbArc
 50
145.6283629999998
 51
205.6283629999998
  0
LINE
  5
1050
330
F18
100
AcDbEntity
  8
1
  6
Continuous
100
AcDbLine
 10
299.0259439999999
 20
306.606964
 30
0.0
 11
299.472236
 21
305.8339639999999
 31
0.0
  0
ARC
  5
1051
330
F18
100
AcDbEntity
  8
1
  6
Continuous
100
AcDbCircle
 10
300.4699439999999
 20
307.277964
 30
0.0
 40
2.55582
100
AcDbArc
 50
325.6159999999998
 51
325.647143
  0
ARC
  5
1052
330
F18
100
AcDbEntity
  8
1
  6
Continuous
100
AcDbCircle
 10
300.469964
 20
307.276964
 30
0.0
 40
2.555979999999999
100
AcDbArc
 50
334.371637
 51
34.371637
  0
LINE
  5
1053
330
F18
100
AcDbEntity
  8
1
  6
Continuous
100
AcDbLine
 10
303.025944
 20
306.606964
 30
0.0
 11
302.579652
 21
305.8339639999999
 31
0.0
  0
ARC
  5
1054
330
F18
100
AcDbEntity
  8
1
  6
Continuous
100
AcDbCircle
 10
308.5868929999999
 20
311.6079639999999
 30
0.0
 40
9.560949
100
AcDbArc
 50
162.4247879999998
 51
197.5752119999999
  0
ARC
  5
1055
330
F18
100
AcDbEntity
  8
1
  6
Continuous
100
AcDbCircle
 10
293.4649949999998
 20
311.6079639999999
 30
0.0
 40
9.560949
100
AcDbArc
 50
342.4247879999999
 51
17.575212
  0
LINE
  5
1056
330
F18
100
AcDbEntity
  8
1
  6
Continuous
100
AcDbLine
 10
295.925944
 20
319.611421
 30
0.0
 11
297.5259439999998
 21
319.611421
 31
0.0
  0
LINE
  5
1057
330
F18
100
AcDbEntity
  8
1
  6
Continuous
100
AcDbLine
 10
299.0259439999999
 20
317.7114209999999
 30
0.0
 11
297.5259439999998
 21
317.7114209999999
 31
0.0
  0
LINE
  5
1058
330
F18
100
AcDbEntity
  8
1
  6
Continuous
100
AcDbLine
 10
299.472236
 20
317.3809639999999
 30
0.0
 11
302.579652
 21
317.3809639999999
 31
0.0
  0
LINE
  5
1059
330
F18
100
AcDbEntity
  8
1
  6
Continuous
100
AcDbLine
 10
299.0259439999999
 20
316.6079639999999
 30
0.0
 11
299.472236
 21
317.3809639999999
 31
0.0
  0
LINE
  5
105A
330
F18
100
AcDbEntity
  8
1
  6
Continuous
100
AcDbLine
 10
303.025944
 20
316.6079639999999
 30
0.0
 11
302.579652
 21
317.3809639999999
 31
0.0
  0
LINE
  5
105B
330
F18
100
AcDbEntity
  8
1
  6
Continuous
100
AcDbLine
 10
247.9259439999999
 20
486.5
 30
0.0
 11
216.765299
 21
486.5
 31
0.0
  0
LINE
  5
105C
330
F18
100
AcDbEntity
  8
1
  6
Continuous
100
AcDbLine
 10
247.9259439999999
 20
459.4999999999997
 30
0.0
 11
216.765299
 21
459.4999999999997
 31
0.0
  0
LINE
  5
105D
330
F18
100
AcDbEntity
  8
4
  6
CENTER
100
AcDbLine
 10
306.614596
 20
473.0
 30
0.0
 11
208.8259439999999
 21
473.0
 31
0.0
  0
ARC
  5
105E
330
F18
100
AcDbEntity
  8
1
  6
Continuous
100
AcDbCircle
 10
274.4259439999999
 20
473.0
 30
0.0
 40
60.5
100
AcDbArc
 50
169.042393
 51
190.957607
  0
ARC
  5
105F
330
F18
100
AcDbEntity
  8
1
  6
Continuous
100
AcDbCircle
 10
274.4259439999999
 20
473.0
 30
0.0
 40
60.0
100
AcDbArc
 50
191.0500649999999
 51
192.231634
  0
ARC
  5
1060
330
F18
100
AcDbEntity
  8
1
  6
Continuous
100
AcDbCircle
 10
216.765299
 20
460.5
 30
0.0
 40
1.0
100
AcDbArc
 50
192.231634
 51
270.0
  0
LINE
  5
1061
330
F18
100
AcDbEntity
  8
1
  6
Continuous
100
AcDbLine
 10
215.538339
 20
461.5
 30
0.0
 11
215.028974
 21
461.5
 31
0.0
  0
ARC
  5
1062
330
F18
100
AcDbEntity
  8
1
  6
Continuous
100
AcDbCircle
 10
216.765299
 20
485.5
 30
0.0
 40
1.0
100
AcDbArc
 50
90.0
 51
167.7683659999999
  0
ARC
  5
1063
330
F18
100
AcDbEntity
  8
1
  6
Continuous
100
AcDbCircle
 10
274.4259439999999
 20
473.0
 30
0.0
 40
61.0
100
AcDbArc
 50
172.4640909999999
 51
187.535909
  0
LINE
  5
1064
330
F18
100
AcDbEntity
  8
1
  6
Continuous
100
AcDbLine
 10
214.457202
 20
465.0
 30
0.0
 11
213.9528089999997
 21
465.0
 31
0.0
  0
ARC
  5
1065
330
F18
100
AcDbEntity
  8
1
  6
Continuous
100
AcDbCircle
 10
274.4259439999999
 20
473.0
 30
0.0
 40
60.0
100
AcDbArc
 50
167.7683659999999
 51
168.949935
  0
LINE
  5
1066
330
F18
100
AcDbEntity
  8
1
  6
Continuous
100
AcDbLine
 10
215.538339
 20
484.4999999999997
 30
0.0
 11
215.028974
 21
484.4999999999997
 31
0.0
  0
LINE
  5
1067
330
F18
100
AcDbEntity
  8
1
  6
Continuous
100
AcDbLine
 10
214.457202
 20
481.0
 30
0.0
 11
213.9528089999997
 21
481.0
 31
0.0
  0
LINE
  5
1068
330
F18
100
AcDbEntity
  8
1
  6
Continuous
100
AcDbLine
 10
283.3259439999998
 20
467.9071
 30
0.0
 11
283.3259439999998
 21
462.0
 31
0.0
  0
LINE
  5
1069
330
F18
100
AcDbEntity
  8
1
  6
Continuous
100
AcDbLine
 10
266.932369
 20
467.9071
 30
0.0
 11
266.932369
 21
462.0
 31
0.0
  0
LINE
  5
106A
330
F18
100
AcDbEntity
  8
1
  6
Continuous
100
AcDbLine
 10
247.9259439999999
 20
459.4999999999997
 30
0.0
 11
247.9259439999999
 21
486.5
 31
0.0
  0
LINE
  5
106B
330
F18
100
AcDbEntity
  8
1
  6
Continuous
100
AcDbLine
 10
247.975944
 20
459.4999999999997
 30
0.0
 11
247.975944
 21
486.5
 31
0.0
  0
LINE
  5
106C
330
F18
100
AcDbEntity
  8
1
  6
Continuous
100
AcDbLine
 10
261.5259439999999
 20
443.0
 30
0.0
 11
261.5259439999999
 21
503.0
 31
0.0
  0
LINE
  5
106D
330
F18
100
AcDbEntity
  8
1
  6
Continuous
100
AcDbLine
 10
263.5259439999999
 20
443.0
 30
0.0
 11
263.5259439999999
 21
503.0
 31
0.0
  0
LINE
  5
106E
330
F18
100
AcDbEntity
  8
1
  6
Continuous
100
AcDbLine
 10
257.5259439999999
 20
445.0
 30
0.0
 11
257.5259439999999
 21
501.0
 31
0.0
  0
LINE
  5
106F
330
F18
100
AcDbEntity
  8
2
  6
Continuous
100
AcDbLine
 10
284.137944
 20
462.812
 30
0.0
 11
266.932369
 21
462.812
 31
0.0
  0
LINE
  5
1070
330
F18
100
AcDbEntity
  8
1
  6
Continuous
100
AcDbLine
 10
283.3259439999998
 20
462.0
 30
0.0
 11
263.5259439999999
 21
462.0
 31
0.0
  0
LINE
  5
1071
330
F18
100
AcDbEntity
  8
1
  6
Continuous
100
AcDbLine
 10
247.975944
 20
459.4999999999997
 30
0.0
 11
257.5259439999999
 21
456.0
 31
0.0
  0
LINE
  5
1072
330
F18
100
AcDbEntity
  8
1
  6
Continuous
100
AcDbLine
 10
263.5259439999999
 20
443.0
 30
0.0
 11
259.5259439999999
 21
443.0
 31
0.0
  0
ARC
  5
1073
330
F18
100
AcDbEntity
  8
1
  6
Continuous
100
AcDbCircle
 10
259.5259439999999
 20
445.0
 30
0.0
 40
2.0
100
AcDbArc
 50
180.0
 51
270.0
  0
LINE
  5
1074
330
F18
100
AcDbEntity
  8
2
  6
Continuous
100
AcDbLine
 10
265.525944
 20
462.0
 30
0.0
 11
266.932369
 21
462.812
 31
0.0
  0
LINE
  5
1075
330
F18
100
AcDbEntity
  8
1
  6
Continuous
100
AcDbLine
 10
283.3259439999998
 20
462.0
 30
0.0
 11
284.875944
 21
463.55
 31
0.0
  0
LINE
  5
1076
330
F18
100
AcDbEntity
  8
2
  6
Continuous
100
AcDbLine
 10
284.137944
 20
483.1879999999999
 30
0.0
 11
266.932369
 21
483.1879999999999
 31
0.0
  0
LINE
  5
1077
330
F18
100
AcDbEntity
  8
1
  6
Continuous
100
AcDbLine
 10
283.3259439999998
 20
484.0
 30
0.0
 11
263.5259439999999
 21
484.0
 31
0.0
  0
LINE
  5
1078
330
F18
100
AcDbEntity
  8
1
  6
Continuous
100
AcDbLine
 10
283.3259439999998
 20
478.0928999999998
 30
0.0
 11
263.5259439999999
 21
478.0928999999998
 31
0.0
  0
LINE
  5
1079
330
F18
100
AcDbEntity
  8
1
  6
Continuous
100
AcDbLine
 10
283.3259439999998
 20
467.9071
 30
0.0
 11
263.5259439999999
 21
467.9071
 31
0.0
  0
LINE
  5
107A
330
F18
100
AcDbEntity
  8
2
  6
Continuous
100
AcDbLine
 10
268.1259439999999
 20
475.4493194846624
 30
0.0
 11
283.3259439999998
 21
467.9071
 31
0.0
  0
LINE
  5
107B
330
F18
100
AcDbEntity
  8
2
  6
Continuous
100
AcDbLine
 10
283.3259439999998
 20
478.0928999999998
 30
0.0
 11
268.1259439999999
 21
470.5506805153373
 31
0.0
  0
LINE
  5
107C
330
F18
100
AcDbEntity
  8
1
  6
Continuous
100
AcDbLine
 10
268.1259439999999
 20
476.25
 30
0.0
 11
268.1259439999999
 21
469.7499999999998
 31
0.0
  0
LINE
  5
107D
330
F18
100
AcDbEntity
  8
1
  6
Continuous
100
AcDbLine
 10
263.5259439999999
 20
469.7499999999998
 30
0.0
 11
268.1259439999999
 21
469.7499999999998
 31
0.0
  0
LINE
  5
107E
330
F18
100
AcDbEntity
  8
2
  6
Continuous
100
AcDbLine
 10
265.525944
 20
484.0
 30
0.0
 11
266.932369
 21
483.1879999999999
 31
0.0
  0
LINE
  5
107F
330
F18
100
AcDbEntity
  8
1
  6
Continuous
100
AcDbLine
 10
263.5259439999999
 20
476.25
 30
0.0
 11
268.1259439999999
 21
476.25
 31
0.0
  0
LINE
  5
1080
330
F18
100
AcDbEntity
  8
1
  6
Continuous
100
AcDbLine
 10
266.932369
 20
484.0
 30
0.0
 11
266.932369
 21
478.0928999999998
 31
0.0
  0
LINE
  5
1081
330
F18
100
AcDbEntity
  8
1
  6
Continuous
100
AcDbLine
 10
247.975944
 20
486.5
 30
0.0
 11
257.5259439999999
 21
490.0
 31
0.0
  0
LINE
  5
1082
330
F18
100
AcDbEntity
  8
1
  6
Continuous
100
AcDbLine
 10
263.5259439999999
 20
503.0
 30
0.0
 11
259.5259439999999
 21
503.0
 31
0.0
  0
ARC
  5
1083
330
F18
100
AcDbEntity
  8
1
  6
Continuous
100
AcDbCircle
 10
259.5259439999999
 20
501.0
 30
0.0
 40
2.0
100
AcDbArc
 50
90.0
 51
180.0
  0
LINE
  5
1084
330
F18
100
AcDbEntity
  8
1
  6
Continuous
100
AcDbLine
 10
284.875944
 20
483.0
 30
0.0
 11
284.875944
 21
463.0
 31
0.0
  0
ARC
  5
1085
330
F18
100
AcDbEntity
  8
1
  6
Continuous
100
AcDbCircle
 10
273.118598
 20
473.0
 30
0.0
 40
11.407346
100
AcDbArc
 50
333.483346
 51
26.516654
  0
LINE
  5
1086
330
F18
100
AcDbEntity
  8
1
  6
Continuous
100
AcDbLine
 10
283.3259439999998
 20
484.0
 30
0.0
 11
284.875944
 21
482.4499999999998
 31
0.0
  0
LINE
  5
1087
330
F18
100
AcDbEntity
  8
1
  6
Continuous
100
AcDbLine
 10
283.3259439999998
 20
484.0
 30
0.0
 11
283.3259439999998
 21
478.0928999999998
 31
0.0
  0
LINE
  5
1088
330
F18
100
AcDbEntity
  8
1
  6
Continuous
100
AcDbLine
 10
295.875944
 20
463.4999999999998
 30
0.0
 11
295.875944
 21
482.5
 31
0.0
  0
LINE
  5
1089
330
F18
100
AcDbEntity
  8
1
  6
Continuous
100
AcDbLine
 10
336.932879
 20
490.5
 30
0.0
 11
336.932879
 21
455.4999999999998
 31
0.0
  0
LINE
  5
108A
330
F18
100
AcDbEntity
  8
1
  6
Continuous
100
AcDbLine
 10
343.932879
 20
490.5
 30
0.0
 11
343.932879
 21
455.4999999999998
 31
0.0
  0
LINE
  5
108B
330
F18
100
AcDbEntity
  8
1
  6
Continuous
100
AcDbLine
 10
345.432879
 20
489.0
 30
0.0
 11
345.432879
 21
457.0
 31
0.0
  0
ARC
  5
108C
330
F18
100
AcDbEntity
  8
1
  6
Continuous
100
AcDbCircle
 10
309.4118179999999
 20
464.25
 30
0.0
 40
34.52106099999999
100
AcDbArc
 50
345.317147
 51
14.68285299999999
  0
ARC
  5
108D
330
F18
100
AcDbEntity
  8
1
  6
Continuous
100
AcDbCircle
 10
371.45394
 20
464.25
 30
0.0
 40
34.52106099999999
100
AcDbArc
 50
165.317147
 51
194.6828529999999
  0
LINE
  5
108E
330
F18
100
AcDbEntity
  8
1
  6
Continuous
100
AcDbLine
 10
335.132879
 20
455.4999999999998
 30
0.0
 11
335.132879
 21
490.5
 31
0.0
  0
LINE
  5
108F
330
F18
100
AcDbEntity
  8
1
  6
Continuous
100
AcDbLine
 10
333.732879
 20
490.5
 30
0.0
 11
333.732879
 21
455.4999999999998
 31
0.0
  0
LINE
  5
1090
330
F18
100
AcDbEntity
  8
1
  6
Continuous
100
AcDbLine
 10
335.432879
 20
489.0
 30
0.0
 11
335.432879
 21
457.0
 31
0.0
  0
LINE
  5
1091
330
F18
100
AcDbEntity
  8
1
  6
Continuous
100
AcDbLine
 10
336.932879
 20
455.4999999999998
 30
0.0
 11
343.932879
 21
455.4999999999998
 31
0.0
  0
LINE
  5
1092
330
F18
100
AcDbEntity
  8
1
  6
Continuous
100
AcDbLine
 10
335.432879
 20
462.06285
 30
0.0
 11
335.132879
 21
460.9047
 31
0.0
  0
LINE
  5
1093
330
F18
100
AcDbEntity
  8
1
  6
Continuous
100
AcDbLine
 10
335.132879
 20
462.06285
 30
0.0
 11
335.432879
 21
462.06285
 31
0.0
  0
LINE
  5
1094
330
F18
100
AcDbEntity
  8
1
  6
Continuous
100
AcDbLine
 10
333.432879
 20
462.06285
 30
0.0
 11
333.732879
 21
460.9047
 31
0.0
  0
LINE
  5
1095
330
F18
100
AcDbEntity
  8
1
  6
Continuous
100
AcDbLine
 10
333.732879
 20
462.06285
 30
0.0
 11
333.432879
 21
462.06285
 31
0.0
  0
LINE
  5
1096
330
F18
100
AcDbEntity
  8
1
  6
Continuous
100
AcDbLine
 10
335.432879
 20
457.0
 30
0.0
 11
336.932879
 21
457.0
 31
0.0
  0
LINE
  5
1097
330
F18
100
AcDbEntity
  8
1
  6
Continuous
100
AcDbLine
 10
333.732879
 20
455.4999999999998
 30
0.0
 11
335.132879
 21
455.4999999999998
 31
0.0
  0
LINE
  5
1098
330
F18
100
AcDbEntity
  8
1
  6
Continuous
100
AcDbLine
 10
345.432879
 20
457.0
 30
0.0
 11
343.932879
 21
457.0
 31
0.0
  0
LINE
  5
1099
330
F18
100
AcDbEntity
  8
1
  6
Continuous
100
AcDbLine
 10
295.375944
 20
463.0
 30
0.0
 11
284.875944
 21
463.0
 31
0.0
  0
ARC
  5
109A
330
F18
100
AcDbEntity
  8
1
  6
Continuous
100
AcDbCircle
 10
295.375944
 20
463.4999999999998
 30
0.0
 40
0.5
100
AcDbArc
 50
270.0
 51
0.0
  0
ARC
  5
109B
330
F18
100
AcDbEntity
  8
1
  6
Continuous
100
AcDbCircle
 10
309.4118179999999
 20
481.7499999999998
 30
0.0
 40
34.52106099999999
100
AcDbArc
 50
345.317147
 51
14.68285299999999
  0
ARC
  5
109C
330
F18
100
AcDbEntity
  8
1
  6
Continuous
100
AcDbCircle
 10
371.45394
 20
481.7499999999998
 30
0.0
 40
34.52106099999999
100
AcDbArc
 50
165.317147
 51
194.6828529999999
  0
LINE
  5
109D
330
F18
100
AcDbEntity
  8
1
  6
Continuous
100
AcDbLine
 10
338.0602109999998
 20
473.0
 30
0.0
 11
342.8055469999998
 21
473.0
 31
0.0
  0
LINE
  5
109E
330
F18
100
AcDbEntity
  8
4
  6
CENTER
100
AcDbLine
 10
328.882877
 20
473.0
 30
0.0
 11
350.432879
 21
473.0
 31
0.0
  0
LINE
  5
109F
330
F18
100
AcDbEntity
  8
1
  6
Continuous
100
AcDbLine
 10
335.432879
 20
472.98995
 30
0.0
 11
335.132879
 21
472.68995
 31
0.0
  0
LINE
  5
10A0
330
F18
100
AcDbEntity
  8
1
  6
Continuous
100
AcDbLine
 10
335.132879
 20
473.28995
 30
0.0
 11
335.432879
 21
472.98995
 31
0.0
  0
LINE
  5
10A1
330
F18
100
AcDbEntity
  8
1
  6
Continuous
100
AcDbLine
 10
335.432879
 20
466.24049
 30
0.0
 11
335.132879
 21
466.5404999999998
 31
0.0
  0
LINE
  5
10A2
330
F18
100
AcDbEntity
  8
1
  6
Continuous
100
AcDbLine
 10
335.132879
 20
465.94049
 30
0.0
 11
335.432879
 21
466.24049
 31
0.0
  0
LINE
  5
10A3
330
F18
100
AcDbEntity
  8
1
  6
Continuous
100
AcDbLine
 10
333.432879
 20
466.24049
 30
0.0
 11
333.732879
 21
465.94049
 31
0.0
  0
LINE
  5
10A4
330
F18
100
AcDbEntity
  8
1
  6
Continuous
100
AcDbLine
 10
333.432879
 20
466.24049
 30
0.0
 11
333.732879
 21
466.5404999999998
 31
0.0
  0
LINE
  5
10A5
330
F18
100
AcDbEntity
  8
1
  6
Continuous
100
AcDbLine
 10
333.432879
 20
473.01003
 30
0.0
 11
333.732879
 21
473.31003
 31
0.0
  0
LINE
  5
10A6
330
F18
100
AcDbEntity
  8
1
  6
Continuous
100
AcDbLine
 10
333.432879
 20
473.01003
 30
0.0
 11
333.732879
 21
472.71003
 31
0.0
  0
LINE
  5
10A7
330
F18
100
AcDbEntity
  8
1
  6
Continuous
100
AcDbLine
 10
335.132879
 20
483.9371499999998
 30
0.0
 11
335.432879
 21
483.9371499999998
 31
0.0
  0
LINE
  5
10A8
330
F18
100
AcDbEntity
  8
1
  6
Continuous
100
AcDbLine
 10
335.432879
 20
483.9371499999998
 30
0.0
 11
335.132879
 21
485.0953
 31
0.0
  0
LINE
  5
10A9
330
F18
100
AcDbEntity
  8
1
  6
Continuous
100
AcDbLine
 10
335.132879
 20
480.05953
 30
0.0
 11
335.432879
 21
479.75953
 31
0.0
  0
LINE
  5
10AA
330
F18
100
AcDbEntity
  8
1
  6
Continuous
100
AcDbLine
 10
335.432879
 20
479.75953
 30
0.0
 11
335.132879
 21
479.45953
 31
0.0
  0
LINE
  5
10AB
330
F18
100
AcDbEntity
  8
1
  6
Continuous
100
AcDbLine
 10
333.732879
 20
483.9371499999998
 30
0.0
 11
333.432879
 21
483.9371499999998
 31
0.0
  0
LINE
  5
10AC
330
F18
100
AcDbEntity
  8
1
  6
Continuous
100
AcDbLine
 10
333.432879
 20
483.9371499999998
 30
0.0
 11
333.732879
 21
485.0953
 31
0.0
  0
LINE
  5
10AD
330
F18
100
AcDbEntity
  8
1
  6
Continuous
100
AcDbLine
 10
333.432879
 20
479.75953
 30
0.0
 11
333.732879
 21
479.45953
 31
0.0
  0
LINE
  5
10AE
330
F18
100
AcDbEntity
  8
1
  6
Continuous
100
AcDbLine
 10
333.432879
 20
479.75953
 30
0.0
 11
333.732879
 21
480.05953
 31
0.0
  0
LINE
  5
10AF
330
F18
100
AcDbEntity
  8
1
  6
Continuous
100
AcDbLine
 10
336.932879
 20
490.5
 30
0.0
 11
343.932879
 21
490.5
 31
0.0
  0
LINE
  5
10B0
330
F18
100
AcDbEntity
  8
1
  6
Continuous
100
AcDbLine
 10
335.432879
 20
489.0
 30
0.0
 11
336.932879
 21
489.0
 31
0.0
  0
LINE
  5
10B1
330
F18
100
AcDbEntity
  8
1
  6
Continuous
100
AcDbLine
 10
333.732879
 20
490.5
 30
0.0
 11
335.132879
 21
490.5
 31
0.0
  0
LINE
  5
10B2
330
F18
100
AcDbEntity
  8
1
  6
Continuous
100
AcDbLine
 10
345.432879
 20
489.0
 30
0.0
 11
343.932879
 21
489.0
 31
0.0
  0
LINE
  5
10B3
330
F18
100
AcDbEntity
  8
1
  6
Continuous
100
AcDbLine
 10
295.375944
 20
483.0
 30
0.0
 11
284.875944
 21
483.0
 31
0.0
  0
ARC
  5
10B4
330
F18
100
AcDbEntity
  8
1
  6
Continuous
100
AcDbCircle
 10
295.375944
 20
482.5
 30
0.0
 40
0.5
100
AcDbArc
 50
0.0
 51
90.0
  0
LINE
  5
10B5
330
F18
100
AcDbEntity
  8
1
  6
Continuous
100
AcDbLine
 10
297.4759439999999
 20
481.000001
 30
0.0
 11
297.4759439999999
 21
465.000001
 31
0.0
  0
LINE
  5
10B6
330
F18
100
AcDbEntity
  8
1
  6
Continuous
100
AcDbLine
 10
298.9759439999999
 20
466.9000009999998
 30
0.0
 11
298.9759439999999
 21
479.1000009999998
 31
0.0
  0
ARC
  5
10B7
330
F18
100
AcDbEntity
  8
1
  6
Continuous
100
AcDbCircle
 10
295.7506519999999
 20
475.4960439999998
 30
0.0
 40
7.225291999999996
100
AcDbArc
 50
339.756734
 51
20.24326599999999
  0
ARC
  5
10B8
330
F18
100
AcDbEntity
  8
1
  6
Continuous
100
AcDbCircle
 10
306.201236
 20
475.4960439999998
 30
0.0
 40
7.225291999999996
100
AcDbArc
 50
159.7567339999999
 51
200.243266
  0
LINE
  5
10B9
330
F18
100
AcDbEntity
  8
1
  6
Continuous
100
AcDbLine
 10
302.9759439999999
 20
477.9960439999999
 30
0.0
 11
302.9759439999999
 21
467.996044
 31
0.0
  0
LINE
  5
10BA
330
F18
100
AcDbEntity
  8
1
  6
Continuous
100
AcDbLine
 10
295.875944
 20
465.000001
 30
0.0
 11
297.4759439999999
 21
465.000001
 31
0.0
  0
LINE
  5
10BB
330
F18
100
AcDbEntity
  8
1
  6
Continuous
100
AcDbLine
 10
297.4759439999999
 20
473.000001
 30
0.0
 11
298.9759439999999
 21
474.500001
 31
0.0
  0
LINE
  5
10BC
330
F18
100
AcDbEntity
  8
1
  6
Continuous
100
AcDbLine
 10
297.4759439999999
 20
471.4960439999998
 30
0.0
 11
298.9759439999999
 21
472.996044
 31
0.0
  0
LINE
  5
10BD
330
F18
100
AcDbEntity
  8
1
  6
Continuous
100
AcDbLine
 10
298.9759439999999
 20
466.9000009999998
 30
0.0
 11
297.4759439999999
 21
466.9000009999998
 31
0.0
  0
ARC
  5
10BE
330
F18
100
AcDbEntity
  8
1
  6
Continuous
100
AcDbCircle
 10
295.7506519999999
 20
470.4960439999998
 30
0.0
 40
7.225291999999996
100
AcDbArc
 50
339.756734
 51
20.24326599999999
  0
LINE
  5
10BF
330
F18
100
AcDbEntity
  8
1
  6
Continuous
100
AcDbLine
 10
302.9759439999999
 20
467.996044
 30
0.0
 11
298.9759439999999
 21
467.996044
 31
0.0
  0
ARC
  5
10C0
330
F18
100
AcDbEntity
  8
1
  6
Continuous
100
AcDbCircle
 10
306.201236
 20
470.4960439999998
 30
0.0
 40
7.225291999999996
100
AcDbArc
 50
159.7567339999999
 51
200.243266
  0
LINE
  5
10C1
330
F18
100
AcDbEntity
  8
1
  6
Continuous
100
AcDbLine
 10
299.422236
 20
472.996044
 30
0.0
 11
302.5296519999999
 21
472.996044
 31
0.0
  0
LINE
  5
10C2
330
F18
100
AcDbEntity
  8
1
  6
Continuous
100
AcDbLine
 10
295.875944
 20
481.000001
 30
0.0
 11
297.4759439999999
 21
481.000001
 31
0.0
  0
LINE
  5
10C3
330
F18
100
AcDbEntity
  8
1
  6
Continuous
100
AcDbLine
 10
298.9759439999999
 20
479.1000009999998
 30
0.0
 11
297.4759439999999
 21
479.1000009999998
 31
0.0
  0
LINE
  5
10C4
330
F18
100
AcDbEntity
  8
1
  6
Continuous
100
AcDbLine
 10
302.9759439999999
 20
477.9960439999999
 30
0.0
 11
298.9759439999999
 21
477.9960439999999
 31
0.0
  0
LINE
  5
10C5
330
F18
100
AcDbEntity
  8
1
  6
Continuous
100
AcDbLine
 10
471.7071209999998
 20
250.0362129999998
 30
0.0
 11
471.7071209999998
 21
249.7435029999997
 31
0.0
  0
ARC
  5
10C6
330
F18
100
AcDbEntity
  8
1
  6
Continuous
100
AcDbCircle
 10
472.081746
 20
250.0827329999999
 30
0.0
 40
0.6253750000000001
100
AcDbArc
 50
317.1304
 51
42.86999999999999
  0
ARC
  5
10C7
330
F18
100
AcDbEntity
  8
1
  6
Continuous
100
AcDbCircle
 10
471.332496
 20
250.0827329999999
 30
0.0
 40
0.6253750000000001
100
AcDbArc
 50
137.1299999999999
 51
222.8699999999999
  0
LINE
  5
10C8
330
F18
100
AcDbEntity
  8
1
  6
Continuous
100
AcDbLine
 10
479.5906099999998
 20
213.9704519999999
 30
0.0
 11
483.5125029999998
 21
283.3915719999998
 31
0.0
  0
LINE
  5
10C9
330
F18
100
AcDbEntity
  8
1
  6
Continuous
100
AcDbLine
 10
467.07387
 20
213.9704519999999
 30
0.0
 11
463.1519769999998
 21
283.3915719999998
 31
0.0
  0
LINE
  5
10CA
330
F18
100
AcDbEntity
  8
1
  6
Continuous
100
AcDbLine
 10
481.5066559999998
 20
194.6987769999998
 30
0.0
 11
486.513842
 21
283.330605
 31
0.0
  0
LINE
  5
10CB
330
F18
100
AcDbEntity
  8
1
  6
Continuous
100
AcDbLine
 10
465.157825
 20
194.6987769999998
 30
0.0
 11
460.150638
 21
283.330605
 31
0.0
  0
LINE
  5
10CC
330
F18
100
AcDbEntity
  8
4
  6
CENTER
100
AcDbLine
 10
473.33224
 20
346.611463
 30
0.0
 11
473.33224
 21
186.611463
 31
0.0
  0
ARC
  5
10CD
330
F18
100
AcDbEntity
  8
1
  6
Continuous
100
AcDbCircle
 10
467.6538449999998
 20
194.839788
 30
0.0
 40
2.5
100
AcDbArc
 50
183.233444
 51
255.382014
  0
ARC
  5
10CE
330
F18
100
AcDbEntity
  8
1
  6
Continuous
100
AcDbCircle
 10
479.010636
 20
194.839788
 30
0.0
 40
2.5
100
AcDbArc
 50
284.6179859999999
 51
356.766556
  0
ARC
  5
10CF
330
F18
100
AcDbEntity
  8
1
  6
Continuous
100
AcDbCircle
 10
473.33224
 20
216.611463
 30
0.0
 40
25.0
100
AcDbArc
 50
255.382014
 51
284.6179859999999
  0
ARC
  5
10D0
330
F18
100
AcDbEntity
  8
1
  6
Continuous
100
AcDbCircle
 10
473.33224
 20
216.611463
 30
0.0
 40
11.0
100
AcDbArc
 50
255.382014
 51
284.6179859999999
  0
LINE
  5
10D1
330
F18
100
AcDbEntity
  8
1
  6
Continuous
100
AcDbLine
 10
469.56989
 20
211.6114629999999
 30
0.0
 11
477.09459
 21
211.6114629999999
 31
0.0
  0
ARC
  5
10D2
330
F18
100
AcDbEntity
  8
1
  6
Continuous
100
AcDbCircle
 10
469.56989
 20
214.111463
 30
0.0
 40
2.5
100
AcDbArc
 50
183.233444
 51
270.0
  0
ARC
  5
10D3
330
F18
100
AcDbEntity
  8
1
  6
Continuous
100
AcDbCircle
 10
477.09459
 20
214.111463
 30
0.0
 40
2.5
100
AcDbArc
 50
270.0
 51
356.766556
  0
LINE
  5
10D4
330
F18
100
AcDbEntity
  8
1
  6
Continuous
100
AcDbLine
 10
475.9298839999996
 20
240.6114629999999
 30
0.0
 11
475.9298839999996
 21
238.6114629999999
 31
0.0
  0
LINE
  5
10D5
330
F18
100
AcDbEntity
  8
1
  6
Continuous
100
AcDbLine
 10
473.4200829999998
 20
240.6114629999999
 30
0.0
 11
473.4200829999998
 21
238.6114629999999
 31
0.0
  0
LINE
  5
10D6
330
F18
100
AcDbEntity
  8
1
  6
Continuous
100
AcDbLine
 10
471.8132459999998
 20
240.6097029999999
 30
0.0
 11
471.0379459999998
 21
238.613213
 31
0.0
  0
LINE
  5
10D7
330
F18
100
AcDbEntity
  8
1
  6
Continuous
100
AcDbLine
 10
471.8132459999998
 20
240.6132179999999
 30
0.0
 11
472.5530959999998
 21
238.613213
 31
0.0
  0
LINE
  5
10D8
330
F18
100
AcDbEntity
  8
1
  6
Continuous
100
AcDbLine
 10
469.8530319999998
 20
240.6114629999999
 30
0.0
 11
469.8530319999998
 21
238.6114629999999
 31
0.0
  0
LINE
  5
10D9
330
F18
100
AcDbEntity
  8
1
  6
Continuous
100
AcDbLine
 10
466.133749
 20
230.6114629999999
 30
0.0
 11
480.5307309999998
 21
230.6114629999999
 31
0.0
  0
LINE
  5
10DA
330
F18
100
AcDbEntity
  8
1
  6
Continuous
100
AcDbLine
 10
465.794783
 20
236.6114629999999
 30
0.0
 11
480.8696969999998
 21
236.6114629999999
 31
0.0
  0
CIRCLE
  5
10DB
330
F18
100
AcDbEntity
  8
1
  6
Continuous
100
AcDbCircle
 10
475.202948
 20
238.6514629999997
 30
0.0
 40
0.04
  0
LINE
  5
10DC
330
F18
100
AcDbEntity
  8
1
  6
Continuous
100
AcDbLine
 10
472.636078
 20
240.6114629999999
 30
0.0
 11
474.2110529999997
 21
240.6114629999999
 31
0.0
  0
ARC
  5
10DD
330
F18
100
AcDbEntity
  8
1
  6
Continuous
100
AcDbCircle
 10
472.2324959999999
 20
250.0827329999999
 30
0.0
 40
0.6253750000000001
100
AcDbArc
 50
212.8499999999999
 51
222.8699999999999
  0
ARC
  5
10DE
330
F18
100
AcDbEntity
  8
1
  6
Continuous
100
AcDbCircle
 10
472.157121
 20
250.0127629999997
 30
0.0
 40
0.5225300000000001
100
AcDbArc
 50
222.8699999999999
 51
317.1304
  0
ARC
  5
10DF
330
F18
100
AcDbEntity
  8
1
  6
Continuous
100
AcDbCircle
 10
471.1817439999999
 20
250.0827329999999
 30
0.0
 40
0.6253750000000001
100
AcDbArc
 50
317.1304
 51
327.1503
  0
ARC
  5
10E0
330
F18
100
AcDbEntity
  8
1
  6
Continuous
100
AcDbCircle
 10
471.257121
 20
250.0127629999997
 30
0.0
 40
0.5225300000000001
100
AcDbArc
 50
222.8699999999999
 51
317.1304
  0
ARC
  5
10E1
330
F18
100
AcDbEntity
  8
1
  6
Continuous
100
AcDbCircle
 10
471.3192209999998
 20
248.216707
 30
0.0
 40
0.62634
100
AcDbArc
 50
225.9269999999999
 51
270.0
  0
ARC
  5
10E2
330
F18
100
AcDbEntity
  8
1
  6
Continuous
100
AcDbCircle
 10
472.0950209999998
 20
248.216707
 30
0.0
 40
0.62634
100
AcDbArc
 50
270.0
 51
314.0724999999998
  0
LINE
  5
10E3
330
F18
100
AcDbEntity
  8
1
  6
Continuous
100
AcDbLine
 10
472.0950209999998
 20
247.5903569999999
 30
0.0
 11
471.3192209999998
 21
247.5903569999999
 31
0.0
  0
ARC
  5
10E4
330
F18
100
AcDbEntity
  8
1
  6
Continuous
100
AcDbCircle
 10
471.2864609999998
 20
248.1828569999999
 30
0.0
 40
0.57924
100
AcDbArc
 50
134.072
 51
225.9269999999999
  0
ARC
  5
10E5
330
F18
100
AcDbEntity
  8
1
  6
Continuous
100
AcDbCircle
 10
471.3192209999998
 20
248.1490069999999
 30
0.0
 40
0.62634
100
AcDbArc
 50
90.0
 51
134.072
  0
ARC
  5
10E6
330
F18
100
AcDbEntity
  8
1
  6
Continuous
100
AcDbCircle
 10
472.127781
 20
248.1828569999999
 30
0.0
 40
0.57924
100
AcDbArc
 50
314.0724999999998
 51
45.92799999999999
  0
ARC
  5
10E7
330
F18
100
AcDbEntity
  8
1
  6
Continuous
100
AcDbCircle
 10
472.0950209999998
 20
248.1490069999999
 30
0.0
 40
0.62634
100
AcDbArc
 50
45.92799999999999
 51
90.0
  0
LINE
  5
10E8
330
F18
100
AcDbEntity
  8
1
  6
Continuous
100
AcDbLine
 10
472.0950209999998
 20
248.7753569999999
 30
0.0
 11
471.3192209999998
 21
248.7753569999999
 31
0.0
  0
LINE
  5
10E9
330
F18
100
AcDbEntity
  8
1
  6
Continuous
100
AcDbLine
 10
471.7071209999998
 20
246.3776549999999
 30
0.0
 11
471.7071209999998
 21
245.7511049999999
 31
0.0
  0
LINE
  5
10EA
330
F18
100
AcDbEntity
  8
1
  6
Continuous
100
AcDbLine
 10
472.707121
 20
244.7772749999999
 30
0.0
 11
470.7071209999998
 21
244.7772749999999
 31
0.0
  0
LINE
  5
10EB
330
F18
100
AcDbEntity
  8
1
  6
Continuous
100
AcDbLine
 10
472.124446
 20
245.330197
 30
0.0
 11
472.707121
 21
244.7772749999999
 31
0.0
  0
LINE
  5
10EC
330
F18
100
AcDbEntity
  8
1
  6
Continuous
100
AcDbLine
 10
471.2777459999998
 20
239.2166629999999
 30
0.0
 11
472.331246
 21
239.2166629999999
 31
0.0
  0
ARC
  5
10ED
330
F18
100
AcDbEntity
  8
1
  6
Continuous
100
AcDbCircle
 10
470.322832
 20
239.971463
 30
0.0
 40
0.6400000000000004
100
AcDbArc
 50
222.7718659999999
 51
90.0
  0
LINE
  5
10EE
330
F18
100
AcDbEntity
  8
1
  6
Continuous
100
AcDbLine
 10
469.8530319999998
 20
240.6114629999999
 30
0.0
 11
470.322832
 21
240.6114629999999
 31
0.0
  0
LINE
  5
10EF
330
F18
100
AcDbEntity
  8
1
  6
Continuous
100
AcDbLine
 10
474.5012759999998
 20
247.0100049999998
 30
0.0
 11
474.5012759999998
 21
245.9194549999998
 31
0.0
  0
LINE
  5
10F0
330
F18
100
AcDbEntity
  8
1
  6
Continuous
100
AcDbLine
 10
475.946961
 20
246.4557049999999
 30
0.0
 11
473.8998409999998
 21
245.6984049999999
 31
0.0
  0
LINE
  5
10F1
330
F18
100
AcDbEntity
  8
1
  6
Continuous
100
AcDbLine
 10
475.943366
 20
246.4557049999999
 30
0.0
 11
473.8998459999998
 21
247.2491549999999
 31
0.0
  0
LINE
  5
10F2
330
F18
100
AcDbEntity
  8
1
  6
Continuous
100
AcDbLine
 10
474.834636
 20
248.3216049999998
 30
0.0
 11
473.892646
 21
248.3216049999998
 31
0.0
  0
LINE
  5
10F3
330
F18
100
AcDbEntity
  8
1
  6
Continuous
100
AcDbLine
 10
475.9940859999998
 20
249.7201549999997
 30
0.0
 11
473.892646
 21
249.7201549999997
 31
0.0
  0
LINE
  5
10F4
330
F18
100
AcDbEntity
  8
1
  6
Continuous
100
AcDbLine
 10
474.8346309999998
 20
248.3216049999998
 30
0.0
 11
476.0099809999998
 21
247.6430049999999
 31
0.0
  0
LINE
  5
10F5
330
F18
100
AcDbEntity
  8
1
  6
Continuous
100
AcDbLine
 10
474.8382409999998
 20
248.3216049999998
 30
0.0
 11
476.008721
 21
248.995305
 31
0.0
  0
ARC
  5
10F6
330
F18
100
AcDbEntity
  8
1
  6
Continuous
100
AcDbCircle
 10
476.3996849999998
 20
239.971463
 30
0.0
 40
0.6400000000000004
100
AcDbArc
 50
222.7718659999999
 51
90.0
  0
LINE
  5
10F7
330
F18
100
AcDbEntity
  8
1
  6
Continuous
100
AcDbLine
 10
475.9298839999996
 20
240.6114629999999
 30
0.0
 11
476.3996849999998
 21
240.6114629999999
 31
0.0
  0
CIRCLE
  5
10F8
330
F18
100
AcDbEntity
  8
1
  6
Continuous
100
AcDbCircle
 10
473.33224
 20
311.611463
 30
0.0
 40
30.0
  0
LINE
  5
10F9
330
F18
100
AcDbEntity
  8
4
  6
CENTER
100
AcDbLine
 10
508.33224
 20
311.611463
 30
0.0
 11
438.3322399999998
 21
311.611463
 31
0.0
  0
LINE
  5
10FA
330
F18
100
AcDbEntity
  8
1
  6
Continuous
100
AcDbLine
 10
473.33224
 20
291.404204
 30
0.0
 11
490.83224
 21
301.507833
 31
0.0
  0
LINE
  5
10FB
330
F18
100
AcDbEntity
  8
1
  6
Continuous
100
AcDbLine
 10
455.83224
 20
301.507833
 30
0.0
 11
473.33224
 21
291.404204
 31
0.0
  0
ARC
  5
10FC
330
F18
100
AcDbEntity
  8
1
  6
Continuous
100
AcDbCircle
 10
473.33224
 20
291.611463
 30
0.0
 40
4.25
100
AcDbArc
 50
152.4205119999997
 51
27.579488
  0
ARC
  5
10FD
330
F18
100
AcDbEntity
  8
1
  6
Continuous
100
AcDbCircle
 10
473.33224
 20
291.611463
 30
0.0
 40
4.0
100
AcDbArc
 50
152.571893
 51
27.428107
  0
ARC
  5
10FE
330
F18
100
AcDbEntity
  8
1
  6
Continuous
100
AcDbCircle
 10
659.8322399999998
 20
294.611463
 30
0.0
 40
200.0
100
AcDbArc
 50
182.841123
 51
183.233444
  0
LINE
  5
10FF
330
F18
100
AcDbEntity
  8
1
  6
Continuous
100
AcDbLine
 10
475.907121
 20
260.95931
 30
0.0
 11
475.907121
 21
259.32889
 31
0.0
  0
LINE
  5
1100
330
F18
100
AcDbEntity
  8
1
  6
Continuous
100
AcDbLine
 10
472.707121
 20
260.7157049999999
 30
0.0
 11
472.707121
 21
259.1407299999999
 31
0.0
  0
LINE
  5
1101
330
F18
100
AcDbEntity
  8
1
  6
Continuous
100
AcDbLine
 10
471.7071209999998
 20
258.558185
 30
0.0
 11
471.7071209999998
 21
257.305205
 31
0.0
  0
LINE
  5
1102
330
F18
100
AcDbEntity
  8
1
  6
Continuous
100
AcDbLine
 10
471.7071209999998
 20
254.2449549999997
 30
0.0
 11
471.7071209999998
 21
253.6184049999999
 31
0.0
  0
LINE
  5
1103
330
F18
100
AcDbEntity
  8
1
  6
Continuous
100
AcDbLine
 10
471.312321
 20
256.4672049999999
 30
0.0
 11
471.312321
 21
255.413705
 31
0.0
  0
LINE
  5
1104
330
F18
100
AcDbEntity
  8
1
  6
Continuous
100
AcDbLine
 10
472.708876
 20
255.931705
 30
0.0
 11
470.7088709999998
 21
255.1918549999999
 31
0.0
  0
LINE
  5
1105
330
F18
100
AcDbEntity
  8
1
  6
Continuous
100
AcDbLine
 10
472.7220759999998
 20
257.305205
 30
0.0
 11
470.7220709999998
 21
257.305205
 31
0.0
  0
LINE
  5
1106
330
F18
100
AcDbEntity
  8
1
  6
Continuous
100
AcDbLine
 10
472.7053609999998
 20
255.931705
 30
0.0
 11
470.7088709999998
 21
256.7070049999999
 31
0.0
  0
LINE
  5
1107
330
F18
100
AcDbEntity
  8
1
  6
Continuous
100
AcDbLine
 10
472.707121
 20
259.9316999999999
 30
0.0
 11
470.7071209999998
 21
259.9316999999999
 31
0.0
  0
LINE
  5
1108
330
F18
100
AcDbEntity
  8
1
  6
Continuous
100
AcDbLine
 10
472.7220759999998
 20
258.558185
 30
0.0
 11
470.7220709999998
 21
258.558185
 31
0.0
  0
ARC
  5
1109
330
F18
100
AcDbEntity
  8
1
  6
Continuous
100
AcDbCircle
 10
471.257121
 20
252.0016749999999
 30
0.0
 40
0.5225300000000001
100
AcDbArc
 50
103.0139999999999
 51
137.1299999999999
  0
ARC
  5
110A
330
F18
100
AcDbEntity
  8
1
  6
Continuous
100
AcDbCircle
 10
471.257121
 20
251.8617349999999
 30
0.0
 40
0.5225300000000001
100
AcDbArc
 50
222.8699999999999
 51
317.1304
  0
ARC
  5
110B
330
F18
100
AcDbEntity
  8
1
  6
Continuous
100
AcDbCircle
 10
471.1817439999999
 20
251.931705
 30
0.0
 40
0.6253750000000001
100
AcDbArc
 50
317.1304
 51
327.1503
  0
ARC
  5
110C
330
F18
100
AcDbEntity
  8
1
  6
Continuous
100
AcDbCircle
 10
471.332496
 20
251.931705
 30
0.0
 40
0.6253750000000001
100
AcDbArc
 50
137.1299999999999
 51
222.8699999999999
  0
ARC
  5
110D
330
F18
100
AcDbEntity
  8
1
  6
Continuous
100
AcDbCircle
 10
472.157121
 20
252.0016749999999
 30
0.0
 40
0.5225300000000001
100
AcDbArc
 50
42.86999999999999
 51
108.2079999999999
  0
ARC
  5
110E
330
F18
100
AcDbEntity
  8
1
  6
Continuous
100
AcDbCircle
 10
472.157121
 20
251.8617349999999
 30
0.0
 40
0.5225300000000001
100
AcDbArc
 50
222.8699999999999
 51
317.1304
  0
ARC
  5
110F
330
F18
100
AcDbEntity
  8
1
  6
Continuous
100
AcDbCircle
 10
472.081746
 20
251.931705
 30
0.0
 40
0.6253750000000001
100
AcDbArc
 50
317.1304
 51
42.86999999999999
  0
ARC
  5
1110
330
F18
100
AcDbEntity
  8
1
  6
Continuous
100
AcDbCircle
 10
472.2324959999999
 20
251.931705
 30
0.0
 40
0.6253750000000001
100
AcDbArc
 50
212.8499999999999
 51
222.8699999999999
  0
LINE
  5
1111
330
F18
100
AcDbEntity
  8
1
  6
Continuous
100
AcDbLine
 10
471.7071209999998
 20
251.885185
 30
0.0
 11
471.7071209999998
 21
251.5924749999999
 31
0.0
  0
ARC
  5
1112
330
F18
100
AcDbEntity
  8
1
  6
Continuous
100
AcDbCircle
 10
472.157121
 20
250.1527029999997
 30
0.0
 40
0.5225300000000001
100
AcDbArc
 50
42.86999999999999
 51
108.2079999999999
  0
ARC
  5
1113
330
F18
100
AcDbEntity
  8
1
  6
Continuous
100
AcDbCircle
 10
471.257121
 20
250.1527029999997
 30
0.0
 40
0.5225300000000001
100
AcDbArc
 50
103.0139999999999
 51
137.1299999999999
  0
LINE
  5
1114
330
F18
100
AcDbEntity
  8
1
  6
Continuous
100
AcDbLine
 10
474.943366
 20
254.640405
 30
0.0
 11
474.943366
 21
253.3434049999999
 31
0.0
  0
LINE
  5
1115
330
F18
100
AcDbEntity
  8
1
  6
Continuous
100
AcDbLine
 10
475.907121
 20
260.14769
 30
0.0
 11
473.907121
 21
260.14769
 31
0.0
  0
LINE
  5
1116
330
F18
100
AcDbEntity
  8
1
  6
Continuous
100
AcDbLine
 10
475.9940859999998
 20
254.640405
 30
0.0
 11
473.892646
 21
254.640405
 31
0.0
  0
LINE
  5
1117
330
F18
100
AcDbEntity
  8
1
  6
Continuous
100
AcDbLine
 10
474.841926
 20
251.0027549999997
 30
0.0
 11
474.841926
 21
250.299855
 31
0.0
  0
LINE
  5
1118
330
F18
100
AcDbEntity
  8
1
  6
Continuous
100
AcDbLine
 10
475.9940859999998
 20
253.3434049999999
 30
0.0
 11
473.892646
 21
253.3434049999999
 31
0.0
  0
LINE
  5
1119
330
F18
100
AcDbEntity
  8
1
  6
Continuous
100
AcDbLine
 10
475.9940859999998
 20
252.640405
 30
0.0
 11
473.892646
 21
252.640405
 31
0.0
  0
LINE
  5
111A
330
F18
100
AcDbEntity
  8
1
  6
Continuous
100
AcDbLine
 10
474.5438509999996
 20
250.299855
 30
0.0
 11
473.907121
 21
250.299855
 31
0.0
  0
ARC
  5
111B
330
F18
100
AcDbEntity
  8
1
  6
Continuous
100
AcDbCircle
 10
474.976481
 20
255.8311549999999
 30
0.0
 40
1.067529999999997
100
AcDbArc
 50
48.932
 51
131.0679999999997
  0
ARC
  5
111C
330
F18
100
AcDbEntity
  8
1
  6
Continuous
100
AcDbCircle
 10
474.7782209999998
 20
256.0587049999999
 30
0.0
 40
0.76574
100
AcDbArc
 50
131.0679999999997
 51
199.193
  0
ARC
  5
111D
330
F18
100
AcDbEntity
  8
1
  6
Continuous
100
AcDbCircle
 10
475.174741
 20
256.0587049999999
 30
0.0
 40
0.76574
100
AcDbArc
 50
340.8072
 51
48.932
  0
ARC
  5
111E
330
F18
100
AcDbEntity
  8
1
  6
Continuous
100
AcDbCircle
 10
475.4132959999998
 20
255.9756549999999
 30
0.0
 40
0.513145
100
AcDbArc
 50
275.65924
 51
340.8072
  0
ARC
  5
111F
330
F18
100
AcDbEntity
  8
1
  6
Continuous
100
AcDbCircle
 10
474.5396659999998
 20
255.9756549999999
 30
0.0
 40
0.513145
100
AcDbArc
 50
199.193
 51
264.341
  0
ARC
  5
1120
330
F18
100
AcDbEntity
  8
1
  6
Continuous
100
AcDbCircle
 10
475.376996
 20
250.9272049999999
 30
0.0
 40
0.513145
100
AcDbArc
 50
275.65924
 51
340.8072
  0
ARC
  5
1121
330
F18
100
AcDbEntity
  8
1
  6
Continuous
100
AcDbCircle
 10
475.138441
 20
251.0102549999998
 30
0.0
 40
0.76574
100
AcDbArc
 50
340.8072
 51
48.932
  0
ARC
  5
1122
330
F18
100
AcDbEntity
  8
1
  6
Continuous
100
AcDbCircle
 10
474.9401809999998
 20
250.782755
 30
0.0
 40
1.067529999999997
100
AcDbArc
 50
48.932
 51
131.0679999999997
  0
ARC
  5
1123
330
F18
100
AcDbEntity
  8
1
  6
Continuous
100
AcDbCircle
 10
474.7419159999998
 20
251.0102549999998
 30
0.0
 40
0.76574
100
AcDbArc
 50
131.0679999999997
 51
186.5909999999999
  0
ARC
  5
1124
330
F18
100
AcDbEntity
  8
1
  6
Continuous
100
AcDbCircle
 10
474.6964809999998
 20
251.0050049999999
 30
0.0
 40
0.72
100
AcDbArc
 50
179.5819999999999
 51
281.6541
  0
ARC
  5
1125
330
F18
100
AcDbEntity
  8
1
  6
Continuous
100
AcDbCircle
 10
474.9658809999998
 20
257.9298049999998
 30
0.0
 40
1.067529999999997
100
AcDbArc
 50
48.932
 51
131.0679999999997
  0
ARC
  5
1126
330
F18
100
AcDbEntity
  8
1
  6
Continuous
100
AcDbCircle
 10
474.9658809999998
 20
258.38486
 30
0.0
 40
1.067529999999997
100
AcDbArc
 50
228.932
 51
311.0679
  0
ARC
  5
1127
330
F18
100
AcDbEntity
  8
1
  6
Continuous
100
AcDbCircle
 10
474.767621
 20
258.15733
 30
0.0
 40
0.76574
100
AcDbArc
 50
131.0679999999997
 51
228.932
  0
ARC
  5
1128
330
F18
100
AcDbEntity
  8
1
  6
Continuous
100
AcDbCircle
 10
475.1641409999998
 20
258.15733
 30
0.0
 40
0.76574
100
AcDbArc
 50
311.0679
 51
48.932
  0
LINE
  5
1129
330
F18
100
AcDbEntity
  8
1
  6
Continuous
100
AcDbLine
 10
476.421938
 20
265.7862499999998
 30
0.0
 11
473.3210179999998
 21
265.7862499999998
 31
0.0
  0
LINE
  5
112A
330
F18
100
AcDbEntity
  8
1
  6
Continuous
100
AcDbLine
 10
476.421938
 20
266.231043
 30
0.0
 11
473.3210179999998
 21
266.231043
 31
0.0
  0
LINE
  5
112B
330
F18
100
AcDbEntity
  8
1
  6
Continuous
100
AcDbLine
 10
476.3849469999996
 20
266.6749339999999
 30
0.0
 11
473.358009
 21
266.6749339999999
 31
0.0
  0
LINE
  5
112C
330
F18
100
AcDbEntity
  8
1
  6
Continuous
100
AcDbLine
 10
473.4897329999998
 20
267.1197269999999
 30
0.0
 11
474.3387189999999
 21
267.1197269999999
 31
0.0
  0
ARC
  5
112D
330
F18
100
AcDbEntity
  8
1
  6
Continuous
100
AcDbCircle
 10
473.7170909999998
 20
267.341672
 30
0.0
 40
0.222261
100
AcDbArc
 50
90.0
 51
164.7419999999998
  0
LINE
  5
112E
330
F18
100
AcDbEntity
  8
1
  6
Continuous
100
AcDbLine
 10
476.3326189999999
 20
264.4536749999999
 30
0.0
 11
473.5501809999997
 21
264.4536749999999
 31
0.0
  0
LINE
  5
112F
330
F18
100
AcDbEntity
  8
1
  6
Continuous
100
AcDbLine
 10
473.616945
 20
264.897566
 30
0.0
 11
474.871929
 21
264.897566
 31
0.0
  0
LINE
  5
1130
330
F18
100
AcDbEntity
  8
1
  6
Continuous
100
AcDbLine
 10
476.334423
 20
265.342359
 30
0.0
 11
473.408533
 21
265.342359
 31
0.0
  0
ARC
  5
1131
330
F18
100
AcDbEntity
  8
1
  6
Continuous
100
AcDbCircle
 10
478.604401
 20
266.009097
 30
0.0
 40
5.732929999999998
100
AcDbArc
 50
144.462
 51
215.5379999999999
  0
ARC
  5
1132
330
F18
100
AcDbEntity
  8
1
  6
Continuous
100
AcDbCircle
 10
473.4897329999998
 20
267.1639349999999
 30
0.0
 40
0.044452
100
AcDbArc
 50
167.2709999999999
 51
270.0
  0
ARC
  5
1133
330
F18
100
AcDbEntity
  8
1
  6
Continuous
100
AcDbCircle
 10
478.604401
 20
266.009097
 30
0.0
 40
5.288524999999999
100
AcDbArc
 50
164.794
 51
167.2709999999999
  0
ARC
  5
1134
330
F18
100
AcDbEntity
  8
1
  6
Continuous
100
AcDbCircle
 10
478.604401
 20
266.009097
 30
0.0
 40
5.288524999999999
100
AcDbArc
 50
164.7419999999998
 51
164.794
  0
ARC
  5
1135
330
F18
100
AcDbEntity
  8
1
  6
Continuous
100
AcDbCircle
 10
478.604401
 20
266.009097
 30
0.0
 40
5.288524999999999
100
AcDbArc
 50
187.793
 51
190.1039999999999
  0
ARC
  5
1136
330
F18
100
AcDbEntity
  8
1
  6
Continuous
100
AcDbCircle
 10
473.616945
 20
265.119512
 30
0.0
 40
0.222261
100
AcDbArc
 50
190.1039999999999
 51
270.0
  0
ARC
  5
1137
330
F18
100
AcDbEntity
  8
1
  6
Continuous
100
AcDbCircle
 10
473.408533
 20
265.297248
 30
0.0
 40
0.044452
100
AcDbArc
 50
90.0
 51
187.793
  0
ARC
  5
1138
330
F18
100
AcDbEntity
  8
1
  6
Continuous
100
AcDbCircle
 10
478.604401
 20
266.009097
 30
0.0
 40
5.288524999999999
100
AcDbArc
 50
153.986
 51
157.056
  0
ARC
  5
1139
330
F18
100
AcDbEntity
  8
1
  6
Continuous
100
AcDbCircle
 10
473.7757359999998
 20
268.052619
 30
0.0
 40
0.044452
100
AcDbArc
 50
157.056
 51
270.0
  0
LINE
  5
113A
330
F18
100
AcDbEntity
  8
1
  6
Continuous
100
AcDbLine
 10
476.0258649999998
 20
267.56452
 30
0.0
 11
473.7170909999998
 21
267.56452
 31
0.0
  0
ARC
  5
113B
330
F18
100
AcDbEntity
  8
1
  6
Continuous
100
AcDbCircle
 10
476.0258649999998
 20
267.341672
 30
0.0
 40
0.222261
100
AcDbArc
 50
15.2575
 51
90.0
  0
ARC
  5
113C
330
F18
100
AcDbEntity
  8
1
  6
Continuous
100
AcDbCircle
 10
471.138555
 20
266.009097
 30
0.0
 40
5.288524999999999
100
AcDbArc
 50
13.2681
 51
15.2575
  0
ARC
  5
113D
330
F18
100
AcDbEntity
  8
1
  6
Continuous
100
AcDbCircle
 10
471.138555
 20
266.009097
 30
0.0
 40
5.288524999999999
100
AcDbArc
 50
12.7289
 51
13.2681
  0
ARC
  5
113E
330
F18
100
AcDbEntity
  8
1
  6
Continuous
100
AcDbCircle
 10
476.2532229999997
 20
267.1639349999999
 30
0.0
 40
0.044452
100
AcDbArc
 50
270.0
 51
12.7289
  0
ARC
  5
113F
330
F18
100
AcDbEntity
  8
1
  6
Continuous
100
AcDbCircle
 10
474.0518139999998
 20
268.2303559999999
 30
0.0
 40
0.222261
100
AcDbArc
 50
90.0
 51
153.986
  0
ARC
  5
1140
330
F18
100
AcDbEntity
  8
1
  6
Continuous
100
AcDbCircle
 10
475.9681229999998
 20
268.052619
 30
0.0
 40
0.044452
100
AcDbArc
 50
270.0
 51
22.94399999999999
  0
ARC
  5
1141
330
F18
100
AcDbEntity
  8
1
  6
Continuous
100
AcDbCircle
 10
471.138555
 20
266.009097
 30
0.0
 40
5.288524999999999
100
AcDbArc
 50
22.94399999999999
 51
26.0144
  0
ARC
  5
1142
330
F18
100
AcDbEntity
  8
1
  6
Continuous
100
AcDbCircle
 10
475.691142
 20
268.2303559999999
 30
0.0
 40
0.222261
100
AcDbArc
 50
26.0144
 51
90.0
  0
ARC
  5
1143
330
F18
100
AcDbEntity
  8
1
  6
Continuous
100
AcDbCircle
 10
474.871929
 20
268.6751489999999
 30
0.0
 40
1.145318999999998
100
AcDbArc
 50
90.0
 51
144.462
  0
ARC
  5
1144
330
F18
100
AcDbEntity
  8
1
  6
Continuous
100
AcDbCircle
 10
474.871929
 20
268.6751489999999
 30
0.0
 40
1.145318999999998
100
AcDbArc
 50
35.5377
 51
76.5374
  0
LINE
  5
1145
330
F18
100
AcDbEntity
  8
1
  6
Continuous
100
AcDbLine
 10
474.871929
 20
266.231043
 30
0.0
 11
474.871929
 21
266.6749339999999
 31
0.0
  0
LINE
  5
1146
330
F18
100
AcDbEntity
  8
1
  6
Continuous
100
AcDbLine
 10
475.4051389999998
 20
267.1197269999999
 30
0.0
 11
476.2532229999997
 21
267.1197269999999
 31
0.0
  0
LINE
  5
1147
330
F18
100
AcDbEntity
  8
1
  6
Continuous
100
AcDbLine
 10
475.9681229999998
 20
268.00841
 30
0.0
 11
473.7757359999998
 21
268.00841
 31
0.0
  0
LINE
  5
1148
330
F18
100
AcDbEntity
  8
1
  6
Continuous
100
AcDbLine
 10
474.0518139999998
 20
268.4532029999999
 30
0.0
 11
475.691142
 21
268.4532029999999
 31
0.0
  0
LINE
  5
1149
330
F18
100
AcDbEntity
  8
1
  6
Continuous
100
AcDbLine
 10
476.090824
 20
268.8970939999999
 30
0.0
 11
474.1745149999998
 21
268.8970939999999
 31
0.0
  0
ARC
  5
114A
330
F18
100
AcDbEntity
  8
1
  6
Continuous
100
AcDbCircle
 10
475.093875
 20
263.786937
 30
0.0
 40
0.222261
100
AcDbArc
 50
90.0
 51
270.0
  0
ARC
  5
114B
330
F18
100
AcDbEntity
  8
1
  6
Continuous
100
AcDbCircle
 10
474.871929
 20
263.342144
 30
0.0
 40
1.145318999999998
100
AcDbArc
 50
215.5379999999999
 51
225.699
  0
ARC
  5
114C
330
F18
100
AcDbEntity
  8
1
  6
Continuous
100
AcDbCircle
 10
474.871929
 20
263.342144
 30
0.0
 40
1.145318999999998
100
AcDbArc
 50
242.2499999999998
 51
324.4619999999998
  0
LINE
  5
114D
330
F18
100
AcDbEntity
  8
1
  6
Continuous
100
AcDbLine
 10
474.871929
 20
262.1972309999998
 30
0.0
 11
474.871929
 21
263.1156879999999
 31
0.0
  0
LINE
  5
114E
330
F18
100
AcDbEntity
  8
1
  6
Continuous
100
AcDbLine
 10
474.0400849999998
 20
263.3385349999999
 30
0.0
 11
475.9130879999998
 21
262.836
 31
0.0
  0
LINE
  5
114F
330
F18
100
AcDbEntity
  8
1
  6
Continuous
100
AcDbLine
 10
475.093875
 20
263.564089
 30
0.0
 11
476.0430069999999
 21
263.564089
 31
0.0
  0
LINE
  5
1150
330
F18
100
AcDbEntity
  8
1
  6
Continuous
100
AcDbLine
 10
474.871929
 20
263.786937
 30
0.0
 11
473.8055089999998
 21
263.786937
 31
0.0
  0
LINE
  5
1151
330
F18
100
AcDbEntity
  8
1
  6
Continuous
100
AcDbLine
 10
476.123304
 20
264.0088819999999
 30
0.0
 11
475.093875
 21
264.0088819999999
 31
0.0
  0
LINE
  5
1152
330
F18
100
AcDbEntity
  8
1
  6
Continuous
100
AcDbLine
 10
475.4051389999998
 20
264.897566
 30
0.0
 11
476.126011
 21
264.897566
 31
0.0
  0
ARC
  5
1153
330
F18
100
AcDbEntity
  8
1
  6
Continuous
100
AcDbCircle
 10
471.138555
 20
266.009097
 30
0.0
 40
5.288524999999999
100
AcDbArc
 50
349.8959999999998
 51
352.2069999999998
  0
ARC
  5
1154
330
F18
100
AcDbEntity
  8
1
  6
Continuous
100
AcDbCircle
 10
476.126011
 20
265.119512
 30
0.0
 40
0.222261
100
AcDbArc
 50
270.0
 51
349.8959999999998
  0
LINE
  5
1155
330
F18
100
AcDbEntity
  8
1
  6
Continuous
100
AcDbLine
 10
474.871929
 20
264.897566
 30
0.0
 11
474.871929
 21
265.119512
 31
0.0
  0
ARC
  5
1156
330
F18
100
AcDbEntity
  8
1
  6
Continuous
100
AcDbCircle
 10
471.138555
 20
266.009097
 30
0.0
 40
5.732929999999998
100
AcDbArc
 50
324.4619999999998
 51
35.5377
  0
ARC
  5
1157
330
F18
100
AcDbEntity
  8
1
  6
Continuous
100
AcDbCircle
 10
476.334423
 20
265.297248
 30
0.0
 40
0.044452
100
AcDbArc
 50
352.2069999999998
 51
90.0
  0
LINE
  5
1158
330
F18
100
AcDbEntity
  8
4
  6
CENTER
100
AcDbLine
 10
479.3152069999998
 20
291.611463
 30
0.0
 11
467.2456859999998
 21
291.611463
 31
0.0
  0
ARC
  5
1159
330
F18
100
AcDbEntity
  8
1
  6
Continuous
100
AcDbCircle
 10
286.83224
 20
294.611463
 30
0.0
 40
200.0
100
AcDbArc
 50
356.766556
 51
357.158877
  0
ARC
  5
115A
330
F18
100
AcDbEntity
  8
1
  6
Continuous
100
AcDbCircle
 10
473.33224
 20
311.611463
 30
0.0
 40
11.0
100
AcDbArc
 50
117.5801989999998
 51
242.419801
  0
ARC
  5
115B
330
F18
100
AcDbEntity
  8
2
  6
Continuous
100
AcDbCircle
 10
473.33224
 20
311.611463
 30
0.0
 40
10.18799999999999
100
AcDbArc
 50
106.8615909999999
 51
253.1384089999999
  0
CIRCLE
  5
115C
330
F18
100
AcDbEntity
  8
1
  6
Continuous
100
AcDbCircle
 10
473.33224
 20
311.611463
 30
0.0
 40
17.5
  0
CIRCLE
  5
115D
330
F18
100
AcDbEntity
  8
1
  6
Continuous
100
AcDbCircle
 10
473.33224
 20
311.611463
 30
0.0
 40
16.0
  0
CIRCLE
  5
115E
330
F18
100
AcDbEntity
  8
1
  6
Continuous
100
AcDbCircle
 10
473.33224
 20
311.611463
 30
0.0
 40
11.5
  0
CIRCLE
  5
115F
330
F18
100
AcDbEntity
  8
1
  6
Continuous
100
AcDbCircle
 10
473.33224
 20
311.611463
 30
0.0
 40
8.0
  0
LINE
  5
1160
330
F18
100
AcDbEntity
  8
1
  6
Continuous
100
AcDbLine
 10
455.83224
 20
321.715093
 30
0.0
 11
473.33224
 21
331.8187229999999
 31
0.0
  0
LINE
  5
1161
330
F18
100
AcDbEntity
  8
1
  6
Continuous
100
AcDbLine
 10
455.83224
 20
321.715093
 30
0.0
 11
455.83224
 21
301.507833
 31
0.0
  0
LINE
  5
1162
330
F18
100
AcDbEntity
  8
1
  6
Continuous
100
AcDbLine
 10
473.33224
 20
317.384463
 30
0.0
 11
478.33224
 21
314.498463
 31
0.0
  0
ARC
  5
1163
330
F18
100
AcDbEntity
  8
1
  6
Continuous
100
AcDbCircle
 10
473.33224
 20
311.611463
 30
0.0
 40
11.0
100
AcDbArc
 50
297.5801989999999
 51
62.419801
  0
LINE
  5
1164
330
F18
100
AcDbEntity
  8
1
  6
Continuous
100
AcDbLine
 10
490.83224
 20
321.715093
 30
0.0
 11
490.83224
 21
301.507833
 31
0.0
  0
ARC
  5
1165
330
F18
100
AcDbEntity
  8
2
  6
Continuous
100
AcDbCircle
 10
473.33224
 20
311.611463
 30
0.0
 40
10.18799999999999
100
AcDbArc
 50
286.8615909999999
 51
73.13840899999998
  0
CIRCLE
  5
1166
330
F18
100
AcDbEntity
  8
1
  6
Continuous
100
AcDbCircle
 10
473.33224
 20
311.611463
 30
0.0
 40
6.099999999999997
  0
CIRCLE
  5
1167
330
F18
100
AcDbEntity
  8
1
  6
Continuous
100
AcDbCircle
 10
473.33224
 20
311.611463
 30
0.0
 40
4.049999999999998
  0
CIRCLE
  5
1168
330
F18
100
AcDbEntity
  8
1
  6
Continuous
100
AcDbCircle
 10
473.33224
 20
311.611463
 30
0.0
 40
5.0
  0
LINE
  5
1169
330
F18
100
AcDbEntity
  8
1
  6
Continuous
100
AcDbLine
 10
473.33224
 20
317.384463
 30
0.0
 11
468.33224
 21
314.498463
 31
0.0
  0
ARC
  5
116A
330
F18
100
AcDbEntity
  8
2
  6
Continuous
100
AcDbCircle
 10
473.33224
 20
311.611463
 30
0.0
 40
11.0
100
AcDbArc
 50
242.419801
 51
297.5801989999999
  0
LINE
  5
116B
330
F18
100
AcDbEntity
  8
1
  6
Continuous
100
AcDbLine
 10
478.4251269999998
 20
301.861463
 30
0.0
 11
468.2393529999997
 21
301.861463
 31
0.0
  0
ARC
  5
116C
330
F18
100
AcDbEntity
  8
1
  6
Continuous
100
AcDbCircle
 10
473.33224
 20
311.611463
 30
0.0
 40
10.25
100
AcDbArc
 50
252.0302459999999
 51
287.969754
  0
LINE
  5
116D
330
F18
100
AcDbEntity
  8
1
  6
Continuous
100
AcDbLine
 10
473.3352039999998
 20
313.0961930000002
 30
0.0
 11
474.685731
 21
314.400381
 31
0.0
  0
LINE
  5
116E
330
F18
100
AcDbEntity
  8
1
  6
Continuous
100
AcDbLine
 10
478.33224
 20
308.724463
 30
0.0
 11
473.33224
 21
305.837463
 31
0.0
  0
LINE
  5
116F
330
F18
100
AcDbEntity
  8
1
  6
Continuous
100
AcDbLine
 10
474.685731
 20
308.8225459999998
 30
0.0
 11
473.3352039999998
 21
310.126734
 31
0.0
  0
LINE
  5
1170
330
F18
100
AcDbEntity
  8
1
  6
Continuous
100
AcDbLine
 10
473.33224
 20
310.1276399999998
 30
0.0
 11
473.329275
 21
310.126734
 31
0.0
  0
LINE
  5
1171
330
F18
100
AcDbEntity
  8
1
  6
Continuous
100
AcDbLine
 10
473.33224
 20
310.1276399999998
 30
0.0
 11
473.3352039999998
 21
310.126734
 31
0.0
  0
LINE
  5
1172
330
F18
100
AcDbEntity
  8
1
  6
Continuous
100
AcDbLine
 10
473.33224
 20
313.0952869999999
 30
0.0
 11
473.3352039999998
 21
313.0961930000002
 31
0.0
  0
LINE
  5
1173
330
F18
100
AcDbEntity
  8
1
  6
Continuous
100
AcDbLine
 10
473.33224
 20
313.0952869999999
 30
0.0
 11
473.329275
 21
313.0961930000002
 31
0.0
  0
LINE
  5
1174
330
F18
100
AcDbEntity
  8
1
  6
Continuous
100
AcDbLine
 10
470.5433219999998
 20
312.9649539999999
 30
0.0
 11
471.8475099999998
 21
311.6144279999998
 31
0.0
  0
LINE
  5
1175
330
F18
100
AcDbEntity
  8
1
  6
Continuous
100
AcDbLine
 10
471.8475099999998
 20
311.608499
 30
0.0
 11
470.5433219999998
 21
310.257972
 31
0.0
  0
LINE
  5
1176
330
F18
100
AcDbEntity
  8
1
  6
Continuous
100
AcDbLine
 10
471.848416
 20
311.611463
 30
0.0
 11
471.8475099999998
 21
311.6144279999998
 31
0.0
  0
LINE
  5
1177
330
F18
100
AcDbEntity
  8
1
  6
Continuous
100
AcDbLine
 10
471.848416
 20
311.611463
 30
0.0
 11
471.8475099999998
 21
311.608499
 31
0.0
  0
ARC
  5
1178
330
F18
100
AcDbEntity
  8
1
  6
Continuous
100
AcDbCircle
 10
473.33224
 20
311.611463
 30
0.0
 40
3.1
100
AcDbArc
 50
115.8877849999998
 51
154.1122149999999
  0
LINE
  5
1179
330
F18
100
AcDbEntity
  8
1
  6
Continuous
100
AcDbLine
 10
468.33224
 20
308.724463
 30
0.0
 11
468.33224
 21
314.498463
 31
0.0
  0
ARC
  5
117A
330
F18
100
AcDbEntity
  8
1
  6
Continuous
100
AcDbCircle
 10
473.33224
 20
311.611463
 30
0.0
 40
3.1
100
AcDbArc
 50
205.887785
 51
244.112215
  0
LINE
  5
117B
330
F18
100
AcDbEntity
  8
1
  6
Continuous
100
AcDbLine
 10
468.33224
 20
308.724463
 30
0.0
 11
473.33224
 21
305.837463
 31
0.0
  0
LINE
  5
117C
330
F18
100
AcDbEntity
  8
1
  6
Continuous
100
AcDbLine
 10
473.329275
 20
310.126734
 30
0.0
 11
471.9787489999998
 21
308.8225459999998
 31
0.0
  0
LINE
  5
117D
330
F18
100
AcDbEntity
  8
1
  6
Continuous
100
AcDbLine
 10
471.9787489999998
 20
314.400381
 30
0.0
 11
473.329275
 21
313.0961930000002
 31
0.0
  0
ARC
  5
117E
330
F18
100
AcDbEntity
  8
1
  6
Continuous
100
AcDbCircle
 10
473.33224
 20
311.611463
 30
0.0
 40
3.1
100
AcDbArc
 50
25.887785
 51
64.112215
  0
LINE
  5
117F
330
F18
100
AcDbEntity
  8
1
  6
Continuous
100
AcDbLine
 10
474.816969
 20
311.6144279999998
 30
0.0
 11
476.1211569999998
 21
312.9649539999999
 31
0.0
  0
LINE
  5
1180
330
F18
100
AcDbEntity
  8
1
  6
Continuous
100
AcDbLine
 10
476.1211569999998
 20
310.257972
 30
0.0
 11
474.816969
 21
311.608499
 31
0.0
  0
LINE
  5
1181
330
F18
100
AcDbEntity
  8
1
  6
Continuous
100
AcDbLine
 10
474.816063
 20
311.611463
 30
0.0
 11
474.816969
 21
311.608499
 31
0.0
  0
LINE
  5
1182
330
F18
100
AcDbEntity
  8
1
  6
Continuous
100
AcDbLine
 10
474.816063
 20
311.611463
 30
0.0
 11
474.816969
 21
311.6144279999998
 31
0.0
  0
ARC
  5
1183
330
F18
100
AcDbEntity
  8
1
  6
Continuous
100
AcDbCircle
 10
473.33224
 20
311.611463
 30
0.0
 40
3.1
100
AcDbArc
 50
295.887785
 51
334.1122149999999
  0
LINE
  5
1184
330
F18
100
AcDbEntity
  8
1
  6
Continuous
100
AcDbLine
 10
478.33224
 20
308.724463
 30
0.0
 11
478.33224
 21
314.498463
 31
0.0
  0
LINE
  5
1185
330
F18
100
AcDbEntity
  8
1
  6
Continuous
100
AcDbLine
 10
473.33224
 20
331.8187229999999
 30
0.0
 11
490.83224
 21
321.715093
 31
0.0
  0
ARC
  5
1186
330
F18
100
AcDbEntity
  8
2
  6
Continuous
100
AcDbCircle
 10
473.33224
 20
311.611463
 30
0.0
 40
11.0
100
AcDbArc
 50
62.419801
 51
117.5801989999998
  0
LINE
  5
1187
330
F18
100
AcDbEntity
  8
1
  6
Continuous
100
AcDbLine
 10
478.4251269999998
 20
321.361463
 30
0.0
 11
468.2393529999997
 21
321.361463
 31
0.0
  0
ARC
  5
1188
330
F18
100
AcDbEntity
  8
1
  6
Continuous
100
AcDbCircle
 10
473.33224
 20
311.611463
 30
0.0
 40
10.25
100
AcDbArc
 50
72.03024599999998
 51
107.9697539999999
  0
LINE
  5
1189
330
F18
100
AcDbEntity
  8
4
  6
CENTER
100
AcDbLine
 10
479.48523
 20
331.611463
 30
0.0
 11
467.2456859999998
 21
331.611463
 31
0.0
  0
ARC
  5
118A
330
F18
100
AcDbEntity
  8
1
  6
Continuous
100
AcDbCircle
 10
473.33224
 20
331.611463
 30
0.0
 40
4.25
100
AcDbArc
 50
332.420521
 51
207.579479
  0
ARC
  5
118B
330
F18
100
AcDbEntity
  8
1
  6
Continuous
100
AcDbCircle
 10
473.33224
 20
331.611463
 30
0.0
 40
4.0
100
AcDbArc
 50
332.571902
 51
207.428098
  0
LINE
  5
118C
330
F18
100
AcDbEntity
  8
1
  6
Continuous
100
AcDbLine
 10
74.567862
 20
194.6987769999998
 30
0.0
 11
69.560675
 21
283.330605
 31
0.0
  0
LINE
  5
118D
330
F18
100
AcDbEntity
  8
1
  6
Continuous
100
AcDbLine
 10
90.916692
 20
194.6987769999998
 30
0.0
 11
95.923879
 21
283.330605
 31
0.0
  0
LINE
  5
118E
330
F18
100
AcDbEntity
  8
4
  6
CENTER
100
AcDbLine
 10
82.742277
 20
346.2114629999998
 30
0.0
 11
82.742277
 21
187.153311
 31
0.0
  0
ARC
  5
118F
330
F18
100
AcDbEntity
  8
1
  6
Continuous
100
AcDbCircle
 10
88.42067199999998
 20
194.839788
 30
0.0
 40
2.5
100
AcDbArc
 50
284.6179859999999
 51
356.766556
  0
ARC
  5
1190
330
F18
100
AcDbEntity
  8
1
  6
Continuous
100
AcDbCircle
 10
82.742277
 20
216.611463
 30
0.0
 40
25.0
100
AcDbArc
 50
255.382014
 51
284.6179859999999
  0
ARC
  5
1191
330
F18
100
AcDbEntity
  8
1
  6
Continuous
100
AcDbCircle
 10
77.06388199999998
 20
194.839788
 30
0.0
 40
2.5
100
AcDbArc
 50
183.233444
 51
255.382014
  0
ARC
  5
1192
330
F18
100
AcDbEntity
  8
1
  6
Continuous
100
AcDbCircle
 10
82.742277
 20
311.611463
 30
0.0
 40
30.0
100
AcDbArc
 50
296.2191329999999
 51
243.7808669999999
  0
LINE
  5
1193
330
F18
100
AcDbEntity
  8
4
  6
CENTER
100
AcDbLine
 10
117.7422769999999
 20
311.611463
 30
0.0
 11
47.74227699999999
 21
311.611463
 31
0.0
  0
LINE
  5
1194
330
F18
100
AcDbEntity
  8
1
  6
Continuous
100
AcDbLine
 10
96.242277
 20
300.4436239999999
 30
0.0
 11
99.481923
 21
287.9010349999999
 31
0.0
  0
ARC
  5
1195
330
F18
100
AcDbEntity
  8
1
  6
Continuous
100
AcDbCircle
 10
-103.7577229999999
 20
294.611463
 30
0.0
 40
200.0
100
AcDbArc
 50
356.766556
 51
0.0
  0
LINE
  5
1196
330
F18
100
AcDbEntity
  8
1
  6
Continuous
100
AcDbLine
 10
69.242277
 20
300.4436239999999
 30
0.0
 11
66.00263100000001
 21
287.9010349999999
 31
0.0
  0
ARC
  5
1197
330
F18
100
AcDbEntity
  8
1
  6
Continuous
100
AcDbCircle
 10
269.2422769999997
 20
294.611463
 30
0.0
 40
200.0
100
AcDbArc
 50
180.0
 51
183.233444
  0
LINE
  5
1198
330
F18
100
AcDbEntity
  8
1
  6
Continuous
100
AcDbLine
 10
99.742277
 20
335.2546439999999
 30
0.0
 11
99.742277
 21
287.9682819999998
 31
0.0
  0
LINE
  5
1199
330
F18
100
AcDbEntity
  8
1
  6
Continuous
100
AcDbLine
 10
65.742277
 20
335.2546439999999
 30
0.0
 11
65.742277
 21
287.9682819999998
 31
0.0
  0
ARC
  5
119A
330
F18
100
AcDbEntity
  8
1
  6
Continuous
100
AcDbCircle
 10
67.742277
 20
287.9682819999998
 30
0.0
 40
2.0
100
AcDbArc
 50
180.0
 51
237.607635
  0
ARC
  5
119B
330
F18
100
AcDbEntity
  8
1
  6
Continuous
100
AcDbCircle
 10
97.742277
 20
287.9682819999998
 30
0.0
 40
2.0
100
AcDbArc
 50
302.3923649999999
 51
0.0
  0
LINE
  5
119C
330
F18
100
AcDbEntity
  8
1
  6
Continuous
100
AcDbLine
 10
71.742277
 20
294.611463
 30
0.0
 11
73.967313
 21
294.611463
 31
0.0
  0
ARC
  5
119D
330
F18
100
AcDbEntity
  8
1
  6
Continuous
100
AcDbCircle
 10
82.742277
 20
302.611463
 30
0.0
 40
26.0
100
AcDbArc
 50
61.36900999999999
 51
118.6309899999999
  0
LINE
  5
119E
330
F18
100
AcDbEntity
  8
1
  6
Continuous
100
AcDbLine
 10
71.242277
 20
325.929911
 30
0.0
 11
71.242277
 21
295.111463
 31
0.0
  0
LINE
  5
119F
330
F18
100
AcDbEntity
  8
1
  6
Continuous
100
AcDbLine
 10
69.242277
 20
294.611463
 30
0.0
 11
69.242277
 21
323.676837
 31
0.0
  0
ARC
  5
11A0
330
F18
100
AcDbEntity
  8
1
  6
Continuous
100
AcDbCircle
 10
71.742277
 20
295.111463
 30
0.0
 40
0.5
100
AcDbArc
 50
180.0
 51
270.0
  0
LINE
  5
11A1
330
F18
100
AcDbEntity
  8
1
  6
Continuous
100
AcDbLine
 10
69.242277
 20
322.779302
 30
0.0
 11
66.00263100000001
 21
335.3218909999998
 31
0.0
  0
ARC
  5
11A2
330
F18
100
AcDbEntity
  8
1
  6
Continuous
100
AcDbCircle
 10
71.242277
 20
323.676837
 30
0.0
 40
2.0
100
AcDbArc
 50
118.6309899999999
 51
180.0
  0
ARC
  5
11A3
330
F18
100
AcDbEntity
  8
1
  6
Continuous
100
AcDbCircle
 10
67.742277
 20
335.2546439999999
 30
0.0
 40
2.0
100
AcDbArc
 50
122.3923649999999
 51
180.0
  0
LINE
  5
11A4
330
F18
100
AcDbEntity
  8
1
  6
Continuous
100
AcDbLine
 10
94.24227700000001
 20
325.929911
 30
0.0
 11
94.24227700000001
 21
295.111463
 31
0.0
  0
LINE
  5
11A5
330
F18
100
AcDbEntity
  8
1
  6
Continuous
100
AcDbLine
 10
96.242277
 20
294.611463
 30
0.0
 11
96.242277
 21
323.676837
 31
0.0
  0
LINE
  5
11A6
330
F18
100
AcDbEntity
  8
1
  6
Continuous
100
AcDbLine
 10
82.742277
 20
309.611463
 30
0.0
 11
89.67048
 21
297.611463
 31
0.0
  0
ARC
  5
11A7
330
F18
100
AcDbEntity
  8
1
  6
Continuous
100
AcDbCircle
 10
82.742277
 20
293.611463
 30
0.0
 40
8.0
100
AcDbArc
 50
12.83958799999999
 51
167.160412
  0
LINE
  5
11A8
330
F18
100
AcDbEntity
  8
1
  6
Continuous
100
AcDbLine
 10
75.814074
 20
297.611463
 30
0.0
 11
82.742277
 21
309.611463
 31
0.0
  0
LINE
  5
11A9
330
F18
100
AcDbEntity
  8
1
  6
Continuous
100
AcDbLine
 10
87.361079
 20
301.611463
 30
0.0
 11
78.123475
 21
301.611463
 31
0.0
  0
LINE
  5
11AA
330
F18
100
AcDbEntity
  8
1
  6
Continuous
100
AcDbLine
 10
86.206379
 20
303.611463
 30
0.0
 11
79.278175
 21
303.611463
 31
0.0
  0
LINE
  5
11AB
330
F18
100
AcDbEntity
  8
1
  6
Continuous
100
AcDbLine
 10
85.917703
 20
304.111463
 30
0.0
 11
79.566851
 21
304.111463
 31
0.0
  0
LINE
  5
11AC
330
F18
100
AcDbEntity
  8
1
  6
Continuous
100
AcDbLine
 10
86.49505399999998
 20
303.111463
 30
0.0
 11
78.98950000000002
 21
303.111463
 31
0.0
  0
LINE
  5
11AD
330
F18
100
AcDbEntity
  8
1
  6
Continuous
100
AcDbLine
 10
86.78372899999997
 20
302.611463
 30
0.0
 11
78.70082499999998
 21
302.611463
 31
0.0
  0
LINE
  5
11AE
330
F18
100
AcDbEntity
  8
1
  6
Continuous
100
AcDbLine
 10
87.07240400000001
 20
302.111463
 30
0.0
 11
78.41214999999998
 21
302.111463
 31
0.0
  0
LINE
  5
11AF
330
F18
100
AcDbEntity
  8
1
  6
Continuous
100
AcDbLine
 10
77.25745
 20
300.111463
 30
0.0
 11
78.078587
 21
300.111463
 31
0.0
  0
LINE
  5
11B0
330
F18
100
AcDbEntity
  8
1
  6
Continuous
100
AcDbLine
 10
76.96877499999998
 20
299.611463
 30
0.0
 11
77.45077399999998
 21
299.611463
 31
0.0
  0
LINE
  5
11B1
330
F18
100
AcDbEntity
  8
1
  6
Continuous
100
AcDbLine
 10
76.680099
 20
299.111463
 30
0.0
 11
76.93280199999998
 21
299.111463
 31
0.0
  0
LINE
  5
11B2
330
F18
100
AcDbEntity
  8
1
  6
Continuous
100
AcDbLine
 10
76.391424
 20
298.611463
 30
0.0
 11
76.49727900000002
 21
298.611463
 31
0.0
  0
LINE
  5
11B3
330
F18
100
AcDbEntity
  8
1
  6
Continuous
100
AcDbLine
 10
76.102749
 20
298.111463
 30
0.0
 11
76.127899
 21
298.111463
 31
0.0
  0
LINE
  5
11B4
330
F18
100
AcDbEntity
  8
1
  6
Continuous
100
AcDbLine
 10
78.86929399999998
 20
300.611463
 30
0.0
 11
77.546125
 21
300.611463
 31
0.0
  0
LINE
  5
11B5
330
F18
100
AcDbEntity
  8
1
  6
Continuous
100
AcDbLine
 10
79.95839499999998
 20
301.111463
 30
0.0
 11
77.8348
 21
301.111463
 31
0.0
  0
ARC
  5
11B6
330
F18
100
AcDbEntity
  8
1
  6
Continuous
100
AcDbCircle
 10
73.967313
 20
295.611463
 30
0.0
 40
1.0
100
AcDbArc
 50
270.0
 51
347.160412
  0
ARC
  5
11B7
330
F18
100
AcDbEntity
  8
1
  6
Continuous
100
AcDbCircle
 10
73.967313
 20
295.611463
 30
0.0
 40
1.0
100
AcDbArc
 50
270.0
 51
347.160412
  0
LINE
  5
11B8
330
F18
100
AcDbEntity
  8
1
  6
Continuous
100
AcDbLine
 10
89.09313
 20
298.611463
 30
0.0
 11
88.98727499999997
 21
298.611463
 31
0.0
  0
LINE
  5
11B9
330
F18
100
AcDbEntity
  8
1
  6
Continuous
100
AcDbLine
 10
88.804455
 20
299.111463
 30
0.0
 11
88.55175199999996
 21
299.111463
 31
0.0
  0
LINE
  5
11BA
330
F18
100
AcDbEntity
  8
1
  6
Continuous
100
AcDbLine
 10
88.51578000000001
 20
299.611463
 30
0.0
 11
88.03377999999998
 21
299.611463
 31
0.0
  0
LINE
  5
11BB
330
F18
100
AcDbEntity
  8
1
  6
Continuous
100
AcDbLine
 10
88.22710399999998
 20
300.111463
 30
0.0
 11
87.40596700000002
 21
300.111463
 31
0.0
  0
LINE
  5
11BC
330
F18
100
AcDbEntity
  8
1
  6
Continuous
100
AcDbLine
 10
87.93842899999999
 20
300.611463
 30
0.0
 11
86.61526
 21
300.611463
 31
0.0
  0
LINE
  5
11BD
330
F18
100
AcDbEntity
  8
1
  6
Continuous
100
AcDbLine
 10
87.649754
 20
301.111463
 30
0.0
 11
85.52615899999997
 21
301.111463
 31
0.0
  0
LINE
  5
11BE
330
F18
100
AcDbEntity
  8
1
  6
Continuous
100
AcDbLine
 10
85.62902800000001
 20
304.611463
 30
0.0
 11
79.855526
 21
304.611463
 31
0.0
  0
LINE
  5
11BF
330
F18
100
AcDbEntity
  8
1
  6
Continuous
100
AcDbLine
 10
85.34035299999997
 20
305.111463
 30
0.0
 11
80.14420099999998
 21
305.111463
 31
0.0
  0
LINE
  5
11C0
330
F18
100
AcDbEntity
  8
1
  6
Continuous
100
AcDbLine
 10
85.05167799999998
 20
305.611463
 30
0.0
 11
80.43287599999997
 21
305.611463
 31
0.0
  0
LINE
  5
11C1
330
F18
100
AcDbEntity
  8
1
  6
Continuous
100
AcDbLine
 10
84.763003
 20
306.111463
 30
0.0
 11
80.72155100000001
 21
306.111463
 31
0.0
  0
LINE
  5
11C2
330
F18
100
AcDbEntity
  8
1
  6
Continuous
100
AcDbLine
 10
84.47432799999999
 20
306.611463
 30
0.0
 11
81.010226
 21
306.611463
 31
0.0
  0
LINE
  5
11C3
330
F18
100
AcDbEntity
  8
1
  6
Continuous
100
AcDbLine
 10
83.896978
 20
307.611463
 30
0.0
 11
81.58757599999999
 21
307.611463
 31
0.0
  0
LINE
  5
11C4
330
F18
100
AcDbEntity
  8
1
  6
Continuous
100
AcDbLine
 10
84.185653
 20
307.111463
 30
0.0
 11
81.298901
 21
307.111463
 31
0.0
  0
LINE
  5
11C5
330
F18
100
AcDbEntity
  8
1
  6
Continuous
100
AcDbLine
 10
83.60830199999998
 20
308.111463
 30
0.0
 11
81.87625199999997
 21
308.111463
 31
0.0
  0
LINE
  5
11C6
330
F18
100
AcDbEntity
  8
1
  6
Continuous
100
AcDbLine
 10
83.31962699999998
 20
308.611463
 30
0.0
 11
82.16492700000001
 21
308.611463
 31
0.0
  0
LINE
  5
11C7
330
F18
100
AcDbEntity
  8
1
  6
Continuous
100
AcDbLine
 10
83.03095199999999
 20
309.111463
 30
0.0
 11
82.453602
 21
309.111463
 31
0.0
  0
ARC
  5
11C8
330
F18
100
AcDbEntity
  8
1
  6
Continuous
100
AcDbCircle
 10
93.742277
 20
295.111463
 30
0.0
 40
0.5
100
AcDbArc
 50
270.0
 51
0.0
  0
LINE
  5
11C9
330
F18
100
AcDbEntity
  8
1
  6
Continuous
100
AcDbLine
 10
89.38180499999999
 20
298.111463
 30
0.0
 11
89.356655
 21
298.111463
 31
0.0
  0
LINE
  5
11CA
330
F18
100
AcDbEntity
  8
1
  6
Continuous
100
AcDbLine
 10
91.517241
 20
294.611463
 30
0.0
 11
93.742277
 21
294.611463
 31
0.0
  0
ARC
  5
11CB
330
F18
100
AcDbEntity
  8
1
  6
Continuous
100
AcDbCircle
 10
91.517241
 20
295.611463
 30
0.0
 40
1.0
100
AcDbArc
 50
192.839588
 51
270.0
  0
ARC
  5
11CC
330
F18
100
AcDbEntity
  8
1
  6
Continuous
100
AcDbCircle
 10
91.517241
 20
295.611463
 30
0.0
 40
1.0
100
AcDbArc
 50
192.839588
 51
270.0
  0
LINE
  5
11CD
330
F18
100
AcDbEntity
  8
1
  6
Continuous
100
AcDbLine
 10
96.242277
 20
322.779302
 30
0.0
 11
99.481923
 21
335.3218909999998
 31
0.0
  0
ARC
  5
11CE
330
F18
100
AcDbEntity
  8
1
  6
Continuous
100
AcDbCircle
 10
94.24227700000001
 20
323.676837
 30
0.0
 40
2.0
100
AcDbArc
 50
0.0
 51
61.36900999999999
  0
ARC
  5
11CF
330
F18
100
AcDbEntity
  8
1
  6
Continuous
100
AcDbCircle
 10
97.742277
 20
335.2546439999999
 30
0.0
 40
2.0
100
AcDbArc
 50
0.0
 51
57.60763499999999
  0
LINE
  5
11D0
330
F18
100
AcDbEntity
  8
1
  6
Continuous
100
AcDbLine
 10
601.181602
 20
295.611463
 30
0.0
 11
601.181602
 21
327.611463
 31
0.0
  0
LINE
  5
11D1
330
F18
100
AcDbEntity
  8
1
  6
Continuous
100
AcDbLine
 10
602.681602
 20
294.111463
 30
0.0
 11
602.681602
 21
329.111463
 31
0.0
  0
LINE
  5
11D2
330
F18
100
AcDbEntity
  8
1
  6
Continuous
100
AcDbLine
 10
609.681602
 20
294.111463
 30
0.0
 11
609.681602
 21
329.111463
 31
0.0
  0
LINE
  5
11D3
330
F18
100
AcDbEntity
  8
1
  6
Continuous
100
AcDbLine
 10
611.4816019999998
 20
294.111463
 30
0.0
 11
611.4816019999998
 21
329.111463
 31
0.0
  0
ARC
  5
11D4
330
F18
100
AcDbEntity
  8
1
  6
Continuous
100
AcDbCircle
 10
563.841408
 20
311.611463
 30
0.0
 40
45.84019399999998
100
AcDbArc
 50
347.266894
 51
12.733106
  0
ARC
  5
11D5
330
F18
100
AcDbEntity
  8
1
  6
Continuous
100
AcDbCircle
 10
648.5217969999998
 20
311.611463
 30
0.0
 40
45.84019399999998
100
AcDbArc
 50
167.266894
 51
192.733106
  0
LINE
  5
11D6
330
F18
100
AcDbEntity
  8
1
  6
Continuous
100
AcDbLine
 10
611.181602
 20
327.611463
 30
0.0
 11
611.181602
 21
295.611463
 31
0.0
  0
LINE
  5
11D7
330
F18
100
AcDbEntity
  8
1
  6
Continuous
100
AcDbLine
 10
612.8816019999998
 20
329.111463
 30
0.0
 11
612.8816019999998
 21
294.111463
 31
0.0
  0
LINE
  5
11D8
330
F18
100
AcDbEntity
  8
1
  6
Continuous
100
AcDbLine
 10
611.4816019999998
 20
311.901413
 30
0.0
 11
611.181602
 21
311.6014129999999
 31
0.0
  0
LINE
  5
11D9
330
F18
100
AcDbEntity
  8
1
  6
Continuous
100
AcDbLine
 10
613.181602
 20
311.6214929999998
 30
0.0
 11
612.8816019999998
 21
311.3214929999998
 31
0.0
  0
LINE
  5
11DA
330
F18
100
AcDbEntity
  8
1
  6
Continuous
100
AcDbLine
 10
650.7385359999998
 20
302.111441
 30
0.0
 11
650.7385359999998
 21
321.111441
 31
0.0
  0
LINE
  5
11DB
330
F18
100
AcDbEntity
  8
1
  6
Continuous
100
AcDbLine
 10
649.138536
 20
319.611421
 30
0.0
 11
649.138536
 21
303.611421
 31
0.0
  0
LINE
  5
11DC
330
F18
100
AcDbEntity
  8
1
  6
Continuous
100
AcDbLine
 10
647.638536
 20
305.5114209999999
 30
0.0
 11
647.638536
 21
317.7114209999999
 31
0.0
  0
LINE
  5
11DD
330
F18
100
AcDbEntity
  8
1
  6
Continuous
100
AcDbLine
 10
647.638536
 20
305.837918
 30
0.0
 11
647.638536
 21
317.384924
 31
0.0
  0
LINE
  5
11DE
330
F18
100
AcDbEntity
  8
1
  6
Continuous
100
AcDbLine
 10
643.638536
 20
316.6079639999999
 30
0.0
 11
643.638536
 21
306.606964
 31
0.0
  0
LINE
  5
11DF
330
F18
100
AcDbEntity
  8
1
  6
Continuous
100
AcDbLine
 10
649.138536
 20
311.6115049999998
 30
0.0
 11
647.638536
 21
310.1115049999999
 31
0.0
  0
ARC
  5
11E0
330
F18
100
AcDbEntity
  8
1
  6
Continuous
100
AcDbCircle
 10
638.0775869999999
 20
311.6079639999999
 30
0.0
 40
9.560949
100
AcDbArc
 50
342.4247879999999
 51
17.575212
  0
ARC
  5
11E1
330
F18
100
AcDbEntity
  8
1
  6
Continuous
100
AcDbCircle
 10
653.199485
 20
311.6079639999999
 30
0.0
 40
9.560949
100
AcDbArc
 50
162.4247879999998
 51
197.5752119999999
  0
LINE
  5
11E2
330
F18
100
AcDbEntity
  8
1
  6
Continuous
100
AcDbLine
 10
661.738536
 20
321.611441
 30
0.0
 11
661.738536
 21
301.611441
 31
0.0
  0
LINE
  5
11E3
330
F18
100
AcDbEntity
  8
1
  6
Continuous
100
AcDbLine
 10
698.688536
 20
297.611463
 30
0.0
 11
698.688536
 21
325.611463
 31
0.0
  0
LINE
  5
11E4
330
F18
100
AcDbEntity
  8
1
  6
Continuous
100
AcDbLine
 10
698.638536
 20
297.749955
 30
0.0
 11
698.638536
 21
325.4833269999999
 31
0.0
  0
LINE
  5
11E5
330
F18
100
AcDbEntity
  8
1
  6
Continuous
100
AcDbLine
 10
689.0885360000003
 20
335.3218909999998
 30
0.0
 11
689.0885360000003
 21
287.9010349999999
 31
0.0
  0
LINE
  5
11E6
330
F18
100
AcDbEntity
  8
1
  6
Continuous
100
AcDbLine
 10
731.585506
 20
325.929911
 30
0.0
 11
731.585506
 21
294.611463
 31
0.0
  0
LINE
  5
11E7
330
F18
100
AcDbEntity
  8
1
  6
Continuous
100
AcDbLine
 10
731.076141
 20
325.929911
 30
0.0
 11
731.076141
 21
294.611463
 31
0.0
  0
LINE
  5
11E8
330
F18
100
AcDbEntity
  8
1
  6
Continuous
100
AcDbLine
 10
732.688536
 20
327.611463
 30
0.0
 11
732.688536
 21
309.611463
 31
0.0
  0
LINE
  5
11E9
330
F18
100
AcDbEntity
  8
1
  6
Continuous
100
AcDbLine
 10
683.0885360000002
 20
341.611463
 30
0.0
 11
683.0885360000002
 21
281.611463
 31
0.0
  0
LINE
  5
11EA
330
F18
100
AcDbEntity
  8
1
  6
Continuous
100
AcDbLine
 10
685.0885360000002
 20
341.611463
 30
0.0
 11
685.0885360000002
 21
281.611463
 31
0.0
  0
LINE
  5
11EB
330
F18
100
AcDbEntity
  8
1
  6
Continuous
100
AcDbLine
 10
683.0885360000002
 20
301.861463
 30
0.0
 11
662.038536
 21
301.861463
 31
0.0
  0
LINE
  5
11EC
330
F18
100
AcDbEntity
  8
4
  6
CENTER
100
AcDbLine
 10
736.1358299999997
 20
311.611463
 30
0.0
 11
639.088736
 21
311.611463
 31
0.0
  0
LINE
  5
11ED
330
F18
100
AcDbEntity
  8
1
  6
Continuous
100
AcDbLine
 10
731.4765149999997
 20
277.75022
 30
0.0
 11
724.3434849999996
 21
193.442851
 31
0.0
  0
LINE
  5
11EE
330
F18
100
AcDbEntity
  8
1
  6
Continuous
100
AcDbLine
 10
717.188536
 20
294.468049
 30
0.0
 11
717.188536
 21
213.682531
 31
0.0
  0
ARC
  5
11EF
330
F18
100
AcDbEntity
  8
1
  6
Continuous
100
AcDbCircle
 10
719.188536
 20
202.2977549999999
 30
0.0
 40
8.0
100
AcDbArc
 50
135.0
 51
180.0
  0
LINE
  5
11F0
330
F18
100
AcDbEntity
  8
1
  6
Continuous
100
AcDbLine
 10
722.3506049999997
 20
191.6114629999999
 30
0.0
 11
719.188536
 21
191.6114629999999
 31
0.0
  0
ARC
  5
11F1
330
F18
100
AcDbEntity
  8
1
  6
Continuous
100
AcDbCircle
 10
722.3506049999997
 20
193.6114629999999
 30
0.0
 40
2.0
100
AcDbArc
 50
270.0
 51
355.1638689999998
  0
ARC
  5
11F2
330
F18
100
AcDbEntity
  8
1
  6
Continuous
100
AcDbCircle
 10
719.188536
 20
199.6114629999999
 30
0.0
 40
8.0
100
AcDbArc
 50
180.0
 51
270.0
  0
LINE
  5
11F3
330
F18
100
AcDbEntity
  8
1
  6
Continuous
100
AcDbLine
 10
711.188536
 20
202.2977549999999
 30
0.0
 11
711.188536
 21
199.6114629999999
 31
0.0
  0
ARC
  5
11F4
330
F18
100
AcDbEntity
  8
1
  6
Continuous
100
AcDbCircle
 10
712.188536
 20
213.682531
 30
0.0
 40
5.0
100
AcDbArc
 50
315.0
 51
0.0
  0
LINE
  5
11F5
330
F18
100
AcDbEntity
  8
1
  6
Continuous
100
AcDbLine
 10
713.5316820000001
 20
207.954609
 30
0.0
 11
715.72407
 21
210.146997
 31
0.0
  0
LINE
  5
11F6
330
F18
100
AcDbEntity
  8
1
  6
Continuous
100
AcDbLine
 10
698.688536
 20
297.611463
 30
0.0
 11
715.5302840000001
 21
296.103247
 31
0.0
  0
LINE
  5
11F7
330
F18
100
AcDbEntity
  8
1
  6
Continuous
100
AcDbLine
 10
698.688536
 20
301.611463
 30
0.0
 11
711.7237079999996
 21
300.4441339999999
 31
0.0
  0
ARC
  5
11F8
330
F18
100
AcDbEntity
  8
1
  6
Continuous
100
AcDbCircle
 10
532.188536
 20
294.611463
 30
0.0
 40
200.0
100
AcDbArc
 50
355.1638689999998
 51
0.0
  0
LINE
  5
11F9
330
F18
100
AcDbEntity
  8
1
  6
Continuous
100
AcDbLine
 10
733.188536
 20
301.111463
 30
0.0
 11
732.688536
 21
300.611463
 31
0.0
  0
LINE
  5
11FA
330
F18
100
AcDbEntity
  8
1
  6
Continuous
100
AcDbLine
 10
732.688536
 20
300.611463
 30
0.0
 11
733.188536
 21
300.111463
 31
0.0
  0
LINE
  5
11FB
330
F18
100
AcDbEntity
  8
1
  6
Continuous
100
AcDbLine
 10
733.188536
 20
300.111463
 30
0.0
 11
732.688536
 21
299.611463
 31
0.0
  0
LINE
  5
11FC
330
F18
100
AcDbEntity
  8
1
  6
Continuous
100
AcDbLine
 10
732.688536
 20
299.611463
 30
0.0
 11
733.188536
 21
299.111463
 31
0.0
  0
LINE
  5
11FD
330
F18
100
AcDbEntity
  8
1
  6
Continuous
100
AcDbLine
 10
733.188536
 20
299.111463
 30
0.0
 11
732.688536
 21
298.611463
 31
0.0
  0
LINE
  5
11FE
330
F18
100
AcDbEntity
  8
1
  6
Continuous
100
AcDbLine
 10
732.688536
 20
298.611463
 30
0.0
 11
733.188536
 21
298.111463
 31
0.0
  0
LINE
  5
11FF
330
F18
100
AcDbEntity
  8
1
  6
Continuous
100
AcDbLine
 10
733.188536
 20
298.111463
 30
0.0
 11
732.688536
 21
297.611463
 31
0.0
  0
LINE
  5
1200
330
F18
100
AcDbEntity
  8
1
  6
Continuous
100
AcDbLine
 10
732.688536
 20
294.611463
 30
0.0
 11
731.076141
 21
294.611463
 31
0.0
  0
LINE
  5
1201
330
F18
100
AcDbEntity
  8
1
  6
Continuous
100
AcDbLine
 10
732.688536
 20
297.611463
 30
0.0
 11
732.688536
 21
294.611463
 31
0.0
  0
LINE
  5
1202
330
F18
100
AcDbEntity
  8
1
  6
Continuous
100
AcDbLine
 10
732.688536
 20
309.611463
 30
0.0
 11
733.188536
 21
309.111463
 31
0.0
  0
LINE
  5
1203
330
F18
100
AcDbEntity
  8
1
  6
Continuous
100
AcDbLine
 10
733.188536
 20
309.111463
 30
0.0
 11
732.688536
 21
308.611463
 31
0.0
  0
LINE
  5
1204
330
F18
100
AcDbEntity
  8
1
  6
Continuous
100
AcDbLine
 10
732.688536
 20
308.611463
 30
0.0
 11
733.188536
 21
308.111463
 31
0.0
  0
LINE
  5
1205
330
F18
100
AcDbEntity
  8
1
  6
Continuous
100
AcDbLine
 10
733.188536
 20
308.111463
 30
0.0
 11
732.688536
 21
307.611463
 31
0.0
  0
LINE
  5
1206
330
F18
100
AcDbEntity
  8
1
  6
Continuous
100
AcDbLine
 10
732.688536
 20
307.611463
 30
0.0
 11
733.188536
 21
307.111463
 31
0.0
  0
LINE
  5
1207
330
F18
100
AcDbEntity
  8
1
  6
Continuous
100
AcDbLine
 10
733.188536
 20
307.111463
 30
0.0
 11
732.688536
 21
306.611463
 31
0.0
  0
LINE
  5
1208
330
F18
100
AcDbEntity
  8
1
  6
Continuous
100
AcDbLine
 10
732.688536
 20
306.611463
 30
0.0
 11
733.188536
 21
306.111463
 31
0.0
  0
LINE
  5
1209
330
F18
100
AcDbEntity
  8
1
  6
Continuous
100
AcDbLine
 10
733.188536
 20
306.111463
 30
0.0
 11
732.688536
 21
305.611463
 31
0.0
  0
LINE
  5
120A
330
F18
100
AcDbEntity
  8
1
  6
Continuous
100
AcDbLine
 10
732.688536
 20
305.611463
 30
0.0
 11
733.188536
 21
305.111463
 31
0.0
  0
LINE
  5
120B
330
F18
100
AcDbEntity
  8
1
  6
Continuous
100
AcDbLine
 10
733.188536
 20
305.111463
 30
0.0
 11
732.688536
 21
304.611463
 31
0.0
  0
LINE
  5
120C
330
F18
100
AcDbEntity
  8
1
  6
Continuous
100
AcDbLine
 10
733.188536
 20
304.111463
 30
0.0
 11
732.688536
 21
303.611463
 31
0.0
  0
LINE
  5
120D
330
F18
100
AcDbEntity
  8
1
  6
Continuous
100
AcDbLine
 10
732.688536
 20
303.611463
 30
0.0
 11
733.188536
 21
303.111463
 31
0.0
  0
LINE
  5
120E
330
F18
100
AcDbEntity
  8
1
  6
Continuous
100
AcDbLine
 10
733.188536
 20
303.111463
 30
0.0
 11
732.688536
 21
302.611463
 31
0.0
  0
LINE
  5
120F
330
F18
100
AcDbEntity
  8
1
  6
Continuous
100
AcDbLine
 10
732.688536
 20
302.611463
 30
0.0
 11
733.188536
 21
302.111463
 31
0.0
  0
LINE
  5
1210
330
F18
100
AcDbEntity
  8
1
  6
Continuous
100
AcDbLine
 10
733.188536
 20
302.111463
 30
0.0
 11
732.688536
 21
301.611463
 31
0.0
  0
LINE
  5
1211
330
F18
100
AcDbEntity
  8
1
  6
Continuous
100
AcDbLine
 10
732.688536
 20
301.611463
 30
0.0
 11
733.188536
 21
301.111463
 31
0.0
  0
LINE
  5
1212
330
F18
100
AcDbEntity
  8
1
  6
Continuous
100
AcDbLine
 10
732.688536
 20
304.611463
 30
0.0
 11
733.188536
 21
304.111463
 31
0.0
  0
ARC
  5
1213
330
F18
100
AcDbEntity
  8
1
  6
Continuous
100
AcDbCircle
 10
711.188536
 20
294.468049
 30
0.0
 40
6.0
100
AcDbArc
 50
0.0
 51
84.88268499999998
  0
ARC
  5
1214
330
F18
100
AcDbEntity
  8
1
  6
Continuous
100
AcDbCircle
 10
714.192354
 20
281.1630349999999
 30
0.0
 40
15.0
100
AcDbArc
 50
79.148036
 51
84.88268499999998
  0
LINE
  5
1215
330
F18
100
AcDbEntity
  8
1
  6
Continuous
100
AcDbLine
 10
698.5775369999997
 20
297.510626
 30
0.0
 11
689.660515
 21
282.654147
 31
0.0
  0
LINE
  5
1216
330
F18
100
AcDbEntity
  8
1
  6
Continuous
100
AcDbLine
 10
689.658001
 20
287.9010349999999
 30
0.0
 11
698.6269079999997
 21
301.319321
 31
0.0
  0
LINE
  5
1217
330
F18
100
AcDbEntity
  8
1
  6
Continuous
100
AcDbLine
 10
678.4885359999996
 20
294.111463
 30
0.0
 11
678.4885359999996
 21
287.611463
 31
0.0
  0
LINE
  5
1218
330
F18
100
AcDbEntity
  8
1
  6
Continuous
100
AcDbLine
 10
683.0885360000002
 20
287.611463
 30
0.0
 11
678.4885359999996
 21
287.611463
 31
0.0
  0
LINE
  5
1219
330
F18
100
AcDbEntity
  8
1
  6
Continuous
100
AcDbLine
 10
689.0885360000003
 20
282.6495489999999
 30
0.0
 11
689.0885360000003
 21
287.0490649999999
 31
0.0
  0
LINE
  5
121A
330
F18
100
AcDbEntity
  8
1
  6
Continuous
100
AcDbLine
 10
687.9045119999998
 20
281.611463
 30
0.0
 11
683.0885360000002
 21
281.611463
 31
0.0
  0
ARC
  5
121B
330
F18
100
AcDbEntity
  8
1
  6
Continuous
100
AcDbCircle
 10
687.9045119999998
 20
283.611463
 30
0.0
 40
2.0
100
AcDbArc
 50
270.0
 51
331.402214
  0
ARC
  5
121C
330
F18
100
AcDbEntity
  8
1
  6
Continuous
100
AcDbCircle
 10
698.138536
 20
297.749955
 30
0.0
 40
0.5
100
AcDbArc
 50
329.036243
 51
0.0
  0
LINE
  5
121D
330
F18
100
AcDbEntity
  8
1
  6
Continuous
100
AcDbLine
 10
698.688536
 20
301.611463
 30
0.0
 11
698.638536
 21
301.611463
 31
0.0
  0
LINE
  5
121E
330
F18
100
AcDbEntity
  8
1
  6
Continuous
100
AcDbLine
 10
683.0885360000002
 20
294.111463
 30
0.0
 11
678.4885359999996
 21
294.111463
 31
0.0
  0
LINE
  5
121F
330
F18
100
AcDbEntity
  8
1
  6
Continuous
100
AcDbLine
 10
612.8816019999998
 20
294.111463
 30
0.0
 11
611.4816019999998
 21
294.111463
 31
0.0
  0
LINE
  5
1220
330
F18
100
AcDbEntity
  8
4
  6
CENTER
100
AcDbLine
 10
617.7816019999998
 20
311.611463
 30
0.0
 11
596.1816019999997
 21
311.611463
 31
0.0
  0
LINE
  5
1221
330
F18
100
AcDbEntity
  8
1
  6
Continuous
100
AcDbLine
 10
651.2385359999998
 20
301.611441
 30
0.0
 11
661.738536
 21
301.611441
 31
0.0
  0
LINE
  5
1222
330
F18
100
AcDbEntity
  8
1
  6
Continuous
100
AcDbLine
 10
662.038536
 20
301.861463
 30
0.0
 11
661.738536
 21
302.1614629999999
 31
0.0
  0
ARC
  5
1223
330
F18
100
AcDbEntity
  8
1
  6
Continuous
100
AcDbCircle
 10
651.2385359999998
 20
302.111441
 30
0.0
 40
0.5
100
AcDbArc
 50
180.0
 51
270.0
  0
LINE
  5
1224
330
F18
100
AcDbEntity
  8
1
  6
Continuous
100
AcDbLine
 10
650.7385359999998
 20
303.611421
 30
0.0
 11
649.138536
 21
303.611421
 31
0.0
  0
LINE
  5
1225
330
F18
100
AcDbEntity
  8
1
  6
Continuous
100
AcDbLine
 10
649.138536
 20
313.1154619999999
 30
0.0
 11
647.638536
 21
311.6154619999999
 31
0.0
  0
LINE
  5
1226
330
F18
100
AcDbEntity
  8
1
  6
Continuous
100
AcDbLine
 10
647.638536
 20
305.5114209999999
 30
0.0
 11
649.138536
 21
305.5114209999999
 31
0.0
  0
LINE
  5
1227
330
F18
100
AcDbEntity
  8
1
  6
Continuous
100
AcDbLine
 10
647.1922440000001
 20
308.7209639999999
 30
0.0
 11
644.0848279999999
 21
308.7209639999999
 31
0.0
  0
LINE
  5
1228
330
F18
100
AcDbEntity
  8
1
  6
Continuous
100
AcDbLine
 10
647.1922440000001
 20
305.8339639999999
 30
0.0
 11
644.0848279999999
 21
305.8339639999999
 31
0.0
  0
ARC
  5
1229
330
F18
100
AcDbEntity
  8
1
  6
Continuous
100
AcDbCircle
 10
645.082536
 20
307.277964
 30
0.0
 40
2.55582
100
AcDbArc
 50
325.6159999999998
 51
325.647143
  0
ARC
  5
122A
330
F18
100
AcDbEntity
  8
1
  6
Continuous
100
AcDbCircle
 10
645.0825559999998
 20
307.276964
 30
0.0
 40
2.555979999999999
100
AcDbArc
 50
334.371637
 51
34.371637
  0
LINE
  5
122B
330
F18
100
AcDbEntity
  8
1
  6
Continuous
100
AcDbLine
 10
647.638536
 20
306.606964
 30
0.0
 11
647.1922440000001
 21
305.8339639999999
 31
0.0
  0
ARC
  5
122C
330
F18
100
AcDbEntity
  8
1
  6
Continuous
100
AcDbCircle
 10
646.1945360000002
 20
307.277964
 30
0.0
 40
2.55582
100
AcDbArc
 50
214.3528569999999
 51
214.3839999999999
  0
ARC
  5
122D
330
F18
100
AcDbEntity
  8
1
  6
Continuous
100
AcDbCircle
 10
646.1945159999998
 20
307.276964
 30
0.0
 40
2.555979999999999
100
AcDbArc
 50
145.6283629999998
 51
205.6283629999998
  0
LINE
  5
122E
330
F18
100
AcDbEntity
  8
1
  6
Continuous
100
AcDbLine
 10
643.638536
 20
306.606964
 30
0.0
 11
644.0848279999999
 21
305.8339639999999
 31
0.0
  0
LINE
  5
122F
330
F18
100
AcDbEntity
  8
1
  6
Continuous
100
AcDbLine
 10
613.181602
 20
300.6743129999999
 30
0.0
 11
612.8816019999998
 21
299.516163
 31
0.0
  0
LINE
  5
1230
330
F18
100
AcDbEntity
  8
1
  6
Continuous
100
AcDbLine
 10
612.8816019999998
 20
300.6743129999999
 30
0.0
 11
613.181602
 21
300.6743129999999
 31
0.0
  0
LINE
  5
1231
330
F18
100
AcDbEntity
  8
1
  6
Continuous
100
AcDbLine
 10
613.181602
 20
304.851953
 30
0.0
 11
612.8816019999998
 21
304.5519529999999
 31
0.0
  0
LINE
  5
1232
330
F18
100
AcDbEntity
  8
1
  6
Continuous
100
AcDbLine
 10
613.181602
 20
304.851953
 30
0.0
 11
612.8816019999998
 21
305.1519629999999
 31
0.0
  0
ARC
  5
1233
330
F18
100
AcDbEntity
  8
1
  6
Continuous
100
AcDbCircle
 10
614.564398
 20
296.4560189999999
 30
0.0
 40
11.882796
100
AcDbArc
 50
154.840673
 51
194.726372
  0
ARC
  5
1234
330
F18
100
AcDbEntity
  8
1
  6
Continuous
100
AcDbCircle
 10
597.798806
 20
296.4560189999999
 30
0.0
 40
11.882796
100
AcDbArc
 50
345.2736279999998
 51
25.159327
  0
LINE
  5
1235
330
F18
100
AcDbEntity
  8
1
  6
Continuous
100
AcDbLine
 10
604.244639
 20
291.404204
 30
0.0
 11
608.118565
 21
291.404204
 31
0.0
  0
LINE
  5
1236
330
F18
100
AcDbEntity
  8
1
  6
Continuous
100
AcDbLine
 10
609.681602
 20
294.111463
 30
0.0
 11
608.118565
 21
291.404203
 31
0.0
  0
LINE
  5
1237
330
F18
100
AcDbEntity
  8
1
  6
Continuous
100
AcDbLine
 10
611.181602
 20
295.611463
 30
0.0
 11
609.681602
 21
295.611463
 31
0.0
  0
LINE
  5
1238
330
F18
100
AcDbEntity
  8
1
  6
Continuous
100
AcDbLine
 10
611.181602
 20
300.6743129999999
 30
0.0
 11
611.4816019999998
 21
299.516163
 31
0.0
  0
LINE
  5
1239
330
F18
100
AcDbEntity
  8
1
  6
Continuous
100
AcDbLine
 10
611.4816019999998
 20
300.6743129999999
 30
0.0
 11
611.181602
 21
300.6743129999999
 31
0.0
  0
LINE
  5
123A
330
F18
100
AcDbEntity
  8
1
  6
Continuous
100
AcDbLine
 10
602.681602
 20
294.111463
 30
0.0
 11
604.244639
 21
291.404203
 31
0.0
  0
LINE
  5
123B
330
F18
100
AcDbEntity
  8
1
  6
Continuous
100
AcDbLine
 10
601.181602
 20
295.611463
 30
0.0
 11
602.681602
 21
295.611463
 31
0.0
  0
LINE
  5
123C
330
F18
100
AcDbEntity
  8
1
  6
Continuous
100
AcDbLine
 10
603.8089339999998
 20
301.507833
 30
0.0
 11
608.5542699999997
 21
301.507833
 31
0.0
  0
LINE
  5
123D
330
F18
100
AcDbEntity
  8
1
  6
Continuous
100
AcDbLine
 10
611.181602
 20
311.6014129999999
 30
0.0
 11
611.4816019999998
 21
311.3014129999999
 31
0.0
  0
LINE
  5
123E
330
F18
100
AcDbEntity
  8
1
  6
Continuous
100
AcDbLine
 10
611.181602
 20
304.851953
 30
0.0
 11
611.4816019999998
 21
305.1519629999999
 31
0.0
  0
LINE
  5
123F
330
F18
100
AcDbEntity
  8
1
  6
Continuous
100
AcDbLine
 10
611.4816019999998
 20
304.5519529999999
 30
0.0
 11
611.181602
 21
304.851953
 31
0.0
  0
LINE
  5
1240
330
F18
100
AcDbEntity
  8
1
  6
Continuous
100
AcDbLine
 10
683.0885360000002
 20
321.361463
 30
0.0
 11
662.038536
 21
321.361463
 31
0.0
  0
LINE
  5
1241
330
F18
100
AcDbEntity
  8
1
  6
Continuous
100
AcDbLine
 10
718.229243
 20
324.628831
 30
0.0
 11
699.2776720000001
 21
321.7428049999999
 31
0.0
  0
LINE
  5
1242
330
F18
100
AcDbEntity
  8
1
  6
Continuous
100
AcDbLine
 10
717.6401069999998
 20
328.4974889999999
 30
0.0
 11
698.688536
 21
325.611463
 31
0.0
  0
LINE
  5
1243
330
F18
100
AcDbEntity
  8
1
  6
Continuous
100
AcDbLine
 10
731.688536
 20
328.611463
 30
0.0
 11
719.1455939999997
 21
328.611463
 31
0.0
  0
LINE
  5
1244
330
F18
100
AcDbEntity
  8
1
  6
Continuous
100
AcDbLine
 10
729.650062
 20
324.6982039999999
 30
0.0
 11
719.1455939999997
 21
324.6982039999999
 31
0.0
  0
ARC
  5
1245
330
F18
100
AcDbEntity
  8
1
  6
Continuous
100
AcDbCircle
 10
731.688536
 20
327.611463
 30
0.0
 40
1.0
100
AcDbArc
 50
0.0
 51
90.0
  0
LINE
  5
1246
330
F18
100
AcDbEntity
  8
1
  6
Continuous
100
AcDbLine
 10
731.076141
 20
325.929911
 30
0.0
 11
730.2800179999997
 21
324.7756109999999
 31
0.0
  0
ARC
  5
1247
330
F18
100
AcDbEntity
  8
1
  6
Continuous
100
AcDbCircle
 10
729.650062
 20
323.698204
 30
0.0
 40
1.0
100
AcDbArc
 50
0.0
 51
90.0
  0
LINE
  5
1248
330
F18
100
AcDbEntity
  8
1
  6
Continuous
100
AcDbLine
 10
731.585506
 20
325.929911
 30
0.0
 11
731.076141
 21
325.929911
 31
0.0
  0
LINE
  5
1249
330
F18
100
AcDbEntity
  8
1
  6
Continuous
100
AcDbLine
 10
731.585506
 20
325.929911
 30
0.0
 11
732.004093
 21
327.746119
 31
0.0
  0
ARC
  5
124A
330
F18
100
AcDbEntity
  8
1
  6
Continuous
100
AcDbCircle
 10
719.1455939999997
 20
318.611463
 30
0.0
 40
10.0
100
AcDbArc
 50
90.0
 51
98.65872100000002
  0
ARC
  5
124B
330
F18
100
AcDbEntity
  8
1
  6
Continuous
100
AcDbCircle
 10
719.1455939999997
 20
318.611463
 30
0.0
 40
6.086740999999999
100
AcDbArc
 50
90.0
 51
98.65872100000002
  0
LINE
  5
124C
330
F18
100
AcDbEntity
  8
1
  6
Continuous
100
AcDbLine
 10
678.4885359999996
 20
335.611463
 30
0.0
 11
678.4885359999996
 21
329.111463
 31
0.0
  0
LINE
  5
124D
330
F18
100
AcDbEntity
  8
1
  6
Continuous
100
AcDbLine
 10
689.658001
 20
335.3218909999998
 30
0.0
 11
698.6269079999997
 21
321.9036049999999
 31
0.0
  0
LINE
  5
124E
330
F18
100
AcDbEntity
  8
1
  6
Continuous
100
AcDbLine
 10
698.5774730000001
 20
325.722773
 30
0.0
 11
689.66026
 21
340.569246
 31
0.0
  0
LINE
  5
124F
330
F18
100
AcDbEntity
  8
1
  6
Continuous
100
AcDbLine
 10
698.688536
 20
321.2808739999999
 30
0.0
 11
698.638536
 21
321.2808739999999
 31
0.0
  0
LINE
  5
1250
330
F18
100
AcDbEntity
  8
1
  6
Continuous
100
AcDbLine
 10
698.688536
 20
324.111463
 30
0.0
 11
698.638536
 21
324.111463
 31
0.0
  0
ARC
  5
1251
330
F18
100
AcDbEntity
  8
1
  6
Continuous
100
AcDbCircle
 10
698.138536
 20
325.4833269999999
 30
0.0
 40
0.5
100
AcDbArc
 50
0.0
 51
28.747914
  0
LINE
  5
1252
330
F18
100
AcDbEntity
  8
1
  6
Continuous
100
AcDbLine
 10
683.0885360000002
 20
329.111463
 30
0.0
 11
678.4885359999996
 21
329.111463
 31
0.0
  0
LINE
  5
1253
330
F18
100
AcDbEntity
  8
1
  6
Continuous
100
AcDbLine
 10
683.0885360000002
 20
335.611463
 30
0.0
 11
678.4885359999996
 21
335.611463
 31
0.0
  0
ARC
  5
1254
330
F18
100
AcDbEntity
  8
1
  6
Continuous
100
AcDbCircle
 10
687.9045119999998
 20
339.611463
 30
0.0
 40
2.0
100
AcDbArc
 50
28.613039
 51
90.0
  0
LINE
  5
1255
330
F18
100
AcDbEntity
  8
1
  6
Continuous
100
AcDbLine
 10
687.9045119999998
 20
341.611463
 30
0.0
 11
683.0885360000002
 21
341.611463
 31
0.0
  0
LINE
  5
1256
330
F18
100
AcDbEntity
  8
1
  6
Continuous
100
AcDbLine
 10
689.0885360000003
 20
340.5733769999998
 30
0.0
 11
689.0885360000003
 21
336.1738609999998
 31
0.0
  0
LINE
  5
1257
330
F18
100
AcDbEntity
  8
1
  6
Continuous
100
AcDbLine
 10
612.8816019999998
 20
329.111463
 30
0.0
 11
611.4816019999998
 21
329.111463
 31
0.0
  0
LINE
  5
1258
330
F18
100
AcDbEntity
  8
1
  6
Continuous
100
AcDbLine
 10
651.2385359999998
 20
321.611441
 30
0.0
 11
661.738536
 21
321.611441
 31
0.0
  0
LINE
  5
1259
330
F18
100
AcDbEntity
  8
1
  6
Continuous
100
AcDbLine
 10
662.038536
 20
321.361463
 30
0.0
 11
661.738536
 21
321.061463
 31
0.0
  0
ARC
  5
125A
330
F18
100
AcDbEntity
  8
1
  6
Continuous
100
AcDbCircle
 10
651.2385359999998
 20
321.111441
 30
0.0
 40
0.5
100
AcDbArc
 50
90.0
 51
180.0
  0
ARC
  5
125B
330
F18
100
AcDbEntity
  8
1
  6
Continuous
100
AcDbCircle
 10
645.0825559999998
 20
315.937964
 30
0.0
 40
2.555979999999999
100
AcDbArc
 50
325.6283629999999
 51
25.628363
  0
ARC
  5
125C
330
F18
100
AcDbEntity
  8
1
  6
Continuous
100
AcDbCircle
 10
646.1945159999998
 20
315.937964
 30
0.0
 40
2.555979999999999
100
AcDbArc
 50
154.371637
 51
214.371637
  0
LINE
  5
125D
330
F18
100
AcDbEntity
  8
1
  6
Continuous
100
AcDbLine
 10
647.1922440000001
 20
314.494964
 30
0.0
 11
644.0848279999999
 21
314.494964
 31
0.0
  0
LINE
  5
125E
330
F18
100
AcDbEntity
  8
1
  6
Continuous
100
AcDbLine
 10
650.7385359999998
 20
319.611421
 30
0.0
 11
649.138536
 21
319.611421
 31
0.0
  0
LINE
  5
125F
330
F18
100
AcDbEntity
  8
1
  6
Continuous
100
AcDbLine
 10
647.638536
 20
317.7114209999999
 30
0.0
 11
649.138536
 21
317.7114209999999
 31
0.0
  0
LINE
  5
1260
330
F18
100
AcDbEntity
  8
1
  6
Continuous
100
AcDbLine
 10
647.1922440000001
 20
317.3809639999999
 30
0.0
 11
644.0848279999999
 21
317.3809639999999
 31
0.0
  0
LINE
  5
1261
330
F18
100
AcDbEntity
  8
1
  6
Continuous
100
AcDbLine
 10
647.638536
 20
316.6079639999999
 30
0.0
 11
647.1922440000001
 21
317.3809639999999
 31
0.0
  0
LINE
  5
1262
330
F18
100
AcDbEntity
  8
1
  6
Continuous
100
AcDbLine
 10
643.638536
 20
316.6079639999999
 30
0.0
 11
644.0848279999999
 21
317.3809639999999
 31
0.0
  0
LINE
  5
1263
330
F18
100
AcDbEntity
  8
1
  6
Continuous
100
AcDbLine
 10
613.181602
 20
311.6214929999998
 30
0.0
 11
612.8816019999998
 21
311.921493
 31
0.0
  0
LINE
  5
1264
330
F18
100
AcDbEntity
  8
1
  6
Continuous
100
AcDbLine
 10
613.181602
 20
318.370993
 30
0.0
 11
612.8816019999998
 21
318.0709929999999
 31
0.0
  0
LINE
  5
1265
330
F18
100
AcDbEntity
  8
1
  6
Continuous
100
AcDbLine
 10
613.181602
 20
318.370993
 30
0.0
 11
612.8816019999998
 21
318.670993
 31
0.0
  0
LINE
  5
1266
330
F18
100
AcDbEntity
  8
1
  6
Continuous
100
AcDbLine
 10
612.8816019999998
 20
322.548613
 30
0.0
 11
613.181602
 21
322.548613
 31
0.0
  0
LINE
  5
1267
330
F18
100
AcDbEntity
  8
1
  6
Continuous
100
AcDbLine
 10
613.181602
 20
322.548613
 30
0.0
 11
612.8816019999998
 21
323.7067629999998
 31
0.0
  0
ARC
  5
1268
330
F18
100
AcDbEntity
  8
1
  6
Continuous
100
AcDbCircle
 10
614.564398
 20
326.766908
 30
0.0
 40
11.882796
100
AcDbArc
 50
165.2736289999998
 51
205.159327
  0
ARC
  5
1269
330
F18
100
AcDbEntity
  8
1
  6
Continuous
100
AcDbCircle
 10
597.798806
 20
326.766908
 30
0.0
 40
11.882796
100
AcDbArc
 50
334.8406729999999
 51
14.726371
  0
LINE
  5
126A
330
F18
100
AcDbEntity
  8
1
  6
Continuous
100
AcDbLine
 10
603.8089339999998
 20
321.715093
 30
0.0
 11
608.5542699999997
 21
321.715093
 31
0.0
  0
LINE
  5
126B
330
F18
100
AcDbEntity
  8
1
  6
Continuous
100
AcDbLine
 10
611.4816019999998
 20
318.670993
 30
0.0
 11
611.181602
 21
318.370993
 31
0.0
  0
LINE
  5
126C
330
F18
100
AcDbEntity
  8
1
  6
Continuous
100
AcDbLine
 10
611.181602
 20
318.370993
 30
0.0
 11
611.4816019999998
 21
318.0709929999999
 31
0.0
  0
LINE
  5
126D
330
F18
100
AcDbEntity
  8
1
  6
Continuous
100
AcDbLine
 10
604.244639
 20
331.8187229999999
 30
0.0
 11
608.118565
 21
331.8187229999999
 31
0.0
  0
LINE
  5
126E
330
F18
100
AcDbEntity
  8
1
  6
Continuous
100
AcDbLine
 10
611.4816019999998
 20
322.548613
 30
0.0
 11
611.181602
 21
322.548613
 31
0.0
  0
LINE
  5
126F
330
F18
100
AcDbEntity
  8
1
  6
Continuous
100
AcDbLine
 10
611.181602
 20
322.548613
 30
0.0
 11
611.4816019999998
 21
323.7067629999998
 31
0.0
  0
LINE
  5
1270
330
F18
100
AcDbEntity
  8
1
  6
Continuous
100
AcDbLine
 10
611.181602
 20
327.611463
 30
0.0
 11
609.681602
 21
327.611463
 31
0.0
  0
LINE
  5
1271
330
F18
100
AcDbEntity
  8
1
  6
Continuous
100
AcDbLine
 10
609.681602
 20
329.111463
 30
0.0
 11
608.118565
 21
331.8187229999999
 31
0.0
  0
LINE
  5
1272
330
F18
100
AcDbEntity
  8
1
  6
Continuous
100
AcDbLine
 10
601.181602
 20
327.611463
 30
0.0
 11
602.681602
 21
327.611463
 31
0.0
  0
LINE
  5
1273
330
F18
100
AcDbEntity
  8
1
  6
Continuous
100
AcDbLine
 10
602.681602
 20
329.111463
 30
0.0
 11
604.244639
 21
331.8187229999999
 31
0.0
  0
ENDSEC
  0
SECTION
  2
OBJECTS
  0
DICTIONARY
  5
F06
330
0
100
AcDbDictionary
281
     1
  3
ACAD_CIP_PREVIOUS_PRODUCT_INFO
350
1464
  3
ACAD_COLOR
350
1447
  3
ACAD_DETAILVIEWSTYLE
350
1460
  3
ACAD_GROUP
350
F07
  3
ACAD_LAYOUT
350
F13
  3
ACAD_MATERIAL
350
1415
  3
ACAD_MLEADERSTYLE
350
145C
  3
ACAD_MLINESTYLE
350
F10
  3
ACAD_PLOTSETTINGS
350
F12
  3
ACAD_PLOTSTYLENAME
350
1413
  3
ACAD_SCALELIST
350
144A
  3
ACAD_SECTIONVIEWSTYLE
350
145E
  3
ACAD_TABLESTYLE
350
1448
  3
ACAD_VISUALSTYLE
350
142E
  3
ACDB_RECOMPOSE_DATA
350
1482
  3
AcDbVariableDictionary
350
1475
  3
DWGPROPS
350
1483
  0
DICTIONARY
  5
1465
330
F0A
100
AcDbDictionary
280
     1
281
     1
  3
ADSK_XREC_LAYER_RECONCILED
360
1466
  0
DICTIONARY
  5
1467
330
F20
100
AcDbDictionary
280
     1
281
     1
  3
ADSK_XREC_LAYER_RECONCILED
360
1468
  0
DICTIONARY
  5
1469
330
F21
100
AcDbDictionary
280
     1
281
     1
  3
ADSK_XREC_LAYER_RECONCILED
360
146A
  0
DICTIONARY
  5
146B
330
F22
100
AcDbDictionary
280
     1
281
     1
  3
ADSK_XREC_LAYER_RECONCILED
360
146C
  0
DICTIONARY
  5
146D
330
F23
100
AcDbDictionary
280
     1
281
     1
  3
ADSK_XREC_LAYER_RECONCILED
360
146E
  0
DICTIONARY
  5
146F
330
F24
100
AcDbDictionary
280
     1
281
     1
  3
ADSK_XREC_LAYER_RECONCILED
360
1470
  0
DICTIONARY
  5
1471
330
F25
100
AcDbDictionary
280
     1
281
     1
  3
ADSK_XREC_LAYER_RECONCILED
360
1472
  0
DICTIONARY
  5
1473
330
F26
100
AcDbDictionary
280
     1
281
     1
  3
ADSK_XREC_LAYER_RECONCILED
360
1474
  0
DICTIONARY
  5
140E
330
F18
100
AcDbDictionary
281
     1
  3
ACAD_LAYOUTSELFREF
350
140F
  0
DICTIONARY
  5
140C
330
F14
100
AcDbDictionary
281
     1
  3
ACAD_LAYOUTSELFREF
350
140D
  0
XRECORD
  5
1464
102
{ACAD_REACTORS
330
F06
102
}
330
F06
100
AcDbXrecord
280
     1
300
ACDLT
300
2014
300
ACDLT_F_S
  0
DICTIONARY
  5
1447
102
{ACAD_REACTORS
330
F06
102
}
330
F06
100
AcDbDictionary
281
     1
  0
DICTIONARY
  5
1460
102
{ACAD_REACTORS
330
F06
102
}
330
F06
100
AcDbDictionary
281
     1
  3
Imperial24
350
1461
  0
DICTIONARY
  5
F07
102
{ACAD_REACTORS
330
F06
102
}
330
F06
100
AcDbDictionary
281
     1
  0
DICTIONARY
  5
F13
102
{ACAD_REACTORS
330
F06
102
}
330
F06
100
AcDbDictionary
281
     1
  3
Model
350
1462
  3
レイアウト1
350
1463
  0
DICTIONARY
  5
1415
102
{ACAD_REACTORS
330
F06
102
}
330
F06
100
AcDbDictionary
281
     1
  3
ByBlock
350
141E
  3
ByLayer
350
1416
  3
Global
350
1426
  0
DICTIONARY
  5
145C
102
{ACAD_REACTORS
330
F06
102
}
330
F06
100
AcDbDictionary
281
     1
  3
Standard
350
145D
  0
DICTIONARY
  5
F10
102
{ACAD_REACTORS
330
F06
102
}
330
F06
100
AcDbDictionary
281
     1
  3
STANDARD
350
F11
  0
DICTIONARY
  5
F12
102
{ACAD_REACTORS
330
F06
102
}
330
F06
100
AcDbDictionary
281
     1
  0
ACDBDICTIONARYWDFLT
  5
1413
102
{ACAD_REACTORS
330
F06
102
}
330
F06
100
AcDbDictionary
281
     1
  3
Normal
350
1414
100
AcDbDictionaryWithDefault
340
1414
  0
DICTIONARY
  5
144A
102
{ACAD_REACTORS
330
F06
102
}
330
F06
100
AcDbDictionary
281
     1
  3
A0
350
144B
  3
A1
350
144C
  3
A2
350
144D
  3
A3
350
144E
  3
A4
350
144F
  3
A5
350
1450
  3
A6
350
1451
  3
A7
350
1452
  3
A8
350
1453
  3
A9
350
1454
  3
B0
350
1455
  3
B1
350
1456
  3
B2
350
1457
  3
B3
350
1458
  3
B4
350
1459
  3
B5
350
145A
  3
B6
350
145B
  0
DICTIONARY
  5
145E
102
{ACAD_REACTORS
330
F06
102
}
330
F06
100
AcDbDictionary
281
     1
  3
Imperial24
350
145F
  0
DICTIONARY
  5
1448
102
{ACAD_REACTORS
330
F06
102
}
330
F06
100
AcDbDictionary
281
     1
  3
Standard
350
1449
  0
DICTIONARY
  5
142E
102
{ACAD_REACTORS
330
F06
102
}
330
F06
100
AcDbDictionary
281
     1
  3
2dWireframe
350
1434
  3
Basic
350
1433
  3
Brighten
350
143A
  3
ColorChange
350
143E
  3
Conceptual
350
1437
  3
Dim
350
1439
  3
EdgeColorOff
350
1446
  3
Facepattern
350
143D
  3
Flat
350
142F
  3
FlatWithEdges
350
1430
  3
Gouraud
350
1431
  3
GouraudWithEdges
350
1432
  3
Hidden
350
1436
  3
JitterOff
350
1444
  3
Linepattern
350
143C
  3
OverhangOff
350
1445
  3
Realistic
350
1438
  3
Shaded
350
1443
  3
Shaded with edges
350
1442
  3
Shades of Gray
350
143F
  3
Sketchy
350
1440
  3
Thicken
350
143B
  3
Wireframe
350
1435
  3
X-Ray
350
1441
  0
XRECORD
  5
1482
102
{ACAD_REACTORS
330
F06
102
}
330
F06
100
AcDbXrecord
280
     1
 90
        1
330
1449
  0
DICTIONARY
  5
1475
102
{ACAD_REACTORS
330
F06
102
}
330
F06
100
AcDbDictionary
281
     1
  3
CANNOSCALE
350
147A
  3
CMLEADERSTYLE
350
1477
  3
CTABLESTYLE
350
1476
  3
CVIEWDETAILSTYLE
350
1478
  3
CVIEWSECTIONSTYLE
350
1479
  3
DIMASSOC
350
147D
  3
INDEXCTL
350
147C
  3
SORTENTS
350
147B
  3
XCLIPFRAME
350
147E
  0
XRECORD
  5
1483
102
{ACAD_REACTORS
330
F06
102
}
330
F06
100
AcDbXrecord
280
     1
  1
DWGPROPS COOKIE
  2

  3

  4

  6

  7

  8
Yoshitsune
  9

300
=
301
=
302
=
303
=
304
=
305
=
306
=
307
=
308
=
309
=
 40
0.0525384143518519
 41
2452065.479644005
 42
2457192.641630845
  1

 90
        0
  0
XRECORD
  5
1466
102
{ACAD_REACTORS
330
1465
102
}
330
1465
100
AcDbXrecord
280
     1
290
     1
  0
XRECORD
  5
1468
102
{ACAD_REACTORS
330
1467
102
}
330
1467
100
AcDbXrecord
280
     1
290
     1
  0
XRECORD
  5
146A
102
{ACAD_REACTORS
330
1469
102
}
330
1469
100
AcDbXrecord
280
     1
290
     1
  0
XRECORD
  5
146C
102
{ACAD_REACTORS
330
146B
102
}
330
146B
100
AcDbXrecord
280
     1
290
     1
  0
XRECORD
  5
146E
102
{ACAD_REACTORS
330
146D
102
}
330
146D
100
AcDbXrecord
280
     1
290
     1
  0
XRECORD
  5
1470
102
{ACAD_REACTORS
330
146F
102
}
330
146F
100
AcDbXrecord
280
     1
290
     1
  0
XRECORD
  5
1472
102
{ACAD_REACTORS
330
1471
102
}
330
1471
100
AcDbXrecord
280
     1
290
     1
  0
XRECORD
  5
1474
102
{ACAD_REACTORS
330
1473
102
}
330
1473
100
AcDbXrecord
280
     1
290
     1
  0
XRECORD
  5
140F
102
{ACAD_REACTORS
330
140E
102
}
330
140E
100
AcDbXrecord
280
     1
340
F18
  0
XRECORD
  5
140D
102
{ACAD_REACTORS
330
140C
102
}
330
140C
100
AcDbXrecord
280
     1
340
F14
  0
ACDBDETAILVIEWSTYLE
  5
1461
102
{ACAD_XDICTIONARY
360
14BB
102
}
102
{ACAD_REACTORS
330
1460
102
}
330
1460
100
AcDbModelDocViewStyle
 70
     0
  3
Imperial24
290
     0
100
AcDbDetailViewStyle
 70
     0
 71
     0
 90
        3
 71
     1
340
F0B
 40
0.24
340
0
 40
0.24
300

 40
0.36
280
     3
 71
     2
340
F0F
 90
       25
 71
     3
340
F0B
 40
0.24
 90
        1
 40
0.75
 90
        1
300
%<\AcVar ViewType \f "%tc1">% %<\AcVar ViewDetailId>%\PSCALE %<\AcVar ViewScale \f "%sn">%
 71
     4
340
F0F
 90
       25
340
F0F
 90
       25
280
     0
  0
LAYOUT
  5
1462
102
{ACAD_XDICTIONARY
360
14BD
102
}
102
{ACAD_REACTORS
330
F13
102
}
330
F13
100
AcDbPlotSettings
  1

  2
Canon LBP9100C
  4

  6

 40
0.0
 41
0.0
 42
0.0
 43
0.0
 44
0.0
 45
0.0
 46
0.0
 47
0.0
 48
0.0
 49
0.0
140
0.0
141
0.0
142
1.0
143
1.0
 70
  1712
 72
     0
 73
     0
 74
     0
  7

 75
     0
147
1.0
148
0.0
149
0.0
100
AcDbLayout
  1
Model
 70
     1
 71
     0
 10
0.0
 20
0.0
 11
12.0
 21
9.0
 12
0.0
 22
0.0
 32
0.0
 14
0.0
 24
0.0
 34
0.0
 15
0.0
 25
0.0
 35
0.0
146
0.0
 13
0.0
 23
0.0
 33
0.0
 16
1.0
 26
0.0
 36
0.0
 17
0.0
 27
1.0
 37
0.0
 76
     0
330
F18
331
140B
  0
LAYOUT
  5
1463
102
{ACAD_XDICTIONARY
360
14BF
102
}
102
{ACAD_REACTORS
330
F13
102
}
330
F13
100
AcDbPlotSettings
  1

  2
Canon LBP9100C
  4

  6

 40
0.0
 41
0.0
 42
0.0
 43
0.0
 44
0.0
 45
0.0
 46
0.0
 47
0.0
 48
0.0
 49
0.0
140
0.0
141
0.0
142
1.0
143
1.0
 70
   688
 72
     0
 73
     0
 74
     5
  7

 75
    16
147
1.0
148
0.0
149
0.0
100
AcDbLayout
  1
レイアウト1
 70
     1
 71
     1
 10
0.0
 20
0.0
 11
420.0
 21
297.0
 12
0.0
 22
0.0
 32
0.0
 14
1.000000000000000E+20
 24
1.000000000000000E+20
 34
1.000000000000000E+20
 15
-1.000000000000000E+20
 25
-1.000000000000000E+20
 35
-1.000000000000000E+20
146
0.0
 13
0.0
 23
0.0
 33
0.0
 16
1.0
 26
0.0
 36
0.0
 17
0.0
 27
1.0
 37
0.0
 76
     0
330
F14
  0
MATERIAL
  5
141E
102
{ACAD_XDICTIONARY
360
141F
102
}
102
{ACAD_REACTORS
330
1415
102
}
330
1415
100
AcDbMaterial
  1
ByBlock
 72
     0
 43
0.0208333333333333
 43
0.0
 43
0.0
 43
0.0
 43
0.0
 43
0.0208333333333333
 43
0.0
 43
0.0
 43
0.0
 43
0.0
 43
1.0
 43
0.0
 43
0.0
 43
0.0
 43
0.0
 43
1.0
 77
     0
 47
0.0208333333333333
 47
0.0
 47
0.0
 47
0.0
 47
0.0
 47
0.0208333333333333
 47
0.0
 47
0.0
 47
0.0
 47
0.0
 47
1.0
 47
0.0
 47
0.0
 47
0.0
 47
0.0
 47
1.0
171
     0
 49
0.0208333333333333
 49
0.0
 49
0.0
 49
0.0
 49
0.0
 49
0.0208333333333333
 49
0.0
 49
0.0
 49
0.0
 49
0.0
 49
1.0
 49
0.0
 49
0.0
 49
0.0
 49
0.0
 49
1.0
175
     0
142
0.0208333333333333
142
0.0
142
0.0
142
0.0
142
0.0
142
0.0208333333333333
142
0.0
142
0.0
142
0.0
142
0.0
142
1.0
142
0.0
142
0.0
142
0.0
142
0.0
142
1.0
179
     0
144
0.0208333333333333
144
0.0
144
0.0
144
0.0
144
0.0
144
0.0208333333333333
144
0.0
144
0.0
144
0.0
144
0.0
144
1.0
144
0.0
144
0.0
144
0.0
144
0.0
144
1.0
147
0.0208333333333333
147
0.0
147
0.0
147
0.0
147
0.0
147
0.0208333333333333
147
0.0
147
0.0
147
0.0
147
0.0
147
1.0
147
0.0
147
0.0
147
0.0
147
0.0
147
1.0
  0
MATERIAL
  5
1416
102
{ACAD_XDICTIONARY
360
1417
102
}
102
{ACAD_REACTORS
330
1415
102
}
330
1415
100
AcDbMaterial
  1
ByLayer
 72
     0
 43
0.0208333333333333
 43
0.0
 43
0.0
 43
0.0
 43
0.0
 43
0.0208333333333333
 43
0.0
 43
0.0
 43
0.0
 43
0.0
 43
1.0
 43
0.0
 43
0.0
 43
0.0
 43
0.0
 43
1.0
 77
     0
 47
0.0208333333333333
 47
0.0
 47
0.0
 47
0.0
 47
0.0
 47
0.0208333333333333
 47
0.0
 47
0.0
 47
0.0
 47
0.0
 47
1.0
 47
0.0
 47
0.0
 47
0.0
 47
0.0
 47
1.0
171
     0
 49
0.0208333333333333
 49
0.0
 49
0.0
 49
0.0
 49
0.0
 49
0.0208333333333333
 49
0.0
 49
0.0
 49
0.0
 49
0.0
 49
1.0
 49
0.0
 49
0.0
 49
0.0
 49
0.0
 49
1.0
175
     0
142
0.0208333333333333
142
0.0
142
0.0
142
0.0
142
0.0
142
0.0208333333333333
142
0.0
142
0.0
142
0.0
142
0.0
142
1.0
142
0.0
142
0.0
142
0.0
142
0.0
142
1.0
179
     0
144
0.0208333333333333
144
0.0
144
0.0
144
0.0
144
0.0
144
0.0208333333333333
144
0.0
144
0.0
144
0.0
144
0.0
144
1.0
144
0.0
144
0.0
144
0.0
144
0.0
144
1.0
147
0.0208333333333333
147
0.0
147
0.0
147
0.0
147
0.0
147
0.0208333333333333
147
0.0
147
0.0
147
0.0
147
0.0
147
1.0
147
0.0
147
0.0
147
0.0
147
0.0
147
1.0
  0
MATERIAL
  5
1426
102
{ACAD_XDICTIONARY
360
1427
102
}
102
{ACAD_REACTORS
330
1415
102
}
330
1415
100
AcDbMaterial
  1
Global
 72
     0
 43
0.0208333333333333
 43
0.0
 43
0.0
 43
0.0
 43
0.0
 43
0.0208333333333333
 43
0.0
 43
0.0
 43
0.0
 43
0.0
 43
1.0
 43
0.0
 43
0.0
 43
0.0
 43
0.0
 43
1.0
 77
     0
 47
0.0208333333333333
 47
0.0
 47
0.0
 47
0.0
 47
0.0
 47
0.0208333333333333
 47
0.0
 47
0.0
 47
0.0
 47
0.0
 47
1.0
 47
0.0
 47
0.0
 47
0.0
 47
0.0
 47
1.0
171
     0
 49
0.0208333333333333
 49
0.0
 49
0.0
 49
0.0
 49
0.0
 49
0.0208333333333333
 49
0.0
 49
0.0
 49
0.0
 49
0.0
 49
1.0
 49
0.0
 49
0.0
 49
0.0
 49
0.0
 49
1.0
175
     0
142
0.0208333333333333
142
0.0
142
0.0
142
0.0
142
0.0
142
0.0208333333333333
142
0.0
142
0.0
142
0.0
142
0.0
142
1.0
142
0.0
142
0.0
142
0.0
142
0.0
142
1.0
179
     0
144
0.0208333333333333
144
0.0
144
0.0
144
0.0
144
0.0
144
0.0208333333333333
144
0.0
144
0.0
144
0.0
144
0.0
144
1.0
144
0.0
144
0.0
144
0.0
144
0.0
144
1.0
147
0.0208333333333333
147
0.0
147
0.0
147
0.0
147
0.0
147
0.0208333333333333
147
0.0
147
0.0
147
0.0
147
0.0
147
1.0
147
0.0
147
0.0
147
0.0
147
0.0
147
1.0
  0
MLEADERSTYLE
  5
145D
102
{ACAD_REACTORS
330
145C
102
}
330
145C
100
AcDbMLeaderStyle
170
     2
171
     1
172
     0
 90
        2
 40
0.0
 41
0.0
173
     1
 91
-1056964608
340
F0D
 92
       -2
290
     1
 42
0.09
291
     1
 43
0.36
  3
Standard
 44
0.18
300

342
F0B
174
     1
178
     6
175
     1
176
     0
 93
-1056964608
 45
0.18
292
     0
297
     0
 46
0.18
 94
-1056964608
 47
1.0
 49
1.0
140
1.0
293
     1
141
0.0
294
     1
177
     0
142
1.0
295
     0
296
     0
143
0.125
1001
ACAD_MLEADERVER
1070
     2
  0
MLINESTYLE
  5
F11
102
{ACAD_REACTORS
330
F10
102
}
330
F10
100
AcDbMlineStyle
  2
STANDARD
 70
     0
  3

 62
   256
 51
90.0
 52
90.0
 71
     2
 49
0.5
 62
   256
  6
BYLAYER
 49
-0.5
 62
   256
  6
BYLAYER
  0
ACDBPLACEHOLDER
  5
1414
102
{ACAD_REACTORS
330
1413
102
}
330
1413
  0
SCALE
  5
144B
102
{ACAD_REACTORS
330
144A
102
}
330
144A
100
AcDbScale
 70
     0
300
1:1
140
1.0
141
1.0
290
     1
  0
SCALE
  5
144C
102
{ACAD_REACTORS
330
144A
102
}
330
144A
100
AcDbScale
 70
     0
300
1/128" = 1'-0"
140
0.0078125
141
12.0
290
     0
  0
SCALE
  5
144D
102
{ACAD_REACTORS
330
144A
102
}
330
144A
100
AcDbScale
 70
     0
300
1/64" = 1'-0"
140
0.015625
141
12.0
290
     0
  0
SCALE
  5
144E
102
{ACAD_REACTORS
330
144A
102
}
330
144A
100
AcDbScale
 70
     0
300
1/32" = 1'-0"
140
0.03125
141
12.0
290
     0
  0
SCALE
  5
144F
102
{ACAD_REACTORS
330
144A
102
}
330
144A
100
AcDbScale
 70
     0
300
1/16" = 1'-0"
140
0.0625
141
12.0
290
     0
  0
SCALE
  5
1450
102
{ACAD_REACTORS
330
144A
102
}
330
144A
100
AcDbScale
 70
     0
300
3/32" = 1'-0"
140
0.09375
141
12.0
290
     0
  0
SCALE
  5
1451
102
{ACAD_REACTORS
330
144A
102
}
330
144A
100
AcDbScale
 70
     0
300
1/8" = 1'-0"
140
0.125
141
12.0
290
     0
  0
SCALE
  5
1452
102
{ACAD_REACTORS
330
144A
102
}
330
144A
100
AcDbScale
 70
     0
300
3/16" = 1'-0"
140
0.1875
141
12.0
290
     0
  0
SCALE
  5
1453
102
{ACAD_REACTORS
330
144A
102
}
330
144A
100
AcDbScale
 70
     0
300
1/4" = 1'-0"
140
0.25
141
12.0
290
     0
  0
SCALE
  5
1454
102
{ACAD_REACTORS
330
144A
102
}
330
144A
100
AcDbScale
 70
     0
300
3/8" = 1'-0"
140
0.375
141
12.0
290
     0
  0
SCALE
  5
1455
102
{ACAD_REACTORS
330
144A
102
}
330
144A
100
AcDbScale
 70
     0
300
1/2" = 1'-0"
140
0.5
141
12.0
290
     0
  0
SCALE
  5
1456
102
{ACAD_REACTORS
330
144A
102
}
330
144A
100
AcDbScale
 70
     0
300
3/4" = 1'-0"
140
0.75
141
12.0
290
     0
  0
SCALE
  5
1457
102
{ACAD_REACTORS
330
144A
102
}
330
144A
100
AcDbScale
 70
     0
300
1" = 1'-0"
140
1.0
141
12.0
290
     0
  0
SCALE
  5
1458
102
{ACAD_REACTORS
330
144A
102
}
330
144A
100
AcDbScale
 70
     0
300
1-1/2" = 1'-0"
140
1.5
141
12.0
290
     0
  0
SCALE
  5
1459
102
{ACAD_REACTORS
330
144A
102
}
330
144A
100
AcDbScale
 70
     0
300
3" = 1'-0"
140
3.0
141
12.0
290
     0
  0
SCALE
  5
145A
102
{ACAD_REACTORS
330
144A
102
}
330
144A
100
AcDbScale
 70
     0
300
6" = 1'-0"
140
6.0
141
12.0
290
     0
  0
SCALE
  5
145B
102
{ACAD_REACTORS
330
144A
102
}
330
144A
100
AcDbScale
 70
     0
300
1'-0" = 1'-0"
140
12.0
141
12.0
290
     0
  0
ACDBSECTIONVIEWSTYLE
  5
145F
102
{ACAD_XDICTIONARY
360
14B9
102
}
102
{ACAD_REACTORS
330
145E
102
}
330
145E
100
AcDbModelDocViewStyle
 70
     0
  3
Imperial24
290
     0
100
AcDbSectionViewStyle
 70
     0
 71
     0
 90
       78
 71
     1
340
F0B
 40
0.24
340
0
340
0
 40
0.24
300
I, O, Q, S, X, Z
 40
0.48
 90
        3
 40
0.18
 90
        1
 71
     2
340
F0F
 90
       25
340
F0F
 90
       50
 40
0.24
 40
0.0
 40
0.24
 71
     3
340
F0B
 40
0.24
 90
        1
 40
0.75
 90
        1
300
%<\AcVar ViewType \f "%tc1">% %<\AcVar ViewSectionStartId>%-%<\AcVar ViewSectionEndId>%\PSCALE %<\AcVar ViewScale \f "%sn">%
 71
     4
300
ANSI31
 40
1.0
 90
        0
290
     0
290
     0
 90
        6
 40
0.0
 40
1.570796326794896
 40
0.2617993877991494
 40
1.308996938995747
 40
-0.2617993877991494
 40
1.832595714594046
  0
TABLESTYLE
  5
1449
102
{ACAD_XDICTIONARY
360
1480
102
}
102
{ACAD_REACTORS
330
1448
102
}
330
1448
100
AcDbTableStyle
  3
Standard
 70
     0
 71
     0
 40
0.06
 41
0.06
280
     0
281
     0
  7
STANDARD
140
0.18
170
     2
 62
     0
 63
     7
283
     0
274
    -2
284
     1
 64
     0
275
    -2
285
     1
 65
     0
276
    -2
286
     1
 66
     0
277
    -2
287
     1
 67
     0
278
    -2
288
     1
 68
     0
279
    -2
289
     1
 69
     0
  7
STANDARD
140
0.25
170
     5
 62
     0
 63
     7
283
     0
274
    -2
284
     1
 64
     0
275
    -2
285
     1
 65
     0
276
    -2
286
     1
 66
     0
277
    -2
287
     1
 67
     0
278
    -2
288
     1
 68
     0
279
    -2
289
     1
 69
     0
  7
STANDARD
140
0.18
170
     5
 62
     0
 63
     7
283
     0
274
    -2
284
     1
 64
     0
275
    -2
285
     1
 65
     0
276
    -2
286
     1
 66
     0
277
    -2
287
     1
 67
     0
278
    -2
288
     1
 68
     0
279
    -2
289
     1
 69
     0
  0
VISUALSTYLE
  5
1434
102
{ACAD_XDICTIONARY
360
1491
102
}
102
{ACAD_REACTORS
330
142E
102
}
330
142E
100
AcDbVisualStyle
  2
2dWireframe
 70
     4
 71
     0
 72
     2
 73
     0
 90
        0
 40
-0.6
 41
-30.0
 62
     5
 63
     7
 74
     1
 91
        4
 64
     7
 65
   257
 75
     1
175
     1
 42
1.0
 92
        0
 66
   257
 43
1.0
 76
     1
 77
     6
 78
     2
 67
     7
 79
     5
170
     0
171
     0
290
     0
174
     0
 93
        1
 44
0.0
173
     0
291
     0
 45
0.0
1001
ACAD
1000
AcDbSavedByObjectVersion
1070
     0
  0
VISUALSTYLE
  5
1433
102
{ACAD_XDICTIONARY
360
148F
102
}
102
{ACAD_REACTORS
330
142E
102
}
330
142E
100
AcDbVisualStyle
  2
Basic
 70
     7
 71
     1
 72
     0
 73
     1
 90
        0
 40
-0.6
 41
-30.0
 62
     5
 63
     7
 74
     0
 91
        4
 64
     7
 65
   257
 75
     1
175
     1
 42
1.0
 92
        8
 66
     7
 43
1.0
 76
     1
 77
     6
 78
     2
 67
     7
 79
     5
170
     0
171
     0
290
     0
174
     0
 93
        1
 44
0.0
173
     0
291
     1
 45
0.0
1001
ACAD
1000
AcDbSavedByObjectVersion
1070
     0
  0
VISUALSTYLE
  5
143A
102
{ACAD_XDICTIONARY
360
149D
102
}
102
{ACAD_REACTORS
330
142E
102
}
330
142E
100
AcDbVisualStyle
  2
Brighten
 70
    12
 71
     2
 72
     2
 73
     0
 90
        0
 40
-0.6
 41
-30.0
 62
     5
 63
     7
 74
     1
 91
        4
 64
     7
 65
   257
 75
     1
175
     1
 42
1.0
 92
        8
 66
     7
 43
1.0
 76
     1
 77
     6
 78
     2
 67
     7
 79
     5
170
     0
171
     0
290
     0
174
     0
 93
        1
 44
50.0
173
     0
291
     1
 45
0.0
1001
ACAD
1000
AcDbSavedByObjectVersion
1070
     0
  0
VISUALSTYLE
  5
143E
102
{ACAD_XDICTIONARY
360
14A5
102
}
102
{ACAD_REACTORS
330
142E
102
}
330
142E
100
AcDbVisualStyle
  2
ColorChange
 70
    16
 71
     2
 72
     2
 73
     3
 90
        0
 40
-0.6
 41
-30.0
 62
     5
 63
     8
 74
     1
 91
        4
 64
     7
 65
   257
 75
     1
175
     1
 42
1.0
 92
        8
 66
     8
 43
1.0
 76
     1
 77
     6
 78
     2
 67
     7
 79
     5
170
     0
171
     0
290
     0
174
     0
 93
        1
 44
0.0
173
     0
291
     1
 45
0.0
1001
ACAD
1000
AcDbSavedByObjectVersion
1070
     0
  0
VISUALSTYLE
  5
1437
102
{ACAD_XDICTIONARY
360
1497
102
}
102
{ACAD_REACTORS
330
142E
102
}
330
142E
100
AcDbVisualStyle
  2
Conceptual
 70
     9
 71
     3
 72
     2
 73
     0
 90
        0
 40
-0.6
 41
-30.0
 62
     5
 63
     7
 74
     2
 91
        2
 64
     7
 65
   257
 75
     1
175
     1
 42
179.0
 92
        8
 66
     7
 43
1.0
 76
     1
 77
     6
 78
     2
 67
     7
 79
     3
170
     0
171
     0
290
     0
174
     0
 93
        1
 44
0.0
173
     0
291
     0
 45
0.0
1001
ACAD
1000
AcDbSavedByObjectVersion
1070
     0
  0
VISUALSTYLE
  5
1439
102
{ACAD_XDICTIONARY
360
149B
102
}
102
{ACAD_REACTORS
330
142E
102
}
330
142E
100
AcDbVisualStyle
  2
Dim
 70
    11
 71
     2
 72
     2
 73
     0
 90
        0
 40
-0.6
 41
-30.0
 62
     5
 63
     7
 74
     1
 91
        4
 64
     7
 65
   257
 75
     1
175
     1
 42
1.0
 92
        8
 66
     7
 43
1.0
 76
     1
 77
     6
 78
     2
 67
     7
 79
     5
170
     0
171
     0
290
     0
174
     0
 93
        1
 44
-50.0
173
     0
291
     1
 45
0.0
1001
ACAD
1000
AcDbSavedByObjectVersion
1070
     0
  0
VISUALSTYLE
  5
1446
102
{ACAD_XDICTIONARY
360
14B5
102
}
102
{ACAD_REACTORS
330
142E
102
}
330
142E
100
AcDbVisualStyle
  2
EdgeColorOff
 70
    22
 71
     2
 72
     2
 73
     0
 90
        0
 40
-0.6
 41
-30.0
 62
     5
 63
     7
 74
     1
 91
        4
 64
     7
 65
   257
 75
     1
175
     1
 42
1.0
 92
        8
 66
     7
 43
1.0
 76
     1
 77
     6
 78
     2
 67
     7
 79
     5
170
     0
171
     0
290
     0
174
     0
 93
        1
 44
0.0
173
     0
291
     1
 45
0.0
1001
ACAD
1000
AcDbSavedByObjectVersion
1070
     0
  0
VISUALSTYLE
  5
143D
102
{ACAD_XDICTIONARY
360
14A3
102
}
102
{ACAD_REACTORS
330
142E
102
}
330
142E
100
AcDbVisualStyle
  2
Facepattern
 70
    15
 71
     2
 72
     2
 73
     0
 90
        0
 40
-0.6
 41
-30.0
 62
     5
 63
     7
 74
     1
 91
        4
 64
     7
 65
   257
 75
     1
175
     1
 42
1.0
 92
        8
 66
     7
 43
1.0
 76
     1
 77
     6
 78
     2
 67
     7
 79
     5
170
     0
171
     0
290
     0
174
     0
 93
        1
 44
0.0
173
     0
291
     1
 45
0.0
1001
ACAD
1000
AcDbSavedByObjectVersion
1070
     0
  0
VISUALSTYLE
  5
142F
102
{ACAD_XDICTIONARY
360
1487
102
}
102
{ACAD_REACTORS
330
142E
102
}
330
142E
100
AcDbVisualStyle
  2
Flat
 70
     0
 71
     2
 72
     1
 73
     1
 90
        2
 40
-0.6
 41
30.0
 62
     5
 63
     7
 74
     0
 91
        0
 64
     7
 65
   257
 75
     1
175
     1
 42
1.0
 92
        8
 66
     7
 43
1.0
 76
     1
 77
     6
 78
     2
 67
     7
 79
     5
170
     0
171
     0
290
     0
174
     0
 93
       13
 44
0.0
173
     0
291
     1
 45
0.0
1001
ACAD
1000
AcDbSavedByObjectVersion
1070
     0
  0
VISUALSTYLE
  5
1430
102
{ACAD_XDICTIONARY
360
1489
102
}
102
{ACAD_REACTORS
330
142E
102
}
330
142E
100
AcDbVisualStyle
  2
FlatWithEdges
 70
     1
 71
     2
 72
     1
 73
     1
 90
        2
 40
-0.6
 41
30.0
 62
     5
 63
     7
 74
     1
 91
        0
 64
     7
 65
   257
 75
     1
175
     1
 42
1.0
 92
        0
 66
   257
 43
1.0
 76
     1
 77
     6
 78
     2
 67
     7
 79
     5
170
     0
171
     0
290
     0
174
     0
 93
       13
 44
0.0
173
     0
291
     1
 45
0.0
1001
ACAD
1000
AcDbSavedByObjectVersion
1070
     0
  0
VISUALSTYLE
  5
1431
102
{ACAD_XDICTIONARY
360
148B
102
}
102
{ACAD_REACTORS
330
142E
102
}
330
142E
100
AcDbVisualStyle
  2
Gouraud
 70
     2
 71
     2
 72
     2
 73
     1
 90
        2
 40
-0.6
 41
30.0
 62
     5
 63
     7
 74
     0
 91
        0
 64
     7
 65
   257
 75
     1
175
     1
 42
1.0
 92
        0
 66
     7
 43
1.0
 76
     1
 77
     6
 78
     2
 67
     7
 79
     5
170
     0
171
     0
290
     0
174
     0
 93
       13
 44
0.0
173
     0
291
     1
 45
0.0
1001
ACAD
1000
AcDbSavedByObjectVersion
1070
     0
  0
VISUALSTYLE
  5
1432
102
{ACAD_XDICTIONARY
360
148D
102
}
102
{ACAD_REACTORS
330
142E
102
}
330
142E
100
AcDbVisualStyle
  2
GouraudWithEdges
 70
     3
 71
     2
 72
     2
 73
     1
 90
        2
 40
-0.6
 41
30.0
 62
     5
 63
     7
 74
     1
 91
        0
 64
     7
 65
   257
 75
     1
175
     1
 42
1.0
 92
        0
 66
   257
 43
1.0
 76
     1
 77
     6
 78
     2
 67
     7
 79
     5
170
     0
171
     0
290
     0
174
     0
 93
       13
 44
0.0
173
     0
291
     1
 45
0.0
1001
ACAD
1000
AcDbSavedByObjectVersion
1070
     0
  0
VISUALSTYLE
  5
1436
102
{ACAD_XDICTIONARY
360
1495
102
}
102
{ACAD_REACTORS
330
142E
102
}
330
142E
100
AcDbVisualStyle
  2
Hidden
 70
     6
 71
     1
 72
     2
 73
     2
 90
        0
 40
-0.6
 41
-30.0
 62
     5
 63
     7
 74
     2
 91
        2
 64
     7
 65
   257
 75
     2
175
     1
 42
40.0
 92
        0
 66
   257
 43
1.0
 76
     1
 77
     6
 78
     2
 67
     7
 79
     3
170
     0
171
     0
290
     0
174
     0
 93
        1
 44
0.0
173
     0
291
     0
 45
0.0
1001
ACAD
1000
AcDbSavedByObjectVersion
1070
     0
  0
VISUALSTYLE
  5
1444
102
{ACAD_XDICTIONARY
360
14B1
102
}
102
{ACAD_REACTORS
330
142E
102
}
330
142E
100
AcDbVisualStyle
  2
JitterOff
 70
    20
 71
     2
 72
     2
 73
     0
 90
        0
 40
-0.6
 41
-30.0
 62
     5
 63
     7
 74
     1
 91
        4
 64
     7
 65
   257
 75
     1
175
     1
 42
1.0
 92
       10
 66
     7
 43
1.0
 76
     1
 77
     6
 78
     2
 67
     7
 79
     5
170
     0
171
     0
290
     0
174
     0
 93
        1
 44
0.0
173
     0
291
     1
 45
0.0
1001
ACAD
1000
AcDbSavedByObjectVersion
1070
     0
  0
VISUALSTYLE
  5
143C
102
{ACAD_XDICTIONARY
360
14A1
102
}
102
{ACAD_REACTORS
330
142E
102
}
330
142E
100
AcDbVisualStyle
  2
Linepattern
 70
    14
 71
     2
 72
     2
 73
     0
 90
        0
 40
-0.6
 41
-30.0
 62
     5
 63
     7
 74
     1
 91
        4
 64
     7
 65
   257
 75
     7
175
     7
 42
1.0
 92
        8
 66
     7
 43
1.0
 76
     1
 77
     6
 78
     2
 67
     7
 79
     5
170
     0
171
     0
290
     0
174
     0
 93
        1
 44
0.0
173
     0
291
     1
 45
0.0
1001
ACAD
1000
AcDbSavedByObjectVersion
1070
     0
  0
VISUALSTYLE
  5
1445
102
{ACAD_XDICTIONARY
360
14B3
102
}
102
{ACAD_REACTORS
330
142E
102
}
330
142E
100
AcDbVisualStyle
  2
OverhangOff
 70
    21
 71
     2
 72
     2
 73
     0
 90
        0
 40
-0.6
 41
-30.0
 62
     5
 63
     7
 74
     1
 91
        4
 64
     7
 65
   257
 75
     1
175
     1
 42
1.0
 92
        9
 66
     7
 43
1.0
 76
     1
 77
     6
 78
     2
 67
     7
 79
     5
170
     0
171
     0
290
     0
174
     0
 93
        1
 44
0.0
173
     0
291
     1
 45
0.0
1001
ACAD
1000
AcDbSavedByObjectVersion
1070
     0
  0
VISUALSTYLE
  5
1438
102
{ACAD_XDICTIONARY
360
1499
102
}
102
{ACAD_REACTORS
330
142E
102
}
330
142E
100
AcDbVisualStyle
  2
Realistic
 70
     8
 71
     2
 72
     3
 73
     0
 90
        2
 40
-0.6
 41
30.0
 62
     5
 63
     7
 74
     0
 91
        0
 64
     7
 65
   257
 75
     1
175
     1
 42
1.0
 92
        8
 66
   257
 43
1.0
 76
     1
 77
     6
 78
     2
 67
     7
 79
     3
170
     0
171
     0
290
     0
174
     0
 93
       13
 44
0.0
173
     0
291
     0
 45
0.0
1001
ACAD
1000
AcDbSavedByObjectVersion
1070
     0
  0
VISUALSTYLE
  5
1443
102
{ACAD_XDICTIONARY
360
14AF
102
}
102
{ACAD_REACTORS
330
142E
102
}
330
142E
100
AcDbVisualStyle
  2
Shaded
 70
    27
 71
     2
 72
     2
 73
     1
 90
        2
 40
-0.6
 41
30.0
 62
     5
 63
     7
 74
     0
 91
        4
 64
     7
 65
   257
 75
     1
175
     1
 42
1.0
 92
        8
 66
   257
 43
1.0
 76
     1
 77
     6
 78
     2
 67
     8
 79
     3
170
     0
171
     0
290
     0
174
     0
 93
        5
 44
0.0
173
     0
291
     0
 45
0.0
1001
ACAD
1000
AcDbSavedByObjectVersion
1070
     0
  0
VISUALSTYLE
  5
1442
102
{ACAD_XDICTIONARY
360
14AD
102
}
102
{ACAD_REACTORS
330
142E
102
}
330
142E
100
AcDbVisualStyle
  2
Shaded with edges
 70
    26
 71
     2
 72
     2
 73
     1
 90
        2
 40
-0.6
 41
30.0
 62
     5
 63
     7
 74
     1
 91
       10
 64
     7
 65
   257
 75
     2
175
     1
 42
1.0
 92
        8
 66
   257
 43
1.0
 76
     1
 77
     6
 78
     2
 67
     7
 79
     3
170
     0
171
     0
290
     0
174
     0
 93
        5
 44
0.0
173
     0
291
     0
 45
0.0
1001
ACAD
1000
AcDbSavedByObjectVersion
1070
     0
  0
VISUALSTYLE
  5
143F
102
{ACAD_XDICTIONARY
360
14A7
102
}
102
{ACAD_REACTORS
330
142E
102
}
330
142E
100
AcDbVisualStyle
  2
Shades of Gray
 70
    23
 71
     2
 72
     2
 73
     3
 90
        0
 40
-0.6
 41
-30.0
 62
     5
 63
     7
 74
     2
 91
        2
 64
     7
 65
     7
 75
     1
175
     1
 42
40.0
 92
        8
 66
     7
 43
1.0
 76
     1
 77
     6
 78
     2
 67
     7
 79
     3
170
     0
171
     0
290
     0
174
     0
 93
        1
 44
0.0
173
     0
291
     0
 45
0.0
1001
ACAD
1000
AcDbSavedByObjectVersion
1070
     0
  0
VISUALSTYLE
  5
1440
102
{ACAD_XDICTIONARY
360
14A9
102
}
102
{ACAD_REACTORS
330
142E
102
}
330
142E
100
AcDbVisualStyle
  2
Sketchy
 70
    24
 71
     1
 72
     2
 73
     2
 90
        0
 40
-0.6
 41
-30.0
 62
     5
 63
     7
 74
     2
 91
        2
 64
     7
 65
     7
 75
     1
175
     1
 42
40.0
 92
       11
 66
     7
 43
1.0
 76
     1
 77
     6
 78
     2
 67
     7
 79
     6
170
     0
171
     0
290
     0
174
     0
 93
        1
 44
0.0
173
     0
291
     0
 45
0.0
1001
ACAD
1000
AcDbSavedByObjectVersion
1070
     0
  0
VISUALSTYLE
  5
143B
102
{ACAD_XDICTIONARY
360
149F
102
}
102
{ACAD_REACTORS
330
142E
102
}
330
142E
100
AcDbVisualStyle
  2
Thicken
 70
    13
 71
     2
 72
     2
 73
     0
 90
        0
 40
-0.6
 41
-30.0
 62
     5
 63
     7
 74
     1
 91
        4
 64
     7
 65
   257
 75
     1
175
     1
 42
1.0
 92
       12
 66
     7
 43
1.0
 76
     1
 77
     6
 78
     2
 67
     7
 79
     5
170
     0
171
     0
290
     0
174
     0
 93
        1
 44
0.0
173
     0
291
     1
 45
0.0
1001
ACAD
1000
AcDbSavedByObjectVersion
1070
     0
  0
VISUALSTYLE
  5
1435
102
{ACAD_XDICTIONARY
360
1493
102
}
102
{ACAD_REACTORS
330
142E
102
}
330
142E
100
AcDbVisualStyle
  2
Wireframe
 70
     5
 71
     0
 72
     2
 73
     0
 90
        0
 40
-0.6
 41
-30.0
 62
     5
 63
     7
 74
     1
 91
        4
 64
     7
 65
   257
 75
     1
175
     1
 42
1.0
 92
        0
 66
   257
 43
1.0
 76
     1
 77
     6
 78
     2
 67
     7
 79
     3
170
     0
171
     0
290
     0
174
     0
 93
        1
 44
0.0
173
     0
291
     0
 45
0.0
1001
ACAD
1000
AcDbSavedByObjectVersion
1070
     0
  0
VISUALSTYLE
  5
1441
102
{ACAD_XDICTIONARY
360
14AB
102
}
102
{ACAD_REACTORS
330
142E
102
}
330
142E
100
AcDbVisualStyle
  2
X-Ray
 70
    25
 71
     2
 72
     2
 73
     1
 90
        1
 40
0.5
 41
-30.0
 62
     5
 63
     7
 74
     1
 91
        0
 64
     7
 65
   257
 75
     1
175
     1
 42
1.0
 92
        8
 66
     7
 43
1.0
 76
     1
 77
     6
 78
     2
 67
     7
 79
     3
170
     0
171
     0
290
     0
174
     0
 93
       13
 44
0.0
173
     0
291
     0
 45
0.0
1001
ACAD
1000
AcDbSavedByObjectVersion
1070
     0
  0
DICTIONARYVAR
  5
147A
102
{ACAD_REACTORS
330
1475
102
}
330
1475
100
DictionaryVariables
280
     0
  1
1:1
  0
DICTIONARYVAR
  5
1477
102
{ACAD_REACTORS
330
1475
102
}
330
1475
100
DictionaryVariables
280
     0
  1
STANDARD
  0
DICTIONARYVAR
  5
1476
102
{ACAD_REACTORS
330
1475
102
}
330
1475
100
DictionaryVariables
280
     0
  1
STANDARD
  0
DICTIONARYVAR
  5
1478
102
{ACAD_REACTORS
330
1475
102
}
330
1475
100
DictionaryVariables
280
     0
  1
Imperial24
  0
DICTIONARYVAR
  5
1479
102
{ACAD_REACTORS
330
1475
102
}
330
1475
100
DictionaryVariables
280
     0
  1
Imperial24
  0
DICTIONARYVAR
  5
147D
102
{ACAD_REACTORS
330
1475
102
}
330
1475
100
DictionaryVariables
280
     0
  1
1
  0
DICTIONARYVAR
  5
147C
102
{ACAD_REACTORS
330
1475
102
}
330
1475
100
DictionaryVariables
280
     0
  1
0
  0
DICTIONARYVAR
  5
147B
102
{ACAD_REACTORS
330
1475
102
}
330
1475
100
DictionaryVariables
280
     0
  1
127
  0
DICTIONARYVAR
  5
147E
102
{ACAD_REACTORS
330
1475
102
}
330
1475
100
DictionaryVariables
280
     0
  1
2
  0
DICTIONARY
  5
14BB
330
1461
100
AcDbDictionary
280
     1
281
     1
  3
ACAD_XREC_ROUNDTRIP
360
14BC
  0
DICTIONARY
  5
14BD
330
1462
100
AcDbDictionary
280
     1
281
     1
  3
ACAD_XREC_ROUNDTRIP
360
14BE
  0
DICTIONARY
  5
14BF
330
1463
100
AcDbDictionary
280
     1
281
     1
  3
ACAD_XREC_ROUNDTRIP
360
14C0
  0
DICTIONARY
  5
141F
330
141E
100
AcDbDictionary
280
     1
281
     1
  3
ACAD_XREC_ROUNDTRIP
360
1485
  3
BUMPTILE
360
1421
  3
DIFFUSETILE
360
1420
  3
OPACITYTILE
360
1424
  3
REFLECTIONTILE
360
1423
  3
REFRACTIONTILE
360
1425
  3
SPECULARTILE
360
1422
  0
DICTIONARY
  5
1417
330
1416
100
AcDbDictionary
280
     1
281
     1
  3
ACAD_XREC_ROUNDTRIP
360
1484
  3
BUMPTILE
360
1419
  3
DIFFUSETILE
360
1418
  3
OPACITYTILE
360
141C
  3
REFLECTIONTILE
360
141B
  3
REFRACTIONTILE
360
141D
  3
SPECULARTILE
360
141A
  0
DICTIONARY
  5
1427
330
1426
100
AcDbDictionary
280
     1
281
     1
  3
ACAD_XREC_ROUNDTRIP
360
1486
  3
BUMPTILE
360
1429
  3
DIFFUSETILE
360
1428
  3
OPACITYTILE
360
142C
  3
REFLECTIONTILE
360
142B
  3
REFRACTIONTILE
360
142D
  3
SPECULARTILE
360
142A
  0
DICTIONARY
  5
14B9
330
145F
100
AcDbDictionary
280
     1
281
     1
  3
ACAD_XREC_ROUNDTRIP
360
14BA
  0
DICTIONARY
  5
1480
330
1449
100
AcDbDictionary
280
     1
281
     1
  3
ACAD_ROUNDTRIP_2008_TABLESTYLE_CELLSTYLEMAP
360
1481
  3
ACAD_XREC_ROUNDTRIP
360
14B7
  0
DICTIONARY
  5
1491
330
1434
100
AcDbDictionary
280
     1
281
     1
  3
ACAD_XREC_ROUNDTRIP
360
1492
  0
DICTIONARY
  5
148F
330
1433
100
AcDbDictionary
280
     1
281
     1
  3
ACAD_XREC_ROUNDTRIP
360
1490
  0
DICTIONARY
  5
149D
330
143A
100
AcDbDictionary
280
     1
281
     1
  3
ACAD_XREC_ROUNDTRIP
360
149E
  0
DICTIONARY
  5
14A5
330
143E
100
AcDbDictionary
280
     1
281
     1
  3
ACAD_XREC_ROUNDTRIP
360
14A6
  0
DICTIONARY
  5
1497
330
1437
100
AcDbDictionary
280
     1
281
     1
  3
ACAD_XREC_ROUNDTRIP
360
1498
  0
DICTIONARY
  5
149B
330
1439
100
AcDbDictionary
280
     1
281
     1
  3
ACAD_XREC_ROUNDTRIP
360
149C
  0
DICTIONARY
  5
14B5
330
1446
100
AcDbDictionary
280
     1
281
     1
  3
ACAD_XREC_ROUNDTRIP
360
14B6
  0
DICTIONARY
  5
14A3
330
143D
100
AcDbDictionary
280
     1
281
     1
  3
ACAD_XREC_ROUNDTRIP
360
14A4
  0
DICTIONARY
  5
1487
330
142F
100
AcDbDictionary
280
     1
281
     1
  3
ACAD_XREC_ROUNDTRIP
360
1488
  0
DICTIONARY
  5
1489
330
1430
100
AcDbDictionary
280
     1
281
     1
  3
ACAD_XREC_ROUNDTRIP
360
148A
  0
DICTIONARY
  5
148B
330
1431
100
AcDbDictionary
280
     1
281
     1
  3
ACAD_XREC_ROUNDTRIP
360
148C
  0
DICTIONARY
  5
148D
330
1432
100
AcDbDictionary
280
     1
281
     1
  3
ACAD_XREC_ROUNDTRIP
360
148E
  0
DICTIONARY
  5
1495
330
1436
100
AcDbDictionary
280
     1
281
     1
  3
ACAD_XREC_ROUNDTRIP
360
1496
  0
DICTIONARY
  5
14B1
330
1444
100
AcDbDictionary
280
     1
281
     1
  3
ACAD_XREC_ROUNDTRIP
360
14B2
  0
DICTIONARY
  5
14A1
330
143C
100
AcDbDictionary
280
     1
281
     1
  3
ACAD_XREC_ROUNDTRIP
360
14A2
  0
DICTIONARY
  5
14B3
330
1445
100
AcDbDictionary
280
     1
281
     1
  3
ACAD_XREC_ROUNDTRIP
360
14B4
  0
DICTIONARY
  5
1499
330
1438
100
AcDbDictionary
280
     1
281
     1
  3
ACAD_XREC_ROUNDTRIP
360
149A
  0
DICTIONARY
  5
14AF
330
1443
100
AcDbDictionary
280
     1
281
     1
  3
ACAD_XREC_ROUNDTRIP
360
14B0
  0
DICTIONARY
  5
14AD
330
1442
100
AcDbDictionary
280
     1
281
     1
  3
ACAD_XREC_ROUNDTRIP
360
14AE
  0
DICTIONARY
  5
14A7
330
143F
100
AcDbDictionary
280
     1
281
     1
  3
ACAD_XREC_ROUNDTRIP
360
14A8
  0
DICTIONARY
  5
14A9
330
1440
100
AcDbDictionary
280
     1
281
     1
  3
ACAD_XREC_ROUNDTRIP
360
14AA
  0
DICTIONARY
  5
149F
330
143B
100
AcDbDictionary
280
     1
281
     1
  3
ACAD_XREC_ROUNDTRIP
360
14A0
  0
DICTIONARY
  5
1493
330
1435
100
AcDbDictionary
280
     1
281
     1
  3
ACAD_XREC_ROUNDTRIP
360
1494
  0
DICTIONARY
  5
14AB
330
1441
100
AcDbDictionary
280
     1
281
     1
  3
ACAD_XREC_ROUNDTRIP
360
14AC
  0
XRECORD
  5
14BC
102
{ACAD_REACTORS
330
14BB
102
}
330
14BB
100
AcDbXrecord
280
     1
102
DISPLAYNAME
  1
Imperial24
102
FLAGS
 90
        0
  0
XRECORD
  5
14BE
102
{ACAD_REACTORS
330
14BD
102
}
330
14BD
100
AcDbXrecord
280
     1
102
SHADEPLOT
 70
     0
102
SHADEPLOTRESLEVEL
 70
     2
102
SHADEPLOTCUSTOMDPI
 70
   300
  0
XRECORD
  5
14C0
102
{ACAD_REACTORS
330
14BF
102
}
330
14BF
100
AcDbXrecord
280
     1
102
SHADEPLOT
 70
     0
102
SHADEPLOTRESLEVEL
 70
     2
102
SHADEPLOTCUSTOMDPI
 70
   300
  0
XRECORD
  5
1485
102
{ACAD_REACTORS
330
141F
102
}
330
141F
100
AcDbXrecord
280
     1
102
MATERIAL
148
0.0
149
0.0
149
0.0
 93
        0
 94
      127
282
     0
 72
     0
 77
     0
171
     0
175
     0
179
     0
273
     0
  0
XRECORD
  5
1421
102
{ACAD_REACTORS
330
141F
102
}
330
141F
100
AcDbXrecord
280
     1
270
     1
271
     1
  0
XRECORD
  5
1420
102
{ACAD_REACTORS
330
141F
102
}
330
141F
100
AcDbXrecord
280
     1
270
     1
271
     1
  0
XRECORD
  5
1424
102
{ACAD_REACTORS
330
141F
102
}
330
141F
100
AcDbXrecord
280
     1
270
     1
271
     1
  0
XRECORD
  5
1423
102
{ACAD_REACTORS
330
141F
102
}
330
141F
100
AcDbXrecord
280
     1
270
     1
271
     1
  0
XRECORD
  5
1425
102
{ACAD_REACTORS
330
141F
102
}
330
141F
100
AcDbXrecord
280
     1
270
     1
271
     1
  0
XRECORD
  5
1422
102
{ACAD_REACTORS
330
141F
102
}
330
141F
100
AcDbXrecord
280
     1
270
     1
271
     1
  0
XRECORD
  5
1484
102
{ACAD_REACTORS
330
1417
102
}
330
1417
100
AcDbXrecord
280
     1
102
MATERIAL
148
0.0
149
0.0
149
0.0
 93
        0
 94
      127
282
     0
 72
     0
 77
     0
171
     0
175
     0
179
     0
273
     0
  0
XRECORD
  5
1419
102
{ACAD_REACTORS
330
1417
102
}
330
1417
100
AcDbXrecord
280
     1
270
     1
271
     1
  0
XRECORD
  5
1418
102
{ACAD_REACTORS
330
1417
102
}
330
1417
100
AcDbXrecord
280
     1
270
     1
271
     1
  0
XRECORD
  5
141C
102
{ACAD_REACTORS
330
1417
102
}
330
1417
100
AcDbXrecord
280
     1
270
     1
271
     1
  0
XRECORD
  5
141B
102
{ACAD_REACTORS
330
1417
102
}
330
1417
100
AcDbXrecord
280
     1
270
     1
271
     1
  0
XRECORD
  5
141D
102
{ACAD_REACTORS
330
1417
102
}
330
1417
100
AcDbXrecord
280
     1
270
     1
271
     1
  0
XRECORD
  5
141A
102
{ACAD_REACTORS
330
1417
102
}
330
1417
100
AcDbXrecord
280
     1
270
     1
271
     1
  0
XRECORD
  5
1486
102
{ACAD_REACTORS
330
1427
102
}
330
1427
100
AcDbXrecord
280
     1
102
MATERIAL
148
0.0
149
0.0
149
0.0
 93
        0
 94
      127
282
     0
 72
     0
 77
     0
171
     0
175
     0
179
     0
273
     0
  0
XRECORD
  5
1429
102
{ACAD_REACTORS
330
1427
102
}
330
1427
100
AcDbXrecord
280
     1
270
     1
271
     1
  0
XRECORD
  5
1428
102
{ACAD_REACTORS
330
1427
102
}
330
1427
100
AcDbXrecord
280
     1
270
     1
271
     1
  0
XRECORD
  5
142C
102
{ACAD_REACTORS
330
1427
102
}
330
1427
100
AcDbXrecord
280
     1
270
     1
271
     1
  0
XRECORD
  5
142B
102
{ACAD_REACTORS
330
1427
102
}
330
1427
100
AcDbXrecord
280
     1
270
     1
271
     1
  0
XRECORD
  5
142D
102
{ACAD_REACTORS
330
1427
102
}
330
1427
100
AcDbXrecord
280
     1
270
     1
271
     1
  0
XRECORD
  5
142A
102
{ACAD_REACTORS
330
1427
102
}
330
1427
100
AcDbXrecord
280
     1
270
     1
271
     1
  0
XRECORD
  5
14BA
102
{ACAD_REACTORS
330
14B9
102
}
330
14B9
100
AcDbXrecord
280
     1
102
DISPLAYNAME
  1
Imperial24
102
FLAGS
 90
        0
  0
CELLSTYLEMAP
  5
1481
102
{ACAD_REACTORS
330
1480
102
}
330
1480
100
AcDbCellStyleMap
 90
        3
300
CELLSTYLE
  1
TABLEFORMAT_BEGIN
 90
        5
170
     1
 91
        0
 92
    32768
 62
   257
 93
        1
300
CONTENTFORMAT
  1
CONTENTFORMAT_BEGIN
 90
        0
 91
        0
 92
      512
 93
        0
300

 40
0.0
140
1.0
 94
        5
 62
     0
340
F0B
144
0.25
309
CONTENTFORMAT_END
171
     0
 94
        0
309
TABLEFORMAT_END
  1
CELLSTYLE_BEGIN
 90
        1
 91
        1
300
_TITLE
309
CELLSTYLE_END
300
CELLSTYLE
  1
TABLEFORMAT_BEGIN
 90
        5
170
     1
 91
        0
 92
        0
 62
   257
 93
        1
300
CONTENTFORMAT
  1
CONTENTFORMAT_BEGIN
 90
        0
 91
        0
 92
      512
 93
        0
300

 40
0.0
140
1.0
 94
        5
 62
     0
340
F0B
144
0.18
309
CONTENTFORMAT_END
171
     0
 94
        0
309
TABLEFORMAT_END
  1
CELLSTYLE_BEGIN
 90
        2
 91
        1
300
_HEADER
309
CELLSTYLE_END
300
CELLSTYLE
  1
TABLEFORMAT_BEGIN
 90
        5
170
     1
 91
        0
 92
        0
 62
   257
 93
        1
300
CONTENTFORMAT
  1
CONTENTFORMAT_BEGIN
 90
        0
 91
        0
 92
      512
 93
        0
300

 40
0.0
140
1.0
 94
        2
 62
     0
340
F0B
144
0.18
309
CONTENTFORMAT_END
171
     0
 94
        0
309
TABLEFORMAT_END
  1
CELLSTYLE_BEGIN
 90
        3
 91
        2
300
_DATA
309
CELLSTYLE_END
  0
XRECORD
  5
14B7
102
{ACAD_REACTORS
330
1480
102
}
330
1480
100
AcDbXrecord
280
     1
102
ACAD_ROUNDTRIP_PRE2007_TABLESTYLE
 90
      512
 91
        0
  1

 92
      512
 93
        0
  2

 94
      512
 95
        0
  3

  0
XRECORD
  5
1492
102
{ACAD_REACTORS
330
1491
102
}
330
1491
100
AcDbXrecord
280
     1
102
RTVSPost2010Prop28
280
     1
102
RTVSPost2010PropOp28
 70
     1
102
RTVSPost2010Prop29
280
     1
102
RTVSPost2010PropOp29
 70
     1
102
RTVSPost2010Prop30
280
     0
102
RTVSPost2010PropOp30
 70
     1
102
RTVSPost2010Prop31
280
     0
102
RTVSPost2010PropOp31
 70
     1
102
RTVSPost2010Prop32
280
     0
102
RTVSPost2010PropOp32
 70
     1
102
RTVSPost2010Prop33
280
     0
102
RTVSPost2010PropOp33
 70
     1
102
RTVSPost2010Prop34
280
     0
102
RTVSPost2010PropOp34
 70
     1
102
RTVSPost2010Prop35
280
     0
102
RTVSPost2010PropOp35
 70
     1
102
RTVSPost2010Prop36
280
     0
102
RTVSPost2010PropOp36
 70
     1
102
RTVSPost2010Prop37
 90
       50
102
RTVSPost2010PropOp37
 70
     1
102
RTVSPost2010Prop38
140
0.0
102
RTVSPost2010PropOp38
 70
     1
102
RTVSPost2010Prop39
140
1.0
102
RTVSPost2010PropOp39
 70
     1
102
RTVSPost2010Prop40
 90
        0
102
RTVSPost2010PropOp40
 70
     1
102
RTVSPost2010Prop41ColorIndex
 90
       18
102
RTVSPost2010Prop41ColorRGB
 90
        0
102
RTVSPost2010PropOp41
 70
     1
102
RTVSPost2010Prop42
 90
       50
102
RTVSPost2010PropOp42
 70
     1
102
RTVSPost2010Prop43
 90
        3
102
RTVSPost2010PropOp43
 70
     1
102
RTVSPost2010Prop44ColorIndex
 90
        5
102
RTVSPost2010Prop44ColorRGB
 90
      255
102
RTVSPost2010PropOp44
 70
     1
102
RTVSPost2010Prop45
280
     0
102
RTVSPost2010PropOp45
 70
     1
102
RTVSPost2010Prop46
 90
       50
102
RTVSPost2010PropOp46
 70
     1
102
RTVSPost2010Prop47
 90
       50
102
RTVSPost2010PropOp47
 70
     1
102
RTVSPost2010Prop48
 90
       50
102
RTVSPost2010PropOp48
 70
     1
102
RTVSPost2010Prop49
280
     0
102
RTVSPost2010PropOp49
 70
     1
102
RTVSPost2010Prop50
 90
       50
102
RTVSPost2010PropOp50
 70
     1
102
RTVSPost2010Prop51ColorIndex
 90
      256
102
RTVSPost2010Prop51ColorRGB
 90
-16777216
102
RTVSPost2010PropOp51
 70
     0
102
RTVSPost2010Prop52
140
1.0
102
RTVSPost2010PropOp52
 70
     0
102
RTVSPost2010Prop53
 90
        2
102
RTVSPost2010PropOp53
 70
     1
102
RTVSPost2010Prop54
  1
strokes_ogs.tif
102
RTVSPost2010PropOp54
 70
     1
102
RTVSPost2010Prop55
280
     0
102
RTVSPost2010PropOp55
 70
     1
102
RTVSPost2010Prop56
140
1.0
102
RTVSPost2010PropOp56
 70
     1
102
RTVSPost2010Prop57
140
1.0
102
RTVSPost2010PropOp57
 70
     1
102
RTVSPropertyOp0
 70
     1
102
RTVSPropertyOp1
 70
     1
102
RTVSPropertyOp2
 70
     1
102
RTVSPropertyOp3
 70
     1
102
RTVSPropertyOp4
 70
     1
102
RTVSPropertyOp5
 70
     1
102
RTVSPropertyOp6
 70
     1
102
RTVSPropertyOp7
 70
     1
102
RTVSPropertyOp8
 70
     1
102
RTVSPropertyOp9
 70
     1
102
RTVSPropertyOp10
 70
     1
102
RTVSPropertyOp11
 70
     1
102
RTVSPropertyOp12
 70
     1
102
RTVSPropertyOp13
 70
     1
102
RTVSPropertyOp14
 70
     1
102
RTVSPropertyOp15
 70
     1
102
RTVSPropertyOp16
 70
     1
102
RTVSPropertyOp17
 70
     1
102
RTVSPropertyOp18
 70
     1
102
RTVSPropertyOp19
 70
     1
102
RTVSPropertyOp20
 70
     1
102
RTVSPropertyOp21
 70
     1
102
RTVSPropertyOp22
 70
     1
102
RTVSPropertyOp23
 70
     1
102
RTVSPropertyOp24
 70
     1
102
RTVSPropertyOp25
 70
     1
102
RTVSPropertyOp26
 70
     1
102
RTVSPropertyOp27
 70
     1
102
RTVSPropertyOp28
 70
     1
102
RTVSPropertyOp29
 70
     1
102
RTVSPropertyOp30
 70
     1
102
RTVSPropertyOp31
 70
     1
102
RTVSPropertyOp32
 70
     1
102
RTVSPropertyOp33
 70
     1
102
RTVSPropertyOp34
 70
     1
102
RTVSPropertyOp35
 70
     1
102
RTVSPropertyOp36
 70
     1
102
RTVSPropertyOp37
 70
     1
102
RTVSPropertyOp38
 70
     1
102
RTVSPropertyOp39
 70
     1
102
RTVSPropertyOp40
 70
     1
102
RTVSPropertyOp41
 70
     1
102
RTVSPropertyOp42
 70
     1
102
RTVSPropertyOp43
 70
     1
102
RTVSPropertyOp44
 70
     1
102
RTVSPropertyOp45
 70
     1
102
RTVSPropertyOp46
 70
     1
102
RTVSPropertyOp47
 70
     1
102
RTVSPropertyOp48
 70
     1
102
RTVSPropertyOp49
 70
     1
102
RTVSPropertyOp50
 70
     1
102
RTVSPropertyOp51
 70
     0
102
RTVSPropertyOp52
 70
     0
102
RTVSPropertyOp53
 70
     1
102
RTVSPropertyOp54
 70
     1
102
RTVSPropertyOp55
 70
     1
102
RTVSPropertyOp56
 70
     1
102
RTVSPropertyOp57
 70
     1
102
RTVSPropertyOp58
 70
     1
102
RTVSPropertyOp59
 70
     1
102
RTVSPropertyOp60
 70
     1
102
RTVSPropertyOp61
 70
     1
102
RTVSPropertyOp62
 70
     1
  0
XRECORD
  5
1490
102
{ACAD_REACTORS
330
148F
102
}
330
148F
100
AcDbXrecord
280
     1
102
RTVSPost2010Prop28
280
     0
102
RTVSPost2010PropOp28
 70
     1
102
RTVSPost2010Prop29
280
     1
102
RTVSPost2010PropOp29
 70
     1
102
RTVSPost2010Prop30
280
     1
102
RTVSPost2010PropOp30
 70
     1
102
RTVSPost2010Prop31
280
     0
102
RTVSPost2010PropOp31
 70
     1
102
RTVSPost2010Prop32
280
     0
102
RTVSPost2010PropOp32
 70
     1
102
RTVSPost2010Prop33
280
     0
102
RTVSPost2010PropOp33
 70
     1
102
RTVSPost2010Prop34
280
     0
102
RTVSPost2010PropOp34
 70
     1
102
RTVSPost2010Prop35
280
     0
102
RTVSPost2010PropOp35
 70
     1
102
RTVSPost2010Prop36
280
     0
102
RTVSPost2010PropOp36
 70
     1
102
RTVSPost2010Prop37
 90
       50
102
RTVSPost2010PropOp37
 70
     1
102
RTVSPost2010Prop38
140
0.0
102
RTVSPost2010PropOp38
 70
     1
102
RTVSPost2010Prop39
140
1.0
102
RTVSPost2010PropOp39
 70
     1
102
RTVSPost2010Prop40
 90
        0
102
RTVSPost2010PropOp40
 70
     1
102
RTVSPost2010Prop41ColorIndex
 90
       18
102
RTVSPost2010Prop41ColorRGB
 90
        0
102
RTVSPost2010PropOp41
 70
     1
102
RTVSPost2010Prop42
 90
       50
102
RTVSPost2010PropOp42
 70
     1
102
RTVSPost2010Prop43
 90
        3
102
RTVSPost2010PropOp43
 70
     1
102
RTVSPost2010Prop44ColorIndex
 90
        5
102
RTVSPost2010Prop44ColorRGB
 90
      255
102
RTVSPost2010PropOp44
 70
     1
102
RTVSPost2010Prop45
280
     0
102
RTVSPost2010PropOp45
 70
     1
102
RTVSPost2010Prop46
 90
       50
102
RTVSPost2010PropOp46
 70
     1
102
RTVSPost2010Prop47
 90
       50
102
RTVSPost2010PropOp47
 70
     1
102
RTVSPost2010Prop48
 90
       50
102
RTVSPost2010PropOp48
 70
     1
102
RTVSPost2010Prop49
280
     0
102
RTVSPost2010PropOp49
 70
     1
102
RTVSPost2010Prop50
 90
       50
102
RTVSPost2010PropOp50
 70
     1
102
RTVSPost2010Prop51ColorIndex
 90
      256
102
RTVSPost2010Prop51ColorRGB
 90
-16777216
102
RTVSPost2010PropOp51
 70
     0
102
RTVSPost2010Prop52
140
1.0
102
RTVSPost2010PropOp52
 70
     0
102
RTVSPost2010Prop53
 90
        2
102
RTVSPost2010PropOp53
 70
     1
102
RTVSPost2010Prop54
  1
strokes_ogs.tif
102
RTVSPost2010PropOp54
 70
     1
102
RTVSPost2010Prop55
280
     0
102
RTVSPost2010PropOp55
 70
     1
102
RTVSPost2010Prop56
140
1.0
102
RTVSPost2010PropOp56
 70
     1
102
RTVSPost2010Prop57
140
1.0
102
RTVSPost2010PropOp57
 70
     1
102
RTVSPropertyOp0
 70
     1
102
RTVSPropertyOp1
 70
     1
102
RTVSPropertyOp2
 70
     1
102
RTVSPropertyOp3
 70
     1
102
RTVSPropertyOp4
 70
     1
102
RTVSPropertyOp5
 70
     1
102
RTVSPropertyOp6
 70
     1
102
RTVSPropertyOp7
 70
     1
102
RTVSPropertyOp8
 70
     1
102
RTVSPropertyOp9
 70
     1
102
RTVSPropertyOp10
 70
     1
102
RTVSPropertyOp11
 70
     1
102
RTVSPropertyOp12
 70
     1
102
RTVSPropertyOp13
 70
     1
102
RTVSPropertyOp14
 70
     1
102
RTVSPropertyOp15
 70
     1
102
RTVSPropertyOp16
 70
     1
102
RTVSPropertyOp17
 70
     1
102
RTVSPropertyOp18
 70
     1
102
RTVSPropertyOp19
 70
     1
102
RTVSPropertyOp20
 70
     1
102
RTVSPropertyOp21
 70
     1
102
RTVSPropertyOp22
 70
     1
102
RTVSPropertyOp23
 70
     1
102
RTVSPropertyOp24
 70
     1
102
RTVSPropertyOp25
 70
     1
102
RTVSPropertyOp26
 70
     1
102
RTVSPropertyOp27
 70
     1
102
RTVSPropertyOp28
 70
     1
102
RTVSPropertyOp29
 70
     1
102
RTVSPropertyOp30
 70
     1
102
RTVSPropertyOp31
 70
     1
102
RTVSPropertyOp32
 70
     1
102
RTVSPropertyOp33
 70
     1
102
RTVSPropertyOp34
 70
     1
102
RTVSPropertyOp35
 70
     1
102
RTVSPropertyOp36
 70
     1
102
RTVSPropertyOp37
 70
     1
102
RTVSPropertyOp38
 70
     1
102
RTVSPropertyOp39
 70
     1
102
RTVSPropertyOp40
 70
     1
102
RTVSPropertyOp41
 70
     1
102
RTVSPropertyOp42
 70
     1
102
RTVSPropertyOp43
 70
     1
102
RTVSPropertyOp44
 70
     1
102
RTVSPropertyOp45
 70
     1
102
RTVSPropertyOp46
 70
     1
102
RTVSPropertyOp47
 70
     1
102
RTVSPropertyOp48
 70
     1
102
RTVSPropertyOp49
 70
     1
102
RTVSPropertyOp50
 70
     1
102
RTVSPropertyOp51
 70
     0
102
RTVSPropertyOp52
 70
     0
102
RTVSPropertyOp53
 70
     1
102
RTVSPropertyOp54
 70
     1
102
RTVSPropertyOp55
 70
     1
102
RTVSPropertyOp56
 70
     1
102
RTVSPropertyOp57
 70
     1
102
RTVSPropertyOp58
 70
     1
102
RTVSPropertyOp59
 70
     1
102
RTVSPropertyOp60
 70
     1
102
RTVSPropertyOp61
 70
     1
102
RTVSPropertyOp62
 70
     1
  0
XRECORD
  5
149E
102
{ACAD_REACTORS
330
149D
102
}
330
149D
100
AcDbXrecord
280
     1
102
RTVSPost2010Prop28
280
     0
102
RTVSPost2010PropOp28
 70
     1
102
RTVSPost2010Prop29
280
     1
102
RTVSPost2010PropOp29
 70
     1
102
RTVSPost2010Prop30
280
     1
102
RTVSPost2010PropOp30
 70
     1
102
RTVSPost2010Prop31
280
     0
102
RTVSPost2010PropOp31
 70
     1
102
RTVSPost2010Prop32
280
     0
102
RTVSPost2010PropOp32
 70
     1
102
RTVSPost2010Prop33
280
     0
102
RTVSPost2010PropOp33
 70
     1
102
RTVSPost2010Prop34
280
     0
102
RTVSPost2010PropOp34
 70
     1
102
RTVSPost2010Prop35
280
     0
102
RTVSPost2010PropOp35
 70
     1
102
RTVSPost2010Prop36
280
     0
102
RTVSPost2010PropOp36
 70
     1
102
RTVSPost2010Prop37
 90
       50
102
RTVSPost2010PropOp37
 70
     1
102
RTVSPost2010Prop38
140
0.0
102
RTVSPost2010PropOp38
 70
     1
102
RTVSPost2010Prop39
140
1.0
102
RTVSPost2010PropOp39
 70
     1
102
RTVSPost2010Prop40
 90
        0
102
RTVSPost2010PropOp40
 70
     1
102
RTVSPost2010Prop41ColorIndex
 90
       18
102
RTVSPost2010Prop41ColorRGB
 90
        0
102
RTVSPost2010PropOp41
 70
     1
102
RTVSPost2010Prop42
 90
       50
102
RTVSPost2010PropOp42
 70
     1
102
RTVSPost2010Prop43
 90
        3
102
RTVSPost2010PropOp43
 70
     1
102
RTVSPost2010Prop44ColorIndex
 90
        5
102
RTVSPost2010Prop44ColorRGB
 90
      255
102
RTVSPost2010PropOp44
 70
     1
102
RTVSPost2010Prop45
280
     0
102
RTVSPost2010PropOp45
 70
     1
102
RTVSPost2010Prop46
 90
       50
102
RTVSPost2010PropOp46
 70
     1
102
RTVSPost2010Prop47
 90
       50
102
RTVSPost2010PropOp47
 70
     1
102
RTVSPost2010Prop48
 90
       50
102
RTVSPost2010PropOp48
 70
     1
102
RTVSPost2010Prop49
280
     0
102
RTVSPost2010PropOp49
 70
     1
102
RTVSPost2010Prop50
 90
       50
102
RTVSPost2010PropOp50
 70
     1
102
RTVSPost2010Prop51ColorIndex
 90
      256
102
RTVSPost2010Prop51ColorRGB
 90
-16777216
102
RTVSPost2010PropOp51
 70
     0
102
RTVSPost2010Prop52
140
1.0
102
RTVSPost2010PropOp52
 70
     0
102
RTVSPost2010Prop53
 90
        2
102
RTVSPost2010PropOp53
 70
     1
102
RTVSPost2010Prop54
  1
strokes_ogs.tif
102
RTVSPost2010PropOp54
 70
     1
102
RTVSPost2010Prop55
280
     0
102
RTVSPost2010PropOp55
 70
     1
102
RTVSPost2010Prop56
140
1.0
102
RTVSPost2010PropOp56
 70
     1
102
RTVSPost2010Prop57
140
1.0
102
RTVSPost2010PropOp57
 70
     1
102
RTVSPropertyOp0
 70
     1
102
RTVSPropertyOp1
 70
     1
102
RTVSPropertyOp2
 70
     1
102
RTVSPropertyOp3
 70
     1
102
RTVSPropertyOp4
 70
     1
102
RTVSPropertyOp5
 70
     1
102
RTVSPropertyOp6
 70
     1
102
RTVSPropertyOp7
 70
     1
102
RTVSPropertyOp8
 70
     1
102
RTVSPropertyOp9
 70
     1
102
RTVSPropertyOp10
 70
     1
102
RTVSPropertyOp11
 70
     1
102
RTVSPropertyOp12
 70
     1
102
RTVSPropertyOp13
 70
     1
102
RTVSPropertyOp14
 70
     1
102
RTVSPropertyOp15
 70
     1
102
RTVSPropertyOp16
 70
     1
102
RTVSPropertyOp17
 70
     1
102
RTVSPropertyOp18
 70
     1
102
RTVSPropertyOp19
 70
     1
102
RTVSPropertyOp20
 70
     1
102
RTVSPropertyOp21
 70
     1
102
RTVSPropertyOp22
 70
     1
102
RTVSPropertyOp23
 70
     1
102
RTVSPropertyOp24
 70
     1
102
RTVSPropertyOp25
 70
     1
102
RTVSPropertyOp26
 70
     1
102
RTVSPropertyOp27
 70
     1
102
RTVSPropertyOp28
 70
     1
102
RTVSPropertyOp29
 70
     1
102
RTVSPropertyOp30
 70
     1
102
RTVSPropertyOp31
 70
     1
102
RTVSPropertyOp32
 70
     1
102
RTVSPropertyOp33
 70
     1
102
RTVSPropertyOp34
 70
     1
102
RTVSPropertyOp35
 70
     1
102
RTVSPropertyOp36
 70
     1
102
RTVSPropertyOp37
 70
     1
102
RTVSPropertyOp38
 70
     1
102
RTVSPropertyOp39
 70
     1
102
RTVSPropertyOp40
 70
     1
102
RTVSPropertyOp41
 70
     1
102
RTVSPropertyOp42
 70
     1
102
RTVSPropertyOp43
 70
     1
102
RTVSPropertyOp44
 70
     1
102
RTVSPropertyOp45
 70
     1
102
RTVSPropertyOp46
 70
     1
102
RTVSPropertyOp47
 70
     1
102
RTVSPropertyOp48
 70
     1
102
RTVSPropertyOp49
 70
     1
102
RTVSPropertyOp50
 70
     1
102
RTVSPropertyOp51
 70
     0
102
RTVSPropertyOp52
 70
     0
102
RTVSPropertyOp53
 70
     1
102
RTVSPropertyOp54
 70
     1
102
RTVSPropertyOp55
 70
     1
102
RTVSPropertyOp56
 70
     1
102
RTVSPropertyOp57
 70
     1
102
RTVSPropertyOp58
 70
     1
102
RTVSPropertyOp59
 70
     1
102
RTVSPropertyOp60
 70
     1
102
RTVSPropertyOp61
 70
     1
102
RTVSPropertyOp62
 70
     1
  0
XRECORD
  5
14A6
102
{ACAD_REACTORS
330
14A5
102
}
330
14A5
100
AcDbXrecord
280
     1
102
RTVSPost2010Prop28
280
     0
102
RTVSPost2010PropOp28
 70
     1
102
RTVSPost2010Prop29
280
     1
102
RTVSPost2010PropOp29
 70
     1
102
RTVSPost2010Prop30
280
     1
102
RTVSPost2010PropOp30
 70
     1
102
RTVSPost2010Prop31
280
     0
102
RTVSPost2010PropOp31
 70
     1
102
RTVSPost2010Prop32
280
     0
102
RTVSPost2010PropOp32
 70
     1
102
RTVSPost2010Prop33
280
     0
102
RTVSPost2010PropOp33
 70
     1
102
RTVSPost2010Prop34
280
     0
102
RTVSPost2010PropOp34
 70
     1
102
RTVSPost2010Prop35
280
     0
102
RTVSPost2010PropOp35
 70
     1
102
RTVSPost2010Prop36
280
     0
102
RTVSPost2010PropOp36
 70
     1
102
RTVSPost2010Prop37
 90
       50
102
RTVSPost2010PropOp37
 70
     1
102
RTVSPost2010Prop38
140
0.0
102
RTVSPost2010PropOp38
 70
     1
102
RTVSPost2010Prop39
140
1.0
102
RTVSPost2010PropOp39
 70
     1
102
RTVSPost2010Prop40
 90
        0
102
RTVSPost2010PropOp40
 70
     1
102
RTVSPost2010Prop41ColorIndex
 90
       18
102
RTVSPost2010Prop41ColorRGB
 90
        0
102
RTVSPost2010PropOp41
 70
     1
102
RTVSPost2010Prop42
 90
       50
102
RTVSPost2010PropOp42
 70
     1
102
RTVSPost2010Prop43
 90
        3
102
RTVSPost2010PropOp43
 70
     1
102
RTVSPost2010Prop44ColorIndex
 90
        5
102
RTVSPost2010Prop44ColorRGB
 90
      255
102
RTVSPost2010PropOp44
 70
     1
102
RTVSPost2010Prop45
280
     0
102
RTVSPost2010PropOp45
 70
     1
102
RTVSPost2010Prop46
 90
       50
102
RTVSPost2010PropOp46
 70
     1
102
RTVSPost2010Prop47
 90
       50
102
RTVSPost2010PropOp47
 70
     1
102
RTVSPost2010Prop48
 90
       50
102
RTVSPost2010PropOp48
 70
     1
102
RTVSPost2010Prop49
280
     0
102
RTVSPost2010PropOp49
 70
     1
102
RTVSPost2010Prop50
 90
       50
102
RTVSPost2010PropOp50
 70
     1
102
RTVSPost2010Prop51ColorIndex
 90
      256
102
RTVSPost2010Prop51ColorRGB
 90
-16777216
102
RTVSPost2010PropOp51
 70
     0
102
RTVSPost2010Prop52
140
1.0
102
RTVSPost2010PropOp52
 70
     0
102
RTVSPost2010Prop53
 90
        2
102
RTVSPost2010PropOp53
 70
     1
102
RTVSPost2010Prop54
  1
strokes_ogs.tif
102
RTVSPost2010PropOp54
 70
     1
102
RTVSPost2010Prop55
280
     0
102
RTVSPost2010PropOp55
 70
     1
102
RTVSPost2010Prop56
140
1.0
102
RTVSPost2010PropOp56
 70
     1
102
RTVSPost2010Prop57
140
1.0
102
RTVSPost2010PropOp57
 70
     1
102
RTVSPropertyOp0
 70
     1
102
RTVSPropertyOp1
 70
     1
102
RTVSPropertyOp2
 70
     1
102
RTVSPropertyOp3
 70
     1
102
RTVSPropertyOp4
 70
     1
102
RTVSPropertyOp5
 70
     1
102
RTVSPropertyOp6
 70
     1
102
RTVSPropertyOp7
 70
     1
102
RTVSPropertyOp8
 70
     1
102
RTVSPropertyOp9
 70
     1
102
RTVSPropertyOp10
 70
     1
102
RTVSPropertyOp11
 70
     1
102
RTVSPropertyOp12
 70
     1
102
RTVSPropertyOp13
 70
     1
102
RTVSPropertyOp14
 70
     1
102
RTVSPropertyOp15
 70
     1
102
RTVSPropertyOp16
 70
     1
102
RTVSPropertyOp17
 70
     1
102
RTVSPropertyOp18
 70
     1
102
RTVSPropertyOp19
 70
     1
102
RTVSPropertyOp20
 70
     1
102
RTVSPropertyOp21
 70
     1
102
RTVSPropertyOp22
 70
     1
102
RTVSPropertyOp23
 70
     1
102
RTVSPropertyOp24
 70
     1
102
RTVSPropertyOp25
 70
     1
102
RTVSPropertyOp26
 70
     1
102
RTVSPropertyOp27
 70
     1
102
RTVSPropertyOp28
 70
     1
102
RTVSPropertyOp29
 70
     1
102
RTVSPropertyOp30
 70
     1
102
RTVSPropertyOp31
 70
     1
102
RTVSPropertyOp32
 70
     1
102
RTVSPropertyOp33
 70
     1
102
RTVSPropertyOp34
 70
     1
102
RTVSPropertyOp35
 70
     1
102
RTVSPropertyOp36
 70
     1
102
RTVSPropertyOp37
 70
     1
102
RTVSPropertyOp38
 70
     1
102
RTVSPropertyOp39
 70
     1
102
RTVSPropertyOp40
 70
     1
102
RTVSPropertyOp41
 70
     1
102
RTVSPropertyOp42
 70
     1
102
RTVSPropertyOp43
 70
     1
102
RTVSPropertyOp44
 70
     1
102
RTVSPropertyOp45
 70
     1
102
RTVSPropertyOp46
 70
     1
102
RTVSPropertyOp47
 70
     1
102
RTVSPropertyOp48
 70
     1
102
RTVSPropertyOp49
 70
     1
102
RTVSPropertyOp50
 70
     1
102
RTVSPropertyOp51
 70
     0
102
RTVSPropertyOp52
 70
     0
102
RTVSPropertyOp53
 70
     1
102
RTVSPropertyOp54
 70
     1
102
RTVSPropertyOp55
 70
     1
102
RTVSPropertyOp56
 70
     1
102
RTVSPropertyOp57
 70
     1
102
RTVSPropertyOp58
 70
     1
102
RTVSPropertyOp59
 70
     1
102
RTVSPropertyOp60
 70
     1
102
RTVSPropertyOp61
 70
     1
102
RTVSPropertyOp62
 70
     1
  0
XRECORD
  5
1498
102
{ACAD_REACTORS
330
1497
102
}
330
1497
100
AcDbXrecord
280
     1
102
RTVSPost2010Prop28
280
     0
102
RTVSPost2010PropOp28
 70
     1
102
RTVSPost2010Prop29
280
     1
102
RTVSPost2010PropOp29
 70
     1
102
RTVSPost2010Prop30
280
     1
102
RTVSPost2010PropOp30
 70
     1
102
RTVSPost2010Prop31
280
     0
102
RTVSPost2010PropOp31
 70
     1
102
RTVSPost2010Prop32
280
     0
102
RTVSPost2010PropOp32
 70
     1
102
RTVSPost2010Prop33
280
     0
102
RTVSPost2010PropOp33
 70
     1
102
RTVSPost2010Prop34
280
     0
102
RTVSPost2010PropOp34
 70
     1
102
RTVSPost2010Prop35
280
     0
102
RTVSPost2010PropOp35
 70
     1
102
RTVSPost2010Prop36
280
     0
102
RTVSPost2010PropOp36
 70
     1
102
RTVSPost2010Prop37
 90
       50
102
RTVSPost2010PropOp37
 70
     1
102
RTVSPost2010Prop38
140
0.0
102
RTVSPost2010PropOp38
 70
     1
102
RTVSPost2010Prop39
140
1.0
102
RTVSPost2010PropOp39
 70
     1
102
RTVSPost2010Prop40
 90
        0
102
RTVSPost2010PropOp40
 70
     1
102
RTVSPost2010Prop41ColorIndex
 90
       18
102
RTVSPost2010Prop41ColorRGB
 90
        0
102
RTVSPost2010PropOp41
 70
     1
102
RTVSPost2010Prop42
 90
       50
102
RTVSPost2010PropOp42
 70
     1
102
RTVSPost2010Prop43
 90
        3
102
RTVSPost2010PropOp43
 70
     1
102
RTVSPost2010Prop44ColorIndex
 90
        5
102
RTVSPost2010Prop44ColorRGB
 90
      255
102
RTVSPost2010PropOp44
 70
     1
102
RTVSPost2010Prop45
280
     0
102
RTVSPost2010PropOp45
 70
     1
102
RTVSPost2010Prop46
 90
       50
102
RTVSPost2010PropOp46
 70
     1
102
RTVSPost2010Prop47
 90
       50
102
RTVSPost2010PropOp47
 70
     1
102
RTVSPost2010Prop48
 90
       50
102
RTVSPost2010PropOp48
 70
     1
102
RTVSPost2010Prop49
280
     0
102
RTVSPost2010PropOp49
 70
     1
102
RTVSPost2010Prop50
 90
       50
102
RTVSPost2010PropOp50
 70
     1
102
RTVSPost2010Prop51ColorIndex
 90
      256
102
RTVSPost2010Prop51ColorRGB
 90
-16777216
102
RTVSPost2010PropOp51
 70
     0
102
RTVSPost2010Prop52
140
1.0
102
RTVSPost2010PropOp52
 70
     0
102
RTVSPost2010Prop53
 90
        2
102
RTVSPost2010PropOp53
 70
     1
102
RTVSPost2010Prop54
  1
strokes_ogs.tif
102
RTVSPost2010PropOp54
 70
     1
102
RTVSPost2010Prop55
280
     0
102
RTVSPost2010PropOp55
 70
     1
102
RTVSPost2010Prop56
140
1.0
102
RTVSPost2010PropOp56
 70
     1
102
RTVSPost2010Prop57
140
1.0
102
RTVSPost2010PropOp57
 70
     1
102
RTVSPropertyOp0
 70
     1
102
RTVSPropertyOp1
 70
     1
102
RTVSPropertyOp2
 70
     1
102
RTVSPropertyOp3
 70
     1
102
RTVSPropertyOp4
 70
     1
102
RTVSPropertyOp5
 70
     1
102
RTVSPropertyOp6
 70
     1
102
RTVSPropertyOp7
 70
     1
102
RTVSPropertyOp8
 70
     1
102
RTVSPropertyOp9
 70
     1
102
RTVSPropertyOp10
 70
     1
102
RTVSPropertyOp11
 70
     1
102
RTVSPropertyOp12
 70
     1
102
RTVSPropertyOp13
 70
     1
102
RTVSPropertyOp14
 70
     1
102
RTVSPropertyOp15
 70
     1
102
RTVSPropertyOp16
 70
     1
102
RTVSPropertyOp17
 70
     1
102
RTVSPropertyOp18
 70
     1
102
RTVSPropertyOp19
 70
     1
102
RTVSPropertyOp20
 70
     1
102
RTVSPropertyOp21
 70
     1
102
RTVSPropertyOp22
 70
     1
102
RTVSPropertyOp23
 70
     1
102
RTVSPropertyOp24
 70
     1
102
RTVSPropertyOp25
 70
     1
102
RTVSPropertyOp26
 70
     1
102
RTVSPropertyOp27
 70
     1
102
RTVSPropertyOp28
 70
     1
102
RTVSPropertyOp29
 70
     1
102
RTVSPropertyOp30
 70
     1
102
RTVSPropertyOp31
 70
     1
102
RTVSPropertyOp32
 70
     1
102
RTVSPropertyOp33
 70
     1
102
RTVSPropertyOp34
 70
     1
102
RTVSPropertyOp35
 70
     1
102
RTVSPropertyOp36
 70
     1
102
RTVSPropertyOp37
 70
     1
102
RTVSPropertyOp38
 70
     1
102
RTVSPropertyOp39
 70
     1
102
RTVSPropertyOp40
 70
     1
102
RTVSPropertyOp41
 70
     1
102
RTVSPropertyOp42
 70
     1
102
RTVSPropertyOp43
 70
     1
102
RTVSPropertyOp44
 70
     1
102
RTVSPropertyOp45
 70
     1
102
RTVSPropertyOp46
 70
     1
102
RTVSPropertyOp47
 70
     1
102
RTVSPropertyOp48
 70
     1
102
RTVSPropertyOp49
 70
     1
102
RTVSPropertyOp50
 70
     1
102
RTVSPropertyOp51
 70
     0
102
RTVSPropertyOp52
 70
     0
102
RTVSPropertyOp53
 70
     1
102
RTVSPropertyOp54
 70
     1
102
RTVSPropertyOp55
 70
     1
102
RTVSPropertyOp56
 70
     1
102
RTVSPropertyOp57
 70
     1
102
RTVSPropertyOp58
 70
     1
102
RTVSPropertyOp59
 70
     1
102
RTVSPropertyOp60
 70
     1
102
RTVSPropertyOp61
 70
     1
102
RTVSPropertyOp62
 70
     1
  0
XRECORD
  5
149C
102
{ACAD_REACTORS
330
149B
102
}
330
149B
100
AcDbXrecord
280
     1
102
RTVSPost2010Prop28
280
     0
102
RTVSPost2010PropOp28
 70
     1
102
RTVSPost2010Prop29
280
     1
102
RTVSPost2010PropOp29
 70
     1
102
RTVSPost2010Prop30
280
     1
102
RTVSPost2010PropOp30
 70
     1
102
RTVSPost2010Prop31
280
     0
102
RTVSPost2010PropOp31
 70
     1
102
RTVSPost2010Prop32
280
     0
102
RTVSPost2010PropOp32
 70
     1
102
RTVSPost2010Prop33
280
     0
102
RTVSPost2010PropOp33
 70
     1
102
RTVSPost2010Prop34
280
     0
102
RTVSPost2010PropOp34
 70
     1
102
RTVSPost2010Prop35
280
     0
102
RTVSPost2010PropOp35
 70
     1
102
RTVSPost2010Prop36
280
     0
102
RTVSPost2010PropOp36
 70
     1
102
RTVSPost2010Prop37
 90
       50
102
RTVSPost2010PropOp37
 70
     1
102
RTVSPost2010Prop38
140
0.0
102
RTVSPost2010PropOp38
 70
     1
102
RTVSPost2010Prop39
140
1.0
102
RTVSPost2010PropOp39
 70
     1
102
RTVSPost2010Prop40
 90
        0
102
RTVSPost2010PropOp40
 70
     1
102
RTVSPost2010Prop41ColorIndex
 90
       18
102
RTVSPost2010Prop41ColorRGB
 90
        0
102
RTVSPost2010PropOp41
 70
     1
102
RTVSPost2010Prop42
 90
       50
102
RTVSPost2010PropOp42
 70
     1
102
RTVSPost2010Prop43
 90
        3
102
RTVSPost2010PropOp43
 70
     1
102
RTVSPost2010Prop44ColorIndex
 90
        5
102
RTVSPost2010Prop44ColorRGB
 90
      255
102
RTVSPost2010PropOp44
 70
     1
102
RTVSPost2010Prop45
280
     0
102
RTVSPost2010PropOp45
 70
     1
102
RTVSPost2010Prop46
 90
       50
102
RTVSPost2010PropOp46
 70
     1
102
RTVSPost2010Prop47
 90
       50
102
RTVSPost2010PropOp47
 70
     1
102
RTVSPost2010Prop48
 90
       50
102
RTVSPost2010PropOp48
 70
     1
102
RTVSPost2010Prop49
280
     0
102
RTVSPost2010PropOp49
 70
     1
102
RTVSPost2010Prop50
 90
       50
102
RTVSPost2010PropOp50
 70
     1
102
RTVSPost2010Prop51ColorIndex
 90
      256
102
RTVSPost2010Prop51ColorRGB
 90
-16777216
102
RTVSPost2010PropOp51
 70
     0
102
RTVSPost2010Prop52
140
1.0
102
RTVSPost2010PropOp52
 70
     0
102
RTVSPost2010Prop53
 90
        2
102
RTVSPost2010PropOp53
 70
     1
102
RTVSPost2010Prop54
  1
strokes_ogs.tif
102
RTVSPost2010PropOp54
 70
     1
102
RTVSPost2010Prop55
280
     0
102
RTVSPost2010PropOp55
 70
     1
102
RTVSPost2010Prop56
140
1.0
102
RTVSPost2010PropOp56
 70
     1
102
RTVSPost2010Prop57
140
1.0
102
RTVSPost2010PropOp57
 70
     1
102
RTVSPropertyOp0
 70
     1
102
RTVSPropertyOp1
 70
     1
102
RTVSPropertyOp2
 70
     1
102
RTVSPropertyOp3
 70
     1
102
RTVSPropertyOp4
 70
     1
102
RTVSPropertyOp5
 70
     1
102
RTVSPropertyOp6
 70
     1
102
RTVSPropertyOp7
 70
     1
102
RTVSPropertyOp8
 70
     1
102
RTVSPropertyOp9
 70
     1
102
RTVSPropertyOp10
 70
     1
102
RTVSPropertyOp11
 70
     1
102
RTVSPropertyOp12
 70
     1
102
RTVSPropertyOp13
 70
     1
102
RTVSPropertyOp14
 70
     1
102
RTVSPropertyOp15
 70
     1
102
RTVSPropertyOp16
 70
     1
102
RTVSPropertyOp17
 70
     1
102
RTVSPropertyOp18
 70
     1
102
RTVSPropertyOp19
 70
     1
102
RTVSPropertyOp20
 70
     1
102
RTVSPropertyOp21
 70
     1
102
RTVSPropertyOp22
 70
     1
102
RTVSPropertyOp23
 70
     1
102
RTVSPropertyOp24
 70
     1
102
RTVSPropertyOp25
 70
     1
102
RTVSPropertyOp26
 70
     1
102
RTVSPropertyOp27
 70
     1
102
RTVSPropertyOp28
 70
     1
102
RTVSPropertyOp29
 70
     1
102
RTVSPropertyOp30
 70
     1
102
RTVSPropertyOp31
 70
     1
102
RTVSPropertyOp32
 70
     1
102
RTVSPropertyOp33
 70
     1
102
RTVSPropertyOp34
 70
     1
102
RTVSPropertyOp35
 70
     1
102
RTVSPropertyOp36
 70
     1
102
RTVSPropertyOp37
 70
     1
102
RTVSPropertyOp38
 70
     1
102
RTVSPropertyOp39
 70
     1
102
RTVSPropertyOp40
 70
     1
102
RTVSPropertyOp41
 70
     1
102
RTVSPropertyOp42
 70
     1
102
RTVSPropertyOp43
 70
     1
102
RTVSPropertyOp44
 70
     1
102
RTVSPropertyOp45
 70
     1
102
RTVSPropertyOp46
 70
     1
102
RTVSPropertyOp47
 70
     1
102
RTVSPropertyOp48
 70
     1
102
RTVSPropertyOp49
 70
     1
102
RTVSPropertyOp50
 70
     1
102
RTVSPropertyOp51
 70
     0
102
RTVSPropertyOp52
 70
     0
102
RTVSPropertyOp53
 70
     1
102
RTVSPropertyOp54
 70
     1
102
RTVSPropertyOp55
 70
     1
102
RTVSPropertyOp56
 70
     1
102
RTVSPropertyOp57
 70
     1
102
RTVSPropertyOp58
 70
     1
102
RTVSPropertyOp59
 70
     1
102
RTVSPropertyOp60
 70
     1
102
RTVSPropertyOp61
 70
     1
102
RTVSPropertyOp62
 70
     1
  0
XRECORD
  5
14B6
102
{ACAD_REACTORS
330
14B5
102
}
330
14B5
100
AcDbXrecord
280
     1
102
RTVSPost2010Prop28
280
     0
102
RTVSPost2010PropOp28
 70
     1
102
RTVSPost2010Prop29
280
     1
102
RTVSPost2010PropOp29
 70
     1
102
RTVSPost2010Prop30
280
     1
102
RTVSPost2010PropOp30
 70
     1
102
RTVSPost2010Prop31
280
     0
102
RTVSPost2010PropOp31
 70
     1
102
RTVSPost2010Prop32
280
     0
102
RTVSPost2010PropOp32
 70
     1
102
RTVSPost2010Prop33
280
     0
102
RTVSPost2010PropOp33
 70
     1
102
RTVSPost2010Prop34
280
     0
102
RTVSPost2010PropOp34
 70
     1
102
RTVSPost2010Prop35
280
     0
102
RTVSPost2010PropOp35
 70
     1
102
RTVSPost2010Prop36
280
     0
102
RTVSPost2010PropOp36
 70
     1
102
RTVSPost2010Prop37
 90
       50
102
RTVSPost2010PropOp37
 70
     0
102
RTVSPost2010Prop38
140
0.0
102
RTVSPost2010PropOp38
 70
     0
102
RTVSPost2010Prop39
140
1.0
102
RTVSPost2010PropOp39
 70
     0
102
RTVSPost2010Prop40
 90
        0
102
RTVSPost2010PropOp40
 70
     0
102
RTVSPost2010Prop41ColorIndex
 90
       18
102
RTVSPost2010Prop41ColorRGB
 90
        0
102
RTVSPost2010PropOp41
 70
     0
102
RTVSPost2010Prop42
 90
       50
102
RTVSPost2010PropOp42
 70
     0
102
RTVSPost2010Prop43
 90
        3
102
RTVSPost2010PropOp43
 70
     0
102
RTVSPost2010Prop44ColorIndex
 90
        5
102
RTVSPost2010Prop44ColorRGB
 90
      255
102
RTVSPost2010PropOp44
 70
     0
102
RTVSPost2010Prop45
280
     0
102
RTVSPost2010PropOp45
 70
     1
102
RTVSPost2010Prop46
 90
       50
102
RTVSPost2010PropOp46
 70
     0
102
RTVSPost2010Prop47
 90
       50
102
RTVSPost2010PropOp47
 70
     0
102
RTVSPost2010Prop48
 90
       50
102
RTVSPost2010PropOp48
 70
     0
102
RTVSPost2010Prop49
280
     0
102
RTVSPost2010PropOp49
 70
     1
102
RTVSPost2010Prop50
 90
       50
102
RTVSPost2010PropOp50
 70
     0
102
RTVSPost2010Prop51ColorIndex
 90
      256
102
RTVSPost2010Prop51ColorRGB
 90
-16777216
102
RTVSPost2010PropOp51
 70
     0
102
RTVSPost2010Prop52
140
1.0
102
RTVSPost2010PropOp52
 70
     0
102
RTVSPost2010Prop53
 90
        2
102
RTVSPost2010PropOp53
 70
     0
102
RTVSPost2010Prop54
  1
strokes_ogs.tif
102
RTVSPost2010PropOp54
 70
     0
102
RTVSPost2010Prop55
280
     0
102
RTVSPost2010PropOp55
 70
     1
102
RTVSPost2010Prop56
140
1.0
102
RTVSPost2010PropOp56
 70
     0
102
RTVSPost2010Prop57
140
1.0
102
RTVSPost2010PropOp57
 70
     0
102
RTVSPropertyOp0
 70
     0
102
RTVSPropertyOp1
 70
     0
102
RTVSPropertyOp2
 70
     0
102
RTVSPropertyOp3
 70
     0
102
RTVSPropertyOp4
 70
     0
102
RTVSPropertyOp5
 70
     0
102
RTVSPropertyOp6
 70
     0
102
RTVSPropertyOp7
 70
     0
102
RTVSPropertyOp8
 70
     0
102
RTVSPropertyOp9
 70
     0
102
RTVSPropertyOp10
 70
     0
102
RTVSPropertyOp11
 70
     0
102
RTVSPropertyOp12
 70
     0
102
RTVSPropertyOp13
 70
     0
102
RTVSPropertyOp14
 70
     2
102
RTVSPropertyOp15
 70
     0
102
RTVSPropertyOp16
 70
     0
102
RTVSPropertyOp17
 70
     0
102
RTVSPropertyOp18
 70
     0
102
RTVSPropertyOp19
 70
     0
102
RTVSPropertyOp20
 70
     0
102
RTVSPropertyOp21
 70
     0
102
RTVSPropertyOp22
 70
     0
102
RTVSPropertyOp23
 70
     0
102
RTVSPropertyOp24
 70
     0
102
RTVSPropertyOp25
 70
     0
102
RTVSPropertyOp26
 70
     0
102
RTVSPropertyOp27
 70
     0
102
RTVSPropertyOp28
 70
     1
102
RTVSPropertyOp29
 70
     1
102
RTVSPropertyOp30
 70
     1
102
RTVSPropertyOp31
 70
     1
102
RTVSPropertyOp32
 70
     1
102
RTVSPropertyOp33
 70
     1
102
RTVSPropertyOp34
 70
     1
102
RTVSPropertyOp35
 70
     1
102
RTVSPropertyOp36
 70
     1
102
RTVSPropertyOp37
 70
     0
102
RTVSPropertyOp38
 70
     0
102
RTVSPropertyOp39
 70
     0
102
RTVSPropertyOp40
 70
     0
102
RTVSPropertyOp41
 70
     0
102
RTVSPropertyOp42
 70
     0
102
RTVSPropertyOp43
 70
     0
102
RTVSPropertyOp44
 70
     0
102
RTVSPropertyOp45
 70
     1
102
RTVSPropertyOp46
 70
     0
102
RTVSPropertyOp47
 70
     0
102
RTVSPropertyOp48
 70
     0
102
RTVSPropertyOp49
 70
     1
102
RTVSPropertyOp50
 70
     0
102
RTVSPropertyOp51
 70
     0
102
RTVSPropertyOp52
 70
     0
102
RTVSPropertyOp53
 70
     0
102
RTVSPropertyOp54
 70
     0
102
RTVSPropertyOp55
 70
     1
102
RTVSPropertyOp56
 70
     0
102
RTVSPropertyOp57
 70
     0
102
RTVSPropertyOp58
 70
     0
102
RTVSPropertyOp59
 70
     0
102
RTVSPropertyOp60
 70
     0
102
RTVSPropertyOp61
 70
     0
102
RTVSPropertyOp62
 70
     0
  0
XRECORD
  5
14A4
102
{ACAD_REACTORS
330
14A3
102
}
330
14A3
100
AcDbXrecord
280
     1
102
RTVSPost2010Prop28
280
     0
102
RTVSPost2010PropOp28
 70
     1
102
RTVSPost2010Prop29
280
     1
102
RTVSPost2010PropOp29
 70
     1
102
RTVSPost2010Prop30
280
     1
102
RTVSPost2010PropOp30
 70
     1
102
RTVSPost2010Prop31
280
     0
102
RTVSPost2010PropOp31
 70
     1
102
RTVSPost2010Prop32
280
     0
102
RTVSPost2010PropOp32
 70
     1
102
RTVSPost2010Prop33
280
     0
102
RTVSPost2010PropOp33
 70
     1
102
RTVSPost2010Prop34
280
     0
102
RTVSPost2010PropOp34
 70
     1
102
RTVSPost2010Prop35
280
     0
102
RTVSPost2010PropOp35
 70
     1
102
RTVSPost2010Prop36
280
     0
102
RTVSPost2010PropOp36
 70
     1
102
RTVSPost2010Prop37
 90
       50
102
RTVSPost2010PropOp37
 70
     1
102
RTVSPost2010Prop38
140
0.0
102
RTVSPost2010PropOp38
 70
     1
102
RTVSPost2010Prop39
140
1.0
102
RTVSPost2010PropOp39
 70
     1
102
RTVSPost2010Prop40
 90
        0
102
RTVSPost2010PropOp40
 70
     1
102
RTVSPost2010Prop41ColorIndex
 90
       18
102
RTVSPost2010Prop41ColorRGB
 90
        0
102
RTVSPost2010PropOp41
 70
     1
102
RTVSPost2010Prop42
 90
       50
102
RTVSPost2010PropOp42
 70
     1
102
RTVSPost2010Prop43
 90
        3
102
RTVSPost2010PropOp43
 70
     1
102
RTVSPost2010Prop44ColorIndex
 90
        5
102
RTVSPost2010Prop44ColorRGB
 90
      255
102
RTVSPost2010PropOp44
 70
     1
102
RTVSPost2010Prop45
280
     0
102
RTVSPost2010PropOp45
 70
     1
102
RTVSPost2010Prop46
 90
       50
102
RTVSPost2010PropOp46
 70
     1
102
RTVSPost2010Prop47
 90
       50
102
RTVSPost2010PropOp47
 70
     1
102
RTVSPost2010Prop48
 90
       50
102
RTVSPost2010PropOp48
 70
     1
102
RTVSPost2010Prop49
280
     0
102
RTVSPost2010PropOp49
 70
     1
102
RTVSPost2010Prop50
 90
       50
102
RTVSPost2010PropOp50
 70
     1
102
RTVSPost2010Prop51ColorIndex
 90
      256
102
RTVSPost2010Prop51ColorRGB
 90
-16777216
102
RTVSPost2010PropOp51
 70
     0
102
RTVSPost2010Prop52
140
1.0
102
RTVSPost2010PropOp52
 70
     0
102
RTVSPost2010Prop53
 90
        2
102
RTVSPost2010PropOp53
 70
     1
102
RTVSPost2010Prop54
  1
strokes_ogs.tif
102
RTVSPost2010PropOp54
 70
     1
102
RTVSPost2010Prop55
280
     0
102
RTVSPost2010PropOp55
 70
     1
102
RTVSPost2010Prop56
140
1.0
102
RTVSPost2010PropOp56
 70
     1
102
RTVSPost2010Prop57
140
1.0
102
RTVSPost2010PropOp57
 70
     1
102
RTVSPropertyOp0
 70
     1
102
RTVSPropertyOp1
 70
     1
102
RTVSPropertyOp2
 70
     1
102
RTVSPropertyOp3
 70
     1
102
RTVSPropertyOp4
 70
     1
102
RTVSPropertyOp5
 70
     1
102
RTVSPropertyOp6
 70
     1
102
RTVSPropertyOp7
 70
     1
102
RTVSPropertyOp8
 70
     1
102
RTVSPropertyOp9
 70
     1
102
RTVSPropertyOp10
 70
     1
102
RTVSPropertyOp11
 70
     1
102
RTVSPropertyOp12
 70
     1
102
RTVSPropertyOp13
 70
     1
102
RTVSPropertyOp14
 70
     1
102
RTVSPropertyOp15
 70
     1
102
RTVSPropertyOp16
 70
     1
102
RTVSPropertyOp17
 70
     1
102
RTVSPropertyOp18
 70
     1
102
RTVSPropertyOp19
 70
     1
102
RTVSPropertyOp20
 70
     1
102
RTVSPropertyOp21
 70
     1
102
RTVSPropertyOp22
 70
     1
102
RTVSPropertyOp23
 70
     1
102
RTVSPropertyOp24
 70
     1
102
RTVSPropertyOp25
 70
     1
102
RTVSPropertyOp26
 70
     1
102
RTVSPropertyOp27
 70
     1
102
RTVSPropertyOp28
 70
     1
102
RTVSPropertyOp29
 70
     1
102
RTVSPropertyOp30
 70
     1
102
RTVSPropertyOp31
 70
     1
102
RTVSPropertyOp32
 70
     1
102
RTVSPropertyOp33
 70
     1
102
RTVSPropertyOp34
 70
     1
102
RTVSPropertyOp35
 70
     1
102
RTVSPropertyOp36
 70
     1
102
RTVSPropertyOp37
 70
     1
102
RTVSPropertyOp38
 70
     1
102
RTVSPropertyOp39
 70
     1
102
RTVSPropertyOp40
 70
     1
102
RTVSPropertyOp41
 70
     1
102
RTVSPropertyOp42
 70
     1
102
RTVSPropertyOp43
 70
     1
102
RTVSPropertyOp44
 70
     1
102
RTVSPropertyOp45
 70
     1
102
RTVSPropertyOp46
 70
     1
102
RTVSPropertyOp47
 70
     1
102
RTVSPropertyOp48
 70
     1
102
RTVSPropertyOp49
 70
     1
102
RTVSPropertyOp50
 70
     1
102
RTVSPropertyOp51
 70
     0
102
RTVSPropertyOp52
 70
     0
102
RTVSPropertyOp53
 70
     1
102
RTVSPropertyOp54
 70
     1
102
RTVSPropertyOp55
 70
     1
102
RTVSPropertyOp56
 70
     1
102
RTVSPropertyOp57
 70
     1
102
RTVSPropertyOp58
 70
     1
102
RTVSPropertyOp59
 70
     1
102
RTVSPropertyOp60
 70
     1
102
RTVSPropertyOp61
 70
     1
102
RTVSPropertyOp62
 70
     1
  0
XRECORD
  5
1488
102
{ACAD_REACTORS
330
1487
102
}
330
1487
100
AcDbXrecord
280
     1
102
RTVSPost2010Prop28
280
     0
102
RTVSPost2010PropOp28
 70
     1
102
RTVSPost2010Prop29
280
     1
102
RTVSPost2010PropOp29
 70
     1
102
RTVSPost2010Prop30
280
     1
102
RTVSPost2010PropOp30
 70
     1
102
RTVSPost2010Prop31
280
     0
102
RTVSPost2010PropOp31
 70
     1
102
RTVSPost2010Prop32
280
     0
102
RTVSPost2010PropOp32
 70
     1
102
RTVSPost2010Prop33
280
     0
102
RTVSPost2010PropOp33
 70
     1
102
RTVSPost2010Prop34
280
     0
102
RTVSPost2010PropOp34
 70
     1
102
RTVSPost2010Prop35
280
     0
102
RTVSPost2010PropOp35
 70
     1
102
RTVSPost2010Prop36
280
     0
102
RTVSPost2010PropOp36
 70
     1
102
RTVSPost2010Prop37
 90
       50
102
RTVSPost2010PropOp37
 70
     1
102
RTVSPost2010Prop38
140
0.0
102
RTVSPost2010PropOp38
 70
     1
102
RTVSPost2010Prop39
140
1.0
102
RTVSPost2010PropOp39
 70
     1
102
RTVSPost2010Prop40
 90
        0
102
RTVSPost2010PropOp40
 70
     1
102
RTVSPost2010Prop41ColorIndex
 90
       18
102
RTVSPost2010Prop41ColorRGB
 90
        0
102
RTVSPost2010PropOp41
 70
     1
102
RTVSPost2010Prop42
 90
       50
102
RTVSPost2010PropOp42
 70
     1
102
RTVSPost2010Prop43
 90
        3
102
RTVSPost2010PropOp43
 70
     1
102
RTVSPost2010Prop44ColorIndex
 90
        5
102
RTVSPost2010Prop44ColorRGB
 90
      255
102
RTVSPost2010PropOp44
 70
     1
102
RTVSPost2010Prop45
280
     0
102
RTVSPost2010PropOp45
 70
     1
102
RTVSPost2010Prop46
 90
       50
102
RTVSPost2010PropOp46
 70
     1
102
RTVSPost2010Prop47
 90
       50
102
RTVSPost2010PropOp47
 70
     1
102
RTVSPost2010Prop48
 90
       50
102
RTVSPost2010PropOp48
 70
     1
102
RTVSPost2010Prop49
280
     0
102
RTVSPost2010PropOp49
 70
     1
102
RTVSPost2010Prop50
 90
       50
102
RTVSPost2010PropOp50
 70
     1
102
RTVSPost2010Prop51ColorIndex
 90
      256
102
RTVSPost2010Prop51ColorRGB
 90
-16777216
102
RTVSPost2010PropOp51
 70
     0
102
RTVSPost2010Prop52
140
1.0
102
RTVSPost2010PropOp52
 70
     0
102
RTVSPost2010Prop53
 90
        2
102
RTVSPost2010PropOp53
 70
     1
102
RTVSPost2010Prop54
  1
strokes_ogs.tif
102
RTVSPost2010PropOp54
 70
     1
102
RTVSPost2010Prop55
280
     0
102
RTVSPost2010PropOp55
 70
     1
102
RTVSPost2010Prop56
140
1.0
102
RTVSPost2010PropOp56
 70
     1
102
RTVSPost2010Prop57
140
1.0
102
RTVSPost2010PropOp57
 70
     1
102
RTVSPropertyOp0
 70
     1
102
RTVSPropertyOp1
 70
     1
102
RTVSPropertyOp2
 70
     1
102
RTVSPropertyOp3
 70
     1
102
RTVSPropertyOp4
 70
     1
102
RTVSPropertyOp5
 70
     1
102
RTVSPropertyOp6
 70
     1
102
RTVSPropertyOp7
 70
     1
102
RTVSPropertyOp8
 70
     1
102
RTVSPropertyOp9
 70
     1
102
RTVSPropertyOp10
 70
     1
102
RTVSPropertyOp11
 70
     1
102
RTVSPropertyOp12
 70
     1
102
RTVSPropertyOp13
 70
     1
102
RTVSPropertyOp14
 70
     1
102
RTVSPropertyOp15
 70
     1
102
RTVSPropertyOp16
 70
     1
102
RTVSPropertyOp17
 70
     1
102
RTVSPropertyOp18
 70
     1
102
RTVSPropertyOp19
 70
     1
102
RTVSPropertyOp20
 70
     1
102
RTVSPropertyOp21
 70
     1
102
RTVSPropertyOp22
 70
     1
102
RTVSPropertyOp23
 70
     1
102
RTVSPropertyOp24
 70
     1
102
RTVSPropertyOp25
 70
     1
102
RTVSPropertyOp26
 70
     1
102
RTVSPropertyOp27
 70
     1
102
RTVSPropertyOp28
 70
     1
102
RTVSPropertyOp29
 70
     1
102
RTVSPropertyOp30
 70
     1
102
RTVSPropertyOp31
 70
     1
102
RTVSPropertyOp32
 70
     1
102
RTVSPropertyOp33
 70
     1
102
RTVSPropertyOp34
 70
     1
102
RTVSPropertyOp35
 70
     1
102
RTVSPropertyOp36
 70
     1
102
RTVSPropertyOp37
 70
     1
102
RTVSPropertyOp38
 70
     1
102
RTVSPropertyOp39
 70
     1
102
RTVSPropertyOp40
 70
     1
102
RTVSPropertyOp41
 70
     1
102
RTVSPropertyOp42
 70
     1
102
RTVSPropertyOp43
 70
     1
102
RTVSPropertyOp44
 70
     1
102
RTVSPropertyOp45
 70
     1
102
RTVSPropertyOp46
 70
     1
102
RTVSPropertyOp47
 70
     1
102
RTVSPropertyOp48
 70
     1
102
RTVSPropertyOp49
 70
     1
102
RTVSPropertyOp50
 70
     1
102
RTVSPropertyOp51
 70
     0
102
RTVSPropertyOp52
 70
     0
102
RTVSPropertyOp53
 70
     1
102
RTVSPropertyOp54
 70
     1
102
RTVSPropertyOp55
 70
     1
102
RTVSPropertyOp56
 70
     1
102
RTVSPropertyOp57
 70
     1
102
RTVSPropertyOp58
 70
     1
102
RTVSPropertyOp59
 70
     1
102
RTVSPropertyOp60
 70
     1
102
RTVSPropertyOp61
 70
     1
102
RTVSPropertyOp62
 70
     1
  0
XRECORD
  5
148A
102
{ACAD_REACTORS
330
1489
102
}
330
1489
100
AcDbXrecord
280
     1
102
RTVSPost2010Prop28
280
     0
102
RTVSPost2010PropOp28
 70
     1
102
RTVSPost2010Prop29
280
     1
102
RTVSPost2010PropOp29
 70
     1
102
RTVSPost2010Prop30
280
     1
102
RTVSPost2010PropOp30
 70
     1
102
RTVSPost2010Prop31
280
     0
102
RTVSPost2010PropOp31
 70
     1
102
RTVSPost2010Prop32
280
     0
102
RTVSPost2010PropOp32
 70
     1
102
RTVSPost2010Prop33
280
     0
102
RTVSPost2010PropOp33
 70
     1
102
RTVSPost2010Prop34
280
     0
102
RTVSPost2010PropOp34
 70
     1
102
RTVSPost2010Prop35
280
     0
102
RTVSPost2010PropOp35
 70
     1
102
RTVSPost2010Prop36
280
     0
102
RTVSPost2010PropOp36
 70
     1
102
RTVSPost2010Prop37
 90
       50
102
RTVSPost2010PropOp37
 70
     1
102
RTVSPost2010Prop38
140
0.0
102
RTVSPost2010PropOp38
 70
     1
102
RTVSPost2010Prop39
140
1.0
102
RTVSPost2010PropOp39
 70
     1
102
RTVSPost2010Prop40
 90
        0
102
RTVSPost2010PropOp40
 70
     1
102
RTVSPost2010Prop41ColorIndex
 90
       18
102
RTVSPost2010Prop41ColorRGB
 90
        0
102
RTVSPost2010PropOp41
 70
     1
102
RTVSPost2010Prop42
 90
       50
102
RTVSPost2010PropOp42
 70
     1
102
RTVSPost2010Prop43
 90
        3
102
RTVSPost2010PropOp43
 70
     1
102
RTVSPost2010Prop44ColorIndex
 90
        5
102
RTVSPost2010Prop44ColorRGB
 90
      255
102
RTVSPost2010PropOp44
 70
     1
102
RTVSPost2010Prop45
280
     0
102
RTVSPost2010PropOp45
 70
     1
102
RTVSPost2010Prop46
 90
       50
102
RTVSPost2010PropOp46
 70
     1
102
RTVSPost2010Prop47
 90
       50
102
RTVSPost2010PropOp47
 70
     1
102
RTVSPost2010Prop48
 90
       50
102
RTVSPost2010PropOp48
 70
     1
102
RTVSPost2010Prop49
280
     0
102
RTVSPost2010PropOp49
 70
     1
102
RTVSPost2010Prop50
 90
       50
102
RTVSPost2010PropOp50
 70
     1
102
RTVSPost2010Prop51ColorIndex
 90
      256
102
RTVSPost2010Prop51ColorRGB
 90
-16777216
102
RTVSPost2010PropOp51
 70
     0
102
RTVSPost2010Prop52
140
1.0
102
RTVSPost2010PropOp52
 70
     0
102
RTVSPost2010Prop53
 90
        2
102
RTVSPost2010PropOp53
 70
     1
102
RTVSPost2010Prop54
  1
strokes_ogs.tif
102
RTVSPost2010PropOp54
 70
     1
102
RTVSPost2010Prop55
280
     0
102
RTVSPost2010PropOp55
 70
     1
102
RTVSPost2010Prop56
140
1.0
102
RTVSPost2010PropOp56
 70
     1
102
RTVSPost2010Prop57
140
1.0
102
RTVSPost2010PropOp57
 70
     1
102
RTVSPropertyOp0
 70
     1
102
RTVSPropertyOp1
 70
     1
102
RTVSPropertyOp2
 70
     1
102
RTVSPropertyOp3
 70
     1
102
RTVSPropertyOp4
 70
     1
102
RTVSPropertyOp5
 70
     1
102
RTVSPropertyOp6
 70
     1
102
RTVSPropertyOp7
 70
     1
102
RTVSPropertyOp8
 70
     1
102
RTVSPropertyOp9
 70
     1
102
RTVSPropertyOp10
 70
     1
102
RTVSPropertyOp11
 70
     1
102
RTVSPropertyOp12
 70
     1
102
RTVSPropertyOp13
 70
     1
102
RTVSPropertyOp14
 70
     1
102
RTVSPropertyOp15
 70
     1
102
RTVSPropertyOp16
 70
     1
102
RTVSPropertyOp17
 70
     1
102
RTVSPropertyOp18
 70
     1
102
RTVSPropertyOp19
 70
     1
102
RTVSPropertyOp20
 70
     1
102
RTVSPropertyOp21
 70
     1
102
RTVSPropertyOp22
 70
     1
102
RTVSPropertyOp23
 70
     1
102
RTVSPropertyOp24
 70
     1
102
RTVSPropertyOp25
 70
     1
102
RTVSPropertyOp26
 70
     1
102
RTVSPropertyOp27
 70
     1
102
RTVSPropertyOp28
 70
     1
102
RTVSPropertyOp29
 70
     1
102
RTVSPropertyOp30
 70
     1
102
RTVSPropertyOp31
 70
     1
102
RTVSPropertyOp32
 70
     1
102
RTVSPropertyOp33
 70
     1
102
RTVSPropertyOp34
 70
     1
102
RTVSPropertyOp35
 70
     1
102
RTVSPropertyOp36
 70
     1
102
RTVSPropertyOp37
 70
     1
102
RTVSPropertyOp38
 70
     1
102
RTVSPropertyOp39
 70
     1
102
RTVSPropertyOp40
 70
     1
102
RTVSPropertyOp41
 70
     1
102
RTVSPropertyOp42
 70
     1
102
RTVSPropertyOp43
 70
     1
102
RTVSPropertyOp44
 70
     1
102
RTVSPropertyOp45
 70
     1
102
RTVSPropertyOp46
 70
     1
102
RTVSPropertyOp47
 70
     1
102
RTVSPropertyOp48
 70
     1
102
RTVSPropertyOp49
 70
     1
102
RTVSPropertyOp50
 70
     1
102
RTVSPropertyOp51
 70
     0
102
RTVSPropertyOp52
 70
     0
102
RTVSPropertyOp53
 70
     1
102
RTVSPropertyOp54
 70
     1
102
RTVSPropertyOp55
 70
     1
102
RTVSPropertyOp56
 70
     1
102
RTVSPropertyOp57
 70
     1
102
RTVSPropertyOp58
 70
     1
102
RTVSPropertyOp59
 70
     1
102
RTVSPropertyOp60
 70
     1
102
RTVSPropertyOp61
 70
     1
102
RTVSPropertyOp62
 70
     1
  0
XRECORD
  5
148C
102
{ACAD_REACTORS
330
148B
102
}
330
148B
100
AcDbXrecord
280
     1
102
RTVSPost2010Prop28
280
     0
102
RTVSPost2010PropOp28
 70
     1
102
RTVSPost2010Prop29
280
     1
102
RTVSPost2010PropOp29
 70
     1
102
RTVSPost2010Prop30
280
     1
102
RTVSPost2010PropOp30
 70
     1
102
RTVSPost2010Prop31
280
     0
102
RTVSPost2010PropOp31
 70
     1
102
RTVSPost2010Prop32
280
     0
102
RTVSPost2010PropOp32
 70
     1
102
RTVSPost2010Prop33
280
     0
102
RTVSPost2010PropOp33
 70
     1
102
RTVSPost2010Prop34
280
     0
102
RTVSPost2010PropOp34
 70
     1
102
RTVSPost2010Prop35
280
     0
102
RTVSPost2010PropOp35
 70
     1
102
RTVSPost2010Prop36
280
     0
102
RTVSPost2010PropOp36
 70
     1
102
RTVSPost2010Prop37
 90
       50
102
RTVSPost2010PropOp37
 70
     1
102
RTVSPost2010Prop38
140
0.0
102
RTVSPost2010PropOp38
 70
     1
102
RTVSPost2010Prop39
140
1.0
102
RTVSPost2010PropOp39
 70
     1
102
RTVSPost2010Prop40
 90
        0
102
RTVSPost2010PropOp40
 70
     1
102
RTVSPost2010Prop41ColorIndex
 90
       18
102
RTVSPost2010Prop41ColorRGB
 90
        0
102
RTVSPost2010PropOp41
 70
     1
102
RTVSPost2010Prop42
 90
       50
102
RTVSPost2010PropOp42
 70
     1
102
RTVSPost2010Prop43
 90
        3
102
RTVSPost2010PropOp43
 70
     1
102
RTVSPost2010Prop44ColorIndex
 90
        5
102
RTVSPost2010Prop44ColorRGB
 90
      255
102
RTVSPost2010PropOp44
 70
     1
102
RTVSPost2010Prop45
280
     0
102
RTVSPost2010PropOp45
 70
     1
102
RTVSPost2010Prop46
 90
       50
102
RTVSPost2010PropOp46
 70
     1
102
RTVSPost2010Prop47
 90
       50
102
RTVSPost2010PropOp47
 70
     1
102
RTVSPost2010Prop48
 90
       50
102
RTVSPost2010PropOp48
 70
     1
102
RTVSPost2010Prop49
280
     0
102
RTVSPost2010PropOp49
 70
     1
102
RTVSPost2010Prop50
 90
       50
102
RTVSPost2010PropOp50
 70
     1
102
RTVSPost2010Prop51ColorIndex
 90
      256
102
RTVSPost2010Prop51ColorRGB
 90
-16777216
102
RTVSPost2010PropOp51
 70
     0
102
RTVSPost2010Prop52
140
1.0
102
RTVSPost2010PropOp52
 70
     0
102
RTVSPost2010Prop53
 90
        2
102
RTVSPost2010PropOp53
 70
     1
102
RTVSPost2010Prop54
  1
strokes_ogs.tif
102
RTVSPost2010PropOp54
 70
     1
102
RTVSPost2010Prop55
280
     0
102
RTVSPost2010PropOp55
 70
     1
102
RTVSPost2010Prop56
140
1.0
102
RTVSPost2010PropOp56
 70
     1
102
RTVSPost2010Prop57
140
1.0
102
RTVSPost2010PropOp57
 70
     1
102
RTVSPropertyOp0
 70
     1
102
RTVSPropertyOp1
 70
     1
102
RTVSPropertyOp2
 70
     1
102
RTVSPropertyOp3
 70
     1
102
RTVSPropertyOp4
 70
     1
102
RTVSPropertyOp5
 70
     1
102
RTVSPropertyOp6
 70
     1
102
RTVSPropertyOp7
 70
     1
102
RTVSPropertyOp8
 70
     1
102
RTVSPropertyOp9
 70
     1
102
RTVSPropertyOp10
 70
     1
102
RTVSPropertyOp11
 70
     1
102
RTVSPropertyOp12
 70
     1
102
RTVSPropertyOp13
 70
     1
102
RTVSPropertyOp14
 70
     1
102
RTVSPropertyOp15
 70
     1
102
RTVSPropertyOp16
 70
     1
102
RTVSPropertyOp17
 70
     1
102
RTVSPropertyOp18
 70
     1
102
RTVSPropertyOp19
 70
     1
102
RTVSPropertyOp20
 70
     1
102
RTVSPropertyOp21
 70
     1
102
RTVSPropertyOp22
 70
     1
102
RTVSPropertyOp23
 70
     1
102
RTVSPropertyOp24
 70
     1
102
RTVSPropertyOp25
 70
     1
102
RTVSPropertyOp26
 70
     1
102
RTVSPropertyOp27
 70
     1
102
RTVSPropertyOp28
 70
     1
102
RTVSPropertyOp29
 70
     1
102
RTVSPropertyOp30
 70
     1
102
RTVSPropertyOp31
 70
     1
102
RTVSPropertyOp32
 70
     1
102
RTVSPropertyOp33
 70
     1
102
RTVSPropertyOp34
 70
     1
102
RTVSPropertyOp35
 70
     1
102
RTVSPropertyOp36
 70
     1
102
RTVSPropertyOp37
 70
     1
102
RTVSPropertyOp38
 70
     1
102
RTVSPropertyOp39
 70
     1
102
RTVSPropertyOp40
 70
     1
102
RTVSPropertyOp41
 70
     1
102
RTVSPropertyOp42
 70
     1
102
RTVSPropertyOp43
 70
     1
102
RTVSPropertyOp44
 70
     1
102
RTVSPropertyOp45
 70
     1
102
RTVSPropertyOp46
 70
     1
102
RTVSPropertyOp47
 70
     1
102
RTVSPropertyOp48
 70
     1
102
RTVSPropertyOp49
 70
     1
102
RTVSPropertyOp50
 70
     1
102
RTVSPropertyOp51
 70
     0
102
RTVSPropertyOp52
 70
     0
102
RTVSPropertyOp53
 70
     1
102
RTVSPropertyOp54
 70
     1
102
RTVSPropertyOp55
 70
     1
102
RTVSPropertyOp56
 70
     1
102
RTVSPropertyOp57
 70
     1
102
RTVSPropertyOp58
 70
     1
102
RTVSPropertyOp59
 70
     1
102
RTVSPropertyOp60
 70
     1
102
RTVSPropertyOp61
 70
     1
102
RTVSPropertyOp62
 70
     1
  0
XRECORD
  5
148E
102
{ACAD_REACTORS
330
148D
102
}
330
148D
100
AcDbXrecord
280
     1
102
RTVSPost2010Prop28
280
     0
102
RTVSPost2010PropOp28
 70
     1
102
RTVSPost2010Prop29
280
     1
102
RTVSPost2010PropOp29
 70
     1
102
RTVSPost2010Prop30
280
     1
102
RTVSPost2010PropOp30
 70
     1
102
RTVSPost2010Prop31
280
     0
102
RTVSPost2010PropOp31
 70
     1
102
RTVSPost2010Prop32
280
     0
102
RTVSPost2010PropOp32
 70
     1
102
RTVSPost2010Prop33
280
     0
102
RTVSPost2010PropOp33
 70
     1
102
RTVSPost2010Prop34
280
     0
102
RTVSPost2010PropOp34
 70
     1
102
RTVSPost2010Prop35
280
     0
102
RTVSPost2010PropOp35
 70
     1
102
RTVSPost2010Prop36
280
     0
102
RTVSPost2010PropOp36
 70
     1
102
RTVSPost2010Prop37
 90
       50
102
RTVSPost2010PropOp37
 70
     1
102
RTVSPost2010Prop38
140
0.0
102
RTVSPost2010PropOp38
 70
     1
102
RTVSPost2010Prop39
140
1.0
102
RTVSPost2010PropOp39
 70
     1
102
RTVSPost2010Prop40
 90
        0
102
RTVSPost2010PropOp40
 70
     1
102
RTVSPost2010Prop41ColorIndex
 90
       18
102
RTVSPost2010Prop41ColorRGB
 90
        0
102
RTVSPost2010PropOp41
 70
     1
102
RTVSPost2010Prop42
 90
       50
102
RTVSPost2010PropOp42
 70
     1
102
RTVSPost2010Prop43
 90
        3
102
RTVSPost2010PropOp43
 70
     1
102
RTVSPost2010Prop44ColorIndex
 90
        5
102
RTVSPost2010Prop44ColorRGB
 90
      255
102
RTVSPost2010PropOp44
 70
     1
102
RTVSPost2010Prop45
280
     0
102
RTVSPost2010PropOp45
 70
     1
102
RTVSPost2010Prop46
 90
       50
102
RTVSPost2010PropOp46
 70
     1
102
RTVSPost2010Prop47
 90
       50
102
RTVSPost2010PropOp47
 70
     1
102
RTVSPost2010Prop48
 90
       50
102
RTVSPost2010PropOp48
 70
     1
102
RTVSPost2010Prop49
280
     0
102
RTVSPost2010PropOp49
 70
     1
102
RTVSPost2010Prop50
 90
       50
102
RTVSPost2010PropOp50
 70
     1
102
RTVSPost2010Prop51ColorIndex
 90
      256
102
RTVSPost2010Prop51ColorRGB
 90
-16777216
102
RTVSPost2010PropOp51
 70
     0
102
RTVSPost2010Prop52
140
1.0
102
RTVSPost2010PropOp52
 70
     0
102
RTVSPost2010Prop53
 90
        2
102
RTVSPost2010PropOp53
 70
     1
102
RTVSPost2010Prop54
  1
strokes_ogs.tif
102
RTVSPost2010PropOp54
 70
     1
102
RTVSPost2010Prop55
280
     0
102
RTVSPost2010PropOp55
 70
     1
102
RTVSPost2010Prop56
140
1.0
102
RTVSPost2010PropOp56
 70
     1
102
RTVSPost2010Prop57
140
1.0
102
RTVSPost2010PropOp57
 70
     1
102
RTVSPropertyOp0
 70
     1
102
RTVSPropertyOp1
 70
     1
102
RTVSPropertyOp2
 70
     1
102
RTVSPropertyOp3
 70
     1
102
RTVSPropertyOp4
 70
     1
102
RTVSPropertyOp5
 70
     1
102
RTVSPropertyOp6
 70
     1
102
RTVSPropertyOp7
 70
     1
102
RTVSPropertyOp8
 70
     1
102
RTVSPropertyOp9
 70
     1
102
RTVSPropertyOp10
 70
     1
102
RTVSPropertyOp11
 70
     1
102
RTVSPropertyOp12
 70
     1
102
RTVSPropertyOp13
 70
     1
102
RTVSPropertyOp14
 70
     1
102
RTVSPropertyOp15
 70
     1
102
RTVSPropertyOp16
 70
     1
102
RTVSPropertyOp17
 70
     1
102
RTVSPropertyOp18
 70
     1
102
RTVSPropertyOp19
 70
     1
102
RTVSPropertyOp20
 70
     1
102
RTVSPropertyOp21
 70
     1
102
RTVSPropertyOp22
 70
     1
102
RTVSPropertyOp23
 70
     1
102
RTVSPropertyOp24
 70
     1
102
RTVSPropertyOp25
 70
     1
102
RTVSPropertyOp26
 70
     1
102
RTVSPropertyOp27
 70
     1
102
RTVSPropertyOp28
 70
     1
102
RTVSPropertyOp29
 70
     1
102
RTVSPropertyOp30
 70
     1
102
RTVSPropertyOp31
 70
     1
102
RTVSPropertyOp32
 70
     1
102
RTVSPropertyOp33
 70
     1
102
RTVSPropertyOp34
 70
     1
102
RTVSPropertyOp35
 70
     1
102
RTVSPropertyOp36
 70
     1
102
RTVSPropertyOp37
 70
     1
102
RTVSPropertyOp38
 70
     1
102
RTVSPropertyOp39
 70
     1
102
RTVSPropertyOp40
 70
     1
102
RTVSPropertyOp41
 70
     1
102
RTVSPropertyOp42
 70
     1
102
RTVSPropertyOp43
 70
     1
102
RTVSPropertyOp44
 70
     1
102
RTVSPropertyOp45
 70
     1
102
RTVSPropertyOp46
 70
     1
102
RTVSPropertyOp47
 70
     1
102
RTVSPropertyOp48
 70
     1
102
RTVSPropertyOp49
 70
     1
102
RTVSPropertyOp50
 70
     1
102
RTVSPropertyOp51
 70
     0
102
RTVSPropertyOp52
 70
     0
102
RTVSPropertyOp53
 70
     1
102
RTVSPropertyOp54
 70
     1
102
RTVSPropertyOp55
 70
     1
102
RTVSPropertyOp56
 70
     1
102
RTVSPropertyOp57
 70
     1
102
RTVSPropertyOp58
 70
     1
102
RTVSPropertyOp59
 70
     1
102
RTVSPropertyOp60
 70
     1
102
RTVSPropertyOp61
 70
     1
102
RTVSPropertyOp62
 70
     1
  0
XRECORD
  5
1496
102
{ACAD_REACTORS
330
1495
102
}
330
1495
100
AcDbXrecord
280
     1
102
RTVSPost2010Prop28
280
     0
102
RTVSPost2010PropOp28
 70
     1
102
RTVSPost2010Prop29
280
     1
102
RTVSPost2010PropOp29
 70
     1
102
RTVSPost2010Prop30
280
     1
102
RTVSPost2010PropOp30
 70
     1
102
RTVSPost2010Prop31
280
     0
102
RTVSPost2010PropOp31
 70
     1
102
RTVSPost2010Prop32
280
     0
102
RTVSPost2010PropOp32
 70
     1
102
RTVSPost2010Prop33
280
     0
102
RTVSPost2010PropOp33
 70
     1
102
RTVSPost2010Prop34
280
     0
102
RTVSPost2010PropOp34
 70
     1
102
RTVSPost2010Prop35
280
     0
102
RTVSPost2010PropOp35
 70
     1
102
RTVSPost2010Prop36
280
     0
102
RTVSPost2010PropOp36
 70
     1
102
RTVSPost2010Prop37
 90
       50
102
RTVSPost2010PropOp37
 70
     1
102
RTVSPost2010Prop38
140
0.0
102
RTVSPost2010PropOp38
 70
     1
102
RTVSPost2010Prop39
140
1.0
102
RTVSPost2010PropOp39
 70
     1
102
RTVSPost2010Prop40
 90
        0
102
RTVSPost2010PropOp40
 70
     1
102
RTVSPost2010Prop41ColorIndex
 90
       18
102
RTVSPost2010Prop41ColorRGB
 90
        0
102
RTVSPost2010PropOp41
 70
     1
102
RTVSPost2010Prop42
 90
       50
102
RTVSPost2010PropOp42
 70
     1
102
RTVSPost2010Prop43
 90
        3
102
RTVSPost2010PropOp43
 70
     1
102
RTVSPost2010Prop44ColorIndex
 90
        5
102
RTVSPost2010Prop44ColorRGB
 90
      255
102
RTVSPost2010PropOp44
 70
     1
102
RTVSPost2010Prop45
280
     0
102
RTVSPost2010PropOp45
 70
     1
102
RTVSPost2010Prop46
 90
       50
102
RTVSPost2010PropOp46
 70
     1
102
RTVSPost2010Prop47
 90
       50
102
RTVSPost2010PropOp47
 70
     1
102
RTVSPost2010Prop48
 90
       50
102
RTVSPost2010PropOp48
 70
     1
102
RTVSPost2010Prop49
280
     0
102
RTVSPost2010PropOp49
 70
     1
102
RTVSPost2010Prop50
 90
       50
102
RTVSPost2010PropOp50
 70
     1
102
RTVSPost2010Prop51ColorIndex
 90
      256
102
RTVSPost2010Prop51ColorRGB
 90
-16777216
102
RTVSPost2010PropOp51
 70
     0
102
RTVSPost2010Prop52
140
1.0
102
RTVSPost2010PropOp52
 70
     0
102
RTVSPost2010Prop53
 90
        2
102
RTVSPost2010PropOp53
 70
     1
102
RTVSPost2010Prop54
  1
strokes_ogs.tif
102
RTVSPost2010PropOp54
 70
     1
102
RTVSPost2010Prop55
280
     0
102
RTVSPost2010PropOp55
 70
     1
102
RTVSPost2010Prop56
140
1.0
102
RTVSPost2010PropOp56
 70
     1
102
RTVSPost2010Prop57
140
1.0
102
RTVSPost2010PropOp57
 70
     1
102
RTVSPropertyOp0
 70
     1
102
RTVSPropertyOp1
 70
     1
102
RTVSPropertyOp2
 70
     1
102
RTVSPropertyOp3
 70
     1
102
RTVSPropertyOp4
 70
     1
102
RTVSPropertyOp5
 70
     1
102
RTVSPropertyOp6
 70
     1
102
RTVSPropertyOp7
 70
     1
102
RTVSPropertyOp8
 70
     1
102
RTVSPropertyOp9
 70
     1
102
RTVSPropertyOp10
 70
     1
102
RTVSPropertyOp11
 70
     1
102
RTVSPropertyOp12
 70
     1
102
RTVSPropertyOp13
 70
     1
102
RTVSPropertyOp14
 70
     1
102
RTVSPropertyOp15
 70
     1
102
RTVSPropertyOp16
 70
     1
102
RTVSPropertyOp17
 70
     1
102
RTVSPropertyOp18
 70
     1
102
RTVSPropertyOp19
 70
     1
102
RTVSPropertyOp20
 70
     1
102
RTVSPropertyOp21
 70
     1
102
RTVSPropertyOp22
 70
     1
102
RTVSPropertyOp23
 70
     1
102
RTVSPropertyOp24
 70
     1
102
RTVSPropertyOp25
 70
     1
102
RTVSPropertyOp26
 70
     1
102
RTVSPropertyOp27
 70
     1
102
RTVSPropertyOp28
 70
     1
102
RTVSPropertyOp29
 70
     1
102
RTVSPropertyOp30
 70
     1
102
RTVSPropertyOp31
 70
     1
102
RTVSPropertyOp32
 70
     1
102
RTVSPropertyOp33
 70
     1
102
RTVSPropertyOp34
 70
     1
102
RTVSPropertyOp35
 70
     1
102
RTVSPropertyOp36
 70
     1
102
RTVSPropertyOp37
 70
     1
102
RTVSPropertyOp38
 70
     1
102
RTVSPropertyOp39
 70
     1
102
RTVSPropertyOp40
 70
     1
102
RTVSPropertyOp41
 70
     1
102
RTVSPropertyOp42
 70
     1
102
RTVSPropertyOp43
 70
     1
102
RTVSPropertyOp44
 70
     1
102
RTVSPropertyOp45
 70
     1
102
RTVSPropertyOp46
 70
     1
102
RTVSPropertyOp47
 70
     1
102
RTVSPropertyOp48
 70
     1
102
RTVSPropertyOp49
 70
     1
102
RTVSPropertyOp50
 70
     1
102
RTVSPropertyOp51
 70
     0
102
RTVSPropertyOp52
 70
     0
102
RTVSPropertyOp53
 70
     1
102
RTVSPropertyOp54
 70
     1
102
RTVSPropertyOp55
 70
     1
102
RTVSPropertyOp56
 70
     1
102
RTVSPropertyOp57
 70
     1
102
RTVSPropertyOp58
 70
     1
102
RTVSPropertyOp59
 70
     1
102
RTVSPropertyOp60
 70
     1
102
RTVSPropertyOp61
 70
     1
102
RTVSPropertyOp62
 70
     1
  0
XRECORD
  5
14B2
102
{ACAD_REACTORS
330
14B1
102
}
330
14B1
100
AcDbXrecord
280
     1
102
RTVSPost2010Prop28
280
     0
102
RTVSPost2010PropOp28
 70
     1
102
RTVSPost2010Prop29
280
     1
102
RTVSPost2010PropOp29
 70
     1
102
RTVSPost2010Prop30
280
     1
102
RTVSPost2010PropOp30
 70
     1
102
RTVSPost2010Prop31
280
     0
102
RTVSPost2010PropOp31
 70
     1
102
RTVSPost2010Prop32
280
     0
102
RTVSPost2010PropOp32
 70
     1
102
RTVSPost2010Prop33
280
     0
102
RTVSPost2010PropOp33
 70
     1
102
RTVSPost2010Prop34
280
     0
102
RTVSPost2010PropOp34
 70
     1
102
RTVSPost2010Prop35
280
     0
102
RTVSPost2010PropOp35
 70
     1
102
RTVSPost2010Prop36
280
     0
102
RTVSPost2010PropOp36
 70
     1
102
RTVSPost2010Prop37
 90
       50
102
RTVSPost2010PropOp37
 70
     0
102
RTVSPost2010Prop38
140
0.0
102
RTVSPost2010PropOp38
 70
     0
102
RTVSPost2010Prop39
140
1.0
102
RTVSPost2010PropOp39
 70
     0
102
RTVSPost2010Prop40
 90
        0
102
RTVSPost2010PropOp40
 70
     0
102
RTVSPost2010Prop41ColorIndex
 90
       18
102
RTVSPost2010Prop41ColorRGB
 90
        0
102
RTVSPost2010PropOp41
 70
     0
102
RTVSPost2010Prop42
 90
       50
102
RTVSPost2010PropOp42
 70
     0
102
RTVSPost2010Prop43
 90
        3
102
RTVSPost2010PropOp43
 70
     0
102
RTVSPost2010Prop44ColorIndex
 90
        5
102
RTVSPost2010Prop44ColorRGB
 90
      255
102
RTVSPost2010PropOp44
 70
     0
102
RTVSPost2010Prop45
280
     0
102
RTVSPost2010PropOp45
 70
     1
102
RTVSPost2010Prop46
 90
       50
102
RTVSPost2010PropOp46
 70
     0
102
RTVSPost2010Prop47
 90
       50
102
RTVSPost2010PropOp47
 70
     0
102
RTVSPost2010Prop48
 90
       50
102
RTVSPost2010PropOp48
 70
     0
102
RTVSPost2010Prop49
280
     0
102
RTVSPost2010PropOp49
 70
     1
102
RTVSPost2010Prop50
 90
       50
102
RTVSPost2010PropOp50
 70
     0
102
RTVSPost2010Prop51ColorIndex
 90
      256
102
RTVSPost2010Prop51ColorRGB
 90
-16777216
102
RTVSPost2010PropOp51
 70
     0
102
RTVSPost2010Prop52
140
1.0
102
RTVSPost2010PropOp52
 70
     0
102
RTVSPost2010Prop53
 90
        2
102
RTVSPost2010PropOp53
 70
     0
102
RTVSPost2010Prop54
  1
strokes_ogs.tif
102
RTVSPost2010PropOp54
 70
     0
102
RTVSPost2010Prop55
280
     0
102
RTVSPost2010PropOp55
 70
     1
102
RTVSPost2010Prop56
140
1.0
102
RTVSPost2010PropOp56
 70
     0
102
RTVSPost2010Prop57
140
1.0
102
RTVSPost2010PropOp57
 70
     0
102
RTVSPropertyOp0
 70
     0
102
RTVSPropertyOp1
 70
     0
102
RTVSPropertyOp2
 70
     0
102
RTVSPropertyOp3
 70
     0
102
RTVSPropertyOp4
 70
     0
102
RTVSPropertyOp5
 70
     0
102
RTVSPropertyOp6
 70
     0
102
RTVSPropertyOp7
 70
     0
102
RTVSPropertyOp8
 70
     0
102
RTVSPropertyOp9
 70
     0
102
RTVSPropertyOp10
 70
     0
102
RTVSPropertyOp11
 70
     0
102
RTVSPropertyOp12
 70
     0
102
RTVSPropertyOp13
 70
     0
102
RTVSPropertyOp14
 70
     2
102
RTVSPropertyOp15
 70
     0
102
RTVSPropertyOp16
 70
     0
102
RTVSPropertyOp17
 70
     0
102
RTVSPropertyOp18
 70
     0
102
RTVSPropertyOp19
 70
     0
102
RTVSPropertyOp20
 70
     0
102
RTVSPropertyOp21
 70
     0
102
RTVSPropertyOp22
 70
     0
102
RTVSPropertyOp23
 70
     0
102
RTVSPropertyOp24
 70
     0
102
RTVSPropertyOp25
 70
     0
102
RTVSPropertyOp26
 70
     0
102
RTVSPropertyOp27
 70
     0
102
RTVSPropertyOp28
 70
     1
102
RTVSPropertyOp29
 70
     1
102
RTVSPropertyOp30
 70
     1
102
RTVSPropertyOp31
 70
     1
102
RTVSPropertyOp32
 70
     1
102
RTVSPropertyOp33
 70
     1
102
RTVSPropertyOp34
 70
     1
102
RTVSPropertyOp35
 70
     1
102
RTVSPropertyOp36
 70
     1
102
RTVSPropertyOp37
 70
     0
102
RTVSPropertyOp38
 70
     0
102
RTVSPropertyOp39
 70
     0
102
RTVSPropertyOp40
 70
     0
102
RTVSPropertyOp41
 70
     0
102
RTVSPropertyOp42
 70
     0
102
RTVSPropertyOp43
 70
     0
102
RTVSPropertyOp44
 70
     0
102
RTVSPropertyOp45
 70
     1
102
RTVSPropertyOp46
 70
     0
102
RTVSPropertyOp47
 70
     0
102
RTVSPropertyOp48
 70
     0
102
RTVSPropertyOp49
 70
     1
102
RTVSPropertyOp50
 70
     0
102
RTVSPropertyOp51
 70
     0
102
RTVSPropertyOp52
 70
     0
102
RTVSPropertyOp53
 70
     0
102
RTVSPropertyOp54
 70
     0
102
RTVSPropertyOp55
 70
     1
102
RTVSPropertyOp56
 70
     0
102
RTVSPropertyOp57
 70
     0
102
RTVSPropertyOp58
 70
     0
102
RTVSPropertyOp59
 70
     0
102
RTVSPropertyOp60
 70
     0
102
RTVSPropertyOp61
 70
     0
102
RTVSPropertyOp62
 70
     0
  0
XRECORD
  5
14A2
102
{ACAD_REACTORS
330
14A1
102
}
330
14A1
100
AcDbXrecord
280
     1
102
RTVSPost2010Prop28
280
     0
102
RTVSPost2010PropOp28
 70
     1
102
RTVSPost2010Prop29
280
     1
102
RTVSPost2010PropOp29
 70
     1
102
RTVSPost2010Prop30
280
     1
102
RTVSPost2010PropOp30
 70
     1
102
RTVSPost2010Prop31
280
     0
102
RTVSPost2010PropOp31
 70
     1
102
RTVSPost2010Prop32
280
     0
102
RTVSPost2010PropOp32
 70
     1
102
RTVSPost2010Prop33
280
     0
102
RTVSPost2010PropOp33
 70
     1
102
RTVSPost2010Prop34
280
     0
102
RTVSPost2010PropOp34
 70
     1
102
RTVSPost2010Prop35
280
     0
102
RTVSPost2010PropOp35
 70
     1
102
RTVSPost2010Prop36
280
     0
102
RTVSPost2010PropOp36
 70
     1
102
RTVSPost2010Prop37
 90
       50
102
RTVSPost2010PropOp37
 70
     1
102
RTVSPost2010Prop38
140
0.0
102
RTVSPost2010PropOp38
 70
     1
102
RTVSPost2010Prop39
140
1.0
102
RTVSPost2010PropOp39
 70
     1
102
RTVSPost2010Prop40
 90
        0
102
RTVSPost2010PropOp40
 70
     1
102
RTVSPost2010Prop41ColorIndex
 90
       18
102
RTVSPost2010Prop41ColorRGB
 90
        0
102
RTVSPost2010PropOp41
 70
     1
102
RTVSPost2010Prop42
 90
       50
102
RTVSPost2010PropOp42
 70
     1
102
RTVSPost2010Prop43
 90
        3
102
RTVSPost2010PropOp43
 70
     1
102
RTVSPost2010Prop44ColorIndex
 90
        5
102
RTVSPost2010Prop44ColorRGB
 90
      255
102
RTVSPost2010PropOp44
 70
     1
102
RTVSPost2010Prop45
280
     0
102
RTVSPost2010PropOp45
 70
     1
102
RTVSPost2010Prop46
 90
       50
102
RTVSPost2010PropOp46
 70
     1
102
RTVSPost2010Prop47
 90
       50
102
RTVSPost2010PropOp47
 70
     1
102
RTVSPost2010Prop48
 90
       50
102
RTVSPost2010PropOp48
 70
     1
102
RTVSPost2010Prop49
280
     0
102
RTVSPost2010PropOp49
 70
     1
102
RTVSPost2010Prop50
 90
       50
102
RTVSPost2010PropOp50
 70
     1
102
RTVSPost2010Prop51ColorIndex
 90
      256
102
RTVSPost2010Prop51ColorRGB
 90
-16777216
102
RTVSPost2010PropOp51
 70
     0
102
RTVSPost2010Prop52
140
1.0
102
RTVSPost2010PropOp52
 70
     0
102
RTVSPost2010Prop53
 90
        2
102
RTVSPost2010PropOp53
 70
     1
102
RTVSPost2010Prop54
  1
strokes_ogs.tif
102
RTVSPost2010PropOp54
 70
     1
102
RTVSPost2010Prop55
280
     0
102
RTVSPost2010PropOp55
 70
     1
102
RTVSPost2010Prop56
140
1.0
102
RTVSPost2010PropOp56
 70
     1
102
RTVSPost2010Prop57
140
1.0
102
RTVSPost2010PropOp57
 70
     1
102
RTVSPropertyOp0
 70
     1
102
RTVSPropertyOp1
 70
     1
102
RTVSPropertyOp2
 70
     1
102
RTVSPropertyOp3
 70
     1
102
RTVSPropertyOp4
 70
     1
102
RTVSPropertyOp5
 70
     1
102
RTVSPropertyOp6
 70
     1
102
RTVSPropertyOp7
 70
     1
102
RTVSPropertyOp8
 70
     1
102
RTVSPropertyOp9
 70
     1
102
RTVSPropertyOp10
 70
     1
102
RTVSPropertyOp11
 70
     1
102
RTVSPropertyOp12
 70
     1
102
RTVSPropertyOp13
 70
     1
102
RTVSPropertyOp14
 70
     1
102
RTVSPropertyOp15
 70
     1
102
RTVSPropertyOp16
 70
     1
102
RTVSPropertyOp17
 70
     1
102
RTVSPropertyOp18
 70
     1
102
RTVSPropertyOp19
 70
     1
102
RTVSPropertyOp20
 70
     1
102
RTVSPropertyOp21
 70
     1
102
RTVSPropertyOp22
 70
     1
102
RTVSPropertyOp23
 70
     1
102
RTVSPropertyOp24
 70
     1
102
RTVSPropertyOp25
 70
     1
102
RTVSPropertyOp26
 70
     1
102
RTVSPropertyOp27
 70
     1
102
RTVSPropertyOp28
 70
     1
102
RTVSPropertyOp29
 70
     1
102
RTVSPropertyOp30
 70
     1
102
RTVSPropertyOp31
 70
     1
102
RTVSPropertyOp32
 70
     1
102
RTVSPropertyOp33
 70
     1
102
RTVSPropertyOp34
 70
     1
102
RTVSPropertyOp35
 70
     1
102
RTVSPropertyOp36
 70
     1
102
RTVSPropertyOp37
 70
     1
102
RTVSPropertyOp38
 70
     1
102
RTVSPropertyOp39
 70
     1
102
RTVSPropertyOp40
 70
     1
102
RTVSPropertyOp41
 70
     1
102
RTVSPropertyOp42
 70
     1
102
RTVSPropertyOp43
 70
     1
102
RTVSPropertyOp44
 70
     1
102
RTVSPropertyOp45
 70
     1
102
RTVSPropertyOp46
 70
     1
102
RTVSPropertyOp47
 70
     1
102
RTVSPropertyOp48
 70
     1
102
RTVSPropertyOp49
 70
     1
102
RTVSPropertyOp50
 70
     1
102
RTVSPropertyOp51
 70
     0
102
RTVSPropertyOp52
 70
     0
102
RTVSPropertyOp53
 70
     1
102
RTVSPropertyOp54
 70
     1
102
RTVSPropertyOp55
 70
     1
102
RTVSPropertyOp56
 70
     1
102
RTVSPropertyOp57
 70
     1
102
RTVSPropertyOp58
 70
     1
102
RTVSPropertyOp59
 70
     1
102
RTVSPropertyOp60
 70
     1
102
RTVSPropertyOp61
 70
     1
102
RTVSPropertyOp62
 70
     1
  0
XRECORD
  5
14B4
102
{ACAD_REACTORS
330
14B3
102
}
330
14B3
100
AcDbXrecord
280
     1
102
RTVSPost2010Prop28
280
     0
102
RTVSPost2010PropOp28
 70
     1
102
RTVSPost2010Prop29
280
     1
102
RTVSPost2010PropOp29
 70
     1
102
RTVSPost2010Prop30
280
     1
102
RTVSPost2010PropOp30
 70
     1
102
RTVSPost2010Prop31
280
     0
102
RTVSPost2010PropOp31
 70
     1
102
RTVSPost2010Prop32
280
     0
102
RTVSPost2010PropOp32
 70
     1
102
RTVSPost2010Prop33
280
     0
102
RTVSPost2010PropOp33
 70
     1
102
RTVSPost2010Prop34
280
     0
102
RTVSPost2010PropOp34
 70
     1
102
RTVSPost2010Prop35
280
     0
102
RTVSPost2010PropOp35
 70
     1
102
RTVSPost2010Prop36
280
     0
102
RTVSPost2010PropOp36
 70
     1
102
RTVSPost2010Prop37
 90
       50
102
RTVSPost2010PropOp37
 70
     0
102
RTVSPost2010Prop38
140
0.0
102
RTVSPost2010PropOp38
 70
     0
102
RTVSPost2010Prop39
140
1.0
102
RTVSPost2010PropOp39
 70
     0
102
RTVSPost2010Prop40
 90
        0
102
RTVSPost2010PropOp40
 70
     0
102
RTVSPost2010Prop41ColorIndex
 90
       18
102
RTVSPost2010Prop41ColorRGB
 90
        0
102
RTVSPost2010PropOp41
 70
     0
102
RTVSPost2010Prop42
 90
       50
102
RTVSPost2010PropOp42
 70
     0
102
RTVSPost2010Prop43
 90
        3
102
RTVSPost2010PropOp43
 70
     0
102
RTVSPost2010Prop44ColorIndex
 90
        5
102
RTVSPost2010Prop44ColorRGB
 90
      255
102
RTVSPost2010PropOp44
 70
     0
102
RTVSPost2010Prop45
280
     0
102
RTVSPost2010PropOp45
 70
     1
102
RTVSPost2010Prop46
 90
       50
102
RTVSPost2010PropOp46
 70
     0
102
RTVSPost2010Prop47
 90
       50
102
RTVSPost2010PropOp47
 70
     0
102
RTVSPost2010Prop48
 90
       50
102
RTVSPost2010PropOp48
 70
     0
102
RTVSPost2010Prop49
280
     0
102
RTVSPost2010PropOp49
 70
     1
102
RTVSPost2010Prop50
 90
       50
102
RTVSPost2010PropOp50
 70
     0
102
RTVSPost2010Prop51ColorIndex
 90
      256
102
RTVSPost2010Prop51ColorRGB
 90
-16777216
102
RTVSPost2010PropOp51
 70
     0
102
RTVSPost2010Prop52
140
1.0
102
RTVSPost2010PropOp52
 70
     0
102
RTVSPost2010Prop53
 90
        2
102
RTVSPost2010PropOp53
 70
     0
102
RTVSPost2010Prop54
  1
strokes_ogs.tif
102
RTVSPost2010PropOp54
 70
     0
102
RTVSPost2010Prop55
280
     0
102
RTVSPost2010PropOp55
 70
     1
102
RTVSPost2010Prop56
140
1.0
102
RTVSPost2010PropOp56
 70
     0
102
RTVSPost2010Prop57
140
1.0
102
RTVSPost2010PropOp57
 70
     0
102
RTVSPropertyOp0
 70
     0
102
RTVSPropertyOp1
 70
     0
102
RTVSPropertyOp2
 70
     0
102
RTVSPropertyOp3
 70
     0
102
RTVSPropertyOp4
 70
     0
102
RTVSPropertyOp5
 70
     0
102
RTVSPropertyOp6
 70
     0
102
RTVSPropertyOp7
 70
     0
102
RTVSPropertyOp8
 70
     0
102
RTVSPropertyOp9
 70
     0
102
RTVSPropertyOp10
 70
     0
102
RTVSPropertyOp11
 70
     0
102
RTVSPropertyOp12
 70
     0
102
RTVSPropertyOp13
 70
     0
102
RTVSPropertyOp14
 70
     2
102
RTVSPropertyOp15
 70
     0
102
RTVSPropertyOp16
 70
     0
102
RTVSPropertyOp17
 70
     0
102
RTVSPropertyOp18
 70
     0
102
RTVSPropertyOp19
 70
     0
102
RTVSPropertyOp20
 70
     0
102
RTVSPropertyOp21
 70
     0
102
RTVSPropertyOp22
 70
     0
102
RTVSPropertyOp23
 70
     0
102
RTVSPropertyOp24
 70
     0
102
RTVSPropertyOp25
 70
     0
102
RTVSPropertyOp26
 70
     0
102
RTVSPropertyOp27
 70
     0
102
RTVSPropertyOp28
 70
     1
102
RTVSPropertyOp29
 70
     1
102
RTVSPropertyOp30
 70
     1
102
RTVSPropertyOp31
 70
     1
102
RTVSPropertyOp32
 70
     1
102
RTVSPropertyOp33
 70
     1
102
RTVSPropertyOp34
 70
     1
102
RTVSPropertyOp35
 70
     1
102
RTVSPropertyOp36
 70
     1
102
RTVSPropertyOp37
 70
     0
102
RTVSPropertyOp38
 70
     0
102
RTVSPropertyOp39
 70
     0
102
RTVSPropertyOp40
 70
     0
102
RTVSPropertyOp41
 70
     0
102
RTVSPropertyOp42
 70
     0
102
RTVSPropertyOp43
 70
     0
102
RTVSPropertyOp44
 70
     0
102
RTVSPropertyOp45
 70
     1
102
RTVSPropertyOp46
 70
     0
102
RTVSPropertyOp47
 70
     0
102
RTVSPropertyOp48
 70
     0
102
RTVSPropertyOp49
 70
     1
102
RTVSPropertyOp50
 70
     0
102
RTVSPropertyOp51
 70
     0
102
RTVSPropertyOp52
 70
     0
102
RTVSPropertyOp53
 70
     0
102
RTVSPropertyOp54
 70
     0
102
RTVSPropertyOp55
 70
     1
102
RTVSPropertyOp56
 70
     0
102
RTVSPropertyOp57
 70
     0
102
RTVSPropertyOp58
 70
     0
102
RTVSPropertyOp59
 70
     0
102
RTVSPropertyOp60
 70
     0
102
RTVSPropertyOp61
 70
     0
102
RTVSPropertyOp62
 70
     0
  0
XRECORD
  5
149A
102
{ACAD_REACTORS
330
1499
102
}
330
1499
100
AcDbXrecord
280
     1
102
RTVSPost2010Prop28
280
     0
102
RTVSPost2010PropOp28
 70
     1
102
RTVSPost2010Prop29
280
     1
102
RTVSPost2010PropOp29
 70
     1
102
RTVSPost2010Prop30
280
     1
102
RTVSPost2010PropOp30
 70
     1
102
RTVSPost2010Prop31
280
     0
102
RTVSPost2010PropOp31
 70
     1
102
RTVSPost2010Prop32
280
     0
102
RTVSPost2010PropOp32
 70
     1
102
RTVSPost2010Prop33
280
     0
102
RTVSPost2010PropOp33
 70
     1
102
RTVSPost2010Prop34
280
     0
102
RTVSPost2010PropOp34
 70
     1
102
RTVSPost2010Prop35
280
     0
102
RTVSPost2010PropOp35
 70
     1
102
RTVSPost2010Prop36
280
     0
102
RTVSPost2010PropOp36
 70
     1
102
RTVSPost2010Prop37
 90
       50
102
RTVSPost2010PropOp37
 70
     1
102
RTVSPost2010Prop38
140
0.0
102
RTVSPost2010PropOp38
 70
     1
102
RTVSPost2010Prop39
140
1.0
102
RTVSPost2010PropOp39
 70
     1
102
RTVSPost2010Prop40
 90
        0
102
RTVSPost2010PropOp40
 70
     1
102
RTVSPost2010Prop41ColorIndex
 90
       18
102
RTVSPost2010Prop41ColorRGB
 90
        0
102
RTVSPost2010PropOp41
 70
     1
102
RTVSPost2010Prop42
 90
       50
102
RTVSPost2010PropOp42
 70
     1
102
RTVSPost2010Prop43
 90
        3
102
RTVSPost2010PropOp43
 70
     1
102
RTVSPost2010Prop44ColorIndex
 90
        5
102
RTVSPost2010Prop44ColorRGB
 90
      255
102
RTVSPost2010PropOp44
 70
     1
102
RTVSPost2010Prop45
280
     0
102
RTVSPost2010PropOp45
 70
     1
102
RTVSPost2010Prop46
 90
       50
102
RTVSPost2010PropOp46
 70
     1
102
RTVSPost2010Prop47
 90
       50
102
RTVSPost2010PropOp47
 70
     1
102
RTVSPost2010Prop48
 90
       50
102
RTVSPost2010PropOp48
 70
     1
102
RTVSPost2010Prop49
280
     0
102
RTVSPost2010PropOp49
 70
     1
102
RTVSPost2010Prop50
 90
       50
102
RTVSPost2010PropOp50
 70
     1
102
RTVSPost2010Prop51ColorIndex
 90
      256
102
RTVSPost2010Prop51ColorRGB
 90
-16777216
102
RTVSPost2010PropOp51
 70
     0
102
RTVSPost2010Prop52
140
1.0
102
RTVSPost2010PropOp52
 70
     0
102
RTVSPost2010Prop53
 90
        2
102
RTVSPost2010PropOp53
 70
     1
102
RTVSPost2010Prop54
  1
strokes_ogs.tif
102
RTVSPost2010PropOp54
 70
     1
102
RTVSPost2010Prop55
280
     0
102
RTVSPost2010PropOp55
 70
     1
102
RTVSPost2010Prop56
140
1.0
102
RTVSPost2010PropOp56
 70
     1
102
RTVSPost2010Prop57
140
1.0
102
RTVSPost2010PropOp57
 70
     1
102
RTVSPropertyOp0
 70
     1
102
RTVSPropertyOp1
 70
     1
102
RTVSPropertyOp2
 70
     1
102
RTVSPropertyOp3
 70
     1
102
RTVSPropertyOp4
 70
     1
102
RTVSPropertyOp5
 70
     1
102
RTVSPropertyOp6
 70
     1
102
RTVSPropertyOp7
 70
     1
102
RTVSPropertyOp8
 70
     1
102
RTVSPropertyOp9
 70
     1
102
RTVSPropertyOp10
 70
     1
102
RTVSPropertyOp11
 70
     1
102
RTVSPropertyOp12
 70
     1
102
RTVSPropertyOp13
 70
     1
102
RTVSPropertyOp14
 70
     1
102
RTVSPropertyOp15
 70
     1
102
RTVSPropertyOp16
 70
     1
102
RTVSPropertyOp17
 70
     1
102
RTVSPropertyOp18
 70
     1
102
RTVSPropertyOp19
 70
     1
102
RTVSPropertyOp20
 70
     1
102
RTVSPropertyOp21
 70
     1
102
RTVSPropertyOp22
 70
     1
102
RTVSPropertyOp23
 70
     1
102
RTVSPropertyOp24
 70
     1
102
RTVSPropertyOp25
 70
     1
102
RTVSPropertyOp26
 70
     1
102
RTVSPropertyOp27
 70
     1
102
RTVSPropertyOp28
 70
     1
102
RTVSPropertyOp29
 70
     1
102
RTVSPropertyOp30
 70
     1
102
RTVSPropertyOp31
 70
     1
102
RTVSPropertyOp32
 70
     1
102
RTVSPropertyOp33
 70
     1
102
RTVSPropertyOp34
 70
     1
102
RTVSPropertyOp35
 70
     1
102
RTVSPropertyOp36
 70
     1
102
RTVSPropertyOp37
 70
     1
102
RTVSPropertyOp38
 70
     1
102
RTVSPropertyOp39
 70
     1
102
RTVSPropertyOp40
 70
     1
102
RTVSPropertyOp41
 70
     1
102
RTVSPropertyOp42
 70
     1
102
RTVSPropertyOp43
 70
     1
102
RTVSPropertyOp44
 70
     1
102
RTVSPropertyOp45
 70
     1
102
RTVSPropertyOp46
 70
     1
102
RTVSPropertyOp47
 70
     1
102
RTVSPropertyOp48
 70
     1
102
RTVSPropertyOp49
 70
     1
102
RTVSPropertyOp50
 70
     1
102
RTVSPropertyOp51
 70
     0
102
RTVSPropertyOp52
 70
     0
102
RTVSPropertyOp53
 70
     1
102
RTVSPropertyOp54
 70
     1
102
RTVSPropertyOp55
 70
     1
102
RTVSPropertyOp56
 70
     1
102
RTVSPropertyOp57
 70
     1
102
RTVSPropertyOp58
 70
     1
102
RTVSPropertyOp59
 70
     1
102
RTVSPropertyOp60
 70
     1
102
RTVSPropertyOp61
 70
     1
102
RTVSPropertyOp62
 70
     1
  0
XRECORD
  5
14B0
102
{ACAD_REACTORS
330
14AF
102
}
330
14AF
100
AcDbXrecord
280
     1
102
RTVSPost2010Prop28
280
     0
102
RTVSPost2010PropOp28
 70
     1
102
RTVSPost2010Prop29
280
     1
102
RTVSPost2010PropOp29
 70
     1
102
RTVSPost2010Prop30
280
     1
102
RTVSPost2010PropOp30
 70
     1
102
RTVSPost2010Prop31
280
     0
102
RTVSPost2010PropOp31
 70
     1
102
RTVSPost2010Prop32
280
     0
102
RTVSPost2010PropOp32
 70
     1
102
RTVSPost2010Prop33
280
     0
102
RTVSPost2010PropOp33
 70
     1
102
RTVSPost2010Prop34
280
     0
102
RTVSPost2010PropOp34
 70
     1
102
RTVSPost2010Prop35
280
     0
102
RTVSPost2010PropOp35
 70
     1
102
RTVSPost2010Prop36
280
     0
102
RTVSPost2010PropOp36
 70
     1
102
RTVSPost2010Prop37
 90
       50
102
RTVSPost2010PropOp37
 70
     1
102
RTVSPost2010Prop38
140
0.0
102
RTVSPost2010PropOp38
 70
     1
102
RTVSPost2010Prop39
140
1.0
102
RTVSPost2010PropOp39
 70
     1
102
RTVSPost2010Prop40
 90
        0
102
RTVSPost2010PropOp40
 70
     1
102
RTVSPost2010Prop41ColorIndex
 90
       18
102
RTVSPost2010Prop41ColorRGB
 90
        0
102
RTVSPost2010PropOp41
 70
     1
102
RTVSPost2010Prop42
 90
       50
102
RTVSPost2010PropOp42
 70
     1
102
RTVSPost2010Prop43
 90
        3
102
RTVSPost2010PropOp43
 70
     1
102
RTVSPost2010Prop44ColorIndex
 90
        5
102
RTVSPost2010Prop44ColorRGB
 90
      255
102
RTVSPost2010PropOp44
 70
     1
102
RTVSPost2010Prop45
280
     0
102
RTVSPost2010PropOp45
 70
     1
102
RTVSPost2010Prop46
 90
       50
102
RTVSPost2010PropOp46
 70
     1
102
RTVSPost2010Prop47
 90
       50
102
RTVSPost2010PropOp47
 70
     1
102
RTVSPost2010Prop48
 90
       50
102
RTVSPost2010PropOp48
 70
     1
102
RTVSPost2010Prop49
280
     0
102
RTVSPost2010PropOp49
 70
     1
102
RTVSPost2010Prop50
 90
       50
102
RTVSPost2010PropOp50
 70
     1
102
RTVSPost2010Prop51ColorIndex
 90
      256
102
RTVSPost2010Prop51ColorRGB
 90
-16777216
102
RTVSPost2010PropOp51
 70
     0
102
RTVSPost2010Prop52
140
1.0
102
RTVSPost2010PropOp52
 70
     0
102
RTVSPost2010Prop53
 90
        2
102
RTVSPost2010PropOp53
 70
     1
102
RTVSPost2010Prop54
  1
strokes_ogs.tif
102
RTVSPost2010PropOp54
 70
     1
102
RTVSPost2010Prop55
280
     0
102
RTVSPost2010PropOp55
 70
     1
102
RTVSPost2010Prop56
140
1.0
102
RTVSPost2010PropOp56
 70
     1
102
RTVSPost2010Prop57
140
1.0
102
RTVSPost2010PropOp57
 70
     1
102
RTVSPropertyOp0
 70
     1
102
RTVSPropertyOp1
 70
     1
102
RTVSPropertyOp2
 70
     1
102
RTVSPropertyOp3
 70
     1
102
RTVSPropertyOp4
 70
     1
102
RTVSPropertyOp5
 70
     1
102
RTVSPropertyOp6
 70
     1
102
RTVSPropertyOp7
 70
     1
102
RTVSPropertyOp8
 70
     1
102
RTVSPropertyOp9
 70
     1
102
RTVSPropertyOp10
 70
     1
102
RTVSPropertyOp11
 70
     1
102
RTVSPropertyOp12
 70
     1
102
RTVSPropertyOp13
 70
     1
102
RTVSPropertyOp14
 70
     1
102
RTVSPropertyOp15
 70
     1
102
RTVSPropertyOp16
 70
     1
102
RTVSPropertyOp17
 70
     1
102
RTVSPropertyOp18
 70
     1
102
RTVSPropertyOp19
 70
     1
102
RTVSPropertyOp20
 70
     1
102
RTVSPropertyOp21
 70
     1
102
RTVSPropertyOp22
 70
     1
102
RTVSPropertyOp23
 70
     1
102
RTVSPropertyOp24
 70
     1
102
RTVSPropertyOp25
 70
     1
102
RTVSPropertyOp26
 70
     1
102
RTVSPropertyOp27
 70
     1
102
RTVSPropertyOp28
 70
     1
102
RTVSPropertyOp29
 70
     1
102
RTVSPropertyOp30
 70
     1
102
RTVSPropertyOp31
 70
     1
102
RTVSPropertyOp32
 70
     1
102
RTVSPropertyOp33
 70
     1
102
RTVSPropertyOp34
 70
     1
102
RTVSPropertyOp35
 70
     1
102
RTVSPropertyOp36
 70
     1
102
RTVSPropertyOp37
 70
     1
102
RTVSPropertyOp38
 70
     1
102
RTVSPropertyOp39
 70
     1
102
RTVSPropertyOp40
 70
     1
102
RTVSPropertyOp41
 70
     1
102
RTVSPropertyOp42
 70
     1
102
RTVSPropertyOp43
 70
     1
102
RTVSPropertyOp44
 70
     1
102
RTVSPropertyOp45
 70
     1
102
RTVSPropertyOp46
 70
     1
102
RTVSPropertyOp47
 70
     1
102
RTVSPropertyOp48
 70
     1
102
RTVSPropertyOp49
 70
     1
102
RTVSPropertyOp50
 70
     1
102
RTVSPropertyOp51
 70
     0
102
RTVSPropertyOp52
 70
     0
102
RTVSPropertyOp53
 70
     1
102
RTVSPropertyOp54
 70
     1
102
RTVSPropertyOp55
 70
     1
102
RTVSPropertyOp56
 70
     1
102
RTVSPropertyOp57
 70
     1
102
RTVSPropertyOp58
 70
     1
102
RTVSPropertyOp59
 70
     1
102
RTVSPropertyOp60
 70
     1
102
RTVSPropertyOp61
 70
     1
102
RTVSPropertyOp62
 70
     1
  0
XRECORD
  5
14AE
102
{ACAD_REACTORS
330
14AD
102
}
330
14AD
100
AcDbXrecord
280
     1
102
RTVSPost2010Prop28
280
     0
102
RTVSPost2010PropOp28
 70
     1
102
RTVSPost2010Prop29
280
     1
102
RTVSPost2010PropOp29
 70
     1
102
RTVSPost2010Prop30
280
     1
102
RTVSPost2010PropOp30
 70
     1
102
RTVSPost2010Prop31
280
     0
102
RTVSPost2010PropOp31
 70
     1
102
RTVSPost2010Prop32
280
     0
102
RTVSPost2010PropOp32
 70
     1
102
RTVSPost2010Prop33
280
     0
102
RTVSPost2010PropOp33
 70
     1
102
RTVSPost2010Prop34
280
     0
102
RTVSPost2010PropOp34
 70
     1
102
RTVSPost2010Prop35
280
     0
102
RTVSPost2010PropOp35
 70
     1
102
RTVSPost2010Prop36
280
     0
102
RTVSPost2010PropOp36
 70
     1
102
RTVSPost2010Prop37
 90
       50
102
RTVSPost2010PropOp37
 70
     1
102
RTVSPost2010Prop38
140
0.0
102
RTVSPost2010PropOp38
 70
     1
102
RTVSPost2010Prop39
140
1.0
102
RTVSPost2010PropOp39
 70
     1
102
RTVSPost2010Prop40
 90
        0
102
RTVSPost2010PropOp40
 70
     1
102
RTVSPost2010Prop41ColorIndex
 90
       18
102
RTVSPost2010Prop41ColorRGB
 90
        0
102
RTVSPost2010PropOp41
 70
     1
102
RTVSPost2010Prop42
 90
       50
102
RTVSPost2010PropOp42
 70
     1
102
RTVSPost2010Prop43
 90
        3
102
RTVSPost2010PropOp43
 70
     1
102
RTVSPost2010Prop44ColorIndex
 90
        5
102
RTVSPost2010Prop44ColorRGB
 90
      255
102
RTVSPost2010PropOp44
 70
     1
102
RTVSPost2010Prop45
280
     0
102
RTVSPost2010PropOp45
 70
     1
102
RTVSPost2010Prop46
 90
       50
102
RTVSPost2010PropOp46
 70
     1
102
RTVSPost2010Prop47
 90
       50
102
RTVSPost2010PropOp47
 70
     1
102
RTVSPost2010Prop48
 90
       50
102
RTVSPost2010PropOp48
 70
     1
102
RTVSPost2010Prop49
280
     0
102
RTVSPost2010PropOp49
 70
     1
102
RTVSPost2010Prop50
 90
       50
102
RTVSPost2010PropOp50
 70
     1
102
RTVSPost2010Prop51ColorIndex
 90
      256
102
RTVSPost2010Prop51ColorRGB
 90
-16777216
102
RTVSPost2010PropOp51
 70
     0
102
RTVSPost2010Prop52
140
1.0
102
RTVSPost2010PropOp52
 70
     0
102
RTVSPost2010Prop53
 90
        2
102
RTVSPost2010PropOp53
 70
     1
102
RTVSPost2010Prop54
  1
strokes_ogs.tif
102
RTVSPost2010PropOp54
 70
     1
102
RTVSPost2010Prop55
280
     0
102
RTVSPost2010PropOp55
 70
     1
102
RTVSPost2010Prop56
140
1.0
102
RTVSPost2010PropOp56
 70
     1
102
RTVSPost2010Prop57
140
1.0
102
RTVSPost2010PropOp57
 70
     1
102
RTVSPropertyOp0
 70
     1
102
RTVSPropertyOp1
 70
     1
102
RTVSPropertyOp2
 70
     1
102
RTVSPropertyOp3
 70
     1
102
RTVSPropertyOp4
 70
     1
102
RTVSPropertyOp5
 70
     1
102
RTVSPropertyOp6
 70
     1
102
RTVSPropertyOp7
 70
     1
102
RTVSPropertyOp8
 70
     1
102
RTVSPropertyOp9
 70
     1
102
RTVSPropertyOp10
 70
     1
102
RTVSPropertyOp11
 70
     1
102
RTVSPropertyOp12
 70
     1
102
RTVSPropertyOp13
 70
     1
102
RTVSPropertyOp14
 70
     1
102
RTVSPropertyOp15
 70
     1
102
RTVSPropertyOp16
 70
     1
102
RTVSPropertyOp17
 70
     1
102
RTVSPropertyOp18
 70
     1
102
RTVSPropertyOp19
 70
     1
102
RTVSPropertyOp20
 70
     1
102
RTVSPropertyOp21
 70
     1
102
RTVSPropertyOp22
 70
     1
102
RTVSPropertyOp23
 70
     1
102
RTVSPropertyOp24
 70
     1
102
RTVSPropertyOp25
 70
     1
102
RTVSPropertyOp26
 70
     1
102
RTVSPropertyOp27
 70
     1
102
RTVSPropertyOp28
 70
     1
102
RTVSPropertyOp29
 70
     1
102
RTVSPropertyOp30
 70
     1
102
RTVSPropertyOp31
 70
     1
102
RTVSPropertyOp32
 70
     1
102
RTVSPropertyOp33
 70
     1
102
RTVSPropertyOp34
 70
     1
102
RTVSPropertyOp35
 70
     1
102
RTVSPropertyOp36
 70
     1
102
RTVSPropertyOp37
 70
     1
102
RTVSPropertyOp38
 70
     1
102
RTVSPropertyOp39
 70
     1
102
RTVSPropertyOp40
 70
     1
102
RTVSPropertyOp41
 70
     1
102
RTVSPropertyOp42
 70
     1
102
RTVSPropertyOp43
 70
     1
102
RTVSPropertyOp44
 70
     1
102
RTVSPropertyOp45
 70
     1
102
RTVSPropertyOp46
 70
     1
102
RTVSPropertyOp47
 70
     1
102
RTVSPropertyOp48
 70
     1
102
RTVSPropertyOp49
 70
     1
102
RTVSPropertyOp50
 70
     1
102
RTVSPropertyOp51
 70
     0
102
RTVSPropertyOp52
 70
     0
102
RTVSPropertyOp53
 70
     1
102
RTVSPropertyOp54
 70
     1
102
RTVSPropertyOp55
 70
     1
102
RTVSPropertyOp56
 70
     1
102
RTVSPropertyOp57
 70
     1
102
RTVSPropertyOp58
 70
     1
102
RTVSPropertyOp59
 70
     1
102
RTVSPropertyOp60
 70
     1
102
RTVSPropertyOp61
 70
     1
102
RTVSPropertyOp62
 70
     1
  0
XRECORD
  5
14A8
102
{ACAD_REACTORS
330
14A7
102
}
330
14A7
100
AcDbXrecord
280
     1
102
RTVSPost2010Prop28
280
     0
102
RTVSPost2010PropOp28
 70
     1
102
RTVSPost2010Prop29
280
     1
102
RTVSPost2010PropOp29
 70
     1
102
RTVSPost2010Prop30
280
     1
102
RTVSPost2010PropOp30
 70
     1
102
RTVSPost2010Prop31
280
     0
102
RTVSPost2010PropOp31
 70
     1
102
RTVSPost2010Prop32
280
     0
102
RTVSPost2010PropOp32
 70
     1
102
RTVSPost2010Prop33
280
     0
102
RTVSPost2010PropOp33
 70
     1
102
RTVSPost2010Prop34
280
     0
102
RTVSPost2010PropOp34
 70
     1
102
RTVSPost2010Prop35
280
     0
102
RTVSPost2010PropOp35
 70
     1
102
RTVSPost2010Prop36
280
     0
102
RTVSPost2010PropOp36
 70
     1
102
RTVSPost2010Prop37
 90
       50
102
RTVSPost2010PropOp37
 70
     1
102
RTVSPost2010Prop38
140
0.0
102
RTVSPost2010PropOp38
 70
     1
102
RTVSPost2010Prop39
140
1.0
102
RTVSPost2010PropOp39
 70
     1
102
RTVSPost2010Prop40
 90
        0
102
RTVSPost2010PropOp40
 70
     1
102
RTVSPost2010Prop41ColorIndex
 90
       18
102
RTVSPost2010Prop41ColorRGB
 90
        0
102
RTVSPost2010PropOp41
 70
     1
102
RTVSPost2010Prop42
 90
       50
102
RTVSPost2010PropOp42
 70
     1
102
RTVSPost2010Prop43
 90
        3
102
RTVSPost2010PropOp43
 70
     1
102
RTVSPost2010Prop44ColorIndex
 90
        5
102
RTVSPost2010Prop44ColorRGB
 90
      255
102
RTVSPost2010PropOp44
 70
     1
102
RTVSPost2010Prop45
280
     0
102
RTVSPost2010PropOp45
 70
     1
102
RTVSPost2010Prop46
 90
       50
102
RTVSPost2010PropOp46
 70
     1
102
RTVSPost2010Prop47
 90
       50
102
RTVSPost2010PropOp47
 70
     1
102
RTVSPost2010Prop48
 90
       50
102
RTVSPost2010PropOp48
 70
     1
102
RTVSPost2010Prop49
280
     0
102
RTVSPost2010PropOp49
 70
     1
102
RTVSPost2010Prop50
 90
       50
102
RTVSPost2010PropOp50
 70
     1
102
RTVSPost2010Prop51ColorIndex
 90
      256
102
RTVSPost2010Prop51ColorRGB
 90
-16777216
102
RTVSPost2010PropOp51
 70
     0
102
RTVSPost2010Prop52
140
1.0
102
RTVSPost2010PropOp52
 70
     0
102
RTVSPost2010Prop53
 90
        2
102
RTVSPost2010PropOp53
 70
     1
102
RTVSPost2010Prop54
  1
strokes_ogs.tif
102
RTVSPost2010PropOp54
 70
     1
102
RTVSPost2010Prop55
280
     0
102
RTVSPost2010PropOp55
 70
     1
102
RTVSPost2010Prop56
140
1.0
102
RTVSPost2010PropOp56
 70
     1
102
RTVSPost2010Prop57
140
1.0
102
RTVSPost2010PropOp57
 70
     1
102
RTVSPropertyOp0
 70
     1
102
RTVSPropertyOp1
 70
     1
102
RTVSPropertyOp2
 70
     1
102
RTVSPropertyOp3
 70
     1
102
RTVSPropertyOp4
 70
     1
102
RTVSPropertyOp5
 70
     1
102
RTVSPropertyOp6
 70
     1
102
RTVSPropertyOp7
 70
     1
102
RTVSPropertyOp8
 70
     1
102
RTVSPropertyOp9
 70
     1
102
RTVSPropertyOp10
 70
     1
102
RTVSPropertyOp11
 70
     1
102
RTVSPropertyOp12
 70
     1
102
RTVSPropertyOp13
 70
     1
102
RTVSPropertyOp14
 70
     1
102
RTVSPropertyOp15
 70
     1
102
RTVSPropertyOp16
 70
     1
102
RTVSPropertyOp17
 70
     1
102
RTVSPropertyOp18
 70
     1
102
RTVSPropertyOp19
 70
     1
102
RTVSPropertyOp20
 70
     1
102
RTVSPropertyOp21
 70
     1
102
RTVSPropertyOp22
 70
     1
102
RTVSPropertyOp23
 70
     1
102
RTVSPropertyOp24
 70
     1
102
RTVSPropertyOp25
 70
     1
102
RTVSPropertyOp26
 70
     1
102
RTVSPropertyOp27
 70
     1
102
RTVSPropertyOp28
 70
     1
102
RTVSPropertyOp29
 70
     1
102
RTVSPropertyOp30
 70
     1
102
RTVSPropertyOp31
 70
     1
102
RTVSPropertyOp32
 70
     1
102
RTVSPropertyOp33
 70
     1
102
RTVSPropertyOp34
 70
     1
102
RTVSPropertyOp35
 70
     1
102
RTVSPropertyOp36
 70
     1
102
RTVSPropertyOp37
 70
     1
102
RTVSPropertyOp38
 70
     1
102
RTVSPropertyOp39
 70
     1
102
RTVSPropertyOp40
 70
     1
102
RTVSPropertyOp41
 70
     1
102
RTVSPropertyOp42
 70
     1
102
RTVSPropertyOp43
 70
     1
102
RTVSPropertyOp44
 70
     1
102
RTVSPropertyOp45
 70
     1
102
RTVSPropertyOp46
 70
     1
102
RTVSPropertyOp47
 70
     1
102
RTVSPropertyOp48
 70
     1
102
RTVSPropertyOp49
 70
     1
102
RTVSPropertyOp50
 70
     1
102
RTVSPropertyOp51
 70
     0
102
RTVSPropertyOp52
 70
     0
102
RTVSPropertyOp53
 70
     1
102
RTVSPropertyOp54
 70
     1
102
RTVSPropertyOp55
 70
     1
102
RTVSPropertyOp56
 70
     1
102
RTVSPropertyOp57
 70
     1
102
RTVSPropertyOp58
 70
     1
102
RTVSPropertyOp59
 70
     1
102
RTVSPropertyOp60
 70
     1
102
RTVSPropertyOp61
 70
     1
102
RTVSPropertyOp62
 70
     1
  0
XRECORD
  5
14AA
102
{ACAD_REACTORS
330
14A9
102
}
330
14A9
100
AcDbXrecord
280
     1
102
RTVSPost2010Prop28
280
     0
102
RTVSPost2010PropOp28
 70
     1
102
RTVSPost2010Prop29
280
     1
102
RTVSPost2010PropOp29
 70
     1
102
RTVSPost2010Prop30
280
     1
102
RTVSPost2010PropOp30
 70
     1
102
RTVSPost2010Prop31
280
     0
102
RTVSPost2010PropOp31
 70
     1
102
RTVSPost2010Prop32
280
     0
102
RTVSPost2010PropOp32
 70
     1
102
RTVSPost2010Prop33
280
     0
102
RTVSPost2010PropOp33
 70
     1
102
RTVSPost2010Prop34
280
     0
102
RTVSPost2010PropOp34
 70
     1
102
RTVSPost2010Prop35
280
     0
102
RTVSPost2010PropOp35
 70
     1
102
RTVSPost2010Prop36
280
     0
102
RTVSPost2010PropOp36
 70
     1
102
RTVSPost2010Prop37
 90
       50
102
RTVSPost2010PropOp37
 70
     1
102
RTVSPost2010Prop38
140
0.0
102
RTVSPost2010PropOp38
 70
     1
102
RTVSPost2010Prop39
140
1.0
102
RTVSPost2010PropOp39
 70
     1
102
RTVSPost2010Prop40
 90
        0
102
RTVSPost2010PropOp40
 70
     1
102
RTVSPost2010Prop41ColorIndex
 90
       18
102
RTVSPost2010Prop41ColorRGB
 90
        0
102
RTVSPost2010PropOp41
 70
     1
102
RTVSPost2010Prop42
 90
       50
102
RTVSPost2010PropOp42
 70
     1
102
RTVSPost2010Prop43
 90
        3
102
RTVSPost2010PropOp43
 70
     1
102
RTVSPost2010Prop44ColorIndex
 90
        5
102
RTVSPost2010Prop44ColorRGB
 90
      255
102
RTVSPost2010PropOp44
 70
     1
102
RTVSPost2010Prop45
280
     0
102
RTVSPost2010PropOp45
 70
     1
102
RTVSPost2010Prop46
 90
       50
102
RTVSPost2010PropOp46
 70
     1
102
RTVSPost2010Prop47
 90
       50
102
RTVSPost2010PropOp47
 70
     1
102
RTVSPost2010Prop48
 90
       50
102
RTVSPost2010PropOp48
 70
     1
102
RTVSPost2010Prop49
280
     0
102
RTVSPost2010PropOp49
 70
     1
102
RTVSPost2010Prop50
 90
       50
102
RTVSPost2010PropOp50
 70
     1
102
RTVSPost2010Prop51ColorIndex
 90
      256
102
RTVSPost2010Prop51ColorRGB
 90
-16777216
102
RTVSPost2010PropOp51
 70
     0
102
RTVSPost2010Prop52
140
1.0
102
RTVSPost2010PropOp52
 70
     0
102
RTVSPost2010Prop53
 90
        2
102
RTVSPost2010PropOp53
 70
     1
102
RTVSPost2010Prop54
  1
strokes_ogs.tif
102
RTVSPost2010PropOp54
 70
     1
102
RTVSPost2010Prop55
280
     0
102
RTVSPost2010PropOp55
 70
     1
102
RTVSPost2010Prop56
140
1.0
102
RTVSPost2010PropOp56
 70
     1
102
RTVSPost2010Prop57
140
1.0
102
RTVSPost2010PropOp57
 70
     1
102
RTVSPropertyOp0
 70
     1
102
RTVSPropertyOp1
 70
     1
102
RTVSPropertyOp2
 70
     1
102
RTVSPropertyOp3
 70
     1
102
RTVSPropertyOp4
 70
     1
102
RTVSPropertyOp5
 70
     1
102
RTVSPropertyOp6
 70
     1
102
RTVSPropertyOp7
 70
     1
102
RTVSPropertyOp8
 70
     1
102
RTVSPropertyOp9
 70
     1
102
RTVSPropertyOp10
 70
     1
102
RTVSPropertyOp11
 70
     1
102
RTVSPropertyOp12
 70
     1
102
RTVSPropertyOp13
 70
     1
102
RTVSPropertyOp14
 70
     1
102
RTVSPropertyOp15
 70
     1
102
RTVSPropertyOp16
 70
     1
102
RTVSPropertyOp17
 70
     1
102
RTVSPropertyOp18
 70
     1
102
RTVSPropertyOp19
 70
     1
102
RTVSPropertyOp20
 70
     1
102
RTVSPropertyOp21
 70
     1
102
RTVSPropertyOp22
 70
     1
102
RTVSPropertyOp23
 70
     1
102
RTVSPropertyOp24
 70
     1
102
RTVSPropertyOp25
 70
     1
102
RTVSPropertyOp26
 70
     1
102
RTVSPropertyOp27
 70
     1
102
RTVSPropertyOp28
 70
     1
102
RTVSPropertyOp29
 70
     1
102
RTVSPropertyOp30
 70
     1
102
RTVSPropertyOp31
 70
     1
102
RTVSPropertyOp32
 70
     1
102
RTVSPropertyOp33
 70
     1
102
RTVSPropertyOp34
 70
     1
102
RTVSPropertyOp35
 70
     1
102
RTVSPropertyOp36
 70
     1
102
RTVSPropertyOp37
 70
     1
102
RTVSPropertyOp38
 70
     1
102
RTVSPropertyOp39
 70
     1
102
RTVSPropertyOp40
 70
     1
102
RTVSPropertyOp41
 70
     1
102
RTVSPropertyOp42
 70
     1
102
RTVSPropertyOp43
 70
     1
102
RTVSPropertyOp44
 70
     1
102
RTVSPropertyOp45
 70
     1
102
RTVSPropertyOp46
 70
     1
102
RTVSPropertyOp47
 70
     1
102
RTVSPropertyOp48
 70
     1
102
RTVSPropertyOp49
 70
     1
102
RTVSPropertyOp50
 70
     1
102
RTVSPropertyOp51
 70
     0
102
RTVSPropertyOp52
 70
     0
102
RTVSPropertyOp53
 70
     1
102
RTVSPropertyOp54
 70
     1
102
RTVSPropertyOp55
 70
     1
102
RTVSPropertyOp56
 70
     1
102
RTVSPropertyOp57
 70
     1
102
RTVSPropertyOp58
 70
     1
102
RTVSPropertyOp59
 70
     1
102
RTVSPropertyOp60
 70
     1
102
RTVSPropertyOp61
 70
     1
102
RTVSPropertyOp62
 70
     1
  0
XRECORD
  5
14A0
102
{ACAD_REACTORS
330
149F
102
}
330
149F
100
AcDbXrecord
280
     1
102
RTVSPost2010Prop28
280
     0
102
RTVSPost2010PropOp28
 70
     1
102
RTVSPost2010Prop29
280
     1
102
RTVSPost2010PropOp29
 70
     1
102
RTVSPost2010Prop30
280
     1
102
RTVSPost2010PropOp30
 70
     1
102
RTVSPost2010Prop31
280
     0
102
RTVSPost2010PropOp31
 70
     1
102
RTVSPost2010Prop32
280
     0
102
RTVSPost2010PropOp32
 70
     1
102
RTVSPost2010Prop33
280
     0
102
RTVSPost2010PropOp33
 70
     1
102
RTVSPost2010Prop34
280
     0
102
RTVSPost2010PropOp34
 70
     1
102
RTVSPost2010Prop35
280
     0
102
RTVSPost2010PropOp35
 70
     1
102
RTVSPost2010Prop36
280
     0
102
RTVSPost2010PropOp36
 70
     1
102
RTVSPost2010Prop37
 90
       50
102
RTVSPost2010PropOp37
 70
     1
102
RTVSPost2010Prop38
140
0.0
102
RTVSPost2010PropOp38
 70
     1
102
RTVSPost2010Prop39
140
1.0
102
RTVSPost2010PropOp39
 70
     1
102
RTVSPost2010Prop40
 90
        0
102
RTVSPost2010PropOp40
 70
     1
102
RTVSPost2010Prop41ColorIndex
 90
       18
102
RTVSPost2010Prop41ColorRGB
 90
        0
102
RTVSPost2010PropOp41
 70
     1
102
RTVSPost2010Prop42
 90
       50
102
RTVSPost2010PropOp42
 70
     1
102
RTVSPost2010Prop43
 90
        3
102
RTVSPost2010PropOp43
 70
     1
102
RTVSPost2010Prop44ColorIndex
 90
        5
102
RTVSPost2010Prop44ColorRGB
 90
      255
102
RTVSPost2010PropOp44
 70
     1
102
RTVSPost2010Prop45
280
     0
102
RTVSPost2010PropOp45
 70
     1
102
RTVSPost2010Prop46
 90
       50
102
RTVSPost2010PropOp46
 70
     1
102
RTVSPost2010Prop47
 90
       50
102
RTVSPost2010PropOp47
 70
     1
102
RTVSPost2010Prop48
 90
       50
102
RTVSPost2010PropOp48
 70
     1
102
RTVSPost2010Prop49
280
     0
102
RTVSPost2010PropOp49
 70
     1
102
RTVSPost2010Prop50
 90
       50
102
RTVSPost2010PropOp50
 70
     1
102
RTVSPost2010Prop51ColorIndex
 90
      256
102
RTVSPost2010Prop51ColorRGB
 90
-16777216
102
RTVSPost2010PropOp51
 70
     0
102
RTVSPost2010Prop52
140
1.0
102
RTVSPost2010PropOp52
 70
     0
102
RTVSPost2010Prop53
 90
        2
102
RTVSPost2010PropOp53
 70
     1
102
RTVSPost2010Prop54
  1
strokes_ogs.tif
102
RTVSPost2010PropOp54
 70
     1
102
RTVSPost2010Prop55
280
     0
102
RTVSPost2010PropOp55
 70
     1
102
RTVSPost2010Prop56
140
1.0
102
RTVSPost2010PropOp56
 70
     1
102
RTVSPost2010Prop57
140
1.0
102
RTVSPost2010PropOp57
 70
     1
102
RTVSPropertyOp0
 70
     1
102
RTVSPropertyOp1
 70
     1
102
RTVSPropertyOp2
 70
     1
102
RTVSPropertyOp3
 70
     1
102
RTVSPropertyOp4
 70
     1
102
RTVSPropertyOp5
 70
     1
102
RTVSPropertyOp6
 70
     1
102
RTVSPropertyOp7
 70
     1
102
RTVSPropertyOp8
 70
     1
102
RTVSPropertyOp9
 70
     1
102
RTVSPropertyOp10
 70
     1
102
RTVSPropertyOp11
 70
     1
102
RTVSPropertyOp12
 70
     1
102
RTVSPropertyOp13
 70
     1
102
RTVSPropertyOp14
 70
     1
102
RTVSPropertyOp15
 70
     1
102
RTVSPropertyOp16
 70
     1
102
RTVSPropertyOp17
 70
     1
102
RTVSPropertyOp18
 70
     1
102
RTVSPropertyOp19
 70
     1
102
RTVSPropertyOp20
 70
     1
102
RTVSPropertyOp21
 70
     1
102
RTVSPropertyOp22
 70
     1
102
RTVSPropertyOp23
 70
     1
102
RTVSPropertyOp24
 70
     1
102
RTVSPropertyOp25
 70
     1
102
RTVSPropertyOp26
 70
     1
102
RTVSPropertyOp27
 70
     1
102
RTVSPropertyOp28
 70
     1
102
RTVSPropertyOp29
 70
     1
102
RTVSPropertyOp30
 70
     1
102
RTVSPropertyOp31
 70
     1
102
RTVSPropertyOp32
 70
     1
102
RTVSPropertyOp33
 70
     1
102
RTVSPropertyOp34
 70
     1
102
RTVSPropertyOp35
 70
     1
102
RTVSPropertyOp36
 70
     1
102
RTVSPropertyOp37
 70
     1
102
RTVSPropertyOp38
 70
     1
102
RTVSPropertyOp39
 70
     1
102
RTVSPropertyOp40
 70
     1
102
RTVSPropertyOp41
 70
     1
102
RTVSPropertyOp42
 70
     1
102
RTVSPropertyOp43
 70
     1
102
RTVSPropertyOp44
 70
     1
102
RTVSPropertyOp45
 70
     1
102
RTVSPropertyOp46
 70
     1
102
RTVSPropertyOp47
 70
     1
102
RTVSPropertyOp48
 70
     1
102
RTVSPropertyOp49
 70
     1
102
RTVSPropertyOp50
 70
     1
102
RTVSPropertyOp51
 70
     0
102
RTVSPropertyOp52
 70
     0
102
RTVSPropertyOp53
 70
     1
102
RTVSPropertyOp54
 70
     1
102
RTVSPropertyOp55
 70
     1
102
RTVSPropertyOp56
 70
     1
102
RTVSPropertyOp57
 70
     1
102
RTVSPropertyOp58
 70
     1
102
RTVSPropertyOp59
 70
     1
102
RTVSPropertyOp60
 70
     1
102
RTVSPropertyOp61
 70
     1
102
RTVSPropertyOp62
 70
     1
  0
XRECORD
  5
1494
102
{ACAD_REACTORS
330
1493
102
}
330
1493
100
AcDbXrecord
280
     1
102
RTVSPost2010Prop28
280
     0
102
RTVSPost2010PropOp28
 70
     1
102
RTVSPost2010Prop29
280
     1
102
RTVSPost2010PropOp29
 70
     1
102
RTVSPost2010Prop30
280
     1
102
RTVSPost2010PropOp30
 70
     1
102
RTVSPost2010Prop31
280
     0
102
RTVSPost2010PropOp31
 70
     1
102
RTVSPost2010Prop32
280
     0
102
RTVSPost2010PropOp32
 70
     1
102
RTVSPost2010Prop33
280
     0
102
RTVSPost2010PropOp33
 70
     1
102
RTVSPost2010Prop34
280
     0
102
RTVSPost2010PropOp34
 70
     1
102
RTVSPost2010Prop35
280
     0
102
RTVSPost2010PropOp35
 70
     1
102
RTVSPost2010Prop36
280
     0
102
RTVSPost2010PropOp36
 70
     1
102
RTVSPost2010Prop37
 90
       50
102
RTVSPost2010PropOp37
 70
     1
102
RTVSPost2010Prop38
140
0.0
102
RTVSPost2010PropOp38
 70
     1
102
RTVSPost2010Prop39
140
1.0
102
RTVSPost2010PropOp39
 70
     1
102
RTVSPost2010Prop40
 90
        0
102
RTVSPost2010PropOp40
 70
     1
102
RTVSPost2010Prop41ColorIndex
 90
       18
102
RTVSPost2010Prop41ColorRGB
 90
        0
102
RTVSPost2010PropOp41
 70
     1
102
RTVSPost2010Prop42
 90
       50
102
RTVSPost2010PropOp42
 70
     1
102
RTVSPost2010Prop43
 90
        3
102
RTVSPost2010PropOp43
 70
     1
102
RTVSPost2010Prop44ColorIndex
 90
        5
102
RTVSPost2010Prop44ColorRGB
 90
      255
102
RTVSPost2010PropOp44
 70
     1
102
RTVSPost2010Prop45
280
     0
102
RTVSPost2010PropOp45
 70
     1
102
RTVSPost2010Prop46
 90
       50
102
RTVSPost2010PropOp46
 70
     1
102
RTVSPost2010Prop47
 90
       50
102
RTVSPost2010PropOp47
 70
     1
102
RTVSPost2010Prop48
 90
       50
102
RTVSPost2010PropOp48
 70
     1
102
RTVSPost2010Prop49
280
     0
102
RTVSPost2010PropOp49
 70
     1
102
RTVSPost2010Prop50
 90
       50
102
RTVSPost2010PropOp50
 70
     1
102
RTVSPost2010Prop51ColorIndex
 90
      256
102
RTVSPost2010Prop51ColorRGB
 90
-16777216
102
RTVSPost2010PropOp51
 70
     0
102
RTVSPost2010Prop52
140
1.0
102
RTVSPost2010PropOp52
 70
     0
102
RTVSPost2010Prop53
 90
        2
102
RTVSPost2010PropOp53
 70
     1
102
RTVSPost2010Prop54
  1
strokes_ogs.tif
102
RTVSPost2010PropOp54
 70
     1
102
RTVSPost2010Prop55
280
     0
102
RTVSPost2010PropOp55
 70
     1
102
RTVSPost2010Prop56
140
1.0
102
RTVSPost2010PropOp56
 70
     1
102
RTVSPost2010Prop57
140
1.0
102
RTVSPost2010PropOp57
 70
     1
102
RTVSPropertyOp0
 70
     1
102
RTVSPropertyOp1
 70
     1
102
RTVSPropertyOp2
 70
     1
102
RTVSPropertyOp3
 70
     1
102
RTVSPropertyOp4
 70
     1
102
RTVSPropertyOp5
 70
     1
102
RTVSPropertyOp6
 70
     1
102
RTVSPropertyOp7
 70
     1
102
RTVSPropertyOp8
 70
     1
102
RTVSPropertyOp9
 70
     1
102
RTVSPropertyOp10
 70
     1
102
RTVSPropertyOp11
 70
     1
102
RTVSPropertyOp12
 70
     1
102
RTVSPropertyOp13
 70
     1
102
RTVSPropertyOp14
 70
     1
102
RTVSPropertyOp15
 70
     1
102
RTVSPropertyOp16
 70
     1
102
RTVSPropertyOp17
 70
     1
102
RTVSPropertyOp18
 70
     1
102
RTVSPropertyOp19
 70
     1
102
RTVSPropertyOp20
 70
     1
102
RTVSPropertyOp21
 70
     1
102
RTVSPropertyOp22
 70
     1
102
RTVSPropertyOp23
 70
     1
102
RTVSPropertyOp24
 70
     1
102
RTVSPropertyOp25
 70
     1
102
RTVSPropertyOp26
 70
     1
102
RTVSPropertyOp27
 70
     1
102
RTVSPropertyOp28
 70
     1
102
RTVSPropertyOp29
 70
     1
102
RTVSPropertyOp30
 70
     1
102
RTVSPropertyOp31
 70
     1
102
RTVSPropertyOp32
 70
     1
102
RTVSPropertyOp33
 70
     1
102
RTVSPropertyOp34
 70
     1
102
RTVSPropertyOp35
 70
     1
102
RTVSPropertyOp36
 70
     1
102
RTVSPropertyOp37
 70
     1
102
RTVSPropertyOp38
 70
     1
102
RTVSPropertyOp39
 70
     1
102
RTVSPropertyOp40
 70
     1
102
RTVSPropertyOp41
 70
     1
102
RTVSPropertyOp42
 70
     1
102
RTVSPropertyOp43
 70
     1
102
RTVSPropertyOp44
 70
     1
102
RTVSPropertyOp45
 70
     1
102
RTVSPropertyOp46
 70
     1
102
RTVSPropertyOp47
 70
     1
102
RTVSPropertyOp48
 70
     1
102
RTVSPropertyOp49
 70
     1
102
RTVSPropertyOp50
 70
     1
102
RTVSPropertyOp51
 70
     0
102
RTVSPropertyOp52
 70
     0
102
RTVSPropertyOp53
 70
     1
102
RTVSPropertyOp54
 70
     1
102
RTVSPropertyOp55
 70
     1
102
RTVSPropertyOp56
 70
     1
102
RTVSPropertyOp57
 70
     1
102
RTVSPropertyOp58
 70
     1
102
RTVSPropertyOp59
 70
     1
102
RTVSPropertyOp60
 70
     1
102
RTVSPropertyOp61
 70
     1
102
RTVSPropertyOp62
 70
     1
  0
XRECORD
  5
14AC
102
{ACAD_REACTORS
330
14AB
102
}
330
14AB
100
AcDbXrecord
280
     1
102
RTVSPost2010Prop28
280
     0
102
RTVSPost2010PropOp28
 70
     1
102
RTVSPost2010Prop29
280
     1
102
RTVSPost2010PropOp29
 70
     1
102
RTVSPost2010Prop30
280
     1
102
RTVSPost2010PropOp30
 70
     1
102
RTVSPost2010Prop31
280
     0
102
RTVSPost2010PropOp31
 70
     1
102
RTVSPost2010Prop32
280
     0
102
RTVSPost2010PropOp32
 70
     1
102
RTVSPost2010Prop33
280
     0
102
RTVSPost2010PropOp33
 70
     1
102
RTVSPost2010Prop34
280
     0
102
RTVSPost2010PropOp34
 70
     1
102
RTVSPost2010Prop35
280
     0
102
RTVSPost2010PropOp35
 70
     1
102
RTVSPost2010Prop36
280
     0
102
RTVSPost2010PropOp36
 70
     1
102
RTVSPost2010Prop37
 90
       50
102
RTVSPost2010PropOp37
 70
     1
102
RTVSPost2010Prop38
140
0.0
102
RTVSPost2010PropOp38
 70
     1
102
RTVSPost2010Prop39
140
1.0
102
RTVSPost2010PropOp39
 70
     1
102
RTVSPost2010Prop40
 90
        0
102
RTVSPost2010PropOp40
 70
     1
102
RTVSPost2010Prop41ColorIndex
 90
       18
102
RTVSPost2010Prop41ColorRGB
 90
        0
102
RTVSPost2010PropOp41
 70
     1
102
RTVSPost2010Prop42
 90
       50
102
RTVSPost2010PropOp42
 70
     1
102
RTVSPost2010Prop43
 90
        3
102
RTVSPost2010PropOp43
 70
     1
102
RTVSPost2010Prop44ColorIndex
 90
        5
102
RTVSPost2010Prop44ColorRGB
 90
      255
102
RTVSPost2010PropOp44
 70
     1
102
RTVSPost2010Prop45
280
     0
102
RTVSPost2010PropOp45
 70
     1
102
RTVSPost2010Prop46
 90
       50
102
RTVSPost2010PropOp46
 70
     1
102
RTVSPost2010Prop47
 90
       50
102
RTVSPost2010PropOp47
 70
     1
102
RTVSPost2010Prop48
 90
       50
102
RTVSPost2010PropOp48
 70
     1
102
RTVSPost2010Prop49
280
     0
102
RTVSPost2010PropOp49
 70
     1
102
RTVSPost2010Prop50
 90
       50
102
RTVSPost2010PropOp50
 70
     1
102
RTVSPost2010Prop51ColorIndex
 90
      256
102
RTVSPost2010Prop51ColorRGB
 90
-16777216
102
RTVSPost2010PropOp51
 70
     0
102
RTVSPost2010Prop52
140
1.0
102
RTVSPost2010PropOp52
 70
     0
102
RTVSPost2010Prop53
 90
        2
102
RTVSPost2010PropOp53
 70
     1
102
RTVSPost2010Prop54
  1
strokes_ogs.tif
102
RTVSPost2010PropOp54
 70
     1
102
RTVSPost2010Prop55
280
     0
102
RTVSPost2010PropOp55
 70
     1
102
RTVSPost2010Prop56
140
1.0
102
RTVSPost2010PropOp56
 70
     1
102
RTVSPost2010Prop57
140
1.0
102
RTVSPost2010PropOp57
 70
     1
102
RTVSPropertyOp0
 70
     1
102
RTVSPropertyOp1
 70
     1
102
RTVSPropertyOp2
 70
     1
102
RTVSPropertyOp3
 70
     1
102
RTVSPropertyOp4
 70
     1
102
RTVSPropertyOp5
 70
     1
102
RTVSPropertyOp6
 70
     1
102
RTVSPropertyOp7
 70
     1
102
RTVSPropertyOp8
 70
     1
102
RTVSPropertyOp9
 70
     1
102
RTVSPropertyOp10
 70
     1
102
RTVSPropertyOp11
 70
     1
102
RTVSPropertyOp12
 70
     1
102
RTVSPropertyOp13
 70
     1
102
RTVSPropertyOp14
 70
     1
102
RTVSPropertyOp15
 70
     1
102
RTVSPropertyOp16
 70
     1
102
RTVSPropertyOp17
 70
     1
102
RTVSPropertyOp18
 70
     1
102
RTVSPropertyOp19
 70
     1
102
RTVSPropertyOp20
 70
     1
102
RTVSPropertyOp21
 70
     1
102
RTVSPropertyOp22
 70
     1
102
RTVSPropertyOp23
 70
     1
102
RTVSPropertyOp24
 70
     1
102
RTVSPropertyOp25
 70
     1
102
RTVSPropertyOp26
 70
     1
102
RTVSPropertyOp27
 70
     1
102
RTVSPropertyOp28
 70
     1
102
RTVSPropertyOp29
 70
     1
102
RTVSPropertyOp30
 70
     1
102
RTVSPropertyOp31
 70
     1
102
RTVSPropertyOp32
 70
     1
102
RTVSPropertyOp33
 70
     1
102
RTVSPropertyOp34
 70
     1
102
RTVSPropertyOp35
 70
     1
102
RTVSPropertyOp36
 70
     1
102
RTVSPropertyOp37
 70
     1
102
RTVSPropertyOp38
 70
     1
102
RTVSPropertyOp39
 70
     1
102
RTVSPropertyOp40
 70
     1
102
RTVSPropertyOp41
 70
     1
102
RTVSPropertyOp42
 70
     1
102
RTVSPropertyOp43
 70
     1
102
RTVSPropertyOp44
 70
     1
102
RTVSPropertyOp45
 70
     1
102
RTVSPropertyOp46
 70
     1
102
RTVSPropertyOp47
 70
     1
102
RTVSPropertyOp48
 70
     1
102
RTVSPropertyOp49
 70
     1
102
RTVSPropertyOp50
 70
     1
102
RTVSPropertyOp51
 70
     0
102
RTVSPropertyOp52
 70
     0
102
RTVSPropertyOp53
 70
     1
102
RTVSPropertyOp54
 70
     1
102
RTVSPropertyOp55
 70
     1
102
RTVSPropertyOp56
 70
     1
102
RTVSPropertyOp57
 70
     1
102
RTVSPropertyOp58
 70
     1
102
RTVSPropertyOp59
 70
     1
102
RTVSPropertyOp60
 70
     1
102
RTVSPropertyOp61
 70
     1
102
RTVSPropertyOp62
 70
     1
  0
ENDSEC
  0
EOF
