  0
SECTION
  2
HEADER
  9
$ACADVER
  1
AC1015
  9
$ACADMAINTVER
 70
    20
  9
$DWGCODEPAGE
  3
ANSI_932
  9
$INSBASE
 10
0.0
 20
0.0
 30
0.0
  9
$EXTMIN
 10
9.999997999999997
 20
10.0
 30
0.0
  9
$EXTMAX
 10
642.5292349999996
 20
438.969971
 30
0.0
  9
$LIMMIN
 10
-0.000002
 20
0.000001
  9
$LIMMAX
 10
671.9999989999998
 20
463.272727
  9
$ORTHOMODE
 70
     1
  9
$REGENMODE
 70
     1
  9
$FILLMODE
 70
     1
  9
$QTEXTMODE
 70
     0
  9
$MIRRTEXT
 70
     1
  9
$LTSCALE
 40
1.0
  9
$ATTMODE
 70
     1
  9
$TEXTSIZE
 40
2.5
  9
$TRACEWID
 40
1.0
  9
$TEXTSTYLE
  7
STANDARD
  9
$CLAYER
  8
0
  9
$CELTYPE
  6
BYLAYER
  9
$CECOLOR
 62
   256
  9
$CELTSCALE
 40
1.0
  9
$DISPSILH
 70
     0
  9
$DIMSCALE
 40
1.0
  9
$DIMASZ
 40
3.0
  9
$DIMEXO
 40
1.0
  9
$DIMDLI
 40
10.0
  9
$DIMRND
 40
0.0
  9
$DIMDLE
 40
0.0
  9
$DIMEXE
 40
1.0
  9
$DIMTP
 40
0.0
  9
$DIMTM
 40
0.0
  9
$DIMTXT
 40
3.2
  9
$DIMCEN
 40
0.0
  9
$DIMTSZ
 40
0.0
  9
$DIMTOL
 70
     0
  9
$DIMLIM
 70
     0
  9
$DIMTIH
 70
     0
  9
$DIMTOH
 70
     0
  9
$DIMSE1
 70
     0
  9
$DIMSE2
 70
     0
  9
$DIMTAD
 70
     3
  9
$DIMZIN
 70
     8
  9
$DIMBLK
  1

  9
$DIMASO
 70
     1
  9
$DIMSHO
 70
     1
  9
$DIMPOST
  1

  9
$DIMAPOST
  1

  9
$DIMALT
 70
     0
  9
$DIMALTD
 70
     2
  9
$DIMALTF
 40
25.4
  9
$DIMLFAC
 40
1.0
  9
$DIMTOFL
 70
     1
  9
$DIMTVP
 40
0.0
  9
$DIMTIX
 70
     0
  9
$DIMSOXD
 70
     0
  9
$DIMSAH
 70
     1
  9
$DIMBLK1
  1
OPEN
  9
$DIMBLK2
  1
OPEN
  9
$DIMSTYLE
  2
STANDARD
  9
$DIMCLRD
 70
     0
  9
$DIMCLRE
 70
     0
  9
$DIMCLRT
 70
     0
  9
$DIMTFAC
 40
1.0
  9
$DIMGAP
 40
1.0
  9
$DIMJUST
 70
     0
  9
$DIMSD1
 70
     0
  9
$DIMSD2
 70
     0
  9
$DIMTOLJ
 70
     1
  9
$DIMTZIN
 70
     0
  9
$DIMALTZ
 70
     0
  9
$DIMALTTZ
 70
     0
  9
$DIMUPT
 70
     0
  9
$DIMDEC
 70
     4
  9
$DIMTDEC
 70
     4
  9
$DIMALTU
 70
     2
  9
$DIMALTTD
 70
     2
  9
$DIMTXSTY
  7
STANDARD
  9
$DIMAUNIT
 70
     0
  9
$DIMADEC
 70
     0
  9
$DIMALTRND
 40
0.0
  9
$DIMAZIN
 70
     0
  9
$DIMDSEP
 70
    46
  9
$DIMATFIT
 70
     3
  9
$DIMFRAC
 70
     0
  9
$DIMLDRBLK
  1
OPEN
  9
$DIMLUNIT
 70
     2
  9
$DIMLWD
 70
    -2
  9
$DIMLWE
 70
    -2
  9
$DIMTMOVE
 70
     0
  9
$LUNITS
 70
     2
  9
$LUPREC
 70
     4
  9
$SKETCHINC
 40
1.0
  9
$FILLETRAD
 40
0.0
  9
$AUNITS
 70
     0
  9
$AUPREC
 70
     0
  9
$MENU
  1
.
  9
$ELEVATION
 40
0.0
  9
$PELEVATION
 40
0.0
  9
$THICKNESS
 40
0.0
  9
$LIMCHECK
 70
     0
  9
$CHAMFERA
 40
10.0
  9
$CHAMFERB
 40
10.0
  9
$CHAMFERC
 40
0.0
  9
$CHAMFERD
 40
0.0
  9
$SKPOLY
 70
     0
  9
$TDCREATE
 40
2452065.490752998
  9
$TDUCREATE
 40
2452065.115752998
  9
$TDUPDATE
 40
2457192.641641829
  9
$TDUUPDATE
 40
2457192.266641829
  9
$TDINDWG
 40
0.0304351273
  9
$TDUSRTIMER
 40
0.0304348264
  9
$USRTIMER
 70
     1
  9
$ANGBASE
 50
0.0
  9
$ANGDIR
 70
     0
  9
$PDMODE
 70
     0
  9
$PDSIZE
 40
0.0
  9
$PLINEWID
 40
0.0
  9
$SPLFRAME
 70
     0
  9
$SPLINETYPE
 70
     6
  9
$SPLINESEGS
 70
     8
  9
$HANDSEED
  5
1F5C
  9
$SURFTAB1
 70
     6
  9
$SURFTAB2
 70
     6
  9
$SURFTYPE
 70
     6
  9
$SURFU
 70
     6
  9
$SURFV
 70
     6
  9
$UCSBASE
  2

  9
$UCSNAME
  2

  9
$UCSORG
 10
0.0
 20
0.0
 30
0.0
  9
$UCSXDIR
 10
1.0
 20
0.0
 30
0.0
  9
$UCSYDIR
 10
0.0
 20
1.0
 30
0.0
  9
$UCSORTHOREF
  2

  9
$UCSORTHOVIEW
 70
     0
  9
$UCSORGTOP
 10
0.0
 20
0.0
 30
0.0
  9
$UCSORGBOTTOM
 10
0.0
 20
0.0
 30
0.0
  9
$UCSORGLEFT
 10
0.0
 20
0.0
 30
0.0
  9
$UCSORGRIGHT
 10
0.0
 20
0.0
 30
0.0
  9
$UCSORGFRONT
 10
0.0
 20
0.0
 30
0.0
  9
$UCSORGBACK
 10
0.0
 20
0.0
 30
0.0
  9
$PUCSBASE
  2

  9
$PUCSNAME
  2

  9
$PUCSORG
 10
0.0
 20
0.0
 30
0.0
  9
$PUCSXDIR
 10
1.0
 20
0.0
 30
0.0
  9
$PUCSYDIR
 10
0.0
 20
1.0
 30
0.0
  9
$PUCSORTHOREF
  2

  9
$PUCSORTHOVIEW
 70
     0
  9
$PUCSORGTOP
 10
0.0
 20
0.0
 30
0.0
  9
$PUCSORGBOTTOM
 10
0.0
 20
0.0
 30
0.0
  9
$PUCSORGLEFT
 10
0.0
 20
0.0
 30
0.0
  9
$PUCSORGRIGHT
 10
0.0
 20
0.0
 30
0.0
  9
$PUCSORGFRONT
 10
0.0
 20
0.0
 30
0.0
  9
$PUCSORGBACK
 10
0.0
 20
0.0
 30
0.0
  9
$USERI1
 70
     0
  9
$USERI2
 70
     0
  9
$USERI3
 70
     0
  9
$USERI4
 70
     0
  9
$USERI5
 70
     0
  9
$USERR1
 40
0.0
  9
$USERR2
 40
0.0
  9
$USERR3
 40
0.0
  9
$USERR4
 40
0.0
  9
$USERR5
 40
0.0
  9
$WORLDVIEW
 70
     1
  9
$SHADEDGE
 70
     3
  9
$SHADEDIF
 70
    70
  9
$TILEMODE
 70
     1
  9
$MAXACTVP
 70
    48
  9
$PINSBASE
 10
0.0
 20
0.0
 30
0.0
  9
$PLIMCHECK
 70
     0
  9
$PEXTMIN
 10
1.000000000000000E+20
 20
1.000000000000000E+20
 30
1.000000000000000E+20
  9
$PEXTMAX
 10
-1.000000000000000E+20
 20
-1.000000000000000E+20
 30
-1.000000000000000E+20
  9
$PLIMMIN
 10
0.0
 20
0.0
  9
$PLIMMAX
 10
420.0
 20
297.0
  9
$UNITMODE
 70
     0
  9
$VISRETAIN
 70
     1
  9
$PLINEGEN
 70
     0
  9
$PSLTSCALE
 70
     1
  9
$TREEDEPTH
 70
  3020
  9
$CMLSTYLE
  2
STANDARD
  9
$CMLJUST
 70
     0
  9
$CMLSCALE
 40
1.0
  9
$PROXYGRAPHICS
 70
     1
  9
$MEASUREMENT
 70
     0
  9
$CELWEIGHT
370
    -1
  9
$ENDCAPS
280
     0
  9
$JOINSTYLE
280
     0
  9
$LWDISPLAY
290
     0
  9
$INSUNITS
 70
     0
  9
$HYPERLINKBASE
  1

  9
$STYLESHEET
  1

  9
$XEDIT
290
     1
  9
$CEPSNTYPE
380
     0
  9
$PSTYLEMODE
290
     1
  9
$FINGERPRINTGUID
  2
{7E26D378-77A8-457C-BFB1-685D0E6056C6}
  9
$VERSIONGUID
  2
{3E35759E-EF6B-4077-9FC1-A8DEBEFB8005}
  9
$EXTNAMES
290
     1
  9
$PSVPSCALE
 40
0.0
  9
$OLESTARTUP
290
     0
  0
ENDSEC
  0
SECTION
  2
CLASSES
  0
CLASS
  1
ACDBDICTIONARYWDFLT
  2
AcDbDictionaryWithDefault
  3
ObjectDBX Classes
 90
        0
280
     0
281
     0
  0
CLASS
  1
ACDBPLACEHOLDER
  2
AcDbPlaceHolder
  3
ObjectDBX Classes
 90
        0
280
     0
281
     0
  0
CLASS
  1
LAYOUT
  2
AcDbLayout
  3
ObjectDBX Classes
 90
        0
280
     0
281
     0
  0
CLASS
  1
DICTIONARYVAR
  2
AcDbDictionaryVar
  3
ObjectDBX Classes
 90
        0
280
     0
281
     0
  0
CLASS
  1
MATERIAL
  2
AcDbMaterial
  3
ObjectDBX Classes
 90
     1153
280
     0
281
     0
  0
CLASS
  1
VISUALSTYLE
  2
AcDbVisualStyle
  3
ObjectDBX Classes
 90
     4095
280
     0
281
     0
  0
CLASS
  1
TABLESTYLE
  2
AcDbTableStyle
  3
ObjectDBX Classes
 90
     4095
280
     0
281
     0
  0
CLASS
  1
SCALE
  2
AcDbScale
  3
ObjectDBX Classes
 90
     1153
280
     0
281
     0
  0
CLASS
  1
MLEADERSTYLE
  2
AcDbMLeaderStyle
  3
ACDB_MLEADERSTYLE_CLASS
 90
     4095
280
     0
281
     0
  0
CLASS
  1
ACDBSECTIONVIEWSTYLE
  2
AcDbSectionViewStyle
  3
ObjectDBX Classes
 90
     1025
280
     0
281
     0
  0
CLASS
  1
ACDBDETAILVIEWSTYLE
  2
AcDbDetailViewStyle
  3
ObjectDBX Classes
 90
     1025
280
     0
281
     0
  0
CLASS
  1
CELLSTYLEMAP
  2
AcDbCellStyleMap
  3
ObjectDBX Classes
 90
     1152
280
     0
281
     0
  0
ENDSEC
  0
SECTION
  2
TABLES
  0
TABLE
  2
VPORT
  5
1AC9
330
0
100
AcDbSymbolTable
 70
     1
  0
VPORT
  5
1EA6
330
1AC9
100
AcDbSymbolTableRecord
100
AcDbViewportTableRecord
  2
*ACTIVE
 70
     0
 10
0.0
 20
0.0
 11
1.0
 21
1.0
 12
456.200129025919
 22
224.4966944578414
 13
0.0
 23
0.0
 14
10.0
 24
10.0
 15
10.0
 25
10.0
 16
0.0
 26
0.0
 36
1.0
 17
0.0
 27
0.0
 37
0.0
 40
433.8147440944708
 41
1.899603698811096
 42
50.0
 43
0.0
 44
0.0
 50
0.0
 51
0.0
 71
     0
 72
   100
 73
     1
 74
     0
 75
     0
 76
     0
 77
     0
 78
     0
281
     0
 65
     1
110
0.0
120
0.0
130
0.0
111
1.0
121
0.0
131
0.0
112
0.0
122
1.0
132
0.0
 79
     0
146
0.0
1001
ACAD_NAV_VCDISPLAY
1070
     3
  0
ENDTAB
  0
TABLE
  2
LTYPE
  5
1AC6
330
0
100
AcDbSymbolTable
 70
     4
  0
LTYPE
  5
1AD4
330
1AC6
100
AcDbSymbolTableRecord
100
AcDbLinetypeTableRecord
  2
BYBLOCK
 70
     0
  3

 72
    65
 73
     0
 40
0.0
  0
LTYPE
  5
1AD5
330
1AC6
100
AcDbSymbolTableRecord
100
AcDbLinetypeTableRecord
  2
BYLAYER
 70
     0
  3

 72
    65
 73
     0
 40
0.0
  0
LTYPE
  5
1AD6
330
1AC6
100
AcDbSymbolTableRecord
100
AcDbLinetypeTableRecord
  2
CONTINUOUS
 70
     0
  3
Solid line
 72
    65
 73
     0
 40
0.0
  0
LTYPE
  5
1AE4
330
1AC6
100
AcDbSymbolTableRecord
100
AcDbLinetypeTableRecord
  2
DASHED
 70
     0
  3
Dashed __ __ __ __ __ __ __ __ __ __ __ __ __ _
 72
    65
 73
     2
 40
19.05
 49
12.7
 74
     0
 49
-6.349999999999997
 74
     0
  0
LTYPE
  5
1AE5
330
1AC6
100
AcDbSymbolTableRecord
100
AcDbLinetypeTableRecord
  2
CENTER
 70
     0
  3
Center ____ _ ____ _ ____ _ ____ _ ____ _ ____
 72
    65
 73
     4
 40
50.8
 49
31.75
 74
     0
 49
-6.349999999999997
 74
     0
 49
6.349999999999997
 74
     0
 49
-6.349999999999997
 74
     0
  0
LTYPE
  5
1AE6
330
1AC6
100
AcDbSymbolTableRecord
100
AcDbLinetypeTableRecord
  2
PHANTOM
 70
     0
  3
Phantom ______  __  __  ______  __  __  ______
 72
    65
 73
     6
 40
63.5
 49
31.75
 74
     0
 49
-6.349999999999997
 74
     0
 49
6.349999999999997
 74
     0
 49
-6.349999999999997
 74
     0
 49
6.349999999999997
 74
     0
 49
-6.349999999999997
 74
     0
  0
ENDTAB
  0
TABLE
  2
LAYER
  5
1AC3
330
0
100
AcDbSymbolTable
 70
     8
  0
LAYER
  5
1AD1
102
{ACAD_XDICTIONARY
360
1F00
102
}
330
1AC3
100
AcDbSymbolTableRecord
100
AcDbLayerTableRecord
  2
0
 70
     0
 62
     7
  6
CONTINUOUS
370
    -3
390
1EAF
  0
LAYER
  5
1AE7
102
{ACAD_XDICTIONARY
360
1F02
102
}
330
1AC3
100
AcDbSymbolTableRecord
100
AcDbLayerTableRecord
  2
4
 70
     0
 62
     1
  6
CENTER
370
    -3
390
1EAF
  0
LAYER
  5
1AE8
102
{ACAD_XDICTIONARY
360
1F04
102
}
330
1AC3
100
AcDbSymbolTableRecord
100
AcDbLayerTableRecord
  2
5
 70
     0
 62
     6
  6
PHANTOM
370
    -3
390
1EAF
  0
LAYER
  5
1AE9
102
{ACAD_XDICTIONARY
360
1F06
102
}
330
1AC3
100
AcDbSymbolTableRecord
100
AcDbLayerTableRecord
  2
1
 70
     0
 62
     7
  6
CONTINUOUS
370
    -3
390
1EAF
  0
LAYER
  5
1AEA
102
{ACAD_XDICTIONARY
360
1F08
102
}
330
1AC3
100
AcDbSymbolTableRecord
100
AcDbLayerTableRecord
  2
2
 70
     0
 62
     4
  6
CONTINUOUS
370
    -3
390
1EAF
  0
LAYER
  5
1AEB
102
{ACAD_XDICTIONARY
360
1F0A
102
}
330
1AC3
100
AcDbSymbolTableRecord
100
AcDbLayerTableRecord
  2
3
 70
     0
 62
     2
  6
DASHED
370
    -3
390
1EAF
  0
LAYER
  5
1AEC
102
{ACAD_XDICTIONARY
360
1F0C
102
}
330
1AC3
100
AcDbSymbolTableRecord
100
AcDbLayerTableRecord
  2
6
 70
     0
 62
     5
  6
CONTINUOUS
370
    -3
390
1EAF
  0
LAYER
  5
1AED
102
{ACAD_XDICTIONARY
360
1F0E
102
}
330
1AC3
100
AcDbSymbolTableRecord
100
AcDbLayerTableRecord
  2
7
 70
     0
 62
     3
  6
CONTINUOUS
370
    -3
390
1EAF
  0
ENDTAB
  0
TABLE
  2
STYLE
  5
1AC4
330
0
100
AcDbSymbolTable
 70
     1
  0
STYLE
  5
1AD2
330
1AC4
100
AcDbSymbolTableRecord
100
AcDbTextStyleTableRecord
  2
STANDARD
 70
     0
 40
0.0
 41
1.0
 50
0.0
 71
     0
 42
2.5
  3
simplex.shx
  4

  0
ENDTAB
  0
TABLE
  2
VIEW
  5
1AC7
330
0
100
AcDbSymbolTable
 70
     0
  0
ENDTAB
  0
TABLE
  2
UCS
  5
1AC8
330
0
100
AcDbSymbolTable
 70
     0
  0
ENDTAB
  0
TABLE
  2
APPID
  5
1ACA
330
0
100
AcDbSymbolTable
 70
     5
  0
APPID
  5
1AD3
330
1ACA
100
AcDbSymbolTableRecord
100
AcDbRegAppTableRecord
  2
ACAD
 70
     0
  0
APPID
  5
1AEE
330
1ACA
100
AcDbSymbolTableRecord
100
AcDbRegAppTableRecord
  2
CONTENTTABDATA
 70
     0
  0
APPID
  5
1AEF
330
1ACA
100
AcDbSymbolTableRecord
100
AcDbRegAppTableRecord
  2
CONTENTCURRENTTAB
 70
     0
  0
APPID
  5
1F1A
330
1ACA
100
AcDbSymbolTableRecord
100
AcDbRegAppTableRecord
  2
ACAD_NAV_VCDISPLAY
 70
     0
  0
APPID
  5
1F53
330
1ACA
100
AcDbSymbolTableRecord
100
AcDbRegAppTableRecord
  2
ACAD_MLEADERVER
 70
     0
  0
ENDTAB
  0
TABLE
  2
DIMSTYLE
  5
1ACB
330
0
100
AcDbSymbolTable
 70
     1
100
AcDbDimStyleTable
 71
     0
  0
DIMSTYLE
105
1AF0
330
1ACB
100
AcDbSymbolTableRecord
100
AcDbDimStyleTableRecord
  2
STANDARD
 70
     0
 41
3.0
 42
1.0
 43
10.0
 44
1.0
 73
     0
 74
     0
 77
     3
 78
     8
140
3.2
141
0.0
147
1.0
172
     1
173
     1
284
     8
285
     8
286
     8
340
1AD2
  0
ENDTAB
  0
TABLE
  2
BLOCK_RECORD
  5
1AC2
330
0
100
AcDbSymbolTable
 70
     1
  0
BLOCK_RECORD
  5
1ADF
102
{ACAD_XDICTIONARY
360
1EA9
102
}
330
1AC2
100
AcDbSymbolTableRecord
100
AcDbBlockTableRecord
  2
*MODEL_SPACE
340
1EFD
  0
BLOCK_RECORD
  5
1ADB
102
{ACAD_XDICTIONARY
360
1EA7
102
}
330
1AC2
100
AcDbSymbolTableRecord
100
AcDbBlockTableRecord
  2
*PAPER_SPACE
340
1EFE
  0
BLOCK_RECORD
  5
1AF8
330
1AC2
100
AcDbSymbolTableRecord
100
AcDbBlockTableRecord
  2
_OPEN
340
0
  0
ENDTAB
  0
ENDSEC
  0
SECTION
  2
BLOCKS
  0
BLOCK
  5
1AE0
330
1ADF
100
AcDbEntity
  8
0
100
AcDbBlockBegin
  2
*MODEL_SPACE
 70
     0
 10
0.0
 20
0.0
 30
0.0
  3
*MODEL_SPACE
  1

  0
ENDBLK
  5
1AE1
330
1ADF
100
AcDbEntity
  8
0
100
AcDbBlockEnd
  0
BLOCK
  5
1ADC
330
1ADB
100
AcDbEntity
 67
     1
  8
0
100
AcDbBlockBegin
  2
*PAPER_SPACE
 70
     0
 10
0.0
 20
0.0
 30
0.0
  3
*PAPER_SPACE
  1

  0
ENDBLK
  5
1ADD
330
1ADB
100
AcDbEntity
 67
     1
  8
0
100
AcDbBlockEnd
  0
BLOCK
  5
1AF9
330
1AF8
100
AcDbEntity
  8
0
100
AcDbBlockBegin
  2
_OPEN
 70
     0
 10
0.0
 20
0.0
 30
0.0
  3
_OPEN
  1

  0
LINE
  5
1AFA
330
1AF8
100
AcDbEntity
  8
0
  6
ByBlock
 62
     0
100
AcDbLine
 10
-1.0
 20
0.166667
 30
0.0
 11
0.0
 21
0.0
 31
0.0
  0
LINE
  5
1AFB
330
1AF8
100
AcDbEntity
  8
0
  6
ByBlock
 62
     0
100
AcDbLine
 10
0.0
 20
0.0
 30
0.0
 11
-1.0
 21
-0.166667
 31
0.0
  0
LINE
  5
1AFC
330
1AF8
100
AcDbEntity
  8
0
  6
ByBlock
 62
     0
100
AcDbLine
 10
0.0
 20
0.0
 30
0.0
 11
-1.0
 21
0.0
 31
0.0
  0
ENDBLK
  5
1AFD
330
1AF8
100
AcDbEntity
  8
0
100
AcDbBlockEnd
  0
ENDSEC
  0
SECTION
  2
ENTITIES
  0
TEXT
  5
1AFE
330
1ADF
100
AcDbEntity
  8
4
  6
CENTER
100
AcDbText
 10
23.979509
 20
10.0
 30
0.0
 40
1.399999999999999
  1
4
100
AcDbText
  0
TEXT
  5
1AFF
330
1ADF
100
AcDbEntity
  8
7
  6
Continuous
100
AcDbText
 10
9.999997999999999
 20
26.000001
 30
0.0
 40
3.0
  1
CODE No.13187
100
AcDbText
  0
TEXT
  5
1B00
330
1ADF
100
AcDbEntity
  8
7
  6
Continuous
100
AcDbText
 10
9.999997999999999
 20
18.000001
 30
0.0
 40
3.0
  1
TYPE No.THA-330SF-2
100
AcDbText
  0
TEXT
  5
1B01
330
1ADF
100
AcDbEntity
  8
1
  6
Continuous
100
AcDbText
 10
9.999997999999999
 20
10.000001
 30
0.0
 40
1.399999999999999
  1
LAYER
100
AcDbText
  0
TEXT
  5
1B02
330
1ADF
100
AcDbEntity
  8
2
  6
Continuous
100
AcDbText
 10
19.979509
 20
10.0
 30
0.0
 40
1.399999999999999
  1
2
100
AcDbText
  0
TEXT
  5
1B03
330
1ADF
100
AcDbEntity
  8
3
  6
DASHED
100
AcDbText
 10
21.97950899999999
 20
10.0
 30
0.0
 40
1.399999999999999
  1
3
100
AcDbText
  0
TEXT
  5
1B04
330
1ADF
100
AcDbEntity
  8
1
  6
Continuous
100
AcDbText
 10
17.979509
 20
10.0
 30
0.0
 40
1.399999999999999
  1
1
100
AcDbText
  0
TEXT
  5
1B05
330
1ADF
100
AcDbEntity
  8
5
  6
PHANTOM
100
AcDbText
 10
25.979509
 20
10.0
 30
0.0
 40
1.399999999999999
  1
5
100
AcDbText
  0
TEXT
  5
1B06
330
1ADF
100
AcDbEntity
  8
6
  6
Continuous
100
AcDbText
 10
27.979509
 20
10.0
 30
0.0
 40
1.399999999999999
  1
6
100
AcDbText
  0
TEXT
  5
1B07
330
1ADF
100
AcDbEntity
  8
7
  6
Continuous
100
AcDbText
 10
29.97950900000001
 20
10.0
 30
0.0
 40
1.399999999999999
  1
7
100
AcDbText
  0
LINE
  5
1B08
330
1ADF
100
AcDbEntity
  8
1
  6
Continuous
100
AcDbLine
 10
164.003387
 20
286.360372
 30
0.0
 11
164.003387
 21
254.9025639999999
 31
0.0
  0
LINE
  5
1B09
330
1ADF
100
AcDbEntity
  8
1
  6
Continuous
100
AcDbLine
 10
163.495233
 20
286.360372
 30
0.0
 11
163.495233
 21
254.9025639999999
 31
0.0
  0
LINE
  5
1B0A
330
1ADF
100
AcDbEntity
  8
1
  6
Continuous
100
AcDbLine
 10
162.532511
 20
287.902564
 30
0.0
 11
162.532511
 21
254.9025639999999
 31
0.0
  0
ARC
  5
1B0B
330
1ADF
100
AcDbEntity
  8
1
  6
Continuous
100
AcDbCircle
 10
290.791271
 20
284.8929449999999
 30
0.0
 40
10.98178699999998
100
AcDbArc
 50
166.7595689999999
 51
203.222372
  0
ARC
  5
1B0C
330
1ADF
100
AcDbEntity
  8
1
  6
Continuous
100
AcDbCircle
 10
272.827697
 20
284.8929449999999
 30
0.0
 40
10.98178699999998
100
AcDbArc
 50
336.777628
 51
13.24044699999999
  0
LINE
  5
1B0D
330
1ADF
100
AcDbEntity
  8
1
  6
Continuous
100
AcDbLine
 10
279.809484
 20
256.9025639999999
 30
0.0
 11
279.809484
 21
286.9025639999999
 31
0.0
  0
LINE
  5
1B0E
330
1ADF
100
AcDbEntity
  8
1
  6
Continuous
100
AcDbLine
 10
283.809484
 20
256.902562
 30
0.0
 11
283.809484
 21
286.9025659999999
 31
0.0
  0
LINE
  5
1B0F
330
1ADF
100
AcDbEntity
  8
1
  6
Continuous
100
AcDbLine
 10
278.3094839999999
 20
285.902564
 30
0.0
 11
278.3094839999999
 21
257.9025639999999
 31
0.0
  0
LINE
  5
1B10
330
1ADF
100
AcDbEntity
  8
1
  6
Continuous
100
AcDbLine
 10
285.309484
 20
257.9025639999999
 30
0.0
 11
285.309484
 21
285.902564
 31
0.0
  0
LINE
  5
1B11
330
1ADF
100
AcDbEntity
  8
1
  6
Continuous
100
AcDbLine
 10
221.132511
 20
281.402564
 30
0.0
 11
220.8825109999999
 21
281.652564
 31
0.0
  0
LINE
  5
1B12
330
1ADF
100
AcDbEntity
  8
1
  6
Continuous
100
AcDbLine
 10
207.032511
 20
295.9025639999999
 30
0.0
 11
207.032511
 21
247.902564
 31
0.0
  0
LINE
  5
1B13
330
1ADF
100
AcDbEntity
  8
1
  6
Continuous
100
AcDbLine
 10
206.0325109999999
 20
295.9025639999999
 30
0.0
 11
206.0325109999999
 21
247.902564
 31
0.0
  0
LINE
  5
1B14
330
1ADF
100
AcDbEntity
  8
1
  6
Continuous
100
AcDbLine
 10
202.5325109999998
 20
293.902564
 30
0.0
 11
202.5325109999998
 21
249.902564
 31
0.0
  0
LINE
  5
1B15
330
1ADF
100
AcDbEntity
  8
1
  6
Continuous
100
AcDbLine
 10
194.5325109999997
 20
257.9025639999999
 30
0.0
 11
194.5325109999997
 21
285.902564
 31
0.0
  0
LINE
  5
1B16
330
1ADF
100
AcDbEntity
  8
1
  6
Continuous
100
AcDbLine
 10
194.582511
 20
285.708851
 30
0.0
 11
194.582511
 21
258.0962769999998
 31
0.0
  0
ARC
  5
1B17
330
1ADF
100
AcDbEntity
  8
1
  6
Continuous
100
AcDbCircle
 10
39.61303800000001
 20
271.9025639999999
 30
0.0
 40
24.0
100
AcDbArc
 50
301.302234
 51
238.6977659999999
  0
LINE
  5
1B18
330
1ADF
100
AcDbEntity
  8
1
  6
Continuous
100
AcDbLine
 10
28.863038
 20
286.360372
 30
0.0
 11
28.863038
 21
255.402564
 31
0.0
  0
LINE
  5
1B19
330
1ADF
100
AcDbEntity
  8
1
  6
Continuous
100
AcDbLine
 10
27.113038
 20
254.9025639999999
 30
0.0
 11
27.113038
 21
284.235179
 31
0.0
  0
LINE
  5
1B1A
330
1ADF
100
AcDbEntity
  8
1
  6
Continuous
100
AcDbLine
 10
23.61303799999999
 20
288.873127
 30
0.0
 11
23.61303799999999
 21
254.9320009999999
 31
0.0
  0
LINE
  5
1B1B
330
1ADF
100
AcDbEntity
  8
1
  6
Continuous
100
AcDbLine
 10
50.363038
 20
286.360372
 30
0.0
 11
50.363038
 21
255.402564
 31
0.0
  0
LINE
  5
1B1C
330
1ADF
100
AcDbEntity
  8
1
  6
Continuous
100
AcDbLine
 10
52.113038
 20
254.9025639999999
 30
0.0
 11
52.113038
 21
284.235179
 31
0.0
  0
LINE
  5
1B1D
330
1ADF
100
AcDbEntity
  8
1
  6
Continuous
100
AcDbLine
 10
55.61303800000001
 20
288.873127
 30
0.0
 11
55.61303800000001
 21
254.9320009999999
 31
0.0
  0
LINE
  5
1B1E
330
1ADF
100
AcDbEntity
  8
4
  6
CENTER
100
AcDbLine
 10
39.61303800000001
 20
166.9025639999999
 30
0.0
 11
39.61303800000001
 21
300.9025639999999
 31
0.0
  0
LINE
  5
1B1F
330
1ADF
100
AcDbEntity
  8
4
  6
CENTER
100
AcDbLine
 10
68.613038
 20
271.9025639999999
 30
0.0
 11
10.613038
 21
271.9025639999999
 31
0.0
  0
LINE
  5
1B20
330
1ADF
100
AcDbEntity
  8
1
  6
Continuous
100
AcDbLine
 10
27.539212
 20
241.8531189999999
 30
0.0
 11
31.944334
 21
174.4826669999999
 31
0.0
  0
LINE
  5
1B21
330
1ADF
100
AcDbEntity
  8
1
  6
Continuous
100
AcDbLine
 10
51.686864
 20
241.8531189999999
 30
0.0
 11
47.281742
 21
174.4826669999999
 31
0.0
  0
ARC
  5
1B22
330
1ADF
100
AcDbEntity
  8
1
  6
Continuous
100
AcDbCircle
 10
39.61303800000001
 20
196.9025639999999
 30
0.0
 40
25.0
100
AcDbArc
 50
255.720595
 51
284.279405
  0
ARC
  5
1B23
330
1ADF
100
AcDbEntity
  8
1
  6
Continuous
100
AcDbCircle
 10
33.940072
 20
174.6131619999999
 30
0.0
 40
2.0
100
AcDbArc
 50
183.741048
 51
255.720595
  0
ARC
  5
1B24
330
1ADF
100
AcDbEntity
  8
1
  6
Continuous
100
AcDbCircle
 10
45.286004
 20
174.6131619999999
 30
0.0
 40
2.0
100
AcDbArc
 50
284.279405
 51
356.258952
  0
LINE
  5
1B25
330
1ADF
100
AcDbEntity
  8
1
  6
Continuous
100
AcDbLine
 10
39.61303800000001
 20
269.9025639999999
 30
0.0
 11
46.54124099999999
 21
257.9025639999999
 31
0.0
  0
LINE
  5
1B26
330
1ADF
100
AcDbEntity
  8
1
  6
Continuous
100
AcDbLine
 10
44.27672799999998
 20
260.4025639999999
 30
0.0
 11
45.09786599999999
 21
260.4025639999999
 31
0.0
  0
LINE
  5
1B27
330
1ADF
100
AcDbEntity
  8
1
  6
Continuous
100
AcDbLine
 10
43.48602099999999
 20
260.902564
 30
0.0
 11
44.809191
 21
260.902564
 31
0.0
  0
ARC
  5
1B28
330
1ADF
100
AcDbEntity
  8
1
  6
Continuous
100
AcDbCircle
 10
39.61303800000001
 20
253.902564
 30
0.0
 40
8.0
100
AcDbArc
 50
12.83958799999999
 51
167.160412
  0
LINE
  5
1B29
330
1ADF
100
AcDbEntity
  8
1
  6
Continuous
100
AcDbLine
 10
27.113038
 20
261.798697
 30
0.0
 11
23.82757999999999
 21
254.4912029999999
 31
0.0
  0
LINE
  5
1B2A
330
1ADF
100
AcDbEntity
  8
1
  6
Continuous
100
AcDbLine
 10
32.684835
 20
257.9025639999999
 30
0.0
 11
39.61303800000001
 21
269.9025639999999
 31
0.0
  0
ARC
  5
1B2B
330
1ADF
100
AcDbEntity
  8
1
  6
Continuous
100
AcDbCircle
 10
29.363038
 20
255.402564
 30
0.0
 40
0.5
100
AcDbArc
 50
180.0
 51
270.0
  0
ARC
  5
1B2C
330
1ADF
100
AcDbEntity
  8
1
  6
Continuous
100
AcDbCircle
 10
227.1130379999999
 20
254.9025639999999
 30
0.0
 40
200.0
100
AcDbArc
 50
180.0
 51
183.741048
  0
ARC
  5
1B2D
330
1ADF
100
AcDbEntity
  8
1
  6
Continuous
100
AcDbCircle
 10
25.613038
 20
254.9320009999999
 30
0.0
 40
2.0
100
AcDbArc
 50
180.0
 51
230.478804
  0
LINE
  5
1B2E
330
1ADF
100
AcDbEntity
  8
1
  6
Continuous
100
AcDbLine
 10
29.363038
 20
254.9025639999999
 30
0.0
 11
30.83807399999999
 21
254.9025639999999
 31
0.0
  0
ARC
  5
1B2F
330
1ADF
100
AcDbEntity
  8
1
  6
Continuous
100
AcDbCircle
 10
30.83807399999999
 20
255.902564
 30
0.0
 40
1.0
100
AcDbArc
 50
270.0
 51
347.160412
  0
LINE
  5
1B30
330
1ADF
100
AcDbEntity
  8
1
  6
Continuous
100
AcDbLine
 10
32.82917199999999
 20
258.1525639999999
 30
0.0
 11
32.83531699999999
 21
258.1525639999999
 31
0.0
  0
LINE
  5
1B31
330
1ADF
100
AcDbEntity
  8
1
  6
Continuous
100
AcDbLine
 10
32.97350999999999
 20
258.4025639999999
 30
0.0
 11
32.99866
 21
258.4025639999999
 31
0.0
  0
LINE
  5
1B32
330
1ADF
100
AcDbEntity
  8
1
  6
Continuous
100
AcDbLine
 10
33.11784799999998
 20
258.652564
 30
0.0
 11
33.17584099999999
 21
258.652564
 31
0.0
  0
LINE
  5
1B33
330
1ADF
100
AcDbEntity
  8
1
  6
Continuous
100
AcDbLine
 10
33.26218499999999
 20
258.902564
 30
0.0
 11
33.36804
 21
258.902564
 31
0.0
  0
LINE
  5
1B34
330
1ADF
100
AcDbEntity
  8
1
  6
Continuous
100
AcDbLine
 10
33.55086
 20
259.4025639999999
 30
0.0
 11
33.80356299999998
 21
259.4025639999999
 31
0.0
  0
LINE
  5
1B35
330
1ADF
100
AcDbEntity
  8
1
  6
Continuous
100
AcDbLine
 10
33.839535
 20
259.9025639999999
 30
0.0
 11
34.321535
 21
259.9025639999999
 31
0.0
  0
LINE
  5
1B36
330
1ADF
100
AcDbEntity
  8
1
  6
Continuous
100
AcDbLine
 10
34.994236
 20
261.9025639999999
 30
0.0
 11
39.61303800000001
 21
261.9025639999999
 31
0.0
  0
LINE
  5
1B37
330
1ADF
100
AcDbEntity
  8
1
  6
Continuous
100
AcDbLine
 10
35.282911
 20
262.4025639999999
 30
0.0
 11
43.943165
 21
262.4025639999999
 31
0.0
  0
LINE
  5
1B38
330
1ADF
100
AcDbEntity
  8
1
  6
Continuous
100
AcDbLine
 10
35.57158599999999
 20
262.902564
 30
0.0
 11
43.65449
 21
262.902564
 31
0.0
  0
LINE
  5
1B39
330
1ADF
100
AcDbEntity
  8
1
  6
Continuous
100
AcDbLine
 10
35.860261
 20
263.4025639999999
 30
0.0
 11
43.365815
 21
263.4025639999999
 31
0.0
  0
LINE
  5
1B3A
330
1ADF
100
AcDbEntity
  8
1
  6
Continuous
100
AcDbLine
 10
36.148936
 20
263.9025639999999
 30
0.0
 11
43.07713999999999
 21
263.9025639999999
 31
0.0
  0
LINE
  5
1B3B
330
1ADF
100
AcDbEntity
  8
1
  6
Continuous
100
AcDbLine
 10
36.437612
 20
264.4025639999999
 30
0.0
 11
42.788465
 21
264.4025639999999
 31
0.0
  0
LINE
  5
1B3C
330
1ADF
100
AcDbEntity
  8
1
  6
Continuous
100
AcDbLine
 10
36.726287
 20
264.902564
 30
0.0
 11
42.499789
 21
264.902564
 31
0.0
  0
LINE
  5
1B3D
330
1ADF
100
AcDbEntity
  8
1
  6
Continuous
100
AcDbLine
 10
34.128211
 20
260.4025639999999
 30
0.0
 11
34.949349
 21
260.4025639999999
 31
0.0
  0
LINE
  5
1B3E
330
1ADF
100
AcDbEntity
  8
1
  6
Continuous
100
AcDbLine
 10
34.41688599999999
 20
260.902564
 30
0.0
 11
35.740055
 21
260.902564
 31
0.0
  0
LINE
  5
1B3F
330
1ADF
100
AcDbEntity
  8
1
  6
Continuous
100
AcDbLine
 10
34.70556099999999
 20
261.4025639999999
 30
0.0
 11
36.82915599999999
 21
261.4025639999999
 31
0.0
  0
LINE
  5
1B40
330
1ADF
100
AcDbEntity
  8
1
  6
Continuous
100
AcDbLine
 10
42.39692
 20
261.4025639999999
 30
0.0
 11
44.520515
 21
261.4025639999999
 31
0.0
  0
LINE
  5
1B41
330
1ADF
100
AcDbEntity
  8
1
  6
Continuous
100
AcDbLine
 10
39.61303800000001
 20
261.9025639999999
 30
0.0
 11
44.23184
 21
261.9025639999999
 31
0.0
  0
LINE
  5
1B42
330
1ADF
100
AcDbEntity
  8
1
  6
Continuous
100
AcDbLine
 10
37.01496199999999
 20
265.4025639999999
 30
0.0
 11
42.211114
 21
265.4025639999999
 31
0.0
  0
LINE
  5
1B43
330
1ADF
100
AcDbEntity
  8
1
  6
Continuous
100
AcDbLine
 10
37.303637
 20
265.9025639999999
 30
0.0
 11
41.922439
 21
265.9025639999999
 31
0.0
  0
LINE
  5
1B44
330
1ADF
100
AcDbEntity
  8
1
  6
Continuous
100
AcDbLine
 10
37.592312
 20
266.4025639999999
 30
0.0
 11
41.63376399999999
 21
266.4025639999999
 31
0.0
  0
LINE
  5
1B45
330
1ADF
100
AcDbEntity
  8
1
  6
Continuous
100
AcDbLine
 10
37.88098699999999
 20
266.902564
 30
0.0
 11
41.345089
 21
266.902564
 31
0.0
  0
LINE
  5
1B46
330
1ADF
100
AcDbEntity
  8
1
  6
Continuous
100
AcDbLine
 10
38.169662
 20
267.4025639999999
 30
0.0
 11
41.05641399999997
 21
267.4025639999999
 31
0.0
  0
LINE
  5
1B47
330
1ADF
100
AcDbEntity
  8
1
  6
Continuous
100
AcDbLine
 10
38.45833799999999
 20
267.9025639999999
 30
0.0
 11
40.767739
 21
267.9025639999999
 31
0.0
  0
LINE
  5
1B48
330
1ADF
100
AcDbEntity
  8
1
  6
Continuous
100
AcDbLine
 10
38.747013
 20
268.4025639999999
 30
0.0
 11
40.479063
 21
268.4025639999999
 31
0.0
  0
LINE
  5
1B49
330
1ADF
100
AcDbEntity
  8
1
  6
Continuous
100
AcDbLine
 10
39.035688
 20
268.902564
 30
0.0
 11
40.19038799999999
 21
268.902564
 31
0.0
  0
LINE
  5
1B4A
330
1ADF
100
AcDbEntity
  8
1
  6
Continuous
100
AcDbLine
 10
39.32436299999999
 20
269.4025639999999
 30
0.0
 11
39.901713
 21
269.4025639999999
 31
0.0
  0
LINE
  5
1B4B
330
1ADF
100
AcDbEntity
  8
1
  6
Continuous
100
AcDbLine
 10
52.113038
 20
261.798697
 30
0.0
 11
55.369026
 21
254.556751
 31
0.0
  0
ARC
  5
1B4C
330
1ADF
100
AcDbEntity
  8
1
  6
Continuous
100
AcDbCircle
 10
-147.886962
 20
254.9025639999999
 30
0.0
 40
200.0
100
AcDbArc
 50
356.258952
 51
0.0
  0
ARC
  5
1B4D
330
1ADF
100
AcDbEntity
  8
1
  6
Continuous
100
AcDbCircle
 10
49.863038
 20
255.402564
 30
0.0
 40
0.5
100
AcDbArc
 50
270.0
 51
0.0
  0
ARC
  5
1B4E
330
1ADF
100
AcDbEntity
  8
1
  6
Continuous
100
AcDbCircle
 10
48.388002
 20
255.902564
 30
0.0
 40
1.0
100
AcDbArc
 50
192.839588
 51
270.0
  0
LINE
  5
1B4F
330
1ADF
100
AcDbEntity
  8
1
  6
Continuous
100
AcDbLine
 10
48.388002
 20
254.9025639999999
 30
0.0
 11
49.863038
 21
254.9025639999999
 31
0.0
  0
LINE
  5
1B50
330
1ADF
100
AcDbEntity
  8
1
  6
Continuous
100
AcDbLine
 10
46.390759
 20
258.1525639999999
 30
0.0
 11
46.396904
 21
258.1525639999999
 31
0.0
  0
LINE
  5
1B51
330
1ADF
100
AcDbEntity
  8
1
  6
Continuous
100
AcDbLine
 10
46.227416
 20
258.4025639999999
 30
0.0
 11
46.25256599999999
 21
258.4025639999999
 31
0.0
  0
LINE
  5
1B52
330
1ADF
100
AcDbEntity
  8
1
  6
Continuous
100
AcDbLine
 10
46.050235
 20
258.652564
 30
0.0
 11
46.10822899999997
 21
258.652564
 31
0.0
  0
LINE
  5
1B53
330
1ADF
100
AcDbEntity
  8
1
  6
Continuous
100
AcDbLine
 10
45.858036
 20
258.902564
 30
0.0
 11
45.96389099999998
 21
258.902564
 31
0.0
  0
LINE
  5
1B54
330
1ADF
100
AcDbEntity
  8
1
  6
Continuous
100
AcDbLine
 10
45.422513
 20
259.4025639999999
 30
0.0
 11
45.675216
 21
259.4025639999999
 31
0.0
  0
LINE
  5
1B55
330
1ADF
100
AcDbEntity
  8
1
  6
Continuous
100
AcDbLine
 10
44.904541
 20
259.9025639999999
 30
0.0
 11
45.38654099999997
 21
259.9025639999999
 31
0.0
  0
ARC
  5
1B56
330
1ADF
100
AcDbEntity
  8
1
  6
Continuous
100
AcDbCircle
 10
53.613038
 20
254.9320009999999
 30
0.0
 40
2.0
100
AcDbArc
 50
309.5211959999998
 51
0.0
  0
LINE
  5
1B57
330
1ADF
100
AcDbEntity
  8
1
  6
Continuous
100
AcDbLine
 10
278.3094839999999
 20
76.63446899999998
 30
0.0
 11
279.809484
 21
76.63446899999998
 31
0.0
  0
LINE
  5
1B58
330
1ADF
100
AcDbEntity
  8
4
  6
CENTER
100
AcDbLine
 10
272.809484
 20
62.634468
 30
0.0
 11
288.309484
 21
62.634468
 31
0.0
  0
LINE
  5
1B59
330
1ADF
100
AcDbEntity
  8
1
  6
Continuous
100
AcDbLine
 10
278.3094839999999
 20
48.634469
 30
0.0
 11
279.809484
 21
48.634469
 31
0.0
  0
LINE
  5
1B5A
330
1ADF
100
AcDbEntity
  8
1
  6
Continuous
100
AcDbLine
 10
194.7120189999999
 20
50.134468
 30
0.0
 11
202.5325109999998
 21
46.634468
 31
0.0
  0
LINE
  5
1B5B
330
1ADF
100
AcDbEntity
  8
4
  6
CENTER
100
AcDbLine
 10
234.07905
 20
62.634468
 30
0.0
 11
156.932511
 21
62.634468
 31
0.0
  0
LINE
  5
1B5C
330
1ADF
100
AcDbEntity
  8
1
  6
Continuous
100
AcDbLine
 10
194.7120189999999
 20
75.134468
 30
0.0
 11
202.5325109999998
 21
78.634468
 31
0.0
  0
LINE
  5
1B5D
330
1ADF
100
AcDbEntity
  8
1
  6
Continuous
100
AcDbLine
 10
169.744628
 20
55.219971
 30
0.0
 11
164.5296629999999
 21
50.36151499999999
 31
0.0
  0
LINE
  5
1B5E
330
1ADF
100
AcDbEntity
  8
1
  6
Continuous
100
AcDbLine
 10
164.5296629999999
 20
74.90742199999998
 30
0.0
 11
169.744628
 21
70.04896600000001
 31
0.0
  0
LINE
  5
1B5F
330
1ADF
100
AcDbEntity
  8
1
  6
Continuous
100
AcDbLine
 10
194.7120189999999
 20
50.134468
 30
0.0
 11
165.0641249999999
 21
50.134468
 31
0.0
  0
LINE
  5
1B60
330
1ADF
100
AcDbEntity
  8
1
  6
Continuous
100
AcDbLine
 10
194.7120189999999
 20
75.134468
 30
0.0
 11
165.0641249999999
 21
75.134468
 31
0.0
  0
ARC
  5
1B61
330
1ADF
100
AcDbEntity
  8
1
  6
Continuous
100
AcDbCircle
 10
223.0325109999999
 20
62.634468
 30
0.0
 40
60.0
100
AcDbArc
 50
168.760227
 51
191.2397729999999
  0
ARC
  5
1B62
330
1ADF
100
AcDbEntity
  8
1
  6
Continuous
100
AcDbCircle
 10
223.0325109999999
 20
62.634468
 30
0.0
 40
60.5
100
AcDbArc
 50
169.764998
 51
190.2350019999999
  0
ARC
  5
1B63
330
1ADF
100
AcDbEntity
  8
1
  6
Continuous
100
AcDbCircle
 10
223.0325109999999
 20
62.634468
 30
0.0
 40
61.0
100
AcDbArc
 50
172.4640909999999
 51
187.535909
  0
ARC
  5
1B64
330
1ADF
100
AcDbEntity
  8
1
  6
Continuous
100
AcDbCircle
 10
165.164125
 20
51.134468
 30
0.0
 40
1.0
100
AcDbArc
 50
191.2397729999999
 51
270.0
  0
LINE
  5
1B65
330
1ADF
100
AcDbEntity
  8
1
  6
Continuous
100
AcDbLine
 10
164.003386
 20
51.884468
 30
0.0
 11
163.495232
 21
51.884468
 31
0.0
  0
LINE
  5
1B66
330
1ADF
100
AcDbEntity
  8
1
  6
Continuous
100
AcDbLine
 10
163.063769
 20
54.63446799999999
 30
0.0
 11
162.5593759999999
 21
54.63446799999999
 31
0.0
  0
LINE
  5
1B67
330
1ADF
100
AcDbEntity
  8
1
  6
Continuous
100
AcDbLine
 10
163.063769
 20
70.634468
 30
0.0
 11
162.5593759999999
 21
70.634468
 31
0.0
  0
ARC
  5
1B68
330
1ADF
100
AcDbEntity
  8
1
  6
Continuous
100
AcDbCircle
 10
165.164125
 20
74.134468
 30
0.0
 40
1.0
100
AcDbArc
 50
90.0
 51
168.760227
  0
LINE
  5
1B69
330
1ADF
100
AcDbEntity
  8
1
  6
Continuous
100
AcDbLine
 10
164.003386
 20
73.38446799999998
 30
0.0
 11
163.495232
 21
73.38446799999998
 31
0.0
  0
LINE
  5
1B6A
330
1ADF
100
AcDbEntity
  8
1
  6
Continuous
100
AcDbLine
 10
194.5325109999997
 20
50.134468
 30
0.0
 11
194.5325109999997
 21
75.134468
 31
0.0
  0
LINE
  5
1B6B
330
1ADF
100
AcDbEntity
  8
1
  6
Continuous
100
AcDbLine
 10
194.7120189999999
 20
50.134468
 30
0.0
 11
194.7120189999999
 21
75.134468
 31
0.0
  0
LINE
  5
1B6C
330
1ADF
100
AcDbEntity
  8
1
  6
Continuous
100
AcDbLine
 10
176.032511
 20
75.134468
 30
0.0
 11
176.032511
 21
70.219048
 31
0.0
  0
ARC
  5
1B6D
330
1ADF
100
AcDbEntity
  8
1
  6
Continuous
100
AcDbCircle
 10
175.032511
 20
64.302968
 30
0.0
 40
6.0
100
AcDbArc
 50
0.0
 51
90.0
  0
ARC
  5
1B6E
330
1ADF
100
AcDbEntity
  8
1
  6
Continuous
100
AcDbCircle
 10
229.0325109999999
 20
62.634468
 30
0.0
 40
60.0
100
AcDbArc
 50
173.510252
 51
186.4897479999999
  0
LINE
  5
1B6F
330
1ADF
100
AcDbEntity
  8
1
  6
Continuous
100
AcDbLine
 10
176.032511
 20
67.634468
 30
0.0
 11
176.032511
 21
57.634468
 31
0.0
  0
ARC
  5
1B70
330
1ADF
100
AcDbEntity
  8
1
  6
Continuous
100
AcDbCircle
 10
175.032511
 20
60.965968
 30
0.0
 40
6.0
100
AcDbArc
 50
270.0
 51
0.0
  0
ARC
  5
1B71
330
1ADF
100
AcDbEntity
  8
1
  6
Continuous
100
AcDbCircle
 10
170.4105769999999
 20
55.965968
 30
0.0
 40
1.0
100
AcDbArc
 50
186.4897479999999
 51
270.0
  0
LINE
  5
1B72
330
1ADF
100
AcDbEntity
  8
1
  6
Continuous
100
AcDbLine
 10
175.032511
 20
54.96596799999998
 30
0.0
 11
170.4105769999999
 21
54.96596799999998
 31
0.0
  0
LINE
  5
1B73
330
1ADF
100
AcDbEntity
  8
1
  6
Continuous
100
AcDbLine
 10
176.032511
 20
55.049889
 30
0.0
 11
176.032511
 21
50.134468
 31
0.0
  0
ARC
  5
1B74
330
1ADF
100
AcDbEntity
  8
1
  6
Continuous
100
AcDbCircle
 10
170.4105769999999
 20
69.302968
 30
0.0
 40
1.0
100
AcDbArc
 50
90.0
 51
173.510252
  0
LINE
  5
1B75
330
1ADF
100
AcDbEntity
  8
1
  6
Continuous
100
AcDbLine
 10
175.032511
 20
70.30296800000001
 30
0.0
 11
170.4105769999999
 21
70.30296800000001
 31
0.0
  0
LINE
  5
1B76
330
1ADF
100
AcDbEntity
  8
1
  6
Continuous
100
AcDbLine
 10
181.0325109999998
 20
64.302968
 30
0.0
 11
181.0325109999998
 21
60.965968
 31
0.0
  0
LINE
  5
1B77
330
1ADF
100
AcDbEntity
  8
1
  6
Continuous
100
AcDbLine
 10
278.3094839999999
 20
76.63446899999998
 30
0.0
 11
278.3094839999999
 21
48.634469
 31
0.0
  0
LINE
  5
1B78
330
1ADF
100
AcDbEntity
  8
1
  6
Continuous
100
AcDbLine
 10
207.032511
 20
86.634468
 30
0.0
 11
207.032511
 21
38.634468
 31
0.0
  0
LINE
  5
1B79
330
1ADF
100
AcDbEntity
  8
1
  6
Continuous
100
AcDbLine
 10
206.0325109999999
 20
86.634468
 30
0.0
 11
206.0325109999999
 21
38.634468
 31
0.0
  0
LINE
  5
1B7A
330
1ADF
100
AcDbEntity
  8
1
  6
Continuous
100
AcDbLine
 10
202.5325109999998
 20
84.63446799999998
 30
0.0
 11
202.5325109999998
 21
40.634468
 31
0.0
  0
ARC
  5
1B7B
330
1ADF
100
AcDbEntity
  8
1
  6
Continuous
100
AcDbCircle
 10
204.5325109999998
 20
40.634468
 30
0.0
 40
2.0
100
AcDbArc
 50
222.3553149999999
 51
270.0
  0
LINE
  5
1B7C
330
1ADF
100
AcDbEntity
  8
1
  6
Continuous
100
AcDbLine
 10
207.032511
 20
38.634468
 30
0.0
 11
206.0325109999999
 21
38.634468
 31
0.0
  0
LINE
  5
1B7D
330
1ADF
100
AcDbEntity
  8
1
  6
Continuous
100
AcDbLine
 10
204.5325109999998
 20
38.634468
 30
0.0
 11
206.0325109999999
 21
38.634468
 31
0.0
  0
ARC
  5
1B7E
330
1ADF
100
AcDbEntity
  8
1
  6
Continuous
100
AcDbCircle
 10
204.5325109999998
 20
40.634468
 30
0.0
 40
2.0
100
AcDbArc
 50
180.0
 51
222.3553149999999
  0
LINE
  5
1B7F
330
1ADF
100
AcDbEntity
  8
1
  6
Continuous
100
AcDbLine
 10
219.632511
 20
73.634468
 30
0.0
 11
219.632511
 21
67.727368
 31
0.0
  0
LINE
  5
1B80
330
1ADF
100
AcDbEntity
  8
1
  6
Continuous
100
AcDbLine
 10
221.132511
 20
72.634468
 30
0.0
 11
221.132511
 21
52.634468
 31
0.0
  0
LINE
  5
1B81
330
1ADF
100
AcDbEntity
  8
1
  6
Continuous
100
AcDbLine
 10
208.9325109999998
 20
73.634468
 30
0.0
 11
208.9325109999998
 21
67.727368
 31
0.0
  0
LINE
  5
1B82
330
1ADF
100
AcDbEntity
  8
2
  6
Continuous
100
AcDbLine
 10
219.632511
 20
67.727368
 30
0.0
 11
207.032511
 21
57.541568
 31
0.0
  0
LINE
  5
1B83
330
1ADF
100
AcDbEntity
  8
2
  6
Continuous
100
AcDbLine
 10
207.032511
 20
67.727368
 30
0.0
 11
219.632511
 21
57.541568
 31
0.0
  0
LINE
  5
1B84
330
1ADF
100
AcDbEntity
  8
1
  6
Continuous
100
AcDbLine
 10
219.632511
 20
51.634468
 30
0.0
 11
208.0325109999999
 21
51.634468
 31
0.0
  0
LINE
  5
1B85
330
1ADF
100
AcDbEntity
  8
1
  6
Continuous
100
AcDbLine
 10
219.632511
 20
57.541568
 30
0.0
 11
207.032511
 21
57.541568
 31
0.0
  0
LINE
  5
1B86
330
1ADF
100
AcDbEntity
  8
2
  6
Continuous
100
AcDbLine
 10
220.4445109999999
 20
52.446468
 30
0.0
 11
208.9325109999998
 21
52.446468
 31
0.0
  0
LINE
  5
1B87
330
1ADF
100
AcDbEntity
  8
1
  6
Continuous
100
AcDbLine
 10
219.632511
 20
67.727368
 30
0.0
 11
207.032511
 21
67.727368
 31
0.0
  0
LINE
  5
1B88
330
1ADF
100
AcDbEntity
  8
1
  6
Continuous
100
AcDbLine
 10
208.5325109999998
 20
60.384468
 30
0.0
 11
208.5325109999998
 21
64.884468
 31
0.0
  0
LINE
  5
1B89
330
1ADF
100
AcDbEntity
  8
1
  6
Continuous
100
AcDbLine
 10
208.5325109999998
 20
60.384468
 30
0.0
 11
207.032511
 21
60.384468
 31
0.0
  0
ARC
  5
1B8A
330
1ADF
100
AcDbEntity
  8
1
  6
Continuous
100
AcDbCircle
 10
208.0325109999999
 20
50.634468
 30
0.0
 40
1.0
100
AcDbArc
 50
90.0
 51
180.0
  0
LINE
  5
1B8B
330
1ADF
100
AcDbEntity
  8
2
  6
Continuous
100
AcDbLine
 10
207.5260849999998
 20
51.634468
 30
0.0
 11
208.9325109999998
 21
52.446468
 31
0.0
  0
LINE
  5
1B8C
330
1ADF
100
AcDbEntity
  8
1
  6
Continuous
100
AcDbLine
 10
208.9325109999998
 20
57.541568
 30
0.0
 11
208.9325109999998
 21
51.634468
 31
0.0
  0
LINE
  5
1B8D
330
1ADF
100
AcDbEntity
  8
1
  6
Continuous
100
AcDbLine
 10
208.5325109999998
 20
64.884468
 30
0.0
 11
207.032511
 21
64.884468
 31
0.0
  0
ARC
  5
1B8E
330
1ADF
100
AcDbEntity
  8
1
  6
Continuous
100
AcDbCircle
 10
211.7366339999999
 20
62.634468
 30
0.0
 40
9.395877
100
AcDbArc
 50
327.177679
 51
32.822321
  0
LINE
  5
1B8F
330
1ADF
100
AcDbEntity
  8
1
  6
Continuous
100
AcDbLine
 10
219.632511
 20
51.634468
 30
0.0
 11
221.132511
 21
53.13446800000001
 31
0.0
  0
LINE
  5
1B90
330
1ADF
100
AcDbEntity
  8
1
  6
Continuous
100
AcDbLine
 10
219.632511
 20
57.541568
 30
0.0
 11
219.632511
 21
51.634468
 31
0.0
  0
LINE
  5
1B91
330
1ADF
100
AcDbEntity
  8
1
  6
Continuous
100
AcDbLine
 10
219.632511
 20
73.634468
 30
0.0
 11
208.0325109999999
 21
73.634468
 31
0.0
  0
LINE
  5
1B92
330
1ADF
100
AcDbEntity
  8
2
  6
Continuous
100
AcDbLine
 10
220.4445109999999
 20
72.822468
 30
0.0
 11
208.9325109999998
 21
72.822468
 31
0.0
  0
ARC
  5
1B93
330
1ADF
100
AcDbEntity
  8
1
  6
Continuous
100
AcDbCircle
 10
208.0325109999999
 20
74.63446799999998
 30
0.0
 40
1.0
100
AcDbArc
 50
180.0
 51
270.0
  0
LINE
  5
1B94
330
1ADF
100
AcDbEntity
  8
2
  6
Continuous
100
AcDbLine
 10
207.5260849999998
 20
73.634468
 30
0.0
 11
208.9325109999998
 21
72.822468
 31
0.0
  0
ARC
  5
1B95
330
1ADF
100
AcDbEntity
  8
1
  6
Continuous
100
AcDbCircle
 10
204.5325109999998
 20
84.63446799999998
 30
0.0
 40
2.0
100
AcDbArc
 50
137.644685
 51
180.0
  0
ARC
  5
1B96
330
1ADF
100
AcDbEntity
  8
1
  6
Continuous
100
AcDbCircle
 10
204.5325109999998
 20
84.63446799999998
 30
0.0
 40
2.0
100
AcDbArc
 50
90.0
 51
137.644685
  0
LINE
  5
1B97
330
1ADF
100
AcDbEntity
  8
1
  6
Continuous
100
AcDbLine
 10
207.032511
 20
86.634468
 30
0.0
 11
206.0325109999999
 21
86.634468
 31
0.0
  0
LINE
  5
1B98
330
1ADF
100
AcDbEntity
  8
1
  6
Continuous
100
AcDbLine
 10
204.5325109999998
 20
86.634468
 30
0.0
 11
206.0325109999999
 21
86.634468
 31
0.0
  0
LINE
  5
1B99
330
1ADF
100
AcDbEntity
  8
1
  6
Continuous
100
AcDbLine
 10
219.632511
 20
73.634468
 30
0.0
 11
221.132511
 21
72.13446799999998
 31
0.0
  0
LINE
  5
1B9A
330
1ADF
100
AcDbEntity
  8
1
  6
Continuous
100
AcDbLine
 10
285.309484
 20
48.634469
 30
0.0
 11
285.309484
 21
76.63446899999998
 31
0.0
  0
LINE
  5
1B9B
330
1ADF
100
AcDbEntity
  8
1
  6
Continuous
100
AcDbLine
 10
283.809484
 20
47.634469
 30
0.0
 11
283.809484
 21
77.63446899999998
 31
0.0
  0
LINE
  5
1B9C
330
1ADF
100
AcDbEntity
  8
1
  6
Continuous
100
AcDbLine
 10
279.809484
 20
47.634469
 30
0.0
 11
279.809484
 21
77.63446899999998
 31
0.0
  0
ARC
  5
1B9D
330
1ADF
100
AcDbEntity
  8
1
  6
Continuous
100
AcDbCircle
 10
251.7538169999999
 20
55.13446899999999
 30
0.0
 40
32.055667
100
AcDbArc
 50
346.469203
 51
13.530797
  0
ARC
  5
1B9E
330
1ADF
100
AcDbEntity
  8
1
  6
Continuous
100
AcDbCircle
 10
311.865152
 20
55.13446899999999
 30
0.0
 40
32.055667
100
AcDbArc
 50
166.4692029999999
 51
193.530797
  0
LINE
  5
1B9F
330
1ADF
100
AcDbEntity
  8
1
  6
Continuous
100
AcDbLine
 10
283.809484
 20
47.634469
 30
0.0
 11
279.809484
 21
47.634469
 31
0.0
  0
LINE
  5
1BA0
330
1ADF
100
AcDbEntity
  8
1
  6
Continuous
100
AcDbLine
 10
285.309484
 20
49.67613899999999
 30
0.0
 11
283.809484
 21
49.67613899999999
 31
0.0
  0
LINE
  5
1BA1
330
1ADF
100
AcDbEntity
  8
1
  6
Continuous
100
AcDbLine
 10
283.809484
 20
48.634469
 30
0.0
 11
285.309484
 21
48.634469
 31
0.0
  0
ARC
  5
1BA2
330
1ADF
100
AcDbEntity
  8
1
  6
Continuous
100
AcDbCircle
 10
251.7538169999999
 20
70.13446899999999
 30
0.0
 40
32.055667
100
AcDbArc
 50
346.469203
 51
13.530797
  0
ARC
  5
1BA3
330
1ADF
100
AcDbEntity
  8
1
  6
Continuous
100
AcDbCircle
 10
311.865152
 20
70.13446899999999
 30
0.0
 40
32.055667
100
AcDbArc
 50
166.4692029999999
 51
193.530797
  0
LINE
  5
1BA4
330
1ADF
100
AcDbEntity
  8
1
  6
Continuous
100
AcDbLine
 10
285.309484
 20
51.28547499999999
 30
0.0
 11
283.809484
 21
51.28547499999999
 31
0.0
  0
LINE
  5
1BA5
330
1ADF
100
AcDbEntity
  8
1
  6
Continuous
100
AcDbLine
 10
280.6992119999998
 20
62.634468
 30
0.0
 11
282.919756
 21
62.63446899999999
 31
0.0
  0
LINE
  5
1BA6
330
1ADF
100
AcDbEntity
  8
1
  6
Continuous
100
AcDbLine
 10
283.809484
 20
77.63446899999998
 30
0.0
 11
279.809484
 21
77.63446899999998
 31
0.0
  0
LINE
  5
1BA7
330
1ADF
100
AcDbEntity
  8
1
  6
Continuous
100
AcDbLine
 10
285.309484
 20
73.983464
 30
0.0
 11
283.809484
 21
73.983464
 31
0.0
  0
LINE
  5
1BA8
330
1ADF
100
AcDbEntity
  8
1
  6
Continuous
100
AcDbLine
 10
285.309484
 20
75.59279899999999
 30
0.0
 11
283.809484
 21
75.59279899999999
 31
0.0
  0
LINE
  5
1BA9
330
1ADF
100
AcDbEntity
  8
1
  6
Continuous
100
AcDbLine
 10
283.809484
 20
76.63446899999998
 30
0.0
 11
285.309484
 21
76.63446899999998
 31
0.0
  0
LINE
  5
1BAA
330
1ADF
100
AcDbEntity
  8
1
  6
Continuous
100
AcDbLine
 10
229.1325109999999
 20
53.13446800000001
 30
0.0
 11
229.1325109999999
 21
72.13446799999998
 31
0.0
  0
LINE
  5
1BAB
330
1ADF
100
AcDbEntity
  8
1
  6
Continuous
100
AcDbLine
 10
228.6325109999999
 20
52.634468
 30
0.0
 11
221.132511
 21
52.634468
 31
0.0
  0
ARC
  5
1BAC
330
1ADF
100
AcDbEntity
  8
1
  6
Continuous
100
AcDbCircle
 10
228.6325109999999
 20
53.13446800000001
 30
0.0
 40
0.5
100
AcDbArc
 50
270.0
 51
0.0
  0
LINE
  5
1BAD
330
1ADF
100
AcDbEntity
  8
1
  6
Continuous
100
AcDbLine
 10
228.6325109999999
 20
72.634468
 30
0.0
 11
221.132511
 21
72.634468
 31
0.0
  0
ARC
  5
1BAE
330
1ADF
100
AcDbEntity
  8
1
  6
Continuous
100
AcDbCircle
 10
228.6325109999999
 20
72.13446799999998
 30
0.0
 40
0.5
100
AcDbArc
 50
0.0
 51
90.0
  0
ARC
  5
1BAF
330
1ADF
100
AcDbEntity
  8
1
  6
Continuous
100
AcDbCircle
 10
229.3575339999999
 20
60.63446800000001
 30
0.0
 40
5.774976999999998
100
AcDbArc
 50
339.7375
 51
20.2625
  0
ARC
  5
1BB0
330
1ADF
100
AcDbEntity
  8
1
  6
Continuous
100
AcDbCircle
 10
237.407488
 20
60.63446800000001
 30
0.0
 40
5.774976999999998
100
AcDbArc
 50
159.7375
 51
200.2625
  0
LINE
  5
1BB1
330
1ADF
100
AcDbEntity
  8
1
  6
Continuous
100
AcDbLine
 10
235.1325109999999
 20
66.634468
 30
0.0
 11
235.1325109999999
 21
58.63446800000001
 31
0.0
  0
LINE
  5
1BB2
330
1ADF
100
AcDbEntity
  8
1
  6
Continuous
100
AcDbLine
 10
231.632511
 20
58.03446799999999
 30
0.0
 11
231.632511
 21
67.23446800000001
 31
0.0
  0
LINE
  5
1BB3
330
1ADF
100
AcDbEntity
  8
1
  6
Continuous
100
AcDbLine
 10
230.3325109999999
 20
70.634468
 30
0.0
 11
230.3325109999999
 21
54.63446799999999
 31
0.0
  0
LINE
  5
1BB4
330
1ADF
100
AcDbEntity
  8
1
  6
Continuous
100
AcDbLine
 10
235.1325109999999
 20
58.63446800000001
 30
0.0
 11
231.632511
 21
58.63446800000001
 31
0.0
  0
LINE
  5
1BB5
330
1ADF
100
AcDbEntity
  8
1
  6
Continuous
100
AcDbLine
 10
231.632511
 20
58.03446799999999
 30
0.0
 11
230.3325109999999
 21
58.03446799999999
 31
0.0
  0
LINE
  5
1BB6
330
1ADF
100
AcDbEntity
  8
1
  6
Continuous
100
AcDbLine
 10
230.3325109999999
 20
54.63446799999999
 30
0.0
 11
229.1325109999999
 21
54.63446799999999
 31
0.0
  0
LINE
  5
1BB7
330
1ADF
100
AcDbEntity
  8
1
  6
Continuous
100
AcDbLine
 10
235.1325109999999
 20
66.634468
 30
0.0
 11
231.632511
 21
66.634468
 31
0.0
  0
LINE
  5
1BB8
330
1ADF
100
AcDbEntity
  8
1
  6
Continuous
100
AcDbLine
 10
231.989891
 20
62.634468
 30
0.0
 11
234.775131
 21
62.634468
 31
0.0
  0
ARC
  5
1BB9
330
1ADF
100
AcDbEntity
  8
1
  6
Continuous
100
AcDbCircle
 10
237.407488
 20
64.63446799999998
 30
0.0
 40
5.774976999999998
100
AcDbArc
 50
159.7375
 51
200.2625
  0
ARC
  5
1BBA
330
1ADF
100
AcDbEntity
  8
1
  6
Continuous
100
AcDbCircle
 10
229.3575339999999
 20
64.63446799999998
 30
0.0
 40
5.774976999999998
100
AcDbArc
 50
339.7375
 51
20.2625
  0
LINE
  5
1BBB
330
1ADF
100
AcDbEntity
  8
1
  6
Continuous
100
AcDbLine
 10
230.3325109999999
 20
70.634468
 30
0.0
 11
229.1325109999999
 21
70.634468
 31
0.0
  0
LINE
  5
1BBC
330
1ADF
100
AcDbEntity
  8
1
  6
Continuous
100
AcDbLine
 10
231.632511
 20
67.23446800000001
 30
0.0
 11
230.3325109999999
 21
67.23446800000001
 31
0.0
  0
LINE
  5
1BBD
330
1ADF
100
AcDbEntity
  8
1
  6
Continuous
100
AcDbLine
 10
231.632511
 20
62.634468
 30
0.0
 11
230.3325109999999
 21
61.33446800000001
 31
0.0
  0
LINE
  5
1BBE
330
1ADF
100
AcDbEntity
  8
1
  6
Continuous
100
AcDbLine
 10
231.632511
 20
63.934468
 30
0.0
 11
230.3325109999999
 21
62.634468
 31
0.0
  0
LINE
  5
1BBF
330
1ADF
100
AcDbEntity
  8
1
  6
Continuous
100
AcDbLine
 10
278.3094839999999
 20
257.9025639999999
 30
0.0
 11
279.809484
 21
257.9025639999999
 31
0.0
  0
LINE
  5
1BC0
330
1ADF
100
AcDbEntity
  8
4
  6
CENTER
100
AcDbLine
 10
272.809484
 20
271.9025639999999
 30
0.0
 11
288.309484
 21
271.9025639999999
 31
0.0
  0
LINE
  5
1BC1
330
1ADF
100
AcDbEntity
  8
1
  6
Continuous
100
AcDbLine
 10
176.032511
 20
254.5810719999999
 30
0.0
 11
176.032511
 21
191.387846
 31
0.0
  0
LINE
  5
1BC2
330
1ADF
100
AcDbEntity
  8
1
  6
Continuous
100
AcDbLine
 10
168.885296
 20
173.7431039999999
 30
0.0
 11
163.6692139999999
 21
238.956535
 31
0.0
  0
ARC
  5
1BC3
330
1ADF
100
AcDbEntity
  8
1
  6
Continuous
100
AcDbCircle
 10
174.032511
 20
178.902564
 30
0.0
 40
7.0
100
AcDbArc
 50
270.0
 51
0.0
  0
LINE
  5
1BC4
330
1ADF
100
AcDbEntity
  8
1
  6
Continuous
100
AcDbLine
 10
170.878929
 20
171.9025639999999
 30
0.0
 11
174.032511
 21
171.9025639999999
 31
0.0
  0
ARC
  5
1BC5
330
1ADF
100
AcDbEntity
  8
1
  6
Continuous
100
AcDbCircle
 10
170.878929
 20
173.9025639999999
 30
0.0
 40
2.0
100
AcDbArc
 50
184.573055
 51
270.0
  0
ARC
  5
1BC6
330
1ADF
100
AcDbEntity
  8
1
  6
Continuous
100
AcDbCircle
 10
175.032511
 20
181.417283
 30
0.0
 40
6.0
100
AcDbArc
 50
0.0
 51
45.0
  0
LINE
  5
1BC7
330
1ADF
100
AcDbEntity
  8
1
  6
Continuous
100
AcDbLine
 10
181.0325109999998
 20
181.417283
 30
0.0
 11
181.0325109999998
 21
178.902564
 31
0.0
  0
ARC
  5
1BC8
330
1ADF
100
AcDbEntity
  8
1
  6
Continuous
100
AcDbCircle
 10
182.0325109999997
 20
191.387846
 30
0.0
 40
6.0
100
AcDbArc
 50
180.0
 51
225.0
  0
LINE
  5
1BC9
330
1ADF
100
AcDbEntity
  8
1
  6
Continuous
100
AcDbLine
 10
179.2751519999999
 20
185.6599239999999
 30
0.0
 11
177.789871
 21
187.145205
 31
0.0
  0
LINE
  5
1BCA
330
1ADF
100
AcDbEntity
  8
1
  6
Continuous
100
AcDbLine
 10
198.838005
 20
257.6090869999998
 30
0.0
 11
201.532511
 21
254.9871049999999
 31
0.0
  0
LINE
  5
1BCB
330
1ADF
100
AcDbEntity
  8
1
  6
Continuous
100
AcDbLine
 10
194.71202
 20
257.760515
 30
0.0
 11
203.050547
 21
248.5595149999999
 31
0.0
  0
LINE
  5
1BCC
330
1ADF
100
AcDbEntity
  8
4
  6
CENTER
100
AcDbLine
 10
156.281707
 20
271.9025639999999
 30
0.0
 11
239.760718
 21
271.9025639999999
 31
0.0
  0
LINE
  5
1BCD
330
1ADF
100
AcDbEntity
  8
1
  6
Continuous
100
AcDbLine
 10
162.032511
 20
260.4025639999999
 30
0.0
 11
162.532511
 21
259.9025639999999
 31
0.0
  0
ARC
  5
1BCE
330
1ADF
100
AcDbEntity
  8
1
  6
Continuous
100
AcDbCircle
 10
363.032511
 20
254.9025639999999
 30
0.0
 40
200.0
100
AcDbArc
 50
180.0
 51
184.573055
  0
LINE
  5
1BCF
330
1ADF
100
AcDbEntity
  8
1
  6
Continuous
100
AcDbLine
 10
162.532511
 20
258.902564
 30
0.0
 11
162.032511
 21
258.4025639999999
 31
0.0
  0
LINE
  5
1BD0
330
1ADF
100
AcDbEntity
  8
1
  6
Continuous
100
AcDbLine
 10
162.032511
 20
259.4025639999999
 30
0.0
 11
162.532511
 21
258.902564
 31
0.0
  0
LINE
  5
1BD1
330
1ADF
100
AcDbEntity
  8
1
  6
Continuous
100
AcDbLine
 10
162.532511
 20
259.9025639999999
 30
0.0
 11
162.032511
 21
259.4025639999999
 31
0.0
  0
LINE
  5
1BD2
330
1ADF
100
AcDbEntity
  8
1
  6
Continuous
100
AcDbLine
 10
164.003387
 20
254.9025639999999
 30
0.0
 11
162.532511
 21
254.9025639999999
 31
0.0
  0
LINE
  5
1BD3
330
1ADF
100
AcDbEntity
  8
1
  6
Continuous
100
AcDbLine
 10
162.032511
 20
258.4025639999999
 30
0.0
 11
162.532511
 21
257.9025639999999
 31
0.0
  0
LINE
  5
1BD4
330
1ADF
100
AcDbEntity
  8
1
  6
Continuous
100
AcDbLine
 10
162.032511
 20
269.4025639999999
 30
0.0
 11
162.532511
 21
268.902564
 31
0.0
  0
LINE
  5
1BD5
330
1ADF
100
AcDbEntity
  8
1
  6
Continuous
100
AcDbLine
 10
162.532511
 20
269.9025639999999
 30
0.0
 11
162.032511
 21
269.4025639999999
 31
0.0
  0
LINE
  5
1BD6
330
1ADF
100
AcDbEntity
  8
1
  6
Continuous
100
AcDbLine
 10
162.532511
 20
263.9025639999999
 30
0.0
 11
162.032511
 21
263.4025639999999
 31
0.0
  0
LINE
  5
1BD7
330
1ADF
100
AcDbEntity
  8
1
  6
Continuous
100
AcDbLine
 10
162.032511
 20
264.4025639999999
 30
0.0
 11
162.532511
 21
263.9025639999999
 31
0.0
  0
LINE
  5
1BD8
330
1ADF
100
AcDbEntity
  8
1
  6
Continuous
100
AcDbLine
 10
162.532511
 20
264.902564
 30
0.0
 11
162.032511
 21
264.4025639999999
 31
0.0
  0
LINE
  5
1BD9
330
1ADF
100
AcDbEntity
  8
1
  6
Continuous
100
AcDbLine
 10
162.032511
 20
265.4025639999999
 30
0.0
 11
162.532511
 21
264.902564
 31
0.0
  0
LINE
  5
1BDA
330
1ADF
100
AcDbEntity
  8
1
  6
Continuous
100
AcDbLine
 10
162.532511
 20
265.9025639999999
 30
0.0
 11
162.032511
 21
265.4025639999999
 31
0.0
  0
LINE
  5
1BDB
330
1ADF
100
AcDbEntity
  8
1
  6
Continuous
100
AcDbLine
 10
162.032511
 20
266.4025639999999
 30
0.0
 11
162.532511
 21
265.9025639999999
 31
0.0
  0
LINE
  5
1BDC
330
1ADF
100
AcDbEntity
  8
1
  6
Continuous
100
AcDbLine
 10
162.532511
 20
266.902564
 30
0.0
 11
162.032511
 21
266.4025639999999
 31
0.0
  0
LINE
  5
1BDD
330
1ADF
100
AcDbEntity
  8
1
  6
Continuous
100
AcDbLine
 10
162.032511
 20
267.4025639999999
 30
0.0
 11
162.532511
 21
266.902564
 31
0.0
  0
LINE
  5
1BDE
330
1ADF
100
AcDbEntity
  8
1
  6
Continuous
100
AcDbLine
 10
162.532511
 20
267.9025639999999
 30
0.0
 11
162.032511
 21
267.4025639999999
 31
0.0
  0
LINE
  5
1BDF
330
1ADF
100
AcDbEntity
  8
1
  6
Continuous
100
AcDbLine
 10
162.032511
 20
268.4025639999999
 30
0.0
 11
162.532511
 21
267.9025639999999
 31
0.0
  0
LINE
  5
1BE0
330
1ADF
100
AcDbEntity
  8
1
  6
Continuous
100
AcDbLine
 10
162.532511
 20
268.902564
 30
0.0
 11
162.032511
 21
268.4025639999999
 31
0.0
  0
LINE
  5
1BE1
330
1ADF
100
AcDbEntity
  8
1
  6
Continuous
100
AcDbLine
 10
162.532511
 20
260.902564
 30
0.0
 11
162.032511
 21
260.4025639999999
 31
0.0
  0
LINE
  5
1BE2
330
1ADF
100
AcDbEntity
  8
1
  6
Continuous
100
AcDbLine
 10
162.032511
 20
261.4025639999999
 30
0.0
 11
162.532511
 21
260.902564
 31
0.0
  0
LINE
  5
1BE3
330
1ADF
100
AcDbEntity
  8
1
  6
Continuous
100
AcDbLine
 10
162.532511
 20
261.9025639999999
 30
0.0
 11
162.032511
 21
261.4025639999999
 31
0.0
  0
LINE
  5
1BE4
330
1ADF
100
AcDbEntity
  8
1
  6
Continuous
100
AcDbLine
 10
162.032511
 20
262.4025639999999
 30
0.0
 11
162.532511
 21
261.9025639999999
 31
0.0
  0
LINE
  5
1BE5
330
1ADF
100
AcDbEntity
  8
1
  6
Continuous
100
AcDbLine
 10
162.532511
 20
262.902564
 30
0.0
 11
162.032511
 21
262.4025639999999
 31
0.0
  0
LINE
  5
1BE6
330
1ADF
100
AcDbEntity
  8
1
  6
Continuous
100
AcDbLine
 10
162.032511
 20
263.4025639999999
 30
0.0
 11
162.532511
 21
262.902564
 31
0.0
  0
LINE
  5
1BE7
330
1ADF
100
AcDbEntity
  8
1
  6
Continuous
100
AcDbLine
 10
194.663021
 20
261.6716999999998
 30
0.0
 11
198.1928359999997
 21
258.236891
 31
0.0
  0
ARC
  5
1BE8
330
1ADF
100
AcDbEntity
  8
1
  6
Continuous
100
AcDbCircle
 10
182.0325109999997
 20
254.5810719999999
 30
0.0
 40
6.0
100
AcDbArc
 50
95.44033199999999
 51
180.0
  0
LINE
  5
1BE9
330
1ADF
100
AcDbEntity
  8
1
  6
Continuous
100
AcDbLine
 10
176.244214
 20
256.160822
 30
0.0
 11
194.5325109999997
 21
257.9025639999999
 31
0.0
  0
ARC
  5
1BEA
330
1ADF
100
AcDbEntity
  8
1
  6
Continuous
100
AcDbCircle
 10
195.082511
 20
258.0962769999998
 30
0.0
 40
0.5
100
AcDbArc
 50
180.0
 51
222.1848549999999
  0
LINE
  5
1BEB
330
1ADF
100
AcDbEntity
  8
1
  6
Continuous
100
AcDbLine
 10
181.463657
 20
260.5540439999999
 30
0.0
 11
194.1647859999999
 21
261.7636759999999
 31
0.0
  0
LINE
  5
1BEC
330
1ADF
100
AcDbEntity
  8
1
  6
Continuous
100
AcDbLine
 10
194.5325109999997
 20
262.902564
 30
0.0
 11
194.582511
 21
262.902564
 31
0.0
  0
ARC
  5
1BED
330
1ADF
100
AcDbEntity
  8
1
  6
Continuous
100
AcDbCircle
 10
204.5325109999998
 20
249.902564
 30
0.0
 40
2.0
100
AcDbArc
 50
180.0
 51
222.3553149999999
  0
ARC
  5
1BEE
330
1ADF
100
AcDbEntity
  8
1
  6
Continuous
100
AcDbCircle
 10
204.5325109999998
 20
249.902564
 30
0.0
 40
2.0
100
AcDbArc
 50
222.3553149999999
 51
270.0
  0
LINE
  5
1BEF
330
1ADF
100
AcDbEntity
  8
1
  6
Continuous
100
AcDbLine
 10
207.032511
 20
247.902564
 30
0.0
 11
206.0325109999999
 21
247.902564
 31
0.0
  0
LINE
  5
1BF0
330
1ADF
100
AcDbEntity
  8
1
  6
Continuous
100
AcDbLine
 10
204.5325109999998
 20
247.902564
 30
0.0
 11
206.0325109999999
 21
247.902564
 31
0.0
  0
LINE
  5
1BF1
330
1ADF
100
AcDbEntity
  8
1
  6
Continuous
100
AcDbLine
 10
208.5325109999998
 20
252.402564
 30
0.0
 11
207.032511
 21
252.402564
 31
0.0
  0
LINE
  5
1BF2
330
1ADF
100
AcDbEntity
  8
1
  6
Continuous
100
AcDbLine
 10
208.5325109999998
 20
256.9025639999999
 30
0.0
 11
207.032511
 21
256.9025639999999
 31
0.0
  0
LINE
  5
1BF3
330
1ADF
100
AcDbEntity
  8
1
  6
Continuous
100
AcDbLine
 10
208.5325109999998
 20
252.402564
 30
0.0
 11
208.5325109999998
 21
256.9025639999999
 31
0.0
  0
LINE
  5
1BF4
330
1ADF
100
AcDbEntity
  8
1
  6
Continuous
100
AcDbLine
 10
220.8825109999999
 20
262.1525639999999
 30
0.0
 11
207.032511
 21
262.1525639999999
 31
0.0
  0
LINE
  5
1BF5
330
1ADF
100
AcDbEntity
  8
1
  6
Continuous
100
AcDbLine
 10
221.132511
 20
281.9025639999999
 30
0.0
 11
221.132511
 21
261.9025639999999
 31
0.0
  0
LINE
  5
1BF6
330
1ADF
100
AcDbEntity
  8
1
  6
Continuous
100
AcDbLine
 10
220.8825109999999
 20
262.1525639999999
 30
0.0
 11
221.132511
 21
262.4025639999999
 31
0.0
  0
ARC
  5
1BF7
330
1ADF
100
AcDbEntity
  8
1
  6
Continuous
100
AcDbCircle
 10
290.791271
 20
258.912183
 30
0.0
 40
10.98178699999998
100
AcDbArc
 50
156.7776279999999
 51
193.240431
  0
ARC
  5
1BF8
330
1ADF
100
AcDbEntity
  8
1
  6
Continuous
100
AcDbCircle
 10
272.827697
 20
258.912183
 30
0.0
 40
10.98178699999998
100
AcDbArc
 50
346.759553
 51
23.222372
  0
LINE
  5
1BF9
330
1ADF
100
AcDbEntity
  8
1
  6
Continuous
100
AcDbLine
 10
283.809484
 20
257.9025639999999
 30
0.0
 11
285.309484
 21
257.9025639999999
 31
0.0
  0
LINE
  5
1BFA
330
1ADF
100
AcDbEntity
  8
1
  6
Continuous
100
AcDbLine
 10
285.309484
 20
257.9025639999999
 30
0.0
 11
283.809484
 21
257.9025639999999
 31
0.0
  0
LINE
  5
1BFB
330
1ADF
100
AcDbEntity
  8
1
  6
Continuous
100
AcDbLine
 10
282.469739
 20
254.582056
 30
0.0
 11
281.1492289999998
 21
254.582056
 31
0.0
  0
LINE
  5
1BFC
330
1ADF
100
AcDbEntity
  8
1
  6
Continuous
100
AcDbLine
 10
281.1492299999999
 20
254.582056
 30
0.0
 11
279.809484
 21
256.9025639999999
 31
0.0
  0
LINE
  5
1BFD
330
1ADF
100
AcDbEntity
  8
1
  6
Continuous
100
AcDbLine
 10
282.469739
 20
254.582056
 30
0.0
 11
283.809485
 21
256.9025639999999
 31
0.0
  0
ARC
  5
1BFE
330
1ADF
100
AcDbEntity
  8
1
  6
Continuous
100
AcDbCircle
 10
322.402039
 20
271.9025639999999
 30
0.0
 40
42.592555
100
AcDbArc
 50
168.2683679999998
 51
191.7316319999999
  0
ARC
  5
1BFF
330
1ADF
100
AcDbEntity
  8
1
  6
Continuous
100
AcDbCircle
 10
241.2169279999999
 20
271.9025639999999
 30
0.0
 40
42.592555
100
AcDbArc
 50
348.268368
 51
11.731632
  0
LINE
  5
1C00
330
1ADF
100
AcDbEntity
  8
1
  6
Continuous
100
AcDbLine
 10
282.919756
 20
263.24231
 30
0.0
 11
280.6992119999998
 21
263.24231
 31
0.0
  0
LINE
  5
1C01
330
1ADF
100
AcDbEntity
  8
1
  6
Continuous
100
AcDbLine
 10
285.309484
 20
263.704983
 30
0.0
 11
283.809484
 21
263.704983
 31
0.0
  0
LINE
  5
1C02
330
1ADF
100
AcDbEntity
  8
1
  6
Continuous
100
AcDbLine
 10
285.309484
 20
266.172837
 30
0.0
 11
283.809484
 21
266.172837
 31
0.0
  0
LINE
  5
1C03
330
1ADF
100
AcDbEntity
  8
1
  6
Continuous
100
AcDbLine
 10
285.309484
 20
277.632291
 30
0.0
 11
283.809484
 21
277.632291
 31
0.0
  0
LINE
  5
1C04
330
1ADF
100
AcDbEntity
  8
1
  6
Continuous
100
AcDbLine
 10
282.919756
 20
280.5628179999999
 30
0.0
 11
280.6992119999998
 21
280.5628179999999
 31
0.0
  0
LINE
  5
1C05
330
1ADF
100
AcDbEntity
  8
1
  6
Continuous
100
AcDbLine
 10
285.309484
 20
280.100145
 30
0.0
 11
283.809484
 21
280.100145
 31
0.0
  0
LINE
  5
1C06
330
1ADF
100
AcDbEntity
  8
1
  6
Continuous
100
AcDbLine
 10
231.632511
 20
271.9025639999999
 30
0.0
 11
230.3325109999999
 21
270.6025639999999
 31
0.0
  0
LINE
  5
1C07
330
1ADF
100
AcDbEntity
  8
1
  6
Continuous
100
AcDbLine
 10
230.3325109999999
 20
279.9025639999999
 30
0.0
 11
230.3325109999999
 21
263.9025639999999
 31
0.0
  0
LINE
  5
1C08
330
1ADF
100
AcDbEntity
  8
1
  6
Continuous
100
AcDbLine
 10
231.632511
 20
267.283762
 30
0.0
 11
231.632511
 21
276.521366
 31
0.0
  0
ARC
  5
1C09
330
1ADF
100
AcDbEntity
  8
1
  6
Continuous
100
AcDbCircle
 10
227.4914659999998
 20
271.9025639999999
 30
0.0
 40
7.641045
100
AcDbArc
 50
342.4072529999999
 51
17.59274699999998
  0
ARC
  5
1C0A
330
1ADF
100
AcDbEntity
  8
1
  6
Continuous
100
AcDbCircle
 10
239.273556
 20
271.9025639999999
 30
0.0
 40
7.641045
100
AcDbArc
 50
162.407253
 51
197.592747
  0
LINE
  5
1C0B
330
1ADF
100
AcDbEntity
  8
1
  6
Continuous
100
AcDbLine
 10
235.1325109999999
 20
275.9030639999999
 30
0.0
 11
235.1325109999999
 21
267.9030639999999
 31
0.0
  0
LINE
  5
1C0C
330
1ADF
100
AcDbEntity
  8
1
  6
Continuous
100
AcDbLine
 10
230.3325109999999
 20
263.9025639999999
 30
0.0
 11
229.1325109999999
 21
263.9025639999999
 31
0.0
  0
LINE
  5
1C0D
330
1ADF
100
AcDbEntity
  8
1
  6
Continuous
100
AcDbLine
 10
231.632511
 20
267.302564
 30
0.0
 11
230.3325109999999
 21
267.302564
 31
0.0
  0
ARC
  5
1C0E
330
1ADF
100
AcDbEntity
  8
1
  6
Continuous
100
AcDbCircle
 10
233.0874249999999
 20
268.4390639999999
 30
0.0
 40
2.045087
100
AcDbArc
 50
334.3862009999999
 51
34.386201
  0
LINE
  5
1C0F
330
1ADF
100
AcDbEntity
  8
1
  6
Continuous
100
AcDbLine
 10
235.1325109999999
 20
267.9030639999999
 30
0.0
 11
234.775131
 21
267.2840639999999
 31
0.0
  0
LINE
  5
1C10
330
1ADF
100
AcDbEntity
  8
1
  6
Continuous
100
AcDbLine
 10
231.632511
 20
267.9030639999999
 30
0.0
 11
231.989891
 21
267.2840639999999
 31
0.0
  0
LINE
  5
1C11
330
1ADF
100
AcDbEntity
  8
1
  6
Continuous
100
AcDbLine
 10
231.989891
 20
267.2840639999999
 30
0.0
 11
234.775131
 21
267.2840639999999
 31
0.0
  0
LINE
  5
1C12
330
1ADF
100
AcDbEntity
  8
1
  6
Continuous
100
AcDbLine
 10
231.989891
 20
269.593064
 30
0.0
 11
234.775131
 21
269.593064
 31
0.0
  0
ARC
  5
1C13
330
1ADF
100
AcDbEntity
  8
1
  6
Continuous
100
AcDbCircle
 10
233.677598
 20
268.4390639999999
 30
0.0
 40
2.045087
100
AcDbArc
 50
145.613799
 51
205.613799
  0
LINE
  5
1C14
330
1ADF
100
AcDbEntity
  8
1
  6
Continuous
100
AcDbLine
 10
230.3325109999999
 20
279.9025639999999
 30
0.0
 11
229.1325109999999
 21
279.9025639999999
 31
0.0
  0
LINE
  5
1C15
330
1ADF
100
AcDbEntity
  8
1
  6
Continuous
100
AcDbLine
 10
231.632511
 20
276.502564
 30
0.0
 11
230.3325109999999
 21
276.502564
 31
0.0
  0
ARC
  5
1C16
330
1ADF
100
AcDbEntity
  8
1
  6
Continuous
100
AcDbCircle
 10
233.0874249999999
 20
275.367064
 30
0.0
 40
2.045087
100
AcDbArc
 50
325.6137989999999
 51
25.61379899999999
  0
LINE
  5
1C17
330
1ADF
100
AcDbEntity
  8
1
  6
Continuous
100
AcDbLine
 10
235.1325109999999
 20
275.9030639999999
 30
0.0
 11
234.775131
 21
276.5220639999999
 31
0.0
  0
LINE
  5
1C18
330
1ADF
100
AcDbEntity
  8
1
  6
Continuous
100
AcDbLine
 10
231.989891
 20
274.2120639999999
 30
0.0
 11
234.775131
 21
274.2120639999999
 31
0.0
  0
LINE
  5
1C19
330
1ADF
100
AcDbEntity
  8
1
  6
Continuous
100
AcDbLine
 10
231.989891
 20
276.5220639999999
 30
0.0
 11
234.775131
 21
276.5220639999999
 31
0.0
  0
ARC
  5
1C1A
330
1ADF
100
AcDbEntity
  8
1
  6
Continuous
100
AcDbCircle
 10
233.677598
 20
275.367064
 30
0.0
 40
2.045087
100
AcDbArc
 50
154.3862009999998
 51
214.3862009999998
  0
LINE
  5
1C1B
330
1ADF
100
AcDbEntity
  8
1
  6
Continuous
100
AcDbLine
 10
231.632511
 20
275.9030639999999
 30
0.0
 11
231.989891
 21
276.5220639999999
 31
0.0
  0
LINE
  5
1C1C
330
1ADF
100
AcDbEntity
  8
1
  6
Continuous
100
AcDbLine
 10
231.632511
 20
273.2025639999998
 30
0.0
 11
230.3325109999999
 21
271.9025639999999
 31
0.0
  0
ARC
  5
1C1D
330
1ADF
100
AcDbEntity
  8
1
  6
Continuous
100
AcDbCircle
 10
39.61303800000001
 20
264.902564
 30
0.0
 40
24.0
100
AcDbArc
 50
61.49256900000001
 51
118.507431
  0
ARC
  5
1C1E
330
1ADF
100
AcDbEntity
  8
1
  6
Continuous
100
AcDbCircle
 10
29.113038
 20
284.235179
 30
0.0
 40
2.0
100
AcDbArc
 50
118.507431
 51
180.0
  0
LINE
  5
1C1F
330
1ADF
100
AcDbEntity
  8
1
  6
Continuous
100
AcDbLine
 10
23.856405
 20
289.2498129999999
 30
0.0
 11
27.113038
 21
282.006431
 31
0.0
  0
ARC
  5
1C20
330
1ADF
100
AcDbEntity
  8
1
  6
Continuous
100
AcDbCircle
 10
25.613038
 20
288.873127
 30
0.0
 40
2.0
100
AcDbArc
 50
129.521196
 51
180.0
  0
LINE
  5
1C21
330
1ADF
100
AcDbEntity
  8
1
  6
Continuous
100
AcDbLine
 10
55.258891
 20
289.003415
 30
0.0
 11
52.113038
 21
282.006431
 31
0.0
  0
ARC
  5
1C22
330
1ADF
100
AcDbEntity
  8
1
  6
Continuous
100
AcDbCircle
 10
50.113038
 20
284.235179
 30
0.0
 40
2.0
100
AcDbArc
 50
0.0
 51
61.49256900000001
  0
ARC
  5
1C23
330
1ADF
100
AcDbEntity
  8
1
  6
Continuous
100
AcDbCircle
 10
53.613038
 20
288.873127
 30
0.0
 40
2.0
100
AcDbArc
 50
0.0
 51
50.478804
  0
LINE
  5
1C24
330
1ADF
100
AcDbEntity
  8
1
  6
Continuous
100
AcDbLine
 10
278.3094839999999
 20
428.9699709999998
 30
0.0
 11
279.809484
 21
428.9699709999998
 31
0.0
  0
LINE
  5
1C25
330
1ADF
100
AcDbEntity
  8
4
  6
CENTER
100
AcDbLine
 10
272.809484
 20
414.969971
 30
0.0
 11
288.309484
 21
414.969971
 31
0.0
  0
LINE
  5
1C26
330
1ADF
100
AcDbEntity
  8
1
  6
Continuous
100
AcDbLine
 10
278.3094839999999
 20
400.9699709999998
 30
0.0
 11
279.809484
 21
400.9699709999998
 31
0.0
  0
LINE
  5
1C27
330
1ADF
100
AcDbEntity
  8
1
  6
Continuous
100
AcDbLine
 10
278.3094839999999
 20
285.902564
 30
0.0
 11
279.809484
 21
285.902564
 31
0.0
  0
LINE
  5
1C28
330
1ADF
100
AcDbEntity
  8
1
  6
Continuous
100
AcDbLine
 10
202.5325109999998
 20
436.9699709999999
 30
0.0
 11
202.5325109999998
 21
392.9699709999999
 31
0.0
  0
LINE
  5
1C29
330
1ADF
100
AcDbEntity
  8
1
  6
Continuous
100
AcDbLine
 10
206.0325109999999
 20
438.969971
 30
0.0
 11
206.0325109999999
 21
390.9699709999999
 31
0.0
  0
LINE
  5
1C2A
330
1ADF
100
AcDbEntity
  8
1
  6
Continuous
100
AcDbLine
 10
207.032511
 20
438.969971
 30
0.0
 11
207.032511
 21
390.9699709999999
 31
0.0
  0
LINE
  5
1C2B
330
1ADF
100
AcDbEntity
  8
1
  6
Continuous
100
AcDbLine
 10
201.532511
 20
288.8180229999999
 30
0.0
 11
198.838005
 21
286.196041
 31
0.0
  0
LINE
  5
1C2C
330
1ADF
100
AcDbEntity
  8
1
  6
Continuous
100
AcDbLine
 10
203.050547
 20
295.2456139999998
 30
0.0
 11
194.71202
 21
286.044614
 31
0.0
  0
LINE
  5
1C2D
330
1ADF
100
AcDbEntity
  8
1
  6
Continuous
100
AcDbLine
 10
165.3490379999998
 20
285.051737
 30
0.0
 11
174.2677789999999
 21
285.051737
 31
0.0
  0
LINE
  5
1C2E
330
1ADF
100
AcDbEntity
  8
1
  6
Continuous
100
AcDbLine
 10
163.532511
 20
288.9025639999999
 30
0.0
 11
174.2677789999999
 21
288.9025639999999
 31
0.0
  0
ARC
  5
1C2F
330
1ADF
100
AcDbEntity
  8
1
  6
Continuous
100
AcDbCircle
 10
163.532511
 20
287.902564
 30
0.0
 40
1.0
100
AcDbArc
 50
90.0
 51
180.0
  0
LINE
  5
1C30
330
1ADF
100
AcDbEntity
  8
1
  6
Continuous
100
AcDbLine
 10
163.495233
 20
286.360372
 30
0.0
 11
164.003387
 21
286.360372
 31
0.0
  0
LINE
  5
1C31
330
1ADF
100
AcDbEntity
  8
1
  6
Continuous
100
AcDbLine
 10
164.003387
 20
286.360372
 30
0.0
 11
164.4918389999999
 21
285.2301839999999
 31
0.0
  0
LINE
  5
1C32
330
1ADF
100
AcDbEntity
  8
1
  6
Continuous
100
AcDbLine
 10
163.495233
 20
286.360372
 30
0.0
 11
163.001011
 21
288.071198
 31
0.0
  0
ARC
  5
1C33
330
1ADF
100
AcDbEntity
  8
1
  6
Continuous
100
AcDbCircle
 10
165.3490379999998
 20
284.051737
 30
0.0
 40
1.0
100
AcDbArc
 50
90.0
 51
180.0
  0
LINE
  5
1C34
330
1ADF
100
AcDbEntity
  8
1
  6
Continuous
100
AcDbLine
 10
175.788351
 20
288.7862809999999
 30
0.0
 11
194.5325109999997
 21
285.902564
 31
0.0
  0
LINE
  5
1C35
330
1ADF
100
AcDbEntity
  8
1
  6
Continuous
100
AcDbLine
 10
175.202805
 20
284.980232
 30
0.0
 11
193.9469649999999
 21
282.096515
 31
0.0
  0
ARC
  5
1C36
330
1ADF
100
AcDbEntity
  8
1
  6
Continuous
100
AcDbCircle
 10
174.2677789999999
 20
278.9025639999999
 30
0.0
 40
10.0
100
AcDbArc
 50
81.25383799999999
 51
90.0
  0
ARC
  5
1C37
330
1ADF
100
AcDbEntity
  8
1
  6
Continuous
100
AcDbCircle
 10
174.2677789999999
 20
278.9025639999999
 30
0.0
 40
6.149172
100
AcDbArc
 50
81.25383799999999
 51
90.0
  0
LINE
  5
1C38
330
1ADF
100
AcDbEntity
  8
1
  6
Continuous
100
AcDbLine
 10
194.582511
 20
283.4025639999999
 30
0.0
 11
194.5325109999997
 21
283.4025639999999
 31
0.0
  0
ARC
  5
1C39
330
1ADF
100
AcDbEntity
  8
1
  6
Continuous
100
AcDbCircle
 10
195.082511
 20
285.708851
 30
0.0
 40
0.5
100
AcDbArc
 50
137.815145
 51
180.0
  0
LINE
  5
1C3A
330
1ADF
100
AcDbEntity
  8
1
  6
Continuous
100
AcDbLine
 10
198.1928359999997
 20
285.568237
 30
0.0
 11
194.663021
 21
282.1334279999998
 31
0.0
  0
LINE
  5
1C3B
330
1ADF
100
AcDbEntity
  8
1
  6
Continuous
100
AcDbLine
 10
220.8825109999999
 20
281.652564
 30
0.0
 11
207.032511
 21
281.652564
 31
0.0
  0
LINE
  5
1C3C
330
1ADF
100
AcDbEntity
  8
1
  6
Continuous
100
AcDbLine
 10
208.5325109999998
 20
291.4025639999999
 30
0.0
 11
207.032511
 21
291.4025639999999
 31
0.0
  0
LINE
  5
1C3D
330
1ADF
100
AcDbEntity
  8
1
  6
Continuous
100
AcDbLine
 10
208.5325109999998
 20
286.9025639999999
 30
0.0
 11
207.032511
 21
286.9025639999999
 31
0.0
  0
LINE
  5
1C3E
330
1ADF
100
AcDbEntity
  8
1
  6
Continuous
100
AcDbLine
 10
208.5325109999998
 20
291.4025639999999
 30
0.0
 11
208.5325109999998
 21
286.9025639999999
 31
0.0
  0
ARC
  5
1C3F
330
1ADF
100
AcDbEntity
  8
1
  6
Continuous
100
AcDbCircle
 10
204.5325109999998
 20
293.902564
 30
0.0
 40
2.0
100
AcDbArc
 50
90.0
 51
137.644685
  0
LINE
  5
1C40
330
1ADF
100
AcDbEntity
  8
1
  6
Continuous
100
AcDbLine
 10
207.032511
 20
295.9025639999999
 30
0.0
 11
206.0325109999999
 21
295.9025639999999
 31
0.0
  0
LINE
  5
1C41
330
1ADF
100
AcDbEntity
  8
1
  6
Continuous
100
AcDbLine
 10
204.5325109999998
 20
295.9025639999999
 30
0.0
 11
206.0325109999999
 21
295.9025639999999
 31
0.0
  0
ARC
  5
1C42
330
1ADF
100
AcDbEntity
  8
1
  6
Continuous
100
AcDbCircle
 10
204.5325109999998
 20
293.902564
 30
0.0
 40
2.0
100
AcDbArc
 50
137.644685
 51
180.0
  0
LINE
  5
1C43
330
1ADF
100
AcDbEntity
  8
1
  6
Continuous
100
AcDbLine
 10
204.5325109999998
 20
390.9699709999999
 30
0.0
 11
206.0325109999999
 21
390.9699709999999
 31
0.0
  0
LINE
  5
1C44
330
1ADF
100
AcDbEntity
  8
1
  6
Continuous
100
AcDbLine
 10
207.032511
 20
390.9699709999999
 30
0.0
 11
206.0325109999999
 21
390.9699709999999
 31
0.0
  0
ARC
  5
1C45
330
1ADF
100
AcDbEntity
  8
1
  6
Continuous
100
AcDbCircle
 10
204.5325109999998
 20
392.9699709999999
 30
0.0
 40
2.0
100
AcDbArc
 50
180.0
 51
222.3553149999999
  0
ARC
  5
1C46
330
1ADF
100
AcDbEntity
  8
1
  6
Continuous
100
AcDbCircle
 10
204.5325109999998
 20
392.9699709999999
 30
0.0
 40
2.0
100
AcDbArc
 50
222.3553149999999
 51
270.0
  0
LINE
  5
1C47
330
1ADF
100
AcDbEntity
  8
1
  6
Continuous
100
AcDbLine
 10
194.7120189999999
 20
427.469971
 30
0.0
 11
202.5325109999998
 21
430.969971
 31
0.0
  0
LINE
  5
1C48
330
1ADF
100
AcDbEntity
  8
1
  6
Continuous
100
AcDbLine
 10
194.7120189999999
 20
402.469971
 30
0.0
 11
202.5325109999998
 21
398.969971
 31
0.0
  0
LINE
  5
1C49
330
1ADF
100
AcDbEntity
  8
4
  6
CENTER
100
AcDbLine
 10
239.2186849999999
 20
414.969971
 30
0.0
 11
156.932511
 21
414.969971
 31
0.0
  0
LINE
  5
1C4A
330
1ADF
100
AcDbEntity
  8
1
  6
Continuous
100
AcDbLine
 10
194.7120189999999
 20
427.469971
 30
0.0
 11
165.164125
 21
427.469971
 31
0.0
  0
LINE
  5
1C4B
330
1ADF
100
AcDbEntity
  8
1
  6
Continuous
100
AcDbLine
 10
194.7120189999999
 20
402.469971
 30
0.0
 11
165.164125
 21
402.469971
 31
0.0
  0
ARC
  5
1C4C
330
1ADF
100
AcDbEntity
  8
1
  6
Continuous
100
AcDbCircle
 10
223.0325109999999
 20
414.969971
 30
0.0
 40
60.5
100
AcDbArc
 50
169.764998
 51
190.2350019999999
  0
ARC
  5
1C4D
330
1ADF
100
AcDbEntity
  8
1
  6
Continuous
100
AcDbCircle
 10
223.0325109999999
 20
414.969971
 30
0.0
 40
61.0
100
AcDbArc
 50
172.4640909999999
 51
187.535909
  0
ARC
  5
1C4E
330
1ADF
100
AcDbEntity
  8
1
  6
Continuous
100
AcDbCircle
 10
223.0325109999999
 20
414.969971
 30
0.0
 40
60.0
100
AcDbArc
 50
190.321224
 51
191.2397729999999
  0
ARC
  5
1C4F
330
1ADF
100
AcDbEntity
  8
1
  6
Continuous
100
AcDbCircle
 10
165.164125
 20
403.4699709999999
 30
0.0
 40
1.0
100
AcDbArc
 50
191.2397729999999
 51
270.0
  0
LINE
  5
1C50
330
1ADF
100
AcDbEntity
  8
1
  6
Continuous
100
AcDbLine
 10
164.003386
 20
404.219971
 30
0.0
 11
163.495232
 21
404.219971
 31
0.0
  0
LINE
  5
1C51
330
1ADF
100
AcDbEntity
  8
1
  6
Continuous
100
AcDbLine
 10
163.063769
 20
406.969971
 30
0.0
 11
162.5593759999999
 21
406.969971
 31
0.0
  0
ARC
  5
1C52
330
1ADF
100
AcDbEntity
  8
1
  6
Continuous
100
AcDbCircle
 10
223.0325109999999
 20
414.969971
 30
0.0
 40
60.0
100
AcDbArc
 50
168.760227
 51
169.678776
  0
LINE
  5
1C53
330
1ADF
100
AcDbEntity
  8
1
  6
Continuous
100
AcDbLine
 10
164.003386
 20
425.719971
 30
0.0
 11
163.495232
 21
425.719971
 31
0.0
  0
LINE
  5
1C54
330
1ADF
100
AcDbEntity
  8
1
  6
Continuous
100
AcDbLine
 10
163.063769
 20
422.969971
 30
0.0
 11
162.5593759999999
 21
422.969971
 31
0.0
  0
ARC
  5
1C55
330
1ADF
100
AcDbEntity
  8
1
  6
Continuous
100
AcDbCircle
 10
165.164125
 20
426.469971
 30
0.0
 40
1.0
100
AcDbArc
 50
90.0
 51
168.760227
  0
LINE
  5
1C56
330
1ADF
100
AcDbEntity
  8
1
  6
Continuous
100
AcDbLine
 10
194.7120189999999
 20
402.469971
 30
0.0
 11
194.7120189999999
 21
427.469971
 31
0.0
  0
LINE
  5
1C57
330
1ADF
100
AcDbEntity
  8
1
  6
Continuous
100
AcDbLine
 10
194.5325109999997
 20
402.469971
 30
0.0
 11
194.5325109999997
 21
427.469971
 31
0.0
  0
ARC
  5
1C58
330
1ADF
100
AcDbEntity
  8
1
  6
Continuous
100
AcDbCircle
 10
211.7366339999999
 20
414.969971
 30
0.0
 40
9.395877
100
AcDbArc
 50
327.177679
 51
32.822321
  0
LINE
  5
1C59
330
1ADF
100
AcDbEntity
  8
1
  6
Continuous
100
AcDbLine
 10
221.132511
 20
424.9699709999998
 30
0.0
 11
221.132511
 21
404.9699709999998
 31
0.0
  0
LINE
  5
1C5A
330
1ADF
100
AcDbEntity
  8
1
  6
Continuous
100
AcDbLine
 10
208.5325109999998
 20
412.719971
 30
0.0
 11
208.5325109999998
 21
417.219971
 31
0.0
  0
LINE
  5
1C5B
330
1ADF
100
AcDbEntity
  8
2
  6
Continuous
100
AcDbLine
 10
207.032511
 20
420.062871
 30
0.0
 11
219.632511
 21
409.877071
 31
0.0
  0
LINE
  5
1C5C
330
1ADF
100
AcDbEntity
  8
2
  6
Continuous
100
AcDbLine
 10
219.632511
 20
420.062871
 30
0.0
 11
207.032511
 21
409.877071
 31
0.0
  0
LINE
  5
1C5D
330
1ADF
100
AcDbEntity
  8
1
  6
Continuous
100
AcDbLine
 10
219.632511
 20
403.9699709999998
 30
0.0
 11
208.0325109999999
 21
403.9699709999998
 31
0.0
  0
LINE
  5
1C5E
330
1ADF
100
AcDbEntity
  8
2
  6
Continuous
100
AcDbLine
 10
220.4445109999999
 20
404.7819709999997
 30
0.0
 11
208.9325109999998
 21
404.7819709999997
 31
0.0
  0
LINE
  5
1C5F
330
1ADF
100
AcDbEntity
  8
1
  6
Continuous
100
AcDbLine
 10
219.632511
 20
409.877071
 30
0.0
 11
207.032511
 21
409.877071
 31
0.0
  0
LINE
  5
1C60
330
1ADF
100
AcDbEntity
  8
2
  6
Continuous
100
AcDbLine
 10
207.5260849999998
 20
403.9699709999998
 30
0.0
 11
208.9325109999998
 21
404.7819709999997
 31
0.0
  0
LINE
  5
1C61
330
1ADF
100
AcDbEntity
  8
1
  6
Continuous
100
AcDbLine
 10
208.9325109999998
 20
409.877071
 30
0.0
 11
208.9325109999998
 21
403.9699709999998
 31
0.0
  0
ARC
  5
1C62
330
1ADF
100
AcDbEntity
  8
1
  6
Continuous
100
AcDbCircle
 10
208.0325109999999
 20
402.969971
 30
0.0
 40
1.0
100
AcDbArc
 50
90.0
 51
180.0
  0
LINE
  5
1C63
330
1ADF
100
AcDbEntity
  8
1
  6
Continuous
100
AcDbLine
 10
208.5325109999998
 20
412.719971
 30
0.0
 11
207.032511
 21
412.719971
 31
0.0
  0
LINE
  5
1C64
330
1ADF
100
AcDbEntity
  8
1
  6
Continuous
100
AcDbLine
 10
219.632511
 20
403.9699709999998
 30
0.0
 11
221.132511
 21
405.4699709999998
 31
0.0
  0
LINE
  5
1C65
330
1ADF
100
AcDbEntity
  8
1
  6
Continuous
100
AcDbLine
 10
219.632511
 20
409.877071
 30
0.0
 11
219.632511
 21
403.9699709999998
 31
0.0
  0
LINE
  5
1C66
330
1ADF
100
AcDbEntity
  8
1
  6
Continuous
100
AcDbLine
 10
219.632511
 20
425.9699709999998
 30
0.0
 11
208.0325109999999
 21
425.9699709999998
 31
0.0
  0
LINE
  5
1C67
330
1ADF
100
AcDbEntity
  8
2
  6
Continuous
100
AcDbLine
 10
220.4445109999999
 20
425.1579709999998
 30
0.0
 11
208.9325109999998
 21
425.1579709999998
 31
0.0
  0
LINE
  5
1C68
330
1ADF
100
AcDbEntity
  8
1
  6
Continuous
100
AcDbLine
 10
219.632511
 20
420.062871
 30
0.0
 11
207.032511
 21
420.062871
 31
0.0
  0
LINE
  5
1C69
330
1ADF
100
AcDbEntity
  8
1
  6
Continuous
100
AcDbLine
 10
208.9325109999998
 20
425.9699709999998
 30
0.0
 11
208.9325109999998
 21
420.062871
 31
0.0
  0
LINE
  5
1C6A
330
1ADF
100
AcDbEntity
  8
2
  6
Continuous
100
AcDbLine
 10
207.5260849999998
 20
425.9699709999998
 30
0.0
 11
208.9325109999998
 21
425.1579709999998
 31
0.0
  0
ARC
  5
1C6B
330
1ADF
100
AcDbEntity
  8
1
  6
Continuous
100
AcDbCircle
 10
208.0325109999999
 20
426.969971
 30
0.0
 40
1.0
100
AcDbArc
 50
180.0
 51
270.0
  0
LINE
  5
1C6C
330
1ADF
100
AcDbEntity
  8
1
  6
Continuous
100
AcDbLine
 10
208.5325109999998
 20
417.219971
 30
0.0
 11
207.032511
 21
417.219971
 31
0.0
  0
LINE
  5
1C6D
330
1ADF
100
AcDbEntity
  8
1
  6
Continuous
100
AcDbLine
 10
219.632511
 20
425.9699709999998
 30
0.0
 11
221.132511
 21
424.4699709999999
 31
0.0
  0
LINE
  5
1C6E
330
1ADF
100
AcDbEntity
  8
1
  6
Continuous
100
AcDbLine
 10
219.632511
 20
425.9699709999998
 30
0.0
 11
219.632511
 21
420.062871
 31
0.0
  0
LINE
  5
1C6F
330
1ADF
100
AcDbEntity
  8
1
  6
Continuous
100
AcDbLine
 10
278.3094839999999
 20
428.9699709999998
 30
0.0
 11
278.3094839999999
 21
400.9699709999998
 31
0.0
  0
LINE
  5
1C70
330
1ADF
100
AcDbEntity
  8
1
  6
Continuous
100
AcDbLine
 10
204.5325109999998
 20
438.969971
 30
0.0
 11
206.0325109999999
 21
438.969971
 31
0.0
  0
LINE
  5
1C71
330
1ADF
100
AcDbEntity
  8
1
  6
Continuous
100
AcDbLine
 10
207.032511
 20
438.969971
 30
0.0
 11
206.0325109999999
 21
438.969971
 31
0.0
  0
ARC
  5
1C72
330
1ADF
100
AcDbEntity
  8
1
  6
Continuous
100
AcDbCircle
 10
204.5325109999998
 20
436.9699709999999
 30
0.0
 40
2.0
100
AcDbArc
 50
90.0
 51
137.644685
  0
ARC
  5
1C73
330
1ADF
100
AcDbEntity
  8
1
  6
Continuous
100
AcDbCircle
 10
204.5325109999998
 20
436.9699709999999
 30
0.0
 40
2.0
100
AcDbArc
 50
137.644685
 51
180.0
  0
LINE
  5
1C74
330
1ADF
100
AcDbEntity
  8
1
  6
Continuous
100
AcDbLine
 10
281.1492299999999
 20
289.223072
 30
0.0
 11
279.809484
 21
286.9025639999999
 31
0.0
  0
LINE
  5
1C75
330
1ADF
100
AcDbEntity
  8
1
  6
Continuous
100
AcDbLine
 10
282.469739
 20
289.223072
 30
0.0
 11
283.809485
 21
286.9025639999999
 31
0.0
  0
LINE
  5
1C76
330
1ADF
100
AcDbEntity
  8
1
  6
Continuous
100
AcDbLine
 10
283.809484
 20
285.902564
 30
0.0
 11
285.309484
 21
285.902564
 31
0.0
  0
LINE
  5
1C77
330
1ADF
100
AcDbEntity
  8
1
  6
Continuous
100
AcDbLine
 10
285.309484
 20
285.902564
 30
0.0
 11
283.809484
 21
285.902564
 31
0.0
  0
LINE
  5
1C78
330
1ADF
100
AcDbEntity
  8
1
  6
Continuous
100
AcDbLine
 10
282.469739
 20
289.223072
 30
0.0
 11
281.1492299999999
 21
289.223072
 31
0.0
  0
ARC
  5
1C79
330
1ADF
100
AcDbEntity
  8
1
  6
Continuous
100
AcDbCircle
 10
251.7538169999999
 20
422.469971
 30
0.0
 40
32.055667
100
AcDbArc
 50
346.469203
 51
13.530797
  0
ARC
  5
1C7A
330
1ADF
100
AcDbEntity
  8
1
  6
Continuous
100
AcDbCircle
 10
311.865152
 20
422.469971
 30
0.0
 40
32.055667
100
AcDbArc
 50
166.4692029999999
 51
193.530797
  0
LINE
  5
1C7B
330
1ADF
100
AcDbEntity
  8
1
  6
Continuous
100
AcDbLine
 10
285.309484
 20
400.9699709999998
 30
0.0
 11
285.309484
 21
428.9699709999998
 31
0.0
  0
LINE
  5
1C7C
330
1ADF
100
AcDbEntity
  8
1
  6
Continuous
100
AcDbLine
 10
283.809484
 20
399.9699709999999
 30
0.0
 11
283.809484
 21
429.9699709999998
 31
0.0
  0
LINE
  5
1C7D
330
1ADF
100
AcDbEntity
  8
1
  6
Continuous
100
AcDbLine
 10
279.809484
 20
399.9699709999999
 30
0.0
 11
279.809484
 21
429.9699709999998
 31
0.0
  0
ARC
  5
1C7E
330
1ADF
100
AcDbEntity
  8
1
  6
Continuous
100
AcDbCircle
 10
251.7538169999999
 20
407.4699709999999
 30
0.0
 40
32.055667
100
AcDbArc
 50
346.469203
 51
13.530797
  0
ARC
  5
1C7F
330
1ADF
100
AcDbEntity
  8
1
  6
Continuous
100
AcDbCircle
 10
311.865152
 20
407.4699709999999
 30
0.0
 40
32.055667
100
AcDbArc
 50
166.4692029999999
 51
193.530797
  0
LINE
  5
1C80
330
1ADF
100
AcDbEntity
  8
1
  6
Continuous
100
AcDbLine
 10
285.309484
 20
402.0116409999998
 30
0.0
 11
283.809484
 21
402.0116409999998
 31
0.0
  0
LINE
  5
1C81
330
1ADF
100
AcDbEntity
  8
1
  6
Continuous
100
AcDbLine
 10
285.309484
 20
403.620977
 30
0.0
 11
283.809484
 21
403.620977
 31
0.0
  0
LINE
  5
1C82
330
1ADF
100
AcDbEntity
  8
1
  6
Continuous
100
AcDbLine
 10
283.809484
 20
400.9699709999998
 30
0.0
 11
285.309484
 21
400.9699709999998
 31
0.0
  0
LINE
  5
1C83
330
1ADF
100
AcDbEntity
  8
1
  6
Continuous
100
AcDbLine
 10
283.809484
 20
399.9699709999999
 30
0.0
 11
279.809484
 21
399.9699709999999
 31
0.0
  0
LINE
  5
1C84
330
1ADF
100
AcDbEntity
  8
1
  6
Continuous
100
AcDbLine
 10
280.6992119999998
 20
414.969971
 30
0.0
 11
282.919756
 21
414.969971
 31
0.0
  0
LINE
  5
1C85
330
1ADF
100
AcDbEntity
  8
1
  6
Continuous
100
AcDbLine
 10
285.309484
 20
426.318966
 30
0.0
 11
283.809484
 21
426.318966
 31
0.0
  0
LINE
  5
1C86
330
1ADF
100
AcDbEntity
  8
1
  6
Continuous
100
AcDbLine
 10
285.309484
 20
427.9283009999998
 30
0.0
 11
283.809484
 21
427.9283009999998
 31
0.0
  0
LINE
  5
1C87
330
1ADF
100
AcDbEntity
  8
1
  6
Continuous
100
AcDbLine
 10
283.809484
 20
428.9699709999998
 30
0.0
 11
285.309484
 21
428.9699709999998
 31
0.0
  0
LINE
  5
1C88
330
1ADF
100
AcDbEntity
  8
1
  6
Continuous
100
AcDbLine
 10
283.809484
 20
429.9699709999998
 30
0.0
 11
279.809484
 21
429.9699709999998
 31
0.0
  0
LINE
  5
1C89
330
1ADF
100
AcDbEntity
  8
1
  6
Continuous
100
AcDbLine
 10
231.632511
 20
416.269971
 30
0.0
 11
230.3325109999999
 21
414.969971
 31
0.0
  0
LINE
  5
1C8A
330
1ADF
100
AcDbEntity
  8
1
  6
Continuous
100
AcDbLine
 10
231.632511
 20
410.3699709999999
 30
0.0
 11
231.632511
 21
419.569971
 31
0.0
  0
ARC
  5
1C8B
330
1ADF
100
AcDbEntity
  8
1
  6
Continuous
100
AcDbCircle
 10
229.3575339999999
 20
416.9699709999998
 30
0.0
 40
5.774976999999998
100
AcDbArc
 50
339.7375
 51
20.2625
  0
ARC
  5
1C8C
330
1ADF
100
AcDbEntity
  8
1
  6
Continuous
100
AcDbCircle
 10
237.407488
 20
416.9699709999998
 30
0.0
 40
5.774976999999998
100
AcDbArc
 50
159.7375
 51
200.2625
  0
LINE
  5
1C8D
330
1ADF
100
AcDbEntity
  8
1
  6
Continuous
100
AcDbLine
 10
235.1325109999999
 20
418.969971
 30
0.0
 11
235.1325109999999
 21
410.969971
 31
0.0
  0
LINE
  5
1C8E
330
1ADF
100
AcDbEntity
  8
1
  6
Continuous
100
AcDbLine
 10
230.3325109999999
 20
422.969971
 30
0.0
 11
230.3325109999999
 21
406.969971
 31
0.0
  0
LINE
  5
1C8F
330
1ADF
100
AcDbEntity
  8
1
  6
Continuous
100
AcDbLine
 10
231.632511
 20
414.969971
 30
0.0
 11
230.3325109999999
 21
413.669971
 31
0.0
  0
LINE
  5
1C90
330
1ADF
100
AcDbEntity
  8
1
  6
Continuous
100
AcDbLine
 10
231.632511
 20
410.3699709999999
 30
0.0
 11
230.3325109999999
 21
410.3699709999999
 31
0.0
  0
LINE
  5
1C91
330
1ADF
100
AcDbEntity
  8
1
  6
Continuous
100
AcDbLine
 10
231.989891
 20
414.969971
 30
0.0
 11
234.775131
 21
414.969971
 31
0.0
  0
LINE
  5
1C92
330
1ADF
100
AcDbEntity
  8
1
  6
Continuous
100
AcDbLine
 10
235.1325109999999
 20
410.969971
 30
0.0
 11
231.632511
 21
410.969971
 31
0.0
  0
ARC
  5
1C93
330
1ADF
100
AcDbEntity
  8
1
  6
Continuous
100
AcDbCircle
 10
237.407488
 20
412.9699709999998
 30
0.0
 40
5.774976999999998
100
AcDbArc
 50
159.7375
 51
200.2625
  0
ARC
  5
1C94
330
1ADF
100
AcDbEntity
  8
1
  6
Continuous
100
AcDbCircle
 10
229.3575339999999
 20
412.9699709999998
 30
0.0
 40
5.774976999999998
100
AcDbArc
 50
339.7375
 51
20.2625
  0
LINE
  5
1C95
330
1ADF
100
AcDbEntity
  8
1
  6
Continuous
100
AcDbLine
 10
230.3325109999999
 20
406.969971
 30
0.0
 11
229.1325109999999
 21
406.969971
 31
0.0
  0
LINE
  5
1C96
330
1ADF
100
AcDbEntity
  8
1
  6
Continuous
100
AcDbLine
 10
231.632511
 20
419.569971
 30
0.0
 11
230.3325109999999
 21
419.569971
 31
0.0
  0
LINE
  5
1C97
330
1ADF
100
AcDbEntity
  8
1
  6
Continuous
100
AcDbLine
 10
230.3325109999999
 20
422.969971
 30
0.0
 11
229.1325109999999
 21
422.969971
 31
0.0
  0
LINE
  5
1C98
330
1ADF
100
AcDbEntity
  8
1
  6
Continuous
100
AcDbLine
 10
235.1325109999999
 20
418.969971
 30
0.0
 11
231.632511
 21
418.969971
 31
0.0
  0
LINE
  5
1C99
330
1ADF
100
AcDbEntity
  8
1
  6
Continuous
100
AcDbLine
 10
399.4054709999998
 20
289.223072
 30
0.0
 11
414.4054709999998
 21
280.5628179999999
 31
0.0
  0
ARC
  5
1C9A
330
1ADF
100
AcDbEntity
  8
1
  6
Continuous
100
AcDbCircle
 10
399.4054709999998
 20
271.9025639999999
 30
0.0
 40
14.0
100
AcDbArc
 50
35.84125199999999
 51
144.158748
  0
ARC
  5
1C9B
330
1ADF
100
AcDbEntity
  8
1
  6
Continuous
100
AcDbCircle
 10
399.4054709999998
 20
271.9025639999999
 30
0.0
 40
11.5
100
AcDbArc
 50
20.354406
 51
167.4441419999999
  0
LINE
  5
1C9C
330
1ADF
100
AcDbEntity
  8
1
  6
Continuous
100
AcDbLine
 10
399.4054709999998
 20
289.223072
 30
0.0
 11
384.4054709999999
 21
280.5628179999999
 31
0.0
  0
CIRCLE
  5
1C9D
330
1ADF
100
AcDbEntity
  8
1
  6
Continuous
100
AcDbCircle
 10
399.4054709999998
 20
271.9025639999999
 30
0.0
 40
24.0
  0
ARC
  5
1C9E
330
1ADF
100
AcDbEntity
  8
2
  6
Continuous
100
AcDbCircle
 10
399.4054709999998
 20
271.9025639999999
 30
0.0
 40
10.18799999999999
100
AcDbArc
 50
106.8615909999999
 51
253.1384089999999
  0
ARC
  5
1C9F
330
1ADF
100
AcDbEntity
  8
1
  6
Continuous
100
AcDbCircle
 10
399.4054709999998
 20
271.9025639999999
 30
0.0
 40
11.0
100
AcDbArc
 50
117.5801989999998
 51
242.419801
  0
ARC
  5
1CA0
330
1ADF
100
AcDbEntity
  8
2
  6
Continuous
100
AcDbCircle
 10
399.4054709999998
 20
271.9025639999999
 30
0.0
 40
10.18799999999999
100
AcDbArc
 50
286.8615909999999
 51
73.13840899999998
  0
ARC
  5
1CA1
330
1ADF
100
AcDbEntity
  8
1
  6
Continuous
100
AcDbCircle
 10
399.4054709999998
 20
271.9025639999999
 30
0.0
 40
11.0
100
AcDbArc
 50
297.5801989999999
 51
62.419801
  0
CIRCLE
  5
1CA2
330
1ADF
100
AcDbEntity
  8
1
  6
Continuous
100
AcDbCircle
 10
399.4054709999998
 20
271.9025639999999
 30
0.0
 40
15.0
  0
LINE
  5
1CA3
330
1ADF
100
AcDbEntity
  8
4
  6
CENTER
100
AcDbLine
 10
399.4054709999998
 20
300.9025639999999
 30
0.0
 11
399.4054709999998
 21
166.2165589999998
 31
0.0
  0
LINE
  5
1CA4
330
1ADF
100
AcDbEntity
  8
1
  6
Continuous
100
AcDbLine
 10
408.9846239999998
 20
242.0162369999999
 30
0.0
 11
405.5495969999998
 21
189.482087
 31
0.0
  0
LINE
  5
1CA5
330
1ADF
100
AcDbEntity
  8
1
  6
Continuous
100
AcDbLine
 10
389.826318
 20
242.0162369999999
 30
0.0
 11
393.261345
 21
189.482087
 31
0.0
  0
LINE
  5
1CA6
330
1ADF
100
AcDbEntity
  8
1
  6
Continuous
100
AcDbLine
 10
387.3316449999999
 20
241.8531189999999
 30
0.0
 11
391.7367669999999
 21
174.4826669999999
 31
0.0
  0
LINE
  5
1CA7
330
1ADF
100
AcDbEntity
  8
1
  6
Continuous
100
AcDbLine
 10
411.4792969999998
 20
241.8531189999999
 30
0.0
 11
407.074175
 21
174.4826669999999
 31
0.0
  0
LINE
  5
1CA8
330
1ADF
100
AcDbEntity
  8
1
  6
Continuous
100
AcDbLine
 10
395.7560179999999
 20
187.145205
 30
0.0
 11
403.054924
 21
187.145205
 31
0.0
  0
ARC
  5
1CA9
330
1ADF
100
AcDbEntity
  8
1
  6
Continuous
100
AcDbCircle
 10
399.4054709999998
 20
196.9025639999999
 30
0.0
 40
25.0
100
AcDbArc
 50
255.720595
 51
284.279405
  0
ARC
  5
1CAA
330
1ADF
100
AcDbEntity
  8
1
  6
Continuous
100
AcDbCircle
 10
399.4054709999998
 20
186.9025639999999
 30
0.0
 40
8.0
100
AcDbArc
 50
226.051292
 51
313.948708
  0
ARC
  5
1CAB
330
1ADF
100
AcDbEntity
  8
1
  6
Continuous
100
AcDbCircle
 10
393.732505
 20
174.6131619999999
 30
0.0
 40
2.0
100
AcDbArc
 50
183.741048
 51
255.720595
  0
ARC
  5
1CAC
330
1ADF
100
AcDbEntity
  8
1
  6
Continuous
100
AcDbCircle
 10
395.7560179999999
 20
189.645205
 30
0.0
 40
2.5
100
AcDbArc
 50
183.741048
 51
270.0
  0
ARC
  5
1CAD
330
1ADF
100
AcDbEntity
  8
1
  6
Continuous
100
AcDbCircle
 10
405.0784359999997
 20
174.6131619999999
 30
0.0
 40
2.0
100
AcDbArc
 50
284.279405
 51
356.258952
  0
ARC
  5
1CAE
330
1ADF
100
AcDbEntity
  8
1
  6
Continuous
100
AcDbCircle
 10
403.054924
 20
189.645205
 30
0.0
 40
2.5
100
AcDbArc
 50
270.0
 51
356.258952
  0
LINE
  5
1CAF
330
1ADF
100
AcDbEntity
  8
1
  6
Continuous
100
AcDbLine
 10
399.4054709999998
 20
276.521564
 30
0.0
 11
395.4054709999999
 21
274.211564
 31
0.0
  0
LINE
  5
1CB0
330
1ADF
100
AcDbEntity
  8
1
  6
Continuous
100
AcDbLine
 10
395.4054709999999
 20
269.592564
 30
0.0
 11
399.4054709999998
 21
267.283564
 31
0.0
  0
ARC
  5
1CB1
330
1ADF
100
AcDbEntity
  8
1
  6
Continuous
100
AcDbCircle
 10
399.4054709999998
 20
271.9025639999999
 30
0.0
 40
14.0
100
AcDbArc
 50
215.841252
 51
324.158748
  0
ARC
  5
1CB2
330
1ADF
100
AcDbEntity
  8
1
  6
Continuous
100
AcDbCircle
 10
399.4054709999998
 20
255.902564
 30
0.0
 40
3.5
100
AcDbArc
 50
170.4059319999998
 51
9.594068
  0
LINE
  5
1CB3
330
1ADF
100
AcDbEntity
  8
1
  6
Continuous
100
AcDbLine
 10
404.498358
 20
262.1525639999999
 30
0.0
 11
394.3125829999997
 21
262.1525639999999
 31
0.0
  0
ARC
  5
1CB4
330
1ADF
100
AcDbEntity
  8
2
  6
Continuous
100
AcDbCircle
 10
399.4054709999998
 20
271.9025639999999
 30
0.0
 40
11.0
100
AcDbArc
 50
242.419801
 51
297.5801989999999
  0
ARC
  5
1CB5
330
1ADF
100
AcDbEntity
  8
1
  6
Continuous
100
AcDbCircle
 10
399.4054709999998
 20
255.902564
 30
0.0
 40
3.7
100
AcDbArc
 50
180.0
 51
0.0
  0
LINE
  5
1CB6
330
1ADF
100
AcDbEntity
  8
4
  6
CENTER
100
AcDbLine
 10
404.901492
 20
255.902564
 30
0.0
 11
394.4054709999999
 21
255.902564
 31
0.0
  0
ARC
  5
1CB7
330
1ADF
100
AcDbEntity
  8
1
  6
Continuous
100
AcDbCircle
 10
399.4054709999998
 20
271.9025639999999
 30
0.0
 40
11.5
100
AcDbArc
 50
192.555858
 51
339.645594
  0
ARC
  5
1CB8
330
1ADF
100
AcDbEntity
  8
1
  6
Continuous
100
AcDbCircle
 10
396.4414779999998
 20
210.262564
 30
0.0
 40
0.6400000000000004
100
AcDbArc
 50
222.7718659999999
 51
90.0
  0
LINE
  5
1CB9
330
1ADF
100
AcDbEntity
  8
1
  6
Continuous
100
AcDbLine
 10
392.1222799999999
 20
206.9025639999999
 30
0.0
 11
406.688662
 21
206.9025639999999
 31
0.0
  0
LINE
  5
1CBA
330
1ADF
100
AcDbEntity
  8
1
  6
Continuous
100
AcDbLine
 10
392.5145989999998
 20
200.9025639999999
 30
0.0
 11
406.2963419999999
 21
200.9025639999999
 31
0.0
  0
LINE
  5
1CBB
330
1ADF
100
AcDbEntity
  8
1
  6
Continuous
100
AcDbLine
 10
384.4054709999999
 20
263.24231
 30
0.0
 11
399.4054709999998
 21
254.582056
 31
0.0
  0
LINE
  5
1CBC
330
1ADF
100
AcDbEntity
  8
4
  6
CENTER
100
AcDbLine
 10
428.4054709999998
 20
271.9025639999999
 30
0.0
 11
370.4054709999998
 21
271.9025639999999
 31
0.0
  0
CIRCLE
  5
1CBD
330
1ADF
100
AcDbEntity
  8
1
  6
Continuous
100
AcDbCircle
 10
399.4054709999998
 20
271.9025639999999
 30
0.0
 40
8.0
  0
CIRCLE
  5
1CBE
330
1ADF
100
AcDbEntity
  8
1
  6
Continuous
100
AcDbCircle
 10
399.4054709999998
 20
271.9025639999999
 30
0.0
 40
9.0
  0
CIRCLE
  5
1CBF
330
1ADF
100
AcDbEntity
  8
1
  6
Continuous
100
AcDbCircle
 10
399.4054709999998
 20
271.9025639999999
 30
0.0
 40
4.0
  0
ARC
  5
1CC0
330
1ADF
100
AcDbEntity
  8
1
  6
Continuous
100
AcDbCircle
 10
586.905471
 20
254.9025639999999
 30
0.0
 40
197.5
100
AcDbArc
 50
181.405574
 51
183.741048
  0
ARC
  5
1CC1
330
1ADF
100
AcDbEntity
  8
1
  6
Continuous
100
AcDbCircle
 10
586.905471
 20
254.9025639999999
 30
0.0
 40
200.0
100
AcDbArc
 50
181.0045969999999
 51
183.741048
  0
ARC
  5
1CC2
330
1ADF
100
AcDbEntity
  8
1
  6
Continuous
100
AcDbCircle
 10
399.4054709999998
 20
271.9025639999999
 30
0.0
 40
16.12829999999998
100
AcDbArc
 50
256.737637
 51
257.4665319999999
  0
LINE
  5
1CC3
330
1ADF
100
AcDbEntity
  8
1
  6
Continuous
100
AcDbLine
 10
395.9054709999999
 20
254.702564
 30
0.0
 11
395.9054709999999
 21
256.6027819999998
 31
0.0
  0
LINE
  5
1CC4
330
1ADF
100
AcDbEntity
  8
1
  6
Continuous
100
AcDbLine
 10
395.7054709999999
 20
255.902564
 30
0.0
 11
395.7054709999999
 21
256.718252
 31
0.0
  0
ARC
  5
1CC5
330
1ADF
100
AcDbEntity
  8
1
  6
Continuous
100
AcDbCircle
 10
399.4054709999998
 20
271.9025639999999
 30
0.0
 40
14.0
100
AcDbArc
 50
155.841252
 51
204.158748
  0
LINE
  5
1CC6
330
1ADF
100
AcDbEntity
  8
1
  6
Continuous
100
AcDbLine
 10
384.4054709999999
 20
263.24231
 30
0.0
 11
384.4054709999999
 21
280.5628179999999
 31
0.0
  0
ARC
  5
1CC7
330
1ADF
100
AcDbEntity
  8
1
  6
Continuous
100
AcDbCircle
 10
399.4054709999998
 20
271.9025639999999
 30
0.0
 40
11.3
100
AcDbArc
 50
167.218188
 51
192.7818119999997
  0
ARC
  5
1CC8
330
1ADF
100
AcDbEntity
  8
1
  6
Continuous
100
AcDbCircle
 10
399.4054709999998
 20
271.9025639999999
 30
0.0
 40
13.0
100
AcDbArc
 50
168.9125109999999
 51
191.087489
  0
LINE
  5
1CC9
330
1ADF
100
AcDbEntity
  8
1
  6
Continuous
100
AcDbLine
 10
395.4054709999999
 20
269.592564
 30
0.0
 11
395.4054709999999
 21
274.211564
 31
0.0
  0
LINE
  5
1CCA
330
1ADF
100
AcDbEntity
  8
1
  6
Continuous
100
AcDbLine
 10
386.6481199999999
 20
269.4025639999999
 30
0.0
 11
388.385489
 21
269.4025639999999
 31
0.0
  0
ARC
  5
1CCB
330
1ADF
100
AcDbEntity
  8
1
  6
Continuous
100
AcDbCircle
 10
388.1471409999999
 20
265.4025639999999
 30
0.0
 40
1.7
100
AcDbArc
 50
153.057137
 51
266.942863
  0
LINE
  5
1CCC
330
1ADF
100
AcDbEntity
  8
1
  6
Continuous
100
AcDbLine
 10
386.6481199999999
 20
274.4025639999999
 30
0.0
 11
388.385489
 21
274.4025639999999
 31
0.0
  0
ARC
  5
1CCD
330
1ADF
100
AcDbEntity
  8
1
  6
Continuous
100
AcDbCircle
 10
388.1471409999999
 20
278.4025639999999
 30
0.0
 40
1.7
100
AcDbArc
 50
93.057137
 51
206.9428629999999
  0
ARC
  5
1CCE
330
1ADF
100
AcDbEntity
  8
1
  6
Continuous
100
AcDbCircle
 10
397.171359
 20
237.7947419999999
 30
0.0
 40
5.732929999999998
100
AcDbArc
 50
324.4619999999998
 51
35.5377
  0
ARC
  5
1CCF
330
1ADF
100
AcDbEntity
  8
1
  6
Continuous
100
AcDbCircle
 10
404.637205
 20
237.7947419999999
 30
0.0
 40
5.732929999999998
100
AcDbArc
 50
144.462
 51
215.5379999999999
  0
ARC
  5
1CD0
330
1ADF
100
AcDbEntity
  8
1
  6
Continuous
100
AcDbCircle
 10
402.518331
 20
210.262564
 30
0.0
 40
0.6400000000000004
100
AcDbArc
 50
222.7718659999999
 51
90.0
  0
LINE
  5
1CD1
330
1ADF
100
AcDbEntity
  8
1
  6
Continuous
100
AcDbLine
 10
402.0485299999998
 20
210.902564
 30
0.0
 11
402.518331
 21
210.902564
 31
0.0
  0
LINE
  5
1CD2
330
1ADF
100
AcDbEntity
  8
1
  6
Continuous
100
AcDbLine
 10
402.0485299999998
 20
210.902564
 30
0.0
 11
402.0485299999998
 21
208.902564
 31
0.0
  0
CIRCLE
  5
1CD3
330
1ADF
100
AcDbEntity
  8
1
  6
Continuous
100
AcDbCircle
 10
401.321594
 20
208.9425639999999
 30
0.0
 40
0.04
  0
LINE
  5
1CD4
330
1ADF
100
AcDbEntity
  8
1
  6
Continuous
100
AcDbLine
 10
396.7402289999998
 20
216.4729309999999
 30
0.0
 11
397.833349
 21
215.4274159999999
 31
0.0
  0
LINE
  5
1CD5
330
1ADF
100
AcDbEntity
  8
1
  6
Continuous
100
AcDbLine
 10
396.7402289999998
 20
216.4729309999999
 30
0.0
 11
396.7402289999998
 21
215.2857809999999
 31
0.0
  0
ARC
  5
1CD6
330
1ADF
100
AcDbEntity
  8
1
  6
Continuous
100
AcDbCircle
 10
398.1148539999999
 20
215.8793559999999
 30
0.0
 40
0.6253750000000001
100
AcDbArc
 50
317.1304
 51
42.86999999999999
  0
ARC
  5
1CD7
330
1ADF
100
AcDbEntity
  8
1
  6
Continuous
100
AcDbCircle
 10
398.1902289999999
 20
215.809386
 30
0.0
 40
0.5225300000000001
100
AcDbArc
 50
222.8699999999999
 51
317.1304
  0
ARC
  5
1CD8
330
1ADF
100
AcDbEntity
  8
1
  6
Continuous
100
AcDbCircle
 10
398.1902289999999
 20
215.949326
 30
0.0
 40
0.5225300000000001
100
AcDbArc
 50
42.86999999999999
 51
114.2769999999999
  0
LINE
  5
1CD9
330
1ADF
100
AcDbEntity
  8
1
  6
Continuous
100
AcDbLine
 10
398.7547239999997
 20
210.902564
 30
0.0
 11
400.3296989999998
 21
210.902564
 31
0.0
  0
LINE
  5
1CDA
330
1ADF
100
AcDbEntity
  8
1
  6
Continuous
100
AcDbLine
 10
399.538729
 20
210.902564
 30
0.0
 11
399.538729
 21
208.902564
 31
0.0
  0
LINE
  5
1CDB
330
1ADF
100
AcDbEntity
  8
1
  6
Continuous
100
AcDbLine
 10
397.931892
 20
210.9008039999999
 30
0.0
 11
397.156592
 21
208.904314
 31
0.0
  0
LINE
  5
1CDC
330
1ADF
100
AcDbEntity
  8
1
  6
Continuous
100
AcDbLine
 10
397.931892
 20
210.9043189999999
 30
0.0
 11
398.671742
 21
208.904314
 31
0.0
  0
LINE
  5
1CDD
330
1ADF
100
AcDbEntity
  8
1
  6
Continuous
100
AcDbLine
 10
397.396392
 20
209.5077639999999
 30
0.0
 11
398.449892
 21
209.5077639999999
 31
0.0
  0
LINE
  5
1CDE
330
1ADF
100
AcDbEntity
  8
1
  6
Continuous
100
AcDbLine
 10
395.9716769999998
 20
210.902564
 30
0.0
 11
395.9716769999998
 21
208.902564
 31
0.0
  0
LINE
  5
1CDF
330
1ADF
100
AcDbEntity
  8
1
  6
Continuous
100
AcDbLine
 10
395.9716769999998
 20
210.902564
 30
0.0
 11
396.4414779999998
 21
210.902564
 31
0.0
  0
LINE
  5
1CE0
330
1ADF
100
AcDbEntity
  8
1
  6
Continuous
100
AcDbLine
 10
397.345125
 20
228.252849
 30
0.0
 11
397.345125
 21
227.199349
 31
0.0
  0
ARC
  5
1CE1
330
1ADF
100
AcDbEntity
  8
1
  6
Continuous
100
AcDbCircle
 10
401.207545
 20
227.8443489999999
 30
0.0
 40
0.76574
100
AcDbArc
 50
340.8072
 51
48.932
  0
ARC
  5
1CE2
330
1ADF
100
AcDbEntity
  8
1
  6
Continuous
100
AcDbCircle
 10
400.8110249999998
 20
227.8443489999999
 30
0.0
 40
0.76574
100
AcDbArc
 50
131.0679999999997
 51
199.193
  0
LINE
  5
1CE3
330
1ADF
100
AcDbEntity
  8
1
  6
Continuous
100
AcDbLine
 10
398.738165
 20
227.717349
 30
0.0
 11
396.7416749999999
 21
228.492649
 31
0.0
  0
ARC
  5
1CE4
330
1ADF
100
AcDbEntity
  8
1
  6
Continuous
100
AcDbCircle
 10
401.171245
 20
222.7958989999999
 30
0.0
 40
0.76574
100
AcDbArc
 50
340.8072
 51
48.932
  0
ARC
  5
1CE5
330
1ADF
100
AcDbEntity
  8
1
  6
Continuous
100
AcDbCircle
 10
401.4098
 20
222.7128490000001
 30
0.0
 40
0.513145
100
AcDbArc
 50
275.65924
 51
340.8072
  0
ARC
  5
1CE6
330
1ADF
100
AcDbEntity
  8
1
  6
Continuous
100
AcDbCircle
 10
401.4460999999998
 20
227.761299
 30
0.0
 40
0.513145
100
AcDbArc
 50
275.65924
 51
340.8072
  0
LINE
  5
1CE7
330
1ADF
100
AcDbEntity
  8
1
  6
Continuous
100
AcDbLine
 10
400.8710449999998
 20
220.107249
 30
0.0
 11
402.041525
 21
220.7809489999999
 31
0.0
  0
LINE
  5
1CE8
330
1ADF
100
AcDbEntity
  8
1
  6
Continuous
100
AcDbLine
 10
400.8674349999997
 20
220.107249
 30
0.0
 11
402.0427849999999
 21
219.428649
 31
0.0
  0
LINE
  5
1CE9
330
1ADF
100
AcDbEntity
  8
1
  6
Continuous
100
AcDbLine
 10
400.87473
 20
222.788399
 30
0.0
 11
400.87473
 21
222.085499
 31
0.0
  0
LINE
  5
1CEA
330
1ADF
100
AcDbEntity
  8
1
  6
Continuous
100
AcDbLine
 10
400.97617
 20
226.426049
 30
0.0
 11
400.97617
 21
225.129049
 31
0.0
  0
LINE
  5
1CEB
330
1ADF
100
AcDbEntity
  8
1
  6
Continuous
100
AcDbLine
 10
397.739925
 20
218.1633
 30
0.0
 11
397.739925
 21
217.53675
 31
0.0
  0
LINE
  5
1CEC
330
1ADF
100
AcDbEntity
  8
1
  6
Continuous
100
AcDbLine
 10
398.1278249999999
 20
220.5610019999999
 30
0.0
 11
397.352025
 21
220.5610019999999
 31
0.0
  0
ARC
  5
1CED
330
1ADF
100
AcDbEntity
  8
1
  6
Continuous
100
AcDbCircle
 10
398.1278249999999
 20
219.934652
 30
0.0
 40
0.62634
100
AcDbArc
 50
45.92799999999999
 51
90.0
  0
ARC
  5
1CEE
330
1ADF
100
AcDbEntity
  8
1
  6
Continuous
100
AcDbCircle
 10
398.160585
 20
219.9685019999999
 30
0.0
 40
0.57924
100
AcDbArc
 50
314.0724999999998
 51
45.92799999999999
  0
ARC
  5
1CEF
330
1ADF
100
AcDbEntity
  8
1
  6
Continuous
100
AcDbCircle
 10
397.352025
 20
219.934652
 30
0.0
 40
0.62634
100
AcDbArc
 50
90.0
 51
134.072
  0
ARC
  5
1CF0
330
1ADF
100
AcDbEntity
  8
1
  6
Continuous
100
AcDbCircle
 10
397.3192649999999
 20
219.9685019999999
 30
0.0
 40
0.57924
100
AcDbArc
 50
134.072
 51
225.9269999999999
  0
LINE
  5
1CF1
330
1ADF
100
AcDbEntity
  8
1
  6
Continuous
100
AcDbLine
 10
398.1278249999999
 20
219.376002
 30
0.0
 11
397.352025
 21
219.376002
 31
0.0
  0
ARC
  5
1CF2
330
1ADF
100
AcDbEntity
  8
1
  6
Continuous
100
AcDbCircle
 10
398.1278249999999
 20
220.002352
 30
0.0
 40
0.62634
100
AcDbArc
 50
270.0
 51
314.0724999999998
  0
ARC
  5
1CF3
330
1ADF
100
AcDbEntity
  8
1
  6
Continuous
100
AcDbCircle
 10
397.352025
 20
220.002352
 30
0.0
 40
0.62634
100
AcDbArc
 50
225.9269999999999
 51
270.0
  0
ARC
  5
1CF4
330
1ADF
100
AcDbEntity
  8
1
  6
Continuous
100
AcDbCircle
 10
397.2899249999999
 20
221.9383469999999
 30
0.0
 40
0.5225300000000001
100
AcDbArc
 50
103.0139999999999
 51
137.1299999999999
  0
ARC
  5
1CF5
330
1ADF
100
AcDbEntity
  8
1
  6
Continuous
100
AcDbCircle
 10
397.2899249999999
 20
221.7984069999999
 30
0.0
 40
0.5225300000000001
100
AcDbArc
 50
222.8699999999999
 51
317.1304
  0
ARC
  5
1CF6
330
1ADF
100
AcDbEntity
  8
1
  6
Continuous
100
AcDbCircle
 10
397.214548
 20
221.868377
 30
0.0
 40
0.6253750000000001
100
AcDbArc
 50
317.1304
 51
327.1503
  0
ARC
  5
1CF7
330
1ADF
100
AcDbEntity
  8
1
  6
Continuous
100
AcDbCircle
 10
397.3653
 20
221.868377
 30
0.0
 40
0.6253750000000001
100
AcDbArc
 50
137.1299999999999
 51
222.8699999999999
  0
ARC
  5
1CF8
330
1ADF
100
AcDbEntity
  8
1
  6
Continuous
100
AcDbCircle
 10
398.189925
 20
221.9383469999999
 30
0.0
 40
0.5225300000000001
100
AcDbArc
 50
42.86999999999999
 51
108.2079999999999
  0
ARC
  5
1CF9
330
1ADF
100
AcDbEntity
  8
1
  6
Continuous
100
AcDbCircle
 10
398.189925
 20
221.7984069999999
 30
0.0
 40
0.5225300000000001
100
AcDbArc
 50
222.8699999999999
 51
317.1304
  0
ARC
  5
1CFA
330
1ADF
100
AcDbEntity
  8
1
  6
Continuous
100
AcDbCircle
 10
398.11455
 20
221.868377
 30
0.0
 40
0.6253750000000001
100
AcDbArc
 50
317.1304
 51
42.86999999999999
  0
ARC
  5
1CFB
330
1ADF
100
AcDbEntity
  8
1
  6
Continuous
100
AcDbCircle
 10
398.2653
 20
221.868377
 30
0.0
 40
0.6253750000000001
100
AcDbArc
 50
212.8499999999999
 51
222.8699999999999
  0
LINE
  5
1CFC
330
1ADF
100
AcDbEntity
  8
1
  6
Continuous
100
AcDbLine
 10
397.739925
 20
221.8218569999999
 30
0.0
 11
397.739925
 21
221.5291469999999
 31
0.0
  0
LINE
  5
1CFD
330
1ADF
100
AcDbEntity
  8
1
  6
Continuous
100
AcDbLine
 10
397.739925
 20
223.670829
 30
0.0
 11
397.739925
 21
223.378119
 31
0.0
  0
ARC
  5
1CFE
330
1ADF
100
AcDbEntity
  8
1
  6
Continuous
100
AcDbCircle
 10
398.2653
 20
223.7173489999999
 30
0.0
 40
0.6253750000000001
100
AcDbArc
 50
212.8499999999999
 51
222.8699999999999
  0
ARC
  5
1CFF
330
1ADF
100
AcDbEntity
  8
1
  6
Continuous
100
AcDbCircle
 10
398.11455
 20
223.7173489999999
 30
0.0
 40
0.6253750000000001
100
AcDbArc
 50
317.1304
 51
42.86999999999999
  0
ARC
  5
1D00
330
1ADF
100
AcDbEntity
  8
1
  6
Continuous
100
AcDbCircle
 10
398.189925
 20
223.647379
 30
0.0
 40
0.5225300000000001
100
AcDbArc
 50
222.8699999999999
 51
317.1304
  0
ARC
  5
1D01
330
1ADF
100
AcDbEntity
  8
1
  6
Continuous
100
AcDbCircle
 10
398.189925
 20
223.787319
 30
0.0
 40
0.5225300000000001
100
AcDbArc
 50
42.86999999999999
 51
108.2079999999999
  0
ARC
  5
1D02
330
1ADF
100
AcDbEntity
  8
1
  6
Continuous
100
AcDbCircle
 10
397.3653
 20
223.7173489999999
 30
0.0
 40
0.6253750000000001
100
AcDbArc
 50
137.1299999999999
 51
222.8699999999999
  0
ARC
  5
1D03
330
1ADF
100
AcDbEntity
  8
1
  6
Continuous
100
AcDbCircle
 10
397.214548
 20
223.7173489999999
 30
0.0
 40
0.6253750000000001
100
AcDbArc
 50
317.1304
 51
327.1503
  0
ARC
  5
1D04
330
1ADF
100
AcDbEntity
  8
1
  6
Continuous
100
AcDbCircle
 10
397.2899249999999
 20
223.647379
 30
0.0
 40
0.5225300000000001
100
AcDbArc
 50
222.8699999999999
 51
317.1304
  0
ARC
  5
1D05
330
1ADF
100
AcDbEntity
  8
1
  6
Continuous
100
AcDbCircle
 10
397.2899249999999
 20
223.787319
 30
0.0
 40
0.5225300000000001
100
AcDbArc
 50
103.0139999999999
 51
137.1299999999999
  0
ARC
  5
1D06
330
1ADF
100
AcDbEntity
  8
1
  6
Continuous
100
AcDbCircle
 10
400.7747199999998
 20
222.7958989999999
 30
0.0
 40
0.76574
100
AcDbArc
 50
131.0679999999997
 51
186.5909999999999
  0
ARC
  5
1D07
330
1ADF
100
AcDbEntity
  8
1
  6
Continuous
100
AcDbCircle
 10
400.57247
 20
227.761299
 30
0.0
 40
0.513145
100
AcDbArc
 50
199.193
 51
264.341
  0
LINE
  5
1D08
330
1ADF
100
AcDbEntity
  8
1
  6
Continuous
100
AcDbLine
 10
400.5766549999997
 20
222.085499
 30
0.0
 11
399.939925
 21
222.085499
 31
0.0
  0
LINE
  5
1D09
330
1ADF
100
AcDbEntity
  8
1
  6
Continuous
100
AcDbLine
 10
400.5340799999998
 20
218.795649
 30
0.0
 11
400.5340799999998
 21
217.705099
 31
0.0
  0
LINE
  5
1D0A
330
1ADF
100
AcDbEntity
  8
1
  6
Continuous
100
AcDbLine
 10
398.7416799999999
 20
227.717349
 30
0.0
 11
396.7416749999999
 21
226.977499
 31
0.0
  0
LINE
  5
1D0B
330
1ADF
100
AcDbEntity
  8
1
  6
Continuous
100
AcDbLine
 10
397.739925
 20
226.030599
 30
0.0
 11
397.739925
 21
225.4040489999999
 31
0.0
  0
ARC
  5
1D0C
330
1ADF
100
AcDbEntity
  8
1
  6
Continuous
100
AcDbCircle
 10
400.7292849999998
 20
222.790649
 30
0.0
 40
0.72
100
AcDbArc
 50
179.5819999999999
 51
281.6541
  0
ARC
  5
1D0D
330
1ADF
100
AcDbEntity
  8
1
  6
Continuous
100
AcDbCircle
 10
400.972985
 20
222.568399
 30
0.0
 40
1.067529999999997
100
AcDbArc
 50
48.932
 51
131.0679999999997
  0
LINE
  5
1D0E
330
1ADF
100
AcDbEntity
  8
1
  6
Continuous
100
AcDbLine
 10
402.0268899999998
 20
221.505799
 30
0.0
 11
399.92545
 21
221.505799
 31
0.0
  0
LINE
  5
1D0F
330
1ADF
100
AcDbEntity
  8
1
  6
Continuous
100
AcDbLine
 10
400.86744
 20
220.107249
 30
0.0
 11
399.92545
 21
220.107249
 31
0.0
  0
LINE
  5
1D10
330
1ADF
100
AcDbEntity
  8
1
  6
Continuous
100
AcDbLine
 10
401.97617
 20
218.241349
 30
0.0
 11
399.93265
 21
219.0347989999999
 31
0.0
  0
LINE
  5
1D11
330
1ADF
100
AcDbEntity
  8
1
  6
Continuous
100
AcDbLine
 10
402.0268899999998
 20
224.426049
 30
0.0
 11
399.92545
 21
224.426049
 31
0.0
  0
LINE
  5
1D12
330
1ADF
100
AcDbEntity
  8
1
  6
Continuous
100
AcDbLine
 10
402.0268899999998
 20
225.129049
 30
0.0
 11
399.92545
 21
225.129049
 31
0.0
  0
LINE
  5
1D13
330
1ADF
100
AcDbEntity
  8
1
  6
Continuous
100
AcDbLine
 10
402.0268899999998
 20
226.426049
 30
0.0
 11
399.92545
 21
226.426049
 31
0.0
  0
LINE
  5
1D14
330
1ADF
100
AcDbEntity
  8
1
  6
Continuous
100
AcDbLine
 10
401.979765
 20
218.241349
 30
0.0
 11
399.9326449999998
 21
217.484049
 31
0.0
  0
ARC
  5
1D15
330
1ADF
100
AcDbEntity
  8
1
  6
Continuous
100
AcDbCircle
 10
401.196945
 20
229.9429739999999
 30
0.0
 40
0.76574
100
AcDbArc
 50
311.0679
 51
48.932
  0
LINE
  5
1D16
330
1ADF
100
AcDbEntity
  8
1
  6
Continuous
100
AcDbLine
 10
400.904733
 20
238.016687
 30
0.0
 11
400.904733
 21
238.4605779999999
 31
0.0
  0
LINE
  5
1D17
330
1ADF
100
AcDbEntity
  8
1
  6
Continuous
100
AcDbLine
 10
400.904733
 20
236.683211
 30
0.0
 11
400.904733
 21
236.9051559999999
 31
0.0
  0
ARC
  5
1D18
330
1ADF
100
AcDbEntity
  8
1
  6
Continuous
100
AcDbCircle
 10
402.158814
 20
236.9051559999999
 30
0.0
 40
0.222261
100
AcDbArc
 50
270.0
 51
349.8959999999998
  0
ARC
  5
1D19
330
1ADF
100
AcDbEntity
  8
1
  6
Continuous
100
AcDbCircle
 10
397.171359
 20
237.7947419999999
 30
0.0
 40
5.288524999999999
100
AcDbArc
 50
349.8959999999998
 51
352.2069999999998
  0
ARC
  5
1D1A
330
1ADF
100
AcDbEntity
  8
1
  6
Continuous
100
AcDbCircle
 10
402.367227
 20
237.082893
 30
0.0
 40
0.044452
100
AcDbArc
 50
352.2069999999998
 51
90.0
  0
LINE
  5
1D1B
330
1ADF
100
AcDbEntity
  8
1
  6
Continuous
100
AcDbLine
 10
401.4379429999998
 20
236.683211
 30
0.0
 11
402.158814
 21
236.683211
 31
0.0
  0
LINE
  5
1D1C
330
1ADF
100
AcDbEntity
  8
1
  6
Continuous
100
AcDbLine
 10
402.156108
 20
235.794527
 30
0.0
 11
401.1266779999998
 21
235.794527
 31
0.0
  0
LINE
  5
1D1D
330
1ADF
100
AcDbEntity
  8
1
  6
Continuous
100
AcDbLine
 10
401.939925
 20
232.7449539999999
 30
0.0
 11
401.939925
 21
231.1145339999999
 31
0.0
  0
LINE
  5
1D1E
330
1ADF
100
AcDbEntity
  8
1
  6
Continuous
100
AcDbLine
 10
401.1266779999998
 20
235.349734
 30
0.0
 11
402.07581
 21
235.349734
 31
0.0
  0
LINE
  5
1D1F
330
1ADF
100
AcDbEntity
  8
1
  6
Continuous
100
AcDbLine
 10
400.904733
 20
233.982875
 30
0.0
 11
400.904733
 21
234.901332
 31
0.0
  0
ARC
  5
1D20
330
1ADF
100
AcDbEntity
  8
1
  6
Continuous
100
AcDbCircle
 10
401.1266779999998
 20
235.5725819999999
 30
0.0
 40
0.222261
100
AcDbArc
 50
90.0
 51
270.0
  0
ARC
  5
1D21
330
1ADF
100
AcDbEntity
  8
1
  6
Continuous
100
AcDbCircle
 10
400.8004249999998
 20
229.9429739999999
 30
0.0
 40
0.76574
100
AcDbArc
 50
131.0679999999997
 51
228.932
  0
LINE
  5
1D22
330
1ADF
100
AcDbEntity
  8
1
  6
Continuous
100
AcDbLine
 10
398.7548799999999
 20
230.3438289999999
 30
0.0
 11
396.754875
 21
230.3438289999999
 31
0.0
  0
LINE
  5
1D23
330
1ADF
100
AcDbEntity
  8
1
  6
Continuous
100
AcDbLine
 10
398.7548799999999
 20
229.090849
 30
0.0
 11
396.754875
 21
229.090849
 31
0.0
  0
LINE
  5
1D24
330
1ADF
100
AcDbEntity
  8
1
  6
Continuous
100
AcDbLine
 10
397.739925
 20
230.3438289999999
 30
0.0
 11
397.739925
 21
229.090849
 31
0.0
  0
ARC
  5
1D25
330
1ADF
100
AcDbEntity
  8
1
  6
Continuous
100
AcDbCircle
 10
399.6497489999999
 20
236.9051559999999
 30
0.0
 40
0.222261
100
AcDbArc
 50
190.1039999999999
 51
270.0
  0
ARC
  5
1D26
330
1ADF
100
AcDbEntity
  8
1
  6
Continuous
100
AcDbCircle
 10
399.4413369999999
 20
237.082893
 30
0.0
 40
0.044452
100
AcDbArc
 50
90.0
 51
187.793
  0
ARC
  5
1D27
330
1ADF
100
AcDbEntity
  8
1
  6
Continuous
100
AcDbCircle
 10
404.637205
 20
237.7947419999999
 30
0.0
 40
5.288524999999999
100
AcDbArc
 50
187.793
 51
190.1039999999999
  0
LINE
  5
1D28
330
1ADF
100
AcDbEntity
  8
1
  6
Continuous
100
AcDbLine
 10
398.739925
 20
231.7173439999999
 30
0.0
 11
396.739925
 21
231.7173439999999
 31
0.0
  0
LINE
  5
1D29
330
1ADF
100
AcDbEntity
  8
1
  6
Continuous
100
AcDbLine
 10
398.739925
 20
232.501349
 30
0.0
 11
398.739925
 21
230.926374
 31
0.0
  0
ARC
  5
1D2A
330
1ADF
100
AcDbEntity
  8
1
  6
Continuous
100
AcDbCircle
 10
400.904733
 20
235.1277889999999
 30
0.0
 40
1.145318999999998
100
AcDbArc
 50
215.5379999999999
 51
225.699
  0
ARC
  5
1D2B
330
1ADF
100
AcDbEntity
  8
1
  6
Continuous
100
AcDbCircle
 10
400.998685
 20
229.715449
 30
0.0
 40
1.067529999999997
100
AcDbArc
 50
48.932
 51
131.0679999999997
  0
ARC
  5
1D2C
330
1ADF
100
AcDbEntity
  8
1
  6
Continuous
100
AcDbCircle
 10
400.998685
 20
230.1705039999999
 30
0.0
 40
1.067529999999997
100
AcDbArc
 50
228.932
 51
311.0679
  0
LINE
  5
1D2D
330
1ADF
100
AcDbEntity
  8
1
  6
Continuous
100
AcDbLine
 10
402.4177509999996
 20
238.4605779999999
 30
0.0
 11
399.3908129999999
 21
238.4605779999999
 31
0.0
  0
LINE
  5
1D2E
330
1ADF
100
AcDbEntity
  8
1
  6
Continuous
100
AcDbLine
 10
402.454742
 20
238.016687
 30
0.0
 11
399.3538219999999
 21
238.016687
 31
0.0
  0
LINE
  5
1D2F
330
1ADF
100
AcDbEntity
  8
1
  6
Continuous
100
AcDbLine
 10
402.454742
 20
237.571894
 30
0.0
 11
399.3538219999999
 21
237.571894
 31
0.0
  0
LINE
  5
1D30
330
1ADF
100
AcDbEntity
  8
1
  6
Continuous
100
AcDbLine
 10
402.367227
 20
237.128004
 30
0.0
 11
399.4413369999999
 21
237.128004
 31
0.0
  0
LINE
  5
1D31
330
1ADF
100
AcDbEntity
  8
1
  6
Continuous
100
AcDbLine
 10
400.904733
 20
235.5725819999999
 30
0.0
 11
399.8383119999999
 21
235.5725819999999
 31
0.0
  0
LINE
  5
1D32
330
1ADF
100
AcDbEntity
  8
1
  6
Continuous
100
AcDbLine
 10
399.6497489999999
 20
236.683211
 30
0.0
 11
400.904733
 21
236.683211
 31
0.0
  0
LINE
  5
1D33
330
1ADF
100
AcDbEntity
  8
1
  6
Continuous
100
AcDbLine
 10
402.365422
 20
236.23932
 30
0.0
 11
399.582985
 21
236.23932
 31
0.0
  0
LINE
  5
1D34
330
1ADF
100
AcDbEntity
  8
1
  6
Continuous
100
AcDbLine
 10
401.939925
 20
231.9333339999999
 30
0.0
 11
399.939925
 21
231.9333339999999
 31
0.0
  0
LINE
  5
1D35
330
1ADF
100
AcDbEntity
  8
1
  6
Continuous
100
AcDbLine
 10
400.0728889999998
 20
235.1241799999999
 30
0.0
 11
401.9458909999998
 21
234.621645
 31
0.0
  0
ARC
  5
1D36
330
1ADF
100
AcDbEntity
  8
1
  6
Continuous
100
AcDbCircle
 10
400.904733
 20
235.1277889999999
 30
0.0
 40
1.145318999999998
100
AcDbArc
 50
242.2499999999998
 51
324.4619999999998
  0
ARC
  5
1D37
330
1ADF
100
AcDbEntity
  8
1
  6
Continuous
100
AcDbCircle
 10
401.0092849999998
 20
227.6167989999999
 30
0.0
 40
1.067529999999997
100
AcDbArc
 50
48.932
 51
131.0679999999997
  0
LINE
  5
1D38
330
1ADF
100
AcDbEntity
  8
1
  6
Continuous
100
AcDbLine
 10
414.4054709999998
 20
263.24231
 30
0.0
 11
399.4054709999998
 21
254.582056
 31
0.0
  0
ARC
  5
1D39
330
1ADF
100
AcDbEntity
  8
1
  6
Continuous
100
AcDbCircle
 10
211.9054709999999
 20
254.9025639999999
 30
0.0
 40
197.5
100
AcDbArc
 50
356.258952
 51
358.594426
  0
LINE
  5
1D3A
330
1ADF
100
AcDbEntity
  8
1
  6
Continuous
100
AcDbLine
 10
401.4379429999998
 20
238.905371
 30
0.0
 11
402.2860269999998
 21
238.905371
 31
0.0
  0
ARC
  5
1D3B
330
1ADF
100
AcDbEntity
  8
1
  6
Continuous
100
AcDbCircle
 10
400.904733
 20
240.460793
 30
0.0
 40
1.145318999999998
100
AcDbArc
 50
35.5377
 51
76.5374
  0
ARC
  5
1D3C
330
1ADF
100
AcDbEntity
  8
1
  6
Continuous
100
AcDbCircle
 10
401.7239459999998
 20
240.016
 30
0.0
 40
0.222261
100
AcDbArc
 50
26.0144
 51
90.0
  0
ARC
  5
1D3D
330
1ADF
100
AcDbEntity
  8
1
  6
Continuous
100
AcDbCircle
 10
397.171359
 20
237.7947419999999
 30
0.0
 40
5.288524999999999
100
AcDbArc
 50
22.94399999999999
 51
26.0144
  0
ARC
  5
1D3E
330
1ADF
100
AcDbEntity
  8
1
  6
Continuous
100
AcDbCircle
 10
402.000926
 20
239.838264
 30
0.0
 40
0.044452
100
AcDbArc
 50
270.0
 51
22.94399999999999
  0
ARC
  5
1D3F
330
1ADF
100
AcDbEntity
  8
1
  6
Continuous
100
AcDbCircle
 10
402.2860269999998
 20
238.9495799999999
 30
0.0
 40
0.044452
100
AcDbArc
 50
270.0
 51
12.7289
  0
ARC
  5
1D40
330
1ADF
100
AcDbEntity
  8
1
  6
Continuous
100
AcDbCircle
 10
397.171359
 20
237.7947419999999
 30
0.0
 40
5.288524999999999
100
AcDbArc
 50
12.7289
 51
13.2681
  0
ARC
  5
1D41
330
1ADF
100
AcDbEntity
  8
1
  6
Continuous
100
AcDbCircle
 10
397.171359
 20
237.7947419999999
 30
0.0
 40
5.288524999999999
100
AcDbArc
 50
13.2681
 51
15.2575
  0
ARC
  5
1D42
330
1ADF
100
AcDbEntity
  8
1
  6
Continuous
100
AcDbCircle
 10
402.058668
 20
239.127317
 30
0.0
 40
0.222261
100
AcDbArc
 50
15.2575
 51
90.0
  0
ARC
  5
1D43
330
1ADF
100
AcDbEntity
  8
1
  6
Continuous
100
AcDbCircle
 10
400.0846179999999
 20
240.016
 30
0.0
 40
0.222261
100
AcDbArc
 50
90.0
 51
153.986
  0
ARC
  5
1D44
330
1ADF
100
AcDbEntity
  8
1
  6
Continuous
100
AcDbCircle
 10
399.7498949999999
 20
239.127317
 30
0.0
 40
0.222261
100
AcDbArc
 50
90.0
 51
164.7419999999998
  0
ARC
  5
1D45
330
1ADF
100
AcDbEntity
  8
1
  6
Continuous
100
AcDbCircle
 10
404.637205
 20
237.7947419999999
 30
0.0
 40
5.288524999999999
100
AcDbArc
 50
164.7419999999998
 51
164.794
  0
ARC
  5
1D46
330
1ADF
100
AcDbEntity
  8
1
  6
Continuous
100
AcDbCircle
 10
404.637205
 20
237.7947419999999
 30
0.0
 40
5.288524999999999
100
AcDbArc
 50
164.794
 51
167.2709999999999
  0
ARC
  5
1D47
330
1ADF
100
AcDbEntity
  8
1
  6
Continuous
100
AcDbCircle
 10
399.522536
 20
238.9495799999999
 30
0.0
 40
0.044452
100
AcDbArc
 50
167.2709999999999
 51
270.0
  0
LINE
  5
1D48
330
1ADF
100
AcDbEntity
  8
1
  6
Continuous
100
AcDbLine
 10
399.522536
 20
238.905371
 30
0.0
 11
400.371523
 21
238.905371
 31
0.0
  0
ARC
  5
1D49
330
1ADF
100
AcDbEntity
  8
1
  6
Continuous
100
AcDbCircle
 10
399.8085389999998
 20
239.838264
 30
0.0
 40
0.044452
100
AcDbArc
 50
157.056
 51
270.0
  0
ARC
  5
1D4A
330
1ADF
100
AcDbEntity
  8
1
  6
Continuous
100
AcDbCircle
 10
404.637205
 20
237.7947419999999
 30
0.0
 40
5.288524999999999
100
AcDbArc
 50
153.986
 51
157.056
  0
LINE
  5
1D4B
330
1ADF
100
AcDbEntity
  8
1
  6
Continuous
100
AcDbLine
 10
402.123628
 20
240.682739
 30
0.0
 11
400.2073189999999
 21
240.682739
 31
0.0
  0
LINE
  5
1D4C
330
1ADF
100
AcDbEntity
  8
1
  6
Continuous
100
AcDbLine
 10
400.0846179999999
 20
240.2388479999999
 30
0.0
 11
401.7239459999998
 21
240.2388479999999
 31
0.0
  0
LINE
  5
1D4D
330
1ADF
100
AcDbEntity
  8
1
  6
Continuous
100
AcDbLine
 10
402.000926
 20
239.7940549999999
 30
0.0
 11
399.8085389999998
 21
239.7940549999999
 31
0.0
  0
ARC
  5
1D4E
330
1ADF
100
AcDbEntity
  8
1
  6
Continuous
100
AcDbCircle
 10
400.904733
 20
240.460793
 30
0.0
 40
1.145318999999998
100
AcDbArc
 50
90.0
 51
144.462
  0
LINE
  5
1D4F
330
1ADF
100
AcDbEntity
  8
1
  6
Continuous
100
AcDbLine
 10
402.058668
 20
239.350164
 30
0.0
 11
399.7498949999999
 21
239.350164
 31
0.0
  0
ARC
  5
1D50
330
1ADF
100
AcDbEntity
  8
1
  6
Continuous
100
AcDbCircle
 10
399.4054709999998
 20
271.9025639999999
 30
0.0
 40
16.12829999999998
100
AcDbArc
 50
282.533468
 51
283.262363
  0
LINE
  5
1D51
330
1ADF
100
AcDbEntity
  8
1
  6
Continuous
100
AcDbLine
 10
402.9054709999998
 20
254.702564
 30
0.0
 11
402.9054709999998
 21
256.6027819999998
 31
0.0
  0
ARC
  5
1D52
330
1ADF
100
AcDbEntity
  8
1
  6
Continuous
100
AcDbCircle
 10
402.3635109999998
 20
256.402564
 30
0.0
 40
0.5
100
AcDbArc
 50
9.594068
 51
18.745207
  0
LINE
  5
1D53
330
1ADF
100
AcDbEntity
  8
1
  6
Continuous
100
AcDbLine
 10
403.105471
 20
255.902564
 30
0.0
 11
403.105471
 21
256.718252
 31
0.0
  0
ARC
  5
1D54
330
1ADF
100
AcDbEntity
  8
1
  6
Continuous
100
AcDbCircle
 10
396.4474309999998
 20
256.402564
 30
0.0
 40
0.5
100
AcDbArc
 50
161.254793
 51
170.4059319999998
  0
ARC
  5
1D55
330
1ADF
100
AcDbEntity
  8
1
  6
Continuous
100
AcDbCircle
 10
211.9054709999999
 20
254.9025639999999
 30
0.0
 40
200.0
100
AcDbArc
 50
356.258952
 51
358.9954029999997
  0
LINE
  5
1D56
330
1ADF
100
AcDbEntity
  8
1
  6
Continuous
100
AcDbLine
 10
409.9738199999999
 20
275.9025639999999
 30
0.0
 11
411.774788
 21
275.9025639999999
 31
0.0
  0
ARC
  5
1D57
330
1ADF
100
AcDbEntity
  8
1
  6
Continuous
100
AcDbCircle
 10
410.663801
 20
278.4025639999999
 30
0.0
 40
1.7
100
AcDbArc
 50
333.057137
 51
86.94286299999998
  0
ARC
  5
1D58
330
1ADF
100
AcDbEntity
  8
1
  6
Continuous
100
AcDbCircle
 10
410.663801
 20
265.4025639999999
 30
0.0
 40
1.7
100
AcDbArc
 50
273.057137
 51
26.942863
  0
LINE
  5
1D59
330
1ADF
100
AcDbEntity
  8
1
  6
Continuous
100
AcDbLine
 10
409.9738199999999
 20
267.9025639999999
 30
0.0
 11
411.774788
 21
267.9025639999999
 31
0.0
  0
LINE
  5
1D5A
330
1ADF
100
AcDbEntity
  8
1
  6
Continuous
100
AcDbLine
 10
399.4054709999998
 20
270.9066089999997
 30
0.0
 11
398.8157499999999
 21
270.6919679999999
 31
0.0
  0
LINE
  5
1D5B
330
1ADF
100
AcDbEntity
  8
1
  6
Continuous
100
AcDbLine
 10
397.4376180000001
 20
270.528681
 30
0.0
 11
398.194875
 21
271.3128429999998
 31
0.0
  0
LINE
  5
1D5C
330
1ADF
100
AcDbEntity
  8
1
  6
Continuous
100
AcDbLine
 10
399.4054709999998
 20
270.9066089999997
 30
0.0
 11
399.9951919999999
 21
270.6919679999999
 31
0.0
  0
LINE
  5
1D5D
330
1ADF
100
AcDbEntity
  8
1
  6
Continuous
100
AcDbLine
 10
401.373324
 20
270.528681
 30
0.0
 11
400.6160669999998
 21
271.3128429999998
 31
0.0
  0
ARC
  5
1D5E
330
1ADF
100
AcDbEntity
  8
1
  6
Continuous
100
AcDbCircle
 10
399.4054709999998
 20
271.9025639999999
 30
0.0
 40
11.3
100
AcDbArc
 50
339.2689149999998
 51
20.731085
  0
CIRCLE
  5
1D5F
330
1ADF
100
AcDbEntity
  8
1
  6
Continuous
100
AcDbCircle
 10
399.4054709999998
 20
271.9025639999999
 30
0.0
 40
3.1
  0
LINE
  5
1D60
330
1ADF
100
AcDbEntity
  8
1
  6
Continuous
100
AcDbLine
 10
403.4054709999998
 20
269.592564
 30
0.0
 11
403.4054709999998
 21
274.211564
 31
0.0
  0
ARC
  5
1D61
330
1ADF
100
AcDbEntity
  8
1
  6
Continuous
100
AcDbCircle
 10
399.4054709999998
 20
271.9025639999999
 30
0.0
 40
2.399999999999999
100
AcDbArc
 50
214.921342
 51
235.0786579999998
  0
LINE
  5
1D62
330
1ADF
100
AcDbEntity
  8
1
  6
Continuous
100
AcDbLine
 10
398.031588
 20
269.934711
 30
0.0
 11
398.8157499999999
 21
270.6919679999999
 31
0.0
  0
LINE
  5
1D63
330
1ADF
100
AcDbEntity
  8
1
  6
Continuous
100
AcDbLine
 10
400.7793539999997
 20
269.934711
 30
0.0
 11
399.9951919999999
 21
270.6919679999999
 31
0.0
  0
ARC
  5
1D64
330
1ADF
100
AcDbEntity
  8
1
  6
Continuous
100
AcDbCircle
 10
399.4054709999998
 20
271.9025639999999
 30
0.0
 40
10.18799999999999
100
AcDbArc
 50
253.1384089999999
 51
286.8615909999999
  0
ARC
  5
1D65
330
1ADF
100
AcDbEntity
  8
1
  6
Continuous
100
AcDbCircle
 10
399.4054709999998
 20
271.9025639999999
 30
0.0
 40
2.399999999999999
100
AcDbArc
 50
304.921342
 51
325.078658
  0
LINE
  5
1D66
330
1ADF
100
AcDbEntity
  8
1
  6
Continuous
100
AcDbLine
 10
403.4054709999998
 20
269.593564
 30
0.0
 11
399.4054709999998
 21
267.283564
 31
0.0
  0
LINE
  5
1D67
330
1ADF
100
AcDbEntity
  8
1
  6
Continuous
100
AcDbLine
 10
397.4376180000001
 20
273.276447
 30
0.0
 11
398.194875
 21
272.492285
 31
0.0
  0
LINE
  5
1D68
330
1ADF
100
AcDbEntity
  8
1
  6
Continuous
100
AcDbLine
 10
398.031588
 20
273.8704169999999
 30
0.0
 11
398.8157499999999
 21
273.1131599999998
 31
0.0
  0
LINE
  5
1D69
330
1ADF
100
AcDbEntity
  8
1
  6
Continuous
100
AcDbLine
 10
400.7793539999997
 20
273.8704169999999
 30
0.0
 11
399.9951919999999
 21
273.1131599999998
 31
0.0
  0
LINE
  5
1D6A
330
1ADF
100
AcDbEntity
  8
1
  6
Continuous
100
AcDbLine
 10
399.4054709999998
 20
272.898519
 30
0.0
 11
398.8157499999999
 21
273.1131599999998
 31
0.0
  0
LINE
  5
1D6B
330
1ADF
100
AcDbEntity
  8
1
  6
Continuous
100
AcDbLine
 10
399.4054709999998
 20
272.898519
 30
0.0
 11
399.9951919999999
 21
273.1131599999998
 31
0.0
  0
ARC
  5
1D6C
330
1ADF
100
AcDbEntity
  8
1
  6
Continuous
100
AcDbCircle
 10
399.4054709999998
 20
271.9025639999999
 30
0.0
 40
2.399999999999999
100
AcDbArc
 50
124.921342
 51
145.0786579999999
  0
LINE
  5
1D6D
330
1ADF
100
AcDbEntity
  8
1
  6
Continuous
100
AcDbLine
 10
401.373324
 20
273.276447
 30
0.0
 11
400.6160669999998
 21
272.492285
 31
0.0
  0
ARC
  5
1D6E
330
1ADF
100
AcDbEntity
  8
1
  6
Continuous
100
AcDbCircle
 10
399.4054709999998
 20
271.9025639999999
 30
0.0
 40
2.399999999999999
100
AcDbArc
 50
34.92134199999998
 51
55.078658
  0
LINE
  5
1D6F
330
1ADF
100
AcDbEntity
  8
1
  6
Continuous
100
AcDbLine
 10
399.4054709999998
 20
276.521564
 30
0.0
 11
403.4054709999998
 21
274.211564
 31
0.0
  0
LINE
  5
1D70
330
1ADF
100
AcDbEntity
  8
1
  6
Continuous
100
AcDbLine
 10
398.4095159999998
 20
271.9025639999999
 30
0.0
 11
398.194875
 21
271.3128429999998
 31
0.0
  0
LINE
  5
1D71
330
1ADF
100
AcDbEntity
  8
1
  6
Continuous
100
AcDbLine
 10
400.4014259999998
 20
271.9025639999999
 30
0.0
 11
400.6160669999998
 21
271.3128429999998
 31
0.0
  0
LINE
  5
1D72
330
1ADF
100
AcDbEntity
  8
1
  6
Continuous
100
AcDbLine
 10
398.4095159999998
 20
271.9025639999999
 30
0.0
 11
398.194875
 21
272.492285
 31
0.0
  0
LINE
  5
1D73
330
1ADF
100
AcDbEntity
  8
1
  6
Continuous
100
AcDbLine
 10
400.4014259999998
 20
271.9025639999999
 30
0.0
 11
400.6160669999998
 21
272.492285
 31
0.0
  0
ARC
  5
1D74
330
1ADF
100
AcDbEntity
  8
1
  6
Continuous
100
AcDbCircle
 10
399.4054709999998
 20
271.9025639999999
 30
0.0
 40
14.0
100
AcDbArc
 50
335.8412519999999
 51
24.158748
  0
LINE
  5
1D75
330
1ADF
100
AcDbEntity
  8
1
  6
Continuous
100
AcDbLine
 10
414.4054709999998
 20
263.24231
 30
0.0
 11
414.4054709999998
 21
280.5628179999999
 31
0.0
  0
ARC
  5
1D76
330
1ADF
100
AcDbEntity
  8
1
  6
Continuous
100
AcDbCircle
 10
399.4054709999998
 20
271.9025639999999
 30
0.0
 40
13.0
100
AcDbArc
 50
342.079787
 51
17.920213
  0
ARC
  5
1D77
330
1ADF
100
AcDbEntity
  8
1
  6
Continuous
100
AcDbCircle
 10
399.4054709999998
 20
287.902564
 30
0.0
 40
3.5
100
AcDbArc
 50
350.405932
 51
189.5940679999999
  0
LINE
  5
1D78
330
1ADF
100
AcDbEntity
  8
1
  6
Continuous
100
AcDbLine
 10
404.498358
 20
281.652564
 30
0.0
 11
394.3125829999997
 21
281.652564
 31
0.0
  0
ARC
  5
1D79
330
1ADF
100
AcDbEntity
  8
2
  6
Continuous
100
AcDbCircle
 10
399.4054709999998
 20
271.9025639999999
 30
0.0
 40
11.0
100
AcDbArc
 50
62.419801
 51
117.5801989999998
  0
ARC
  5
1D7A
330
1ADF
100
AcDbEntity
  8
1
  6
Continuous
100
AcDbCircle
 10
399.4054709999998
 20
287.902564
 30
0.0
 40
3.7
100
AcDbArc
 50
0.0
 51
180.0
  0
LINE
  5
1D7B
330
1ADF
100
AcDbEntity
  8
4
  6
CENTER
100
AcDbLine
 10
404.405471
 20
287.902564
 30
0.0
 11
393.943577
 21
287.902564
 31
0.0
  0
ARC
  5
1D7C
330
1ADF
100
AcDbEntity
  8
1
  6
Continuous
100
AcDbCircle
 10
399.4054709999998
 20
271.9025639999999
 30
0.0
 40
16.12829999999998
100
AcDbArc
 50
102.533468
 51
103.262363
  0
LINE
  5
1D7D
330
1ADF
100
AcDbEntity
  8
1
  6
Continuous
100
AcDbLine
 10
395.9054709999999
 20
289.1025639999999
 30
0.0
 11
395.9054709999999
 21
287.2023459999999
 31
0.0
  0
LINE
  5
1D7E
330
1ADF
100
AcDbEntity
  8
1
  6
Continuous
100
AcDbLine
 10
395.7054709999999
 20
287.902564
 30
0.0
 11
395.7054709999999
 21
287.0868759999999
 31
0.0
  0
ARC
  5
1D7F
330
1ADF
100
AcDbEntity
  8
1
  6
Continuous
100
AcDbCircle
 10
399.4054709999998
 20
271.9025639999999
 30
0.0
 40
16.12829999999998
100
AcDbArc
 50
76.73763700000002
 51
77.466532
  0
LINE
  5
1D80
330
1ADF
100
AcDbEntity
  8
1
  6
Continuous
100
AcDbLine
 10
402.9054709999998
 20
289.1025639999999
 30
0.0
 11
402.9054709999998
 21
287.2023459999999
 31
0.0
  0
ARC
  5
1D81
330
1ADF
100
AcDbEntity
  8
1
  6
Continuous
100
AcDbCircle
 10
402.3635109999998
 20
287.4025639999999
 30
0.0
 40
0.5
100
AcDbArc
 50
341.254793
 51
350.405932
  0
LINE
  5
1D82
330
1ADF
100
AcDbEntity
  8
1
  6
Continuous
100
AcDbLine
 10
403.105471
 20
287.902564
 30
0.0
 11
403.105471
 21
287.0868759999999
 31
0.0
  0
ARC
  5
1D83
330
1ADF
100
AcDbEntity
  8
1
  6
Continuous
100
AcDbCircle
 10
396.4474309999998
 20
287.4025639999999
 30
0.0
 40
0.5
100
AcDbArc
 50
189.5940679999999
 51
198.745207
  0
ARC
  5
1D84
330
1ADF
100
AcDbEntity
  8
1
  6
Continuous
100
AcDbCircle
 10
399.4054709999998
 20
271.9025639999999
 30
0.0
 40
10.18799999999999
100
AcDbArc
 50
73.13840899999998
 51
106.8615909999999
  0
LINE
  5
1D85
330
1ADF
100
AcDbEntity
  8
1
  6
Continuous
100
AcDbLine
 10
228.6325109999999
 20
281.9025639999999
 30
0.0
 11
221.132511
 21
281.9025639999999
 31
0.0
  0
LINE
  5
1D86
330
1ADF
100
AcDbEntity
  8
1
  6
Continuous
100
AcDbLine
 10
228.6325109999999
 20
261.9025639999999
 30
0.0
 11
221.132511
 21
261.9025639999999
 31
0.0
  0
LINE
  5
1D87
330
1ADF
100
AcDbEntity
  8
1
  6
Continuous
100
AcDbLine
 10
229.1325109999999
 20
262.4025639999999
 30
0.0
 11
229.1325109999999
 21
281.402564
 31
0.0
  0
ARC
  5
1D88
330
1ADF
100
AcDbEntity
  8
1
  6
Continuous
100
AcDbCircle
 10
228.6325109999999
 20
262.4025639999999
 30
0.0
 40
0.5
100
AcDbArc
 50
270.0
 51
0.0
  0
ARC
  5
1D89
330
1ADF
100
AcDbEntity
  8
1
  6
Continuous
100
AcDbCircle
 10
228.6325109999999
 20
281.402564
 30
0.0
 40
0.5
100
AcDbArc
 50
0.0
 51
90.0
  0
LINE
  5
1D8A
330
1ADF
100
AcDbEntity
  8
1
  6
Continuous
100
AcDbLine
 10
228.6325109999999
 20
424.9699709999998
 30
0.0
 11
221.132511
 21
424.9699709999998
 31
0.0
  0
LINE
  5
1D8B
330
1ADF
100
AcDbEntity
  8
1
  6
Continuous
100
AcDbLine
 10
228.6325109999999
 20
404.9699709999998
 30
0.0
 11
221.132511
 21
404.9699709999998
 31
0.0
  0
LINE
  5
1D8C
330
1ADF
100
AcDbEntity
  8
1
  6
Continuous
100
AcDbLine
 10
229.1325109999999
 20
405.4699709999998
 30
0.0
 11
229.1325109999999
 21
424.4699709999999
 31
0.0
  0
ARC
  5
1D8D
330
1ADF
100
AcDbEntity
  8
1
  6
Continuous
100
AcDbCircle
 10
228.6325109999999
 20
405.4699709999998
 30
0.0
 40
0.5
100
AcDbArc
 50
270.0
 51
0.0
  0
ARC
  5
1D8E
330
1ADF
100
AcDbEntity
  8
1
  6
Continuous
100
AcDbCircle
 10
228.6325109999999
 20
424.4699709999999
 30
0.0
 40
0.5
100
AcDbArc
 50
0.0
 51
90.0
  0
LINE
  5
1D8F
330
1ADF
100
AcDbEntity
  8
1
  6
Continuous
100
AcDbLine
 10
577.6784309999998
 20
281.9025639999999
 30
0.0
 11
577.6784309999998
 21
261.9025639999999
 31
0.0
  0
LINE
  5
1D90
330
1ADF
100
AcDbEntity
  8
1
  6
Continuous
100
AcDbLine
 10
569.6784309999998
 20
262.4025639999999
 30
0.0
 11
569.6784309999998
 21
281.402564
 31
0.0
  0
LINE
  5
1D91
330
1ADF
100
AcDbEntity
  8
1
  6
Continuous
100
AcDbLine
 10
567.1784309999998
 20
270.6025649999999
 30
0.0
 11
568.478431
 21
271.9025649999999
 31
0.0
  0
LINE
  5
1D92
330
1ADF
100
AcDbEntity
  8
1
  6
Continuous
100
AcDbLine
 10
563.6784309999998
 20
275.9030639999999
 30
0.0
 11
563.6784309999998
 21
267.9030639999999
 31
0.0
  0
ARC
  5
1D93
330
1ADF
100
AcDbEntity
  8
1
  6
Continuous
100
AcDbCircle
 10
559.5373860000002
 20
271.9025639999999
 30
0.0
 40
7.641045
100
AcDbArc
 50
342.4072529999999
 51
17.59274699999998
  0
ARC
  5
1D94
330
1ADF
100
AcDbEntity
  8
1
  6
Continuous
100
AcDbCircle
 10
571.319476
 20
271.9025639999999
 30
0.0
 40
7.641045
100
AcDbArc
 50
162.407253
 51
197.592747
  0
LINE
  5
1D95
330
1ADF
100
AcDbEntity
  8
1
  6
Continuous
100
AcDbLine
 10
567.1784309999998
 20
267.283762
 30
0.0
 11
567.1784309999998
 21
276.521366
 31
0.0
  0
LINE
  5
1D96
330
1ADF
100
AcDbEntity
  8
1
  6
Continuous
100
AcDbLine
 10
568.478431
 20
279.9025639999999
 30
0.0
 11
568.478431
 21
263.9025639999999
 31
0.0
  0
LINE
  5
1D97
330
1ADF
100
AcDbEntity
  8
1
  6
Continuous
100
AcDbLine
 10
604.228431
 20
285.708851
 30
0.0
 11
604.228431
 21
258.0962769999998
 31
0.0
  0
LINE
  5
1D98
330
1ADF
100
AcDbEntity
  8
1
  6
Continuous
100
AcDbLine
 10
604.278431
 20
257.9025639999999
 30
0.0
 11
604.278431
 21
285.902564
 31
0.0
  0
LINE
  5
1D99
330
1ADF
100
AcDbEntity
  8
1
  6
Continuous
100
AcDbLine
 10
596.2784309999998
 20
293.902564
 30
0.0
 11
596.2784309999998
 21
249.902564
 31
0.0
  0
LINE
  5
1D9A
330
1ADF
100
AcDbEntity
  8
1
  6
Continuous
100
AcDbLine
 10
592.7784309999998
 20
295.9025639999999
 30
0.0
 11
592.7784309999998
 21
247.902564
 31
0.0
  0
LINE
  5
1D9B
330
1ADF
100
AcDbEntity
  8
1
  6
Continuous
100
AcDbLine
 10
591.778431
 20
295.9025639999999
 30
0.0
 11
591.778431
 21
247.902564
 31
0.0
  0
LINE
  5
1D9C
330
1ADF
100
AcDbEntity
  8
1
  6
Continuous
100
AcDbLine
 10
636.2784309999998
 20
287.902564
 30
0.0
 11
636.2784309999998
 21
254.9025639999999
 31
0.0
  0
LINE
  5
1D9D
330
1ADF
100
AcDbEntity
  8
1
  6
Continuous
100
AcDbLine
 10
635.3157089999997
 20
286.360372
 30
0.0
 11
635.3157089999997
 21
254.9025639999999
 31
0.0
  0
LINE
  5
1D9E
330
1ADF
100
AcDbEntity
  8
1
  6
Continuous
100
AcDbLine
 10
634.8075549999999
 20
286.360372
 30
0.0
 11
634.8075549999999
 21
254.9025639999999
 31
0.0
  0
LINE
  5
1D9F
330
1ADF
100
AcDbEntity
  8
1
  6
Continuous
100
AcDbLine
 10
619.53579
 20
185.6599239999999
 30
0.0
 11
621.021071
 21
187.145205
 31
0.0
  0
LINE
  5
1DA0
330
1ADF
100
AcDbEntity
  8
1
  6
Continuous
100
AcDbLine
 10
629.925646
 20
173.7431039999999
 30
0.0
 11
635.1417279999998
 21
238.956535
 31
0.0
  0
ARC
  5
1DA1
330
1ADF
100
AcDbEntity
  8
1
  6
Continuous
100
AcDbCircle
 10
624.778431
 20
178.902564
 30
0.0
 40
7.0
100
AcDbArc
 50
180.0
 51
270.0
  0
ARC
  5
1DA2
330
1ADF
100
AcDbEntity
  8
1
  6
Continuous
100
AcDbCircle
 10
627.932013
 20
173.9025639999999
 30
0.0
 40
2.0
100
AcDbArc
 50
270.0
 51
355.426945
  0
LINE
  5
1DA3
330
1ADF
100
AcDbEntity
  8
1
  6
Continuous
100
AcDbLine
 10
627.932013
 20
171.9025639999999
 30
0.0
 11
624.778431
 21
171.9025639999999
 31
0.0
  0
LINE
  5
1DA4
330
1ADF
100
AcDbEntity
  8
1
  6
Continuous
100
AcDbLine
 10
617.7784309999998
 20
181.417283
 30
0.0
 11
617.7784309999998
 21
178.902564
 31
0.0
  0
ARC
  5
1DA5
330
1ADF
100
AcDbEntity
  8
1
  6
Continuous
100
AcDbCircle
 10
623.7784309999998
 20
181.417283
 30
0.0
 40
6.0
100
AcDbArc
 50
135.0
 51
180.0
  0
LINE
  5
1DA6
330
1ADF
100
AcDbEntity
  8
4
  6
CENTER
100
AcDbLine
 10
642.5292349999996
 20
271.9025639999999
 30
0.0
 11
559.0502240000001
 21
271.9025639999999
 31
0.0
  0
LINE
  5
1DA7
330
1ADF
100
AcDbEntity
  8
1
  6
Continuous
100
AcDbLine
 10
617.3472850000003
 20
260.5540439999999
 30
0.0
 11
604.6461559999998
 21
261.7636759999999
 31
0.0
  0
LINE
  5
1DA8
330
1ADF
100
AcDbEntity
  8
1
  6
Continuous
100
AcDbLine
 10
622.566728
 20
256.160822
 30
0.0
 11
604.278431
 21
257.9025639999999
 31
0.0
  0
LINE
  5
1DA9
330
1ADF
100
AcDbEntity
  8
1
  6
Continuous
100
AcDbLine
 10
622.7784309999998
 20
254.5810719999999
 30
0.0
 11
622.7784309999998
 21
191.387846
 31
0.0
  0
ARC
  5
1DAA
330
1ADF
100
AcDbEntity
  8
1
  6
Continuous
100
AcDbCircle
 10
616.778431
 20
191.387846
 30
0.0
 40
6.0
100
AcDbArc
 50
315.0
 51
0.0
  0
ARC
  5
1DAB
330
1ADF
100
AcDbEntity
  8
1
  6
Continuous
100
AcDbCircle
 10
435.7784309999996
 20
254.9025639999999
 30
0.0
 40
200.0
100
AcDbArc
 50
355.426945
 51
0.0
  0
ARC
  5
1DAC
330
1ADF
100
AcDbEntity
  8
1
  6
Continuous
100
AcDbCircle
 10
616.778431
 20
254.5810719999999
 30
0.0
 40
6.0
100
AcDbArc
 50
0.0
 51
84.559668
  0
LINE
  5
1DAD
330
1ADF
100
AcDbEntity
  8
1
  6
Continuous
100
AcDbLine
 10
636.7784309999998
 20
261.4025639999999
 30
0.0
 11
636.2784309999998
 21
260.902564
 31
0.0
  0
LINE
  5
1DAE
330
1ADF
100
AcDbEntity
  8
1
  6
Continuous
100
AcDbLine
 10
636.2784309999998
 20
260.902564
 30
0.0
 11
636.7784309999998
 21
260.4025639999999
 31
0.0
  0
LINE
  5
1DAF
330
1ADF
100
AcDbEntity
  8
1
  6
Continuous
100
AcDbLine
 10
636.7784309999998
 20
258.4025639999999
 30
0.0
 11
636.2784309999998
 21
257.9025639999999
 31
0.0
  0
LINE
  5
1DB0
330
1ADF
100
AcDbEntity
  8
1
  6
Continuous
100
AcDbLine
 10
634.8075549999999
 20
254.9025639999999
 30
0.0
 11
636.2784309999998
 21
254.9025639999999
 31
0.0
  0
LINE
  5
1DB1
330
1ADF
100
AcDbEntity
  8
1
  6
Continuous
100
AcDbLine
 10
636.2784309999998
 20
259.9025639999999
 30
0.0
 11
636.7784309999998
 21
259.4025639999999
 31
0.0
  0
LINE
  5
1DB2
330
1ADF
100
AcDbEntity
  8
1
  6
Continuous
100
AcDbLine
 10
636.7784309999998
 20
259.4025639999999
 30
0.0
 11
636.2784309999998
 21
258.902564
 31
0.0
  0
LINE
  5
1DB3
330
1ADF
100
AcDbEntity
  8
1
  6
Continuous
100
AcDbLine
 10
636.2784309999998
 20
258.902564
 30
0.0
 11
636.7784309999998
 21
258.4025639999999
 31
0.0
  0
LINE
  5
1DB4
330
1ADF
100
AcDbEntity
  8
1
  6
Continuous
100
AcDbLine
 10
636.7784309999998
 20
260.4025639999999
 30
0.0
 11
636.2784309999998
 21
259.9025639999999
 31
0.0
  0
LINE
  5
1DB5
330
1ADF
100
AcDbEntity
  8
1
  6
Continuous
100
AcDbLine
 10
636.7784309999998
 20
263.4025639999999
 30
0.0
 11
636.2784309999998
 21
262.902564
 31
0.0
  0
LINE
  5
1DB6
330
1ADF
100
AcDbEntity
  8
1
  6
Continuous
100
AcDbLine
 10
636.2784309999998
 20
262.902564
 30
0.0
 11
636.7784309999998
 21
262.4025639999999
 31
0.0
  0
LINE
  5
1DB7
330
1ADF
100
AcDbEntity
  8
1
  6
Continuous
100
AcDbLine
 10
636.7784309999998
 20
262.4025639999999
 30
0.0
 11
636.2784309999998
 21
261.9025639999999
 31
0.0
  0
LINE
  5
1DB8
330
1ADF
100
AcDbEntity
  8
1
  6
Continuous
100
AcDbLine
 10
636.2784309999998
 20
261.9025639999999
 30
0.0
 11
636.7784309999998
 21
261.4025639999999
 31
0.0
  0
LINE
  5
1DB9
330
1ADF
100
AcDbEntity
  8
1
  6
Continuous
100
AcDbLine
 10
636.2784309999998
 20
268.902564
 30
0.0
 11
636.7784309999998
 21
268.4025639999999
 31
0.0
  0
LINE
  5
1DBA
330
1ADF
100
AcDbEntity
  8
1
  6
Continuous
100
AcDbLine
 10
636.7784309999998
 20
268.4025639999999
 30
0.0
 11
636.2784309999998
 21
267.9025639999999
 31
0.0
  0
LINE
  5
1DBB
330
1ADF
100
AcDbEntity
  8
1
  6
Continuous
100
AcDbLine
 10
636.2784309999998
 20
267.9025639999999
 30
0.0
 11
636.7784309999998
 21
267.4025639999999
 31
0.0
  0
LINE
  5
1DBC
330
1ADF
100
AcDbEntity
  8
1
  6
Continuous
100
AcDbLine
 10
636.7784309999998
 20
267.4025639999999
 30
0.0
 11
636.2784309999998
 21
266.902564
 31
0.0
  0
LINE
  5
1DBD
330
1ADF
100
AcDbEntity
  8
1
  6
Continuous
100
AcDbLine
 10
636.2784309999998
 20
266.902564
 30
0.0
 11
636.7784309999998
 21
266.4025639999999
 31
0.0
  0
LINE
  5
1DBE
330
1ADF
100
AcDbEntity
  8
1
  6
Continuous
100
AcDbLine
 10
636.7784309999998
 20
266.4025639999999
 30
0.0
 11
636.2784309999998
 21
265.9025639999999
 31
0.0
  0
LINE
  5
1DBF
330
1ADF
100
AcDbEntity
  8
1
  6
Continuous
100
AcDbLine
 10
636.2784309999998
 20
265.9025639999999
 30
0.0
 11
636.7784309999998
 21
265.4025639999999
 31
0.0
  0
LINE
  5
1DC0
330
1ADF
100
AcDbEntity
  8
1
  6
Continuous
100
AcDbLine
 10
636.7784309999998
 20
265.4025639999999
 30
0.0
 11
636.2784309999998
 21
264.902564
 31
0.0
  0
LINE
  5
1DC1
330
1ADF
100
AcDbEntity
  8
1
  6
Continuous
100
AcDbLine
 10
636.2784309999998
 20
264.902564
 30
0.0
 11
636.7784309999998
 21
264.4025639999999
 31
0.0
  0
LINE
  5
1DC2
330
1ADF
100
AcDbEntity
  8
1
  6
Continuous
100
AcDbLine
 10
636.7784309999998
 20
264.4025639999999
 30
0.0
 11
636.2784309999998
 21
263.9025639999999
 31
0.0
  0
LINE
  5
1DC3
330
1ADF
100
AcDbEntity
  8
1
  6
Continuous
100
AcDbLine
 10
636.2784309999998
 20
263.9025639999999
 30
0.0
 11
636.7784309999998
 21
263.4025639999999
 31
0.0
  0
LINE
  5
1DC4
330
1ADF
100
AcDbEntity
  8
1
  6
Continuous
100
AcDbLine
 10
636.2784309999998
 20
269.9025639999999
 30
0.0
 11
636.7784309999998
 21
269.4025639999999
 31
0.0
  0
LINE
  5
1DC5
330
1ADF
100
AcDbEntity
  8
1
  6
Continuous
100
AcDbLine
 10
636.7784309999998
 20
269.4025639999999
 30
0.0
 11
636.2784309999998
 21
268.902564
 31
0.0
  0
LINE
  5
1DC6
330
1ADF
100
AcDbEntity
  8
1
  6
Continuous
100
AcDbLine
 10
570.1784309999998
 20
261.9025639999999
 30
0.0
 11
577.6784309999998
 21
261.9025639999999
 31
0.0
  0
LINE
  5
1DC7
330
1ADF
100
AcDbEntity
  8
1
  6
Continuous
100
AcDbLine
 10
604.098922
 20
257.760515
 30
0.0
 11
595.760395
 21
248.5595149999999
 31
0.0
  0
LINE
  5
1DC8
330
1ADF
100
AcDbEntity
  8
1
  6
Continuous
100
AcDbLine
 10
594.2784309999998
 20
247.902564
 30
0.0
 11
592.7784309999998
 21
247.902564
 31
0.0
  0
LINE
  5
1DC9
330
1ADF
100
AcDbEntity
  8
1
  6
Continuous
100
AcDbLine
 10
591.778431
 20
247.902564
 30
0.0
 11
592.7784309999998
 21
247.902564
 31
0.0
  0
ARC
  5
1DCA
330
1ADF
100
AcDbEntity
  8
1
  6
Continuous
100
AcDbCircle
 10
594.2784309999998
 20
249.902564
 30
0.0
 40
2.0
100
AcDbArc
 50
270.0
 51
317.644685
  0
ARC
  5
1DCB
330
1ADF
100
AcDbEntity
  8
1
  6
Continuous
100
AcDbCircle
 10
594.2784309999998
 20
249.902564
 30
0.0
 40
2.0
100
AcDbArc
 50
317.644685
 51
0.0
  0
LINE
  5
1DCC
330
1ADF
100
AcDbEntity
  8
1
  6
Continuous
100
AcDbLine
 10
577.9284309999998
 20
262.1525639999999
 30
0.0
 11
591.778431
 21
262.1525639999999
 31
0.0
  0
LINE
  5
1DCD
330
1ADF
100
AcDbEntity
  8
1
  6
Continuous
100
AcDbLine
 10
590.2784309999998
 20
256.9025639999999
 30
0.0
 11
591.778431
 21
256.9025639999999
 31
0.0
  0
LINE
  5
1DCE
330
1ADF
100
AcDbEntity
  8
1
  6
Continuous
100
AcDbLine
 10
590.2784309999998
 20
252.402564
 30
0.0
 11
591.778431
 21
252.402564
 31
0.0
  0
LINE
  5
1DCF
330
1ADF
100
AcDbEntity
  8
1
  6
Continuous
100
AcDbLine
 10
604.147921
 20
261.6716999999998
 30
0.0
 11
600.618106
 21
258.236891
 31
0.0
  0
LINE
  5
1DD0
330
1ADF
100
AcDbEntity
  8
1
  6
Continuous
100
AcDbLine
 10
599.9729369999998
 20
257.6090869999998
 30
0.0
 11
597.2784309999998
 21
254.9871049999999
 31
0.0
  0
ARC
  5
1DD1
330
1ADF
100
AcDbEntity
  8
1
  6
Continuous
100
AcDbCircle
 10
603.728431
 20
258.0962769999998
 30
0.0
 40
0.5
100
AcDbArc
 50
317.8151449999999
 51
0.0
  0
LINE
  5
1DD2
330
1ADF
100
AcDbEntity
  8
1
  6
Continuous
100
AcDbLine
 10
604.278431
 20
262.902564
 30
0.0
 11
604.228431
 21
262.902564
 31
0.0
  0
LINE
  5
1DD3
330
1ADF
100
AcDbEntity
  8
1
  6
Continuous
100
AcDbLine
 10
590.2784309999998
 20
252.402564
 30
0.0
 11
590.2784309999998
 21
256.9025639999999
 31
0.0
  0
LINE
  5
1DD4
330
1ADF
100
AcDbEntity
  8
1
  6
Continuous
100
AcDbLine
 10
577.9284309999998
 20
262.1525639999999
 30
0.0
 11
577.6784309999998
 21
262.4025639999999
 31
0.0
  0
LINE
  5
1DD5
330
1ADF
100
AcDbEntity
  8
1
  6
Continuous
100
AcDbLine
 10
567.1784309999998
 20
267.302564
 30
0.0
 11
568.478431
 21
267.302564
 31
0.0
  0
LINE
  5
1DD6
330
1ADF
100
AcDbEntity
  8
1
  6
Continuous
100
AcDbLine
 10
567.1784309999998
 20
271.9025649999999
 30
0.0
 11
568.478431
 21
273.202565
 31
0.0
  0
ARC
  5
1DD7
330
1ADF
100
AcDbEntity
  8
1
  6
Continuous
100
AcDbCircle
 10
570.1784309999998
 20
262.4025639999999
 30
0.0
 40
0.5
100
AcDbArc
 50
180.0
 51
270.0
  0
LINE
  5
1DD8
330
1ADF
100
AcDbEntity
  8
1
  6
Continuous
100
AcDbLine
 10
568.478431
 20
263.9025639999999
 30
0.0
 11
569.6784309999998
 21
263.9025639999999
 31
0.0
  0
LINE
  5
1DD9
330
1ADF
100
AcDbEntity
  8
1
  6
Continuous
100
AcDbLine
 10
563.6784309999998
 20
267.9030639999999
 30
0.0
 11
564.0358110000001
 21
267.2840639999999
 31
0.0
  0
ARC
  5
1DDA
330
1ADF
100
AcDbEntity
  8
1
  6
Continuous
100
AcDbCircle
 10
565.7235169999998
 20
268.4390639999999
 30
0.0
 40
2.045087
100
AcDbArc
 50
145.613799
 51
205.613799
  0
ARC
  5
1DDB
330
1ADF
100
AcDbEntity
  8
1
  6
Continuous
100
AcDbCircle
 10
565.1333440000001
 20
268.4390639999999
 30
0.0
 40
2.045087
100
AcDbArc
 50
334.3862009999999
 51
34.386201
  0
LINE
  5
1DDC
330
1ADF
100
AcDbEntity
  8
1
  6
Continuous
100
AcDbLine
 10
567.1784309999998
 20
267.9030639999999
 30
0.0
 11
566.821051
 21
267.2840639999999
 31
0.0
  0
LINE
  5
1DDD
330
1ADF
100
AcDbEntity
  8
1
  6
Continuous
100
AcDbLine
 10
566.821051
 20
269.593064
 30
0.0
 11
564.0358110000001
 21
269.593064
 31
0.0
  0
LINE
  5
1DDE
330
1ADF
100
AcDbEntity
  8
1
  6
Continuous
100
AcDbLine
 10
566.821051
 20
267.2840639999999
 30
0.0
 11
564.0358110000001
 21
267.2840639999999
 31
0.0
  0
LINE
  5
1DDF
330
1ADF
100
AcDbEntity
  8
1
  6
Continuous
100
AcDbLine
 10
623.6081370000001
 20
284.980232
 30
0.0
 11
604.863977
 21
282.096515
 31
0.0
  0
LINE
  5
1DE0
330
1ADF
100
AcDbEntity
  8
1
  6
Continuous
100
AcDbLine
 10
623.022591
 20
288.7862809999999
 30
0.0
 11
604.278431
 21
285.902564
 31
0.0
  0
LINE
  5
1DE1
330
1ADF
100
AcDbEntity
  8
1
  6
Continuous
100
AcDbLine
 10
635.2784309999998
 20
288.9025639999999
 30
0.0
 11
624.5431630000001
 21
288.9025639999999
 31
0.0
  0
LINE
  5
1DE2
330
1ADF
100
AcDbEntity
  8
1
  6
Continuous
100
AcDbLine
 10
633.4619039999997
 20
285.051737
 30
0.0
 11
624.5431630000001
 21
285.051737
 31
0.0
  0
ARC
  5
1DE3
330
1ADF
100
AcDbEntity
  8
1
  6
Continuous
100
AcDbCircle
 10
633.4619039999997
 20
284.051737
 30
0.0
 40
1.0
100
AcDbArc
 50
0.0
 51
90.0
  0
LINE
  5
1DE4
330
1ADF
100
AcDbEntity
  8
1
  6
Continuous
100
AcDbLine
 10
635.3157089999997
 20
286.360372
 30
0.0
 11
635.809931
 21
288.071198
 31
0.0
  0
LINE
  5
1DE5
330
1ADF
100
AcDbEntity
  8
1
  6
Continuous
100
AcDbLine
 10
634.8075549999999
 20
286.360372
 30
0.0
 11
634.319103
 21
285.2301839999999
 31
0.0
  0
LINE
  5
1DE6
330
1ADF
100
AcDbEntity
  8
1
  6
Continuous
100
AcDbLine
 10
635.3157089999997
 20
286.360372
 30
0.0
 11
634.8075549999999
 21
286.360372
 31
0.0
  0
ARC
  5
1DE7
330
1ADF
100
AcDbEntity
  8
1
  6
Continuous
100
AcDbCircle
 10
635.2784309999998
 20
287.902564
 30
0.0
 40
1.0
100
AcDbArc
 50
0.0
 51
90.0
  0
ARC
  5
1DE8
330
1ADF
100
AcDbEntity
  8
1
  6
Continuous
100
AcDbCircle
 10
624.5431630000001
 20
278.9025639999999
 30
0.0
 40
6.149172
100
AcDbArc
 50
90.0
 51
98.746162
  0
ARC
  5
1DE9
330
1ADF
100
AcDbEntity
  8
1
  6
Continuous
100
AcDbCircle
 10
624.5431630000001
 20
278.9025639999999
 30
0.0
 40
10.0
100
AcDbArc
 50
90.0
 51
98.746162
  0
LINE
  5
1DEA
330
1ADF
100
AcDbEntity
  8
1
  6
Continuous
100
AcDbLine
 10
570.1784309999998
 20
281.9025639999999
 30
0.0
 11
577.6784309999998
 21
281.9025639999999
 31
0.0
  0
LINE
  5
1DEB
330
1ADF
100
AcDbEntity
  8
1
  6
Continuous
100
AcDbLine
 10
595.760395
 20
295.2456139999998
 30
0.0
 11
604.098922
 21
286.044614
 31
0.0
  0
LINE
  5
1DEC
330
1ADF
100
AcDbEntity
  8
1
  6
Continuous
100
AcDbLine
 10
590.2784309999998
 20
286.9025639999999
 30
0.0
 11
591.778431
 21
286.9025639999999
 31
0.0
  0
LINE
  5
1DED
330
1ADF
100
AcDbEntity
  8
1
  6
Continuous
100
AcDbLine
 10
590.2784309999998
 20
291.4025639999999
 30
0.0
 11
591.778431
 21
291.4025639999999
 31
0.0
  0
LINE
  5
1DEE
330
1ADF
100
AcDbEntity
  8
1
  6
Continuous
100
AcDbLine
 10
577.9284309999998
 20
281.652564
 30
0.0
 11
591.778431
 21
281.652564
 31
0.0
  0
LINE
  5
1DEF
330
1ADF
100
AcDbEntity
  8
1
  6
Continuous
100
AcDbLine
 10
600.618106
 20
285.568237
 30
0.0
 11
604.147921
 21
282.1334279999998
 31
0.0
  0
LINE
  5
1DF0
330
1ADF
100
AcDbEntity
  8
1
  6
Continuous
100
AcDbLine
 10
597.2784309999998
 20
288.8180229999999
 30
0.0
 11
599.9729369999998
 21
286.196041
 31
0.0
  0
ARC
  5
1DF1
330
1ADF
100
AcDbEntity
  8
1
  6
Continuous
100
AcDbCircle
 10
603.728431
 20
285.708851
 30
0.0
 40
0.5
100
AcDbArc
 50
0.0
 51
42.18485499999998
  0
LINE
  5
1DF2
330
1ADF
100
AcDbEntity
  8
1
  6
Continuous
100
AcDbLine
 10
604.228431
 20
283.4025639999999
 30
0.0
 11
604.278431
 21
283.4025639999999
 31
0.0
  0
LINE
  5
1DF3
330
1ADF
100
AcDbEntity
  8
1
  6
Continuous
100
AcDbLine
 10
577.6784309999998
 20
281.402564
 30
0.0
 11
577.9284309999998
 21
281.652564
 31
0.0
  0
LINE
  5
1DF4
330
1ADF
100
AcDbEntity
  8
1
  6
Continuous
100
AcDbLine
 10
590.2784309999998
 20
291.4025639999999
 30
0.0
 11
590.2784309999998
 21
286.9025639999999
 31
0.0
  0
ARC
  5
1DF5
330
1ADF
100
AcDbEntity
  8
1
  6
Continuous
100
AcDbCircle
 10
594.2784309999998
 20
293.902564
 30
0.0
 40
2.0
100
AcDbArc
 50
0.0
 51
42.35531499999999
  0
LINE
  5
1DF6
330
1ADF
100
AcDbEntity
  8
1
  6
Continuous
100
AcDbLine
 10
594.2784309999998
 20
295.9025639999999
 30
0.0
 11
592.7784309999998
 21
295.9025639999999
 31
0.0
  0
LINE
  5
1DF7
330
1ADF
100
AcDbEntity
  8
1
  6
Continuous
100
AcDbLine
 10
591.778431
 20
295.9025639999999
 30
0.0
 11
592.7784309999998
 21
295.9025639999999
 31
0.0
  0
ARC
  5
1DF8
330
1ADF
100
AcDbEntity
  8
1
  6
Continuous
100
AcDbCircle
 10
594.2784309999998
 20
293.902564
 30
0.0
 40
2.0
100
AcDbArc
 50
42.35531499999999
 51
90.0
  0
LINE
  5
1DF9
330
1ADF
100
AcDbEntity
  8
1
  6
Continuous
100
AcDbLine
 10
567.1784309999998
 20
276.502564
 30
0.0
 11
568.478431
 21
276.502564
 31
0.0
  0
ARC
  5
1DFA
330
1ADF
100
AcDbEntity
  8
1
  6
Continuous
100
AcDbCircle
 10
570.1784309999998
 20
281.402564
 30
0.0
 40
0.5
100
AcDbArc
 50
90.0
 51
180.0
  0
LINE
  5
1DFB
330
1ADF
100
AcDbEntity
  8
1
  6
Continuous
100
AcDbLine
 10
568.478431
 20
279.9025639999999
 30
0.0
 11
569.6784309999998
 21
279.9025639999999
 31
0.0
  0
LINE
  5
1DFC
330
1ADF
100
AcDbEntity
  8
1
  6
Continuous
100
AcDbLine
 10
563.6784309999998
 20
275.9030639999999
 30
0.0
 11
564.0358110000001
 21
276.5220639999999
 31
0.0
  0
ARC
  5
1DFD
330
1ADF
100
AcDbEntity
  8
1
  6
Continuous
100
AcDbCircle
 10
565.7235169999998
 20
275.367064
 30
0.0
 40
2.045087
100
AcDbArc
 50
154.3862009999998
 51
214.3862009999998
  0
LINE
  5
1DFE
330
1ADF
100
AcDbEntity
  8
1
  6
Continuous
100
AcDbLine
 10
567.1784309999998
 20
275.9030639999999
 30
0.0
 11
566.821051
 21
276.5220639999999
 31
0.0
  0
ARC
  5
1DFF
330
1ADF
100
AcDbEntity
  8
1
  6
Continuous
100
AcDbCircle
 10
565.1333440000001
 20
275.367064
 30
0.0
 40
2.045087
100
AcDbArc
 50
325.6137989999999
 51
25.61379899999999
  0
LINE
  5
1E00
330
1ADF
100
AcDbEntity
  8
1
  6
Continuous
100
AcDbLine
 10
566.821051
 20
276.5220639999999
 30
0.0
 11
564.0358110000001
 21
276.5220639999999
 31
0.0
  0
LINE
  5
1E01
330
1ADF
100
AcDbEntity
  8
1
  6
Continuous
100
AcDbLine
 10
566.821051
 20
274.2120639999999
 30
0.0
 11
564.0358110000001
 21
274.2120639999999
 31
0.0
  0
LINE
  5
1E02
330
1ADF
100
AcDbEntity
  8
1
  6
Continuous
100
AcDbLine
 10
278.3094840000084
 20
424.708251087418
 30
0.0
 11
277.6094840000593
 21
424.1627008346896
 31
0.0
  0
LINE
  5
1E03
330
1ADF
100
AcDbEntity
  8
1
  6
Continuous
100
AcDbLine
 10
277.6094840000607
 20
429.4699709999993
 30
0.0
 11
277.6094840000582
 21
400.4699709999988
 31
0.0
  0
LINE
  5
1E04
330
1ADF
100
AcDbEntity
  8
1
  6
Continuous
100
AcDbLine
 10
276.2094839999929
 20
429.4699710000015
 30
0.0
 11
276.2094839999836
 21
400.4699710000011
 31
0.0
  0
LINE
  5
1E05
330
1ADF
100
AcDbEntity
  8
1
  6
Continuous
100
AcDbLine
 10
275.5094839999744
 20
403.1183512565251
 30
0.0
 11
275.8523074577615
 21
403.2327859228541
 31
0.0
  0
ARC
  5
1E06
330
1ADF
100
AcDbEntity
  8
1
  6
Continuous
100
AcDbCircle
 10
270.849542583846
 20
400.4699710000093
 30
0.0
 40
5.359941416177306
100
AcDbArc
 50
359.9999999999102
 51
29.6108290548139
  0
LINE
  5
1E07
330
1ADF
100
AcDbEntity
  8
1
  6
Continuous
100
AcDbLine
 10
277.6094840000582
 20
400.4699709999988
 30
0.0
 11
276.2094839999836
 21
400.4699710000011
 31
0.0
  0
ARC
  5
1E08
330
1ADF
100
AcDbEntity
  8
1
  6
Continuous
100
AcDbCircle
 10
253.0649290277855
 20
410.3719181259018
 30
0.0
 40
23.14455497217013
100
AcDbArc
 50
0.0
 51
14.12742288753736
  0
ARC
  5
1E09
330
1ADF
100
AcDbEntity
  8
1
  6
Continuous
100
AcDbCircle
 10
278.6410671146359
 20
412.9420836399533
 30
0.0
 40
1.031583114680584
100
AcDbArc
 50
108.7495067078217
 51
180.0
  0
ARC
  5
1E0A
330
1ADF
100
AcDbEntity
  8
1
  6
Continuous
100
AcDbCircle
 10
263.3959850117304
 20
405.7772176606627
 30
0.0
 40
12.81349898822509
100
AcDbArc
 50
0.0
 51
19.02611019247348
  0
ARC
  5
1E0B
330
1ADF
100
AcDbEntity
  8
1
  6
Continuous
100
AcDbCircle
 10
273.8832796825024
 20
403.5683550942056
 30
0.0
 40
2.32620431752562
100
AcDbArc
 50
353.1575250995761
 51
45.64671286910765
  0
LINE
  5
1E0C
330
1ADF
100
AcDbEntity
  8
1
  6
Continuous
100
AcDbLine
 10
275.5094840000086
 20
405.2316911935346
 30
0.0
 11
276.2094839999853
 21
405.7772176606857
 31
0.0
  0
LINE
  5
1E0D
330
1ADF
100
AcDbEntity
  8
1
  6
Continuous
100
AcDbLine
 10
275.8523074577616
 20
403.2327859228541
 30
0.0
 11
276.2094839999846
 21
403.294053021194
 31
0.0
  0
LINE
  5
1E0E
330
1ADF
100
AcDbEntity
  8
1
  6
Continuous
100
AcDbLine
 10
275.5094840000058
 20
409.9544055403606
 30
0.0
 11
276.209483999987
 21
410.3719181259207
 31
0.0
  0
ARC
  5
1E0F
330
1ADF
100
AcDbEntity
  8
1
  6
Continuous
100
AcDbCircle
 10
279.6268656217012
 20
407.0560724228855
 30
0.0
 40
2.017381621745911
100
AcDbArc
 50
130.7693511336351
 51
180.0
  0
LINE
  5
1E10
330
1ADF
100
AcDbEntity
  8
1
  6
Continuous
100
AcDbLine
 10
278.3094840000084
 20
404.9600566570732
 30
0.0
 11
277.6094840000587
 21
405.2685402209247
 31
0.0
  0
LINE
  5
1E11
330
1ADF
100
AcDbEntity
  8
1
  6
Continuous
100
AcDbLine
 10
278.3094840000084
 20
404.9600566570732
 30
0.0
 11
277.6094840000586
 21
404.414506404344
 31
0.0
  0
LINE
  5
1E12
330
1ADF
100
AcDbEntity
  8
1
  6
Continuous
100
AcDbLine
 10
278.3094840000048
 20
408.5839252530282
 30
0.0
 11
277.609484000059
 21
409.3692926531383
 31
0.0
  0
ARC
  5
1E13
330
1ADF
100
AcDbEntity
  8
1
  6
Continuous
100
AcDbCircle
 10
275.1779008853931
 20
416.9978583600437
 30
0.0
 40
1.031583114680584
100
AcDbArc
 50
288.7495067079116
 51
0.0000000000898481
  0
ARC
  5
1E14
330
1ADF
100
AcDbEntity
  8
1
  6
Continuous
100
AcDbCircle
 10
274.1921023783187
 20
422.8838695771099
 30
0.0
 40
2.017381621745911
100
AcDbArc
 50
310.769351133725
 51
0.0000000000898481
  0
LINE
  5
1E15
330
1ADF
100
AcDbEntity
  8
1
  6
Continuous
100
AcDbLine
 10
275.5094840000058
 20
421.3560274336002
 30
0.0
 11
276.2094839999878
 21
420.5706578513185
 31
0.0
  0
ARC
  5
1E16
330
1ADF
100
AcDbEntity
  8
1
  6
Continuous
100
AcDbCircle
 10
300.7540389722235
 20
419.5680238740608
 30
0.0
 40
23.14455497217013
100
AcDbArc
 50
179.9999999999102
 51
194.1274228874474
  0
ARC
  5
1E17
330
1ADF
100
AcDbEntity
  8
1
  6
Continuous
100
AcDbCircle
 10
290.4227789534072
 20
424.1627008346091
 30
0.0
 40
12.8132949534517
100
AcDbArc
 50
180.0
 51
199.0262630835801
  0
LINE
  5
1E18
330
1ADF
100
AcDbEntity
  8
1
  6
Continuous
100
AcDbLine
 10
278.3094840000047
 20
419.9855471462676
 30
0.0
 11
277.6094840000591
 21
419.5680192063107
 31
0.0
  0
LINE
  5
1E19
330
1ADF
100
AcDbEntity
  8
1
  6
Continuous
100
AcDbLine
 10
275.5094840000086
 20
424.9798856238798
 30
0.0
 11
276.209483999986
 21
424.6713982498651
 31
0.0
  0
LINE
  5
1E1A
330
1ADF
100
AcDbEntity
  8
1
  6
Continuous
100
AcDbLine
 10
275.5094840000086
 20
424.9798856238798
 30
0.0
 11
276.2094839999873
 21
425.5254120910325
 31
0.0
  0
LINE
  5
1E1B
330
1ADF
100
AcDbEntity
  8
1
  6
Continuous
100
AcDbLine
 10
277.9666605422525
 20
426.7071560771444
 30
0.0
 11
277.609484000059
 21
426.64588897881
 31
0.0
  0
LINE
  5
1E1C
330
1ADF
100
AcDbEntity
  8
1
  6
Continuous
100
AcDbLine
 10
276.2094839999929
 20
429.4699710000015
 30
0.0
 11
277.6094839999929
 21
429.4699709999981
 31
0.0
  0
LINE
  5
1E1D
330
1ADF
100
AcDbEntity
  8
1
  6
Continuous
100
AcDbLine
 10
277.6094840000607
 20
429.4699709999993
 30
0.0
 11
276.2094840000606
 21
429.4699710000005
 31
0.0
  0
ARC
  5
1E1E
330
1ADF
100
AcDbEntity
  8
1
  6
Continuous
100
AcDbCircle
 10
279.9356883174812
 20
426.3715869057987
 30
0.0
 40
2.32620431752562
100
AcDbArc
 50
173.1575250998436
 51
225.6467128691971
  0
LINE
  5
1E1F
330
1ADF
100
AcDbEntity
  8
1
  6
Continuous
100
AcDbLine
 10
278.3094840000395
 20
426.8215907434735
 30
0.0
 11
277.9666605422525
 21
426.7071560771444
 31
0.0
  0
ARC
  5
1E20
330
1ADF
100
AcDbEntity
  8
1
  6
Continuous
100
AcDbCircle
 10
282.9694254161702
 20
429.4699709999856
 30
0.0
 40
5.359941416177306
100
AcDbArc
 50
179.9999999998651
 51
209.6108290547688
  0
ARC
  5
1E21
330
1ADF
100
AcDbEntity
  8
1
  6
Continuous
100
AcDbCircle
 10
300.7540389722235
 20
276.5006168740608
 30
0.0
 40
23.14455497217013
100
AcDbArc
 50
179.9999999999102
 51
194.1274228874474
  0
LINE
  5
1E22
330
1ADF
100
AcDbEntity
  8
1
  6
Continuous
100
AcDbLine
 10
276.2094839999929
 20
286.4025640000016
 30
0.0
 11
276.2094839999836
 21
257.4025640000011
 31
0.0
  0
LINE
  5
1E23
330
1ADF
100
AcDbEntity
  8
1
  6
Continuous
100
AcDbLine
 10
277.6094840000607
 20
286.4025639999994
 30
0.0
 11
277.6094840000582
 21
257.4025639999989
 31
0.0
  0
LINE
  5
1E24
330
1ADF
100
AcDbEntity
  8
1
  6
Continuous
100
AcDbLine
 10
278.3094840000048
 20
265.5165182530283
 30
0.0
 11
277.609484000059
 21
266.3018856531383
 31
0.0
  0
ARC
  5
1E25
330
1ADF
100
AcDbEntity
  8
1
  6
Continuous
100
AcDbCircle
 10
263.3959850117304
 20
262.7098106606627
 30
0.0
 40
12.81349898822509
100
AcDbArc
 50
0.0
 51
19.02611019247348
  0
LINE
  5
1E26
330
1ADF
100
AcDbEntity
  8
1
  6
Continuous
100
AcDbLine
 10
277.6094840000582
 20
257.4025639999989
 30
0.0
 11
276.2094839999836
 21
257.4025640000011
 31
0.0
  0
LINE
  5
1E27
330
1ADF
100
AcDbEntity
  8
1
  6
Continuous
100
AcDbLine
 10
275.8523074577616
 20
260.1653789228544
 30
0.0
 11
276.2094839999846
 21
260.2266460211942
 31
0.0
  0
LINE
  5
1E28
330
1ADF
100
AcDbEntity
  8
1
  6
Continuous
100
AcDbLine
 10
275.5094840000086
 20
262.1642841935348
 30
0.0
 11
276.2094839999853
 21
262.7098106606859
 31
0.0
  0
ARC
  5
1E29
330
1ADF
100
AcDbEntity
  8
1
  6
Continuous
100
AcDbCircle
 10
273.8832796825024
 20
260.5009480942058
 30
0.0
 40
2.32620431752562
100
AcDbArc
 50
353.1575250995761
 51
45.64671286910765
  0
ARC
  5
1E2A
330
1ADF
100
AcDbEntity
  8
1
  6
Continuous
100
AcDbCircle
 10
270.849542583846
 20
257.4025640000094
 30
0.0
 40
5.359941416177306
100
AcDbArc
 50
359.9999999999102
 51
29.6108290548139
  0
LINE
  5
1E2B
330
1ADF
100
AcDbEntity
  8
1
  6
Continuous
100
AcDbLine
 10
275.5094839999744
 20
260.0509442565252
 30
0.0
 11
275.8523074577615
 21
260.1653789228544
 31
0.0
  0
LINE
  5
1E2C
330
1ADF
100
AcDbEntity
  8
1
  6
Continuous
100
AcDbLine
 10
278.3094840000084
 20
261.892649657073
 30
0.0
 11
277.6094840000586
 21
261.3470994043443
 31
0.0
  0
LINE
  5
1E2D
330
1ADF
100
AcDbEntity
  8
1
  6
Continuous
100
AcDbLine
 10
278.3094840000084
 20
261.892649657073
 30
0.0
 11
277.6094840000587
 21
262.2011332209245
 31
0.0
  0
ARC
  5
1E2E
330
1ADF
100
AcDbEntity
  8
1
  6
Continuous
100
AcDbCircle
 10
279.6268656217012
 20
263.9886654228857
 30
0.0
 40
2.017381621745911
100
AcDbArc
 50
130.7693511336351
 51
180.0
  0
ARC
  5
1E2F
330
1ADF
100
AcDbEntity
  8
1
  6
Continuous
100
AcDbCircle
 10
275.1779008853931
 20
273.9304513600437
 30
0.0
 40
1.031583114680584
100
AcDbArc
 50
288.7495067079116
 51
0.0000000000898481
  0
LINE
  5
1E30
330
1ADF
100
AcDbEntity
  8
1
  6
Continuous
100
AcDbLine
 10
275.5094840000058
 20
266.8869985403608
 30
0.0
 11
276.209483999987
 21
267.3045111259209
 31
0.0
  0
ARC
  5
1E31
330
1ADF
100
AcDbEntity
  8
1
  6
Continuous
100
AcDbCircle
 10
253.0649290277855
 20
267.3045111259019
 30
0.0
 40
23.14455497217013
100
AcDbArc
 50
0.0
 51
14.12742288753736
  0
ARC
  5
1E32
330
1ADF
100
AcDbEntity
  8
1
  6
Continuous
100
AcDbCircle
 10
278.6410671146359
 20
269.8746766399533
 30
0.0
 40
1.031583114680584
100
AcDbArc
 50
108.7495067078217
 51
180.0
  0
ARC
  5
1E33
330
1ADF
100
AcDbEntity
  8
1
  6
Continuous
100
AcDbCircle
 10
282.9694254161702
 20
286.4025639999857
 30
0.0
 40
5.359941416177306
100
AcDbArc
 50
179.9999999998651
 51
209.6108290547688
  0
LINE
  5
1E34
330
1ADF
100
AcDbEntity
  8
1
  6
Continuous
100
AcDbLine
 10
275.5094840000086
 20
281.9124786238796
 30
0.0
 11
276.2094839999873
 21
282.4580050910323
 31
0.0
  0
LINE
  5
1E35
330
1ADF
100
AcDbEntity
  8
1
  6
Continuous
100
AcDbLine
 10
275.5094840000086
 20
281.9124786238796
 30
0.0
 11
276.209483999986
 21
281.6039912498654
 31
0.0
  0
LINE
  5
1E36
330
1ADF
100
AcDbEntity
  8
1
  6
Continuous
100
AcDbLine
 10
275.5094840000058
 20
278.2886204336002
 30
0.0
 11
276.2094839999878
 21
277.5032508513187
 31
0.0
  0
ARC
  5
1E37
330
1ADF
100
AcDbEntity
  8
1
  6
Continuous
100
AcDbCircle
 10
274.1921023783187
 20
279.8164625771099
 30
0.0
 40
2.017381621745911
100
AcDbArc
 50
310.769351133725
 51
0.0000000000898481
  0
LINE
  5
1E38
330
1ADF
100
AcDbEntity
  8
1
  6
Continuous
100
AcDbLine
 10
278.3094840000395
 20
283.7541837434736
 30
0.0
 11
277.9666605422525
 21
283.6397490771446
 31
0.0
  0
ARC
  5
1E39
330
1ADF
100
AcDbEntity
  8
1
  6
Continuous
100
AcDbCircle
 10
279.9356883174812
 20
283.3041799057987
 30
0.0
 40
2.32620431752562
100
AcDbArc
 50
173.1575250998436
 51
225.6467128691971
  0
LINE
  5
1E3A
330
1ADF
100
AcDbEntity
  8
1
  6
Continuous
100
AcDbLine
 10
277.9666605422525
 20
283.6397490771446
 30
0.0
 11
277.609484000059
 21
283.5784819788102
 31
0.0
  0
LINE
  5
1E3B
330
1ADF
100
AcDbEntity
  8
1
  6
Continuous
100
AcDbLine
 10
278.3094840000047
 20
276.9181401462677
 30
0.0
 11
277.6094840000591
 21
276.5006122063105
 31
0.0
  0
ARC
  5
1E3C
330
1ADF
100
AcDbEntity
  8
1
  6
Continuous
100
AcDbCircle
 10
290.4227789534072
 20
281.095293834609
 30
0.0
 40
12.8132949534517
100
AcDbArc
 50
180.0
 51
199.0262630835801
  0
LINE
  5
1E3D
330
1ADF
100
AcDbEntity
  8
1
  6
Continuous
100
AcDbLine
 10
278.3094840000084
 20
281.6408440874183
 30
0.0
 11
277.6094840000593
 21
281.0952938346898
 31
0.0
  0
LINE
  5
1E3E
330
1ADF
100
AcDbEntity
  8
1
  6
Continuous
100
AcDbLine
 10
277.6094840000607
 20
286.4025639999994
 30
0.0
 11
276.2094840000606
 21
286.4025640000006
 31
0.0
  0
LINE
  5
1E3F
330
1ADF
100
AcDbEntity
  8
1
  6
Continuous
100
AcDbLine
 10
276.2094839999929
 20
286.4025640000016
 30
0.0
 11
277.6094839999929
 21
286.4025639999982
 31
0.0
  0
ARC
  5
1E40
330
1ADF
100
AcDbEntity
  8
1
  6
Continuous
100
AcDbCircle
 10
253.0649290277855
 20
58.03641512590189
 30
0.0
 40
23.14455497217013
100
AcDbArc
 50
0.0
 51
14.12742288753736
  0
LINE
  5
1E41
330
1ADF
100
AcDbEntity
  8
1
  6
Continuous
100
AcDbLine
 10
277.6094840000607
 20
77.13446799999946
 30
0.0
 11
277.6094840000582
 21
48.13446799999894
 31
0.0
  0
LINE
  5
1E42
330
1ADF
100
AcDbEntity
  8
1
  6
Continuous
100
AcDbLine
 10
276.2094839999929
 20
77.13446800000162
 30
0.0
 11
276.2094839999836
 21
48.13446800000117
 31
0.0
  0
ARC
  5
1E43
330
1ADF
100
AcDbEntity
  8
1
  6
Continuous
100
AcDbCircle
 10
273.8832796825024
 20
51.23285209420595
 30
0.0
 40
2.32620431752562
100
AcDbArc
 50
353.1575250995761
 51
45.64671286910765
  0
LINE
  5
1E44
330
1ADF
100
AcDbEntity
  8
1
  6
Continuous
100
AcDbLine
 10
277.6094840000582
 20
48.13446799999894
 30
0.0
 11
276.2094839999836
 21
48.13446800000117
 31
0.0
  0
LINE
  5
1E45
330
1ADF
100
AcDbEntity
  8
1
  6
Continuous
100
AcDbLine
 10
275.5094839999744
 20
50.7828482565252
 30
0.0
 11
275.8523074577615
 21
50.89728292285446
 31
0.0
  0
ARC
  5
1E46
330
1ADF
100
AcDbEntity
  8
1
  6
Continuous
100
AcDbCircle
 10
270.849542583846
 20
48.13446800000946
 30
0.0
 40
5.359941416177306
100
AcDbArc
 50
359.9999999999102
 51
29.6108290548139
  0
LINE
  5
1E47
330
1ADF
100
AcDbEntity
  8
1
  6
Continuous
100
AcDbLine
 10
275.8523074577616
 20
50.8972829228545
 30
0.0
 11
276.2094839999846
 21
50.95855002119424
 31
0.0
  0
LINE
  5
1E48
330
1ADF
100
AcDbEntity
  8
1
  6
Continuous
100
AcDbLine
 10
275.5094840000058
 20
57.61890254036092
 30
0.0
 11
276.209483999987
 21
58.03641512592083
 31
0.0
  0
LINE
  5
1E49
330
1ADF
100
AcDbEntity
  8
1
  6
Continuous
100
AcDbLine
 10
275.5094840000086
 20
52.89618819353478
 30
0.0
 11
276.2094839999853
 21
53.44171466068599
 31
0.0
  0
ARC
  5
1E4A
330
1ADF
100
AcDbEntity
  8
1
  6
Continuous
100
AcDbCircle
 10
263.3959850117304
 20
53.44171466066274
 30
0.0
 40
12.81349898822509
100
AcDbArc
 50
0.0
 51
19.02611019247348
  0
ARC
  5
1E4B
330
1ADF
100
AcDbEntity
  8
1
  6
Continuous
100
AcDbCircle
 10
279.6268656217012
 20
54.72056942288583
 30
0.0
 40
2.017381621745911
100
AcDbArc
 50
130.7693511336351
 51
180.0
  0
LINE
  5
1E4C
330
1ADF
100
AcDbEntity
  8
1
  6
Continuous
100
AcDbLine
 10
278.3094840000084
 20
52.62455365707324
 30
0.0
 11
277.6094840000587
 21
52.93303722092474
 31
0.0
  0
LINE
  5
1E4D
330
1ADF
100
AcDbEntity
  8
1
  6
Continuous
100
AcDbLine
 10
278.3094840000084
 20
52.62455365707324
 30
0.0
 11
277.6094840000586
 21
52.07900340434429
 31
0.0
  0
LINE
  5
1E4E
330
1ADF
100
AcDbEntity
  8
1
  6
Continuous
100
AcDbLine
 10
278.3094840000048
 20
56.24842225302831
 30
0.0
 11
277.609484000059
 21
57.03378965313834
 31
0.0
  0
ARC
  5
1E4F
330
1ADF
100
AcDbEntity
  8
1
  6
Continuous
100
AcDbCircle
 10
290.4227789534072
 20
71.82719783460914
 30
0.0
 40
12.8132949534517
100
AcDbArc
 50
180.0
 51
199.0262630835801
  0
ARC
  5
1E50
330
1ADF
100
AcDbEntity
  8
1
  6
Continuous
100
AcDbCircle
 10
274.1921023783187
 20
70.54836657710996
 30
0.0
 40
2.017381621745911
100
AcDbArc
 50
310.769351133725
 51
0.0000000000898481
  0
LINE
  5
1E51
330
1ADF
100
AcDbEntity
  8
1
  6
Continuous
100
AcDbLine
 10
275.5094840000058
 20
69.02052443360031
 30
0.0
 11
276.2094839999878
 21
68.23515485131878
 31
0.0
  0
ARC
  5
1E52
330
1ADF
100
AcDbEntity
  8
1
  6
Continuous
100
AcDbCircle
 10
275.1779008853931
 20
64.66235536004393
 30
0.0
 40
1.031583114680584
100
AcDbArc
 50
288.7495067079116
 51
0.0000000000898481
  0
LINE
  5
1E53
330
1ADF
100
AcDbEntity
  8
1
  6
Continuous
100
AcDbLine
 10
278.3094840000047
 20
67.6500441462677
 30
0.0
 11
277.6094840000591
 21
67.2325162063106
 31
0.0
  0
ARC
  5
1E54
330
1ADF
100
AcDbEntity
  8
1
  6
Continuous
100
AcDbCircle
 10
278.6410671146359
 20
60.60658063995339
 30
0.0
 40
1.031583114680584
100
AcDbArc
 50
108.7495067078217
 51
180.0
  0
ARC
  5
1E55
330
1ADF
100
AcDbEntity
  8
1
  6
Continuous
100
AcDbCircle
 10
300.7540389722235
 20
67.23252087406087
 30
0.0
 40
23.14455497217013
100
AcDbArc
 50
179.9999999999102
 51
194.1274228874474
  0
LINE
  5
1E56
330
1ADF
100
AcDbEntity
  8
1
  6
Continuous
100
AcDbLine
 10
276.2094839999929
 20
77.13446800000162
 30
0.0
 11
277.6094839999929
 21
77.13446799999829
 31
0.0
  0
LINE
  5
1E57
330
1ADF
100
AcDbEntity
  8
1
  6
Continuous
100
AcDbLine
 10
277.6094840000607
 20
77.13446799999946
 30
0.0
 11
276.2094840000606
 21
77.1344680000006
 31
0.0
  0
LINE
  5
1E58
330
1ADF
100
AcDbEntity
  8
1
  6
Continuous
100
AcDbLine
 10
275.5094840000086
 20
72.64438262387982
 30
0.0
 11
276.209483999986
 21
72.33589524986553
 31
0.0
  0
LINE
  5
1E59
330
1ADF
100
AcDbEntity
  8
1
  6
Continuous
100
AcDbLine
 10
275.5094840000086
 20
72.64438262387982
 30
0.0
 11
276.2094839999873
 21
73.18990909103253
 31
0.0
  0
LINE
  5
1E5A
330
1ADF
100
AcDbEntity
  8
1
  6
Continuous
100
AcDbLine
 10
278.3094840000084
 20
72.3727480874183
 30
0.0
 11
277.6094840000593
 21
71.82719783468986
 31
0.0
  0
LINE
  5
1E5B
330
1ADF
100
AcDbEntity
  8
1
  6
Continuous
100
AcDbLine
 10
277.9666605422525
 20
74.37165307714467
 30
0.0
 11
277.609484000059
 21
74.31038597881022
 31
0.0
  0
ARC
  5
1E5C
330
1ADF
100
AcDbEntity
  8
1
  6
Continuous
100
AcDbCircle
 10
279.9356883174812
 20
74.03608390579886
 30
0.0
 40
2.32620431752562
100
AcDbArc
 50
173.1575250998436
 51
225.6467128691971
  0
LINE
  5
1E5D
330
1ADF
100
AcDbEntity
  8
1
  6
Continuous
100
AcDbLine
 10
278.3094840000395
 20
74.48608774347373
 30
0.0
 11
277.9666605422525
 21
74.37165307714467
 31
0.0
  0
ARC
  5
1E5E
330
1ADF
100
AcDbEntity
  8
1
  6
Continuous
100
AcDbCircle
 10
282.9694254161702
 20
77.13446799998582
 30
0.0
 40
5.359941416177306
100
AcDbArc
 50
179.9999999998651
 51
209.6108290547688
  0
LINE
  5
1E5F
330
1ADF
100
AcDbEntity
  8
4
  6
CENTER
100
AcDbLine
 10
526.0014579999998
 20
271.9025639999999
 30
0.0
 11
510.5014579999997
 21
271.9025639999999
 31
0.0
  0
LINE
  5
1E60
330
1ADF
100
AcDbEntity
  8
1
  6
Continuous
100
AcDbLine
 10
516.3412029999998
 20
289.223072
 30
0.0
 11
515.0014569999998
 21
286.9025639999999
 31
0.0
  0
ARC
  5
1E61
330
1ADF
100
AcDbEntity
  8
1
  6
Continuous
100
AcDbCircle
 10
557.594014
 20
271.9025639999999
 30
0.0
 40
42.592555
100
AcDbArc
 50
168.268368
 51
191.7316319999999
  0
LINE
  5
1E62
330
1ADF
100
AcDbEntity
  8
1
  6
Continuous
100
AcDbLine
 10
516.3412029999998
 20
254.582056
 30
0.0
 11
515.0014569999998
 21
256.9025639999999
 31
0.0
  0
ARC
  5
1E63
330
1ADF
100
AcDbEntity
  8
1
  6
Continuous
100
AcDbCircle
 10
525.9832449999999
 20
258.912183
 30
0.0
 40
10.98178699999998
100
AcDbArc
 50
156.7776279999999
 51
193.240447
  0
ARC
  5
1E64
330
1ADF
100
AcDbEntity
  8
1
  6
Continuous
100
AcDbCircle
 10
525.9832449999999
 20
284.8929449999999
 30
0.0
 40
10.98178699999998
100
AcDbArc
 50
166.7595529999998
 51
203.222372
  0
ARC
  5
1E65
330
1ADF
100
AcDbEntity
  8
1
  6
Continuous
100
AcDbCircle
 10
545.7460129722143
 20
267.3045111259019
 30
0.0
 40
23.14455497217013
100
AcDbArc
 50
165.8725771124626
 51
180.0
  0
LINE
  5
1E66
330
1ADF
100
AcDbEntity
  8
1
  6
Continuous
100
AcDbLine
 10
521.2014579999388
 20
286.4025639999994
 30
0.0
 11
521.2014579999414
 21
257.4025639999989
 31
0.0
  0
LINE
  5
1E67
330
1ADF
100
AcDbEntity
  8
1
  6
Continuous
100
AcDbLine
 10
522.6014580000071
 20
286.4025640000016
 30
0.0
 11
522.601458000016
 21
257.4025640000011
 31
0.0
  0
ARC
  5
1E68
330
1ADF
100
AcDbEntity
  8
1
  6
Continuous
100
AcDbCircle
 10
476.408903
 20
271.9025639999999
 30
0.0
 40
42.592555
100
AcDbArc
 50
348.268368
 51
11.73163200000002
  0
LINE
  5
1E69
330
1ADF
100
AcDbEntity
  8
1
  6
Continuous
100
AcDbLine
 10
520.5014579999998
 20
285.902564
 30
0.0
 11
520.5014579999998
 21
257.9025639999999
 31
0.0
  0
LINE
  5
1E6A
330
1ADF
100
AcDbEntity
  8
1
  6
Continuous
100
AcDbLine
 10
519.0014579999998
 20
256.9025639999999
 30
0.0
 11
519.0014579999998
 21
286.9025639999999
 31
0.0
  0
ARC
  5
1E6B
330
1ADF
100
AcDbEntity
  8
1
  6
Continuous
100
AcDbCircle
 10
527.9613994161537
 20
257.4025640000094
 30
0.0
 40
5.359941416177306
100
AcDbArc
 50
150.389170945186
 51
180.0000000000897
  0
ARC
  5
1E6C
330
1ADF
100
AcDbEntity
  8
1
  6
Continuous
100
AcDbCircle
 10
508.019671
 20
258.912183
 30
0.0
 40
10.98178699999998
100
AcDbArc
 50
346.759569
 51
23.222372
  0
LINE
  5
1E6D
330
1ADF
100
AcDbEntity
  8
1
  6
Continuous
100
AcDbLine
 10
521.2014579999414
 20
257.4025639999989
 30
0.0
 11
522.601458000016
 21
257.4025640000011
 31
0.0
  0
LINE
  5
1E6E
330
1ADF
100
AcDbEntity
  8
1
  6
Continuous
100
AcDbLine
 10
517.6617119999998
 20
254.582056
 30
0.0
 11
519.0014579999998
 21
256.9025639999999
 31
0.0
  0
LINE
  5
1E6F
330
1ADF
100
AcDbEntity
  8
1
  6
Continuous
100
AcDbLine
 10
516.3412029999998
 20
254.582056
 30
0.0
 11
517.6617129999998
 21
254.582056
 31
0.0
  0
LINE
  5
1E70
330
1ADF
100
AcDbEntity
  8
1
  6
Continuous
100
AcDbLine
 10
520.5014579999998
 20
257.9025639999999
 30
0.0
 11
519.0014579999998
 21
257.9025639999999
 31
0.0
  0
LINE
  5
1E71
330
1ADF
100
AcDbEntity
  8
1
  6
Continuous
100
AcDbLine
 10
523.301457999994
 20
266.8869985403608
 30
0.0
 11
522.6014580000129
 21
267.3045111259209
 31
0.0
  0
LINE
  5
1E72
330
1ADF
100
AcDbEntity
  8
1
  6
Continuous
100
AcDbLine
 10
523.3014580000251
 20
260.0509442565252
 30
0.0
 11
522.9586345422384
 21
260.1653789228544
 31
0.0
  0
ARC
  5
1E73
330
1ADF
100
AcDbEntity
  8
1
  6
Continuous
100
AcDbCircle
 10
524.9276623174973
 20
260.5009480942058
 30
0.0
 40
2.32620431752562
100
AcDbArc
 50
134.3532871308923
 51
186.8424749004238
  0
LINE
  5
1E74
330
1ADF
100
AcDbEntity
  8
1
  6
Continuous
100
AcDbLine
 10
523.301457999991
 20
262.1642841935348
 30
0.0
 11
522.6014580000143
 21
262.7098106606859
 31
0.0
  0
LINE
  5
1E75
330
1ADF
100
AcDbEntity
  8
1
  6
Continuous
100
AcDbLine
 10
522.9586345422383
 20
260.1653789228544
 30
0.0
 11
522.6014580000152
 21
260.2266460211942
 31
0.0
  0
ARC
  5
1E76
330
1ADF
100
AcDbEntity
  8
1
  6
Continuous
100
AcDbCircle
 10
535.4149569882692
 20
262.7098106606627
 30
0.0
 40
12.81349898822509
100
AcDbArc
 50
160.9738898075264
 51
180.0
  0
ARC
  5
1E77
330
1ADF
100
AcDbEntity
  8
1
  6
Continuous
100
AcDbCircle
 10
519.1840763782985
 20
263.9886654228857
 30
0.0
 40
2.017381621745911
100
AcDbArc
 50
0.000000000000007
 51
49.23064886636481
  0
LINE
  5
1E78
330
1ADF
100
AcDbEntity
  8
1
  6
Continuous
100
AcDbLine
 10
520.5014579999914
 20
261.892649657073
 30
0.0
 11
521.2014579999411
 21
262.2011332209245
 31
0.0
  0
LINE
  5
1E79
330
1ADF
100
AcDbEntity
  8
1
  6
Continuous
100
AcDbLine
 10
520.5014579999914
 20
261.892649657073
 30
0.0
 11
521.2014579999411
 21
261.3470994043443
 31
0.0
  0
LINE
  5
1E7A
330
1ADF
100
AcDbEntity
  8
1
  6
Continuous
100
AcDbLine
 10
520.5014579999952
 20
265.5165182530283
 30
0.0
 11
521.2014579999409
 21
266.3018856531383
 31
0.0
  0
LINE
  5
1E7B
330
1ADF
100
AcDbEntity
  8
1
  6
Continuous
100
AcDbLine
 10
515.8911859999998
 20
263.24231
 30
0.0
 11
518.1117299999998
 21
263.24231
 31
0.0
  0
ARC
  5
1E7C
330
1ADF
100
AcDbEntity
  8
1
  6
Continuous
100
AcDbCircle
 10
515.8415165838296
 20
286.4025639999857
 30
0.0
 40
5.359941416177306
100
AcDbArc
 50
330.3891709452312
 51
0.000000000134888
  0
ARC
  5
1E7D
330
1ADF
100
AcDbEntity
  8
1
  6
Continuous
100
AcDbCircle
 10
508.019671
 20
284.8929449999999
 30
0.0
 40
10.98178699999998
100
AcDbArc
 50
336.777628
 51
13.24043099999999
  0
LINE
  5
1E7E
330
1ADF
100
AcDbEntity
  8
1
  6
Continuous
100
AcDbLine
 10
520.5014579999952
 20
276.9181401462677
 30
0.0
 11
521.2014579999405
 21
276.5006122063105
 31
0.0
  0
ARC
  5
1E7F
330
1ADF
100
AcDbEntity
  8
1
  6
Continuous
100
AcDbCircle
 10
523.6330411146067
 20
273.9304513600437
 30
0.0
 40
1.031583114680584
100
AcDbArc
 50
179.99999999991
 51
251.2504932920883
  0
ARC
  5
1E80
330
1ADF
100
AcDbEntity
  8
1
  6
Continuous
100
AcDbCircle
 10
520.1698748853638
 20
269.8746766399533
 30
0.0
 40
1.031583114680584
100
AcDbArc
 50
0.000000000000007
 51
71.25049329217809
  0
ARC
  5
1E81
330
1ADF
100
AcDbEntity
  8
1
  6
Continuous
100
AcDbCircle
 10
498.0569030277764
 20
276.5006168740608
 30
0.0
 40
23.14455497217013
100
AcDbArc
 50
345.8725771125522
 51
0.000000000089775
  0
ARC
  5
1E82
330
1ADF
100
AcDbEntity
  8
1
  6
Continuous
100
AcDbCircle
 10
524.6188396216812
 20
279.8164625771099
 30
0.0
 40
2.017381621745911
100
AcDbArc
 50
179.99999999991
 51
229.2306488662747
  0
LINE
  5
1E83
330
1ADF
100
AcDbEntity
  8
1
  6
Continuous
100
AcDbLine
 10
523.301457999994
 20
278.2886204336002
 30
0.0
 11
522.6014580000122
 21
277.5032508513187
 31
0.0
  0
LINE
  5
1E84
330
1ADF
100
AcDbEntity
  8
1
  6
Continuous
100
AcDbLine
 10
523.301457999991
 20
281.9124786238796
 30
0.0
 11
522.6014580000138
 21
281.6039912498654
 31
0.0
  0
LINE
  5
1E85
330
1ADF
100
AcDbEntity
  8
1
  6
Continuous
100
AcDbLine
 10
523.301457999991
 20
281.9124786238796
 30
0.0
 11
522.6014580000126
 21
282.4580050910323
 31
0.0
  0
LINE
  5
1E86
330
1ADF
100
AcDbEntity
  8
1
  6
Continuous
100
AcDbLine
 10
520.5014579999914
 20
281.6408440874183
 30
0.0
 11
521.2014579999405
 21
281.0952938346898
 31
0.0
  0
ARC
  5
1E87
330
1ADF
100
AcDbEntity
  8
1
  6
Continuous
100
AcDbCircle
 10
508.3881630465923
 20
281.095293834609
 30
0.0
 40
12.8132949534517
100
AcDbArc
 50
340.9737369164199
 51
0.000000000000007
  0
LINE
  5
1E88
330
1ADF
100
AcDbEntity
  8
1
  6
Continuous
100
AcDbLine
 10
520.8442814577473
 20
283.6397490771446
 30
0.0
 11
521.2014579999409
 21
283.5784819788102
 31
0.0
  0
ARC
  5
1E89
330
1ADF
100
AcDbEntity
  8
1
  6
Continuous
100
AcDbCircle
 10
518.8752536825185
 20
283.3041799057987
 30
0.0
 40
2.32620431752562
100
AcDbArc
 50
314.3532871308023
 51
6.842474900156338
  0
LINE
  5
1E8A
330
1ADF
100
AcDbEntity
  8
1
  6
Continuous
100
AcDbLine
 10
520.5014579999604
 20
283.7541837434736
 30
0.0
 11
520.8442814577473
 21
283.6397490771446
 31
0.0
  0
LINE
  5
1E8B
330
1ADF
100
AcDbEntity
  8
1
  6
Continuous
100
AcDbLine
 10
520.5014579999998
 20
285.902564
 30
0.0
 11
519.0014579999998
 21
285.902564
 31
0.0
  0
LINE
  5
1E8C
330
1ADF
100
AcDbEntity
  8
1
  6
Continuous
100
AcDbLine
 10
515.8911859999998
 20
280.5628179999999
 30
0.0
 11
518.1117299999998
 21
280.5628179999999
 31
0.0
  0
LINE
  5
1E8D
330
1ADF
100
AcDbEntity
  8
1
  6
Continuous
100
AcDbLine
 10
522.6014580000071
 20
286.4025640000016
 30
0.0
 11
521.2014580000071
 21
286.4025639999982
 31
0.0
  0
LINE
  5
1E8E
330
1ADF
100
AcDbEntity
  8
1
  6
Continuous
100
AcDbLine
 10
521.2014579999388
 20
286.4025639999994
 30
0.0
 11
522.6014579999389
 21
286.4025640000006
 31
0.0
  0
LINE
  5
1E8F
330
1ADF
100
AcDbEntity
  8
1
  6
Continuous
100
AcDbLine
 10
516.3412029999998
 20
289.223072
 30
0.0
 11
517.6617119999998
 21
289.223072
 31
0.0
  0
LINE
  5
1E90
330
1ADF
100
AcDbEntity
  8
1
  6
Continuous
100
AcDbLine
 10
517.6617119999998
 20
289.223072
 30
0.0
 11
519.0014579999998
 21
286.9025639999999
 31
0.0
  0
LINE
  5
1E91
330
1ADF
100
AcDbEntity
  8
1
  6
Continuous
100
AcDbLine
 10
513.5014579999998
 20
257.9025639999999
 30
0.0
 11
513.5014579999998
 21
285.902564
 31
0.0
  0
LINE
  5
1E92
330
1ADF
100
AcDbEntity
  8
1
  6
Continuous
100
AcDbLine
 10
515.0014579999998
 20
256.902562
 30
0.0
 11
515.0014579999998
 21
286.9025659999999
 31
0.0
  0
LINE
  5
1E93
330
1ADF
100
AcDbEntity
  8
1
  6
Continuous
100
AcDbLine
 10
513.5014579999998
 20
257.9025639999999
 30
0.0
 11
515.0014579999998
 21
257.9025639999999
 31
0.0
  0
LINE
  5
1E94
330
1ADF
100
AcDbEntity
  8
1
  6
Continuous
100
AcDbLine
 10
515.0014579999998
 20
257.9025639999999
 30
0.0
 11
513.5014579999998
 21
257.9025639999999
 31
0.0
  0
LINE
  5
1E95
330
1ADF
100
AcDbEntity
  8
1
  6
Continuous
100
AcDbLine
 10
513.5014579999998
 20
266.172837
 30
0.0
 11
515.0014579999998
 21
266.172837
 31
0.0
  0
LINE
  5
1E96
330
1ADF
100
AcDbEntity
  8
1
  6
Continuous
100
AcDbLine
 10
513.5014579999998
 20
263.704983
 30
0.0
 11
515.0014579999998
 21
263.704983
 31
0.0
  0
LINE
  5
1E97
330
1ADF
100
AcDbEntity
  8
1
  6
Continuous
100
AcDbLine
 10
513.5014579999998
 20
285.902564
 30
0.0
 11
515.0014579999998
 21
285.902564
 31
0.0
  0
LINE
  5
1E98
330
1ADF
100
AcDbEntity
  8
1
  6
Continuous
100
AcDbLine
 10
515.0014579999998
 20
285.902564
 30
0.0
 11
513.5014579999998
 21
285.902564
 31
0.0
  0
LINE
  5
1E99
330
1ADF
100
AcDbEntity
  8
1
  6
Continuous
100
AcDbLine
 10
513.5014579999998
 20
280.100145
 30
0.0
 11
515.0014579999998
 21
280.100145
 31
0.0
  0
LINE
  5
1E9A
330
1ADF
100
AcDbEntity
  8
1
  6
Continuous
100
AcDbLine
 10
513.5014579999998
 20
277.632291
 30
0.0
 11
515.0014579999998
 21
277.632291
 31
0.0
  0
ENDSEC
  0
SECTION
  2
OBJECTS
  0
DICTIONARY
  5
1ACD
330
0
100
AcDbDictionary
281
     1
  3
ACAD_CIP_PREVIOUS_PRODUCT_INFO
350
1EFF
  3
ACAD_COLOR
350
1EE2
  3
ACAD_DETAILVIEWSTYLE
350
1EFB
  3
ACAD_GROUP
350
1ACE
  3
ACAD_LAYOUT
350
1ADA
  3
ACAD_MATERIAL
350
1EB0
  3
ACAD_MLEADERSTYLE
350
1EF7
  3
ACAD_MLINESTYLE
350
1AD7
  3
ACAD_PLOTSETTINGS
350
1AD9
  3
ACAD_PLOTSTYLENAME
350
1EAE
  3
ACAD_SCALELIST
350
1EE5
  3
ACAD_SECTIONVIEWSTYLE
350
1EF9
  3
ACAD_TABLESTYLE
350
1EE3
  3
ACAD_VISUALSTYLE
350
1EC9
  3
ACDB_RECOMPOSE_DATA
350
1F1D
  3
AcDbVariableDictionary
350
1F10
  3
DWGPROPS
350
1F1E
  0
DICTIONARY
  5
1F00
330
1AD1
100
AcDbDictionary
280
     1
281
     1
  3
ADSK_XREC_LAYER_RECONCILED
360
1F01
  0
DICTIONARY
  5
1F02
330
1AE7
100
AcDbDictionary
280
     1
281
     1
  3
ADSK_XREC_LAYER_RECONCILED
360
1F03
  0
DICTIONARY
  5
1F04
330
1AE8
100
AcDbDictionary
280
     1
281
     1
  3
ADSK_XREC_LAYER_RECONCILED
360
1F05
  0
DICTIONARY
  5
1F06
330
1AE9
100
AcDbDictionary
280
     1
281
     1
  3
ADSK_XREC_LAYER_RECONCILED
360
1F07
  0
DICTIONARY
  5
1F08
330
1AEA
100
AcDbDictionary
280
     1
281
     1
  3
ADSK_XREC_LAYER_RECONCILED
360
1F09
  0
DICTIONARY
  5
1F0A
330
1AEB
100
AcDbDictionary
280
     1
281
     1
  3
ADSK_XREC_LAYER_RECONCILED
360
1F0B
  0
DICTIONARY
  5
1F0C
330
1AEC
100
AcDbDictionary
280
     1
281
     1
  3
ADSK_XREC_LAYER_RECONCILED
360
1F0D
  0
DICTIONARY
  5
1F0E
330
1AED
100
AcDbDictionary
280
     1
281
     1
  3
ADSK_XREC_LAYER_RECONCILED
360
1F0F
  0
DICTIONARY
  5
1EA9
330
1ADF
100
AcDbDictionary
281
     1
  3
ACAD_LAYOUTSELFREF
350
1EAA
  0
DICTIONARY
  5
1EA7
330
1ADB
100
AcDbDictionary
281
     1
  3
ACAD_LAYOUTSELFREF
350
1EA8
  0
XRECORD
  5
1EFF
102
{ACAD_REACTORS
330
1ACD
102
}
330
1ACD
100
AcDbXrecord
280
     1
300
ACDLT
300
2014
300
ACDLT_F_S
  0
DICTIONARY
  5
1EE2
102
{ACAD_REACTORS
330
1ACD
102
}
330
1ACD
100
AcDbDictionary
281
     1
  0
DICTIONARY
  5
1EFB
102
{ACAD_REACTORS
330
1ACD
102
}
330
1ACD
100
AcDbDictionary
281
     1
  3
Imperial24
350
1EFC
  0
DICTIONARY
  5
1ACE
102
{ACAD_REACTORS
330
1ACD
102
}
330
1ACD
100
AcDbDictionary
281
     1
  0
DICTIONARY
  5
1ADA
102
{ACAD_REACTORS
330
1ACD
102
}
330
1ACD
100
AcDbDictionary
281
     1
  3
Model
350
1EFD
  3
レイアウト1
350
1EFE
  0
DICTIONARY
  5
1EB0
102
{ACAD_REACTORS
330
1ACD
102
}
330
1ACD
100
AcDbDictionary
281
     1
  3
ByBlock
350
1EB9
  3
ByLayer
350
1EB1
  3
Global
350
1EC1
  0
DICTIONARY
  5
1EF7
102
{ACAD_REACTORS
330
1ACD
102
}
330
1ACD
100
AcDbDictionary
281
     1
  3
Standard
350
1EF8
  0
DICTIONARY
  5
1AD7
102
{ACAD_REACTORS
330
1ACD
102
}
330
1ACD
100
AcDbDictionary
281
     1
  3
STANDARD
350
1AD8
  0
DICTIONARY
  5
1AD9
102
{ACAD_REACTORS
330
1ACD
102
}
330
1ACD
100
AcDbDictionary
281
     1
  0
ACDBDICTIONARYWDFLT
  5
1EAE
102
{ACAD_REACTORS
330
1ACD
102
}
330
1ACD
100
AcDbDictionary
281
     1
  3
Normal
350
1EAF
100
AcDbDictionaryWithDefault
340
1EAF
  0
DICTIONARY
  5
1EE5
102
{ACAD_REACTORS
330
1ACD
102
}
330
1ACD
100
AcDbDictionary
281
     1
  3
A0
350
1EE6
  3
A1
350
1EE7
  3
A2
350
1EE8
  3
A3
350
1EE9
  3
A4
350
1EEA
  3
A5
350
1EEB
  3
A6
350
1EEC
  3
A7
350
1EED
  3
A8
350
1EEE
  3
A9
350
1EEF
  3
B0
350
1EF0
  3
B1
350
1EF1
  3
B2
350
1EF2
  3
B3
350
1EF3
  3
B4
350
1EF4
  3
B5
350
1EF5
  3
B6
350
1EF6
  0
DICTIONARY
  5
1EF9
102
{ACAD_REACTORS
330
1ACD
102
}
330
1ACD
100
AcDbDictionary
281
     1
  3
Imperial24
350
1EFA
  0
DICTIONARY
  5
1EE3
102
{ACAD_REACTORS
330
1ACD
102
}
330
1ACD
100
AcDbDictionary
281
     1
  3
Standard
350
1EE4
  0
DICTIONARY
  5
1EC9
102
{ACAD_REACTORS
330
1ACD
102
}
330
1ACD
100
AcDbDictionary
281
     1
  3
2dWireframe
350
1ECF
  3
Basic
350
1ECE
  3
Brighten
350
1ED5
  3
ColorChange
350
1ED9
  3
Conceptual
350
1ED2
  3
Dim
350
1ED4
  3
EdgeColorOff
350
1EE1
  3
Facepattern
350
1ED8
  3
Flat
350
1ECA
  3
FlatWithEdges
350
1ECB
  3
Gouraud
350
1ECC
  3
GouraudWithEdges
350
1ECD
  3
Hidden
350
1ED1
  3
JitterOff
350
1EDF
  3
Linepattern
350
1ED7
  3
OverhangOff
350
1EE0
  3
Realistic
350
1ED3
  3
Shaded
350
1EDE
  3
Shaded with edges
350
1EDD
  3
Shades of Gray
350
1EDA
  3
Sketchy
350
1EDB
  3
Thicken
350
1ED6
  3
Wireframe
350
1ED0
  3
X-Ray
350
1EDC
  0
XRECORD
  5
1F1D
102
{ACAD_REACTORS
330
1ACD
102
}
330
1ACD
100
AcDbXrecord
280
     1
 90
        1
330
1EE4
  0
DICTIONARY
  5
1F10
102
{ACAD_REACTORS
330
1ACD
102
}
330
1ACD
100
AcDbDictionary
281
     1
  3
CANNOSCALE
350
1F15
  3
CMLEADERSTYLE
350
1F12
  3
CTABLESTYLE
350
1F11
  3
CVIEWDETAILSTYLE
350
1F13
  3
CVIEWSECTIONSTYLE
350
1F14
  3
DIMASSOC
350
1F18
  3
INDEXCTL
350
1F17
  3
SORTENTS
350
1F16
  3
XCLIPFRAME
350
1F19
  0
XRECORD
  5
1F1E
102
{ACAD_REACTORS
330
1ACD
102
}
330
1ACD
100
AcDbXrecord
280
     1
  1
DWGPROPS COOKIE
  2

  3

  4

  6

  7

  8
Yoshitsune
  9

300
=
301
=
302
=
303
=
304
=
305
=
306
=
307
=
308
=
309
=
 40
0.0304344560185185
 41
2452065.490752998
 42
2457192.641641829
  1

 90
        0
  0
XRECORD
  5
1F01
102
{ACAD_REACTORS
330
1F00
102
}
330
1F00
100
AcDbXrecord
280
     1
290
     1
  0
XRECORD
  5
1F03
102
{ACAD_REACTORS
330
1F02
102
}
330
1F02
100
AcDbXrecord
280
     1
290
     1
  0
XRECORD
  5
1F05
102
{ACAD_REACTORS
330
1F04
102
}
330
1F04
100
AcDbXrecord
280
     1
290
     1
  0
XRECORD
  5
1F07
102
{ACAD_REACTORS
330
1F06
102
}
330
1F06
100
AcDbXrecord
280
     1
290
     1
  0
XRECORD
  5
1F09
102
{ACAD_REACTORS
330
1F08
102
}
330
1F08
100
AcDbXrecord
280
     1
290
     1
  0
XRECORD
  5
1F0B
102
{ACAD_REACTORS
330
1F0A
102
}
330
1F0A
100
AcDbXrecord
280
     1
290
     1
  0
XRECORD
  5
1F0D
102
{ACAD_REACTORS
330
1F0C
102
}
330
1F0C
100
AcDbXrecord
280
     1
290
     1
  0
XRECORD
  5
1F0F
102
{ACAD_REACTORS
330
1F0E
102
}
330
1F0E
100
AcDbXrecord
280
     1
290
     1
  0
XRECORD
  5
1EAA
102
{ACAD_REACTORS
330
1EA9
102
}
330
1EA9
100
AcDbXrecord
280
     1
340
1ADF
  0
XRECORD
  5
1EA8
102
{ACAD_REACTORS
330
1EA7
102
}
330
1EA7
100
AcDbXrecord
280
     1
340
1ADB
  0
ACDBDETAILVIEWSTYLE
  5
1EFC
102
{ACAD_XDICTIONARY
360
1F56
102
}
102
{ACAD_REACTORS
330
1EFB
102
}
330
1EFB
100
AcDbModelDocViewStyle
 70
     0
  3
Imperial24
290
     0
100
AcDbDetailViewStyle
 70
     0
 71
     0
 90
        3
 71
     1
340
1AD2
 40
0.24
340
0
 40
0.24
300

 40
0.36
280
     3
 71
     2
340
1AD6
 90
       25
 71
     3
340
1AD2
 40
0.24
 90
        1
 40
0.75
 90
        1
300
%<\AcVar ViewType \f "%tc1">% %<\AcVar ViewDetailId>%\PSCALE %<\AcVar ViewScale \f "%sn">%
 71
     4
340
1AD6
 90
       25
340
1AD6
 90
       25
280
     0
  0
LAYOUT
  5
1EFD
102
{ACAD_XDICTIONARY
360
1F58
102
}
102
{ACAD_REACTORS
330
1ADA
102
}
330
1ADA
100
AcDbPlotSettings
  1

  2
Canon LBP9100C
  4

  6

 40
0.0
 41
0.0
 42
0.0
 43
0.0
 44
0.0
 45
0.0
 46
0.0
 47
0.0
 48
0.0
 49
0.0
140
0.0
141
0.0
142
1.0
143
1.0
 70
  1712
 72
     0
 73
     0
 74
     0
  7

 75
     0
147
1.0
148
0.0
149
0.0
100
AcDbLayout
  1
Model
 70
     1
 71
     0
 10
0.0
 20
0.0
 11
12.0
 21
9.0
 12
0.0
 22
0.0
 32
0.0
 14
0.0
 24
0.0
 34
0.0
 15
0.0
 25
0.0
 35
0.0
146
0.0
 13
0.0
 23
0.0
 33
0.0
 16
1.0
 26
0.0
 36
0.0
 17
0.0
 27
1.0
 37
0.0
 76
     0
330
1ADF
331
1EA6
  0
LAYOUT
  5
1EFE
102
{ACAD_XDICTIONARY
360
1F5A
102
}
102
{ACAD_REACTORS
330
1ADA
102
}
330
1ADA
100
AcDbPlotSettings
  1

  2
Canon LBP9100C
  4

  6

 40
0.0
 41
0.0
 42
0.0
 43
0.0
 44
0.0
 45
0.0
 46
0.0
 47
0.0
 48
0.0
 49
0.0
140
0.0
141
0.0
142
1.0
143
1.0
 70
   688
 72
     0
 73
     0
 74
     5
  7

 75
    16
147
1.0
148
0.0
149
0.0
100
AcDbLayout
  1
レイアウト1
 70
     1
 71
     1
 10
0.0
 20
0.0
 11
420.0
 21
297.0
 12
0.0
 22
0.0
 32
0.0
 14
1.000000000000000E+20
 24
1.000000000000000E+20
 34
1.000000000000000E+20
 15
-1.000000000000000E+20
 25
-1.000000000000000E+20
 35
-1.000000000000000E+20
146
0.0
 13
0.0
 23
0.0
 33
0.0
 16
1.0
 26
0.0
 36
0.0
 17
0.0
 27
1.0
 37
0.0
 76
     0
330
1ADB
  0
MATERIAL
  5
1EB9
102
{ACAD_XDICTIONARY
360
1EBA
102
}
102
{ACAD_REACTORS
330
1EB0
102
}
330
1EB0
100
AcDbMaterial
  1
ByBlock
 72
     0
 43
0.0208333333333333
 43
0.0
 43
0.0
 43
0.0
 43
0.0
 43
0.0208333333333333
 43
0.0
 43
0.0
 43
0.0
 43
0.0
 43
1.0
 43
0.0
 43
0.0
 43
0.0
 43
0.0
 43
1.0
 77
     0
 47
0.0208333333333333
 47
0.0
 47
0.0
 47
0.0
 47
0.0
 47
0.0208333333333333
 47
0.0
 47
0.0
 47
0.0
 47
0.0
 47
1.0
 47
0.0
 47
0.0
 47
0.0
 47
0.0
 47
1.0
171
     0
 49
0.0208333333333333
 49
0.0
 49
0.0
 49
0.0
 49
0.0
 49
0.0208333333333333
 49
0.0
 49
0.0
 49
0.0
 49
0.0
 49
1.0
 49
0.0
 49
0.0
 49
0.0
 49
0.0
 49
1.0
175
     0
142
0.0208333333333333
142
0.0
142
0.0
142
0.0
142
0.0
142
0.0208333333333333
142
0.0
142
0.0
142
0.0
142
0.0
142
1.0
142
0.0
142
0.0
142
0.0
142
0.0
142
1.0
179
     0
144
0.0208333333333333
144
0.0
144
0.0
144
0.0
144
0.0
144
0.0208333333333333
144
0.0
144
0.0
144
0.0
144
0.0
144
1.0
144
0.0
144
0.0
144
0.0
144
0.0
144
1.0
147
0.0208333333333333
147
0.0
147
0.0
147
0.0
147
0.0
147
0.0208333333333333
147
0.0
147
0.0
147
0.0
147
0.0
147
1.0
147
0.0
147
0.0
147
0.0
147
0.0
147
1.0
  0
MATERIAL
  5
1EB1
102
{ACAD_XDICTIONARY
360
1EB2
102
}
102
{ACAD_REACTORS
330
1EB0
102
}
330
1EB0
100
AcDbMaterial
  1
ByLayer
 72
     0
 43
0.0208333333333333
 43
0.0
 43
0.0
 43
0.0
 43
0.0
 43
0.0208333333333333
 43
0.0
 43
0.0
 43
0.0
 43
0.0
 43
1.0
 43
0.0
 43
0.0
 43
0.0
 43
0.0
 43
1.0
 77
     0
 47
0.0208333333333333
 47
0.0
 47
0.0
 47
0.0
 47
0.0
 47
0.0208333333333333
 47
0.0
 47
0.0
 47
0.0
 47
0.0
 47
1.0
 47
0.0
 47
0.0
 47
0.0
 47
0.0
 47
1.0
171
     0
 49
0.0208333333333333
 49
0.0
 49
0.0
 49
0.0
 49
0.0
 49
0.0208333333333333
 49
0.0
 49
0.0
 49
0.0
 49
0.0
 49
1.0
 49
0.0
 49
0.0
 49
0.0
 49
0.0
 49
1.0
175
     0
142
0.0208333333333333
142
0.0
142
0.0
142
0.0
142
0.0
142
0.0208333333333333
142
0.0
142
0.0
142
0.0
142
0.0
142
1.0
142
0.0
142
0.0
142
0.0
142
0.0
142
1.0
179
     0
144
0.0208333333333333
144
0.0
144
0.0
144
0.0
144
0.0
144
0.0208333333333333
144
0.0
144
0.0
144
0.0
144
0.0
144
1.0
144
0.0
144
0.0
144
0.0
144
0.0
144
1.0
147
0.0208333333333333
147
0.0
147
0.0
147
0.0
147
0.0
147
0.0208333333333333
147
0.0
147
0.0
147
0.0
147
0.0
147
1.0
147
0.0
147
0.0
147
0.0
147
0.0
147
1.0
  0
MATERIAL
  5
1EC1
102
{ACAD_XDICTIONARY
360
1EC2
102
}
102
{ACAD_REACTORS
330
1EB0
102
}
330
1EB0
100
AcDbMaterial
  1
Global
 72
     0
 43
0.0208333333333333
 43
0.0
 43
0.0
 43
0.0
 43
0.0
 43
0.0208333333333333
 43
0.0
 43
0.0
 43
0.0
 43
0.0
 43
1.0
 43
0.0
 43
0.0
 43
0.0
 43
0.0
 43
1.0
 77
     0
 47
0.0208333333333333
 47
0.0
 47
0.0
 47
0.0
 47
0.0
 47
0.0208333333333333
 47
0.0
 47
0.0
 47
0.0
 47
0.0
 47
1.0
 47
0.0
 47
0.0
 47
0.0
 47
0.0
 47
1.0
171
     0
 49
0.0208333333333333
 49
0.0
 49
0.0
 49
0.0
 49
0.0
 49
0.0208333333333333
 49
0.0
 49
0.0
 49
0.0
 49
0.0
 49
1.0
 49
0.0
 49
0.0
 49
0.0
 49
0.0
 49
1.0
175
     0
142
0.0208333333333333
142
0.0
142
0.0
142
0.0
142
0.0
142
0.0208333333333333
142
0.0
142
0.0
142
0.0
142
0.0
142
1.0
142
0.0
142
0.0
142
0.0
142
0.0
142
1.0
179
     0
144
0.0208333333333333
144
0.0
144
0.0
144
0.0
144
0.0
144
0.0208333333333333
144
0.0
144
0.0
144
0.0
144
0.0
144
1.0
144
0.0
144
0.0
144
0.0
144
0.0
144
1.0
147
0.0208333333333333
147
0.0
147
0.0
147
0.0
147
0.0
147
0.0208333333333333
147
0.0
147
0.0
147
0.0
147
0.0
147
1.0
147
0.0
147
0.0
147
0.0
147
0.0
147
1.0
  0
MLEADERSTYLE
  5
1EF8
102
{ACAD_REACTORS
330
1EF7
102
}
330
1EF7
100
AcDbMLeaderStyle
170
     2
171
     1
172
     0
 90
        2
 40
0.0
 41
0.0
173
     1
 91
-1056964608
340
1AD4
 92
       -2
290
     1
 42
0.09
291
     1
 43
0.36
  3
Standard
 44
0.18
300

342
1AD2
174
     1
178
     6
175
     1
176
     0
 93
-1056964608
 45
0.18
292
     0
297
     0
 46
0.18
 94
-1056964608
 47
1.0
 49
1.0
140
1.0
293
     1
141
0.0
294
     1
177
     0
142
1.0
295
     0
296
     0
143
0.125
1001
ACAD_MLEADERVER
1070
     2
  0
MLINESTYLE
  5
1AD8
102
{ACAD_REACTORS
330
1AD7
102
}
330
1AD7
100
AcDbMlineStyle
  2
STANDARD
 70
     0
  3

 62
   256
 51
90.0
 52
90.0
 71
     2
 49
0.5
 62
   256
  6
BYLAYER
 49
-0.5
 62
   256
  6
BYLAYER
  0
ACDBPLACEHOLDER
  5
1EAF
102
{ACAD_REACTORS
330
1EAE
102
}
330
1EAE
  0
SCALE
  5
1EE6
102
{ACAD_REACTORS
330
1EE5
102
}
330
1EE5
100
AcDbScale
 70
     0
300
1:1
140
1.0
141
1.0
290
     1
  0
SCALE
  5
1EE7
102
{ACAD_REACTORS
330
1EE5
102
}
330
1EE5
100
AcDbScale
 70
     0
300
1/128" = 1'-0"
140
0.0078125
141
12.0
290
     0
  0
SCALE
  5
1EE8
102
{ACAD_REACTORS
330
1EE5
102
}
330
1EE5
100
AcDbScale
 70
     0
300
1/64" = 1'-0"
140
0.015625
141
12.0
290
     0
  0
SCALE
  5
1EE9
102
{ACAD_REACTORS
330
1EE5
102
}
330
1EE5
100
AcDbScale
 70
     0
300
1/32" = 1'-0"
140
0.03125
141
12.0
290
     0
  0
SCALE
  5
1EEA
102
{ACAD_REACTORS
330
1EE5
102
}
330
1EE5
100
AcDbScale
 70
     0
300
1/16" = 1'-0"
140
0.0625
141
12.0
290
     0
  0
SCALE
  5
1EEB
102
{ACAD_REACTORS
330
1EE5
102
}
330
1EE5
100
AcDbScale
 70
     0
300
3/32" = 1'-0"
140
0.09375
141
12.0
290
     0
  0
SCALE
  5
1EEC
102
{ACAD_REACTORS
330
1EE5
102
}
330
1EE5
100
AcDbScale
 70
     0
300
1/8" = 1'-0"
140
0.125
141
12.0
290
     0
  0
SCALE
  5
1EED
102
{ACAD_REACTORS
330
1EE5
102
}
330
1EE5
100
AcDbScale
 70
     0
300
3/16" = 1'-0"
140
0.1875
141
12.0
290
     0
  0
SCALE
  5
1EEE
102
{ACAD_REACTORS
330
1EE5
102
}
330
1EE5
100
AcDbScale
 70
     0
300
1/4" = 1'-0"
140
0.25
141
12.0
290
     0
  0
SCALE
  5
1EEF
102
{ACAD_REACTORS
330
1EE5
102
}
330
1EE5
100
AcDbScale
 70
     0
300
3/8" = 1'-0"
140
0.375
141
12.0
290
     0
  0
SCALE
  5
1EF0
102
{ACAD_REACTORS
330
1EE5
102
}
330
1EE5
100
AcDbScale
 70
     0
300
1/2" = 1'-0"
140
0.5
141
12.0
290
     0
  0
SCALE
  5
1EF1
102
{ACAD_REACTORS
330
1EE5
102
}
330
1EE5
100
AcDbScale
 70
     0
300
3/4" = 1'-0"
140
0.75
141
12.0
290
     0
  0
SCALE
  5
1EF2
102
{ACAD_REACTORS
330
1EE5
102
}
330
1EE5
100
AcDbScale
 70
     0
300
1" = 1'-0"
140
1.0
141
12.0
290
     0
  0
SCALE
  5
1EF3
102
{ACAD_REACTORS
330
1EE5
102
}
330
1EE5
100
AcDbScale
 70
     0
300
1-1/2" = 1'-0"
140
1.5
141
12.0
290
     0
  0
SCALE
  5
1EF4
102
{ACAD_REACTORS
330
1EE5
102
}
330
1EE5
100
AcDbScale
 70
     0
300
3" = 1'-0"
140
3.0
141
12.0
290
     0
  0
SCALE
  5
1EF5
102
{ACAD_REACTORS
330
1EE5
102
}
330
1EE5
100
AcDbScale
 70
     0
300
6" = 1'-0"
140
6.0
141
12.0
290
     0
  0
SCALE
  5
1EF6
102
{ACAD_REACTORS
330
1EE5
102
}
330
1EE5
100
AcDbScale
 70
     0
300
1'-0" = 1'-0"
140
12.0
141
12.0
290
     0
  0
ACDBSECTIONVIEWSTYLE
  5
1EFA
102
{ACAD_XDICTIONARY
360
1F54
102
}
102
{ACAD_REACTORS
330
1EF9
102
}
330
1EF9
100
AcDbModelDocViewStyle
 70
     0
  3
Imperial24
290
     0
100
AcDbSectionViewStyle
 70
     0
 71
     0
 90
       78
 71
     1
340
1AD2
 40
0.24
340
0
340
0
 40
0.24
300
I, O, Q, S, X, Z
 40
0.48
 90
        3
 40
0.18
 90
        1
 71
     2
340
1AD6
 90
       25
340
1AD6
 90
       50
 40
0.24
 40
0.0
 40
0.24
 71
     3
340
1AD2
 40
0.24
 90
        1
 40
0.75
 90
        1
300
%<\AcVar ViewType \f "%tc1">% %<\AcVar ViewSectionStartId>%-%<\AcVar ViewSectionEndId>%\PSCALE %<\AcVar ViewScale \f "%sn">%
 71
     4
300
ANSI31
 40
1.0
 90
        0
290
     0
290
     0
 90
        6
 40
0.0
 40
1.570796326794896
 40
0.2617993877991494
 40
1.308996938995747
 40
-0.2617993877991494
 40
1.832595714594046
  0
TABLESTYLE
  5
1EE4
102
{ACAD_XDICTIONARY
360
1F1B
102
}
102
{ACAD_REACTORS
330
1EE3
102
}
330
1EE3
100
AcDbTableStyle
  3
Standard
 70
     0
 71
     0
 40
0.06
 41
0.06
280
     0
281
     0
  7
STANDARD
140
0.18
170
     2
 62
     0
 63
     7
283
     0
274
    -2
284
     1
 64
     0
275
    -2
285
     1
 65
     0
276
    -2
286
     1
 66
     0
277
    -2
287
     1
 67
     0
278
    -2
288
     1
 68
     0
279
    -2
289
     1
 69
     0
  7
STANDARD
140
0.25
170
     5
 62
     0
 63
     7
283
     0
274
    -2
284
     1
 64
     0
275
    -2
285
     1
 65
     0
276
    -2
286
     1
 66
     0
277
    -2
287
     1
 67
     0
278
    -2
288
     1
 68
     0
279
    -2
289
     1
 69
     0
  7
STANDARD
140
0.18
170
     5
 62
     0
 63
     7
283
     0
274
    -2
284
     1
 64
     0
275
    -2
285
     1
 65
     0
276
    -2
286
     1
 66
     0
277
    -2
287
     1
 67
     0
278
    -2
288
     1
 68
     0
279
    -2
289
     1
 69
     0
  0
VISUALSTYLE
  5
1ECF
102
{ACAD_XDICTIONARY
360
1F2C
102
}
102
{ACAD_REACTORS
330
1EC9
102
}
330
1EC9
100
AcDbVisualStyle
  2
2dWireframe
 70
     4
 71
     0
 72
     2
 73
     0
 90
        0
 40
-0.6
 41
-30.0
 62
     5
 63
     7
 74
     1
 91
        4
 64
     7
 65
   257
 75
     1
175
     1
 42
1.0
 92
        0
 66
   257
 43
1.0
 76
     1
 77
     6
 78
     2
 67
     7
 79
     5
170
     0
171
     0
290
     0
174
     0
 93
        1
 44
0.0
173
     0
291
     0
 45
0.0
1001
ACAD
1000
AcDbSavedByObjectVersion
1070
     0
  0
VISUALSTYLE
  5
1ECE
102
{ACAD_XDICTIONARY
360
1F2A
102
}
102
{ACAD_REACTORS
330
1EC9
102
}
330
1EC9
100
AcDbVisualStyle
  2
Basic
 70
     7
 71
     1
 72
     0
 73
     1
 90
        0
 40
-0.6
 41
-30.0
 62
     5
 63
     7
 74
     0
 91
        4
 64
     7
 65
   257
 75
     1
175
     1
 42
1.0
 92
        8
 66
     7
 43
1.0
 76
     1
 77
     6
 78
     2
 67
     7
 79
     5
170
     0
171
     0
290
     0
174
     0
 93
        1
 44
0.0
173
     0
291
     1
 45
0.0
1001
ACAD
1000
AcDbSavedByObjectVersion
1070
     0
  0
VISUALSTYLE
  5
1ED5
102
{ACAD_XDICTIONARY
360
1F38
102
}
102
{ACAD_REACTORS
330
1EC9
102
}
330
1EC9
100
AcDbVisualStyle
  2
Brighten
 70
    12
 71
     2
 72
     2
 73
     0
 90
        0
 40
-0.6
 41
-30.0
 62
     5
 63
     7
 74
     1
 91
        4
 64
     7
 65
   257
 75
     1
175
     1
 42
1.0
 92
        8
 66
     7
 43
1.0
 76
     1
 77
     6
 78
     2
 67
     7
 79
     5
170
     0
171
     0
290
     0
174
     0
 93
        1
 44
50.0
173
     0
291
     1
 45
0.0
1001
ACAD
1000
AcDbSavedByObjectVersion
1070
     0
  0
VISUALSTYLE
  5
1ED9
102
{ACAD_XDICTIONARY
360
1F40
102
}
102
{ACAD_REACTORS
330
1EC9
102
}
330
1EC9
100
AcDbVisualStyle
  2
ColorChange
 70
    16
 71
     2
 72
     2
 73
     3
 90
        0
 40
-0.6
 41
-30.0
 62
     5
 63
     8
 74
     1
 91
        4
 64
     7
 65
   257
 75
     1
175
     1
 42
1.0
 92
        8
 66
     8
 43
1.0
 76
     1
 77
     6
 78
     2
 67
     7
 79
     5
170
     0
171
     0
290
     0
174
     0
 93
        1
 44
0.0
173
     0
291
     1
 45
0.0
1001
ACAD
1000
AcDbSavedByObjectVersion
1070
     0
  0
VISUALSTYLE
  5
1ED2
102
{ACAD_XDICTIONARY
360
1F32
102
}
102
{ACAD_REACTORS
330
1EC9
102
}
330
1EC9
100
AcDbVisualStyle
  2
Conceptual
 70
     9
 71
     3
 72
     2
 73
     0
 90
        0
 40
-0.6
 41
-30.0
 62
     5
 63
     7
 74
     2
 91
        2
 64
     7
 65
   257
 75
     1
175
     1
 42
179.0
 92
        8
 66
     7
 43
1.0
 76
     1
 77
     6
 78
     2
 67
     7
 79
     3
170
     0
171
     0
290
     0
174
     0
 93
        1
 44
0.0
173
     0
291
     0
 45
0.0
1001
ACAD
1000
AcDbSavedByObjectVersion
1070
     0
  0
VISUALSTYLE
  5
1ED4
102
{ACAD_XDICTIONARY
360
1F36
102
}
102
{ACAD_REACTORS
330
1EC9
102
}
330
1EC9
100
AcDbVisualStyle
  2
Dim
 70
    11
 71
     2
 72
     2
 73
     0
 90
        0
 40
-0.6
 41
-30.0
 62
     5
 63
     7
 74
     1
 91
        4
 64
     7
 65
   257
 75
     1
175
     1
 42
1.0
 92
        8
 66
     7
 43
1.0
 76
     1
 77
     6
 78
     2
 67
     7
 79
     5
170
     0
171
     0
290
     0
174
     0
 93
        1
 44
-50.0
173
     0
291
     1
 45
0.0
1001
ACAD
1000
AcDbSavedByObjectVersion
1070
     0
  0
VISUALSTYLE
  5
1EE1
102
{ACAD_XDICTIONARY
360
1F50
102
}
102
{ACAD_REACTORS
330
1EC9
102
}
330
1EC9
100
AcDbVisualStyle
  2
EdgeColorOff
 70
    22
 71
     2
 72
     2
 73
     0
 90
        0
 40
-0.6
 41
-30.0
 62
     5
 63
     7
 74
     1
 91
        4
 64
     7
 65
   257
 75
     1
175
     1
 42
1.0
 92
        8
 66
     7
 43
1.0
 76
     1
 77
     6
 78
     2
 67
     7
 79
     5
170
     0
171
     0
290
     0
174
     0
 93
        1
 44
0.0
173
     0
291
     1
 45
0.0
1001
ACAD
1000
AcDbSavedByObjectVersion
1070
     0
  0
VISUALSTYLE
  5
1ED8
102
{ACAD_XDICTIONARY
360
1F3E
102
}
102
{ACAD_REACTORS
330
1EC9
102
}
330
1EC9
100
AcDbVisualStyle
  2
Facepattern
 70
    15
 71
     2
 72
     2
 73
     0
 90
        0
 40
-0.6
 41
-30.0
 62
     5
 63
     7
 74
     1
 91
        4
 64
     7
 65
   257
 75
     1
175
     1
 42
1.0
 92
        8
 66
     7
 43
1.0
 76
     1
 77
     6
 78
     2
 67
     7
 79
     5
170
     0
171
     0
290
     0
174
     0
 93
        1
 44
0.0
173
     0
291
     1
 45
0.0
1001
ACAD
1000
AcDbSavedByObjectVersion
1070
     0
  0
VISUALSTYLE
  5
1ECA
102
{ACAD_XDICTIONARY
360
1F22
102
}
102
{ACAD_REACTORS
330
1EC9
102
}
330
1EC9
100
AcDbVisualStyle
  2
Flat
 70
     0
 71
     2
 72
     1
 73
     1
 90
        2
 40
-0.6
 41
30.0
 62
     5
 63
     7
 74
     0
 91
        0
 64
     7
 65
   257
 75
     1
175
     1
 42
1.0
 92
        8
 66
     7
 43
1.0
 76
     1
 77
     6
 78
     2
 67
     7
 79
     5
170
     0
171
     0
290
     0
174
     0
 93
       13
 44
0.0
173
     0
291
     1
 45
0.0
1001
ACAD
1000
AcDbSavedByObjectVersion
1070
     0
  0
VISUALSTYLE
  5
1ECB
102
{ACAD_XDICTIONARY
360
1F24
102
}
102
{ACAD_REACTORS
330
1EC9
102
}
330
1EC9
100
AcDbVisualStyle
  2
FlatWithEdges
 70
     1
 71
     2
 72
     1
 73
     1
 90
        2
 40
-0.6
 41
30.0
 62
     5
 63
     7
 74
     1
 91
        0
 64
     7
 65
   257
 75
     1
175
     1
 42
1.0
 92
        0
 66
   257
 43
1.0
 76
     1
 77
     6
 78
     2
 67
     7
 79
     5
170
     0
171
     0
290
     0
174
     0
 93
       13
 44
0.0
173
     0
291
     1
 45
0.0
1001
ACAD
1000
AcDbSavedByObjectVersion
1070
     0
  0
VISUALSTYLE
  5
1ECC
102
{ACAD_XDICTIONARY
360
1F26
102
}
102
{ACAD_REACTORS
330
1EC9
102
}
330
1EC9
100
AcDbVisualStyle
  2
Gouraud
 70
     2
 71
     2
 72
     2
 73
     1
 90
        2
 40
-0.6
 41
30.0
 62
     5
 63
     7
 74
     0
 91
        0
 64
     7
 65
   257
 75
     1
175
     1
 42
1.0
 92
        0
 66
     7
 43
1.0
 76
     1
 77
     6
 78
     2
 67
     7
 79
     5
170
     0
171
     0
290
     0
174
     0
 93
       13
 44
0.0
173
     0
291
     1
 45
0.0
1001
ACAD
1000
AcDbSavedByObjectVersion
1070
     0
  0
VISUALSTYLE
  5
1ECD
102
{ACAD_XDICTIONARY
360
1F28
102
}
102
{ACAD_REACTORS
330
1EC9
102
}
330
1EC9
100
AcDbVisualStyle
  2
GouraudWithEdges
 70
     3
 71
     2
 72
     2
 73
     1
 90
        2
 40
-0.6
 41
30.0
 62
     5
 63
     7
 74
     1
 91
        0
 64
     7
 65
   257
 75
     1
175
     1
 42
1.0
 92
        0
 66
   257
 43
1.0
 76
     1
 77
     6
 78
     2
 67
     7
 79
     5
170
     0
171
     0
290
     0
174
     0
 93
       13
 44
0.0
173
     0
291
     1
 45
0.0
1001
ACAD
1000
AcDbSavedByObjectVersion
1070
     0
  0
VISUALSTYLE
  5
1ED1
102
{ACAD_XDICTIONARY
360
1F30
102
}
102
{ACAD_REACTORS
330
1EC9
102
}
330
1EC9
100
AcDbVisualStyle
  2
Hidden
 70
     6
 71
     1
 72
     2
 73
     2
 90
        0
 40
-0.6
 41
-30.0
 62
     5
 63
     7
 74
     2
 91
        2
 64
     7
 65
   257
 75
     2
175
     1
 42
40.0
 92
        0
 66
   257
 43
1.0
 76
     1
 77
     6
 78
     2
 67
     7
 79
     3
170
     0
171
     0
290
     0
174
     0
 93
        1
 44
0.0
173
     0
291
     0
 45
0.0
1001
ACAD
1000
AcDbSavedByObjectVersion
1070
     0
  0
VISUALSTYLE
  5
1EDF
102
{ACAD_XDICTIONARY
360
1F4C
102
}
102
{ACAD_REACTORS
330
1EC9
102
}
330
1EC9
100
AcDbVisualStyle
  2
JitterOff
 70
    20
 71
     2
 72
     2
 73
     0
 90
        0
 40
-0.6
 41
-30.0
 62
     5
 63
     7
 74
     1
 91
        4
 64
     7
 65
   257
 75
     1
175
     1
 42
1.0
 92
       10
 66
     7
 43
1.0
 76
     1
 77
     6
 78
     2
 67
     7
 79
     5
170
     0
171
     0
290
     0
174
     0
 93
        1
 44
0.0
173
     0
291
     1
 45
0.0
1001
ACAD
1000
AcDbSavedByObjectVersion
1070
     0
  0
VISUALSTYLE
  5
1ED7
102
{ACAD_XDICTIONARY
360
1F3C
102
}
102
{ACAD_REACTORS
330
1EC9
102
}
330
1EC9
100
AcDbVisualStyle
  2
Linepattern
 70
    14
 71
     2
 72
     2
 73
     0
 90
        0
 40
-0.6
 41
-30.0
 62
     5
 63
     7
 74
     1
 91
        4
 64
     7
 65
   257
 75
     7
175
     7
 42
1.0
 92
        8
 66
     7
 43
1.0
 76
     1
 77
     6
 78
     2
 67
     7
 79
     5
170
     0
171
     0
290
     0
174
     0
 93
        1
 44
0.0
173
     0
291
     1
 45
0.0
1001
ACAD
1000
AcDbSavedByObjectVersion
1070
     0
  0
VISUALSTYLE
  5
1EE0
102
{ACAD_XDICTIONARY
360
1F4E
102
}
102
{ACAD_REACTORS
330
1EC9
102
}
330
1EC9
100
AcDbVisualStyle
  2
OverhangOff
 70
    21
 71
     2
 72
     2
 73
     0
 90
        0
 40
-0.6
 41
-30.0
 62
     5
 63
     7
 74
     1
 91
        4
 64
     7
 65
   257
 75
     1
175
     1
 42
1.0
 92
        9
 66
     7
 43
1.0
 76
     1
 77
     6
 78
     2
 67
     7
 79
     5
170
     0
171
     0
290
     0
174
     0
 93
        1
 44
0.0
173
     0
291
     1
 45
0.0
1001
ACAD
1000
AcDbSavedByObjectVersion
1070
     0
  0
VISUALSTYLE
  5
1ED3
102
{ACAD_XDICTIONARY
360
1F34
102
}
102
{ACAD_REACTORS
330
1EC9
102
}
330
1EC9
100
AcDbVisualStyle
  2
Realistic
 70
     8
 71
     2
 72
     3
 73
     0
 90
        2
 40
-0.6
 41
30.0
 62
     5
 63
     7
 74
     0
 91
        0
 64
     7
 65
   257
 75
     1
175
     1
 42
1.0
 92
        8
 66
   257
 43
1.0
 76
     1
 77
     6
 78
     2
 67
     7
 79
     3
170
     0
171
     0
290
     0
174
     0
 93
       13
 44
0.0
173
     0
291
     0
 45
0.0
1001
ACAD
1000
AcDbSavedByObjectVersion
1070
     0
  0
VISUALSTYLE
  5
1EDE
102
{ACAD_XDICTIONARY
360
1F4A
102
}
102
{ACAD_REACTORS
330
1EC9
102
}
330
1EC9
100
AcDbVisualStyle
  2
Shaded
 70
    27
 71
     2
 72
     2
 73
     1
 90
        2
 40
-0.6
 41
30.0
 62
     5
 63
     7
 74
     0
 91
        4
 64
     7
 65
   257
 75
     1
175
     1
 42
1.0
 92
        8
 66
   257
 43
1.0
 76
     1
 77
     6
 78
     2
 67
     8
 79
     3
170
     0
171
     0
290
     0
174
     0
 93
        5
 44
0.0
173
     0
291
     0
 45
0.0
1001
ACAD
1000
AcDbSavedByObjectVersion
1070
     0
  0
VISUALSTYLE
  5
1EDD
102
{ACAD_XDICTIONARY
360
1F48
102
}
102
{ACAD_REACTORS
330
1EC9
102
}
330
1EC9
100
AcDbVisualStyle
  2
Shaded with edges
 70
    26
 71
     2
 72
     2
 73
     1
 90
        2
 40
-0.6
 41
30.0
 62
     5
 63
     7
 74
     1
 91
       10
 64
     7
 65
   257
 75
     2
175
     1
 42
1.0
 92
        8
 66
   257
 43
1.0
 76
     1
 77
     6
 78
     2
 67
     7
 79
     3
170
     0
171
     0
290
     0
174
     0
 93
        5
 44
0.0
173
     0
291
     0
 45
0.0
1001
ACAD
1000
AcDbSavedByObjectVersion
1070
     0
  0
VISUALSTYLE
  5
1EDA
102
{ACAD_XDICTIONARY
360
1F42
102
}
102
{ACAD_REACTORS
330
1EC9
102
}
330
1EC9
100
AcDbVisualStyle
  2
Shades of Gray
 70
    23
 71
     2
 72
     2
 73
     3
 90
        0
 40
-0.6
 41
-30.0
 62
     5
 63
     7
 74
     2
 91
        2
 64
     7
 65
     7
 75
     1
175
     1
 42
40.0
 92
        8
 66
     7
 43
1.0
 76
     1
 77
     6
 78
     2
 67
     7
 79
     3
170
     0
171
     0
290
     0
174
     0
 93
        1
 44
0.0
173
     0
291
     0
 45
0.0
1001
ACAD
1000
AcDbSavedByObjectVersion
1070
     0
  0
VISUALSTYLE
  5
1EDB
102
{ACAD_XDICTIONARY
360
1F44
102
}
102
{ACAD_REACTORS
330
1EC9
102
}
330
1EC9
100
AcDbVisualStyle
  2
Sketchy
 70
    24
 71
     1
 72
     2
 73
     2
 90
        0
 40
-0.6
 41
-30.0
 62
     5
 63
     7
 74
     2
 91
        2
 64
     7
 65
     7
 75
     1
175
     1
 42
40.0
 92
       11
 66
     7
 43
1.0
 76
     1
 77
     6
 78
     2
 67
     7
 79
     6
170
     0
171
     0
290
     0
174
     0
 93
        1
 44
0.0
173
     0
291
     0
 45
0.0
1001
ACAD
1000
AcDbSavedByObjectVersion
1070
     0
  0
VISUALSTYLE
  5
1ED6
102
{ACAD_XDICTIONARY
360
1F3A
102
}
102
{ACAD_REACTORS
330
1EC9
102
}
330
1EC9
100
AcDbVisualStyle
  2
Thicken
 70
    13
 71
     2
 72
     2
 73
     0
 90
        0
 40
-0.6
 41
-30.0
 62
     5
 63
     7
 74
     1
 91
        4
 64
     7
 65
   257
 75
     1
175
     1
 42
1.0
 92
       12
 66
     7
 43
1.0
 76
     1
 77
     6
 78
     2
 67
     7
 79
     5
170
     0
171
     0
290
     0
174
     0
 93
        1
 44
0.0
173
     0
291
     1
 45
0.0
1001
ACAD
1000
AcDbSavedByObjectVersion
1070
     0
  0
VISUALSTYLE
  5
1ED0
102
{ACAD_XDICTIONARY
360
1F2E
102
}
102
{ACAD_REACTORS
330
1EC9
102
}
330
1EC9
100
AcDbVisualStyle
  2
Wireframe
 70
     5
 71
     0
 72
     2
 73
     0
 90
        0
 40
-0.6
 41
-30.0
 62
     5
 63
     7
 74
     1
 91
        4
 64
     7
 65
   257
 75
     1
175
     1
 42
1.0
 92
        0
 66
   257
 43
1.0
 76
     1
 77
     6
 78
     2
 67
     7
 79
     3
170
     0
171
     0
290
     0
174
     0
 93
        1
 44
0.0
173
     0
291
     0
 45
0.0
1001
ACAD
1000
AcDbSavedByObjectVersion
1070
     0
  0
VISUALSTYLE
  5
1EDC
102
{ACAD_XDICTIONARY
360
1F46
102
}
102
{ACAD_REACTORS
330
1EC9
102
}
330
1EC9
100
AcDbVisualStyle
  2
X-Ray
 70
    25
 71
     2
 72
     2
 73
     1
 90
        1
 40
0.5
 41
-30.0
 62
     5
 63
     7
 74
     1
 91
        0
 64
     7
 65
   257
 75
     1
175
     1
 42
1.0
 92
        8
 66
     7
 43
1.0
 76
     1
 77
     6
 78
     2
 67
     7
 79
     3
170
     0
171
     0
290
     0
174
     0
 93
       13
 44
0.0
173
     0
291
     0
 45
0.0
1001
ACAD
1000
AcDbSavedByObjectVersion
1070
     0
  0
DICTIONARYVAR
  5
1F15
102
{ACAD_REACTORS
330
1F10
102
}
330
1F10
100
DictionaryVariables
280
     0
  1
1:1
  0
DICTIONARYVAR
  5
1F12
102
{ACAD_REACTORS
330
1F10
102
}
330
1F10
100
DictionaryVariables
280
     0
  1
STANDARD
  0
DICTIONARYVAR
  5
1F11
102
{ACAD_REACTORS
330
1F10
102
}
330
1F10
100
DictionaryVariables
280
     0
  1
STANDARD
  0
DICTIONARYVAR
  5
1F13
102
{ACAD_REACTORS
330
1F10
102
}
330
1F10
100
DictionaryVariables
280
     0
  1
Imperial24
  0
DICTIONARYVAR
  5
1F14
102
{ACAD_REACTORS
330
1F10
102
}
330
1F10
100
DictionaryVariables
280
     0
  1
Imperial24
  0
DICTIONARYVAR
  5
1F18
102
{ACAD_REACTORS
330
1F10
102
}
330
1F10
100
DictionaryVariables
280
     0
  1
1
  0
DICTIONARYVAR
  5
1F17
102
{ACAD_REACTORS
330
1F10
102
}
330
1F10
100
DictionaryVariables
280
     0
  1
0
  0
DICTIONARYVAR
  5
1F16
102
{ACAD_REACTORS
330
1F10
102
}
330
1F10
100
DictionaryVariables
280
     0
  1
127
  0
DICTIONARYVAR
  5
1F19
102
{ACAD_REACTORS
330
1F10
102
}
330
1F10
100
DictionaryVariables
280
     0
  1
2
  0
DICTIONARY
  5
1F56
330
1EFC
100
AcDbDictionary
280
     1
281
     1
  3
ACAD_XREC_ROUNDTRIP
360
1F57
  0
DICTIONARY
  5
1F58
330
1EFD
100
AcDbDictionary
280
     1
281
     1
  3
ACAD_XREC_ROUNDTRIP
360
1F59
  0
DICTIONARY
  5
1F5A
330
1EFE
100
AcDbDictionary
280
     1
281
     1
  3
ACAD_XREC_ROUNDTRIP
360
1F5B
  0
DICTIONARY
  5
1EBA
330
1EB9
100
AcDbDictionary
280
     1
281
     1
  3
ACAD_XREC_ROUNDTRIP
360
1F20
  3
BUMPTILE
360
1EBC
  3
DIFFUSETILE
360
1EBB
  3
OPACITYTILE
360
1EBF
  3
REFLECTIONTILE
360
1EBE
  3
REFRACTIONTILE
360
1EC0
  3
SPECULARTILE
360
1EBD
  0
DICTIONARY
  5
1EB2
330
1EB1
100
AcDbDictionary
280
     1
281
     1
  3
ACAD_XREC_ROUNDTRIP
360
1F1F
  3
BUMPTILE
360
1EB4
  3
DIFFUSETILE
360
1EB3
  3
OPACITYTILE
360
1EB7
  3
REFLECTIONTILE
360
1EB6
  3
REFRACTIONTILE
360
1EB8
  3
SPECULARTILE
360
1EB5
  0
DICTIONARY
  5
1EC2
330
1EC1
100
AcDbDictionary
280
     1
281
     1
  3
ACAD_XREC_ROUNDTRIP
360
1F21
  3
BUMPTILE
360
1EC4
  3
DIFFUSETILE
360
1EC3
  3
OPACITYTILE
360
1EC7
  3
REFLECTIONTILE
360
1EC6
  3
REFRACTIONTILE
360
1EC8
  3
SPECULARTILE
360
1EC5
  0
DICTIONARY
  5
1F54
330
1EFA
100
AcDbDictionary
280
     1
281
     1
  3
ACAD_XREC_ROUNDTRIP
360
1F55
  0
DICTIONARY
  5
1F1B
330
1EE4
100
AcDbDictionary
280
     1
281
     1
  3
ACAD_ROUNDTRIP_2008_TABLESTYLE_CELLSTYLEMAP
360
1F1C
  3
ACAD_XREC_ROUNDTRIP
360
1F52
  0
DICTIONARY
  5
1F2C
330
1ECF
100
AcDbDictionary
280
     1
281
     1
  3
ACAD_XREC_ROUNDTRIP
360
1F2D
  0
DICTIONARY
  5
1F2A
330
1ECE
100
AcDbDictionary
280
     1
281
     1
  3
ACAD_XREC_ROUNDTRIP
360
1F2B
  0
DICTIONARY
  5
1F38
330
1ED5
100
AcDbDictionary
280
     1
281
     1
  3
ACAD_XREC_ROUNDTRIP
360
1F39
  0
DICTIONARY
  5
1F40
330
1ED9
100
AcDbDictionary
280
     1
281
     1
  3
ACAD_XREC_ROUNDTRIP
360
1F41
  0
DICTIONARY
  5
1F32
330
1ED2
100
AcDbDictionary
280
     1
281
     1
  3
ACAD_XREC_ROUNDTRIP
360
1F33
  0
DICTIONARY
  5
1F36
330
1ED4
100
AcDbDictionary
280
     1
281
     1
  3
ACAD_XREC_ROUNDTRIP
360
1F37
  0
DICTIONARY
  5
1F50
330
1EE1
100
AcDbDictionary
280
     1
281
     1
  3
ACAD_XREC_ROUNDTRIP
360
1F51
  0
DICTIONARY
  5
1F3E
330
1ED8
100
AcDbDictionary
280
     1
281
     1
  3
ACAD_XREC_ROUNDTRIP
360
1F3F
  0
DICTIONARY
  5
1F22
330
1ECA
100
AcDbDictionary
280
     1
281
     1
  3
ACAD_XREC_ROUNDTRIP
360
1F23
  0
DICTIONARY
  5
1F24
330
1ECB
100
AcDbDictionary
280
     1
281
     1
  3
ACAD_XREC_ROUNDTRIP
360
1F25
  0
DICTIONARY
  5
1F26
330
1ECC
100
AcDbDictionary
280
     1
281
     1
  3
ACAD_XREC_ROUNDTRIP
360
1F27
  0
DICTIONARY
  5
1F28
330
1ECD
100
AcDbDictionary
280
     1
281
     1
  3
ACAD_XREC_ROUNDTRIP
360
1F29
  0
DICTIONARY
  5
1F30
330
1ED1
100
AcDbDictionary
280
     1
281
     1
  3
ACAD_XREC_ROUNDTRIP
360
1F31
  0
DICTIONARY
  5
1F4C
330
1EDF
100
AcDbDictionary
280
     1
281
     1
  3
ACAD_XREC_ROUNDTRIP
360
1F4D
  0
DICTIONARY
  5
1F3C
330
1ED7
100
AcDbDictionary
280
     1
281
     1
  3
ACAD_XREC_ROUNDTRIP
360
1F3D
  0
DICTIONARY
  5
1F4E
330
1EE0
100
AcDbDictionary
280
     1
281
     1
  3
ACAD_XREC_ROUNDTRIP
360
1F4F
  0
DICTIONARY
  5
1F34
330
1ED3
100
AcDbDictionary
280
     1
281
     1
  3
ACAD_XREC_ROUNDTRIP
360
1F35
  0
DICTIONARY
  5
1F4A
330
1EDE
100
AcDbDictionary
280
     1
281
     1
  3
ACAD_XREC_ROUNDTRIP
360
1F4B
  0
DICTIONARY
  5
1F48
330
1EDD
100
AcDbDictionary
280
     1
281
     1
  3
ACAD_XREC_ROUNDTRIP
360
1F49
  0
DICTIONARY
  5
1F42
330
1EDA
100
AcDbDictionary
280
     1
281
     1
  3
ACAD_XREC_ROUNDTRIP
360
1F43
  0
DICTIONARY
  5
1F44
330
1EDB
100
AcDbDictionary
280
     1
281
     1
  3
ACAD_XREC_ROUNDTRIP
360
1F45
  0
DICTIONARY
  5
1F3A
330
1ED6
100
AcDbDictionary
280
     1
281
     1
  3
ACAD_XREC_ROUNDTRIP
360
1F3B
  0
DICTIONARY
  5
1F2E
330
1ED0
100
AcDbDictionary
280
     1
281
     1
  3
ACAD_XREC_ROUNDTRIP
360
1F2F
  0
DICTIONARY
  5
1F46
330
1EDC
100
AcDbDictionary
280
     1
281
     1
  3
ACAD_XREC_ROUNDTRIP
360
1F47
  0
XRECORD
  5
1F57
102
{ACAD_REACTORS
330
1F56
102
}
330
1F56
100
AcDbXrecord
280
     1
102
DISPLAYNAME
  1
Imperial24
102
FLAGS
 90
        0
  0
XRECORD
  5
1F59
102
{ACAD_REACTORS
330
1F58
102
}
330
1F58
100
AcDbXrecord
280
     1
102
SHADEPLOT
 70
     0
102
SHADEPLOTRESLEVEL
 70
     2
102
SHADEPLOTCUSTOMDPI
 70
   300
  0
XRECORD
  5
1F5B
102
{ACAD_REACTORS
330
1F5A
102
}
330
1F5A
100
AcDbXrecord
280
     1
102
SHADEPLOT
 70
     0
102
SHADEPLOTRESLEVEL
 70
     2
102
SHADEPLOTCUSTOMDPI
 70
   300
  0
XRECORD
  5
1F20
102
{ACAD_REACTORS
330
1EBA
102
}
330
1EBA
100
AcDbXrecord
280
     1
102
MATERIAL
148
0.0
149
0.0
149
0.0
 93
        0
 94
      127
282
     0
 72
     0
 77
     0
171
     0
175
     0
179
     0
273
     0
  0
XRECORD
  5
1EBC
102
{ACAD_REACTORS
330
1EBA
102
}
330
1EBA
100
AcDbXrecord
280
     1
270
     1
271
     1
  0
XRECORD
  5
1EBB
102
{ACAD_REACTORS
330
1EBA
102
}
330
1EBA
100
AcDbXrecord
280
     1
270
     1
271
     1
  0
XRECORD
  5
1EBF
102
{ACAD_REACTORS
330
1EBA
102
}
330
1EBA
100
AcDbXrecord
280
     1
270
     1
271
     1
  0
XRECORD
  5
1EBE
102
{ACAD_REACTORS
330
1EBA
102
}
330
1EBA
100
AcDbXrecord
280
     1
270
     1
271
     1
  0
XRECORD
  5
1EC0
102
{ACAD_REACTORS
330
1EBA
102
}
330
1EBA
100
AcDbXrecord
280
     1
270
     1
271
     1
  0
XRECORD
  5
1EBD
102
{ACAD_REACTORS
330
1EBA
102
}
330
1EBA
100
AcDbXrecord
280
     1
270
     1
271
     1
  0
XRECORD
  5
1F1F
102
{ACAD_REACTORS
330
1EB2
102
}
330
1EB2
100
AcDbXrecord
280
     1
102
MATERIAL
148
0.0
149
0.0
149
0.0
 93
        0
 94
      127
282
     0
 72
     0
 77
     0
171
     0
175
     0
179
     0
273
     0
  0
XRECORD
  5
1EB4
102
{ACAD_REACTORS
330
1EB2
102
}
330
1EB2
100
AcDbXrecord
280
     1
270
     1
271
     1
  0
XRECORD
  5
1EB3
102
{ACAD_REACTORS
330
1EB2
102
}
330
1EB2
100
AcDbXrecord
280
     1
270
     1
271
     1
  0
XRECORD
  5
1EB7
102
{ACAD_REACTORS
330
1EB2
102
}
330
1EB2
100
AcDbXrecord
280
     1
270
     1
271
     1
  0
XRECORD
  5
1EB6
102
{ACAD_REACTORS
330
1EB2
102
}
330
1EB2
100
AcDbXrecord
280
     1
270
     1
271
     1
  0
XRECORD
  5
1EB8
102
{ACAD_REACTORS
330
1EB2
102
}
330
1EB2
100
AcDbXrecord
280
     1
270
     1
271
     1
  0
XRECORD
  5
1EB5
102
{ACAD_REACTORS
330
1EB2
102
}
330
1EB2
100
AcDbXrecord
280
     1
270
     1
271
     1
  0
XRECORD
  5
1F21
102
{ACAD_REACTORS
330
1EC2
102
}
330
1EC2
100
AcDbXrecord
280
     1
102
MATERIAL
148
0.0
149
0.0
149
0.0
 93
        0
 94
      127
282
     0
 72
     0
 77
     0
171
     0
175
     0
179
     0
273
     0
  0
XRECORD
  5
1EC4
102
{ACAD_REACTORS
330
1EC2
102
}
330
1EC2
100
AcDbXrecord
280
     1
270
     1
271
     1
  0
XRECORD
  5
1EC3
102
{ACAD_REACTORS
330
1EC2
102
}
330
1EC2
100
AcDbXrecord
280
     1
270
     1
271
     1
  0
XRECORD
  5
1EC7
102
{ACAD_REACTORS
330
1EC2
102
}
330
1EC2
100
AcDbXrecord
280
     1
270
     1
271
     1
  0
XRECORD
  5
1EC6
102
{ACAD_REACTORS
330
1EC2
102
}
330
1EC2
100
AcDbXrecord
280
     1
270
     1
271
     1
  0
XRECORD
  5
1EC8
102
{ACAD_REACTORS
330
1EC2
102
}
330
1EC2
100
AcDbXrecord
280
     1
270
     1
271
     1
  0
XRECORD
  5
1EC5
102
{ACAD_REACTORS
330
1EC2
102
}
330
1EC2
100
AcDbXrecord
280
     1
270
     1
271
     1
  0
XRECORD
  5
1F55
102
{ACAD_REACTORS
330
1F54
102
}
330
1F54
100
AcDbXrecord
280
     1
102
DISPLAYNAME
  1
Imperial24
102
FLAGS
 90
        0
  0
CELLSTYLEMAP
  5
1F1C
102
{ACAD_REACTORS
330
1F1B
102
}
330
1F1B
100
AcDbCellStyleMap
 90
        3
300
CELLSTYLE
  1
TABLEFORMAT_BEGIN
 90
        5
170
     1
 91
        0
 92
    32768
 62
   257
 93
        1
300
CONTENTFORMAT
  1
CONTENTFORMAT_BEGIN
 90
        0
 91
        0
 92
      512
 93
        0
300

 40
0.0
140
1.0
 94
        5
 62
     0
340
1AD2
144
0.25
309
CONTENTFORMAT_END
171
     0
 94
        0
309
TABLEFORMAT_END
  1
CELLSTYLE_BEGIN
 90
        1
 91
        1
300
_TITLE
309
CELLSTYLE_END
300
CELLSTYLE
  1
TABLEFORMAT_BEGIN
 90
        5
170
     1
 91
        0
 92
        0
 62
   257
 93
        1
300
CONTENTFORMAT
  1
CONTENTFORMAT_BEGIN
 90
        0
 91
        0
 92
      512
 93
        0
300

 40
0.0
140
1.0
 94
        5
 62
     0
340
1AD2
144
0.18
309
CONTENTFORMAT_END
171
     0
 94
        0
309
TABLEFORMAT_END
  1
CELLSTYLE_BEGIN
 90
        2
 91
        1
300
_HEADER
309
CELLSTYLE_END
300
CELLSTYLE
  1
TABLEFORMAT_BEGIN
 90
        5
170
     1
 91
        0
 92
        0
 62
   257
 93
        1
300
CONTENTFORMAT
  1
CONTENTFORMAT_BEGIN
 90
        0
 91
        0
 92
      512
 93
        0
300

 40
0.0
140
1.0
 94
        2
 62
     0
340
1AD2
144
0.18
309
CONTENTFORMAT_END
171
     0
 94
        0
309
TABLEFORMAT_END
  1
CELLSTYLE_BEGIN
 90
        3
 91
        2
300
_DATA
309
CELLSTYLE_END
  0
XRECORD
  5
1F52
102
{ACAD_REACTORS
330
1F1B
102
}
330
1F1B
100
AcDbXrecord
280
     1
102
ACAD_ROUNDTRIP_PRE2007_TABLESTYLE
 90
      512
 91
        0
  1

 92
      512
 93
        0
  2

 94
      512
 95
        0
  3

  0
XRECORD
  5
1F2D
102
{ACAD_REACTORS
330
1F2C
102
}
330
1F2C
100
AcDbXrecord
280
     1
102
RTVSPost2010Prop28
280
     1
102
RTVSPost2010PropOp28
 70
     1
102
RTVSPost2010Prop29
280
     1
102
RTVSPost2010PropOp29
 70
     1
102
RTVSPost2010Prop30
280
     0
102
RTVSPost2010PropOp30
 70
     1
102
RTVSPost2010Prop31
280
     0
102
RTVSPost2010PropOp31
 70
     1
102
RTVSPost2010Prop32
280
     0
102
RTVSPost2010PropOp32
 70
     1
102
RTVSPost2010Prop33
280
     0
102
RTVSPost2010PropOp33
 70
     1
102
RTVSPost2010Prop34
280
     0
102
RTVSPost2010PropOp34
 70
     1
102
RTVSPost2010Prop35
280
     0
102
RTVSPost2010PropOp35
 70
     1
102
RTVSPost2010Prop36
280
     0
102
RTVSPost2010PropOp36
 70
     1
102
RTVSPost2010Prop37
 90
       50
102
RTVSPost2010PropOp37
 70
     1
102
RTVSPost2010Prop38
140
0.0
102
RTVSPost2010PropOp38
 70
     1
102
RTVSPost2010Prop39
140
1.0
102
RTVSPost2010PropOp39
 70
     1
102
RTVSPost2010Prop40
 90
        0
102
RTVSPost2010PropOp40
 70
     1
102
RTVSPost2010Prop41ColorIndex
 90
       18
102
RTVSPost2010Prop41ColorRGB
 90
        0
102
RTVSPost2010PropOp41
 70
     1
102
RTVSPost2010Prop42
 90
       50
102
RTVSPost2010PropOp42
 70
     1
102
RTVSPost2010Prop43
 90
        3
102
RTVSPost2010PropOp43
 70
     1
102
RTVSPost2010Prop44ColorIndex
 90
        5
102
RTVSPost2010Prop44ColorRGB
 90
      255
102
RTVSPost2010PropOp44
 70
     1
102
RTVSPost2010Prop45
280
     0
102
RTVSPost2010PropOp45
 70
     1
102
RTVSPost2010Prop46
 90
       50
102
RTVSPost2010PropOp46
 70
     1
102
RTVSPost2010Prop47
 90
       50
102
RTVSPost2010PropOp47
 70
     1
102
RTVSPost2010Prop48
 90
       50
102
RTVSPost2010PropOp48
 70
     1
102
RTVSPost2010Prop49
280
     0
102
RTVSPost2010PropOp49
 70
     1
102
RTVSPost2010Prop50
 90
       50
102
RTVSPost2010PropOp50
 70
     1
102
RTVSPost2010Prop51ColorIndex
 90
      256
102
RTVSPost2010Prop51ColorRGB
 90
-16777216
102
RTVSPost2010PropOp51
 70
     0
102
RTVSPost2010Prop52
140
1.0
102
RTVSPost2010PropOp52
 70
     0
102
RTVSPost2010Prop53
 90
        2
102
RTVSPost2010PropOp53
 70
     1
102
RTVSPost2010Prop54
  1
strokes_ogs.tif
102
RTVSPost2010PropOp54
 70
     1
102
RTVSPost2010Prop55
280
     0
102
RTVSPost2010PropOp55
 70
     1
102
RTVSPost2010Prop56
140
1.0
102
RTVSPost2010PropOp56
 70
     1
102
RTVSPost2010Prop57
140
1.0
102
RTVSPost2010PropOp57
 70
     1
102
RTVSPropertyOp0
 70
     1
102
RTVSPropertyOp1
 70
     1
102
RTVSPropertyOp2
 70
     1
102
RTVSPropertyOp3
 70
     1
102
RTVSPropertyOp4
 70
     1
102
RTVSPropertyOp5
 70
     1
102
RTVSPropertyOp6
 70
     1
102
RTVSPropertyOp7
 70
     1
102
RTVSPropertyOp8
 70
     1
102
RTVSPropertyOp9
 70
     1
102
RTVSPropertyOp10
 70
     1
102
RTVSPropertyOp11
 70
     1
102
RTVSPropertyOp12
 70
     1
102
RTVSPropertyOp13
 70
     1
102
RTVSPropertyOp14
 70
     1
102
RTVSPropertyOp15
 70
     1
102
RTVSPropertyOp16
 70
     1
102
RTVSPropertyOp17
 70
     1
102
RTVSPropertyOp18
 70
     1
102
RTVSPropertyOp19
 70
     1
102
RTVSPropertyOp20
 70
     1
102
RTVSPropertyOp21
 70
     1
102
RTVSPropertyOp22
 70
     1
102
RTVSPropertyOp23
 70
     1
102
RTVSPropertyOp24
 70
     1
102
RTVSPropertyOp25
 70
     1
102
RTVSPropertyOp26
 70
     1
102
RTVSPropertyOp27
 70
     1
102
RTVSPropertyOp28
 70
     1
102
RTVSPropertyOp29
 70
     1
102
RTVSPropertyOp30
 70
     1
102
RTVSPropertyOp31
 70
     1
102
RTVSPropertyOp32
 70
     1
102
RTVSPropertyOp33
 70
     1
102
RTVSPropertyOp34
 70
     1
102
RTVSPropertyOp35
 70
     1
102
RTVSPropertyOp36
 70
     1
102
RTVSPropertyOp37
 70
     1
102
RTVSPropertyOp38
 70
     1
102
RTVSPropertyOp39
 70
     1
102
RTVSPropertyOp40
 70
     1
102
RTVSPropertyOp41
 70
     1
102
RTVSPropertyOp42
 70
     1
102
RTVSPropertyOp43
 70
     1
102
RTVSPropertyOp44
 70
     1
102
RTVSPropertyOp45
 70
     1
102
RTVSPropertyOp46
 70
     1
102
RTVSPropertyOp47
 70
     1
102
RTVSPropertyOp48
 70
     1
102
RTVSPropertyOp49
 70
     1
102
RTVSPropertyOp50
 70
     1
102
RTVSPropertyOp51
 70
     0
102
RTVSPropertyOp52
 70
     0
102
RTVSPropertyOp53
 70
     1
102
RTVSPropertyOp54
 70
     1
102
RTVSPropertyOp55
 70
     1
102
RTVSPropertyOp56
 70
     1
102
RTVSPropertyOp57
 70
     1
102
RTVSPropertyOp58
 70
     1
102
RTVSPropertyOp59
 70
     1
102
RTVSPropertyOp60
 70
     1
102
RTVSPropertyOp61
 70
     1
102
RTVSPropertyOp62
 70
     1
  0
XRECORD
  5
1F2B
102
{ACAD_REACTORS
330
1F2A
102
}
330
1F2A
100
AcDbXrecord
280
     1
102
RTVSPost2010Prop28
280
     0
102
RTVSPost2010PropOp28
 70
     1
102
RTVSPost2010Prop29
280
     1
102
RTVSPost2010PropOp29
 70
     1
102
RTVSPost2010Prop30
280
     1
102
RTVSPost2010PropOp30
 70
     1
102
RTVSPost2010Prop31
280
     0
102
RTVSPost2010PropOp31
 70
     1
102
RTVSPost2010Prop32
280
     0
102
RTVSPost2010PropOp32
 70
     1
102
RTVSPost2010Prop33
280
     0
102
RTVSPost2010PropOp33
 70
     1
102
RTVSPost2010Prop34
280
     0
102
RTVSPost2010PropOp34
 70
     1
102
RTVSPost2010Prop35
280
     0
102
RTVSPost2010PropOp35
 70
     1
102
RTVSPost2010Prop36
280
     0
102
RTVSPost2010PropOp36
 70
     1
102
RTVSPost2010Prop37
 90
       50
102
RTVSPost2010PropOp37
 70
     1
102
RTVSPost2010Prop38
140
0.0
102
RTVSPost2010PropOp38
 70
     1
102
RTVSPost2010Prop39
140
1.0
102
RTVSPost2010PropOp39
 70
     1
102
RTVSPost2010Prop40
 90
        0
102
RTVSPost2010PropOp40
 70
     1
102
RTVSPost2010Prop41ColorIndex
 90
       18
102
RTVSPost2010Prop41ColorRGB
 90
        0
102
RTVSPost2010PropOp41
 70
     1
102
RTVSPost2010Prop42
 90
       50
102
RTVSPost2010PropOp42
 70
     1
102
RTVSPost2010Prop43
 90
        3
102
RTVSPost2010PropOp43
 70
     1
102
RTVSPost2010Prop44ColorIndex
 90
        5
102
RTVSPost2010Prop44ColorRGB
 90
      255
102
RTVSPost2010PropOp44
 70
     1
102
RTVSPost2010Prop45
280
     0
102
RTVSPost2010PropOp45
 70
     1
102
RTVSPost2010Prop46
 90
       50
102
RTVSPost2010PropOp46
 70
     1
102
RTVSPost2010Prop47
 90
       50
102
RTVSPost2010PropOp47
 70
     1
102
RTVSPost2010Prop48
 90
       50
102
RTVSPost2010PropOp48
 70
     1
102
RTVSPost2010Prop49
280
     0
102
RTVSPost2010PropOp49
 70
     1
102
RTVSPost2010Prop50
 90
       50
102
RTVSPost2010PropOp50
 70
     1
102
RTVSPost2010Prop51ColorIndex
 90
      256
102
RTVSPost2010Prop51ColorRGB
 90
-16777216
102
RTVSPost2010PropOp51
 70
     0
102
RTVSPost2010Prop52
140
1.0
102
RTVSPost2010PropOp52
 70
     0
102
RTVSPost2010Prop53
 90
        2
102
RTVSPost2010PropOp53
 70
     1
102
RTVSPost2010Prop54
  1
strokes_ogs.tif
102
RTVSPost2010PropOp54
 70
     1
102
RTVSPost2010Prop55
280
     0
102
RTVSPost2010PropOp55
 70
     1
102
RTVSPost2010Prop56
140
1.0
102
RTVSPost2010PropOp56
 70
     1
102
RTVSPost2010Prop57
140
1.0
102
RTVSPost2010PropOp57
 70
     1
102
RTVSPropertyOp0
 70
     1
102
RTVSPropertyOp1
 70
     1
102
RTVSPropertyOp2
 70
     1
102
RTVSPropertyOp3
 70
     1
102
RTVSPropertyOp4
 70
     1
102
RTVSPropertyOp5
 70
     1
102
RTVSPropertyOp6
 70
     1
102
RTVSPropertyOp7
 70
     1
102
RTVSPropertyOp8
 70
     1
102
RTVSPropertyOp9
 70
     1
102
RTVSPropertyOp10
 70
     1
102
RTVSPropertyOp11
 70
     1
102
RTVSPropertyOp12
 70
     1
102
RTVSPropertyOp13
 70
     1
102
RTVSPropertyOp14
 70
     1
102
RTVSPropertyOp15
 70
     1
102
RTVSPropertyOp16
 70
     1
102
RTVSPropertyOp17
 70
     1
102
RTVSPropertyOp18
 70
     1
102
RTVSPropertyOp19
 70
     1
102
RTVSPropertyOp20
 70
     1
102
RTVSPropertyOp21
 70
     1
102
RTVSPropertyOp22
 70
     1
102
RTVSPropertyOp23
 70
     1
102
RTVSPropertyOp24
 70
     1
102
RTVSPropertyOp25
 70
     1
102
RTVSPropertyOp26
 70
     1
102
RTVSPropertyOp27
 70
     1
102
RTVSPropertyOp28
 70
     1
102
RTVSPropertyOp29
 70
     1
102
RTVSPropertyOp30
 70
     1
102
RTVSPropertyOp31
 70
     1
102
RTVSPropertyOp32
 70
     1
102
RTVSPropertyOp33
 70
     1
102
RTVSPropertyOp34
 70
     1
102
RTVSPropertyOp35
 70
     1
102
RTVSPropertyOp36
 70
     1
102
RTVSPropertyOp37
 70
     1
102
RTVSPropertyOp38
 70
     1
102
RTVSPropertyOp39
 70
     1
102
RTVSPropertyOp40
 70
     1
102
RTVSPropertyOp41
 70
     1
102
RTVSPropertyOp42
 70
     1
102
RTVSPropertyOp43
 70
     1
102
RTVSPropertyOp44
 70
     1
102
RTVSPropertyOp45
 70
     1
102
RTVSPropertyOp46
 70
     1
102
RTVSPropertyOp47
 70
     1
102
RTVSPropertyOp48
 70
     1
102
RTVSPropertyOp49
 70
     1
102
RTVSPropertyOp50
 70
     1
102
RTVSPropertyOp51
 70
     0
102
RTVSPropertyOp52
 70
     0
102
RTVSPropertyOp53
 70
     1
102
RTVSPropertyOp54
 70
     1
102
RTVSPropertyOp55
 70
     1
102
RTVSPropertyOp56
 70
     1
102
RTVSPropertyOp57
 70
     1
102
RTVSPropertyOp58
 70
     1
102
RTVSPropertyOp59
 70
     1
102
RTVSPropertyOp60
 70
     1
102
RTVSPropertyOp61
 70
     1
102
RTVSPropertyOp62
 70
     1
  0
XRECORD
  5
1F39
102
{ACAD_REACTORS
330
1F38
102
}
330
1F38
100
AcDbXrecord
280
     1
102
RTVSPost2010Prop28
280
     0
102
RTVSPost2010PropOp28
 70
     1
102
RTVSPost2010Prop29
280
     1
102
RTVSPost2010PropOp29
 70
     1
102
RTVSPost2010Prop30
280
     1
102
RTVSPost2010PropOp30
 70
     1
102
RTVSPost2010Prop31
280
     0
102
RTVSPost2010PropOp31
 70
     1
102
RTVSPost2010Prop32
280
     0
102
RTVSPost2010PropOp32
 70
     1
102
RTVSPost2010Prop33
280
     0
102
RTVSPost2010PropOp33
 70
     1
102
RTVSPost2010Prop34
280
     0
102
RTVSPost2010PropOp34
 70
     1
102
RTVSPost2010Prop35
280
     0
102
RTVSPost2010PropOp35
 70
     1
102
RTVSPost2010Prop36
280
     0
102
RTVSPost2010PropOp36
 70
     1
102
RTVSPost2010Prop37
 90
       50
102
RTVSPost2010PropOp37
 70
     1
102
RTVSPost2010Prop38
140
0.0
102
RTVSPost2010PropOp38
 70
     1
102
RTVSPost2010Prop39
140
1.0
102
RTVSPost2010PropOp39
 70
     1
102
RTVSPost2010Prop40
 90
        0
102
RTVSPost2010PropOp40
 70
     1
102
RTVSPost2010Prop41ColorIndex
 90
       18
102
RTVSPost2010Prop41ColorRGB
 90
        0
102
RTVSPost2010PropOp41
 70
     1
102
RTVSPost2010Prop42
 90
       50
102
RTVSPost2010PropOp42
 70
     1
102
RTVSPost2010Prop43
 90
        3
102
RTVSPost2010PropOp43
 70
     1
102
RTVSPost2010Prop44ColorIndex
 90
        5
102
RTVSPost2010Prop44ColorRGB
 90
      255
102
RTVSPost2010PropOp44
 70
     1
102
RTVSPost2010Prop45
280
     0
102
RTVSPost2010PropOp45
 70
     1
102
RTVSPost2010Prop46
 90
       50
102
RTVSPost2010PropOp46
 70
     1
102
RTVSPost2010Prop47
 90
       50
102
RTVSPost2010PropOp47
 70
     1
102
RTVSPost2010Prop48
 90
       50
102
RTVSPost2010PropOp48
 70
     1
102
RTVSPost2010Prop49
280
     0
102
RTVSPost2010PropOp49
 70
     1
102
RTVSPost2010Prop50
 90
       50
102
RTVSPost2010PropOp50
 70
     1
102
RTVSPost2010Prop51ColorIndex
 90
      256
102
RTVSPost2010Prop51ColorRGB
 90
-16777216
102
RTVSPost2010PropOp51
 70
     0
102
RTVSPost2010Prop52
140
1.0
102
RTVSPost2010PropOp52
 70
     0
102
RTVSPost2010Prop53
 90
        2
102
RTVSPost2010PropOp53
 70
     1
102
RTVSPost2010Prop54
  1
strokes_ogs.tif
102
RTVSPost2010PropOp54
 70
     1
102
RTVSPost2010Prop55
280
     0
102
RTVSPost2010PropOp55
 70
     1
102
RTVSPost2010Prop56
140
1.0
102
RTVSPost2010PropOp56
 70
     1
102
RTVSPost2010Prop57
140
1.0
102
RTVSPost2010PropOp57
 70
     1
102
RTVSPropertyOp0
 70
     1
102
RTVSPropertyOp1
 70
     1
102
RTVSPropertyOp2
 70
     1
102
RTVSPropertyOp3
 70
     1
102
RTVSPropertyOp4
 70
     1
102
RTVSPropertyOp5
 70
     1
102
RTVSPropertyOp6
 70
     1
102
RTVSPropertyOp7
 70
     1
102
RTVSPropertyOp8
 70
     1
102
RTVSPropertyOp9
 70
     1
102
RTVSPropertyOp10
 70
     1
102
RTVSPropertyOp11
 70
     1
102
RTVSPropertyOp12
 70
     1
102
RTVSPropertyOp13
 70
     1
102
RTVSPropertyOp14
 70
     1
102
RTVSPropertyOp15
 70
     1
102
RTVSPropertyOp16
 70
     1
102
RTVSPropertyOp17
 70
     1
102
RTVSPropertyOp18
 70
     1
102
RTVSPropertyOp19
 70
     1
102
RTVSPropertyOp20
 70
     1
102
RTVSPropertyOp21
 70
     1
102
RTVSPropertyOp22
 70
     1
102
RTVSPropertyOp23
 70
     1
102
RTVSPropertyOp24
 70
     1
102
RTVSPropertyOp25
 70
     1
102
RTVSPropertyOp26
 70
     1
102
RTVSPropertyOp27
 70
     1
102
RTVSPropertyOp28
 70
     1
102
RTVSPropertyOp29
 70
     1
102
RTVSPropertyOp30
 70
     1
102
RTVSPropertyOp31
 70
     1
102
RTVSPropertyOp32
 70
     1
102
RTVSPropertyOp33
 70
     1
102
RTVSPropertyOp34
 70
     1
102
RTVSPropertyOp35
 70
     1
102
RTVSPropertyOp36
 70
     1
102
RTVSPropertyOp37
 70
     1
102
RTVSPropertyOp38
 70
     1
102
RTVSPropertyOp39
 70
     1
102
RTVSPropertyOp40
 70
     1
102
RTVSPropertyOp41
 70
     1
102
RTVSPropertyOp42
 70
     1
102
RTVSPropertyOp43
 70
     1
102
RTVSPropertyOp44
 70
     1
102
RTVSPropertyOp45
 70
     1
102
RTVSPropertyOp46
 70
     1
102
RTVSPropertyOp47
 70
     1
102
RTVSPropertyOp48
 70
     1
102
RTVSPropertyOp49
 70
     1
102
RTVSPropertyOp50
 70
     1
102
RTVSPropertyOp51
 70
     0
102
RTVSPropertyOp52
 70
     0
102
RTVSPropertyOp53
 70
     1
102
RTVSPropertyOp54
 70
     1
102
RTVSPropertyOp55
 70
     1
102
RTVSPropertyOp56
 70
     1
102
RTVSPropertyOp57
 70
     1
102
RTVSPropertyOp58
 70
     1
102
RTVSPropertyOp59
 70
     1
102
RTVSPropertyOp60
 70
     1
102
RTVSPropertyOp61
 70
     1
102
RTVSPropertyOp62
 70
     1
  0
XRECORD
  5
1F41
102
{ACAD_REACTORS
330
1F40
102
}
330
1F40
100
AcDbXrecord
280
     1
102
RTVSPost2010Prop28
280
     0
102
RTVSPost2010PropOp28
 70
     1
102
RTVSPost2010Prop29
280
     1
102
RTVSPost2010PropOp29
 70
     1
102
RTVSPost2010Prop30
280
     1
102
RTVSPost2010PropOp30
 70
     1
102
RTVSPost2010Prop31
280
     0
102
RTVSPost2010PropOp31
 70
     1
102
RTVSPost2010Prop32
280
     0
102
RTVSPost2010PropOp32
 70
     1
102
RTVSPost2010Prop33
280
     0
102
RTVSPost2010PropOp33
 70
     1
102
RTVSPost2010Prop34
280
     0
102
RTVSPost2010PropOp34
 70
     1
102
RTVSPost2010Prop35
280
     0
102
RTVSPost2010PropOp35
 70
     1
102
RTVSPost2010Prop36
280
     0
102
RTVSPost2010PropOp36
 70
     1
102
RTVSPost2010Prop37
 90
       50
102
RTVSPost2010PropOp37
 70
     1
102
RTVSPost2010Prop38
140
0.0
102
RTVSPost2010PropOp38
 70
     1
102
RTVSPost2010Prop39
140
1.0
102
RTVSPost2010PropOp39
 70
     1
102
RTVSPost2010Prop40
 90
        0
102
RTVSPost2010PropOp40
 70
     1
102
RTVSPost2010Prop41ColorIndex
 90
       18
102
RTVSPost2010Prop41ColorRGB
 90
        0
102
RTVSPost2010PropOp41
 70
     1
102
RTVSPost2010Prop42
 90
       50
102
RTVSPost2010PropOp42
 70
     1
102
RTVSPost2010Prop43
 90
        3
102
RTVSPost2010PropOp43
 70
     1
102
RTVSPost2010Prop44ColorIndex
 90
        5
102
RTVSPost2010Prop44ColorRGB
 90
      255
102
RTVSPost2010PropOp44
 70
     1
102
RTVSPost2010Prop45
280
     0
102
RTVSPost2010PropOp45
 70
     1
102
RTVSPost2010Prop46
 90
       50
102
RTVSPost2010PropOp46
 70
     1
102
RTVSPost2010Prop47
 90
       50
102
RTVSPost2010PropOp47
 70
     1
102
RTVSPost2010Prop48
 90
       50
102
RTVSPost2010PropOp48
 70
     1
102
RTVSPost2010Prop49
280
     0
102
RTVSPost2010PropOp49
 70
     1
102
RTVSPost2010Prop50
 90
       50
102
RTVSPost2010PropOp50
 70
     1
102
RTVSPost2010Prop51ColorIndex
 90
      256
102
RTVSPost2010Prop51ColorRGB
 90
-16777216
102
RTVSPost2010PropOp51
 70
     0
102
RTVSPost2010Prop52
140
1.0
102
RTVSPost2010PropOp52
 70
     0
102
RTVSPost2010Prop53
 90
        2
102
RTVSPost2010PropOp53
 70
     1
102
RTVSPost2010Prop54
  1
strokes_ogs.tif
102
RTVSPost2010PropOp54
 70
     1
102
RTVSPost2010Prop55
280
     0
102
RTVSPost2010PropOp55
 70
     1
102
RTVSPost2010Prop56
140
1.0
102
RTVSPost2010PropOp56
 70
     1
102
RTVSPost2010Prop57
140
1.0
102
RTVSPost2010PropOp57
 70
     1
102
RTVSPropertyOp0
 70
     1
102
RTVSPropertyOp1
 70
     1
102
RTVSPropertyOp2
 70
     1
102
RTVSPropertyOp3
 70
     1
102
RTVSPropertyOp4
 70
     1
102
RTVSPropertyOp5
 70
     1
102
RTVSPropertyOp6
 70
     1
102
RTVSPropertyOp7
 70
     1
102
RTVSPropertyOp8
 70
     1
102
RTVSPropertyOp9
 70
     1
102
RTVSPropertyOp10
 70
     1
102
RTVSPropertyOp11
 70
     1
102
RTVSPropertyOp12
 70
     1
102
RTVSPropertyOp13
 70
     1
102
RTVSPropertyOp14
 70
     1
102
RTVSPropertyOp15
 70
     1
102
RTVSPropertyOp16
 70
     1
102
RTVSPropertyOp17
 70
     1
102
RTVSPropertyOp18
 70
     1
102
RTVSPropertyOp19
 70
     1
102
RTVSPropertyOp20
 70
     1
102
RTVSPropertyOp21
 70
     1
102
RTVSPropertyOp22
 70
     1
102
RTVSPropertyOp23
 70
     1
102
RTVSPropertyOp24
 70
     1
102
RTVSPropertyOp25
 70
     1
102
RTVSPropertyOp26
 70
     1
102
RTVSPropertyOp27
 70
     1
102
RTVSPropertyOp28
 70
     1
102
RTVSPropertyOp29
 70
     1
102
RTVSPropertyOp30
 70
     1
102
RTVSPropertyOp31
 70
     1
102
RTVSPropertyOp32
 70
     1
102
RTVSPropertyOp33
 70
     1
102
RTVSPropertyOp34
 70
     1
102
RTVSPropertyOp35
 70
     1
102
RTVSPropertyOp36
 70
     1
102
RTVSPropertyOp37
 70
     1
102
RTVSPropertyOp38
 70
     1
102
RTVSPropertyOp39
 70
     1
102
RTVSPropertyOp40
 70
     1
102
RTVSPropertyOp41
 70
     1
102
RTVSPropertyOp42
 70
     1
102
RTVSPropertyOp43
 70
     1
102
RTVSPropertyOp44
 70
     1
102
RTVSPropertyOp45
 70
     1
102
RTVSPropertyOp46
 70
     1
102
RTVSPropertyOp47
 70
     1
102
RTVSPropertyOp48
 70
     1
102
RTVSPropertyOp49
 70
     1
102
RTVSPropertyOp50
 70
     1
102
RTVSPropertyOp51
 70
     0
102
RTVSPropertyOp52
 70
     0
102
RTVSPropertyOp53
 70
     1
102
RTVSPropertyOp54
 70
     1
102
RTVSPropertyOp55
 70
     1
102
RTVSPropertyOp56
 70
     1
102
RTVSPropertyOp57
 70
     1
102
RTVSPropertyOp58
 70
     1
102
RTVSPropertyOp59
 70
     1
102
RTVSPropertyOp60
 70
     1
102
RTVSPropertyOp61
 70
     1
102
RTVSPropertyOp62
 70
     1
  0
XRECORD
  5
1F33
102
{ACAD_REACTORS
330
1F32
102
}
330
1F32
100
AcDbXrecord
280
     1
102
RTVSPost2010Prop28
280
     0
102
RTVSPost2010PropOp28
 70
     1
102
RTVSPost2010Prop29
280
     1
102
RTVSPost2010PropOp29
 70
     1
102
RTVSPost2010Prop30
280
     1
102
RTVSPost2010PropOp30
 70
     1
102
RTVSPost2010Prop31
280
     0
102
RTVSPost2010PropOp31
 70
     1
102
RTVSPost2010Prop32
280
     0
102
RTVSPost2010PropOp32
 70
     1
102
RTVSPost2010Prop33
280
     0
102
RTVSPost2010PropOp33
 70
     1
102
RTVSPost2010Prop34
280
     0
102
RTVSPost2010PropOp34
 70
     1
102
RTVSPost2010Prop35
280
     0
102
RTVSPost2010PropOp35
 70
     1
102
RTVSPost2010Prop36
280
     0
102
RTVSPost2010PropOp36
 70
     1
102
RTVSPost2010Prop37
 90
       50
102
RTVSPost2010PropOp37
 70
     1
102
RTVSPost2010Prop38
140
0.0
102
RTVSPost2010PropOp38
 70
     1
102
RTVSPost2010Prop39
140
1.0
102
RTVSPost2010PropOp39
 70
     1
102
RTVSPost2010Prop40
 90
        0
102
RTVSPost2010PropOp40
 70
     1
102
RTVSPost2010Prop41ColorIndex
 90
       18
102
RTVSPost2010Prop41ColorRGB
 90
        0
102
RTVSPost2010PropOp41
 70
     1
102
RTVSPost2010Prop42
 90
       50
102
RTVSPost2010PropOp42
 70
     1
102
RTVSPost2010Prop43
 90
        3
102
RTVSPost2010PropOp43
 70
     1
102
RTVSPost2010Prop44ColorIndex
 90
        5
102
RTVSPost2010Prop44ColorRGB
 90
      255
102
RTVSPost2010PropOp44
 70
     1
102
RTVSPost2010Prop45
280
     0
102
RTVSPost2010PropOp45
 70
     1
102
RTVSPost2010Prop46
 90
       50
102
RTVSPost2010PropOp46
 70
     1
102
RTVSPost2010Prop47
 90
       50
102
RTVSPost2010PropOp47
 70
     1
102
RTVSPost2010Prop48
 90
       50
102
RTVSPost2010PropOp48
 70
     1
102
RTVSPost2010Prop49
280
     0
102
RTVSPost2010PropOp49
 70
     1
102
RTVSPost2010Prop50
 90
       50
102
RTVSPost2010PropOp50
 70
     1
102
RTVSPost2010Prop51ColorIndex
 90
      256
102
RTVSPost2010Prop51ColorRGB
 90
-16777216
102
RTVSPost2010PropOp51
 70
     0
102
RTVSPost2010Prop52
140
1.0
102
RTVSPost2010PropOp52
 70
     0
102
RTVSPost2010Prop53
 90
        2
102
RTVSPost2010PropOp53
 70
     1
102
RTVSPost2010Prop54
  1
strokes_ogs.tif
102
RTVSPost2010PropOp54
 70
     1
102
RTVSPost2010Prop55
280
     0
102
RTVSPost2010PropOp55
 70
     1
102
RTVSPost2010Prop56
140
1.0
102
RTVSPost2010PropOp56
 70
     1
102
RTVSPost2010Prop57
140
1.0
102
RTVSPost2010PropOp57
 70
     1
102
RTVSPropertyOp0
 70
     1
102
RTVSPropertyOp1
 70
     1
102
RTVSPropertyOp2
 70
     1
102
RTVSPropertyOp3
 70
     1
102
RTVSPropertyOp4
 70
     1
102
RTVSPropertyOp5
 70
     1
102
RTVSPropertyOp6
 70
     1
102
RTVSPropertyOp7
 70
     1
102
RTVSPropertyOp8
 70
     1
102
RTVSPropertyOp9
 70
     1
102
RTVSPropertyOp10
 70
     1
102
RTVSPropertyOp11
 70
     1
102
RTVSPropertyOp12
 70
     1
102
RTVSPropertyOp13
 70
     1
102
RTVSPropertyOp14
 70
     1
102
RTVSPropertyOp15
 70
     1
102
RTVSPropertyOp16
 70
     1
102
RTVSPropertyOp17
 70
     1
102
RTVSPropertyOp18
 70
     1
102
RTVSPropertyOp19
 70
     1
102
RTVSPropertyOp20
 70
     1
102
RTVSPropertyOp21
 70
     1
102
RTVSPropertyOp22
 70
     1
102
RTVSPropertyOp23
 70
     1
102
RTVSPropertyOp24
 70
     1
102
RTVSPropertyOp25
 70
     1
102
RTVSPropertyOp26
 70
     1
102
RTVSPropertyOp27
 70
     1
102
RTVSPropertyOp28
 70
     1
102
RTVSPropertyOp29
 70
     1
102
RTVSPropertyOp30
 70
     1
102
RTVSPropertyOp31
 70
     1
102
RTVSPropertyOp32
 70
     1
102
RTVSPropertyOp33
 70
     1
102
RTVSPropertyOp34
 70
     1
102
RTVSPropertyOp35
 70
     1
102
RTVSPropertyOp36
 70
     1
102
RTVSPropertyOp37
 70
     1
102
RTVSPropertyOp38
 70
     1
102
RTVSPropertyOp39
 70
     1
102
RTVSPropertyOp40
 70
     1
102
RTVSPropertyOp41
 70
     1
102
RTVSPropertyOp42
 70
     1
102
RTVSPropertyOp43
 70
     1
102
RTVSPropertyOp44
 70
     1
102
RTVSPropertyOp45
 70
     1
102
RTVSPropertyOp46
 70
     1
102
RTVSPropertyOp47
 70
     1
102
RTVSPropertyOp48
 70
     1
102
RTVSPropertyOp49
 70
     1
102
RTVSPropertyOp50
 70
     1
102
RTVSPropertyOp51
 70
     0
102
RTVSPropertyOp52
 70
     0
102
RTVSPropertyOp53
 70
     1
102
RTVSPropertyOp54
 70
     1
102
RTVSPropertyOp55
 70
     1
102
RTVSPropertyOp56
 70
     1
102
RTVSPropertyOp57
 70
     1
102
RTVSPropertyOp58
 70
     1
102
RTVSPropertyOp59
 70
     1
102
RTVSPropertyOp60
 70
     1
102
RTVSPropertyOp61
 70
     1
102
RTVSPropertyOp62
 70
     1
  0
XRECORD
  5
1F37
102
{ACAD_REACTORS
330
1F36
102
}
330
1F36
100
AcDbXrecord
280
     1
102
RTVSPost2010Prop28
280
     0
102
RTVSPost2010PropOp28
 70
     1
102
RTVSPost2010Prop29
280
     1
102
RTVSPost2010PropOp29
 70
     1
102
RTVSPost2010Prop30
280
     1
102
RTVSPost2010PropOp30
 70
     1
102
RTVSPost2010Prop31
280
     0
102
RTVSPost2010PropOp31
 70
     1
102
RTVSPost2010Prop32
280
     0
102
RTVSPost2010PropOp32
 70
     1
102
RTVSPost2010Prop33
280
     0
102
RTVSPost2010PropOp33
 70
     1
102
RTVSPost2010Prop34
280
     0
102
RTVSPost2010PropOp34
 70
     1
102
RTVSPost2010Prop35
280
     0
102
RTVSPost2010PropOp35
 70
     1
102
RTVSPost2010Prop36
280
     0
102
RTVSPost2010PropOp36
 70
     1
102
RTVSPost2010Prop37
 90
       50
102
RTVSPost2010PropOp37
 70
     1
102
RTVSPost2010Prop38
140
0.0
102
RTVSPost2010PropOp38
 70
     1
102
RTVSPost2010Prop39
140
1.0
102
RTVSPost2010PropOp39
 70
     1
102
RTVSPost2010Prop40
 90
        0
102
RTVSPost2010PropOp40
 70
     1
102
RTVSPost2010Prop41ColorIndex
 90
       18
102
RTVSPost2010Prop41ColorRGB
 90
        0
102
RTVSPost2010PropOp41
 70
     1
102
RTVSPost2010Prop42
 90
       50
102
RTVSPost2010PropOp42
 70
     1
102
RTVSPost2010Prop43
 90
        3
102
RTVSPost2010PropOp43
 70
     1
102
RTVSPost2010Prop44ColorIndex
 90
        5
102
RTVSPost2010Prop44ColorRGB
 90
      255
102
RTVSPost2010PropOp44
 70
     1
102
RTVSPost2010Prop45
280
     0
102
RTVSPost2010PropOp45
 70
     1
102
RTVSPost2010Prop46
 90
       50
102
RTVSPost2010PropOp46
 70
     1
102
RTVSPost2010Prop47
 90
       50
102
RTVSPost2010PropOp47
 70
     1
102
RTVSPost2010Prop48
 90
       50
102
RTVSPost2010PropOp48
 70
     1
102
RTVSPost2010Prop49
280
     0
102
RTVSPost2010PropOp49
 70
     1
102
RTVSPost2010Prop50
 90
       50
102
RTVSPost2010PropOp50
 70
     1
102
RTVSPost2010Prop51ColorIndex
 90
      256
102
RTVSPost2010Prop51ColorRGB
 90
-16777216
102
RTVSPost2010PropOp51
 70
     0
102
RTVSPost2010Prop52
140
1.0
102
RTVSPost2010PropOp52
 70
     0
102
RTVSPost2010Prop53
 90
        2
102
RTVSPost2010PropOp53
 70
     1
102
RTVSPost2010Prop54
  1
strokes_ogs.tif
102
RTVSPost2010PropOp54
 70
     1
102
RTVSPost2010Prop55
280
     0
102
RTVSPost2010PropOp55
 70
     1
102
RTVSPost2010Prop56
140
1.0
102
RTVSPost2010PropOp56
 70
     1
102
RTVSPost2010Prop57
140
1.0
102
RTVSPost2010PropOp57
 70
     1
102
RTVSPropertyOp0
 70
     1
102
RTVSPropertyOp1
 70
     1
102
RTVSPropertyOp2
 70
     1
102
RTVSPropertyOp3
 70
     1
102
RTVSPropertyOp4
 70
     1
102
RTVSPropertyOp5
 70
     1
102
RTVSPropertyOp6
 70
     1
102
RTVSPropertyOp7
 70
     1
102
RTVSPropertyOp8
 70
     1
102
RTVSPropertyOp9
 70
     1
102
RTVSPropertyOp10
 70
     1
102
RTVSPropertyOp11
 70
     1
102
RTVSPropertyOp12
 70
     1
102
RTVSPropertyOp13
 70
     1
102
RTVSPropertyOp14
 70
     1
102
RTVSPropertyOp15
 70
     1
102
RTVSPropertyOp16
 70
     1
102
RTVSPropertyOp17
 70
     1
102
RTVSPropertyOp18
 70
     1
102
RTVSPropertyOp19
 70
     1
102
RTVSPropertyOp20
 70
     1
102
RTVSPropertyOp21
 70
     1
102
RTVSPropertyOp22
 70
     1
102
RTVSPropertyOp23
 70
     1
102
RTVSPropertyOp24
 70
     1
102
RTVSPropertyOp25
 70
     1
102
RTVSPropertyOp26
 70
     1
102
RTVSPropertyOp27
 70
     1
102
RTVSPropertyOp28
 70
     1
102
RTVSPropertyOp29
 70
     1
102
RTVSPropertyOp30
 70
     1
102
RTVSPropertyOp31
 70
     1
102
RTVSPropertyOp32
 70
     1
102
RTVSPropertyOp33
 70
     1
102
RTVSPropertyOp34
 70
     1
102
RTVSPropertyOp35
 70
     1
102
RTVSPropertyOp36
 70
     1
102
RTVSPropertyOp37
 70
     1
102
RTVSPropertyOp38
 70
     1
102
RTVSPropertyOp39
 70
     1
102
RTVSPropertyOp40
 70
     1
102
RTVSPropertyOp41
 70
     1
102
RTVSPropertyOp42
 70
     1
102
RTVSPropertyOp43
 70
     1
102
RTVSPropertyOp44
 70
     1
102
RTVSPropertyOp45
 70
     1
102
RTVSPropertyOp46
 70
     1
102
RTVSPropertyOp47
 70
     1
102
RTVSPropertyOp48
 70
     1
102
RTVSPropertyOp49
 70
     1
102
RTVSPropertyOp50
 70
     1
102
RTVSPropertyOp51
 70
     0
102
RTVSPropertyOp52
 70
     0
102
RTVSPropertyOp53
 70
     1
102
RTVSPropertyOp54
 70
     1
102
RTVSPropertyOp55
 70
     1
102
RTVSPropertyOp56
 70
     1
102
RTVSPropertyOp57
 70
     1
102
RTVSPropertyOp58
 70
     1
102
RTVSPropertyOp59
 70
     1
102
RTVSPropertyOp60
 70
     1
102
RTVSPropertyOp61
 70
     1
102
RTVSPropertyOp62
 70
     1
  0
XRECORD
  5
1F51
102
{ACAD_REACTORS
330
1F50
102
}
330
1F50
100
AcDbXrecord
280
     1
102
RTVSPost2010Prop28
280
     0
102
RTVSPost2010PropOp28
 70
     1
102
RTVSPost2010Prop29
280
     1
102
RTVSPost2010PropOp29
 70
     1
102
RTVSPost2010Prop30
280
     1
102
RTVSPost2010PropOp30
 70
     1
102
RTVSPost2010Prop31
280
     0
102
RTVSPost2010PropOp31
 70
     1
102
RTVSPost2010Prop32
280
     0
102
RTVSPost2010PropOp32
 70
     1
102
RTVSPost2010Prop33
280
     0
102
RTVSPost2010PropOp33
 70
     1
102
RTVSPost2010Prop34
280
     0
102
RTVSPost2010PropOp34
 70
     1
102
RTVSPost2010Prop35
280
     0
102
RTVSPost2010PropOp35
 70
     1
102
RTVSPost2010Prop36
280
     0
102
RTVSPost2010PropOp36
 70
     1
102
RTVSPost2010Prop37
 90
       50
102
RTVSPost2010PropOp37
 70
     0
102
RTVSPost2010Prop38
140
0.0
102
RTVSPost2010PropOp38
 70
     0
102
RTVSPost2010Prop39
140
1.0
102
RTVSPost2010PropOp39
 70
     0
102
RTVSPost2010Prop40
 90
        0
102
RTVSPost2010PropOp40
 70
     0
102
RTVSPost2010Prop41ColorIndex
 90
       18
102
RTVSPost2010Prop41ColorRGB
 90
        0
102
RTVSPost2010PropOp41
 70
     0
102
RTVSPost2010Prop42
 90
       50
102
RTVSPost2010PropOp42
 70
     0
102
RTVSPost2010Prop43
 90
        3
102
RTVSPost2010PropOp43
 70
     0
102
RTVSPost2010Prop44ColorIndex
 90
        5
102
RTVSPost2010Prop44ColorRGB
 90
      255
102
RTVSPost2010PropOp44
 70
     0
102
RTVSPost2010Prop45
280
     0
102
RTVSPost2010PropOp45
 70
     1
102
RTVSPost2010Prop46
 90
       50
102
RTVSPost2010PropOp46
 70
     0
102
RTVSPost2010Prop47
 90
       50
102
RTVSPost2010PropOp47
 70
     0
102
RTVSPost2010Prop48
 90
       50
102
RTVSPost2010PropOp48
 70
     0
102
RTVSPost2010Prop49
280
     0
102
RTVSPost2010PropOp49
 70
     1
102
RTVSPost2010Prop50
 90
       50
102
RTVSPost2010PropOp50
 70
     0
102
RTVSPost2010Prop51ColorIndex
 90
      256
102
RTVSPost2010Prop51ColorRGB
 90
-16777216
102
RTVSPost2010PropOp51
 70
     0
102
RTVSPost2010Prop52
140
1.0
102
RTVSPost2010PropOp52
 70
     0
102
RTVSPost2010Prop53
 90
        2
102
RTVSPost2010PropOp53
 70
     0
102
RTVSPost2010Prop54
  1
strokes_ogs.tif
102
RTVSPost2010PropOp54
 70
     0
102
RTVSPost2010Prop55
280
     0
102
RTVSPost2010PropOp55
 70
     1
102
RTVSPost2010Prop56
140
1.0
102
RTVSPost2010PropOp56
 70
     0
102
RTVSPost2010Prop57
140
1.0
102
RTVSPost2010PropOp57
 70
     0
102
RTVSPropertyOp0
 70
     0
102
RTVSPropertyOp1
 70
     0
102
RTVSPropertyOp2
 70
     0
102
RTVSPropertyOp3
 70
     0
102
RTVSPropertyOp4
 70
     0
102
RTVSPropertyOp5
 70
     0
102
RTVSPropertyOp6
 70
     0
102
RTVSPropertyOp7
 70
     0
102
RTVSPropertyOp8
 70
     0
102
RTVSPropertyOp9
 70
     0
102
RTVSPropertyOp10
 70
     0
102
RTVSPropertyOp11
 70
     0
102
RTVSPropertyOp12
 70
     0
102
RTVSPropertyOp13
 70
     0
102
RTVSPropertyOp14
 70
     2
102
RTVSPropertyOp15
 70
     0
102
RTVSPropertyOp16
 70
     0
102
RTVSPropertyOp17
 70
     0
102
RTVSPropertyOp18
 70
     0
102
RTVSPropertyOp19
 70
     0
102
RTVSPropertyOp20
 70
     0
102
RTVSPropertyOp21
 70
     0
102
RTVSPropertyOp22
 70
     0
102
RTVSPropertyOp23
 70
     0
102
RTVSPropertyOp24
 70
     0
102
RTVSPropertyOp25
 70
     0
102
RTVSPropertyOp26
 70
     0
102
RTVSPropertyOp27
 70
     0
102
RTVSPropertyOp28
 70
     1
102
RTVSPropertyOp29
 70
     1
102
RTVSPropertyOp30
 70
     1
102
RTVSPropertyOp31
 70
     1
102
RTVSPropertyOp32
 70
     1
102
RTVSPropertyOp33
 70
     1
102
RTVSPropertyOp34
 70
     1
102
RTVSPropertyOp35
 70
     1
102
RTVSPropertyOp36
 70
     1
102
RTVSPropertyOp37
 70
     0
102
RTVSPropertyOp38
 70
     0
102
RTVSPropertyOp39
 70
     0
102
RTVSPropertyOp40
 70
     0
102
RTVSPropertyOp41
 70
     0
102
RTVSPropertyOp42
 70
     0
102
RTVSPropertyOp43
 70
     0
102
RTVSPropertyOp44
 70
     0
102
RTVSPropertyOp45
 70
     1
102
RTVSPropertyOp46
 70
     0
102
RTVSPropertyOp47
 70
     0
102
RTVSPropertyOp48
 70
     0
102
RTVSPropertyOp49
 70
     1
102
RTVSPropertyOp50
 70
     0
102
RTVSPropertyOp51
 70
     0
102
RTVSPropertyOp52
 70
     0
102
RTVSPropertyOp53
 70
     0
102
RTVSPropertyOp54
 70
     0
102
RTVSPropertyOp55
 70
     1
102
RTVSPropertyOp56
 70
     0
102
RTVSPropertyOp57
 70
     0
102
RTVSPropertyOp58
 70
     0
102
RTVSPropertyOp59
 70
     0
102
RTVSPropertyOp60
 70
     0
102
RTVSPropertyOp61
 70
     0
102
RTVSPropertyOp62
 70
     0
  0
XRECORD
  5
1F3F
102
{ACAD_REACTORS
330
1F3E
102
}
330
1F3E
100
AcDbXrecord
280
     1
102
RTVSPost2010Prop28
280
     0
102
RTVSPost2010PropOp28
 70
     1
102
RTVSPost2010Prop29
280
     1
102
RTVSPost2010PropOp29
 70
     1
102
RTVSPost2010Prop30
280
     1
102
RTVSPost2010PropOp30
 70
     1
102
RTVSPost2010Prop31
280
     0
102
RTVSPost2010PropOp31
 70
     1
102
RTVSPost2010Prop32
280
     0
102
RTVSPost2010PropOp32
 70
     1
102
RTVSPost2010Prop33
280
     0
102
RTVSPost2010PropOp33
 70
     1
102
RTVSPost2010Prop34
280
     0
102
RTVSPost2010PropOp34
 70
     1
102
RTVSPost2010Prop35
280
     0
102
RTVSPost2010PropOp35
 70
     1
102
RTVSPost2010Prop36
280
     0
102
RTVSPost2010PropOp36
 70
     1
102
RTVSPost2010Prop37
 90
       50
102
RTVSPost2010PropOp37
 70
     1
102
RTVSPost2010Prop38
140
0.0
102
RTVSPost2010PropOp38
 70
     1
102
RTVSPost2010Prop39
140
1.0
102
RTVSPost2010PropOp39
 70
     1
102
RTVSPost2010Prop40
 90
        0
102
RTVSPost2010PropOp40
 70
     1
102
RTVSPost2010Prop41ColorIndex
 90
       18
102
RTVSPost2010Prop41ColorRGB
 90
        0
102
RTVSPost2010PropOp41
 70
     1
102
RTVSPost2010Prop42
 90
       50
102
RTVSPost2010PropOp42
 70
     1
102
RTVSPost2010Prop43
 90
        3
102
RTVSPost2010PropOp43
 70
     1
102
RTVSPost2010Prop44ColorIndex
 90
        5
102
RTVSPost2010Prop44ColorRGB
 90
      255
102
RTVSPost2010PropOp44
 70
     1
102
RTVSPost2010Prop45
280
     0
102
RTVSPost2010PropOp45
 70
     1
102
RTVSPost2010Prop46
 90
       50
102
RTVSPost2010PropOp46
 70
     1
102
RTVSPost2010Prop47
 90
       50
102
RTVSPost2010PropOp47
 70
     1
102
RTVSPost2010Prop48
 90
       50
102
RTVSPost2010PropOp48
 70
     1
102
RTVSPost2010Prop49
280
     0
102
RTVSPost2010PropOp49
 70
     1
102
RTVSPost2010Prop50
 90
       50
102
RTVSPost2010PropOp50
 70
     1
102
RTVSPost2010Prop51ColorIndex
 90
      256
102
RTVSPost2010Prop51ColorRGB
 90
-16777216
102
RTVSPost2010PropOp51
 70
     0
102
RTVSPost2010Prop52
140
1.0
102
RTVSPost2010PropOp52
 70
     0
102
RTVSPost2010Prop53
 90
        2
102
RTVSPost2010PropOp53
 70
     1
102
RTVSPost2010Prop54
  1
strokes_ogs.tif
102
RTVSPost2010PropOp54
 70
     1
102
RTVSPost2010Prop55
280
     0
102
RTVSPost2010PropOp55
 70
     1
102
RTVSPost2010Prop56
140
1.0
102
RTVSPost2010PropOp56
 70
     1
102
RTVSPost2010Prop57
140
1.0
102
RTVSPost2010PropOp57
 70
     1
102
RTVSPropertyOp0
 70
     1
102
RTVSPropertyOp1
 70
     1
102
RTVSPropertyOp2
 70
     1
102
RTVSPropertyOp3
 70
     1
102
RTVSPropertyOp4
 70
     1
102
RTVSPropertyOp5
 70
     1
102
RTVSPropertyOp6
 70
     1
102
RTVSPropertyOp7
 70
     1
102
RTVSPropertyOp8
 70
     1
102
RTVSPropertyOp9
 70
     1
102
RTVSPropertyOp10
 70
     1
102
RTVSPropertyOp11
 70
     1
102
RTVSPropertyOp12
 70
     1
102
RTVSPropertyOp13
 70
     1
102
RTVSPropertyOp14
 70
     1
102
RTVSPropertyOp15
 70
     1
102
RTVSPropertyOp16
 70
     1
102
RTVSPropertyOp17
 70
     1
102
RTVSPropertyOp18
 70
     1
102
RTVSPropertyOp19
 70
     1
102
RTVSPropertyOp20
 70
     1
102
RTVSPropertyOp21
 70
     1
102
RTVSPropertyOp22
 70
     1
102
RTVSPropertyOp23
 70
     1
102
RTVSPropertyOp24
 70
     1
102
RTVSPropertyOp25
 70
     1
102
RTVSPropertyOp26
 70
     1
102
RTVSPropertyOp27
 70
     1
102
RTVSPropertyOp28
 70
     1
102
RTVSPropertyOp29
 70
     1
102
RTVSPropertyOp30
 70
     1
102
RTVSPropertyOp31
 70
     1
102
RTVSPropertyOp32
 70
     1
102
RTVSPropertyOp33
 70
     1
102
RTVSPropertyOp34
 70
     1
102
RTVSPropertyOp35
 70
     1
102
RTVSPropertyOp36
 70
     1
102
RTVSPropertyOp37
 70
     1
102
RTVSPropertyOp38
 70
     1
102
RTVSPropertyOp39
 70
     1
102
RTVSPropertyOp40
 70
     1
102
RTVSPropertyOp41
 70
     1
102
RTVSPropertyOp42
 70
     1
102
RTVSPropertyOp43
 70
     1
102
RTVSPropertyOp44
 70
     1
102
RTVSPropertyOp45
 70
     1
102
RTVSPropertyOp46
 70
     1
102
RTVSPropertyOp47
 70
     1
102
RTVSPropertyOp48
 70
     1
102
RTVSPropertyOp49
 70
     1
102
RTVSPropertyOp50
 70
     1
102
RTVSPropertyOp51
 70
     0
102
RTVSPropertyOp52
 70
     0
102
RTVSPropertyOp53
 70
     1
102
RTVSPropertyOp54
 70
     1
102
RTVSPropertyOp55
 70
     1
102
RTVSPropertyOp56
 70
     1
102
RTVSPropertyOp57
 70
     1
102
RTVSPropertyOp58
 70
     1
102
RTVSPropertyOp59
 70
     1
102
RTVSPropertyOp60
 70
     1
102
RTVSPropertyOp61
 70
     1
102
RTVSPropertyOp62
 70
     1
  0
XRECORD
  5
1F23
102
{ACAD_REACTORS
330
1F22
102
}
330
1F22
100
AcDbXrecord
280
     1
102
RTVSPost2010Prop28
280
     0
102
RTVSPost2010PropOp28
 70
     1
102
RTVSPost2010Prop29
280
     1
102
RTVSPost2010PropOp29
 70
     1
102
RTVSPost2010Prop30
280
     1
102
RTVSPost2010PropOp30
 70
     1
102
RTVSPost2010Prop31
280
     0
102
RTVSPost2010PropOp31
 70
     1
102
RTVSPost2010Prop32
280
     0
102
RTVSPost2010PropOp32
 70
     1
102
RTVSPost2010Prop33
280
     0
102
RTVSPost2010PropOp33
 70
     1
102
RTVSPost2010Prop34
280
     0
102
RTVSPost2010PropOp34
 70
     1
102
RTVSPost2010Prop35
280
     0
102
RTVSPost2010PropOp35
 70
     1
102
RTVSPost2010Prop36
280
     0
102
RTVSPost2010PropOp36
 70
     1
102
RTVSPost2010Prop37
 90
       50
102
RTVSPost2010PropOp37
 70
     1
102
RTVSPost2010Prop38
140
0.0
102
RTVSPost2010PropOp38
 70
     1
102
RTVSPost2010Prop39
140
1.0
102
RTVSPost2010PropOp39
 70
     1
102
RTVSPost2010Prop40
 90
        0
102
RTVSPost2010PropOp40
 70
     1
102
RTVSPost2010Prop41ColorIndex
 90
       18
102
RTVSPost2010Prop41ColorRGB
 90
        0
102
RTVSPost2010PropOp41
 70
     1
102
RTVSPost2010Prop42
 90
       50
102
RTVSPost2010PropOp42
 70
     1
102
RTVSPost2010Prop43
 90
        3
102
RTVSPost2010PropOp43
 70
     1
102
RTVSPost2010Prop44ColorIndex
 90
        5
102
RTVSPost2010Prop44ColorRGB
 90
      255
102
RTVSPost2010PropOp44
 70
     1
102
RTVSPost2010Prop45
280
     0
102
RTVSPost2010PropOp45
 70
     1
102
RTVSPost2010Prop46
 90
       50
102
RTVSPost2010PropOp46
 70
     1
102
RTVSPost2010Prop47
 90
       50
102
RTVSPost2010PropOp47
 70
     1
102
RTVSPost2010Prop48
 90
       50
102
RTVSPost2010PropOp48
 70
     1
102
RTVSPost2010Prop49
280
     0
102
RTVSPost2010PropOp49
 70
     1
102
RTVSPost2010Prop50
 90
       50
102
RTVSPost2010PropOp50
 70
     1
102
RTVSPost2010Prop51ColorIndex
 90
      256
102
RTVSPost2010Prop51ColorRGB
 90
-16777216
102
RTVSPost2010PropOp51
 70
     0
102
RTVSPost2010Prop52
140
1.0
102
RTVSPost2010PropOp52
 70
     0
102
RTVSPost2010Prop53
 90
        2
102
RTVSPost2010PropOp53
 70
     1
102
RTVSPost2010Prop54
  1
strokes_ogs.tif
102
RTVSPost2010PropOp54
 70
     1
102
RTVSPost2010Prop55
280
     0
102
RTVSPost2010PropOp55
 70
     1
102
RTVSPost2010Prop56
140
1.0
102
RTVSPost2010PropOp56
 70
     1
102
RTVSPost2010Prop57
140
1.0
102
RTVSPost2010PropOp57
 70
     1
102
RTVSPropertyOp0
 70
     1
102
RTVSPropertyOp1
 70
     1
102
RTVSPropertyOp2
 70
     1
102
RTVSPropertyOp3
 70
     1
102
RTVSPropertyOp4
 70
     1
102
RTVSPropertyOp5
 70
     1
102
RTVSPropertyOp6
 70
     1
102
RTVSPropertyOp7
 70
     1
102
RTVSPropertyOp8
 70
     1
102
RTVSPropertyOp9
 70
     1
102
RTVSPropertyOp10
 70
     1
102
RTVSPropertyOp11
 70
     1
102
RTVSPropertyOp12
 70
     1
102
RTVSPropertyOp13
 70
     1
102
RTVSPropertyOp14
 70
     1
102
RTVSPropertyOp15
 70
     1
102
RTVSPropertyOp16
 70
     1
102
RTVSPropertyOp17
 70
     1
102
RTVSPropertyOp18
 70
     1
102
RTVSPropertyOp19
 70
     1
102
RTVSPropertyOp20
 70
     1
102
RTVSPropertyOp21
 70
     1
102
RTVSPropertyOp22
 70
     1
102
RTVSPropertyOp23
 70
     1
102
RTVSPropertyOp24
 70
     1
102
RTVSPropertyOp25
 70
     1
102
RTVSPropertyOp26
 70
     1
102
RTVSPropertyOp27
 70
     1
102
RTVSPropertyOp28
 70
     1
102
RTVSPropertyOp29
 70
     1
102
RTVSPropertyOp30
 70
     1
102
RTVSPropertyOp31
 70
     1
102
RTVSPropertyOp32
 70
     1
102
RTVSPropertyOp33
 70
     1
102
RTVSPropertyOp34
 70
     1
102
RTVSPropertyOp35
 70
     1
102
RTVSPropertyOp36
 70
     1
102
RTVSPropertyOp37
 70
     1
102
RTVSPropertyOp38
 70
     1
102
RTVSPropertyOp39
 70
     1
102
RTVSPropertyOp40
 70
     1
102
RTVSPropertyOp41
 70
     1
102
RTVSPropertyOp42
 70
     1
102
RTVSPropertyOp43
 70
     1
102
RTVSPropertyOp44
 70
     1
102
RTVSPropertyOp45
 70
     1
102
RTVSPropertyOp46
 70
     1
102
RTVSPropertyOp47
 70
     1
102
RTVSPropertyOp48
 70
     1
102
RTVSPropertyOp49
 70
     1
102
RTVSPropertyOp50
 70
     1
102
RTVSPropertyOp51
 70
     0
102
RTVSPropertyOp52
 70
     0
102
RTVSPropertyOp53
 70
     1
102
RTVSPropertyOp54
 70
     1
102
RTVSPropertyOp55
 70
     1
102
RTVSPropertyOp56
 70
     1
102
RTVSPropertyOp57
 70
     1
102
RTVSPropertyOp58
 70
     1
102
RTVSPropertyOp59
 70
     1
102
RTVSPropertyOp60
 70
     1
102
RTVSPropertyOp61
 70
     1
102
RTVSPropertyOp62
 70
     1
  0
XRECORD
  5
1F25
102
{ACAD_REACTORS
330
1F24
102
}
330
1F24
100
AcDbXrecord
280
     1
102
RTVSPost2010Prop28
280
     0
102
RTVSPost2010PropOp28
 70
     1
102
RTVSPost2010Prop29
280
     1
102
RTVSPost2010PropOp29
 70
     1
102
RTVSPost2010Prop30
280
     1
102
RTVSPost2010PropOp30
 70
     1
102
RTVSPost2010Prop31
280
     0
102
RTVSPost2010PropOp31
 70
     1
102
RTVSPost2010Prop32
280
     0
102
RTVSPost2010PropOp32
 70
     1
102
RTVSPost2010Prop33
280
     0
102
RTVSPost2010PropOp33
 70
     1
102
RTVSPost2010Prop34
280
     0
102
RTVSPost2010PropOp34
 70
     1
102
RTVSPost2010Prop35
280
     0
102
RTVSPost2010PropOp35
 70
     1
102
RTVSPost2010Prop36
280
     0
102
RTVSPost2010PropOp36
 70
     1
102
RTVSPost2010Prop37
 90
       50
102
RTVSPost2010PropOp37
 70
     1
102
RTVSPost2010Prop38
140
0.0
102
RTVSPost2010PropOp38
 70
     1
102
RTVSPost2010Prop39
140
1.0
102
RTVSPost2010PropOp39
 70
     1
102
RTVSPost2010Prop40
 90
        0
102
RTVSPost2010PropOp40
 70
     1
102
RTVSPost2010Prop41ColorIndex
 90
       18
102
RTVSPost2010Prop41ColorRGB
 90
        0
102
RTVSPost2010PropOp41
 70
     1
102
RTVSPost2010Prop42
 90
       50
102
RTVSPost2010PropOp42
 70
     1
102
RTVSPost2010Prop43
 90
        3
102
RTVSPost2010PropOp43
 70
     1
102
RTVSPost2010Prop44ColorIndex
 90
        5
102
RTVSPost2010Prop44ColorRGB
 90
      255
102
RTVSPost2010PropOp44
 70
     1
102
RTVSPost2010Prop45
280
     0
102
RTVSPost2010PropOp45
 70
     1
102
RTVSPost2010Prop46
 90
       50
102
RTVSPost2010PropOp46
 70
     1
102
RTVSPost2010Prop47
 90
       50
102
RTVSPost2010PropOp47
 70
     1
102
RTVSPost2010Prop48
 90
       50
102
RTVSPost2010PropOp48
 70
     1
102
RTVSPost2010Prop49
280
     0
102
RTVSPost2010PropOp49
 70
     1
102
RTVSPost2010Prop50
 90
       50
102
RTVSPost2010PropOp50
 70
     1
102
RTVSPost2010Prop51ColorIndex
 90
      256
102
RTVSPost2010Prop51ColorRGB
 90
-16777216
102
RTVSPost2010PropOp51
 70
     0
102
RTVSPost2010Prop52
140
1.0
102
RTVSPost2010PropOp52
 70
     0
102
RTVSPost2010Prop53
 90
        2
102
RTVSPost2010PropOp53
 70
     1
102
RTVSPost2010Prop54
  1
strokes_ogs.tif
102
RTVSPost2010PropOp54
 70
     1
102
RTVSPost2010Prop55
280
     0
102
RTVSPost2010PropOp55
 70
     1
102
RTVSPost2010Prop56
140
1.0
102
RTVSPost2010PropOp56
 70
     1
102
RTVSPost2010Prop57
140
1.0
102
RTVSPost2010PropOp57
 70
     1
102
RTVSPropertyOp0
 70
     1
102
RTVSPropertyOp1
 70
     1
102
RTVSPropertyOp2
 70
     1
102
RTVSPropertyOp3
 70
     1
102
RTVSPropertyOp4
 70
     1
102
RTVSPropertyOp5
 70
     1
102
RTVSPropertyOp6
 70
     1
102
RTVSPropertyOp7
 70
     1
102
RTVSPropertyOp8
 70
     1
102
RTVSPropertyOp9
 70
     1
102
RTVSPropertyOp10
 70
     1
102
RTVSPropertyOp11
 70
     1
102
RTVSPropertyOp12
 70
     1
102
RTVSPropertyOp13
 70
     1
102
RTVSPropertyOp14
 70
     1
102
RTVSPropertyOp15
 70
     1
102
RTVSPropertyOp16
 70
     1
102
RTVSPropertyOp17
 70
     1
102
RTVSPropertyOp18
 70
     1
102
RTVSPropertyOp19
 70
     1
102
RTVSPropertyOp20
 70
     1
102
RTVSPropertyOp21
 70
     1
102
RTVSPropertyOp22
 70
     1
102
RTVSPropertyOp23
 70
     1
102
RTVSPropertyOp24
 70
     1
102
RTVSPropertyOp25
 70
     1
102
RTVSPropertyOp26
 70
     1
102
RTVSPropertyOp27
 70
     1
102
RTVSPropertyOp28
 70
     1
102
RTVSPropertyOp29
 70
     1
102
RTVSPropertyOp30
 70
     1
102
RTVSPropertyOp31
 70
     1
102
RTVSPropertyOp32
 70
     1
102
RTVSPropertyOp33
 70
     1
102
RTVSPropertyOp34
 70
     1
102
RTVSPropertyOp35
 70
     1
102
RTVSPropertyOp36
 70
     1
102
RTVSPropertyOp37
 70
     1
102
RTVSPropertyOp38
 70
     1
102
RTVSPropertyOp39
 70
     1
102
RTVSPropertyOp40
 70
     1
102
RTVSPropertyOp41
 70
     1
102
RTVSPropertyOp42
 70
     1
102
RTVSPropertyOp43
 70
     1
102
RTVSPropertyOp44
 70
     1
102
RTVSPropertyOp45
 70
     1
102
RTVSPropertyOp46
 70
     1
102
RTVSPropertyOp47
 70
     1
102
RTVSPropertyOp48
 70
     1
102
RTVSPropertyOp49
 70
     1
102
RTVSPropertyOp50
 70
     1
102
RTVSPropertyOp51
 70
     0
102
RTVSPropertyOp52
 70
     0
102
RTVSPropertyOp53
 70
     1
102
RTVSPropertyOp54
 70
     1
102
RTVSPropertyOp55
 70
     1
102
RTVSPropertyOp56
 70
     1
102
RTVSPropertyOp57
 70
     1
102
RTVSPropertyOp58
 70
     1
102
RTVSPropertyOp59
 70
     1
102
RTVSPropertyOp60
 70
     1
102
RTVSPropertyOp61
 70
     1
102
RTVSPropertyOp62
 70
     1
  0
XRECORD
  5
1F27
102
{ACAD_REACTORS
330
1F26
102
}
330
1F26
100
AcDbXrecord
280
     1
102
RTVSPost2010Prop28
280
     0
102
RTVSPost2010PropOp28
 70
     1
102
RTVSPost2010Prop29
280
     1
102
RTVSPost2010PropOp29
 70
     1
102
RTVSPost2010Prop30
280
     1
102
RTVSPost2010PropOp30
 70
     1
102
RTVSPost2010Prop31
280
     0
102
RTVSPost2010PropOp31
 70
     1
102
RTVSPost2010Prop32
280
     0
102
RTVSPost2010PropOp32
 70
     1
102
RTVSPost2010Prop33
280
     0
102
RTVSPost2010PropOp33
 70
     1
102
RTVSPost2010Prop34
280
     0
102
RTVSPost2010PropOp34
 70
     1
102
RTVSPost2010Prop35
280
     0
102
RTVSPost2010PropOp35
 70
     1
102
RTVSPost2010Prop36
280
     0
102
RTVSPost2010PropOp36
 70
     1
102
RTVSPost2010Prop37
 90
       50
102
RTVSPost2010PropOp37
 70
     1
102
RTVSPost2010Prop38
140
0.0
102
RTVSPost2010PropOp38
 70
     1
102
RTVSPost2010Prop39
140
1.0
102
RTVSPost2010PropOp39
 70
     1
102
RTVSPost2010Prop40
 90
        0
102
RTVSPost2010PropOp40
 70
     1
102
RTVSPost2010Prop41ColorIndex
 90
       18
102
RTVSPost2010Prop41ColorRGB
 90
        0
102
RTVSPost2010PropOp41
 70
     1
102
RTVSPost2010Prop42
 90
       50
102
RTVSPost2010PropOp42
 70
     1
102
RTVSPost2010Prop43
 90
        3
102
RTVSPost2010PropOp43
 70
     1
102
RTVSPost2010Prop44ColorIndex
 90
        5
102
RTVSPost2010Prop44ColorRGB
 90
      255
102
RTVSPost2010PropOp44
 70
     1
102
RTVSPost2010Prop45
280
     0
102
RTVSPost2010PropOp45
 70
     1
102
RTVSPost2010Prop46
 90
       50
102
RTVSPost2010PropOp46
 70
     1
102
RTVSPost2010Prop47
 90
       50
102
RTVSPost2010PropOp47
 70
     1
102
RTVSPost2010Prop48
 90
       50
102
RTVSPost2010PropOp48
 70
     1
102
RTVSPost2010Prop49
280
     0
102
RTVSPost2010PropOp49
 70
     1
102
RTVSPost2010Prop50
 90
       50
102
RTVSPost2010PropOp50
 70
     1
102
RTVSPost2010Prop51ColorIndex
 90
      256
102
RTVSPost2010Prop51ColorRGB
 90
-16777216
102
RTVSPost2010PropOp51
 70
     0
102
RTVSPost2010Prop52
140
1.0
102
RTVSPost2010PropOp52
 70
     0
102
RTVSPost2010Prop53
 90
        2
102
RTVSPost2010PropOp53
 70
     1
102
RTVSPost2010Prop54
  1
strokes_ogs.tif
102
RTVSPost2010PropOp54
 70
     1
102
RTVSPost2010Prop55
280
     0
102
RTVSPost2010PropOp55
 70
     1
102
RTVSPost2010Prop56
140
1.0
102
RTVSPost2010PropOp56
 70
     1
102
RTVSPost2010Prop57
140
1.0
102
RTVSPost2010PropOp57
 70
     1
102
RTVSPropertyOp0
 70
     1
102
RTVSPropertyOp1
 70
     1
102
RTVSPropertyOp2
 70
     1
102
RTVSPropertyOp3
 70
     1
102
RTVSPropertyOp4
 70
     1
102
RTVSPropertyOp5
 70
     1
102
RTVSPropertyOp6
 70
     1
102
RTVSPropertyOp7
 70
     1
102
RTVSPropertyOp8
 70
     1
102
RTVSPropertyOp9
 70
     1
102
RTVSPropertyOp10
 70
     1
102
RTVSPropertyOp11
 70
     1
102
RTVSPropertyOp12
 70
     1
102
RTVSPropertyOp13
 70
     1
102
RTVSPropertyOp14
 70
     1
102
RTVSPropertyOp15
 70
     1
102
RTVSPropertyOp16
 70
     1
102
RTVSPropertyOp17
 70
     1
102
RTVSPropertyOp18
 70
     1
102
RTVSPropertyOp19
 70
     1
102
RTVSPropertyOp20
 70
     1
102
RTVSPropertyOp21
 70
     1
102
RTVSPropertyOp22
 70
     1
102
RTVSPropertyOp23
 70
     1
102
RTVSPropertyOp24
 70
     1
102
RTVSPropertyOp25
 70
     1
102
RTVSPropertyOp26
 70
     1
102
RTVSPropertyOp27
 70
     1
102
RTVSPropertyOp28
 70
     1
102
RTVSPropertyOp29
 70
     1
102
RTVSPropertyOp30
 70
     1
102
RTVSPropertyOp31
 70
     1
102
RTVSPropertyOp32
 70
     1
102
RTVSPropertyOp33
 70
     1
102
RTVSPropertyOp34
 70
     1
102
RTVSPropertyOp35
 70
     1
102
RTVSPropertyOp36
 70
     1
102
RTVSPropertyOp37
 70
     1
102
RTVSPropertyOp38
 70
     1
102
RTVSPropertyOp39
 70
     1
102
RTVSPropertyOp40
 70
     1
102
RTVSPropertyOp41
 70
     1
102
RTVSPropertyOp42
 70
     1
102
RTVSPropertyOp43
 70
     1
102
RTVSPropertyOp44
 70
     1
102
RTVSPropertyOp45
 70
     1
102
RTVSPropertyOp46
 70
     1
102
RTVSPropertyOp47
 70
     1
102
RTVSPropertyOp48
 70
     1
102
RTVSPropertyOp49
 70
     1
102
RTVSPropertyOp50
 70
     1
102
RTVSPropertyOp51
 70
     0
102
RTVSPropertyOp52
 70
     0
102
RTVSPropertyOp53
 70
     1
102
RTVSPropertyOp54
 70
     1
102
RTVSPropertyOp55
 70
     1
102
RTVSPropertyOp56
 70
     1
102
RTVSPropertyOp57
 70
     1
102
RTVSPropertyOp58
 70
     1
102
RTVSPropertyOp59
 70
     1
102
RTVSPropertyOp60
 70
     1
102
RTVSPropertyOp61
 70
     1
102
RTVSPropertyOp62
 70
     1
  0
XRECORD
  5
1F29
102
{ACAD_REACTORS
330
1F28
102
}
330
1F28
100
AcDbXrecord
280
     1
102
RTVSPost2010Prop28
280
     0
102
RTVSPost2010PropOp28
 70
     1
102
RTVSPost2010Prop29
280
     1
102
RTVSPost2010PropOp29
 70
     1
102
RTVSPost2010Prop30
280
     1
102
RTVSPost2010PropOp30
 70
     1
102
RTVSPost2010Prop31
280
     0
102
RTVSPost2010PropOp31
 70
     1
102
RTVSPost2010Prop32
280
     0
102
RTVSPost2010PropOp32
 70
     1
102
RTVSPost2010Prop33
280
     0
102
RTVSPost2010PropOp33
 70
     1
102
RTVSPost2010Prop34
280
     0
102
RTVSPost2010PropOp34
 70
     1
102
RTVSPost2010Prop35
280
     0
102
RTVSPost2010PropOp35
 70
     1
102
RTVSPost2010Prop36
280
     0
102
RTVSPost2010PropOp36
 70
     1
102
RTVSPost2010Prop37
 90
       50
102
RTVSPost2010PropOp37
 70
     1
102
RTVSPost2010Prop38
140
0.0
102
RTVSPost2010PropOp38
 70
     1
102
RTVSPost2010Prop39
140
1.0
102
RTVSPost2010PropOp39
 70
     1
102
RTVSPost2010Prop40
 90
        0
102
RTVSPost2010PropOp40
 70
     1
102
RTVSPost2010Prop41ColorIndex
 90
       18
102
RTVSPost2010Prop41ColorRGB
 90
        0
102
RTVSPost2010PropOp41
 70
     1
102
RTVSPost2010Prop42
 90
       50
102
RTVSPost2010PropOp42
 70
     1
102
RTVSPost2010Prop43
 90
        3
102
RTVSPost2010PropOp43
 70
     1
102
RTVSPost2010Prop44ColorIndex
 90
        5
102
RTVSPost2010Prop44ColorRGB
 90
      255
102
RTVSPost2010PropOp44
 70
     1
102
RTVSPost2010Prop45
280
     0
102
RTVSPost2010PropOp45
 70
     1
102
RTVSPost2010Prop46
 90
       50
102
RTVSPost2010PropOp46
 70
     1
102
RTVSPost2010Prop47
 90
       50
102
RTVSPost2010PropOp47
 70
     1
102
RTVSPost2010Prop48
 90
       50
102
RTVSPost2010PropOp48
 70
     1
102
RTVSPost2010Prop49
280
     0
102
RTVSPost2010PropOp49
 70
     1
102
RTVSPost2010Prop50
 90
       50
102
RTVSPost2010PropOp50
 70
     1
102
RTVSPost2010Prop51ColorIndex
 90
      256
102
RTVSPost2010Prop51ColorRGB
 90
-16777216
102
RTVSPost2010PropOp51
 70
     0
102
RTVSPost2010Prop52
140
1.0
102
RTVSPost2010PropOp52
 70
     0
102
RTVSPost2010Prop53
 90
        2
102
RTVSPost2010PropOp53
 70
     1
102
RTVSPost2010Prop54
  1
strokes_ogs.tif
102
RTVSPost2010PropOp54
 70
     1
102
RTVSPost2010Prop55
280
     0
102
RTVSPost2010PropOp55
 70
     1
102
RTVSPost2010Prop56
140
1.0
102
RTVSPost2010PropOp56
 70
     1
102
RTVSPost2010Prop57
140
1.0
102
RTVSPost2010PropOp57
 70
     1
102
RTVSPropertyOp0
 70
     1
102
RTVSPropertyOp1
 70
     1
102
RTVSPropertyOp2
 70
     1
102
RTVSPropertyOp3
 70
     1
102
RTVSPropertyOp4
 70
     1
102
RTVSPropertyOp5
 70
     1
102
RTVSPropertyOp6
 70
     1
102
RTVSPropertyOp7
 70
     1
102
RTVSPropertyOp8
 70
     1
102
RTVSPropertyOp9
 70
     1
102
RTVSPropertyOp10
 70
     1
102
RTVSPropertyOp11
 70
     1
102
RTVSPropertyOp12
 70
     1
102
RTVSPropertyOp13
 70
     1
102
RTVSPropertyOp14
 70
     1
102
RTVSPropertyOp15
 70
     1
102
RTVSPropertyOp16
 70
     1
102
RTVSPropertyOp17
 70
     1
102
RTVSPropertyOp18
 70
     1
102
RTVSPropertyOp19
 70
     1
102
RTVSPropertyOp20
 70
     1
102
RTVSPropertyOp21
 70
     1
102
RTVSPropertyOp22
 70
     1
102
RTVSPropertyOp23
 70
     1
102
RTVSPropertyOp24
 70
     1
102
RTVSPropertyOp25
 70
     1
102
RTVSPropertyOp26
 70
     1
102
RTVSPropertyOp27
 70
     1
102
RTVSPropertyOp28
 70
     1
102
RTVSPropertyOp29
 70
     1
102
RTVSPropertyOp30
 70
     1
102
RTVSPropertyOp31
 70
     1
102
RTVSPropertyOp32
 70
     1
102
RTVSPropertyOp33
 70
     1
102
RTVSPropertyOp34
 70
     1
102
RTVSPropertyOp35
 70
     1
102
RTVSPropertyOp36
 70
     1
102
RTVSPropertyOp37
 70
     1
102
RTVSPropertyOp38
 70
     1
102
RTVSPropertyOp39
 70
     1
102
RTVSPropertyOp40
 70
     1
102
RTVSPropertyOp41
 70
     1
102
RTVSPropertyOp42
 70
     1
102
RTVSPropertyOp43
 70
     1
102
RTVSPropertyOp44
 70
     1
102
RTVSPropertyOp45
 70
     1
102
RTVSPropertyOp46
 70
     1
102
RTVSPropertyOp47
 70
     1
102
RTVSPropertyOp48
 70
     1
102
RTVSPropertyOp49
 70
     1
102
RTVSPropertyOp50
 70
     1
102
RTVSPropertyOp51
 70
     0
102
RTVSPropertyOp52
 70
     0
102
RTVSPropertyOp53
 70
     1
102
RTVSPropertyOp54
 70
     1
102
RTVSPropertyOp55
 70
     1
102
RTVSPropertyOp56
 70
     1
102
RTVSPropertyOp57
 70
     1
102
RTVSPropertyOp58
 70
     1
102
RTVSPropertyOp59
 70
     1
102
RTVSPropertyOp60
 70
     1
102
RTVSPropertyOp61
 70
     1
102
RTVSPropertyOp62
 70
     1
  0
XRECORD
  5
1F31
102
{ACAD_REACTORS
330
1F30
102
}
330
1F30
100
AcDbXrecord
280
     1
102
RTVSPost2010Prop28
280
     0
102
RTVSPost2010PropOp28
 70
     1
102
RTVSPost2010Prop29
280
     1
102
RTVSPost2010PropOp29
 70
     1
102
RTVSPost2010Prop30
280
     1
102
RTVSPost2010PropOp30
 70
     1
102
RTVSPost2010Prop31
280
     0
102
RTVSPost2010PropOp31
 70
     1
102
RTVSPost2010Prop32
280
     0
102
RTVSPost2010PropOp32
 70
     1
102
RTVSPost2010Prop33
280
     0
102
RTVSPost2010PropOp33
 70
     1
102
RTVSPost2010Prop34
280
     0
102
RTVSPost2010PropOp34
 70
     1
102
RTVSPost2010Prop35
280
     0
102
RTVSPost2010PropOp35
 70
     1
102
RTVSPost2010Prop36
280
     0
102
RTVSPost2010PropOp36
 70
     1
102
RTVSPost2010Prop37
 90
       50
102
RTVSPost2010PropOp37
 70
     1
102
RTVSPost2010Prop38
140
0.0
102
RTVSPost2010PropOp38
 70
     1
102
RTVSPost2010Prop39
140
1.0
102
RTVSPost2010PropOp39
 70
     1
102
RTVSPost2010Prop40
 90
        0
102
RTVSPost2010PropOp40
 70
     1
102
RTVSPost2010Prop41ColorIndex
 90
       18
102
RTVSPost2010Prop41ColorRGB
 90
        0
102
RTVSPost2010PropOp41
 70
     1
102
RTVSPost2010Prop42
 90
       50
102
RTVSPost2010PropOp42
 70
     1
102
RTVSPost2010Prop43
 90
        3
102
RTVSPost2010PropOp43
 70
     1
102
RTVSPost2010Prop44ColorIndex
 90
        5
102
RTVSPost2010Prop44ColorRGB
 90
      255
102
RTVSPost2010PropOp44
 70
     1
102
RTVSPost2010Prop45
280
     0
102
RTVSPost2010PropOp45
 70
     1
102
RTVSPost2010Prop46
 90
       50
102
RTVSPost2010PropOp46
 70
     1
102
RTVSPost2010Prop47
 90
       50
102
RTVSPost2010PropOp47
 70
     1
102
RTVSPost2010Prop48
 90
       50
102
RTVSPost2010PropOp48
 70
     1
102
RTVSPost2010Prop49
280
     0
102
RTVSPost2010PropOp49
 70
     1
102
RTVSPost2010Prop50
 90
       50
102
RTVSPost2010PropOp50
 70
     1
102
RTVSPost2010Prop51ColorIndex
 90
      256
102
RTVSPost2010Prop51ColorRGB
 90
-16777216
102
RTVSPost2010PropOp51
 70
     0
102
RTVSPost2010Prop52
140
1.0
102
RTVSPost2010PropOp52
 70
     0
102
RTVSPost2010Prop53
 90
        2
102
RTVSPost2010PropOp53
 70
     1
102
RTVSPost2010Prop54
  1
strokes_ogs.tif
102
RTVSPost2010PropOp54
 70
     1
102
RTVSPost2010Prop55
280
     0
102
RTVSPost2010PropOp55
 70
     1
102
RTVSPost2010Prop56
140
1.0
102
RTVSPost2010PropOp56
 70
     1
102
RTVSPost2010Prop57
140
1.0
102
RTVSPost2010PropOp57
 70
     1
102
RTVSPropertyOp0
 70
     1
102
RTVSPropertyOp1
 70
     1
102
RTVSPropertyOp2
 70
     1
102
RTVSPropertyOp3
 70
     1
102
RTVSPropertyOp4
 70
     1
102
RTVSPropertyOp5
 70
     1
102
RTVSPropertyOp6
 70
     1
102
RTVSPropertyOp7
 70
     1
102
RTVSPropertyOp8
 70
     1
102
RTVSPropertyOp9
 70
     1
102
RTVSPropertyOp10
 70
     1
102
RTVSPropertyOp11
 70
     1
102
RTVSPropertyOp12
 70
     1
102
RTVSPropertyOp13
 70
     1
102
RTVSPropertyOp14
 70
     1
102
RTVSPropertyOp15
 70
     1
102
RTVSPropertyOp16
 70
     1
102
RTVSPropertyOp17
 70
     1
102
RTVSPropertyOp18
 70
     1
102
RTVSPropertyOp19
 70
     1
102
RTVSPropertyOp20
 70
     1
102
RTVSPropertyOp21
 70
     1
102
RTVSPropertyOp22
 70
     1
102
RTVSPropertyOp23
 70
     1
102
RTVSPropertyOp24
 70
     1
102
RTVSPropertyOp25
 70
     1
102
RTVSPropertyOp26
 70
     1
102
RTVSPropertyOp27
 70
     1
102
RTVSPropertyOp28
 70
     1
102
RTVSPropertyOp29
 70
     1
102
RTVSPropertyOp30
 70
     1
102
RTVSPropertyOp31
 70
     1
102
RTVSPropertyOp32
 70
     1
102
RTVSPropertyOp33
 70
     1
102
RTVSPropertyOp34
 70
     1
102
RTVSPropertyOp35
 70
     1
102
RTVSPropertyOp36
 70
     1
102
RTVSPropertyOp37
 70
     1
102
RTVSPropertyOp38
 70
     1
102
RTVSPropertyOp39
 70
     1
102
RTVSPropertyOp40
 70
     1
102
RTVSPropertyOp41
 70
     1
102
RTVSPropertyOp42
 70
     1
102
RTVSPropertyOp43
 70
     1
102
RTVSPropertyOp44
 70
     1
102
RTVSPropertyOp45
 70
     1
102
RTVSPropertyOp46
 70
     1
102
RTVSPropertyOp47
 70
     1
102
RTVSPropertyOp48
 70
     1
102
RTVSPropertyOp49
 70
     1
102
RTVSPropertyOp50
 70
     1
102
RTVSPropertyOp51
 70
     0
102
RTVSPropertyOp52
 70
     0
102
RTVSPropertyOp53
 70
     1
102
RTVSPropertyOp54
 70
     1
102
RTVSPropertyOp55
 70
     1
102
RTVSPropertyOp56
 70
     1
102
RTVSPropertyOp57
 70
     1
102
RTVSPropertyOp58
 70
     1
102
RTVSPropertyOp59
 70
     1
102
RTVSPropertyOp60
 70
     1
102
RTVSPropertyOp61
 70
     1
102
RTVSPropertyOp62
 70
     1
  0
XRECORD
  5
1F4D
102
{ACAD_REACTORS
330
1F4C
102
}
330
1F4C
100
AcDbXrecord
280
     1
102
RTVSPost2010Prop28
280
     0
102
RTVSPost2010PropOp28
 70
     1
102
RTVSPost2010Prop29
280
     1
102
RTVSPost2010PropOp29
 70
     1
102
RTVSPost2010Prop30
280
     1
102
RTVSPost2010PropOp30
 70
     1
102
RTVSPost2010Prop31
280
     0
102
RTVSPost2010PropOp31
 70
     1
102
RTVSPost2010Prop32
280
     0
102
RTVSPost2010PropOp32
 70
     1
102
RTVSPost2010Prop33
280
     0
102
RTVSPost2010PropOp33
 70
     1
102
RTVSPost2010Prop34
280
     0
102
RTVSPost2010PropOp34
 70
     1
102
RTVSPost2010Prop35
280
     0
102
RTVSPost2010PropOp35
 70
     1
102
RTVSPost2010Prop36
280
     0
102
RTVSPost2010PropOp36
 70
     1
102
RTVSPost2010Prop37
 90
       50
102
RTVSPost2010PropOp37
 70
     0
102
RTVSPost2010Prop38
140
0.0
102
RTVSPost2010PropOp38
 70
     0
102
RTVSPost2010Prop39
140
1.0
102
RTVSPost2010PropOp39
 70
     0
102
RTVSPost2010Prop40
 90
        0
102
RTVSPost2010PropOp40
 70
     0
102
RTVSPost2010Prop41ColorIndex
 90
       18
102
RTVSPost2010Prop41ColorRGB
 90
        0
102
RTVSPost2010PropOp41
 70
     0
102
RTVSPost2010Prop42
 90
       50
102
RTVSPost2010PropOp42
 70
     0
102
RTVSPost2010Prop43
 90
        3
102
RTVSPost2010PropOp43
 70
     0
102
RTVSPost2010Prop44ColorIndex
 90
        5
102
RTVSPost2010Prop44ColorRGB
 90
      255
102
RTVSPost2010PropOp44
 70
     0
102
RTVSPost2010Prop45
280
     0
102
RTVSPost2010PropOp45
 70
     1
102
RTVSPost2010Prop46
 90
       50
102
RTVSPost2010PropOp46
 70
     0
102
RTVSPost2010Prop47
 90
       50
102
RTVSPost2010PropOp47
 70
     0
102
RTVSPost2010Prop48
 90
       50
102
RTVSPost2010PropOp48
 70
     0
102
RTVSPost2010Prop49
280
     0
102
RTVSPost2010PropOp49
 70
     1
102
RTVSPost2010Prop50
 90
       50
102
RTVSPost2010PropOp50
 70
     0
102
RTVSPost2010Prop51ColorIndex
 90
      256
102
RTVSPost2010Prop51ColorRGB
 90
-16777216
102
RTVSPost2010PropOp51
 70
     0
102
RTVSPost2010Prop52
140
1.0
102
RTVSPost2010PropOp52
 70
     0
102
RTVSPost2010Prop53
 90
        2
102
RTVSPost2010PropOp53
 70
     0
102
RTVSPost2010Prop54
  1
strokes_ogs.tif
102
RTVSPost2010PropOp54
 70
     0
102
RTVSPost2010Prop55
280
     0
102
RTVSPost2010PropOp55
 70
     1
102
RTVSPost2010Prop56
140
1.0
102
RTVSPost2010PropOp56
 70
     0
102
RTVSPost2010Prop57
140
1.0
102
RTVSPost2010PropOp57
 70
     0
102
RTVSPropertyOp0
 70
     0
102
RTVSPropertyOp1
 70
     0
102
RTVSPropertyOp2
 70
     0
102
RTVSPropertyOp3
 70
     0
102
RTVSPropertyOp4
 70
     0
102
RTVSPropertyOp5
 70
     0
102
RTVSPropertyOp6
 70
     0
102
RTVSPropertyOp7
 70
     0
102
RTVSPropertyOp8
 70
     0
102
RTVSPropertyOp9
 70
     0
102
RTVSPropertyOp10
 70
     0
102
RTVSPropertyOp11
 70
     0
102
RTVSPropertyOp12
 70
     0
102
RTVSPropertyOp13
 70
     0
102
RTVSPropertyOp14
 70
     2
102
RTVSPropertyOp15
 70
     0
102
RTVSPropertyOp16
 70
     0
102
RTVSPropertyOp17
 70
     0
102
RTVSPropertyOp18
 70
     0
102
RTVSPropertyOp19
 70
     0
102
RTVSPropertyOp20
 70
     0
102
RTVSPropertyOp21
 70
     0
102
RTVSPropertyOp22
 70
     0
102
RTVSPropertyOp23
 70
     0
102
RTVSPropertyOp24
 70
     0
102
RTVSPropertyOp25
 70
     0
102
RTVSPropertyOp26
 70
     0
102
RTVSPropertyOp27
 70
     0
102
RTVSPropertyOp28
 70
     1
102
RTVSPropertyOp29
 70
     1
102
RTVSPropertyOp30
 70
     1
102
RTVSPropertyOp31
 70
     1
102
RTVSPropertyOp32
 70
     1
102
RTVSPropertyOp33
 70
     1
102
RTVSPropertyOp34
 70
     1
102
RTVSPropertyOp35
 70
     1
102
RTVSPropertyOp36
 70
     1
102
RTVSPropertyOp37
 70
     0
102
RTVSPropertyOp38
 70
     0
102
RTVSPropertyOp39
 70
     0
102
RTVSPropertyOp40
 70
     0
102
RTVSPropertyOp41
 70
     0
102
RTVSPropertyOp42
 70
     0
102
RTVSPropertyOp43
 70
     0
102
RTVSPropertyOp44
 70
     0
102
RTVSPropertyOp45
 70
     1
102
RTVSPropertyOp46
 70
     0
102
RTVSPropertyOp47
 70
     0
102
RTVSPropertyOp48
 70
     0
102
RTVSPropertyOp49
 70
     1
102
RTVSPropertyOp50
 70
     0
102
RTVSPropertyOp51
 70
     0
102
RTVSPropertyOp52
 70
     0
102
RTVSPropertyOp53
 70
     0
102
RTVSPropertyOp54
 70
     0
102
RTVSPropertyOp55
 70
     1
102
RTVSPropertyOp56
 70
     0
102
RTVSPropertyOp57
 70
     0
102
RTVSPropertyOp58
 70
     0
102
RTVSPropertyOp59
 70
     0
102
RTVSPropertyOp60
 70
     0
102
RTVSPropertyOp61
 70
     0
102
RTVSPropertyOp62
 70
     0
  0
XRECORD
  5
1F3D
102
{ACAD_REACTORS
330
1F3C
102
}
330
1F3C
100
AcDbXrecord
280
     1
102
RTVSPost2010Prop28
280
     0
102
RTVSPost2010PropOp28
 70
     1
102
RTVSPost2010Prop29
280
     1
102
RTVSPost2010PropOp29
 70
     1
102
RTVSPost2010Prop30
280
     1
102
RTVSPost2010PropOp30
 70
     1
102
RTVSPost2010Prop31
280
     0
102
RTVSPost2010PropOp31
 70
     1
102
RTVSPost2010Prop32
280
     0
102
RTVSPost2010PropOp32
 70
     1
102
RTVSPost2010Prop33
280
     0
102
RTVSPost2010PropOp33
 70
     1
102
RTVSPost2010Prop34
280
     0
102
RTVSPost2010PropOp34
 70
     1
102
RTVSPost2010Prop35
280
     0
102
RTVSPost2010PropOp35
 70
     1
102
RTVSPost2010Prop36
280
     0
102
RTVSPost2010PropOp36
 70
     1
102
RTVSPost2010Prop37
 90
       50
102
RTVSPost2010PropOp37
 70
     1
102
RTVSPost2010Prop38
140
0.0
102
RTVSPost2010PropOp38
 70
     1
102
RTVSPost2010Prop39
140
1.0
102
RTVSPost2010PropOp39
 70
     1
102
RTVSPost2010Prop40
 90
        0
102
RTVSPost2010PropOp40
 70
     1
102
RTVSPost2010Prop41ColorIndex
 90
       18
102
RTVSPost2010Prop41ColorRGB
 90
        0
102
RTVSPost2010PropOp41
 70
     1
102
RTVSPost2010Prop42
 90
       50
102
RTVSPost2010PropOp42
 70
     1
102
RTVSPost2010Prop43
 90
        3
102
RTVSPost2010PropOp43
 70
     1
102
RTVSPost2010Prop44ColorIndex
 90
        5
102
RTVSPost2010Prop44ColorRGB
 90
      255
102
RTVSPost2010PropOp44
 70
     1
102
RTVSPost2010Prop45
280
     0
102
RTVSPost2010PropOp45
 70
     1
102
RTVSPost2010Prop46
 90
       50
102
RTVSPost2010PropOp46
 70
     1
102
RTVSPost2010Prop47
 90
       50
102
RTVSPost2010PropOp47
 70
     1
102
RTVSPost2010Prop48
 90
       50
102
RTVSPost2010PropOp48
 70
     1
102
RTVSPost2010Prop49
280
     0
102
RTVSPost2010PropOp49
 70
     1
102
RTVSPost2010Prop50
 90
       50
102
RTVSPost2010PropOp50
 70
     1
102
RTVSPost2010Prop51ColorIndex
 90
      256
102
RTVSPost2010Prop51ColorRGB
 90
-16777216
102
RTVSPost2010PropOp51
 70
     0
102
RTVSPost2010Prop52
140
1.0
102
RTVSPost2010PropOp52
 70
     0
102
RTVSPost2010Prop53
 90
        2
102
RTVSPost2010PropOp53
 70
     1
102
RTVSPost2010Prop54
  1
strokes_ogs.tif
102
RTVSPost2010PropOp54
 70
     1
102
RTVSPost2010Prop55
280
     0
102
RTVSPost2010PropOp55
 70
     1
102
RTVSPost2010Prop56
140
1.0
102
RTVSPost2010PropOp56
 70
     1
102
RTVSPost2010Prop57
140
1.0
102
RTVSPost2010PropOp57
 70
     1
102
RTVSPropertyOp0
 70
     1
102
RTVSPropertyOp1
 70
     1
102
RTVSPropertyOp2
 70
     1
102
RTVSPropertyOp3
 70
     1
102
RTVSPropertyOp4
 70
     1
102
RTVSPropertyOp5
 70
     1
102
RTVSPropertyOp6
 70
     1
102
RTVSPropertyOp7
 70
     1
102
RTVSPropertyOp8
 70
     1
102
RTVSPropertyOp9
 70
     1
102
RTVSPropertyOp10
 70
     1
102
RTVSPropertyOp11
 70
     1
102
RTVSPropertyOp12
 70
     1
102
RTVSPropertyOp13
 70
     1
102
RTVSPropertyOp14
 70
     1
102
RTVSPropertyOp15
 70
     1
102
RTVSPropertyOp16
 70
     1
102
RTVSPropertyOp17
 70
     1
102
RTVSPropertyOp18
 70
     1
102
RTVSPropertyOp19
 70
     1
102
RTVSPropertyOp20
 70
     1
102
RTVSPropertyOp21
 70
     1
102
RTVSPropertyOp22
 70
     1
102
RTVSPropertyOp23
 70
     1
102
RTVSPropertyOp24
 70
     1
102
RTVSPropertyOp25
 70
     1
102
RTVSPropertyOp26
 70
     1
102
RTVSPropertyOp27
 70
     1
102
RTVSPropertyOp28
 70
     1
102
RTVSPropertyOp29
 70
     1
102
RTVSPropertyOp30
 70
     1
102
RTVSPropertyOp31
 70
     1
102
RTVSPropertyOp32
 70
     1
102
RTVSPropertyOp33
 70
     1
102
RTVSPropertyOp34
 70
     1
102
RTVSPropertyOp35
 70
     1
102
RTVSPropertyOp36
 70
     1
102
RTVSPropertyOp37
 70
     1
102
RTVSPropertyOp38
 70
     1
102
RTVSPropertyOp39
 70
     1
102
RTVSPropertyOp40
 70
     1
102
RTVSPropertyOp41
 70
     1
102
RTVSPropertyOp42
 70
     1
102
RTVSPropertyOp43
 70
     1
102
RTVSPropertyOp44
 70
     1
102
RTVSPropertyOp45
 70
     1
102
RTVSPropertyOp46
 70
     1
102
RTVSPropertyOp47
 70
     1
102
RTVSPropertyOp48
 70
     1
102
RTVSPropertyOp49
 70
     1
102
RTVSPropertyOp50
 70
     1
102
RTVSPropertyOp51
 70
     0
102
RTVSPropertyOp52
 70
     0
102
RTVSPropertyOp53
 70
     1
102
RTVSPropertyOp54
 70
     1
102
RTVSPropertyOp55
 70
     1
102
RTVSPropertyOp56
 70
     1
102
RTVSPropertyOp57
 70
     1
102
RTVSPropertyOp58
 70
     1
102
RTVSPropertyOp59
 70
     1
102
RTVSPropertyOp60
 70
     1
102
RTVSPropertyOp61
 70
     1
102
RTVSPropertyOp62
 70
     1
  0
XRECORD
  5
1F4F
102
{ACAD_REACTORS
330
1F4E
102
}
330
1F4E
100
AcDbXrecord
280
     1
102
RTVSPost2010Prop28
280
     0
102
RTVSPost2010PropOp28
 70
     1
102
RTVSPost2010Prop29
280
     1
102
RTVSPost2010PropOp29
 70
     1
102
RTVSPost2010Prop30
280
     1
102
RTVSPost2010PropOp30
 70
     1
102
RTVSPost2010Prop31
280
     0
102
RTVSPost2010PropOp31
 70
     1
102
RTVSPost2010Prop32
280
     0
102
RTVSPost2010PropOp32
 70
     1
102
RTVSPost2010Prop33
280
     0
102
RTVSPost2010PropOp33
 70
     1
102
RTVSPost2010Prop34
280
     0
102
RTVSPost2010PropOp34
 70
     1
102
RTVSPost2010Prop35
280
     0
102
RTVSPost2010PropOp35
 70
     1
102
RTVSPost2010Prop36
280
     0
102
RTVSPost2010PropOp36
 70
     1
102
RTVSPost2010Prop37
 90
       50
102
RTVSPost2010PropOp37
 70
     0
102
RTVSPost2010Prop38
140
0.0
102
RTVSPost2010PropOp38
 70
     0
102
RTVSPost2010Prop39
140
1.0
102
RTVSPost2010PropOp39
 70
     0
102
RTVSPost2010Prop40
 90
        0
102
RTVSPost2010PropOp40
 70
     0
102
RTVSPost2010Prop41ColorIndex
 90
       18
102
RTVSPost2010Prop41ColorRGB
 90
        0
102
RTVSPost2010PropOp41
 70
     0
102
RTVSPost2010Prop42
 90
       50
102
RTVSPost2010PropOp42
 70
     0
102
RTVSPost2010Prop43
 90
        3
102
RTVSPost2010PropOp43
 70
     0
102
RTVSPost2010Prop44ColorIndex
 90
        5
102
RTVSPost2010Prop44ColorRGB
 90
      255
102
RTVSPost2010PropOp44
 70
     0
102
RTVSPost2010Prop45
280
     0
102
RTVSPost2010PropOp45
 70
     1
102
RTVSPost2010Prop46
 90
       50
102
RTVSPost2010PropOp46
 70
     0
102
RTVSPost2010Prop47
 90
       50
102
RTVSPost2010PropOp47
 70
     0
102
RTVSPost2010Prop48
 90
       50
102
RTVSPost2010PropOp48
 70
     0
102
RTVSPost2010Prop49
280
     0
102
RTVSPost2010PropOp49
 70
     1
102
RTVSPost2010Prop50
 90
       50
102
RTVSPost2010PropOp50
 70
     0
102
RTVSPost2010Prop51ColorIndex
 90
      256
102
RTVSPost2010Prop51ColorRGB
 90
-16777216
102
RTVSPost2010PropOp51
 70
     0
102
RTVSPost2010Prop52
140
1.0
102
RTVSPost2010PropOp52
 70
     0
102
RTVSPost2010Prop53
 90
        2
102
RTVSPost2010PropOp53
 70
     0
102
RTVSPost2010Prop54
  1
strokes_ogs.tif
102
RTVSPost2010PropOp54
 70
     0
102
RTVSPost2010Prop55
280
     0
102
RTVSPost2010PropOp55
 70
     1
102
RTVSPost2010Prop56
140
1.0
102
RTVSPost2010PropOp56
 70
     0
102
RTVSPost2010Prop57
140
1.0
102
RTVSPost2010PropOp57
 70
     0
102
RTVSPropertyOp0
 70
     0
102
RTVSPropertyOp1
 70
     0
102
RTVSPropertyOp2
 70
     0
102
RTVSPropertyOp3
 70
     0
102
RTVSPropertyOp4
 70
     0
102
RTVSPropertyOp5
 70
     0
102
RTVSPropertyOp6
 70
     0
102
RTVSPropertyOp7
 70
     0
102
RTVSPropertyOp8
 70
     0
102
RTVSPropertyOp9
 70
     0
102
RTVSPropertyOp10
 70
     0
102
RTVSPropertyOp11
 70
     0
102
RTVSPropertyOp12
 70
     0
102
RTVSPropertyOp13
 70
     0
102
RTVSPropertyOp14
 70
     2
102
RTVSPropertyOp15
 70
     0
102
RTVSPropertyOp16
 70
     0
102
RTVSPropertyOp17
 70
     0
102
RTVSPropertyOp18
 70
     0
102
RTVSPropertyOp19
 70
     0
102
RTVSPropertyOp20
 70
     0
102
RTVSPropertyOp21
 70
     0
102
RTVSPropertyOp22
 70
     0
102
RTVSPropertyOp23
 70
     0
102
RTVSPropertyOp24
 70
     0
102
RTVSPropertyOp25
 70
     0
102
RTVSPropertyOp26
 70
     0
102
RTVSPropertyOp27
 70
     0
102
RTVSPropertyOp28
 70
     1
102
RTVSPropertyOp29
 70
     1
102
RTVSPropertyOp30
 70
     1
102
RTVSPropertyOp31
 70
     1
102
RTVSPropertyOp32
 70
     1
102
RTVSPropertyOp33
 70
     1
102
RTVSPropertyOp34
 70
     1
102
RTVSPropertyOp35
 70
     1
102
RTVSPropertyOp36
 70
     1
102
RTVSPropertyOp37
 70
     0
102
RTVSPropertyOp38
 70
     0
102
RTVSPropertyOp39
 70
     0
102
RTVSPropertyOp40
 70
     0
102
RTVSPropertyOp41
 70
     0
102
RTVSPropertyOp42
 70
     0
102
RTVSPropertyOp43
 70
     0
102
RTVSPropertyOp44
 70
     0
102
RTVSPropertyOp45
 70
     1
102
RTVSPropertyOp46
 70
     0
102
RTVSPropertyOp47
 70
     0
102
RTVSPropertyOp48
 70
     0
102
RTVSPropertyOp49
 70
     1
102
RTVSPropertyOp50
 70
     0
102
RTVSPropertyOp51
 70
     0
102
RTVSPropertyOp52
 70
     0
102
RTVSPropertyOp53
 70
     0
102
RTVSPropertyOp54
 70
     0
102
RTVSPropertyOp55
 70
     1
102
RTVSPropertyOp56
 70
     0
102
RTVSPropertyOp57
 70
     0
102
RTVSPropertyOp58
 70
     0
102
RTVSPropertyOp59
 70
     0
102
RTVSPropertyOp60
 70
     0
102
RTVSPropertyOp61
 70
     0
102
RTVSPropertyOp62
 70
     0
  0
XRECORD
  5
1F35
102
{ACAD_REACTORS
330
1F34
102
}
330
1F34
100
AcDbXrecord
280
     1
102
RTVSPost2010Prop28
280
     0
102
RTVSPost2010PropOp28
 70
     1
102
RTVSPost2010Prop29
280
     1
102
RTVSPost2010PropOp29
 70
     1
102
RTVSPost2010Prop30
280
     1
102
RTVSPost2010PropOp30
 70
     1
102
RTVSPost2010Prop31
280
     0
102
RTVSPost2010PropOp31
 70
     1
102
RTVSPost2010Prop32
280
     0
102
RTVSPost2010PropOp32
 70
     1
102
RTVSPost2010Prop33
280
     0
102
RTVSPost2010PropOp33
 70
     1
102
RTVSPost2010Prop34
280
     0
102
RTVSPost2010PropOp34
 70
     1
102
RTVSPost2010Prop35
280
     0
102
RTVSPost2010PropOp35
 70
     1
102
RTVSPost2010Prop36
280
     0
102
RTVSPost2010PropOp36
 70
     1
102
RTVSPost2010Prop37
 90
       50
102
RTVSPost2010PropOp37
 70
     1
102
RTVSPost2010Prop38
140
0.0
102
RTVSPost2010PropOp38
 70
     1
102
RTVSPost2010Prop39
140
1.0
102
RTVSPost2010PropOp39
 70
     1
102
RTVSPost2010Prop40
 90
        0
102
RTVSPost2010PropOp40
 70
     1
102
RTVSPost2010Prop41ColorIndex
 90
       18
102
RTVSPost2010Prop41ColorRGB
 90
        0
102
RTVSPost2010PropOp41
 70
     1
102
RTVSPost2010Prop42
 90
       50
102
RTVSPost2010PropOp42
 70
     1
102
RTVSPost2010Prop43
 90
        3
102
RTVSPost2010PropOp43
 70
     1
102
RTVSPost2010Prop44ColorIndex
 90
        5
102
RTVSPost2010Prop44ColorRGB
 90
      255
102
RTVSPost2010PropOp44
 70
     1
102
RTVSPost2010Prop45
280
     0
102
RTVSPost2010PropOp45
 70
     1
102
RTVSPost2010Prop46
 90
       50
102
RTVSPost2010PropOp46
 70
     1
102
RTVSPost2010Prop47
 90
       50
102
RTVSPost2010PropOp47
 70
     1
102
RTVSPost2010Prop48
 90
       50
102
RTVSPost2010PropOp48
 70
     1
102
RTVSPost2010Prop49
280
     0
102
RTVSPost2010PropOp49
 70
     1
102
RTVSPost2010Prop50
 90
       50
102
RTVSPost2010PropOp50
 70
     1
102
RTVSPost2010Prop51ColorIndex
 90
      256
102
RTVSPost2010Prop51ColorRGB
 90
-16777216
102
RTVSPost2010PropOp51
 70
     0
102
RTVSPost2010Prop52
140
1.0
102
RTVSPost2010PropOp52
 70
     0
102
RTVSPost2010Prop53
 90
        2
102
RTVSPost2010PropOp53
 70
     1
102
RTVSPost2010Prop54
  1
strokes_ogs.tif
102
RTVSPost2010PropOp54
 70
     1
102
RTVSPost2010Prop55
280
     0
102
RTVSPost2010PropOp55
 70
     1
102
RTVSPost2010Prop56
140
1.0
102
RTVSPost2010PropOp56
 70
     1
102
RTVSPost2010Prop57
140
1.0
102
RTVSPost2010PropOp57
 70
     1
102
RTVSPropertyOp0
 70
     1
102
RTVSPropertyOp1
 70
     1
102
RTVSPropertyOp2
 70
     1
102
RTVSPropertyOp3
 70
     1
102
RTVSPropertyOp4
 70
     1
102
RTVSPropertyOp5
 70
     1
102
RTVSPropertyOp6
 70
     1
102
RTVSPropertyOp7
 70
     1
102
RTVSPropertyOp8
 70
     1
102
RTVSPropertyOp9
 70
     1
102
RTVSPropertyOp10
 70
     1
102
RTVSPropertyOp11
 70
     1
102
RTVSPropertyOp12
 70
     1
102
RTVSPropertyOp13
 70
     1
102
RTVSPropertyOp14
 70
     1
102
RTVSPropertyOp15
 70
     1
102
RTVSPropertyOp16
 70
     1
102
RTVSPropertyOp17
 70
     1
102
RTVSPropertyOp18
 70
     1
102
RTVSPropertyOp19
 70
     1
102
RTVSPropertyOp20
 70
     1
102
RTVSPropertyOp21
 70
     1
102
RTVSPropertyOp22
 70
     1
102
RTVSPropertyOp23
 70
     1
102
RTVSPropertyOp24
 70
     1
102
RTVSPropertyOp25
 70
     1
102
RTVSPropertyOp26
 70
     1
102
RTVSPropertyOp27
 70
     1
102
RTVSPropertyOp28
 70
     1
102
RTVSPropertyOp29
 70
     1
102
RTVSPropertyOp30
 70
     1
102
RTVSPropertyOp31
 70
     1
102
RTVSPropertyOp32
 70
     1
102
RTVSPropertyOp33
 70
     1
102
RTVSPropertyOp34
 70
     1
102
RTVSPropertyOp35
 70
     1
102
RTVSPropertyOp36
 70
     1
102
RTVSPropertyOp37
 70
     1
102
RTVSPropertyOp38
 70
     1
102
RTVSPropertyOp39
 70
     1
102
RTVSPropertyOp40
 70
     1
102
RTVSPropertyOp41
 70
     1
102
RTVSPropertyOp42
 70
     1
102
RTVSPropertyOp43
 70
     1
102
RTVSPropertyOp44
 70
     1
102
RTVSPropertyOp45
 70
     1
102
RTVSPropertyOp46
 70
     1
102
RTVSPropertyOp47
 70
     1
102
RTVSPropertyOp48
 70
     1
102
RTVSPropertyOp49
 70
     1
102
RTVSPropertyOp50
 70
     1
102
RTVSPropertyOp51
 70
     0
102
RTVSPropertyOp52
 70
     0
102
RTVSPropertyOp53
 70
     1
102
RTVSPropertyOp54
 70
     1
102
RTVSPropertyOp55
 70
     1
102
RTVSPropertyOp56
 70
     1
102
RTVSPropertyOp57
 70
     1
102
RTVSPropertyOp58
 70
     1
102
RTVSPropertyOp59
 70
     1
102
RTVSPropertyOp60
 70
     1
102
RTVSPropertyOp61
 70
     1
102
RTVSPropertyOp62
 70
     1
  0
XRECORD
  5
1F4B
102
{ACAD_REACTORS
330
1F4A
102
}
330
1F4A
100
AcDbXrecord
280
     1
102
RTVSPost2010Prop28
280
     0
102
RTVSPost2010PropOp28
 70
     1
102
RTVSPost2010Prop29
280
     1
102
RTVSPost2010PropOp29
 70
     1
102
RTVSPost2010Prop30
280
     1
102
RTVSPost2010PropOp30
 70
     1
102
RTVSPost2010Prop31
280
     0
102
RTVSPost2010PropOp31
 70
     1
102
RTVSPost2010Prop32
280
     0
102
RTVSPost2010PropOp32
 70
     1
102
RTVSPost2010Prop33
280
     0
102
RTVSPost2010PropOp33
 70
     1
102
RTVSPost2010Prop34
280
     0
102
RTVSPost2010PropOp34
 70
     1
102
RTVSPost2010Prop35
280
     0
102
RTVSPost2010PropOp35
 70
     1
102
RTVSPost2010Prop36
280
     0
102
RTVSPost2010PropOp36
 70
     1
102
RTVSPost2010Prop37
 90
       50
102
RTVSPost2010PropOp37
 70
     1
102
RTVSPost2010Prop38
140
0.0
102
RTVSPost2010PropOp38
 70
     1
102
RTVSPost2010Prop39
140
1.0
102
RTVSPost2010PropOp39
 70
     1
102
RTVSPost2010Prop40
 90
        0
102
RTVSPost2010PropOp40
 70
     1
102
RTVSPost2010Prop41ColorIndex
 90
       18
102
RTVSPost2010Prop41ColorRGB
 90
        0
102
RTVSPost2010PropOp41
 70
     1
102
RTVSPost2010Prop42
 90
       50
102
RTVSPost2010PropOp42
 70
     1
102
RTVSPost2010Prop43
 90
        3
102
RTVSPost2010PropOp43
 70
     1
102
RTVSPost2010Prop44ColorIndex
 90
        5
102
RTVSPost2010Prop44ColorRGB
 90
      255
102
RTVSPost2010PropOp44
 70
     1
102
RTVSPost2010Prop45
280
     0
102
RTVSPost2010PropOp45
 70
     1
102
RTVSPost2010Prop46
 90
       50
102
RTVSPost2010PropOp46
 70
     1
102
RTVSPost2010Prop47
 90
       50
102
RTVSPost2010PropOp47
 70
     1
102
RTVSPost2010Prop48
 90
       50
102
RTVSPost2010PropOp48
 70
     1
102
RTVSPost2010Prop49
280
     0
102
RTVSPost2010PropOp49
 70
     1
102
RTVSPost2010Prop50
 90
       50
102
RTVSPost2010PropOp50
 70
     1
102
RTVSPost2010Prop51ColorIndex
 90
      256
102
RTVSPost2010Prop51ColorRGB
 90
-16777216
102
RTVSPost2010PropOp51
 70
     0
102
RTVSPost2010Prop52
140
1.0
102
RTVSPost2010PropOp52
 70
     0
102
RTVSPost2010Prop53
 90
        2
102
RTVSPost2010PropOp53
 70
     1
102
RTVSPost2010Prop54
  1
strokes_ogs.tif
102
RTVSPost2010PropOp54
 70
     1
102
RTVSPost2010Prop55
280
     0
102
RTVSPost2010PropOp55
 70
     1
102
RTVSPost2010Prop56
140
1.0
102
RTVSPost2010PropOp56
 70
     1
102
RTVSPost2010Prop57
140
1.0
102
RTVSPost2010PropOp57
 70
     1
102
RTVSPropertyOp0
 70
     1
102
RTVSPropertyOp1
 70
     1
102
RTVSPropertyOp2
 70
     1
102
RTVSPropertyOp3
 70
     1
102
RTVSPropertyOp4
 70
     1
102
RTVSPropertyOp5
 70
     1
102
RTVSPropertyOp6
 70
     1
102
RTVSPropertyOp7
 70
     1
102
RTVSPropertyOp8
 70
     1
102
RTVSPropertyOp9
 70
     1
102
RTVSPropertyOp10
 70
     1
102
RTVSPropertyOp11
 70
     1
102
RTVSPropertyOp12
 70
     1
102
RTVSPropertyOp13
 70
     1
102
RTVSPropertyOp14
 70
     1
102
RTVSPropertyOp15
 70
     1
102
RTVSPropertyOp16
 70
     1
102
RTVSPropertyOp17
 70
     1
102
RTVSPropertyOp18
 70
     1
102
RTVSPropertyOp19
 70
     1
102
RTVSPropertyOp20
 70
     1
102
RTVSPropertyOp21
 70
     1
102
RTVSPropertyOp22
 70
     1
102
RTVSPropertyOp23
 70
     1
102
RTVSPropertyOp24
 70
     1
102
RTVSPropertyOp25
 70
     1
102
RTVSPropertyOp26
 70
     1
102
RTVSPropertyOp27
 70
     1
102
RTVSPropertyOp28
 70
     1
102
RTVSPropertyOp29
 70
     1
102
RTVSPropertyOp30
 70
     1
102
RTVSPropertyOp31
 70
     1
102
RTVSPropertyOp32
 70
     1
102
RTVSPropertyOp33
 70
     1
102
RTVSPropertyOp34
 70
     1
102
RTVSPropertyOp35
 70
     1
102
RTVSPropertyOp36
 70
     1
102
RTVSPropertyOp37
 70
     1
102
RTVSPropertyOp38
 70
     1
102
RTVSPropertyOp39
 70
     1
102
RTVSPropertyOp40
 70
     1
102
RTVSPropertyOp41
 70
     1
102
RTVSPropertyOp42
 70
     1
102
RTVSPropertyOp43
 70
     1
102
RTVSPropertyOp44
 70
     1
102
RTVSPropertyOp45
 70
     1
102
RTVSPropertyOp46
 70
     1
102
RTVSPropertyOp47
 70
     1
102
RTVSPropertyOp48
 70
     1
102
RTVSPropertyOp49
 70
     1
102
RTVSPropertyOp50
 70
     1
102
RTVSPropertyOp51
 70
     0
102
RTVSPropertyOp52
 70
     0
102
RTVSPropertyOp53
 70
     1
102
RTVSPropertyOp54
 70
     1
102
RTVSPropertyOp55
 70
     1
102
RTVSPropertyOp56
 70
     1
102
RTVSPropertyOp57
 70
     1
102
RTVSPropertyOp58
 70
     1
102
RTVSPropertyOp59
 70
     1
102
RTVSPropertyOp60
 70
     1
102
RTVSPropertyOp61
 70
     1
102
RTVSPropertyOp62
 70
     1
  0
XRECORD
  5
1F49
102
{ACAD_REACTORS
330
1F48
102
}
330
1F48
100
AcDbXrecord
280
     1
102
RTVSPost2010Prop28
280
     0
102
RTVSPost2010PropOp28
 70
     1
102
RTVSPost2010Prop29
280
     1
102
RTVSPost2010PropOp29
 70
     1
102
RTVSPost2010Prop30
280
     1
102
RTVSPost2010PropOp30
 70
     1
102
RTVSPost2010Prop31
280
     0
102
RTVSPost2010PropOp31
 70
     1
102
RTVSPost2010Prop32
280
     0
102
RTVSPost2010PropOp32
 70
     1
102
RTVSPost2010Prop33
280
     0
102
RTVSPost2010PropOp33
 70
     1
102
RTVSPost2010Prop34
280
     0
102
RTVSPost2010PropOp34
 70
     1
102
RTVSPost2010Prop35
280
     0
102
RTVSPost2010PropOp35
 70
     1
102
RTVSPost2010Prop36
280
     0
102
RTVSPost2010PropOp36
 70
     1
102
RTVSPost2010Prop37
 90
       50
102
RTVSPost2010PropOp37
 70
     1
102
RTVSPost2010Prop38
140
0.0
102
RTVSPost2010PropOp38
 70
     1
102
RTVSPost2010Prop39
140
1.0
102
RTVSPost2010PropOp39
 70
     1
102
RTVSPost2010Prop40
 90
        0
102
RTVSPost2010PropOp40
 70
     1
102
RTVSPost2010Prop41ColorIndex
 90
       18
102
RTVSPost2010Prop41ColorRGB
 90
        0
102
RTVSPost2010PropOp41
 70
     1
102
RTVSPost2010Prop42
 90
       50
102
RTVSPost2010PropOp42
 70
     1
102
RTVSPost2010Prop43
 90
        3
102
RTVSPost2010PropOp43
 70
     1
102
RTVSPost2010Prop44ColorIndex
 90
        5
102
RTVSPost2010Prop44ColorRGB
 90
      255
102
RTVSPost2010PropOp44
 70
     1
102
RTVSPost2010Prop45
280
     0
102
RTVSPost2010PropOp45
 70
     1
102
RTVSPost2010Prop46
 90
       50
102
RTVSPost2010PropOp46
 70
     1
102
RTVSPost2010Prop47
 90
       50
102
RTVSPost2010PropOp47
 70
     1
102
RTVSPost2010Prop48
 90
       50
102
RTVSPost2010PropOp48
 70
     1
102
RTVSPost2010Prop49
280
     0
102
RTVSPost2010PropOp49
 70
     1
102
RTVSPost2010Prop50
 90
       50
102
RTVSPost2010PropOp50
 70
     1
102
RTVSPost2010Prop51ColorIndex
 90
      256
102
RTVSPost2010Prop51ColorRGB
 90
-16777216
102
RTVSPost2010PropOp51
 70
     0
102
RTVSPost2010Prop52
140
1.0
102
RTVSPost2010PropOp52
 70
     0
102
RTVSPost2010Prop53
 90
        2
102
RTVSPost2010PropOp53
 70
     1
102
RTVSPost2010Prop54
  1
strokes_ogs.tif
102
RTVSPost2010PropOp54
 70
     1
102
RTVSPost2010Prop55
280
     0
102
RTVSPost2010PropOp55
 70
     1
102
RTVSPost2010Prop56
140
1.0
102
RTVSPost2010PropOp56
 70
     1
102
RTVSPost2010Prop57
140
1.0
102
RTVSPost2010PropOp57
 70
     1
102
RTVSPropertyOp0
 70
     1
102
RTVSPropertyOp1
 70
     1
102
RTVSPropertyOp2
 70
     1
102
RTVSPropertyOp3
 70
     1
102
RTVSPropertyOp4
 70
     1
102
RTVSPropertyOp5
 70
     1
102
RTVSPropertyOp6
 70
     1
102
RTVSPropertyOp7
 70
     1
102
RTVSPropertyOp8
 70
     1
102
RTVSPropertyOp9
 70
     1
102
RTVSPropertyOp10
 70
     1
102
RTVSPropertyOp11
 70
     1
102
RTVSPropertyOp12
 70
     1
102
RTVSPropertyOp13
 70
     1
102
RTVSPropertyOp14
 70
     1
102
RTVSPropertyOp15
 70
     1
102
RTVSPropertyOp16
 70
     1
102
RTVSPropertyOp17
 70
     1
102
RTVSPropertyOp18
 70
     1
102
RTVSPropertyOp19
 70
     1
102
RTVSPropertyOp20
 70
     1
102
RTVSPropertyOp21
 70
     1
102
RTVSPropertyOp22
 70
     1
102
RTVSPropertyOp23
 70
     1
102
RTVSPropertyOp24
 70
     1
102
RTVSPropertyOp25
 70
     1
102
RTVSPropertyOp26
 70
     1
102
RTVSPropertyOp27
 70
     1
102
RTVSPropertyOp28
 70
     1
102
RTVSPropertyOp29
 70
     1
102
RTVSPropertyOp30
 70
     1
102
RTVSPropertyOp31
 70
     1
102
RTVSPropertyOp32
 70
     1
102
RTVSPropertyOp33
 70
     1
102
RTVSPropertyOp34
 70
     1
102
RTVSPropertyOp35
 70
     1
102
RTVSPropertyOp36
 70
     1
102
RTVSPropertyOp37
 70
     1
102
RTVSPropertyOp38
 70
     1
102
RTVSPropertyOp39
 70
     1
102
RTVSPropertyOp40
 70
     1
102
RTVSPropertyOp41
 70
     1
102
RTVSPropertyOp42
 70
     1
102
RTVSPropertyOp43
 70
     1
102
RTVSPropertyOp44
 70
     1
102
RTVSPropertyOp45
 70
     1
102
RTVSPropertyOp46
 70
     1
102
RTVSPropertyOp47
 70
     1
102
RTVSPropertyOp48
 70
     1
102
RTVSPropertyOp49
 70
     1
102
RTVSPropertyOp50
 70
     1
102
RTVSPropertyOp51
 70
     0
102
RTVSPropertyOp52
 70
     0
102
RTVSPropertyOp53
 70
     1
102
RTVSPropertyOp54
 70
     1
102
RTVSPropertyOp55
 70
     1
102
RTVSPropertyOp56
 70
     1
102
RTVSPropertyOp57
 70
     1
102
RTVSPropertyOp58
 70
     1
102
RTVSPropertyOp59
 70
     1
102
RTVSPropertyOp60
 70
     1
102
RTVSPropertyOp61
 70
     1
102
RTVSPropertyOp62
 70
     1
  0
XRECORD
  5
1F43
102
{ACAD_REACTORS
330
1F42
102
}
330
1F42
100
AcDbXrecord
280
     1
102
RTVSPost2010Prop28
280
     0
102
RTVSPost2010PropOp28
 70
     1
102
RTVSPost2010Prop29
280
     1
102
RTVSPost2010PropOp29
 70
     1
102
RTVSPost2010Prop30
280
     1
102
RTVSPost2010PropOp30
 70
     1
102
RTVSPost2010Prop31
280
     0
102
RTVSPost2010PropOp31
 70
     1
102
RTVSPost2010Prop32
280
     0
102
RTVSPost2010PropOp32
 70
     1
102
RTVSPost2010Prop33
280
     0
102
RTVSPost2010PropOp33
 70
     1
102
RTVSPost2010Prop34
280
     0
102
RTVSPost2010PropOp34
 70
     1
102
RTVSPost2010Prop35
280
     0
102
RTVSPost2010PropOp35
 70
     1
102
RTVSPost2010Prop36
280
     0
102
RTVSPost2010PropOp36
 70
     1
102
RTVSPost2010Prop37
 90
       50
102
RTVSPost2010PropOp37
 70
     1
102
RTVSPost2010Prop38
140
0.0
102
RTVSPost2010PropOp38
 70
     1
102
RTVSPost2010Prop39
140
1.0
102
RTVSPost2010PropOp39
 70
     1
102
RTVSPost2010Prop40
 90
        0
102
RTVSPost2010PropOp40
 70
     1
102
RTVSPost2010Prop41ColorIndex
 90
       18
102
RTVSPost2010Prop41ColorRGB
 90
        0
102
RTVSPost2010PropOp41
 70
     1
102
RTVSPost2010Prop42
 90
       50
102
RTVSPost2010PropOp42
 70
     1
102
RTVSPost2010Prop43
 90
        3
102
RTVSPost2010PropOp43
 70
     1
102
RTVSPost2010Prop44ColorIndex
 90
        5
102
RTVSPost2010Prop44ColorRGB
 90
      255
102
RTVSPost2010PropOp44
 70
     1
102
RTVSPost2010Prop45
280
     0
102
RTVSPost2010PropOp45
 70
     1
102
RTVSPost2010Prop46
 90
       50
102
RTVSPost2010PropOp46
 70
     1
102
RTVSPost2010Prop47
 90
       50
102
RTVSPost2010PropOp47
 70
     1
102
RTVSPost2010Prop48
 90
       50
102
RTVSPost2010PropOp48
 70
     1
102
RTVSPost2010Prop49
280
     0
102
RTVSPost2010PropOp49
 70
     1
102
RTVSPost2010Prop50
 90
       50
102
RTVSPost2010PropOp50
 70
     1
102
RTVSPost2010Prop51ColorIndex
 90
      256
102
RTVSPost2010Prop51ColorRGB
 90
-16777216
102
RTVSPost2010PropOp51
 70
     0
102
RTVSPost2010Prop52
140
1.0
102
RTVSPost2010PropOp52
 70
     0
102
RTVSPost2010Prop53
 90
        2
102
RTVSPost2010PropOp53
 70
     1
102
RTVSPost2010Prop54
  1
strokes_ogs.tif
102
RTVSPost2010PropOp54
 70
     1
102
RTVSPost2010Prop55
280
     0
102
RTVSPost2010PropOp55
 70
     1
102
RTVSPost2010Prop56
140
1.0
102
RTVSPost2010PropOp56
 70
     1
102
RTVSPost2010Prop57
140
1.0
102
RTVSPost2010PropOp57
 70
     1
102
RTVSPropertyOp0
 70
     1
102
RTVSPropertyOp1
 70
     1
102
RTVSPropertyOp2
 70
     1
102
RTVSPropertyOp3
 70
     1
102
RTVSPropertyOp4
 70
     1
102
RTVSPropertyOp5
 70
     1
102
RTVSPropertyOp6
 70
     1
102
RTVSPropertyOp7
 70
     1
102
RTVSPropertyOp8
 70
     1
102
RTVSPropertyOp9
 70
     1
102
RTVSPropertyOp10
 70
     1
102
RTVSPropertyOp11
 70
     1
102
RTVSPropertyOp12
 70
     1
102
RTVSPropertyOp13
 70
     1
102
RTVSPropertyOp14
 70
     1
102
RTVSPropertyOp15
 70
     1
102
RTVSPropertyOp16
 70
     1
102
RTVSPropertyOp17
 70
     1
102
RTVSPropertyOp18
 70
     1
102
RTVSPropertyOp19
 70
     1
102
RTVSPropertyOp20
 70
     1
102
RTVSPropertyOp21
 70
     1
102
RTVSPropertyOp22
 70
     1
102
RTVSPropertyOp23
 70
     1
102
RTVSPropertyOp24
 70
     1
102
RTVSPropertyOp25
 70
     1
102
RTVSPropertyOp26
 70
     1
102
RTVSPropertyOp27
 70
     1
102
RTVSPropertyOp28
 70
     1
102
RTVSPropertyOp29
 70
     1
102
RTVSPropertyOp30
 70
     1
102
RTVSPropertyOp31
 70
     1
102
RTVSPropertyOp32
 70
     1
102
RTVSPropertyOp33
 70
     1
102
RTVSPropertyOp34
 70
     1
102
RTVSPropertyOp35
 70
     1
102
RTVSPropertyOp36
 70
     1
102
RTVSPropertyOp37
 70
     1
102
RTVSPropertyOp38
 70
     1
102
RTVSPropertyOp39
 70
     1
102
RTVSPropertyOp40
 70
     1
102
RTVSPropertyOp41
 70
     1
102
RTVSPropertyOp42
 70
     1
102
RTVSPropertyOp43
 70
     1
102
RTVSPropertyOp44
 70
     1
102
RTVSPropertyOp45
 70
     1
102
RTVSPropertyOp46
 70
     1
102
RTVSPropertyOp47
 70
     1
102
RTVSPropertyOp48
 70
     1
102
RTVSPropertyOp49
 70
     1
102
RTVSPropertyOp50
 70
     1
102
RTVSPropertyOp51
 70
     0
102
RTVSPropertyOp52
 70
     0
102
RTVSPropertyOp53
 70
     1
102
RTVSPropertyOp54
 70
     1
102
RTVSPropertyOp55
 70
     1
102
RTVSPropertyOp56
 70
     1
102
RTVSPropertyOp57
 70
     1
102
RTVSPropertyOp58
 70
     1
102
RTVSPropertyOp59
 70
     1
102
RTVSPropertyOp60
 70
     1
102
RTVSPropertyOp61
 70
     1
102
RTVSPropertyOp62
 70
     1
  0
XRECORD
  5
1F45
102
{ACAD_REACTORS
330
1F44
102
}
330
1F44
100
AcDbXrecord
280
     1
102
RTVSPost2010Prop28
280
     0
102
RTVSPost2010PropOp28
 70
     1
102
RTVSPost2010Prop29
280
     1
102
RTVSPost2010PropOp29
 70
     1
102
RTVSPost2010Prop30
280
     1
102
RTVSPost2010PropOp30
 70
     1
102
RTVSPost2010Prop31
280
     0
102
RTVSPost2010PropOp31
 70
     1
102
RTVSPost2010Prop32
280
     0
102
RTVSPost2010PropOp32
 70
     1
102
RTVSPost2010Prop33
280
     0
102
RTVSPost2010PropOp33
 70
     1
102
RTVSPost2010Prop34
280
     0
102
RTVSPost2010PropOp34
 70
     1
102
RTVSPost2010Prop35
280
     0
102
RTVSPost2010PropOp35
 70
     1
102
RTVSPost2010Prop36
280
     0
102
RTVSPost2010PropOp36
 70
     1
102
RTVSPost2010Prop37
 90
       50
102
RTVSPost2010PropOp37
 70
     1
102
RTVSPost2010Prop38
140
0.0
102
RTVSPost2010PropOp38
 70
     1
102
RTVSPost2010Prop39
140
1.0
102
RTVSPost2010PropOp39
 70
     1
102
RTVSPost2010Prop40
 90
        0
102
RTVSPost2010PropOp40
 70
     1
102
RTVSPost2010Prop41ColorIndex
 90
       18
102
RTVSPost2010Prop41ColorRGB
 90
        0
102
RTVSPost2010PropOp41
 70
     1
102
RTVSPost2010Prop42
 90
       50
102
RTVSPost2010PropOp42
 70
     1
102
RTVSPost2010Prop43
 90
        3
102
RTVSPost2010PropOp43
 70
     1
102
RTVSPost2010Prop44ColorIndex
 90
        5
102
RTVSPost2010Prop44ColorRGB
 90
      255
102
RTVSPost2010PropOp44
 70
     1
102
RTVSPost2010Prop45
280
     0
102
RTVSPost2010PropOp45
 70
     1
102
RTVSPost2010Prop46
 90
       50
102
RTVSPost2010PropOp46
 70
     1
102
RTVSPost2010Prop47
 90
       50
102
RTVSPost2010PropOp47
 70
     1
102
RTVSPost2010Prop48
 90
       50
102
RTVSPost2010PropOp48
 70
     1
102
RTVSPost2010Prop49
280
     0
102
RTVSPost2010PropOp49
 70
     1
102
RTVSPost2010Prop50
 90
       50
102
RTVSPost2010PropOp50
 70
     1
102
RTVSPost2010Prop51ColorIndex
 90
      256
102
RTVSPost2010Prop51ColorRGB
 90
-16777216
102
RTVSPost2010PropOp51
 70
     0
102
RTVSPost2010Prop52
140
1.0
102
RTVSPost2010PropOp52
 70
     0
102
RTVSPost2010Prop53
 90
        2
102
RTVSPost2010PropOp53
 70
     1
102
RTVSPost2010Prop54
  1
strokes_ogs.tif
102
RTVSPost2010PropOp54
 70
     1
102
RTVSPost2010Prop55
280
     0
102
RTVSPost2010PropOp55
 70
     1
102
RTVSPost2010Prop56
140
1.0
102
RTVSPost2010PropOp56
 70
     1
102
RTVSPost2010Prop57
140
1.0
102
RTVSPost2010PropOp57
 70
     1
102
RTVSPropertyOp0
 70
     1
102
RTVSPropertyOp1
 70
     1
102
RTVSPropertyOp2
 70
     1
102
RTVSPropertyOp3
 70
     1
102
RTVSPropertyOp4
 70
     1
102
RTVSPropertyOp5
 70
     1
102
RTVSPropertyOp6
 70
     1
102
RTVSPropertyOp7
 70
     1
102
RTVSPropertyOp8
 70
     1
102
RTVSPropertyOp9
 70
     1
102
RTVSPropertyOp10
 70
     1
102
RTVSPropertyOp11
 70
     1
102
RTVSPropertyOp12
 70
     1
102
RTVSPropertyOp13
 70
     1
102
RTVSPropertyOp14
 70
     1
102
RTVSPropertyOp15
 70
     1
102
RTVSPropertyOp16
 70
     1
102
RTVSPropertyOp17
 70
     1
102
RTVSPropertyOp18
 70
     1
102
RTVSPropertyOp19
 70
     1
102
RTVSPropertyOp20
 70
     1
102
RTVSPropertyOp21
 70
     1
102
RTVSPropertyOp22
 70
     1
102
RTVSPropertyOp23
 70
     1
102
RTVSPropertyOp24
 70
     1
102
RTVSPropertyOp25
 70
     1
102
RTVSPropertyOp26
 70
     1
102
RTVSPropertyOp27
 70
     1
102
RTVSPropertyOp28
 70
     1
102
RTVSPropertyOp29
 70
     1
102
RTVSPropertyOp30
 70
     1
102
RTVSPropertyOp31
 70
     1
102
RTVSPropertyOp32
 70
     1
102
RTVSPropertyOp33
 70
     1
102
RTVSPropertyOp34
 70
     1
102
RTVSPropertyOp35
 70
     1
102
RTVSPropertyOp36
 70
     1
102
RTVSPropertyOp37
 70
     1
102
RTVSPropertyOp38
 70
     1
102
RTVSPropertyOp39
 70
     1
102
RTVSPropertyOp40
 70
     1
102
RTVSPropertyOp41
 70
     1
102
RTVSPropertyOp42
 70
     1
102
RTVSPropertyOp43
 70
     1
102
RTVSPropertyOp44
 70
     1
102
RTVSPropertyOp45
 70
     1
102
RTVSPropertyOp46
 70
     1
102
RTVSPropertyOp47
 70
     1
102
RTVSPropertyOp48
 70
     1
102
RTVSPropertyOp49
 70
     1
102
RTVSPropertyOp50
 70
     1
102
RTVSPropertyOp51
 70
     0
102
RTVSPropertyOp52
 70
     0
102
RTVSPropertyOp53
 70
     1
102
RTVSPropertyOp54
 70
     1
102
RTVSPropertyOp55
 70
     1
102
RTVSPropertyOp56
 70
     1
102
RTVSPropertyOp57
 70
     1
102
RTVSPropertyOp58
 70
     1
102
RTVSPropertyOp59
 70
     1
102
RTVSPropertyOp60
 70
     1
102
RTVSPropertyOp61
 70
     1
102
RTVSPropertyOp62
 70
     1
  0
XRECORD
  5
1F3B
102
{ACAD_REACTORS
330
1F3A
102
}
330
1F3A
100
AcDbXrecord
280
     1
102
RTVSPost2010Prop28
280
     0
102
RTVSPost2010PropOp28
 70
     1
102
RTVSPost2010Prop29
280
     1
102
RTVSPost2010PropOp29
 70
     1
102
RTVSPost2010Prop30
280
     1
102
RTVSPost2010PropOp30
 70
     1
102
RTVSPost2010Prop31
280
     0
102
RTVSPost2010PropOp31
 70
     1
102
RTVSPost2010Prop32
280
     0
102
RTVSPost2010PropOp32
 70
     1
102
RTVSPost2010Prop33
280
     0
102
RTVSPost2010PropOp33
 70
     1
102
RTVSPost2010Prop34
280
     0
102
RTVSPost2010PropOp34
 70
     1
102
RTVSPost2010Prop35
280
     0
102
RTVSPost2010PropOp35
 70
     1
102
RTVSPost2010Prop36
280
     0
102
RTVSPost2010PropOp36
 70
     1
102
RTVSPost2010Prop37
 90
       50
102
RTVSPost2010PropOp37
 70
     1
102
RTVSPost2010Prop38
140
0.0
102
RTVSPost2010PropOp38
 70
     1
102
RTVSPost2010Prop39
140
1.0
102
RTVSPost2010PropOp39
 70
     1
102
RTVSPost2010Prop40
 90
        0
102
RTVSPost2010PropOp40
 70
     1
102
RTVSPost2010Prop41ColorIndex
 90
       18
102
RTVSPost2010Prop41ColorRGB
 90
        0
102
RTVSPost2010PropOp41
 70
     1
102
RTVSPost2010Prop42
 90
       50
102
RTVSPost2010PropOp42
 70
     1
102
RTVSPost2010Prop43
 90
        3
102
RTVSPost2010PropOp43
 70
     1
102
RTVSPost2010Prop44ColorIndex
 90
        5
102
RTVSPost2010Prop44ColorRGB
 90
      255
102
RTVSPost2010PropOp44
 70
     1
102
RTVSPost2010Prop45
280
     0
102
RTVSPost2010PropOp45
 70
     1
102
RTVSPost2010Prop46
 90
       50
102
RTVSPost2010PropOp46
 70
     1
102
RTVSPost2010Prop47
 90
       50
102
RTVSPost2010PropOp47
 70
     1
102
RTVSPost2010Prop48
 90
       50
102
RTVSPost2010PropOp48
 70
     1
102
RTVSPost2010Prop49
280
     0
102
RTVSPost2010PropOp49
 70
     1
102
RTVSPost2010Prop50
 90
       50
102
RTVSPost2010PropOp50
 70
     1
102
RTVSPost2010Prop51ColorIndex
 90
      256
102
RTVSPost2010Prop51ColorRGB
 90
-16777216
102
RTVSPost2010PropOp51
 70
     0
102
RTVSPost2010Prop52
140
1.0
102
RTVSPost2010PropOp52
 70
     0
102
RTVSPost2010Prop53
 90
        2
102
RTVSPost2010PropOp53
 70
     1
102
RTVSPost2010Prop54
  1
strokes_ogs.tif
102
RTVSPost2010PropOp54
 70
     1
102
RTVSPost2010Prop55
280
     0
102
RTVSPost2010PropOp55
 70
     1
102
RTVSPost2010Prop56
140
1.0
102
RTVSPost2010PropOp56
 70
     1
102
RTVSPost2010Prop57
140
1.0
102
RTVSPost2010PropOp57
 70
     1
102
RTVSPropertyOp0
 70
     1
102
RTVSPropertyOp1
 70
     1
102
RTVSPropertyOp2
 70
     1
102
RTVSPropertyOp3
 70
     1
102
RTVSPropertyOp4
 70
     1
102
RTVSPropertyOp5
 70
     1
102
RTVSPropertyOp6
 70
     1
102
RTVSPropertyOp7
 70
     1
102
RTVSPropertyOp8
 70
     1
102
RTVSPropertyOp9
 70
     1
102
RTVSPropertyOp10
 70
     1
102
RTVSPropertyOp11
 70
     1
102
RTVSPropertyOp12
 70
     1
102
RTVSPropertyOp13
 70
     1
102
RTVSPropertyOp14
 70
     1
102
RTVSPropertyOp15
 70
     1
102
RTVSPropertyOp16
 70
     1
102
RTVSPropertyOp17
 70
     1
102
RTVSPropertyOp18
 70
     1
102
RTVSPropertyOp19
 70
     1
102
RTVSPropertyOp20
 70
     1
102
RTVSPropertyOp21
 70
     1
102
RTVSPropertyOp22
 70
     1
102
RTVSPropertyOp23
 70
     1
102
RTVSPropertyOp24
 70
     1
102
RTVSPropertyOp25
 70
     1
102
RTVSPropertyOp26
 70
     1
102
RTVSPropertyOp27
 70
     1
102
RTVSPropertyOp28
 70
     1
102
RTVSPropertyOp29
 70
     1
102
RTVSPropertyOp30
 70
     1
102
RTVSPropertyOp31
 70
     1
102
RTVSPropertyOp32
 70
     1
102
RTVSPropertyOp33
 70
     1
102
RTVSPropertyOp34
 70
     1
102
RTVSPropertyOp35
 70
     1
102
RTVSPropertyOp36
 70
     1
102
RTVSPropertyOp37
 70
     1
102
RTVSPropertyOp38
 70
     1
102
RTVSPropertyOp39
 70
     1
102
RTVSPropertyOp40
 70
     1
102
RTVSPropertyOp41
 70
     1
102
RTVSPropertyOp42
 70
     1
102
RTVSPropertyOp43
 70
     1
102
RTVSPropertyOp44
 70
     1
102
RTVSPropertyOp45
 70
     1
102
RTVSPropertyOp46
 70
     1
102
RTVSPropertyOp47
 70
     1
102
RTVSPropertyOp48
 70
     1
102
RTVSPropertyOp49
 70
     1
102
RTVSPropertyOp50
 70
     1
102
RTVSPropertyOp51
 70
     0
102
RTVSPropertyOp52
 70
     0
102
RTVSPropertyOp53
 70
     1
102
RTVSPropertyOp54
 70
     1
102
RTVSPropertyOp55
 70
     1
102
RTVSPropertyOp56
 70
     1
102
RTVSPropertyOp57
 70
     1
102
RTVSPropertyOp58
 70
     1
102
RTVSPropertyOp59
 70
     1
102
RTVSPropertyOp60
 70
     1
102
RTVSPropertyOp61
 70
     1
102
RTVSPropertyOp62
 70
     1
  0
XRECORD
  5
1F2F
102
{ACAD_REACTORS
330
1F2E
102
}
330
1F2E
100
AcDbXrecord
280
     1
102
RTVSPost2010Prop28
280
     0
102
RTVSPost2010PropOp28
 70
     1
102
RTVSPost2010Prop29
280
     1
102
RTVSPost2010PropOp29
 70
     1
102
RTVSPost2010Prop30
280
     1
102
RTVSPost2010PropOp30
 70
     1
102
RTVSPost2010Prop31
280
     0
102
RTVSPost2010PropOp31
 70
     1
102
RTVSPost2010Prop32
280
     0
102
RTVSPost2010PropOp32
 70
     1
102
RTVSPost2010Prop33
280
     0
102
RTVSPost2010PropOp33
 70
     1
102
RTVSPost2010Prop34
280
     0
102
RTVSPost2010PropOp34
 70
     1
102
RTVSPost2010Prop35
280
     0
102
RTVSPost2010PropOp35
 70
     1
102
RTVSPost2010Prop36
280
     0
102
RTVSPost2010PropOp36
 70
     1
102
RTVSPost2010Prop37
 90
       50
102
RTVSPost2010PropOp37
 70
     1
102
RTVSPost2010Prop38
140
0.0
102
RTVSPost2010PropOp38
 70
     1
102
RTVSPost2010Prop39
140
1.0
102
RTVSPost2010PropOp39
 70
     1
102
RTVSPost2010Prop40
 90
        0
102
RTVSPost2010PropOp40
 70
     1
102
RTVSPost2010Prop41ColorIndex
 90
       18
102
RTVSPost2010Prop41ColorRGB
 90
        0
102
RTVSPost2010PropOp41
 70
     1
102
RTVSPost2010Prop42
 90
       50
102
RTVSPost2010PropOp42
 70
     1
102
RTVSPost2010Prop43
 90
        3
102
RTVSPost2010PropOp43
 70
     1
102
RTVSPost2010Prop44ColorIndex
 90
        5
102
RTVSPost2010Prop44ColorRGB
 90
      255
102
RTVSPost2010PropOp44
 70
     1
102
RTVSPost2010Prop45
280
     0
102
RTVSPost2010PropOp45
 70
     1
102
RTVSPost2010Prop46
 90
       50
102
RTVSPost2010PropOp46
 70
     1
102
RTVSPost2010Prop47
 90
       50
102
RTVSPost2010PropOp47
 70
     1
102
RTVSPost2010Prop48
 90
       50
102
RTVSPost2010PropOp48
 70
     1
102
RTVSPost2010Prop49
280
     0
102
RTVSPost2010PropOp49
 70
     1
102
RTVSPost2010Prop50
 90
       50
102
RTVSPost2010PropOp50
 70
     1
102
RTVSPost2010Prop51ColorIndex
 90
      256
102
RTVSPost2010Prop51ColorRGB
 90
-16777216
102
RTVSPost2010PropOp51
 70
     0
102
RTVSPost2010Prop52
140
1.0
102
RTVSPost2010PropOp52
 70
     0
102
RTVSPost2010Prop53
 90
        2
102
RTVSPost2010PropOp53
 70
     1
102
RTVSPost2010Prop54
  1
strokes_ogs.tif
102
RTVSPost2010PropOp54
 70
     1
102
RTVSPost2010Prop55
280
     0
102
RTVSPost2010PropOp55
 70
     1
102
RTVSPost2010Prop56
140
1.0
102
RTVSPost2010PropOp56
 70
     1
102
RTVSPost2010Prop57
140
1.0
102
RTVSPost2010PropOp57
 70
     1
102
RTVSPropertyOp0
 70
     1
102
RTVSPropertyOp1
 70
     1
102
RTVSPropertyOp2
 70
     1
102
RTVSPropertyOp3
 70
     1
102
RTVSPropertyOp4
 70
     1
102
RTVSPropertyOp5
 70
     1
102
RTVSPropertyOp6
 70
     1
102
RTVSPropertyOp7
 70
     1
102
RTVSPropertyOp8
 70
     1
102
RTVSPropertyOp9
 70
     1
102
RTVSPropertyOp10
 70
     1
102
RTVSPropertyOp11
 70
     1
102
RTVSPropertyOp12
 70
     1
102
RTVSPropertyOp13
 70
     1
102
RTVSPropertyOp14
 70
     1
102
RTVSPropertyOp15
 70
     1
102
RTVSPropertyOp16
 70
     1
102
RTVSPropertyOp17
 70
     1
102
RTVSPropertyOp18
 70
     1
102
RTVSPropertyOp19
 70
     1
102
RTVSPropertyOp20
 70
     1
102
RTVSPropertyOp21
 70
     1
102
RTVSPropertyOp22
 70
     1
102
RTVSPropertyOp23
 70
     1
102
RTVSPropertyOp24
 70
     1
102
RTVSPropertyOp25
 70
     1
102
RTVSPropertyOp26
 70
     1
102
RTVSPropertyOp27
 70
     1
102
RTVSPropertyOp28
 70
     1
102
RTVSPropertyOp29
 70
     1
102
RTVSPropertyOp30
 70
     1
102
RTVSPropertyOp31
 70
     1
102
RTVSPropertyOp32
 70
     1
102
RTVSPropertyOp33
 70
     1
102
RTVSPropertyOp34
 70
     1
102
RTVSPropertyOp35
 70
     1
102
RTVSPropertyOp36
 70
     1
102
RTVSPropertyOp37
 70
     1
102
RTVSPropertyOp38
 70
     1
102
RTVSPropertyOp39
 70
     1
102
RTVSPropertyOp40
 70
     1
102
RTVSPropertyOp41
 70
     1
102
RTVSPropertyOp42
 70
     1
102
RTVSPropertyOp43
 70
     1
102
RTVSPropertyOp44
 70
     1
102
RTVSPropertyOp45
 70
     1
102
RTVSPropertyOp46
 70
     1
102
RTVSPropertyOp47
 70
     1
102
RTVSPropertyOp48
 70
     1
102
RTVSPropertyOp49
 70
     1
102
RTVSPropertyOp50
 70
     1
102
RTVSPropertyOp51
 70
     0
102
RTVSPropertyOp52
 70
     0
102
RTVSPropertyOp53
 70
     1
102
RTVSPropertyOp54
 70
     1
102
RTVSPropertyOp55
 70
     1
102
RTVSPropertyOp56
 70
     1
102
RTVSPropertyOp57
 70
     1
102
RTVSPropertyOp58
 70
     1
102
RTVSPropertyOp59
 70
     1
102
RTVSPropertyOp60
 70
     1
102
RTVSPropertyOp61
 70
     1
102
RTVSPropertyOp62
 70
     1
  0
XRECORD
  5
1F47
102
{ACAD_REACTORS
330
1F46
102
}
330
1F46
100
AcDbXrecord
280
     1
102
RTVSPost2010Prop28
280
     0
102
RTVSPost2010PropOp28
 70
     1
102
RTVSPost2010Prop29
280
     1
102
RTVSPost2010PropOp29
 70
     1
102
RTVSPost2010Prop30
280
     1
102
RTVSPost2010PropOp30
 70
     1
102
RTVSPost2010Prop31
280
     0
102
RTVSPost2010PropOp31
 70
     1
102
RTVSPost2010Prop32
280
     0
102
RTVSPost2010PropOp32
 70
     1
102
RTVSPost2010Prop33
280
     0
102
RTVSPost2010PropOp33
 70
     1
102
RTVSPost2010Prop34
280
     0
102
RTVSPost2010PropOp34
 70
     1
102
RTVSPost2010Prop35
280
     0
102
RTVSPost2010PropOp35
 70
     1
102
RTVSPost2010Prop36
280
     0
102
RTVSPost2010PropOp36
 70
     1
102
RTVSPost2010Prop37
 90
       50
102
RTVSPost2010PropOp37
 70
     1
102
RTVSPost2010Prop38
140
0.0
102
RTVSPost2010PropOp38
 70
     1
102
RTVSPost2010Prop39
140
1.0
102
RTVSPost2010PropOp39
 70
     1
102
RTVSPost2010Prop40
 90
        0
102
RTVSPost2010PropOp40
 70
     1
102
RTVSPost2010Prop41ColorIndex
 90
       18
102
RTVSPost2010Prop41ColorRGB
 90
        0
102
RTVSPost2010PropOp41
 70
     1
102
RTVSPost2010Prop42
 90
       50
102
RTVSPost2010PropOp42
 70
     1
102
RTVSPost2010Prop43
 90
        3
102
RTVSPost2010PropOp43
 70
     1
102
RTVSPost2010Prop44ColorIndex
 90
        5
102
RTVSPost2010Prop44ColorRGB
 90
      255
102
RTVSPost2010PropOp44
 70
     1
102
RTVSPost2010Prop45
280
     0
102
RTVSPost2010PropOp45
 70
     1
102
RTVSPost2010Prop46
 90
       50
102
RTVSPost2010PropOp46
 70
     1
102
RTVSPost2010Prop47
 90
       50
102
RTVSPost2010PropOp47
 70
     1
102
RTVSPost2010Prop48
 90
       50
102
RTVSPost2010PropOp48
 70
     1
102
RTVSPost2010Prop49
280
     0
102
RTVSPost2010PropOp49
 70
     1
102
RTVSPost2010Prop50
 90
       50
102
RTVSPost2010PropOp50
 70
     1
102
RTVSPost2010Prop51ColorIndex
 90
      256
102
RTVSPost2010Prop51ColorRGB
 90
-16777216
102
RTVSPost2010PropOp51
 70
     0
102
RTVSPost2010Prop52
140
1.0
102
RTVSPost2010PropOp52
 70
     0
102
RTVSPost2010Prop53
 90
        2
102
RTVSPost2010PropOp53
 70
     1
102
RTVSPost2010Prop54
  1
strokes_ogs.tif
102
RTVSPost2010PropOp54
 70
     1
102
RTVSPost2010Prop55
280
     0
102
RTVSPost2010PropOp55
 70
     1
102
RTVSPost2010Prop56
140
1.0
102
RTVSPost2010PropOp56
 70
     1
102
RTVSPost2010Prop57
140
1.0
102
RTVSPost2010PropOp57
 70
     1
102
RTVSPropertyOp0
 70
     1
102
RTVSPropertyOp1
 70
     1
102
RTVSPropertyOp2
 70
     1
102
RTVSPropertyOp3
 70
     1
102
RTVSPropertyOp4
 70
     1
102
RTVSPropertyOp5
 70
     1
102
RTVSPropertyOp6
 70
     1
102
RTVSPropertyOp7
 70
     1
102
RTVSPropertyOp8
 70
     1
102
RTVSPropertyOp9
 70
     1
102
RTVSPropertyOp10
 70
     1
102
RTVSPropertyOp11
 70
     1
102
RTVSPropertyOp12
 70
     1
102
RTVSPropertyOp13
 70
     1
102
RTVSPropertyOp14
 70
     1
102
RTVSPropertyOp15
 70
     1
102
RTVSPropertyOp16
 70
     1
102
RTVSPropertyOp17
 70
     1
102
RTVSPropertyOp18
 70
     1
102
RTVSPropertyOp19
 70
     1
102
RTVSPropertyOp20
 70
     1
102
RTVSPropertyOp21
 70
     1
102
RTVSPropertyOp22
 70
     1
102
RTVSPropertyOp23
 70
     1
102
RTVSPropertyOp24
 70
     1
102
RTVSPropertyOp25
 70
     1
102
RTVSPropertyOp26
 70
     1
102
RTVSPropertyOp27
 70
     1
102
RTVSPropertyOp28
 70
     1
102
RTVSPropertyOp29
 70
     1
102
RTVSPropertyOp30
 70
     1
102
RTVSPropertyOp31
 70
     1
102
RTVSPropertyOp32
 70
     1
102
RTVSPropertyOp33
 70
     1
102
RTVSPropertyOp34
 70
     1
102
RTVSPropertyOp35
 70
     1
102
RTVSPropertyOp36
 70
     1
102
RTVSPropertyOp37
 70
     1
102
RTVSPropertyOp38
 70
     1
102
RTVSPropertyOp39
 70
     1
102
RTVSPropertyOp40
 70
     1
102
RTVSPropertyOp41
 70
     1
102
RTVSPropertyOp42
 70
     1
102
RTVSPropertyOp43
 70
     1
102
RTVSPropertyOp44
 70
     1
102
RTVSPropertyOp45
 70
     1
102
RTVSPropertyOp46
 70
     1
102
RTVSPropertyOp47
 70
     1
102
RTVSPropertyOp48
 70
     1
102
RTVSPropertyOp49
 70
     1
102
RTVSPropertyOp50
 70
     1
102
RTVSPropertyOp51
 70
     0
102
RTVSPropertyOp52
 70
     0
102
RTVSPropertyOp53
 70
     1
102
RTVSPropertyOp54
 70
     1
102
RTVSPropertyOp55
 70
     1
102
RTVSPropertyOp56
 70
     1
102
RTVSPropertyOp57
 70
     1
102
RTVSPropertyOp58
 70
     1
102
RTVSPropertyOp59
 70
     1
102
RTVSPropertyOp60
 70
     1
102
RTVSPropertyOp61
 70
     1
102
RTVSPropertyOp62
 70
     1
  0
ENDSEC
  0
EOF
