  0
SECTION
  2
HEADER
  9
$ACADVER
  1
AC1015
  9
$ACADMAINTVER
 70
    20
  9
$DWGCODEPAGE
  3
ANSI_932
  9
$INSBASE
 10
0.0
 20
0.0
 30
0.0
  9
$EXTMIN
 10
10.0
 20
9.999999999999998
 30
0.0
  9
$EXTMAX
 10
709.893552
 20
498.0940748471939
 30
0.0
  9
$LIMMIN
 10
0.0
 20
0.0
  9
$LIMMAX
 10
792.0
 20
546.0
  9
$ORTHOMODE
 70
     1
  9
$REGENMODE
 70
     1
  9
$FILLMODE
 70
     1
  9
$QTEXTMODE
 70
     0
  9
$MIRRTEXT
 70
     1
  9
$LTSCALE
 40
20.0
  9
$ATTMODE
 70
     1
  9
$TEXTSIZE
 40
5.0
  9
$TRACEWID
 40
1.0
  9
$TEXTSTYLE
  7
STANDARD
  9
$CLAYER
  8
0
  9
$CELTYPE
  6
BYLAYER
  9
$CECOLOR
 62
   256
  9
$CELTSCALE
 40
1.0
  9
$DISPSILH
 70
     0
  9
$DIMSCALE
 40
1.0
  9
$DIMASZ
 40
2.5
  9
$DIMEXO
 40
1.0
  9
$DIMDLI
 40
10.0
  9
$DIMRND
 40
0.0
  9
$DIMDLE
 40
0.0
  9
$DIMEXE
 40
1.0
  9
$DIMTP
 40
0.0
  9
$DIMTM
 40
0.0
  9
$DIMTXT
 40
3.2
  9
$DIMCEN
 40
0.0
  9
$DIMTSZ
 40
0.0
  9
$DIMTOL
 70
     0
  9
$DIMLIM
 70
     0
  9
$DIMTIH
 70
     0
  9
$DIMTOH
 70
     0
  9
$DIMSE1
 70
     0
  9
$DIMSE2
 70
     0
  9
$DIMTAD
 70
     3
  9
$DIMZIN
 70
     8
  9
$DIMBLK
  1

  9
$DIMASO
 70
     1
  9
$DIMSHO
 70
     1
  9
$DIMPOST
  1

  9
$DIMAPOST
  1

  9
$DIMALT
 70
     0
  9
$DIMALTD
 70
     2
  9
$DIMALTF
 40
25.4
  9
$DIMLFAC
 40
1.0
  9
$DIMTOFL
 70
     1
  9
$DIMTVP
 40
0.0
  9
$DIMTIX
 70
     0
  9
$DIMSOXD
 70
     0
  9
$DIMSAH
 70
     1
  9
$DIMBLK1
  1

  9
$DIMBLK2
  1

  9
$DIMSTYLE
  2
STANDARD
  9
$DIMCLRD
 70
     0
  9
$DIMCLRE
 70
     0
  9
$DIMCLRT
 70
     0
  9
$DIMTFAC
 40
1.0
  9
$DIMGAP
 40
1.0
  9
$DIMJUST
 70
     0
  9
$DIMSD1
 70
     0
  9
$DIMSD2
 70
     0
  9
$DIMTOLJ
 70
     1
  9
$DIMTZIN
 70
     0
  9
$DIMALTZ
 70
     0
  9
$DIMALTTZ
 70
     0
  9
$DIMUPT
 70
     0
  9
$DIMDEC
 70
     4
  9
$DIMTDEC
 70
     4
  9
$DIMALTU
 70
     2
  9
$DIMALTTD
 70
     2
  9
$DIMTXSTY
  7
STANDARD
  9
$DIMAUNIT
 70
     0
  9
$DIMADEC
 70
     0
  9
$DIMALTRND
 40
0.0
  9
$DIMAZIN
 70
     0
  9
$DIMDSEP
 70
    46
  9
$DIMATFIT
 70
     3
  9
$DIMFRAC
 70
     0
  9
$DIMLDRBLK
  1

  9
$DIMLUNIT
 70
     2
  9
$DIMLWD
 70
    -2
  9
$DIMLWE
 70
    -2
  9
$DIMTMOVE
 70
     0
  9
$LUNITS
 70
     2
  9
$LUPREC
 70
     4
  9
$SKETCHINC
 40
1.0
  9
$FILLETRAD
 40
0.5
  9
$AUNITS
 70
     0
  9
$AUPREC
 70
     2
  9
$MENU
  1
.
  9
$ELEVATION
 40
0.0
  9
$PELEVATION
 40
0.0
  9
$THICKNESS
 40
0.0
  9
$LIMCHECK
 70
     0
  9
$CHAMFERA
 40
10.0
  9
$CHAMFERB
 40
10.0
  9
$CHAMFERC
 40
0.0
  9
$CHAMFERD
 40
0.0
  9
$SKPOLY
 70
     0
  9
$TDCREATE
 40
2451439.547425926
  9
$TDUCREATE
 40
2451439.172425926
  9
$TDUPDATE
 40
2457192.641663496
  9
$TDUUPDATE
 40
2457192.266663496
  9
$TDINDWG
 40
0.0084526968
  9
$TDUSRTIMER
 40
0.0084525579
  9
$USRTIMER
 70
     1
  9
$ANGBASE
 50
0.0
  9
$ANGDIR
 70
     0
  9
$PDMODE
 70
     0
  9
$PDSIZE
 40
0.0
  9
$PLINEWID
 40
0.0
  9
$SPLFRAME
 70
     0
  9
$SPLINETYPE
 70
     6
  9
$SPLINESEGS
 70
     8
  9
$HANDSEED
  5
E0B2
  9
$SURFTAB1
 70
     6
  9
$SURFTAB2
 70
     6
  9
$SURFTYPE
 70
     6
  9
$SURFU
 70
     6
  9
$SURFV
 70
     6
  9
$UCSBASE
  2

  9
$UCSNAME
  2

  9
$UCSORG
 10
0.0
 20
0.0
 30
0.0
  9
$UCSXDIR
 10
1.0
 20
0.0
 30
0.0
  9
$UCSYDIR
 10
0.0
 20
1.0
 30
0.0
  9
$UCSORTHOREF
  2

  9
$UCSORTHOVIEW
 70
     0
  9
$UCSORGTOP
 10
0.0
 20
0.0
 30
0.0
  9
$UCSORGBOTTOM
 10
0.0
 20
0.0
 30
0.0
  9
$UCSORGLEFT
 10
0.0
 20
0.0
 30
0.0
  9
$UCSORGRIGHT
 10
0.0
 20
0.0
 30
0.0
  9
$UCSORGFRONT
 10
0.0
 20
0.0
 30
0.0
  9
$UCSORGBACK
 10
0.0
 20
0.0
 30
0.0
  9
$PUCSBASE
  2

  9
$PUCSNAME
  2

  9
$PUCSORG
 10
0.0
 20
0.0
 30
0.0
  9
$PUCSXDIR
 10
1.0
 20
0.0
 30
0.0
  9
$PUCSYDIR
 10
0.0
 20
1.0
 30
0.0
  9
$PUCSORTHOREF
  2

  9
$PUCSORTHOVIEW
 70
     0
  9
$PUCSORGTOP
 10
0.0
 20
0.0
 30
0.0
  9
$PUCSORGBOTTOM
 10
0.0
 20
0.0
 30
0.0
  9
$PUCSORGLEFT
 10
0.0
 20
0.0
 30
0.0
  9
$PUCSORGRIGHT
 10
0.0
 20
0.0
 30
0.0
  9
$PUCSORGFRONT
 10
0.0
 20
0.0
 30
0.0
  9
$PUCSORGBACK
 10
0.0
 20
0.0
 30
0.0
  9
$USERI1
 70
     0
  9
$USERI2
 70
     0
  9
$USERI3
 70
     0
  9
$USERI4
 70
     0
  9
$USERI5
 70
     0
  9
$USERR1
 40
0.0
  9
$USERR2
 40
0.0
  9
$USERR3
 40
0.0
  9
$USERR4
 40
0.0
  9
$USERR5
 40
0.0
  9
$WORLDVIEW
 70
     1
  9
$SHADEDGE
 70
     3
  9
$SHADEDIF
 70
    70
  9
$TILEMODE
 70
     1
  9
$MAXACTVP
 70
    16
  9
$PINSBASE
 10
0.0
 20
0.0
 30
0.0
  9
$PLIMCHECK
 70
     0
  9
$PEXTMIN
 10
1.000000000000000E+20
 20
1.000000000000000E+20
 30
1.000000000000000E+20
  9
$PEXTMAX
 10
-1.000000000000000E+20
 20
-1.000000000000000E+20
 30
-1.000000000000000E+20
  9
$PLIMMIN
 10
0.0
 20
0.0
  9
$PLIMMAX
 10
420.0
 20
297.0
  9
$UNITMODE
 70
     0
  9
$VISRETAIN
 70
     0
  9
$PLINEGEN
 70
     0
  9
$PSLTSCALE
 70
     0
  9
$TREEDEPTH
 70
  3020
  9
$CMLSTYLE
  2
STANDARD
  9
$CMLJUST
 70
     0
  9
$CMLSCALE
 40
1.0
  9
$PROXYGRAPHICS
 70
     1
  9
$MEASUREMENT
 70
     0
  9
$CELWEIGHT
370
    -1
  9
$ENDCAPS
280
     0
  9
$JOINSTYLE
280
     0
  9
$LWDISPLAY
290
     0
  9
$INSUNITS
 70
     0
  9
$HYPERLINKBASE
  1

  9
$STYLESHEET
  1

  9
$XEDIT
290
     1
  9
$CEPSNTYPE
380
     0
  9
$PSTYLEMODE
290
     1
  9
$FINGERPRINTGUID
  2
{0102B471-1852-4DAB-B32B-025DCE0360DE}
  9
$VERSIONGUID
  2
{39E92E24-93A6-4E60-99AB-D789EC9F9BCB}
  9
$EXTNAMES
290
     1
  9
$PSVPSCALE
 40
0.0
  9
$OLESTARTUP
290
     0
  0
ENDSEC
  0
SECTION
  2
CLASSES
  0
CLASS
  1
ACDBDICTIONARYWDFLT
  2
AcDbDictionaryWithDefault
  3
ObjectDBX Classes
 90
        0
280
     0
281
     0
  0
CLASS
  1
ACDBPLACEHOLDER
  2
AcDbPlaceHolder
  3
ObjectDBX Classes
 90
        0
280
     0
281
     0
  0
CLASS
  1
LAYOUT
  2
AcDbLayout
  3
ObjectDBX Classes
 90
        0
280
     0
281
     0
  0
CLASS
  1
DICTIONARYVAR
  2
AcDbDictionaryVar
  3
ObjectDBX Classes
 90
        0
280
     0
281
     0
  0
CLASS
  1
MATERIAL
  2
AcDbMaterial
  3
ObjectDBX Classes
 90
     1153
280
     0
281
     0
  0
CLASS
  1
VISUALSTYLE
  2
AcDbVisualStyle
  3
ObjectDBX Classes
 90
     4095
280
     0
281
     0
  0
CLASS
  1
TABLESTYLE
  2
AcDbTableStyle
  3
ObjectDBX Classes
 90
     4095
280
     0
281
     0
  0
CLASS
  1
SCALE
  2
AcDbScale
  3
ObjectDBX Classes
 90
     1153
280
     0
281
     0
  0
CLASS
  1
MLEADERSTYLE
  2
AcDbMLeaderStyle
  3
ACDB_MLEADERSTYLE_CLASS
 90
     4095
280
     0
281
     0
  0
CLASS
  1
ACDBSECTIONVIEWSTYLE
  2
AcDbSectionViewStyle
  3
ObjectDBX Classes
 90
     1025
280
     0
281
     0
  0
CLASS
  1
ACDBDETAILVIEWSTYLE
  2
AcDbDetailViewStyle
  3
ObjectDBX Classes
 90
     1025
280
     0
281
     0
  0
CLASS
  1
CELLSTYLEMAP
  2
AcDbCellStyleMap
  3
ObjectDBX Classes
 90
     1152
280
     0
281
     0
  0
ENDSEC
  0
SECTION
  2
TABLES
  0
TABLE
  2
VPORT
  5
DA17
330
0
100
AcDbSymbolTable
 70
     1
  0
VPORT
  5
DFFB
330
DA17
100
AcDbSymbolTableRecord
100
AcDbViewportTableRecord
  2
*ACTIVE
 70
     0
 10
0.0
 20
0.0
 11
1.0
 21
1.0
 12
507.7724042685051
 22
254.0462964152058
 13
0.0
 23
0.0
 14
10.0
 24
10.0
 15
10.0
 25
10.0
 16
0.0
 26
0.0
 36
1.0
 17
0.0
 27
0.0
 37
0.0
 40
493.5902570033015
 41
1.899603698811096
 42
50.0
 43
0.0
 44
0.0
 50
0.0
 51
0.0
 71
     0
 72
   100
 73
     1
 74
     0
 75
     0
 76
     0
 77
     0
 78
     0
281
     0
 65
     1
110
0.0
120
0.0
130
0.0
111
1.0
121
0.0
131
0.0
112
0.0
122
1.0
132
0.0
 79
     0
146
0.0
1001
ACAD_NAV_VCDISPLAY
1070
     3
  0
ENDTAB
  0
TABLE
  2
LTYPE
  5
DA14
330
0
100
AcDbSymbolTable
 70
     4
  0
LTYPE
  5
DA22
330
DA14
100
AcDbSymbolTableRecord
100
AcDbLinetypeTableRecord
  2
BYBLOCK
 70
     0
  3

 72
    65
 73
     0
 40
0.0
  0
LTYPE
  5
DA23
330
DA14
100
AcDbSymbolTableRecord
100
AcDbLinetypeTableRecord
  2
BYLAYER
 70
     0
  3

 72
    65
 73
     0
 40
0.0
  0
LTYPE
  5
DA24
330
DA14
100
AcDbSymbolTableRecord
100
AcDbLinetypeTableRecord
  2
CONTINUOUS
 70
     0
  3
Solid line
 72
    65
 73
     0
 40
0.0
  0
LTYPE
  5
DA32
330
DA14
100
AcDbSymbolTableRecord
100
AcDbLinetypeTableRecord
  2
DASHED
 70
     0
  3
__ __ __ __ __ __ __ __ __ __ __ __ __ __ __ __
 72
    65
 73
     2
 40
0.75
 49
0.5
 74
     0
 49
-0.25
 74
     0
  0
LTYPE
  5
DA33
330
DA14
100
AcDbSymbolTableRecord
100
AcDbLinetypeTableRecord
  2
CENTER
 70
     0
  3
____ _ ____ _ ____ _ ____ _ ____ _ ____ _ ____ 
 72
    65
 73
     4
 40
2.0
 49
1.25
 74
     0
 49
-0.25
 74
     0
 49
0.25
 74
     0
 49
-0.25
 74
     0
  0
LTYPE
  5
DA34
330
DA14
100
AcDbSymbolTableRecord
100
AcDbLinetypeTableRecord
  2
PHANTOM
 70
     0
  3
______  __  __  ______  __  __  ______  __  __ 
 72
    65
 73
     6
 40
2.5
 49
1.25
 74
     0
 49
-0.25
 74
     0
 49
0.25
 74
     0
 49
-0.25
 74
     0
 49
0.25
 74
     0
 49
-0.25
 74
     0
  0
ENDTAB
  0
TABLE
  2
LAYER
  5
DA11
330
0
100
AcDbSymbolTable
 70
     8
  0
LAYER
  5
DA1F
102
{ACAD_XDICTIONARY
360
E056
102
}
330
DA11
100
AcDbSymbolTableRecord
100
AcDbLayerTableRecord
  2
0
 70
     0
 62
     7
  6
CONTINUOUS
370
    -3
390
E004
  0
LAYER
  5
DA35
102
{ACAD_XDICTIONARY
360
E058
102
}
330
DA11
100
AcDbSymbolTableRecord
100
AcDbLayerTableRecord
  2
4
 70
     0
 62
     1
  6
CENTER
370
    -3
390
E004
  0
LAYER
  5
DA36
102
{ACAD_XDICTIONARY
360
E05A
102
}
330
DA11
100
AcDbSymbolTableRecord
100
AcDbLayerTableRecord
  2
5
 70
     0
 62
     6
  6
PHANTOM
370
    -3
390
E004
  0
LAYER
  5
DA37
102
{ACAD_XDICTIONARY
360
E05C
102
}
330
DA11
100
AcDbSymbolTableRecord
100
AcDbLayerTableRecord
  2
1
 70
     0
 62
     7
  6
CONTINUOUS
370
    -3
390
E004
  0
LAYER
  5
DA38
102
{ACAD_XDICTIONARY
360
E05E
102
}
330
DA11
100
AcDbSymbolTableRecord
100
AcDbLayerTableRecord
  2
2
 70
     0
 62
     4
  6
CONTINUOUS
370
    -3
390
E004
  0
LAYER
  5
DA39
102
{ACAD_XDICTIONARY
360
E060
102
}
330
DA11
100
AcDbSymbolTableRecord
100
AcDbLayerTableRecord
  2
3
 70
     0
 62
     2
  6
DASHED
370
    -3
390
E004
  0
LAYER
  5
DA3A
102
{ACAD_XDICTIONARY
360
E062
102
}
330
DA11
100
AcDbSymbolTableRecord
100
AcDbLayerTableRecord
  2
6
 70
     0
 62
     5
  6
CONTINUOUS
370
    -3
390
E004
  0
LAYER
  5
DA3B
102
{ACAD_XDICTIONARY
360
E064
102
}
330
DA11
100
AcDbSymbolTableRecord
100
AcDbLayerTableRecord
  2
7
 70
     0
 62
     3
  6
CONTINUOUS
370
    -3
390
E004
  0
ENDTAB
  0
TABLE
  2
STYLE
  5
DA12
330
0
100
AcDbSymbolTable
 70
     1
  0
STYLE
  5
DA20
330
DA12
100
AcDbSymbolTableRecord
100
AcDbTextStyleTableRecord
  2
STANDARD
 70
     0
 40
0.0
 41
1.0
 50
0.0
 71
     0
 42
5.0
  3
txt
  4

  0
ENDTAB
  0
TABLE
  2
VIEW
  5
DA15
330
0
100
AcDbSymbolTable
 70
     0
  0
ENDTAB
  0
TABLE
  2
UCS
  5
DA16
330
0
100
AcDbSymbolTable
 70
     0
  0
ENDTAB
  0
TABLE
  2
APPID
  5
DA18
330
0
100
AcDbSymbolTable
 70
     3
  0
APPID
  5
DA21
330
DA18
100
AcDbSymbolTableRecord
100
AcDbRegAppTableRecord
  2
ACAD
 70
     0
  0
APPID
  5
E070
330
DA18
100
AcDbSymbolTableRecord
100
AcDbRegAppTableRecord
  2
ACAD_NAV_VCDISPLAY
 70
     0
  0
APPID
  5
E0A9
330
DA18
100
AcDbSymbolTableRecord
100
AcDbRegAppTableRecord
  2
ACAD_MLEADERVER
 70
     0
  0
ENDTAB
  0
TABLE
  2
DIMSTYLE
  5
DA19
330
0
100
AcDbSymbolTable
 70
     1
100
AcDbDimStyleTable
 71
     0
  0
DIMSTYLE
105
DA3D
330
DA19
100
AcDbSymbolTableRecord
100
AcDbDimStyleTableRecord
  2
STANDARD
 70
     0
 41
2.5
 42
1.0
 43
10.0
 44
1.0
 73
     0
 74
     0
 77
     3
 78
     8
140
3.2
141
0.0
147
1.0
172
     1
173
     1
284
     8
285
     8
286
     8
340
DA20
  0
ENDTAB
  0
TABLE
  2
BLOCK_RECORD
  5
DA10
330
0
100
AcDbSymbolTable
 70
     0
  0
BLOCK_RECORD
  5
DA2D
102
{ACAD_XDICTIONARY
360
DFFE
102
}
330
DA10
100
AcDbSymbolTableRecord
100
AcDbBlockTableRecord
  2
*MODEL_SPACE
340
E052
  0
BLOCK_RECORD
  5
DA29
102
{ACAD_XDICTIONARY
360
DFFC
102
}
330
DA10
100
AcDbSymbolTableRecord
100
AcDbBlockTableRecord
  2
*PAPER_SPACE
340
E053
  0
ENDTAB
  0
ENDSEC
  0
SECTION
  2
BLOCKS
  0
BLOCK
  5
DA2E
330
DA2D
100
AcDbEntity
  8
0
100
AcDbBlockBegin
  2
*MODEL_SPACE
 70
     0
 10
0.0
 20
0.0
 30
0.0
  3
*MODEL_SPACE
  1

  0
ENDBLK
  5
DA2F
330
DA2D
100
AcDbEntity
  8
0
100
AcDbBlockEnd
  0
BLOCK
  5
DA2A
330
DA29
100
AcDbEntity
 67
     1
  8
0
100
AcDbBlockBegin
  2
*PAPER_SPACE
 70
     0
 10
0.0
 20
0.0
 30
0.0
  3
*PAPER_SPACE
  1

  0
ENDBLK
  5
DA2B
330
DA29
100
AcDbEntity
 67
     1
  8
0
100
AcDbBlockEnd
  0
ENDSEC
  0
SECTION
  2
ENTITIES
  0
LINE
  5
DA45
330
DA2D
100
AcDbEntity
  8
1
  6
Continuous
100
AcDbLine
 10
297.301569
 20
320.3163098471938
 30
0.0
 11
295.7385319999998
 21
323.0235698471937
 31
0.0
  0
LINE
  5
DA46
330
DA2D
100
AcDbEntity
  8
1
  6
Continuous
100
AcDbLine
 10
290.3015689999999
 20
320.3163098471938
 30
0.0
 11
291.864606
 21
323.0235698471937
 31
0.0
  0
ARC
  5
DA47
330
DA2D
100
AcDbEntity
  8
1
  6
Continuous
100
AcDbCircle
 10
447.0899619999998
 20
322.8163098471938
 30
0.0
 40
4.0
100
AcDbArc
 50
332.571902
 51
207.428098
  0
ARC
  5
DA48
330
DA2D
100
AcDbEntity
  8
1
  6
Continuous
100
AcDbCircle
 10
447.0899619999998
 20
322.8163098471938
 30
0.0
 40
4.25
100
AcDbArc
 50
332.420521
 51
207.579479
  0
LINE
  5
DA49
330
DA2D
100
AcDbEntity
  8
1
  6
Continuous
100
AcDbLine
 10
447.0899619999998
 20
323.0235698471937
 30
0.0
 11
464.589962
 21
312.9199398471937
 31
0.0
  0
LINE
  5
DA4A
330
DA2D
100
AcDbEntity
  8
1
  6
Continuous
100
AcDbLine
 10
429.589962
 20
312.9199398471937
 30
0.0
 11
447.0899619999998
 21
323.0235698471937
 31
0.0
  0
CIRCLE
  5
DA4B
330
DA2D
100
AcDbEntity
  8
1
  6
Continuous
100
AcDbCircle
 10
447.0899619999998
 20
302.8163098471937
 30
0.0
 40
30.0
  0
LINE
  5
DA4C
330
DA2D
100
AcDbEntity
  8
4
  6
CENTER
100
AcDbLine
 10
447.0899619999998
 20
337.8163098471937
 30
0.0
 11
447.0899619999998
 21
177.8163098471938
 31
0.0
  0
LINE
  5
DA4D
330
DA2D
100
AcDbEntity
  8
1
  6
Continuous
100
AcDbLine
 10
240.8336659999999
 20
326.8163098471938
 30
0.0
 11
240.8336659999999
 21
320.3163098471938
 31
0.0
  0
LINE
  5
DA4E
330
DA2D
100
AcDbEntity
  8
1
  6
Continuous
100
AcDbLine
 10
221.8447289999998
 20
316.9276198471937
 30
0.0
 11
230.7619419999998
 21
331.7740928471938
 31
0.0
  0
LINE
  5
DA4F
330
DA2D
100
AcDbEntity
  8
1
  6
Continuous
100
AcDbLine
 10
230.7642009999999
 20
326.5267378471937
 30
0.0
 11
221.7952939999999
 21
313.1084518471938
 31
0.0
  0
LINE
  5
DA50
330
DA2D
100
AcDbEntity
  8
1
  6
Continuous
100
AcDbLine
 10
231.333666
 20
326.5267378471937
 30
0.0
 11
231.333666
 21
279.1058818471938
 31
0.0
  0
LINE
  5
DA51
330
DA2D
100
AcDbEntity
  8
1
  6
Continuous
100
AcDbLine
 10
237.3336659999999
 20
332.8163098471938
 30
0.0
 11
237.3336659999999
 21
272.8163098471938
 31
0.0
  0
LINE
  5
DA52
330
DA2D
100
AcDbEntity
  8
1
  6
Continuous
100
AcDbLine
 10
235.333666
 20
332.8163098471938
 30
0.0
 11
235.333666
 21
272.8163098471938
 31
0.0
  0
ARC
  5
DA53
330
DA2D
100
AcDbEntity
  8
1
  6
Continuous
100
AcDbCircle
 10
56.499999
 20
302.8163098471937
 30
0.0
 40
30.0
100
AcDbArc
 50
296.2191329999999
 51
243.7808669999999
  0
LINE
  5
DA54
330
DA2D
100
AcDbEntity
  8
1
  6
Continuous
100
AcDbLine
 10
39.499999
 20
326.4594908471938
 30
0.0
 11
39.499999
 21
279.1731288471938
 31
0.0
  0
LINE
  5
DA55
330
DA2D
100
AcDbEntity
  8
1
  6
Continuous
100
AcDbLine
 10
73.499999
 20
326.4594908471938
 30
0.0
 11
73.499999
 21
279.1731288471938
 31
0.0
  0
LINE
  5
DA56
330
DA2D
100
AcDbEntity
  8
1
  6
Continuous
100
AcDbLine
 10
42.999999
 20
313.9841488471938
 30
0.0
 11
39.76035300000001
 21
326.5267378471937
 31
0.0
  0
LINE
  5
DA57
330
DA2D
100
AcDbEntity
  8
1
  6
Continuous
100
AcDbLine
 10
69.999999
 20
313.9841488471938
 30
0.0
 11
73.23964499999998
 21
326.5267378471937
 31
0.0
  0
LINE
  5
DA58
330
DA2D
100
AcDbEntity
  8
4
  6
CENTER
100
AcDbLine
 10
56.499999
 20
337.4163098471938
 30
0.0
 11
56.499999
 21
178.3581578471937
 31
0.0
  0
LINE
  5
DA59
330
DA2D
100
AcDbEntity
  8
2
  6
Continuous
100
AcDbLine
 10
257.133666
 20
72.63286629651776
 30
0.0
 11
240.8336659999999
 21
64.54482829651777
 31
0.0
  0
LINE
  5
DA5A
330
DA2D
100
AcDbEntity
  8
2
  6
Continuous
100
AcDbLine
 10
240.8336659999999
 20
70.53510429651772
 30
0.0
 11
257.133666
 21
62.44706629651775
 31
0.0
  0
LINE
  5
DA5B
330
DA2D
100
AcDbEntity
  8
1
  6
Continuous
100
AcDbLine
 10
257.133666
 20
62.44706629651775
 30
0.0
 11
237.3336659999999
 21
62.44706629651775
 31
0.0
  0
LINE
  5
DA5C
330
DA2D
100
AcDbEntity
  8
1
  6
Continuous
100
AcDbLine
 10
257.133666
 20
72.63286629651776
 30
0.0
 11
237.3336659999999
 21
72.63286629651776
 31
0.0
  0
LINE
  5
DA5D
330
DA2D
100
AcDbEntity
  8
2
  6
Continuous
100
AcDbLine
 10
257.945666
 20
57.35196629651775
 30
0.0
 11
240.740091
 21
57.35196629651775
 31
0.0
  0
LINE
  5
DA5E
330
DA2D
100
AcDbEntity
  8
2
  6
Continuous
100
AcDbLine
 10
257.945666
 20
77.72796629651778
 30
0.0
 11
240.740091
 21
77.72796629651778
 31
0.0
  0
LINE
  5
DA5F
330
DA2D
100
AcDbEntity
  8
1
  6
Continuous
100
AcDbLine
 10
257.133666
 20
56.53996629651775
 30
0.0
 11
237.3336659999999
 21
56.53996629651775
 31
0.0
  0
LINE
  5
DA60
330
DA2D
100
AcDbEntity
  8
1
  6
Continuous
100
AcDbLine
 10
257.133666
 20
78.53996629651776
 30
0.0
 11
237.3336659999999
 21
78.53996629651776
 31
0.0
  0
LINE
  5
DA61
330
DA2D
100
AcDbEntity
  8
4
  6
CENTER
100
AcDbLine
 10
271.683666
 20
67.53996629651775
 30
0.0
 11
182.633666
 21
67.53996629651775
 31
0.0
  0
LINE
  5
DA62
330
DA2D
100
AcDbEntity
  8
1
  6
Continuous
100
AcDbLine
 10
237.3336659999999
 20
312.5663098471938
 30
0.0
 11
258.383666
 21
312.5663098471938
 31
0.0
  0
LINE
  5
DA63
330
DA2D
100
AcDbEntity
  8
1
  6
Continuous
100
AcDbLine
 10
237.3336659999999
 20
293.0663098471938
 30
0.0
 11
258.383666
 21
293.0663098471938
 31
0.0
  0
LINE
  5
DA64
330
DA2D
100
AcDbEntity
  8
4
  6
CENTER
100
AcDbLine
 10
184.286372
 20
302.8163098471937
 30
0.0
 11
271.683666
 21
302.8163098471937
 31
0.0
  0
TEXT
  5
DA65
330
DA2D
100
AcDbEntity
  8
7
  6
Continuous
100
AcDbText
 10
10.0
 20
26.0
 30
0.0
 40
3.0
  1
CODE No.13183
100
AcDbText
  0
TEXT
  5
DA66
330
DA2D
100
AcDbEntity
  8
7
  6
Continuous
100
AcDbText
 10
10.0
 20
18.0
 30
0.0
 40
3.0
  1
TYPE No.THA-330S-1
100
AcDbText
  0
TEXT
  5
DA67
330
DA2D
100
AcDbEntity
  8
1
  6
Continuous
100
AcDbText
 10
10.0
 20
10.0
 30
0.0
 40
1.399999999999999
  1
LAYER
100
AcDbText
  0
TEXT
  5
DA68
330
DA2D
100
AcDbEntity
  8
5
  6
PHANTOM
100
AcDbText
 10
25.97951099999999
 20
10.04873699999998
 30
0.0
 40
1.399999999999999
  1
5
100
AcDbText
  0
TEXT
  5
DA69
330
DA2D
100
AcDbEntity
  8
6
  6
Continuous
100
AcDbText
 10
27.979511
 20
10.04873699999998
 30
0.0
 40
1.399999999999999
  1
6
100
AcDbText
  0
TEXT
  5
DA6A
330
DA2D
100
AcDbEntity
  8
2
  6
Continuous
100
AcDbText
 10
19.97951099999999
 20
10.04873699999998
 30
0.0
 40
1.399999999999999
  1
2
100
AcDbText
  0
TEXT
  5
DA6B
330
DA2D
100
AcDbEntity
  8
3
  6
DASHED
100
AcDbText
 10
21.979511
 20
10.04873699999998
 30
0.0
 40
1.399999999999999
  1
3
100
AcDbText
  0
TEXT
  5
DA6C
330
DA2D
100
AcDbEntity
  8
4
  6
CENTER
100
AcDbText
 10
23.97951099999999
 20
10.04873699999998
 30
0.0
 40
1.399999999999999
  1
4
100
AcDbText
  0
TEXT
  5
DA6D
330
DA2D
100
AcDbEntity
  8
7
  6
Continuous
100
AcDbText
 10
29.97951099999999
 20
10.04873699999998
 30
0.0
 40
1.399999999999999
  1
7
100
AcDbText
  0
TEXT
  5
DA6E
330
DA2D
100
AcDbEntity
  8
1
  6
Continuous
100
AcDbText
 10
17.97951099999998
 20
10.04873699999998
 30
0.0
 40
1.399999999999999
  1
1
100
AcDbText
  0
LINE
  5
DA6F
330
DA2D
100
AcDbEntity
  8
1
  6
Continuous
100
AcDbLine
 10
240.740091
 20
78.53996629651776
 30
0.0
 11
240.740091
 21
72.63286629651776
 31
0.0
  0
LINE
  5
DA70
330
DA2D
100
AcDbEntity
  8
1
  6
Continuous
100
AcDbLine
 10
203.2336659999998
 20
81.03996629651776
 30
0.0
 11
203.2336659999998
 21
75.64266929651776
 31
0.0
  0
LINE
  5
DA71
330
DA2D
100
AcDbEntity
  8
1
  6
Continuous
100
AcDbLine
 10
221.783666
 20
54.03996629651775
 30
0.0
 11
221.783666
 21
81.03996629651776
 31
0.0
  0
LINE
  5
DA72
330
DA2D
100
AcDbEntity
  8
1
  6
Continuous
100
AcDbLine
 10
235.333666
 20
37.53996629651775
 30
0.0
 11
235.333666
 21
97.53996629651766
 31
0.0
  0
LINE
  5
DA73
330
DA2D
100
AcDbEntity
  8
1
  6
Continuous
100
AcDbLine
 10
237.3336659999999
 20
37.53996629651775
 30
0.0
 11
237.3336659999999
 21
97.53996629651766
 31
0.0
  0
LINE
  5
DA74
330
DA2D
100
AcDbEntity
  8
1
  6
Continuous
100
AcDbLine
 10
231.333666
 20
39.53996629651775
 30
0.0
 11
231.333666
 21
95.53996629651766
 31
0.0
  0
LINE
  5
DA75
330
DA2D
100
AcDbEntity
  8
1
  6
Continuous
100
AcDbLine
 10
221.733666
 20
54.03996629651775
 30
0.0
 11
221.733666
 21
81.03996629651776
 31
0.0
  0
LINE
  5
DA76
330
DA2D
100
AcDbEntity
  8
1
  6
Continuous
100
AcDbLine
 10
221.733666
 20
54.03996629651775
 30
0.0
 11
190.5730209999999
 21
54.03996629651775
 31
0.0
  0
LINE
  5
DA77
330
DA2D
100
AcDbEntity
  8
1
  6
Continuous
100
AcDbLine
 10
221.783666
 20
54.03996629651775
 30
0.0
 11
231.333666
 21
50.53996629651775
 31
0.0
  0
LINE
  5
DA78
330
DA2D
100
AcDbEntity
  8
1
  6
Continuous
100
AcDbLine
 10
203.2336659999998
 20
59.43726229651775
 30
0.0
 11
203.2336659999998
 21
54.03996629651775
 31
0.0
  0
ARC
  5
DA79
330
DA2D
100
AcDbEntity
  8
1
  6
Continuous
100
AcDbCircle
 10
202.2336659999999
 20
68.71446629651774
 30
0.0
 40
7.0
100
AcDbArc
 50
0.0
 51
90.0
  0
ARC
  5
DA7A
330
DA2D
100
AcDbEntity
  8
1
  6
Continuous
100
AcDbCircle
 10
202.2336659999999
 20
66.36546629651775
 30
0.0
 40
7.0
100
AcDbArc
 50
270.0
 51
0.0
  0
LINE
  5
DA7B
330
DA2D
100
AcDbEntity
  8
1
  6
Continuous
100
AcDbLine
 10
203.2336659999998
 20
72.53996629651776
 30
0.0
 11
203.2336659999998
 21
62.53996629651775
 31
0.0
  0
LINE
  5
DA7C
330
DA2D
100
AcDbEntity
  8
1
  6
Continuous
100
AcDbLine
 10
202.2336659999999
 20
75.71446629651773
 30
0.0
 11
197.671506
 21
75.71446629651773
 31
0.0
  0
LINE
  5
DA7D
330
DA2D
100
AcDbEntity
  8
1
  6
Continuous
100
AcDbLine
 10
202.2336659999999
 20
59.36546629651775
 30
0.0
 11
197.671506
 21
59.36546629651775
 31
0.0
  0
LINE
  5
DA7E
330
DA2D
100
AcDbEntity
  8
1
  6
Continuous
100
AcDbLine
 10
209.2336659999998
 20
68.71446629651774
 30
0.0
 11
209.2336659999998
 21
66.36546629651775
 31
0.0
  0
LINE
  5
DA7F
330
DA2D
100
AcDbEntity
  8
1
  6
Continuous
100
AcDbLine
 10
237.3336659999999
 20
37.53996629651775
 30
0.0
 11
233.333666
 21
37.53996629651775
 31
0.0
  0
ARC
  5
DA80
330
DA2D
100
AcDbEntity
  8
1
  6
Continuous
100
AcDbCircle
 10
233.333666
 20
39.53996629651775
 30
0.0
 40
2.0
100
AcDbArc
 50
180.0
 51
270.0
  0
LINE
  5
DA81
330
DA2D
100
AcDbEntity
  8
2
  6
Continuous
100
AcDbLine
 10
239.333666
 20
56.53996629651775
 30
0.0
 11
240.740091
 21
57.35196629651775
 31
0.0
  0
LINE
  5
DA82
330
DA2D
100
AcDbEntity
  8
1
  6
Continuous
100
AcDbLine
 10
237.3336659999999
 20
64.28996629651774
 30
0.0
 11
240.8336659999999
 21
64.28996629651774
 31
0.0
  0
LINE
  5
DA83
330
DA2D
100
AcDbEntity
  8
1
  6
Continuous
100
AcDbLine
 10
237.3336659999999
 20
70.78996629651775
 30
0.0
 11
240.8336659999999
 21
70.78996629651775
 31
0.0
  0
LINE
  5
DA84
330
DA2D
100
AcDbEntity
  8
1
  6
Continuous
100
AcDbLine
 10
240.740091
 20
62.44706629651775
 30
0.0
 11
240.740091
 21
56.53996629651775
 31
0.0
  0
LINE
  5
DA85
330
DA2D
100
AcDbEntity
  8
1
  6
Continuous
100
AcDbLine
 10
240.8336659999999
 20
70.78996629651775
 30
0.0
 11
240.8336659999999
 21
64.28996629651774
 31
0.0
  0
LINE
  5
DA86
330
DA2D
100
AcDbEntity
  8
1
  6
Continuous
100
AcDbLine
 10
221.733666
 20
81.03996629651776
 30
0.0
 11
190.5730209999999
 21
81.03996629651776
 31
0.0
  0
LINE
  5
DA87
330
DA2D
100
AcDbEntity
  8
1
  6
Continuous
100
AcDbLine
 10
221.783666
 20
81.03996629651776
 30
0.0
 11
231.333666
 21
84.53996629651774
 31
0.0
  0
LINE
  5
DA88
330
DA2D
100
AcDbEntity
  8
2
  6
Continuous
100
AcDbLine
 10
239.333666
 20
78.53996629651776
 30
0.0
 11
240.740091
 21
77.72796629651778
 31
0.0
  0
LINE
  5
DA89
330
DA2D
100
AcDbEntity
  8
1
  6
Continuous
100
AcDbLine
 10
237.3336659999999
 20
97.53996629651766
 30
0.0
 11
233.333666
 21
97.53996629651766
 31
0.0
  0
ARC
  5
DA8A
330
DA2D
100
AcDbEntity
  8
1
  6
Continuous
100
AcDbCircle
 10
233.333666
 20
95.53996629651766
 30
0.0
 40
2.0
100
AcDbArc
 50
90.0
 51
180.0
  0
LINE
  5
DA8B
330
DA2D
100
AcDbEntity
  8
4
  6
CENTER
100
AcDbLine
 10
26.53552000000002
 20
320.1163098471937
 30
0.0
 11
164.2839199999999
 21
240.5872338471937
 31
0.0
  0
LINE
  5
DA8C
330
DA2D
100
AcDbEntity
  8
5
  6
PHANTOM
100
AcDbLine
 10
161.8365629999999
 20
251.4392178471938
 30
0.0
 11
87.58274099999999
 21
300.0914838471937
 31
0.0
  0
LINE
  5
DA8D
330
DA2D
100
AcDbEntity
  8
5
  6
PHANTOM
100
AcDbLine
 10
153.6621479999997
 20
237.2807158471938
 30
0.0
 11
74.401139
 21
277.2602788471938
 31
0.0
  0
LINE
  5
DA8E
330
DA2D
100
AcDbEntity
  8
1
  6
Continuous
100
AcDbLine
 10
64.67441400000002
 20
185.9036238471938
 30
0.0
 11
69.681601
 21
274.5354518471939
 31
0.0
  0
LINE
  5
DA8F
330
DA2D
100
AcDbEntity
  8
1
  6
Continuous
100
AcDbLine
 10
48.32558399999999
 20
185.9036238471938
 30
0.0
 11
43.31839699999999
 21
274.5354518471939
 31
0.0
  0
ARC
  5
DA90
330
DA2D
100
AcDbEntity
  8
1
  6
Continuous
100
AcDbCircle
 10
62.17839399999997
 20
186.0446348471937
 30
0.0
 40
2.5
100
AcDbArc
 50
284.6179859999999
 51
356.766556
  0
ARC
  5
DA91
330
DA2D
100
AcDbEntity
  8
1
  6
Continuous
100
AcDbCircle
 10
50.82160399999998
 20
186.0446348471937
 30
0.0
 40
2.5
100
AcDbArc
 50
183.233444
 51
255.382014
  0
ARC
  5
DA92
330
DA2D
100
AcDbEntity
  8
1
  6
Continuous
100
AcDbCircle
 10
56.499999
 20
207.8163098471939
 30
0.0
 40
25.0
100
AcDbArc
 50
255.382014
 51
284.6179859999999
  0
ARC
  5
DA93
330
DA2D
100
AcDbEntity
  8
1
  6
Continuous
100
AcDbCircle
 10
56.499999
 20
284.8163098471938
 30
0.0
 40
8.0
100
AcDbArc
 50
12.83958799999999
 51
167.160412
  0
LINE
  5
DA94
330
DA2D
100
AcDbEntity
  8
4
  6
CENTER
100
AcDbLine
 10
91.499999
 20
302.8163098471937
 30
0.0
 11
21.499999
 21
302.8163098471937
 31
0.0
  0
ARC
  5
DA95
330
DA2D
100
AcDbEntity
  8
1
  6
Continuous
100
AcDbCircle
 10
56.499999
 20
293.8163098471937
 30
0.0
 40
26.0
100
AcDbArc
 50
61.36900999999999
 51
118.6309899999999
  0
ARC
  5
DA96
330
DA2D
100
AcDbEntity
  8
1
  6
Continuous
100
AcDbCircle
 10
41.499999
 20
279.1731288471938
 30
0.0
 40
2.0
100
AcDbArc
 50
180.0
 51
237.607635
  0
ARC
  5
DA97
330
DA2D
100
AcDbEntity
  8
1
  6
Continuous
100
AcDbCircle
 10
242.999999
 20
285.8163098471937
 30
0.0
 40
200.0
100
AcDbArc
 50
180.0
 51
183.233444
  0
LINE
  5
DA98
330
DA2D
100
AcDbEntity
  8
1
  6
Continuous
100
AcDbLine
 10
42.999999
 20
285.8163098471937
 30
0.0
 11
42.999999
 21
314.8816838471938
 31
0.0
  0
LINE
  5
DA99
330
DA2D
100
AcDbEntity
  8
1
  6
Continuous
100
AcDbLine
 10
44.999999
 20
317.1347578471937
 30
0.0
 11
44.999999
 21
286.3163098471937
 31
0.0
  0
LINE
  5
DA9A
330
DA2D
100
AcDbEntity
  8
1
  6
Continuous
100
AcDbLine
 10
49.57179599999999
 20
288.8163098471938
 30
0.0
 11
56.499999
 21
300.8163098471937
 31
0.0
  0
LINE
  5
DA9B
330
DA2D
100
AcDbEntity
  8
1
  6
Continuous
100
AcDbLine
 10
56.499999
 20
300.8163098471937
 30
0.0
 11
63.428202
 21
288.8163098471938
 31
0.0
  0
ARC
  5
DA9C
330
DA2D
100
AcDbEntity
  8
1
  6
Continuous
100
AcDbCircle
 10
47.72503499999999
 20
286.8163098471938
 30
0.0
 40
1.0
100
AcDbArc
 50
270.0
 51
347.160412
  0
ARC
  5
DA9D
330
DA2D
100
AcDbEntity
  8
1
  6
Continuous
100
AcDbCircle
 10
47.72503499999999
 20
286.8163098471938
 30
0.0
 40
1.0
100
AcDbArc
 50
270.0
 51
347.160412
  0
LINE
  5
DA9E
330
DA2D
100
AcDbEntity
  8
1
  6
Continuous
100
AcDbLine
 10
42.999999
 20
291.6484708471937
 30
0.0
 11
39.76035300000001
 21
279.1058818471938
 31
0.0
  0
LINE
  5
DA9F
330
DA2D
100
AcDbEntity
  8
1
  6
Continuous
100
AcDbLine
 10
45.499999
 20
285.8163098471937
 30
0.0
 11
47.72503499999999
 21
285.8163098471937
 31
0.0
  0
ARC
  5
DAA0
330
DA2D
100
AcDbEntity
  8
1
  6
Continuous
100
AcDbCircle
 10
44.999999
 20
314.8816838471938
 30
0.0
 40
2.0
100
AcDbArc
 50
118.6309899999999
 51
180.0
  0
ARC
  5
DAA1
330
DA2D
100
AcDbEntity
  8
1
  6
Continuous
100
AcDbCircle
 10
71.499999
 20
279.1731288471938
 30
0.0
 40
2.0
100
AcDbArc
 50
302.3923649999999
 51
0.0
  0
ARC
  5
DAA2
330
DA2D
100
AcDbEntity
  8
1
  6
Continuous
100
AcDbCircle
 10
-130.0000009999999
 20
285.8163098471937
 30
0.0
 40
200.0
100
AcDbArc
 50
356.766556
 51
0.0
  0
LINE
  5
DAA3
330
DA2D
100
AcDbEntity
  8
1
  6
Continuous
100
AcDbLine
 10
69.999999
 20
285.8163098471937
 30
0.0
 11
69.999999
 21
314.8816838471938
 31
0.0
  0
LINE
  5
DAA4
330
DA2D
100
AcDbEntity
  8
1
  6
Continuous
100
AcDbLine
 10
67.999999
 20
317.1347578471937
 30
0.0
 11
67.999999
 21
286.3163098471937
 31
0.0
  0
LINE
  5
DAA5
330
DA2D
100
AcDbEntity
  8
1
  6
Continuous
100
AcDbLine
 10
69.999999
 20
291.6484708471937
 30
0.0
 11
73.23964499999998
 21
279.1058818471938
 31
0.0
  0
ARC
  5
DAA6
330
DA2D
100
AcDbEntity
  8
1
  6
Continuous
100
AcDbCircle
 10
65.27496300000001
 20
286.8163098471938
 30
0.0
 40
1.0
100
AcDbArc
 50
192.839588
 51
270.0
  0
ARC
  5
DAA7
330
DA2D
100
AcDbEntity
  8
1
  6
Continuous
100
AcDbCircle
 10
65.27496300000001
 20
286.8163098471938
 30
0.0
 40
1.0
100
AcDbArc
 50
192.839588
 51
270.0
  0
LINE
  5
DAA8
330
DA2D
100
AcDbEntity
  8
1
  6
Continuous
100
AcDbLine
 10
65.27496300000001
 20
285.8163098471937
 30
0.0
 11
67.499999
 21
285.8163098471937
 31
0.0
  0
ARC
  5
DAA9
330
DA2D
100
AcDbEntity
  8
1
  6
Continuous
100
AcDbCircle
 10
67.999999
 20
314.8816838471938
 30
0.0
 40
2.0
100
AcDbArc
 50
0.0
 51
61.36900999999999
  0
LINE
  5
DAAA
330
DA2D
100
AcDbEntity
  8
1
  6
Continuous
100
AcDbLine
 10
188.945687
 20
268.9550668471937
 30
0.0
 11
196.0787169999999
 21
184.6476978471938
 31
0.0
  0
LINE
  5
DAAB
330
DA2D
100
AcDbEntity
  8
1
  6
Continuous
100
AcDbLine
 10
203.2336659999998
 20
285.6728958471937
 30
0.0
 11
203.2336659999998
 21
204.8873778471938
 31
0.0
  0
ARC
  5
DAAC
330
DA2D
100
AcDbEntity
  8
1
  6
Continuous
100
AcDbCircle
 10
201.2336659999998
 20
190.8163098471938
 30
0.0
 40
8.0
100
AcDbArc
 50
270.0
 51
0.0
  0
ARC
  5
DAAD
330
DA2D
100
AcDbEntity
  8
1
  6
Continuous
100
AcDbCircle
 10
198.071597
 20
184.8163098471938
 30
0.0
 40
2.0
100
AcDbArc
 50
184.8361309999999
 51
270.0
  0
LINE
  5
DAAE
330
DA2D
100
AcDbEntity
  8
1
  6
Continuous
100
AcDbLine
 10
198.071597
 20
182.8163098471938
 30
0.0
 11
201.2336659999998
 21
182.8163098471938
 31
0.0
  0
ARC
  5
DAAF
330
DA2D
100
AcDbEntity
  8
1
  6
Continuous
100
AcDbCircle
 10
201.2336659999998
 20
193.5026018471938
 30
0.0
 40
8.0
100
AcDbArc
 50
0.0
 51
45.0
  0
ARC
  5
DAB0
330
DA2D
100
AcDbEntity
  8
1
  6
Continuous
100
AcDbCircle
 10
208.2336659999999
 20
204.8873778471938
 30
0.0
 40
5.0
100
AcDbArc
 50
180.0
 51
225.0
  0
LINE
  5
DAB1
330
DA2D
100
AcDbEntity
  8
1
  6
Continuous
100
AcDbLine
 10
206.89052
 20
199.1594558471938
 30
0.0
 11
204.6981319999999
 21
201.3518438471938
 31
0.0
  0
LINE
  5
DAB2
330
DA2D
100
AcDbEntity
  8
1
  6
Continuous
100
AcDbLine
 10
209.2336659999998
 20
193.5026018471938
 30
0.0
 11
209.2336659999998
 21
190.8163098471938
 31
0.0
  0
ARC
  5
DAB3
330
DA2D
100
AcDbEntity
  8
1
  6
Continuous
100
AcDbCircle
 10
388.233666
 20
285.8163098471937
 30
0.0
 40
200.0
100
AcDbArc
 50
180.0
 51
184.8361309999999
  0
ARC
  5
DAB4
330
DA2D
100
AcDbEntity
  8
5
  6
PHANTOM
100
AcDbCircle
 10
138.772412
 20
255.3163098471937
 30
0.0
 40
25.0
100
AcDbArc
 50
315.382014
 51
344.6179859999999
  0
ARC
  5
DAB5
330
DA2D
100
AcDbEntity
  8
5
  6
PHANTOM
100
AcDbCircle
 10
154.788038
 20
239.5128378471938
 30
0.0
 40
2.5
100
AcDbArc
 50
243.233444
 51
315.382014
  0
ARC
  5
DAB6
330
DA2D
100
AcDbEntity
  8
5
  6
PHANTOM
100
AcDbCircle
 10
160.466433
 20
249.3481068471936
 30
0.0
 40
2.5
100
AcDbArc
 50
344.6179859999999
 51
56.76655600000001
  0
LINE
  5
DAB7
330
DA2D
100
AcDbEntity
  8
1
  6
Continuous
100
AcDbLine
 10
221.8446649999999
 20
288.7154728471937
 30
0.0
 11
230.7616869999999
 21
273.8589938471938
 31
0.0
  0
ARC
  5
DAB8
330
DA2D
100
AcDbEntity
  8
1
  6
Continuous
100
AcDbCircle
 10
232.5176899999998
 20
274.8163098471938
 30
0.0
 40
2.0
100
AcDbArc
 50
208.597786
 51
270.0
  0
LINE
  5
DAB9
330
DA2D
100
AcDbEntity
  8
1
  6
Continuous
100
AcDbLine
 10
232.5176899999998
 20
272.8163098471938
 30
0.0
 11
237.3336659999999
 21
272.8163098471938
 31
0.0
  0
LINE
  5
DABA
330
DA2D
100
AcDbEntity
  8
1
  6
Continuous
100
AcDbLine
 10
231.333666
 20
273.8543958471938
 30
0.0
 11
231.333666
 21
278.2539118471938
 31
0.0
  0
LINE
  5
DABB
330
DA2D
100
AcDbEntity
  8
1
  6
Continuous
100
AcDbLine
 10
230.7642009999999
 20
279.1058818471938
 30
0.0
 11
221.7952939999999
 21
292.5241678471939
 31
0.0
  0
LINE
  5
DABC
330
DA2D
100
AcDbEntity
  8
1
  6
Continuous
100
AcDbLine
 10
221.733666
 20
288.8163098471938
 30
0.0
 11
221.733666
 21
316.8163098471937
 31
0.0
  0
LINE
  5
DABD
330
DA2D
100
AcDbEntity
  8
1
  6
Continuous
100
AcDbLine
 10
221.783666
 20
288.9548018471937
 30
0.0
 11
221.783666
 21
316.6881738471938
 31
0.0
  0
LINE
  5
DABE
330
DA2D
100
AcDbEntity
  8
1
  6
Continuous
100
AcDbLine
 10
221.733666
 20
288.8163098471938
 30
0.0
 11
204.8919179999999
 21
287.3080938471937
 31
0.0
  0
ARC
  5
DABF
330
DA2D
100
AcDbEntity
  8
1
  6
Continuous
100
AcDbCircle
 10
209.2336659999998
 20
285.6728958471937
 30
0.0
 40
6.0
100
AcDbArc
 50
95.11731500000001
 51
180.0
  0
ARC
  5
DAC0
330
DA2D
100
AcDbEntity
  8
1
  6
Continuous
100
AcDbCircle
 10
206.2298479999999
 20
272.3678818471938
 30
0.0
 40
15.0
100
AcDbArc
 50
95.11731500000001
 51
100.851964
  0
LINE
  5
DAC1
330
DA2D
100
AcDbEntity
  8
1
  6
Continuous
100
AcDbLine
 10
221.733666
 20
292.8163098471937
 30
0.0
 11
221.783666
 21
292.8163098471937
 31
0.0
  0
ARC
  5
DAC2
330
DA2D
100
AcDbEntity
  8
1
  6
Continuous
100
AcDbCircle
 10
222.283666
 20
288.9548018471937
 30
0.0
 40
0.5
100
AcDbArc
 50
180.0
 51
210.963757
  0
LINE
  5
DAC3
330
DA2D
100
AcDbEntity
  8
1
  6
Continuous
100
AcDbLine
 10
221.733666
 20
292.8163098471937
 30
0.0
 11
208.6984939999999
 21
291.6489808471938
 31
0.0
  0
LINE
  5
DAC4
330
DA2D
100
AcDbEntity
  8
1
  6
Continuous
100
AcDbLine
 10
202.1929589999999
 20
315.8336778471938
 30
0.0
 11
221.1445299999998
 21
312.9476518471938
 31
0.0
  0
LINE
  5
DAC5
330
DA2D
100
AcDbEntity
  8
1
  6
Continuous
100
AcDbLine
 10
202.782095
 20
319.7023358471937
 30
0.0
 11
221.733666
 21
316.8163098471937
 31
0.0
  0
ARC
  5
DAC6
330
DA2D
100
AcDbEntity
  8
1
  6
Continuous
100
AcDbCircle
 10
201.276608
 20
309.8163098471938
 30
0.0
 40
10.0
100
AcDbArc
 50
81.34127900000001
 51
90.0
  0
LINE
  5
DAC7
330
DA2D
100
AcDbEntity
  8
1
  6
Continuous
100
AcDbLine
 10
188.7336659999999
 20
319.8163098471937
 30
0.0
 11
201.276608
 21
319.8163098471937
 31
0.0
  0
LINE
  5
DAC8
330
DA2D
100
AcDbEntity
  8
1
  6
Continuous
100
AcDbLine
 10
190.7721399999998
 20
315.9030508471938
 30
0.0
 11
201.276608
 21
315.9030508471938
 31
0.0
  0
ARC
  5
DAC9
330
DA2D
100
AcDbEntity
  8
1
  6
Continuous
100
AcDbCircle
 10
201.276608
 20
309.8163098471938
 30
0.0
 40
6.086740999999999
100
AcDbArc
 50
81.34127900000001
 51
90.0
  0
LINE
  5
DACA
330
DA2D
100
AcDbEntity
  8
1
  6
Continuous
100
AcDbLine
 10
221.733666
 20
312.4857208471938
 30
0.0
 11
221.783666
 21
312.4857208471938
 31
0.0
  0
LINE
  5
DACB
330
DA2D
100
AcDbEntity
  8
1
  6
Continuous
100
AcDbLine
 10
221.733666
 20
315.3163098471937
 30
0.0
 11
221.783666
 21
315.3163098471937
 31
0.0
  0
ARC
  5
DACC
330
DA2D
100
AcDbEntity
  8
1
  6
Continuous
100
AcDbCircle
 10
222.283666
 20
316.6881738471938
 30
0.0
 40
0.5
100
AcDbArc
 50
151.2520859999999
 51
180.0
  0
LINE
  5
DACD
330
DA2D
100
AcDbEntity
  8
1
  6
Continuous
100
AcDbLine
 10
237.3336659999999
 20
285.3163098471938
 30
0.0
 11
240.8336659999999
 21
285.3163098471938
 31
0.0
  0
LINE
  5
DACE
330
DA2D
100
AcDbEntity
  8
1
  6
Continuous
100
AcDbLine
 10
237.3336659999999
 20
278.8163098471938
 30
0.0
 11
240.8336659999999
 21
278.8163098471938
 31
0.0
  0
LINE
  5
DACF
330
DA2D
100
AcDbEntity
  8
1
  6
Continuous
100
AcDbLine
 10
240.8336659999999
 20
285.3163098471938
 30
0.0
 11
240.8336659999999
 21
278.8163098471938
 31
0.0
  0
LINE
  5
DAD0
330
DA2D
100
AcDbEntity
  8
1
  6
Continuous
100
AcDbLine
 10
237.3336659999999
 20
320.3163098471938
 30
0.0
 11
240.8336659999999
 21
320.3163098471938
 31
0.0
  0
LINE
  5
DAD1
330
DA2D
100
AcDbEntity
  8
1
  6
Continuous
100
AcDbLine
 10
288.8015709999999
 20
83.53996629651776
 30
0.0
 11
288.8015709999999
 21
51.53996629651775
 31
0.0
  0
LINE
  5
DAD2
330
DA2D
100
AcDbEntity
  8
1
  6
Continuous
100
AcDbLine
 10
287.1015709999999
 20
85.03996629651776
 30
0.0
 11
287.1015709999999
 21
50.03996629651775
 31
0.0
  0
LINE
  5
DAD3
330
DA2D
100
AcDbEntity
  8
1
  6
Continuous
100
AcDbLine
 10
257.133666
 20
78.53996629651776
 30
0.0
 11
258.683666
 21
76.98996629651777
 31
0.0
  0
LINE
  5
DAD4
330
DA2D
100
AcDbEntity
  8
1
  6
Continuous
100
AcDbLine
 10
257.133666
 20
78.53996629651776
 30
0.0
 11
257.133666
 21
72.63286629651776
 31
0.0
  0
LINE
  5
DAD5
330
DA2D
100
AcDbEntity
  8
1
  6
Continuous
100
AcDbLine
 10
288.501571
 20
50.03996629651775
 30
0.0
 11
288.501571
 21
85.03996629651776
 31
0.0
  0
ARC
  5
DAD6
330
DA2D
100
AcDbEntity
  8
1
  6
Continuous
100
AcDbCircle
 10
324.822632
 20
76.28996629651776
 30
0.0
 40
34.52106099999999
100
AcDbArc
 50
165.317147
 51
194.6828529999999
  0
ARC
  5
DAD7
330
DA2D
100
AcDbEntity
  8
1
  6
Continuous
100
AcDbCircle
 10
262.7805099999998
 20
76.28996629651776
 30
0.0
 40
34.52106099999999
100
AcDbArc
 50
345.317147
 51
14.68285299999999
  0
LINE
  5
DAD8
330
DA2D
100
AcDbEntity
  8
1
  6
Continuous
100
AcDbLine
 10
298.8015709999999
 20
83.53996629651776
 30
0.0
 11
298.8015709999999
 21
51.53996629651775
 31
0.0
  0
LINE
  5
DAD9
330
DA2D
100
AcDbEntity
  8
1
  6
Continuous
100
AcDbLine
 10
297.3015709999999
 20
85.03996629651776
 30
0.0
 11
297.3015709999999
 21
50.03996629651775
 31
0.0
  0
LINE
  5
DADA
330
DA2D
100
AcDbEntity
  8
1
  6
Continuous
100
AcDbLine
 10
290.3015709999999
 20
85.03996629651776
 30
0.0
 11
290.3015709999999
 21
50.03996629651775
 31
0.0
  0
LINE
  5
DADB
330
DA2D
100
AcDbEntity
  8
1
  6
Continuous
100
AcDbLine
 10
334.8067349999999
 20
56.53998829651776
 30
0.0
 11
334.8067349999999
 21
78.53998829651778
 31
0.0
  0
LINE
  5
DADC
330
DA2D
100
AcDbEntity
  8
1
  6
Continuous
100
AcDbLine
 10
331.806735
 20
56.53998829651776
 30
0.0
 11
331.806735
 21
78.53998829651778
 31
0.0
  0
LINE
  5
DADD
330
DA2D
100
AcDbEntity
  8
1
  6
Continuous
100
AcDbLine
 10
326.07059
 20
56.53998829651776
 30
0.0
 11
326.07059
 21
78.53998829651778
 31
0.0
  0
LINE
  5
DADE
330
DA2D
100
AcDbEntity
  8
1
  6
Continuous
100
AcDbLine
 10
328.07059
 20
56.53998829651776
 30
0.0
 11
328.07059
 21
78.53998829651778
 31
0.0
  0
LINE
  5
DADF
330
DA2D
100
AcDbEntity
  8
1
  6
Continuous
100
AcDbLine
 10
287.1015709999999
 20
50.03996629651775
 30
0.0
 11
288.501571
 21
50.03996629651775
 31
0.0
  0
LINE
  5
DAE0
330
DA2D
100
AcDbEntity
  8
4
  6
CENTER
100
AcDbLine
 10
283.8015709999999
 20
67.53996629651775
 30
0.0
 11
303.8015709999999
 21
67.53996629651775
 31
0.0
  0
LINE
  5
DAE1
330
DA2D
100
AcDbEntity
  8
1
  6
Continuous
100
AcDbLine
 10
286.8015709999999
 20
56.60281629651775
 30
0.0
 11
287.1015709999999
 21
55.44466629651775
 31
0.0
  0
LINE
  5
DAE2
330
DA2D
100
AcDbEntity
  8
1
  6
Continuous
100
AcDbLine
 10
257.133666
 20
62.44706629651775
 30
0.0
 11
257.133666
 21
56.53996629651775
 31
0.0
  0
ARC
  5
DAE3
330
DA2D
100
AcDbEntity
  8
1
  6
Continuous
100
AcDbCircle
 10
246.92632
 20
67.53996629651775
 30
0.0
 40
11.407346
100
AcDbArc
 50
333.483346
 51
26.516654
  0
LINE
  5
DAE4
330
DA2D
100
AcDbEntity
  8
1
  6
Continuous
100
AcDbLine
 10
257.133666
 20
56.53996629651775
 30
0.0
 11
258.683666
 21
58.08996629651775
 31
0.0
  0
ARC
  5
DAE5
330
DA2D
100
AcDbEntity
  8
1
  6
Continuous
100
AcDbCircle
 10
266.433666
 20
74.11605929651774
 30
0.0
 40
0.3
100
AcDbArc
 50
0.0
 51
90.0
  0
LINE
  5
DAE6
330
DA2D
100
AcDbEntity
  8
2
  6
Continuous
100
AcDbLine
 10
266.433666
 20
74.41605929651776
 30
0.0
 11
258.733666
 21
67.53996629651775
 31
0.0
  0
LINE
  5
DAE7
330
DA2D
100
AcDbEntity
  8
2
  6
Continuous
100
AcDbLine
 10
266.433666
 20
67.53996629651775
 30
0.0
 11
258.733666
 21
74.41605929651776
 31
0.0
  0
LINE
  5
DAE8
330
DA2D
100
AcDbEntity
  8
1
  6
Continuous
100
AcDbLine
 10
266.433666
 20
67.53996629651775
 30
0.0
 11
258.733666
 21
67.53996629651775
 31
0.0
  0
ARC
  5
DAE9
330
DA2D
100
AcDbEntity
  8
1
  6
Continuous
100
AcDbCircle
 10
266.433666
 20
60.96387329651776
 30
0.0
 40
0.3
100
AcDbArc
 50
270.0
 51
0.0
  0
LINE
  5
DAEA
330
DA2D
100
AcDbEntity
  8
1
  6
Continuous
100
AcDbLine
 10
266.433666
 20
60.66387329651775
 30
0.0
 11
258.733666
 21
60.66387329651775
 31
0.0
  0
LINE
  5
DAEB
330
DA2D
100
AcDbEntity
  8
2
  6
Continuous
100
AcDbLine
 10
258.733666
 20
67.53996629651775
 30
0.0
 11
266.433666
 21
60.66387329651775
 31
0.0
  0
LINE
  5
DAEC
330
DA2D
100
AcDbEntity
  8
2
  6
Continuous
100
AcDbLine
 10
258.733666
 20
60.66387329651775
 30
0.0
 11
266.433666
 21
67.53996629651775
 31
0.0
  0
LINE
  5
DAED
330
DA2D
100
AcDbEntity
  8
1
  6
Continuous
100
AcDbLine
 10
266.733666
 20
74.11605929651774
 30
0.0
 11
266.733666
 21
60.96387329651776
 31
0.0
  0
LINE
  5
DAEE
330
DA2D
100
AcDbEntity
  8
1
  6
Continuous
100
AcDbLine
 10
266.433666
 20
74.41605929651776
 30
0.0
 11
258.733666
 21
74.41605929651776
 31
0.0
  0
LINE
  5
DAEF
330
DA2D
100
AcDbEntity
  8
1
  6
Continuous
100
AcDbLine
 10
258.683666
 20
76.98996629651777
 30
0.0
 11
258.683666
 21
58.08996629651775
 31
0.0
  0
LINE
  5
DAF0
330
DA2D
100
AcDbEntity
  8
1
  6
Continuous
100
AcDbLine
 10
287.1015709999999
 20
56.60281629651775
 30
0.0
 11
286.8015709999999
 21
56.60281629651775
 31
0.0
  0
LINE
  5
DAF1
330
DA2D
100
AcDbEntity
  8
1
  6
Continuous
100
AcDbLine
 10
286.8015709999999
 20
60.78045629651779
 30
0.0
 11
287.1015709999999
 21
60.48045629651775
 31
0.0
  0
LINE
  5
DAF2
330
DA2D
100
AcDbEntity
  8
1
  6
Continuous
100
AcDbLine
 10
286.8015709999999
 20
60.78045629651779
 30
0.0
 11
287.1015709999999
 21
61.08046629651773
 31
0.0
  0
LINE
  5
DAF3
330
DA2D
100
AcDbEntity
  8
1
  6
Continuous
100
AcDbLine
 10
286.8015709999999
 20
67.54999629651774
 30
0.0
 11
287.1015709999999
 21
67.84999629651776
 31
0.0
  0
LINE
  5
DAF4
330
DA2D
100
AcDbEntity
  8
1
  6
Continuous
100
AcDbLine
 10
286.8015709999999
 20
67.54999629651774
 30
0.0
 11
287.1015709999999
 21
67.24999629651775
 31
0.0
  0
LINE
  5
DAF5
330
DA2D
100
AcDbEntity
  8
1
  6
Continuous
100
AcDbLine
 10
286.8015709999999
 20
74.29949629651773
 30
0.0
 11
287.1015709999999
 21
73.99949629651778
 31
0.0
  0
LINE
  5
DAF6
330
DA2D
100
AcDbEntity
  8
1
  6
Continuous
100
AcDbLine
 10
286.8015709999999
 20
74.29949629651773
 30
0.0
 11
287.1015709999999
 21
74.59949629651773
 31
0.0
  0
LINE
  5
DAF7
330
DA2D
100
AcDbEntity
  8
1
  6
Continuous
100
AcDbLine
 10
288.8015709999999
 20
56.60281629651775
 30
0.0
 11
288.501571
 21
55.44466629651775
 31
0.0
  0
ARC
  5
DAF8
330
DA2D
100
AcDbEntity
  8
1
  6
Continuous
100
AcDbCircle
 10
324.822632
 20
58.78996629651775
 30
0.0
 40
34.52106099999999
100
AcDbArc
 50
165.317147
 51
194.6828529999999
  0
ARC
  5
DAF9
330
DA2D
100
AcDbEntity
  8
1
  6
Continuous
100
AcDbCircle
 10
262.7805099999998
 20
58.78996629651775
 30
0.0
 40
34.52106099999999
100
AcDbArc
 50
345.317147
 51
14.68285299999999
  0
LINE
  5
DAFA
330
DA2D
100
AcDbEntity
  8
1
  6
Continuous
100
AcDbLine
 10
288.8015709999999
 20
51.53996629651775
 30
0.0
 11
290.3015709999999
 21
51.53996629651775
 31
0.0
  0
LINE
  5
DAFB
330
DA2D
100
AcDbEntity
  8
1
  6
Continuous
100
AcDbLine
 10
298.8015709999999
 20
51.53996629651775
 30
0.0
 11
297.3015709999999
 21
51.53996629651775
 31
0.0
  0
LINE
  5
DAFC
330
DA2D
100
AcDbEntity
  8
1
  6
Continuous
100
AcDbLine
 10
290.3015709999999
 20
50.03996629651775
 30
0.0
 11
297.3015709999999
 21
50.03996629651775
 31
0.0
  0
LINE
  5
DAFD
330
DA2D
100
AcDbEntity
  8
1
  6
Continuous
100
AcDbLine
 10
288.8015709999999
 20
67.52991629651774
 30
0.0
 11
288.501571
 21
67.22991629651774
 31
0.0
  0
LINE
  5
DAFE
330
DA2D
100
AcDbEntity
  8
1
  6
Continuous
100
AcDbLine
 10
288.501571
 20
67.82991629651775
 30
0.0
 11
288.8015709999999
 21
67.52991629651774
 31
0.0
  0
LINE
  5
DAFF
330
DA2D
100
AcDbEntity
  8
1
  6
Continuous
100
AcDbLine
 10
288.501571
 20
74.59949629651773
 30
0.0
 11
288.8015709999999
 21
74.29949629651773
 31
0.0
  0
LINE
  5
DB00
330
DA2D
100
AcDbEntity
  8
1
  6
Continuous
100
AcDbLine
 10
288.8015709999999
 20
74.29949629651773
 30
0.0
 11
288.501571
 21
73.99949629651778
 31
0.0
  0
LINE
  5
DB01
330
DA2D
100
AcDbEntity
  8
1
  6
Continuous
100
AcDbLine
 10
288.501571
 20
56.60281629651775
 30
0.0
 11
288.8015709999999
 21
56.60281629651775
 31
0.0
  0
LINE
  5
DB02
330
DA2D
100
AcDbEntity
  8
1
  6
Continuous
100
AcDbLine
 10
288.8015709999999
 20
60.78045629651779
 30
0.0
 11
288.501571
 21
61.08046629651773
 31
0.0
  0
LINE
  5
DB03
330
DA2D
100
AcDbEntity
  8
1
  6
Continuous
100
AcDbLine
 10
288.501571
 20
60.48045629651775
 30
0.0
 11
288.8015709999999
 21
60.78045629651779
 31
0.0
  0
LINE
  5
DB04
330
DA2D
100
AcDbEntity
  8
1
  6
Continuous
100
AcDbLine
 10
291.4289029999997
 20
67.53996629651775
 30
0.0
 11
296.1742389999999
 21
67.53996629651775
 31
0.0
  0
LINE
  5
DB05
330
DA2D
100
AcDbEntity
  8
4
  6
CENTER
100
AcDbLine
 10
339.806735
 20
67.53998829651775
 30
0.0
 11
321.0705899999999
 21
67.53998829651775
 31
0.0
  0
LINE
  5
DB06
330
DA2D
100
AcDbEntity
  8
1
  6
Continuous
100
AcDbLine
 10
334.8067349999999
 20
56.53998829651776
 30
0.0
 11
331.806735
 21
56.53998829651776
 31
0.0
  0
LINE
  5
DB07
330
DA2D
100
AcDbEntity
  8
1
  6
Continuous
100
AcDbLine
 10
328.07059
 20
56.53998829651776
 30
0.0
 11
326.07059
 21
56.53998829651776
 31
0.0
  0
LINE
  5
DB08
330
DA2D
100
AcDbEntity
  8
1
  6
Continuous
100
AcDbLine
 10
365.4771629999999
 20
75.54000829651776
 30
0.0
 11
367.0771629999999
 21
75.54000829651776
 31
0.0
  0
LINE
  5
DB09
330
DA2D
100
AcDbEntity
  8
4
  6
CENTER
100
AcDbLine
 10
377.5771629999999
 20
67.54000829651777
 30
0.0
 11
360.4771629999997
 21
67.54000829651777
 31
0.0
  0
LINE
  5
DB0A
330
DA2D
100
AcDbEntity
  8
1
  6
Continuous
100
AcDbLine
 10
365.4771629999999
 20
59.54000829651778
 30
0.0
 11
367.0771629999999
 21
59.54000829651778
 31
0.0
  0
LINE
  5
DB0B
330
DA2D
100
AcDbEntity
  8
1
  6
Continuous
100
AcDbLine
 10
365.4771629999999
 20
75.54000829651776
 30
0.0
 11
365.4771629999999
 21
59.54000829651778
 31
0.0
  0
ARC
  5
DB0C
330
DA2D
100
AcDbEntity
  8
1
  6
Continuous
100
AcDbCircle
 10
365.351871
 20
65.04000829651777
 30
0.0
 40
7.225291999999996
100
AcDbArc
 50
339.756734
 51
20.24326599999999
  0
LINE
  5
DB0D
330
DA2D
100
AcDbEntity
  8
1
  6
Continuous
100
AcDbLine
 10
372.5771629999999
 20
72.54000829651777
 30
0.0
 11
372.5771629999999
 21
62.54000829651777
 31
0.0
  0
ARC
  5
DB0E
330
DA2D
100
AcDbEntity
  8
1
  6
Continuous
100
AcDbCircle
 10
365.351871
 20
70.04000829651777
 30
0.0
 40
7.225291999999996
100
AcDbArc
 50
339.756734
 51
20.24326599999999
  0
ARC
  5
DB0F
330
DA2D
100
AcDbEntity
  8
1
  6
Continuous
100
AcDbCircle
 10
375.802455
 20
65.04000829651777
 30
0.0
 40
7.225291999999996
100
AcDbArc
 50
159.7567339999999
 51
200.243266
  0
ARC
  5
DB10
330
DA2D
100
AcDbEntity
  8
1
  6
Continuous
100
AcDbCircle
 10
375.802455
 20
70.04000829651777
 30
0.0
 40
7.225291999999996
100
AcDbArc
 50
159.7567339999999
 51
200.243266
  0
LINE
  5
DB11
330
DA2D
100
AcDbEntity
  8
1
  6
Continuous
100
AcDbLine
 10
372.5771629999999
 20
62.54000829651777
 30
0.0
 11
368.5771629999999
 21
62.54000829651777
 31
0.0
  0
LINE
  5
DB12
330
DA2D
100
AcDbEntity
  8
1
  6
Continuous
100
AcDbLine
 10
372.5771629999999
 20
72.54000829651777
 30
0.0
 11
368.5771629999999
 21
72.54000829651777
 31
0.0
  0
LINE
  5
DB13
330
DA2D
100
AcDbEntity
  8
1
  6
Continuous
100
AcDbLine
 10
369.0234549999997
 20
67.54000829651777
 30
0.0
 11
372.130871
 21
67.54000829651777
 31
0.0
  0
LINE
  5
DB14
330
DA2D
100
AcDbEntity
  8
1
  6
Continuous
100
AcDbLine
 10
368.5771629999999
 20
61.44000829651775
 30
0.0
 11
368.5771629999999
 21
73.64000829651778
 31
0.0
  0
LINE
  5
DB15
330
DA2D
100
AcDbEntity
  8
1
  6
Continuous
100
AcDbLine
 10
368.5771629999999
 20
73.64000829651778
 30
0.0
 11
367.0771629999999
 21
73.64000829651778
 31
0.0
  0
LINE
  5
DB16
330
DA2D
100
AcDbEntity
  8
1
  6
Continuous
100
AcDbLine
 10
368.5771629999999
 20
61.44000829651775
 30
0.0
 11
367.0771629999999
 21
61.44000829651775
 31
0.0
  0
LINE
  5
DB17
330
DA2D
100
AcDbEntity
  8
1
  6
Continuous
100
AcDbLine
 10
367.0771629999999
 20
66.03605129651774
 30
0.0
 11
368.5771629999999
 21
67.53605129651774
 31
0.0
  0
LINE
  5
DB18
330
DA2D
100
AcDbEntity
  8
1
  6
Continuous
100
AcDbLine
 10
367.0771629999999
 20
67.54000829651777
 30
0.0
 11
368.5771629999999
 21
69.04000829651777
 31
0.0
  0
LINE
  5
DB19
330
DA2D
100
AcDbEntity
  8
1
  6
Continuous
100
AcDbLine
 10
367.0771629999999
 20
75.54000829651776
 30
0.0
 11
367.0771629999999
 21
59.54000829651778
 31
0.0
  0
LINE
  5
DB1A
330
DA2D
100
AcDbEntity
  8
1
  6
Continuous
100
AcDbLine
 10
287.1015709999999
 20
85.03996629651776
 30
0.0
 11
288.501571
 21
85.03996629651776
 31
0.0
  0
LINE
  5
DB1B
330
DA2D
100
AcDbEntity
  8
1
  6
Continuous
100
AcDbLine
 10
287.1015709999999
 20
78.47711629651776
 30
0.0
 11
286.8015709999999
 21
78.47711629651776
 31
0.0
  0
LINE
  5
DB1C
330
DA2D
100
AcDbEntity
  8
1
  6
Continuous
100
AcDbLine
 10
286.8015709999999
 20
78.47711629651776
 30
0.0
 11
287.1015709999999
 21
79.63526629651774
 31
0.0
  0
LINE
  5
DB1D
330
DA2D
100
AcDbEntity
  8
1
  6
Continuous
100
AcDbLine
 10
288.501571
 20
78.47711629651776
 30
0.0
 11
288.8015709999999
 21
78.47711629651776
 31
0.0
  0
LINE
  5
DB1E
330
DA2D
100
AcDbEntity
  8
1
  6
Continuous
100
AcDbLine
 10
288.8015709999999
 20
78.47711629651776
 30
0.0
 11
288.501571
 21
79.63526629651774
 31
0.0
  0
LINE
  5
DB1F
330
DA2D
100
AcDbEntity
  8
1
  6
Continuous
100
AcDbLine
 10
288.8015709999999
 20
83.53996629651776
 30
0.0
 11
290.3015709999999
 21
83.53996629651776
 31
0.0
  0
LINE
  5
DB20
330
DA2D
100
AcDbEntity
  8
1
  6
Continuous
100
AcDbLine
 10
298.8015709999999
 20
83.53996629651776
 30
0.0
 11
297.3015709999999
 21
83.53996629651776
 31
0.0
  0
LINE
  5
DB21
330
DA2D
100
AcDbEntity
  8
1
  6
Continuous
100
AcDbLine
 10
290.3015709999999
 20
85.03996629651776
 30
0.0
 11
297.3015709999999
 21
85.03996629651776
 31
0.0
  0
LINE
  5
DB22
330
DA2D
100
AcDbEntity
  8
1
  6
Continuous
100
AcDbLine
 10
334.8067349999999
 20
78.53998829651778
 30
0.0
 11
331.806735
 21
78.53998829651778
 31
0.0
  0
LINE
  5
DB23
330
DA2D
100
AcDbEntity
  8
1
  6
Continuous
100
AcDbLine
 10
328.07059
 20
78.53998829651778
 30
0.0
 11
326.07059
 21
78.53998829651778
 31
0.0
  0
LINE
  5
DB24
330
DA2D
100
AcDbEntity
  8
5
  6
PHANTOM
100
AcDbLine
 10
341.7533979999998
 20
251.4392178471938
 30
0.0
 11
416.0072190000001
 21
300.0914838471937
 31
0.0
  0
LINE
  5
DB25
330
DA2D
100
AcDbEntity
  8
5
  6
PHANTOM
100
AcDbLine
 10
349.927813
 20
237.2807158471938
 30
0.0
 11
429.1888209999998
 21
277.2602788471938
 31
0.0
  0
LINE
  5
DB26
330
DA2D
100
AcDbEntity
  8
4
  6
CENTER
100
AcDbLine
 10
477.054441
 20
320.1163098471937
 30
0.0
 11
339.3060399999999
 21
240.5872338471937
 31
0.0
  0
LINE
  5
DB27
330
DA2D
100
AcDbEntity
  8
1
  6
Continuous
100
AcDbLine
 10
287.1015689999999
 20
320.3163098471938
 30
0.0
 11
288.501569
 21
320.3163098471938
 31
0.0
  0
LINE
  5
DB28
330
DA2D
100
AcDbEntity
  8
1
  6
Continuous
100
AcDbLine
 10
287.1015689999999
 20
285.3163098471938
 30
0.0
 11
288.501569
 21
285.3163098471938
 31
0.0
  0
LINE
  5
DB29
330
DA2D
100
AcDbEntity
  8
4
  6
CENTER
100
AcDbLine
 10
282.201569
 20
302.8163098471937
 30
0.0
 11
303.8015689999999
 21
302.8163098471937
 31
0.0
  0
LINE
  5
DB2A
330
DA2D
100
AcDbEntity
  8
1
  6
Continuous
100
AcDbLine
 10
287.1015689999999
 20
320.3163098471938
 30
0.0
 11
287.1015689999999
 21
285.3163098471938
 31
0.0
  0
LINE
  5
DB2B
330
DA2D
100
AcDbEntity
  8
2
  6
Continuous
100
AcDbLine
 10
258.733666
 20
302.8163098471937
 30
0.0
 11
266.433666
 21
295.9402168471939
 31
0.0
  0
LINE
  5
DB2C
330
DA2D
100
AcDbEntity
  8
2
  6
Continuous
100
AcDbLine
 10
258.733666
 20
295.9402168471939
 30
0.0
 11
266.433666
 21
302.8163098471937
 31
0.0
  0
LINE
  5
DB2D
330
DA2D
100
AcDbEntity
  8
1
  6
Continuous
100
AcDbLine
 10
266.733666
 20
309.3924028471937
 30
0.0
 11
266.733666
 21
296.2402168471937
 31
0.0
  0
LINE
  5
DB2E
330
DA2D
100
AcDbEntity
  8
1
  6
Continuous
100
AcDbLine
 10
258.683666
 20
312.2663098471939
 30
0.0
 11
258.683666
 21
293.3663098471938
 31
0.0
  0
LINE
  5
DB2F
330
DA2D
100
AcDbEntity
  8
1
  6
Continuous
100
AcDbLine
 10
258.383666
 20
293.0663098471938
 30
0.0
 11
258.683666
 21
293.3663098471938
 31
0.0
  0
ARC
  5
DB30
330
DA2D
100
AcDbEntity
  8
1
  6
Continuous
100
AcDbCircle
 10
266.433666
 20
296.2402168471937
 30
0.0
 40
0.3
100
AcDbArc
 50
270.0
 51
0.0
  0
LINE
  5
DB31
330
DA2D
100
AcDbEntity
  8
1
  6
Continuous
100
AcDbLine
 10
266.433666
 20
295.9402168471939
 30
0.0
 11
258.733666
 21
295.9402168471939
 31
0.0
  0
LINE
  5
DB32
330
DA2D
100
AcDbEntity
  8
1
  6
Continuous
100
AcDbLine
 10
286.8015689999999
 20
296.0567998471938
 30
0.0
 11
287.1015689999999
 21
296.3568098471938
 31
0.0
  0
LINE
  5
DB33
330
DA2D
100
AcDbEntity
  8
1
  6
Continuous
100
AcDbLine
 10
286.8015689999999
 20
296.0567998471938
 30
0.0
 11
287.1015689999999
 21
295.7567998471937
 31
0.0
  0
LINE
  5
DB34
330
DA2D
100
AcDbEntity
  8
1
  6
Continuous
100
AcDbLine
 10
287.1015689999999
 20
291.8791598471938
 30
0.0
 11
286.8015689999999
 21
291.8791598471938
 31
0.0
  0
LINE
  5
DB35
330
DA2D
100
AcDbEntity
  8
1
  6
Continuous
100
AcDbLine
 10
286.8015689999999
 20
291.8791598471938
 30
0.0
 11
287.1015689999999
 21
290.7210098471937
 31
0.0
  0
LINE
  5
DB36
330
DA2D
100
AcDbEntity
  8
1
  6
Continuous
100
AcDbLine
 10
258.383666
 20
312.5663098471938
 30
0.0
 11
258.683666
 21
312.2663098471939
 31
0.0
  0
ARC
  5
DB37
330
DA2D
100
AcDbEntity
  8
1
  6
Continuous
100
AcDbCircle
 10
266.433666
 20
309.3924028471937
 30
0.0
 40
0.3
100
AcDbArc
 50
0.0
 51
90.0
  0
LINE
  5
DB38
330
DA2D
100
AcDbEntity
  8
2
  6
Continuous
100
AcDbLine
 10
266.433666
 20
309.6924028471939
 30
0.0
 11
258.733666
 21
302.8163098471937
 31
0.0
  0
LINE
  5
DB39
330
DA2D
100
AcDbEntity
  8
2
  6
Continuous
100
AcDbLine
 10
266.433666
 20
302.8163098471937
 30
0.0
 11
258.733666
 21
309.6924028471939
 31
0.0
  0
LINE
  5
DB3A
330
DA2D
100
AcDbEntity
  8
1
  6
Continuous
100
AcDbLine
 10
266.433666
 20
302.8163098471937
 30
0.0
 11
258.733666
 21
302.8163098471937
 31
0.0
  0
LINE
  5
DB3B
330
DA2D
100
AcDbEntity
  8
1
  6
Continuous
100
AcDbLine
 10
266.433666
 20
309.6924028471939
 30
0.0
 11
258.733666
 21
309.6924028471939
 31
0.0
  0
LINE
  5
DB3C
330
DA2D
100
AcDbEntity
  8
1
  6
Continuous
100
AcDbLine
 10
286.8015689999999
 20
309.5758398471937
 30
0.0
 11
287.1015689999999
 21
309.8758398471937
 31
0.0
  0
LINE
  5
DB3D
330
DA2D
100
AcDbEntity
  8
1
  6
Continuous
100
AcDbLine
 10
286.8015689999999
 20
309.5758398471937
 30
0.0
 11
287.1015689999999
 21
309.2758398471938
 31
0.0
  0
LINE
  5
DB3E
330
DA2D
100
AcDbEntity
  8
1
  6
Continuous
100
AcDbLine
 10
286.8015689999999
 20
313.7534598471938
 30
0.0
 11
287.1015689999999
 21
314.9116098471937
 31
0.0
  0
LINE
  5
DB3F
330
DA2D
100
AcDbEntity
  8
1
  6
Continuous
100
AcDbLine
 10
287.1015689999999
 20
313.7534598471938
 30
0.0
 11
286.8015689999999
 21
313.7534598471938
 31
0.0
  0
LINE
  5
DB40
330
DA2D
100
AcDbEntity
  8
1
  6
Continuous
100
AcDbLine
 10
286.8015689999999
 20
302.8263398471938
 30
0.0
 11
287.1015689999999
 21
302.5263398471938
 31
0.0
  0
LINE
  5
DB41
330
DA2D
100
AcDbEntity
  8
1
  6
Continuous
100
AcDbLine
 10
286.8015689999999
 20
302.8263398471938
 30
0.0
 11
287.1015689999999
 21
303.1263398471937
 31
0.0
  0
LINE
  5
DB42
330
DA2D
100
AcDbEntity
  8
1
  6
Continuous
100
AcDbLine
 10
288.8015689999999
 20
318.8163098471938
 30
0.0
 11
288.8015689999999
 21
286.8163098471938
 31
0.0
  0
ARC
  5
DB43
330
DA2D
100
AcDbEntity
  8
1
  6
Continuous
100
AcDbCircle
 10
251.4613739999999
 20
302.8163098471937
 30
0.0
 40
45.84019399999998
100
AcDbArc
 50
347.266894
 51
12.733106
  0
ARC
  5
DB44
330
DA2D
100
AcDbEntity
  8
1
  6
Continuous
100
AcDbCircle
 10
336.1417629999998
 20
302.8163098471937
 30
0.0
 40
45.84019399999998
100
AcDbArc
 50
167.266894
 51
192.733106
  0
LINE
  5
DB45
330
DA2D
100
AcDbEntity
  8
1
  6
Continuous
100
AcDbLine
 10
288.501569
 20
285.3163098471938
 30
0.0
 11
288.501569
 21
320.3163098471938
 31
0.0
  0
LINE
  5
DB46
330
DA2D
100
AcDbEntity
  8
1
  6
Continuous
100
AcDbLine
 10
290.3015689999999
 20
285.3163098471938
 30
0.0
 11
290.3015689999999
 21
320.3163098471938
 31
0.0
  0
LINE
  5
DB47
330
DA2D
100
AcDbEntity
  8
1
  6
Continuous
100
AcDbLine
 10
297.301569
 20
285.3163098471938
 30
0.0
 11
297.301569
 21
320.3163098471938
 31
0.0
  0
LINE
  5
DB48
330
DA2D
100
AcDbEntity
  8
1
  6
Continuous
100
AcDbLine
 10
298.8015689999999
 20
286.8163098471938
 30
0.0
 11
298.8015689999999
 21
318.8163098471938
 31
0.0
  0
ARC
  5
DB49
330
DA2D
100
AcDbEntity
  8
1
  6
Continuous
100
AcDbCircle
 10
285.4187729999998
 20
287.6608658471937
 30
0.0
 40
11.882796
100
AcDbArc
 50
345.2736279999998
 51
25.159327
  0
LINE
  5
DB4A
330
DA2D
100
AcDbEntity
  8
1
  6
Continuous
100
AcDbLine
 10
298.8015689999999
 20
286.8163098471938
 30
0.0
 11
297.301569
 21
286.8163098471938
 31
0.0
  0
LINE
  5
DB4B
330
DA2D
100
AcDbEntity
  8
1
  6
Continuous
100
AcDbLine
 10
288.501569
 20
295.7567998471937
 30
0.0
 11
288.8015689999999
 21
296.0567998471938
 31
0.0
  0
LINE
  5
DB4C
330
DA2D
100
AcDbEntity
  8
1
  6
Continuous
100
AcDbLine
 10
288.8015689999999
 20
296.0567998471938
 30
0.0
 11
288.501569
 21
296.3568098471938
 31
0.0
  0
LINE
  5
DB4D
330
DA2D
100
AcDbEntity
  8
1
  6
Continuous
100
AcDbLine
 10
288.501569
 20
291.8791598471938
 30
0.0
 11
288.8015689999999
 21
291.8791598471938
 31
0.0
  0
LINE
  5
DB4E
330
DA2D
100
AcDbEntity
  8
1
  6
Continuous
100
AcDbLine
 10
288.8015689999999
 20
291.8791598471938
 30
0.0
 11
288.501569
 21
290.7210098471937
 31
0.0
  0
ARC
  5
DB4F
330
DA2D
100
AcDbEntity
  8
1
  6
Continuous
100
AcDbCircle
 10
302.184365
 20
287.6608658471937
 30
0.0
 40
11.882796
100
AcDbArc
 50
154.840673
 51
194.726372
  0
LINE
  5
DB50
330
DA2D
100
AcDbEntity
  8
1
  6
Continuous
100
AcDbLine
 10
288.8015689999999
 20
286.8163098471938
 30
0.0
 11
290.3015689999999
 21
286.8163098471938
 31
0.0
  0
LINE
  5
DB51
330
DA2D
100
AcDbEntity
  8
1
  6
Continuous
100
AcDbLine
 10
296.1742369999999
 20
292.7126798471937
 30
0.0
 11
291.428901
 21
292.7126798471937
 31
0.0
  0
LINE
  5
DB52
330
DA2D
100
AcDbEntity
  8
1
  6
Continuous
100
AcDbLine
 10
295.7385319999998
 20
282.6090508471938
 30
0.0
 11
291.864606
 21
282.6090508471938
 31
0.0
  0
LINE
  5
DB53
330
DA2D
100
AcDbEntity
  8
1
  6
Continuous
100
AcDbLine
 10
297.301569
 20
285.3163098471938
 30
0.0
 11
295.7385319999998
 21
282.6090498471939
 31
0.0
  0
LINE
  5
DB54
330
DA2D
100
AcDbEntity
  8
1
  6
Continuous
100
AcDbLine
 10
290.3015689999999
 20
285.3163098471938
 30
0.0
 11
291.864606
 21
282.6090498471939
 31
0.0
  0
ARC
  5
DB55
330
DA2D
100
AcDbEntity
  8
1
  6
Continuous
100
AcDbCircle
 10
285.4187729999998
 20
317.9717548471939
 30
0.0
 40
11.882796
100
AcDbArc
 50
334.8406729999999
 51
14.726371
  0
LINE
  5
DB56
330
DA2D
100
AcDbEntity
  8
1
  6
Continuous
100
AcDbLine
 10
298.8015689999999
 20
318.8163098471938
 30
0.0
 11
297.301569
 21
318.8163098471938
 31
0.0
  0
LINE
  5
DB57
330
DA2D
100
AcDbEntity
  8
1
  6
Continuous
100
AcDbLine
 10
288.8015689999999
 20
309.5758398471937
 30
0.0
 11
288.501569
 21
309.2758398471938
 31
0.0
  0
LINE
  5
DB58
330
DA2D
100
AcDbEntity
  8
1
  6
Continuous
100
AcDbLine
 10
288.501569
 20
309.8758398471937
 30
0.0
 11
288.8015689999999
 21
309.5758398471937
 31
0.0
  0
LINE
  5
DB59
330
DA2D
100
AcDbEntity
  8
1
  6
Continuous
100
AcDbLine
 10
288.8015689999999
 20
313.7534598471938
 30
0.0
 11
288.501569
 21
314.9116098471937
 31
0.0
  0
LINE
  5
DB5A
330
DA2D
100
AcDbEntity
  8
1
  6
Continuous
100
AcDbLine
 10
288.501569
 20
313.7534598471938
 30
0.0
 11
288.8015689999999
 21
313.7534598471938
 31
0.0
  0
ARC
  5
DB5B
330
DA2D
100
AcDbEntity
  8
1
  6
Continuous
100
AcDbCircle
 10
302.184365
 20
317.9717548471939
 30
0.0
 40
11.882796
100
AcDbArc
 50
165.2736289999998
 51
205.159327
  0
LINE
  5
DB5C
330
DA2D
100
AcDbEntity
  8
1
  6
Continuous
100
AcDbLine
 10
288.8015689999999
 20
318.8163098471938
 30
0.0
 11
290.3015689999999
 21
318.8163098471938
 31
0.0
  0
LINE
  5
DB5D
330
DA2D
100
AcDbEntity
  8
1
  6
Continuous
100
AcDbLine
 10
296.1742369999999
 20
312.9199398471937
 30
0.0
 11
291.428901
 21
312.9199398471937
 31
0.0
  0
LINE
  5
DB5E
330
DA2D
100
AcDbEntity
  8
1
  6
Continuous
100
AcDbLine
 10
288.501569
 20
303.1062598471939
 30
0.0
 11
288.8015689999999
 21
302.8062598471937
 31
0.0
  0
LINE
  5
DB5F
330
DA2D
100
AcDbEntity
  8
1
  6
Continuous
100
AcDbLine
 10
288.8015689999999
 20
302.8062598471937
 30
0.0
 11
288.501569
 21
302.5062598471937
 31
0.0
  0
ARC
  5
DB60
330
DA2D
100
AcDbEntity
  8
5
  6
PHANTOM
100
AcDbCircle
 10
343.1235269999999
 20
249.3481068471936
 30
0.0
 40
2.5
100
AcDbArc
 50
123.233444
 51
195.3820139999996
  0
ARC
  5
DB61
330
DA2D
100
AcDbEntity
  8
5
  6
PHANTOM
100
AcDbCircle
 10
348.8019219999998
 20
239.5128378471938
 30
0.0
 40
2.5
100
AcDbArc
 50
224.6179859999997
 51
296.766556
  0
ARC
  5
DB62
330
DA2D
100
AcDbEntity
  8
5
  6
PHANTOM
100
AcDbCircle
 10
364.8175479999999
 20
255.3163098471937
 30
0.0
 40
25.0
100
AcDbArc
 50
195.3820139999996
 51
224.6179859999997
  0
LINE
  5
DB63
330
DA2D
100
AcDbEntity
  8
1
  6
Continuous
100
AcDbLine
 10
328.07059
 20
291.8163098471937
 30
0.0
 11
328.07059
 21
313.8163098471938
 31
0.0
  0
LINE
  5
DB64
330
DA2D
100
AcDbEntity
  8
1
  6
Continuous
100
AcDbLine
 10
326.07059
 20
291.8163098471937
 30
0.0
 11
326.07059
 21
313.8163098471938
 31
0.0
  0
LINE
  5
DB65
330
DA2D
100
AcDbEntity
  8
1
  6
Continuous
100
AcDbLine
 10
331.806735
 20
291.8163098471937
 30
0.0
 11
331.806735
 21
313.8163098471938
 31
0.0
  0
LINE
  5
DB66
330
DA2D
100
AcDbEntity
  8
1
  6
Continuous
100
AcDbLine
 10
334.8067349999999
 20
291.8163098471937
 30
0.0
 11
334.8067349999999
 21
313.8163098471938
 31
0.0
  0
LINE
  5
DB67
330
DA2D
100
AcDbEntity
  8
1
  6
Continuous
100
AcDbLine
 10
328.07059
 20
291.8163098471937
 30
0.0
 11
326.07059
 21
291.8163098471937
 31
0.0
  0
LINE
  5
DB68
330
DA2D
100
AcDbEntity
  8
1
  6
Continuous
100
AcDbLine
 10
334.8067349999999
 20
291.8163098471937
 30
0.0
 11
331.806735
 21
291.8163098471937
 31
0.0
  0
LINE
  5
DB69
330
DA2D
100
AcDbEntity
  8
4
  6
CENTER
100
AcDbLine
 10
339.806735
 20
302.8163098471937
 30
0.0
 11
321.0705899999999
 21
302.8163098471937
 31
0.0
  0
LINE
  5
DB6A
330
DA2D
100
AcDbEntity
  8
1
  6
Continuous
100
AcDbLine
 10
328.07059
 20
313.8163098471938
 30
0.0
 11
326.07059
 21
313.8163098471938
 31
0.0
  0
LINE
  5
DB6B
330
DA2D
100
AcDbEntity
  8
1
  6
Continuous
100
AcDbLine
 10
334.8067349999999
 20
313.8163098471938
 30
0.0
 11
331.806735
 21
313.8163098471938
 31
0.0
  0
ARC
  5
DB6C
330
DA2D
100
AcDbEntity
  8
1
  6
Continuous
100
AcDbCircle
 10
363.0162139999998
 20
302.8128528471938
 30
0.0
 40
9.560949
100
AcDbArc
 50
342.4247879999999
 51
17.575212
  0
LINE
  5
DB6D
330
DA2D
100
AcDbEntity
  8
1
  6
Continuous
100
AcDbLine
 10
372.5771629999999
 20
307.8128528471939
 30
0.0
 11
372.5771629999999
 21
297.8118528471938
 31
0.0
  0
ARC
  5
DB6E
330
DA2D
100
AcDbEntity
  8
1
  6
Continuous
100
AcDbCircle
 10
378.1381119999999
 20
302.8128528471938
 30
0.0
 40
9.560949
100
AcDbArc
 50
162.4247879999998
 51
197.5752119999999
  0
LINE
  5
DB6F
330
DA2D
100
AcDbEntity
  8
1
  6
Continuous
100
AcDbLine
 10
368.5771629999999
 20
297.0428068471937
 30
0.0
 11
368.5771629999999
 21
308.5898128471938
 31
0.0
  0
LINE
  5
DB70
330
DA2D
100
AcDbEntity
  8
1
  6
Continuous
100
AcDbLine
 10
368.5771629999999
 20
296.7163098471938
 30
0.0
 11
368.5771629999999
 21
308.9163098471938
 31
0.0
  0
LINE
  5
DB71
330
DA2D
100
AcDbEntity
  8
1
  6
Continuous
100
AcDbLine
 10
367.0771629999999
 20
310.8163098471937
 30
0.0
 11
367.0771629999999
 21
294.8163098471937
 31
0.0
  0
LINE
  5
DB72
330
DA2D
100
AcDbEntity
  8
1
  6
Continuous
100
AcDbLine
 10
365.4771629999999
 20
310.8163098471937
 30
0.0
 11
365.4771629999999
 21
294.8163098471937
 31
0.0
  0
LINE
  5
DB73
330
DA2D
100
AcDbEntity
  8
1
  6
Continuous
100
AcDbLine
 10
365.4771629999999
 20
294.8163098471937
 30
0.0
 11
367.0771629999999
 21
294.8163098471937
 31
0.0
  0
LINE
  5
DB74
330
DA2D
100
AcDbEntity
  8
1
  6
Continuous
100
AcDbLine
 10
372.5771629999999
 20
297.8118528471938
 30
0.0
 11
372.130871
 21
297.0388528471938
 31
0.0
  0
ARC
  5
DB75
330
DA2D
100
AcDbEntity
  8
1
  6
Continuous
100
AcDbCircle
 10
370.021183
 20
298.4818528471937
 30
0.0
 40
2.555979999999999
100
AcDbArc
 50
334.371637
 51
34.371637
  0
ARC
  5
DB76
330
DA2D
100
AcDbEntity
  8
1
  6
Continuous
100
AcDbCircle
 10
370.021163
 20
298.4828528471938
 30
0.0
 40
2.55582
100
AcDbArc
 50
325.6159999999998
 51
325.647143
  0
LINE
  5
DB77
330
DA2D
100
AcDbEntity
  8
1
  6
Continuous
100
AcDbLine
 10
368.5771629999999
 20
297.8118528471938
 30
0.0
 11
369.0234549999997
 21
297.0388528471938
 31
0.0
  0
ARC
  5
DB78
330
DA2D
100
AcDbEntity
  8
1
  6
Continuous
100
AcDbCircle
 10
371.133143
 20
298.4818528471937
 30
0.0
 40
2.555979999999999
100
AcDbArc
 50
145.6283629999998
 51
205.6283629999998
  0
ARC
  5
DB79
330
DA2D
100
AcDbEntity
  8
1
  6
Continuous
100
AcDbCircle
 10
371.1331629999999
 20
298.4828528471938
 30
0.0
 40
2.55582
100
AcDbArc
 50
214.3528569999999
 51
214.3839999999999
  0
LINE
  5
DB7A
330
DA2D
100
AcDbEntity
  8
1
  6
Continuous
100
AcDbLine
 10
369.0234549999997
 20
297.0388528471938
 30
0.0
 11
372.130871
 21
297.0388528471938
 31
0.0
  0
LINE
  5
DB7B
330
DA2D
100
AcDbEntity
  8
1
  6
Continuous
100
AcDbLine
 10
369.0234549999997
 20
299.9258528471937
 30
0.0
 11
372.130871
 21
299.9258528471937
 31
0.0
  0
LINE
  5
DB7C
330
DA2D
100
AcDbEntity
  8
1
  6
Continuous
100
AcDbLine
 10
368.5771629999999
 20
296.7163098471938
 30
0.0
 11
367.0771629999999
 21
296.7163098471938
 31
0.0
  0
LINE
  5
DB7D
330
DA2D
100
AcDbEntity
  8
1
  6
Continuous
100
AcDbLine
 10
365.4771629999999
 20
310.8163098471937
 30
0.0
 11
367.0771629999999
 21
310.8163098471937
 31
0.0
  0
LINE
  5
DB7E
330
DA2D
100
AcDbEntity
  8
4
  6
CENTER
100
AcDbLine
 10
377.5771629999999
 20
302.8163098471937
 30
0.0
 11
360.4771629999997
 21
302.8163098471937
 31
0.0
  0
ARC
  5
DB7F
330
DA2D
100
AcDbEntity
  8
1
  6
Continuous
100
AcDbCircle
 10
370.021183
 20
307.1428528471938
 30
0.0
 40
2.555979999999999
100
AcDbArc
 50
325.6283629999999
 51
25.628363
  0
LINE
  5
DB80
330
DA2D
100
AcDbEntity
  8
1
  6
Continuous
100
AcDbLine
 10
372.5771629999999
 20
307.8128528471939
 30
0.0
 11
372.130871
 21
308.5858528471938
 31
0.0
  0
ARC
  5
DB81
330
DA2D
100
AcDbEntity
  8
1
  6
Continuous
100
AcDbCircle
 10
371.133143
 20
307.1428528471938
 30
0.0
 40
2.555979999999999
100
AcDbArc
 50
154.371637
 51
214.371637
  0
LINE
  5
DB82
330
DA2D
100
AcDbEntity
  8
1
  6
Continuous
100
AcDbLine
 10
368.5771629999999
 20
307.8128528471939
 30
0.0
 11
369.0234549999997
 21
308.5858528471938
 31
0.0
  0
LINE
  5
DB83
330
DA2D
100
AcDbEntity
  8
1
  6
Continuous
100
AcDbLine
 10
369.0234549999997
 20
305.6998528471938
 30
0.0
 11
372.130871
 21
305.6998528471938
 31
0.0
  0
LINE
  5
DB84
330
DA2D
100
AcDbEntity
  8
1
  6
Continuous
100
AcDbLine
 10
369.0234549999997
 20
308.5858528471938
 30
0.0
 11
372.130871
 21
308.5858528471938
 31
0.0
  0
LINE
  5
DB85
330
DA2D
100
AcDbEntity
  8
1
  6
Continuous
100
AcDbLine
 10
367.0771629999999
 20
302.8163098471937
 30
0.0
 11
368.5771629999999
 21
304.3163098471937
 31
0.0
  0
LINE
  5
DB86
330
DA2D
100
AcDbEntity
  8
1
  6
Continuous
100
AcDbLine
 10
367.0771629999999
 20
301.3123528471939
 30
0.0
 11
368.5771629999999
 21
302.8123528471939
 31
0.0
  0
LINE
  5
DB87
330
DA2D
100
AcDbEntity
  8
1
  6
Continuous
100
AcDbLine
 10
368.5771629999999
 20
308.9163098471938
 30
0.0
 11
367.0771629999999
 21
308.9163098471938
 31
0.0
  0
LINE
  5
DB88
330
DA2D
100
AcDbEntity
  8
1
  6
Continuous
100
AcDbLine
 10
438.9155469999998
 20
185.9036238471938
 30
0.0
 11
433.9083599999996
 21
274.5354518471939
 31
0.0
  0
LINE
  5
DB89
330
DA2D
100
AcDbEntity
  8
1
  6
Continuous
100
AcDbLine
 10
455.2643780000001
 20
185.9036238471938
 30
0.0
 11
460.2715639999996
 21
274.5354518471939
 31
0.0
  0
LINE
  5
DB8A
330
DA2D
100
AcDbEntity
  8
1
  6
Continuous
100
AcDbLine
 10
440.8315919999998
 20
205.1752988471938
 30
0.0
 11
436.909699
 21
274.5964188471937
 31
0.0
  0
LINE
  5
DB8B
330
DA2D
100
AcDbEntity
  8
1
  6
Continuous
100
AcDbLine
 10
453.348332
 20
205.1752988471938
 30
0.0
 11
457.2702249999998
 21
274.5964188471937
 31
0.0
  0
LINE
  5
DB8C
330
DA2D
100
AcDbEntity
  8
1
  6
Continuous
100
AcDbLine
 10
446.3937999999997
 20
231.8163098471938
 30
0.0
 11
447.968775
 21
231.8163098471938
 31
0.0
  0
LINE
  5
DB8D
330
DA2D
100
AcDbEntity
  8
1
  6
Continuous
100
AcDbLine
 10
439.5525049999998
 20
227.8163098471938
 30
0.0
 11
454.6274189999998
 21
227.8163098471938
 31
0.0
  0
LINE
  5
DB8E
330
DA2D
100
AcDbEntity
  8
1
  6
Continuous
100
AcDbLine
 10
439.891471
 20
221.8163098471938
 30
0.0
 11
454.288453
 21
221.8163098471938
 31
0.0
  0
LINE
  5
DB8F
330
DA2D
100
AcDbEntity
  8
1
  6
Continuous
100
AcDbLine
 10
443.327612
 20
202.8163098471938
 30
0.0
 11
450.8523119999998
 21
202.8163098471938
 31
0.0
  0
ARC
  5
DB90
330
DA2D
100
AcDbEntity
  8
1
  6
Continuous
100
AcDbCircle
 10
447.0899619999998
 20
207.8163098471939
 30
0.0
 40
11.0
100
AcDbArc
 50
255.382014
 51
284.6179859999999
  0
ARC
  5
DB91
330
DA2D
100
AcDbEntity
  8
1
  6
Continuous
100
AcDbCircle
 10
447.0899619999998
 20
207.8163098471939
 30
0.0
 40
25.0
100
AcDbArc
 50
255.382014
 51
284.6179859999999
  0
ARC
  5
DB92
330
DA2D
100
AcDbEntity
  8
1
  6
Continuous
100
AcDbCircle
 10
441.411567
 20
186.0446348471937
 30
0.0
 40
2.5
100
AcDbArc
 50
183.233444
 51
255.382014
  0
ARC
  5
DB93
330
DA2D
100
AcDbEntity
  8
1
  6
Continuous
100
AcDbCircle
 10
443.327612
 20
205.3163098471938
 30
0.0
 40
2.5
100
AcDbArc
 50
183.233444
 51
270.0
  0
LINE
  5
DB94
330
DA2D
100
AcDbEntity
  8
1
  6
Continuous
100
AcDbLine
 10
443.610754
 20
231.8163098471938
 30
0.0
 11
444.080554
 21
231.8163098471938
 31
0.0
  0
ARC
  5
DB95
330
DA2D
100
AcDbEntity
  8
1
  6
Continuous
100
AcDbCircle
 10
444.080554
 20
231.1763098471938
 30
0.0
 40
0.6400000000000004
100
AcDbArc
 50
222.7718659999999
 51
90.0
  0
LINE
  5
DB96
330
DA2D
100
AcDbEntity
  8
1
  6
Continuous
100
AcDbLine
 10
443.610754
 20
231.8163098471938
 30
0.0
 11
443.610754
 21
229.8163098471938
 31
0.0
  0
LINE
  5
DB97
330
DA2D
100
AcDbEntity
  8
1
  6
Continuous
100
AcDbLine
 10
445.035468
 20
230.4215098471938
 30
0.0
 11
446.088968
 21
230.4215098471938
 31
0.0
  0
LINE
  5
DB98
330
DA2D
100
AcDbEntity
  8
1
  6
Continuous
100
AcDbLine
 10
445.570968
 20
231.8180648471937
 30
0.0
 11
446.3108179999998
 21
229.8180598471938
 31
0.0
  0
LINE
  5
DB99
330
DA2D
100
AcDbEntity
  8
1
  6
Continuous
100
AcDbLine
 10
445.570968
 20
231.8145498471938
 30
0.0
 11
444.7956679999998
 21
229.8180598471938
 31
0.0
  0
ARC
  5
DB9A
330
DA2D
100
AcDbEntity
  8
1
  6
Continuous
100
AcDbCircle
 10
452.7683579999998
 20
186.0446348471937
 30
0.0
 40
2.5
100
AcDbArc
 50
284.6179859999999
 51
356.766556
  0
ARC
  5
DB9B
330
DA2D
100
AcDbEntity
  8
1
  6
Continuous
100
AcDbCircle
 10
450.8523119999998
 20
205.3163098471938
 30
0.0
 40
2.5
100
AcDbArc
 50
270.0
 51
356.766556
  0
LINE
  5
DB9C
330
DA2D
100
AcDbEntity
  8
1
  6
Continuous
100
AcDbLine
 10
447.177805
 20
231.8163098471938
 30
0.0
 11
447.177805
 21
229.8163098471938
 31
0.0
  0
CIRCLE
  5
DB9D
330
DA2D
100
AcDbEntity
  8
1
  6
Continuous
100
AcDbCircle
 10
448.9606699999998
 20
229.8563098471938
 30
0.0
 40
0.04
  0
LINE
  5
DB9E
330
DA2D
100
AcDbEntity
  8
1
  6
Continuous
100
AcDbLine
 10
449.6876059999997
 20
231.8163098471938
 30
0.0
 11
449.6876059999997
 21
229.8163098471938
 31
0.0
  0
LINE
  5
DB9F
330
DA2D
100
AcDbEntity
  8
1
  6
Continuous
100
AcDbLine
 10
449.6876059999997
 20
231.8163098471938
 30
0.0
 11
450.1574069999998
 21
231.8163098471938
 31
0.0
  0
ARC
  5
DBA0
330
DA2D
100
AcDbEntity
  8
1
  6
Continuous
100
AcDbCircle
 10
450.1574069999998
 20
231.1763098471938
 30
0.0
 40
0.6400000000000004
100
AcDbArc
 50
222.7718659999999
 51
90.0
  0
LINE
  5
DBA1
330
DA2D
100
AcDbEntity
  8
1
  6
Continuous
100
AcDbLine
 10
445.7364709999998
 20
305.6052278471938
 30
0.0
 11
447.0869969999998
 21
304.3010398471938
 31
0.0
  0
LINE
  5
DBA2
330
DA2D
100
AcDbEntity
  8
1
  6
Continuous
100
AcDbLine
 10
447.0899619999998
 20
308.5893098471938
 30
0.0
 11
442.089962
 21
305.7033098471937
 31
0.0
  0
LINE
  5
DBA3
330
DA2D
100
AcDbEntity
  8
1
  6
Continuous
100
AcDbLine
 10
447.0869969999998
 20
301.3315808471939
 30
0.0
 11
445.7364709999998
 21
300.0273928471937
 31
0.0
  0
LINE
  5
DBA4
330
DA2D
100
AcDbEntity
  8
1
  6
Continuous
100
AcDbLine
 10
442.089962
 20
299.9293098471937
 30
0.0
 11
447.0899619999998
 21
297.0423098471938
 31
0.0
  0
CIRCLE
  5
DBA5
330
DA2D
100
AcDbEntity
  8
1
  6
Continuous
100
AcDbCircle
 10
447.0899619999998
 20
302.8163098471937
 30
0.0
 40
5.0
  0
CIRCLE
  5
DBA6
330
DA2D
100
AcDbEntity
  8
1
  6
Continuous
100
AcDbCircle
 10
447.0899619999998
 20
302.8163098471937
 30
0.0
 40
4.049999999999998
  0
CIRCLE
  5
DBA7
330
DA2D
100
AcDbEntity
  8
1
  6
Continuous
100
AcDbCircle
 10
447.0899619999998
 20
302.8163098471937
 30
0.0
 40
8.0
  0
CIRCLE
  5
DBA8
330
DA2D
100
AcDbEntity
  8
1
  6
Continuous
100
AcDbCircle
 10
447.0899619999998
 20
302.8163098471937
 30
0.0
 40
6.099999999999997
  0
ARC
  5
DBA9
330
DA2D
100
AcDbEntity
  8
1
  6
Continuous
100
AcDbCircle
 10
447.0899619999998
 20
302.8163098471937
 30
0.0
 40
10.25
100
AcDbArc
 50
72.03024599999998
 51
107.9697539999999
  0
LINE
  5
DBAA
330
DA2D
100
AcDbEntity
  8
1
  6
Continuous
100
AcDbLine
 10
452.1828489999998
 20
312.5663098471938
 30
0.0
 11
441.997075
 21
312.5663098471938
 31
0.0
  0
ARC
  5
DBAB
330
DA2D
100
AcDbEntity
  8
2
  6
Continuous
100
AcDbCircle
 10
447.0899619999998
 20
302.8163098471937
 30
0.0
 40
11.0
100
AcDbArc
 50
62.419801
 51
117.5801989999998
  0
ARC
  5
DBAC
330
DA2D
100
AcDbEntity
  8
1
  6
Continuous
100
AcDbCircle
 10
447.0899619999998
 20
282.8163098471938
 30
0.0
 40
4.0
100
AcDbArc
 50
152.571893
 51
27.428107
  0
ARC
  5
DBAD
330
DA2D
100
AcDbEntity
  8
1
  6
Continuous
100
AcDbCircle
 10
447.0899619999998
 20
282.8163098471938
 30
0.0
 40
4.25
100
AcDbArc
 50
152.4205119999997
 51
27.579488
  0
ARC
  5
DBAE
330
DA2D
100
AcDbEntity
  8
1
  6
Continuous
100
AcDbCircle
 10
447.0899619999998
 20
302.8163098471937
 30
0.0
 40
10.25
100
AcDbArc
 50
252.0302459999999
 51
287.969754
  0
LINE
  5
DBAF
330
DA2D
100
AcDbEntity
  8
1
  6
Continuous
100
AcDbLine
 10
452.1828489999998
 20
293.0663098471938
 30
0.0
 11
441.997075
 21
293.0663098471938
 31
0.0
  0
ARC
  5
DBB0
330
DA2D
100
AcDbEntity
  8
2
  6
Continuous
100
AcDbCircle
 10
447.0899619999998
 20
302.8163098471937
 30
0.0
 40
11.0
100
AcDbArc
 50
242.419801
 51
297.5801989999999
  0
LINE
  5
DBB1
330
DA2D
100
AcDbEntity
  8
4
  6
CENTER
100
AcDbLine
 10
453.659483
 20
282.8163098471938
 30
0.0
 11
441.589962
 21
282.8163098471938
 31
0.0
  0
CIRCLE
  5
DBB2
330
DA2D
100
AcDbEntity
  8
1
  6
Continuous
100
AcDbCircle
 10
447.0899619999998
 20
302.8163098471937
 30
0.0
 40
11.5
  0
ARC
  5
DBB3
330
DA2D
100
AcDbEntity
  8
1
  6
Continuous
100
AcDbCircle
 10
452.3621230000001
 20
257.2139438471936
 30
0.0
 40
5.732929999999998
100
AcDbArc
 50
144.462
 51
215.5379999999999
  0
LINE
  5
DBB4
330
DA2D
100
AcDbEntity
  8
4
  6
CENTER
100
AcDbLine
 10
482.089962
 20
302.8163098471937
 30
0.0
 11
412.089962
 21
302.8163098471937
 31
0.0
  0
LINE
  5
DBB5
330
DA2D
100
AcDbEntity
  8
1
  6
Continuous
100
AcDbLine
 10
429.589962
 20
292.7126798471937
 30
0.0
 11
447.0899619999998
 21
282.6090508471938
 31
0.0
  0
CIRCLE
  5
DBB6
330
DA2D
100
AcDbEntity
  8
1
  6
Continuous
100
AcDbCircle
 10
447.0899619999998
 20
302.8163098471937
 30
0.0
 40
16.0
  0
CIRCLE
  5
DBB7
330
DA2D
100
AcDbEntity
  8
1
  6
Continuous
100
AcDbCircle
 10
447.0899619999998
 20
302.8163098471937
 30
0.0
 40
17.5
  0
LINE
  5
DBB8
330
DA2D
100
AcDbEntity
  8
1
  6
Continuous
100
AcDbLine
 10
445.8821679999998
 20
234.9438171290178
 30
0.0
 11
446.4648429999998
 21
234.3908951290178
 31
0.0
  0
LINE
  5
DBB9
330
DA2D
100
AcDbEntity
  8
1
  6
Continuous
100
AcDbLine
 10
446.4648429999998
 20
234.3908951290178
 30
0.0
 11
444.4648429999999
 21
234.3908951290178
 31
0.0
  0
LINE
  5
DBBA
330
DA2D
100
AcDbEntity
  8
1
  6
Continuous
100
AcDbLine
 10
445.4648429999998
 20
235.9912751290177
 30
0.0
 11
445.4648429999998
 21
235.3647251290179
 31
0.0
  0
LINE
  5
DBBB
330
DA2D
100
AcDbEntity
  8
1
  6
Continuous
100
AcDbLine
 10
445.8527429999998
 20
239.9802038471938
 30
0.0
 11
445.076943
 21
239.9802038471938
 31
0.0
  0
ARC
  5
DBBC
330
DA2D
100
AcDbEntity
  8
1
  6
Continuous
100
AcDbCircle
 10
445.8527429999998
 20
239.3538538471937
 30
0.0
 40
0.62634
100
AcDbArc
 50
45.92799999999999
 51
90.0
  0
ARC
  5
DBBD
330
DA2D
100
AcDbEntity
  8
1
  6
Continuous
100
AcDbCircle
 10
445.8855029999998
 20
239.3877038471937
 30
0.0
 40
0.57924
100
AcDbArc
 50
314.0724999999998
 51
45.92799999999999
  0
ARC
  5
DBBE
330
DA2D
100
AcDbEntity
  8
1
  6
Continuous
100
AcDbCircle
 10
445.076943
 20
239.3538538471937
 30
0.0
 40
0.62634
100
AcDbArc
 50
90.0
 51
134.072
  0
ARC
  5
DBBF
330
DA2D
100
AcDbEntity
  8
1
  6
Continuous
100
AcDbCircle
 10
445.0441829999999
 20
239.3877038471937
 30
0.0
 40
0.57924
100
AcDbArc
 50
134.072
 51
225.9269999999999
  0
LINE
  5
DBC0
330
DA2D
100
AcDbEntity
  8
1
  6
Continuous
100
AcDbLine
 10
445.8527429999998
 20
238.7952038471938
 30
0.0
 11
445.076943
 21
238.7952038471938
 31
0.0
  0
ARC
  5
DBC1
330
DA2D
100
AcDbEntity
  8
1
  6
Continuous
100
AcDbCircle
 10
445.8527429999998
 20
239.4215538471939
 30
0.0
 40
0.62634
100
AcDbArc
 50
270.0
 51
314.0724999999998
  0
ARC
  5
DBC2
330
DA2D
100
AcDbEntity
  8
1
  6
Continuous
100
AcDbCircle
 10
445.076943
 20
239.4215538471939
 30
0.0
 40
0.62634
100
AcDbArc
 50
225.9269999999999
 51
270.0
  0
ARC
  5
DBC3
330
DA2D
100
AcDbEntity
  8
1
  6
Continuous
100
AcDbCircle
 10
445.0148429999998
 20
241.3575498471938
 30
0.0
 40
0.5225300000000001
100
AcDbArc
 50
103.0139999999999
 51
137.1299999999999
  0
ARC
  5
DBC4
330
DA2D
100
AcDbEntity
  8
1
  6
Continuous
100
AcDbCircle
 10
445.0148429999998
 20
241.2176098471937
 30
0.0
 40
0.5225300000000001
100
AcDbArc
 50
222.8699999999999
 51
317.1304
  0
ARC
  5
DBC5
330
DA2D
100
AcDbEntity
  8
1
  6
Continuous
100
AcDbCircle
 10
444.939466
 20
241.2875798471937
 30
0.0
 40
0.6253750000000001
100
AcDbArc
 50
317.1304
 51
327.1503
  0
ARC
  5
DBC6
330
DA2D
100
AcDbEntity
  8
1
  6
Continuous
100
AcDbCircle
 10
445.0902179999998
 20
241.2875798471937
 30
0.0
 40
0.6253750000000001
100
AcDbArc
 50
137.1299999999999
 51
222.8699999999999
  0
ARC
  5
DBC7
330
DA2D
100
AcDbEntity
  8
1
  6
Continuous
100
AcDbCircle
 10
445.9148429999998
 20
241.3575498471938
 30
0.0
 40
0.5225300000000001
100
AcDbArc
 50
42.86999999999999
 51
108.2079999999999
  0
ARC
  5
DBC8
330
DA2D
100
AcDbEntity
  8
1
  6
Continuous
100
AcDbCircle
 10
445.9148429999998
 20
241.2176098471937
 30
0.0
 40
0.5225300000000001
100
AcDbArc
 50
222.8699999999999
 51
317.1304
  0
ARC
  5
DBC9
330
DA2D
100
AcDbEntity
  8
1
  6
Continuous
100
AcDbCircle
 10
445.8394679999996
 20
241.2875798471937
 30
0.0
 40
0.6253750000000001
100
AcDbArc
 50
317.1304
 51
42.86999999999999
  0
ARC
  5
DBCA
330
DA2D
100
AcDbEntity
  8
1
  6
Continuous
100
AcDbCircle
 10
445.9902179999998
 20
241.2875798471937
 30
0.0
 40
0.6253750000000001
100
AcDbArc
 50
212.8499999999999
 51
222.8699999999999
  0
LINE
  5
DBCB
330
DA2D
100
AcDbEntity
  8
1
  6
Continuous
100
AcDbLine
 10
445.4648429999998
 20
241.2410598471938
 30
0.0
 11
445.4648429999998
 21
240.9483498471938
 31
0.0
  0
LINE
  5
DBCC
330
DA2D
100
AcDbEntity
  8
1
  6
Continuous
100
AcDbLine
 10
445.4648429999998
 20
243.0900318471937
 30
0.0
 11
445.4648429999998
 21
242.7973218471937
 31
0.0
  0
ARC
  5
DBCD
330
DA2D
100
AcDbEntity
  8
1
  6
Continuous
100
AcDbCircle
 10
445.9902179999998
 20
243.1365518471938
 30
0.0
 40
0.6253750000000001
100
AcDbArc
 50
212.8499999999999
 51
222.8699999999999
  0
ARC
  5
DBCE
330
DA2D
100
AcDbEntity
  8
1
  6
Continuous
100
AcDbCircle
 10
445.8394679999996
 20
243.1365518471938
 30
0.0
 40
0.6253750000000001
100
AcDbArc
 50
317.1304
 51
42.86999999999999
  0
ARC
  5
DBCF
330
DA2D
100
AcDbEntity
  8
1
  6
Continuous
100
AcDbCircle
 10
445.9148429999998
 20
243.0665818471938
 30
0.0
 40
0.5225300000000001
100
AcDbArc
 50
222.8699999999999
 51
317.1304
  0
ARC
  5
DBD0
330
DA2D
100
AcDbEntity
  8
1
  6
Continuous
100
AcDbCircle
 10
445.9148429999998
 20
243.2065218471937
 30
0.0
 40
0.5225300000000001
100
AcDbArc
 50
42.86999999999999
 51
108.2079999999999
  0
ARC
  5
DBD1
330
DA2D
100
AcDbEntity
  8
1
  6
Continuous
100
AcDbCircle
 10
445.0902179999998
 20
243.1365518471938
 30
0.0
 40
0.6253750000000001
100
AcDbArc
 50
137.1299999999999
 51
222.8699999999999
  0
ARC
  5
DBD2
330
DA2D
100
AcDbEntity
  8
1
  6
Continuous
100
AcDbCircle
 10
444.939466
 20
243.1365518471938
 30
0.0
 40
0.6253750000000001
100
AcDbArc
 50
317.1304
 51
327.1503
  0
ARC
  5
DBD3
330
DA2D
100
AcDbEntity
  8
1
  6
Continuous
100
AcDbCircle
 10
445.0148429999998
 20
243.0665818471938
 30
0.0
 40
0.5225300000000001
100
AcDbArc
 50
222.8699999999999
 51
317.1304
  0
ARC
  5
DBD4
330
DA2D
100
AcDbEntity
  8
1
  6
Continuous
100
AcDbCircle
 10
445.0148429999998
 20
243.2065218471937
 30
0.0
 40
0.5225300000000001
100
AcDbArc
 50
103.0139999999999
 51
137.1299999999999
  0
LINE
  5
DBD5
330
DA2D
100
AcDbEntity
  8
1
  6
Continuous
100
AcDbLine
 10
446.4797980000001
 20
249.7630318471938
 30
0.0
 11
444.479793
 21
249.7630318471938
 31
0.0
  0
LINE
  5
DBD6
330
DA2D
100
AcDbEntity
  8
1
  6
Continuous
100
AcDbLine
 10
446.4648429999998
 20
251.1365468471938
 30
0.0
 11
444.4648429999999
 21
251.1365468471938
 31
0.0
  0
LINE
  5
DBD7
330
DA2D
100
AcDbEntity
  8
1
  6
Continuous
100
AcDbLine
 10
446.4648429999998
 20
251.9205518471938
 30
0.0
 11
446.4648429999998
 21
250.3455768471937
 31
0.0
  0
LINE
  5
DBD8
330
DA2D
100
AcDbEntity
  8
1
  6
Continuous
100
AcDbLine
 10
446.4630829999999
 20
247.1365518471936
 30
0.0
 11
444.466593
 21
247.9118518471938
 31
0.0
  0
LINE
  5
DBD9
330
DA2D
100
AcDbEntity
  8
1
  6
Continuous
100
AcDbLine
 10
446.4797980000001
 20
248.5100518471937
 30
0.0
 11
444.479793
 21
248.5100518471937
 31
0.0
  0
LINE
  5
DBDA
330
DA2D
100
AcDbEntity
  8
1
  6
Continuous
100
AcDbLine
 10
446.4665979999998
 20
247.1365518471936
 30
0.0
 11
444.466593
 21
246.3967018471937
 31
0.0
  0
LINE
  5
DBDB
330
DA2D
100
AcDbEntity
  8
1
  6
Continuous
100
AcDbLine
 10
445.0700429999998
 20
247.6720518471937
 30
0.0
 11
445.0700429999998
 21
246.6185518471939
 31
0.0
  0
LINE
  5
DBDC
330
DA2D
100
AcDbEntity
  8
1
  6
Continuous
100
AcDbLine
 10
445.4648429999998
 20
245.4498018471937
 30
0.0
 11
445.4648429999998
 21
244.8232518471939
 31
0.0
  0
LINE
  5
DBDD
330
DA2D
100
AcDbEntity
  8
1
  6
Continuous
100
AcDbLine
 10
445.4648429999998
 20
249.7630318471938
 30
0.0
 11
445.4648429999998
 21
248.5100518471937
 31
0.0
  0
ARC
  5
DBDE
330
DA2D
100
AcDbEntity
  8
1
  6
Continuous
100
AcDbCircle
 10
633.589962
 20
285.8163098471937
 30
0.0
 40
200.0
100
AcDbArc
 50
182.841123
 51
183.233444
  0
ARC
  5
DBDF
330
DA2D
100
AcDbEntity
  8
1
  6
Continuous
100
AcDbCircle
 10
447.0899619999998
 20
302.8163098471937
 30
0.0
 40
3.1
100
AcDbArc
 50
205.887785
 51
244.112215
  0
LINE
  5
DBE0
330
DA2D
100
AcDbEntity
  8
1
  6
Continuous
100
AcDbLine
 10
442.089962
 20
299.9293098471937
 30
0.0
 11
442.089962
 21
305.7033098471937
 31
0.0
  0
ARC
  5
DBE1
330
DA2D
100
AcDbEntity
  8
2
  6
Continuous
100
AcDbCircle
 10
447.0899619999998
 20
302.8163098471937
 30
0.0
 40
10.18799999999999
100
AcDbArc
 50
106.8615909999999
 51
253.1384089999999
  0
LINE
  5
DBE2
330
DA2D
100
AcDbEntity
  8
1
  6
Continuous
100
AcDbLine
 10
429.589962
 20
312.9199398471937
 30
0.0
 11
429.589962
 21
292.7126798471937
 31
0.0
  0
ARC
  5
DBE3
330
DA2D
100
AcDbEntity
  8
1
  6
Continuous
100
AcDbCircle
 10
447.0899619999998
 20
302.8163098471937
 30
0.0
 40
11.0
100
AcDbArc
 50
117.5801989999998
 51
242.419801
  0
ARC
  5
DBE4
330
DA2D
100
AcDbEntity
  8
1
  6
Continuous
100
AcDbCircle
 10
447.0899619999998
 20
302.8163098471937
 30
0.0
 40
3.1
100
AcDbArc
 50
115.8877849999998
 51
154.1122149999999
  0
LINE
  5
DBE5
330
DA2D
100
AcDbEntity
  8
1
  6
Continuous
100
AcDbLine
 10
445.606138
 20
302.8163098471937
 30
0.0
 11
445.6052320000002
 21
302.8133458471937
 31
0.0
  0
LINE
  5
DBE6
330
DA2D
100
AcDbEntity
  8
1
  6
Continuous
100
AcDbLine
 10
445.606138
 20
302.8163098471937
 30
0.0
 11
445.6052320000002
 21
302.8192748471935
 31
0.0
  0
LINE
  5
DBE7
330
DA2D
100
AcDbEntity
  8
1
  6
Continuous
100
AcDbLine
 10
445.6052320000002
 20
302.8133458471937
 30
0.0
 11
444.3010440000001
 21
301.4628188471937
 31
0.0
  0
LINE
  5
DBE8
330
DA2D
100
AcDbEntity
  8
1
  6
Continuous
100
AcDbLine
 10
444.3010440000001
 20
304.1698008471937
 30
0.0
 11
445.6052320000002
 21
302.8192748471935
 31
0.0
  0
ARC
  5
DBE9
330
DA2D
100
AcDbEntity
  8
1
  6
Continuous
100
AcDbCircle
 10
450.0921449999998
 20
256.5020948471937
 30
0.0
 40
0.044452
100
AcDbArc
 50
352.2069999999998
 51
90.0
  0
ARC
  5
DBEA
330
DA2D
100
AcDbEntity
  8
1
  6
Continuous
100
AcDbCircle
 10
447.1662549999998
 20
256.5020948471937
 30
0.0
 40
0.044452
100
AcDbArc
 50
90.0
 51
187.793
  0
ARC
  5
DBEB
330
DA2D
100
AcDbEntity
  8
1
  6
Continuous
100
AcDbCircle
 10
444.8962769999998
 20
257.2139438471936
 30
0.0
 40
5.732929999999998
100
AcDbArc
 50
324.4619999999998
 51
35.5377
  0
LINE
  5
DBEC
330
DA2D
100
AcDbEntity
  8
1
  6
Continuous
100
AcDbLine
 10
448.6296509999998
 20
256.1024128471938
 30
0.0
 11
448.6296509999998
 21
256.3243588471937
 31
0.0
  0
ARC
  5
DBED
330
DA2D
100
AcDbEntity
  8
1
  6
Continuous
100
AcDbCircle
 10
449.8837329999998
 20
256.3243588471937
 30
0.0
 40
0.222261
100
AcDbArc
 50
270.0
 51
349.8959999999998
  0
ARC
  5
DBEE
330
DA2D
100
AcDbEntity
  8
1
  6
Continuous
100
AcDbCircle
 10
447.3746669999998
 20
256.3243588471937
 30
0.0
 40
0.222261
100
AcDbArc
 50
190.1039999999999
 51
270.0
  0
ARC
  5
DBEF
330
DA2D
100
AcDbEntity
  8
1
  6
Continuous
100
AcDbCircle
 10
444.8962769999998
 20
257.2139438471936
 30
0.0
 40
5.288524999999999
100
AcDbArc
 50
349.8959999999998
 51
352.2069999999998
  0
ARC
  5
DBF0
330
DA2D
100
AcDbEntity
  8
1
  6
Continuous
100
AcDbCircle
 10
452.3621230000001
 20
257.2139438471936
 30
0.0
 40
5.288524999999999
100
AcDbArc
 50
187.793
 51
190.1039999999999
  0
LINE
  5
DBF1
330
DA2D
100
AcDbEntity
  8
1
  6
Continuous
100
AcDbLine
 10
450.0921449999998
 20
256.5472058471939
 30
0.0
 11
447.1662549999998
 21
256.5472058471939
 31
0.0
  0
LINE
  5
DBF2
330
DA2D
100
AcDbEntity
  8
1
  6
Continuous
100
AcDbLine
 10
449.162861
 20
256.1024128471938
 30
0.0
 11
449.8837329999998
 21
256.1024128471938
 31
0.0
  0
LINE
  5
DBF3
330
DA2D
100
AcDbEntity
  8
1
  6
Continuous
100
AcDbLine
 10
449.8810259999998
 20
255.2137288471937
 30
0.0
 11
448.8515969999999
 21
255.2137288471937
 31
0.0
  0
LINE
  5
DBF4
330
DA2D
100
AcDbEntity
  8
1
  6
Continuous
100
AcDbLine
 10
448.6296509999998
 20
254.9917838471936
 30
0.0
 11
447.5632309999999
 21
254.9917838471936
 31
0.0
  0
LINE
  5
DBF5
330
DA2D
100
AcDbEntity
  8
1
  6
Continuous
100
AcDbLine
 10
447.3746669999998
 20
256.1024128471938
 30
0.0
 11
448.6296509999998
 21
256.1024128471938
 31
0.0
  0
LINE
  5
DBF6
330
DA2D
100
AcDbEntity
  8
1
  6
Continuous
100
AcDbLine
 10
450.0903410000001
 20
255.6585218471937
 30
0.0
 11
447.307903
 21
255.6585218471937
 31
0.0
  0
ARC
  5
DBF7
330
DA2D
100
AcDbEntity
  8
1
  6
Continuous
100
AcDbCircle
 10
448.9218629999998
 20
249.3621768471937
 30
0.0
 40
0.76574
100
AcDbArc
 50
311.0679
 51
48.932
  0
ARC
  5
DBF8
330
DA2D
100
AcDbEntity
  8
1
  6
Continuous
100
AcDbCircle
 10
448.5253429999998
 20
249.3621768471937
 30
0.0
 40
0.76574
100
AcDbArc
 50
131.0679999999997
 51
228.932
  0
ARC
  5
DBF9
330
DA2D
100
AcDbEntity
  8
1
  6
Continuous
100
AcDbCircle
 10
448.723603
 20
249.5897068471937
 30
0.0
 40
1.067529999999997
100
AcDbArc
 50
228.932
 51
311.0679
  0
ARC
  5
DBFA
330
DA2D
100
AcDbEntity
  8
1
  6
Continuous
100
AcDbCircle
 10
448.723603
 20
249.1346518471938
 30
0.0
 40
1.067529999999997
100
AcDbArc
 50
48.932
 51
131.0679999999997
  0
ARC
  5
DBFB
330
DA2D
100
AcDbEntity
  8
1
  6
Continuous
100
AcDbCircle
 10
448.454203
 20
242.2098518471938
 30
0.0
 40
0.72
100
AcDbArc
 50
179.5819999999999
 51
281.6541
  0
ARC
  5
DBFC
330
DA2D
100
AcDbEntity
  8
1
  6
Continuous
100
AcDbCircle
 10
448.499638
 20
242.2151018471938
 30
0.0
 40
0.76574
100
AcDbArc
 50
131.0679999999997
 51
186.5909999999999
  0
ARC
  5
DBFD
330
DA2D
100
AcDbEntity
  8
1
  6
Continuous
100
AcDbCircle
 10
448.6979029999998
 20
241.9876018471938
 30
0.0
 40
1.067529999999997
100
AcDbArc
 50
48.932
 51
131.0679999999997
  0
ARC
  5
DBFE
330
DA2D
100
AcDbEntity
  8
1
  6
Continuous
100
AcDbCircle
 10
448.896163
 20
242.2151018471938
 30
0.0
 40
0.76574
100
AcDbArc
 50
340.8072
 51
48.932
  0
ARC
  5
DBFF
330
DA2D
100
AcDbEntity
  8
1
  6
Continuous
100
AcDbCircle
 10
449.1347179999998
 20
242.1320518471938
 30
0.0
 40
0.513145
100
AcDbArc
 50
275.65924
 51
340.8072
  0
ARC
  5
DC00
330
DA2D
100
AcDbEntity
  8
1
  6
Continuous
100
AcDbCircle
 10
448.2973879999998
 20
247.1805018471937
 30
0.0
 40
0.513145
100
AcDbArc
 50
199.193
 51
264.341
  0
ARC
  5
DC01
330
DA2D
100
AcDbEntity
  8
1
  6
Continuous
100
AcDbCircle
 10
449.1710179999999
 20
247.1805018471937
 30
0.0
 40
0.513145
100
AcDbArc
 50
275.65924
 51
340.8072
  0
ARC
  5
DC02
330
DA2D
100
AcDbEntity
  8
1
  6
Continuous
100
AcDbCircle
 10
448.9324629999998
 20
247.2635518471938
 30
0.0
 40
0.76574
100
AcDbArc
 50
340.8072
 51
48.932
  0
ARC
  5
DC03
330
DA2D
100
AcDbEntity
  8
1
  6
Continuous
100
AcDbCircle
 10
448.5359429999999
 20
247.2635518471938
 30
0.0
 40
0.76574
100
AcDbArc
 50
131.0679999999997
 51
199.193
  0
ARC
  5
DC04
330
DA2D
100
AcDbEntity
  8
1
  6
Continuous
100
AcDbCircle
 10
448.7342029999998
 20
247.0360018471936
 30
0.0
 40
1.067529999999997
100
AcDbArc
 50
48.932
 51
131.0679999999997
  0
LINE
  5
DC05
330
DA2D
100
AcDbEntity
  8
1
  6
Continuous
100
AcDbLine
 10
448.5959629999999
 20
239.5264518471938
 30
0.0
 11
449.7664429999998
 21
240.2001518471938
 31
0.0
  0
LINE
  5
DC06
330
DA2D
100
AcDbEntity
  8
1
  6
Continuous
100
AcDbLine
 10
448.5923529999998
 20
239.5264518471938
 30
0.0
 11
449.767703
 21
238.8478518471938
 31
0.0
  0
LINE
  5
DC07
330
DA2D
100
AcDbEntity
  8
1
  6
Continuous
100
AcDbLine
 10
449.7518079999998
 20
240.9250018471938
 30
0.0
 11
447.6503679999998
 21
240.9250018471938
 31
0.0
  0
LINE
  5
DC08
330
DA2D
100
AcDbEntity
  8
1
  6
Continuous
100
AcDbLine
 10
448.3015729999998
 20
241.5047018471938
 30
0.0
 11
447.664843
 21
241.5047018471938
 31
0.0
  0
LINE
  5
DC09
330
DA2D
100
AcDbEntity
  8
1
  6
Continuous
100
AcDbLine
 10
448.5923579999997
 20
239.5264518471938
 30
0.0
 11
447.6503679999998
 21
239.5264518471938
 31
0.0
  0
LINE
  5
DC0A
330
DA2D
100
AcDbEntity
  8
1
  6
Continuous
100
AcDbLine
 10
449.7010879999998
 20
237.6605518471937
 30
0.0
 11
447.6575679999998
 21
238.4540018471937
 31
0.0
  0
LINE
  5
DC0B
330
DA2D
100
AcDbEntity
  8
1
  6
Continuous
100
AcDbLine
 10
449.7518079999998
 20
243.8452518471939
 30
0.0
 11
447.6503679999998
 21
243.8452518471939
 31
0.0
  0
LINE
  5
DC0C
330
DA2D
100
AcDbEntity
  8
1
  6
Continuous
100
AcDbLine
 10
449.7518079999998
 20
244.5482518471937
 30
0.0
 11
447.6503679999998
 21
244.5482518471937
 31
0.0
  0
LINE
  5
DC0D
330
DA2D
100
AcDbEntity
  8
1
  6
Continuous
100
AcDbLine
 10
448.5996480000001
 20
242.2076018471938
 30
0.0
 11
448.5996480000001
 21
241.5047018471938
 31
0.0
  0
LINE
  5
DC0E
330
DA2D
100
AcDbEntity
  8
1
  6
Continuous
100
AcDbLine
 10
449.7518079999998
 20
245.8452518471939
 30
0.0
 11
447.6503679999998
 21
245.8452518471939
 31
0.0
  0
LINE
  5
DC0F
330
DA2D
100
AcDbEntity
  8
1
  6
Continuous
100
AcDbLine
 10
449.6648429999998
 20
252.1641568471938
 30
0.0
 11
449.6648429999998
 21
250.5337368471939
 31
0.0
  0
LINE
  5
DC10
330
DA2D
100
AcDbEntity
  8
1
  6
Continuous
100
AcDbLine
 10
449.6648429999998
 20
251.3525368471937
 30
0.0
 11
447.664843
 21
251.3525368471937
 31
0.0
  0
LINE
  5
DC11
330
DA2D
100
AcDbEntity
  8
1
  6
Continuous
100
AcDbLine
 10
448.7010879999997
 20
245.8452518471939
 30
0.0
 11
448.7010879999997
 21
244.5482518471937
 31
0.0
  0
LINE
  5
DC12
330
DA2D
100
AcDbEntity
  8
1
  6
Continuous
100
AcDbLine
 10
449.7046829999998
 20
237.6605518471937
 30
0.0
 11
447.657563
 21
236.9032518471937
 31
0.0
  0
LINE
  5
DC13
330
DA2D
100
AcDbEntity
  8
1
  6
Continuous
100
AcDbLine
 10
448.258998
 20
238.2148518471938
 30
0.0
 11
448.258998
 21
237.1243018471937
 31
0.0
  0
LINE
  5
DC14
330
DA2D
100
AcDbEntity
  8
1
  6
Continuous
100
AcDbLine
 10
448.8515969999999
 20
254.7689358471937
 30
0.0
 11
449.800729
 21
254.7689358471937
 31
0.0
  0
LINE
  5
DC15
330
DA2D
100
AcDbEntity
  8
1
  6
Continuous
100
AcDbLine
 10
447.7978069999998
 20
254.5433818471938
 30
0.0
 11
449.6708099999998
 21
254.0408468471937
 31
0.0
  0
LINE
  5
DC16
330
DA2D
100
AcDbEntity
  8
1
  6
Continuous
100
AcDbLine
 10
448.6296509999998
 20
253.4020778471938
 30
0.0
 11
448.6296509999998
 21
254.3205348471938
 31
0.0
  0
ARC
  5
DC17
330
DA2D
100
AcDbEntity
  8
1
  6
Continuous
100
AcDbCircle
 10
448.6296509999998
 20
254.5469908471936
 30
0.0
 40
1.145318999999998
100
AcDbArc
 50
242.2499999999998
 51
324.4619999999998
  0
ARC
  5
DC18
330
DA2D
100
AcDbEntity
  8
1
  6
Continuous
100
AcDbCircle
 10
448.6296509999998
 20
254.5469908471936
 30
0.0
 40
1.145318999999998
100
AcDbArc
 50
215.5379999999999
 51
225.699
  0
ARC
  5
DC19
330
DA2D
100
AcDbEntity
  8
1
  6
Continuous
100
AcDbCircle
 10
448.8515969999999
 20
254.9917838471936
 30
0.0
 40
0.222261
100
AcDbArc
 50
90.0
 51
270.0
  0
ARC
  5
DC1A
330
DA2D
100
AcDbEntity
  8
1
  6
Continuous
100
AcDbCircle
 10
260.589962
 20
285.8163098471937
 30
0.0
 40
200.0
100
AcDbArc
 50
356.766556
 51
357.158877
  0
LINE
  5
DC1B
330
DA2D
100
AcDbEntity
  8
1
  6
Continuous
100
AcDbLine
 10
449.8485459999998
 20
260.1019408471937
 30
0.0
 11
447.932237
 21
260.1019408471937
 31
0.0
  0
LINE
  5
DC1C
330
DA2D
100
AcDbEntity
  8
1
  6
Continuous
100
AcDbLine
 10
447.809536
 20
259.6580498471938
 30
0.0
 11
449.4488639999996
 21
259.6580498471938
 31
0.0
  0
LINE
  5
DC1D
330
DA2D
100
AcDbEntity
  8
1
  6
Continuous
100
AcDbLine
 10
449.7258449999998
 20
259.2132568471938
 30
0.0
 11
447.533458
 21
259.2132568471938
 31
0.0
  0
LINE
  5
DC1E
330
DA2D
100
AcDbEntity
  8
1
  6
Continuous
100
AcDbLine
 10
449.162861
 20
258.3245738471938
 30
0.0
 11
450.010945
 21
258.3245738471938
 31
0.0
  0
LINE
  5
DC1F
330
DA2D
100
AcDbEntity
  8
1
  6
Continuous
100
AcDbLine
 10
448.6296509999998
 20
257.4358898471936
 30
0.0
 11
448.6296509999998
 21
257.8797808471938
 31
0.0
  0
ARC
  5
DC20
330
DA2D
100
AcDbEntity
  8
1
  6
Continuous
100
AcDbCircle
 10
448.6296509999998
 20
259.8799958471938
 30
0.0
 40
1.145318999999998
100
AcDbArc
 50
35.5377
 51
76.5374
  0
ARC
  5
DC21
330
DA2D
100
AcDbEntity
  8
1
  6
Continuous
100
AcDbCircle
 10
448.6296509999998
 20
259.8799958471938
 30
0.0
 40
1.145318999999998
100
AcDbArc
 50
90.0
 51
144.462
  0
ARC
  5
DC22
330
DA2D
100
AcDbEntity
  8
1
  6
Continuous
100
AcDbCircle
 10
449.4488639999996
 20
259.4352028471937
 30
0.0
 40
0.222261
100
AcDbArc
 50
26.0144
 51
90.0
  0
ARC
  5
DC23
330
DA2D
100
AcDbEntity
  8
1
  6
Continuous
100
AcDbCircle
 10
444.8962769999998
 20
257.2139438471936
 30
0.0
 40
5.288524999999999
100
AcDbArc
 50
22.94399999999999
 51
26.0144
  0
ARC
  5
DC24
330
DA2D
100
AcDbEntity
  8
1
  6
Continuous
100
AcDbCircle
 10
449.7258449999998
 20
259.2574658471938
 30
0.0
 40
0.044452
100
AcDbArc
 50
270.0
 51
22.94399999999999
  0
ARC
  5
DC25
330
DA2D
100
AcDbEntity
  8
1
  6
Continuous
100
AcDbCircle
 10
447.809536
 20
259.4352028471937
 30
0.0
 40
0.222261
100
AcDbArc
 50
90.0
 51
153.986
  0
ARC
  5
DC26
330
DA2D
100
AcDbEntity
  8
1
  6
Continuous
100
AcDbCircle
 10
450.010945
 20
258.3687818471938
 30
0.0
 40
0.044452
100
AcDbArc
 50
270.0
 51
12.7289
  0
ARC
  5
DC27
330
DA2D
100
AcDbEntity
  8
1
  6
Continuous
100
AcDbCircle
 10
444.8962769999998
 20
257.2139438471936
 30
0.0
 40
5.288524999999999
100
AcDbArc
 50
12.7289
 51
13.2681
  0
ARC
  5
DC28
330
DA2D
100
AcDbEntity
  8
1
  6
Continuous
100
AcDbCircle
 10
444.8962769999998
 20
257.2139438471936
 30
0.0
 40
5.288524999999999
100
AcDbArc
 50
13.2681
 51
15.2575
  0
ARC
  5
DC29
330
DA2D
100
AcDbEntity
  8
1
  6
Continuous
100
AcDbCircle
 10
449.783587
 20
258.5465188471938
 30
0.0
 40
0.222261
100
AcDbArc
 50
15.2575
 51
90.0
  0
ARC
  5
DC2A
330
DA2D
100
AcDbEntity
  8
1
  6
Continuous
100
AcDbCircle
 10
447.474813
 20
258.5465188471938
 30
0.0
 40
0.222261
100
AcDbArc
 50
90.0
 51
164.7419999999998
  0
ARC
  5
DC2B
330
DA2D
100
AcDbEntity
  8
1
  6
Continuous
100
AcDbCircle
 10
452.3621230000001
 20
257.2139438471936
 30
0.0
 40
5.288524999999999
100
AcDbArc
 50
164.7419999999998
 51
164.794
  0
ARC
  5
DC2C
330
DA2D
100
AcDbEntity
  8
1
  6
Continuous
100
AcDbCircle
 10
452.3621230000001
 20
257.2139438471936
 30
0.0
 40
5.288524999999999
100
AcDbArc
 50
164.794
 51
167.2709999999999
  0
ARC
  5
DC2D
330
DA2D
100
AcDbEntity
  8
1
  6
Continuous
100
AcDbCircle
 10
447.2474549999998
 20
258.3687818471938
 30
0.0
 40
0.044452
100
AcDbArc
 50
167.2709999999999
 51
270.0
  0
LINE
  5
DC2E
330
DA2D
100
AcDbEntity
  8
1
  6
Continuous
100
AcDbLine
 10
449.783587
 20
258.7693668471938
 30
0.0
 11
447.474813
 21
258.7693668471938
 31
0.0
  0
LINE
  5
DC2F
330
DA2D
100
AcDbEntity
  8
1
  6
Continuous
100
AcDbLine
 10
447.2474549999998
 20
258.3245738471938
 30
0.0
 11
448.096441
 21
258.3245738471938
 31
0.0
  0
LINE
  5
DC30
330
DA2D
100
AcDbEntity
  8
1
  6
Continuous
100
AcDbLine
 10
450.142669
 20
257.8797808471938
 30
0.0
 11
447.1157309999998
 21
257.8797808471938
 31
0.0
  0
LINE
  5
DC31
330
DA2D
100
AcDbEntity
  8
1
  6
Continuous
100
AcDbLine
 10
450.1796599999996
 20
257.4358898471936
 30
0.0
 11
447.0787399999998
 21
257.4358898471936
 31
0.0
  0
ARC
  5
DC32
330
DA2D
100
AcDbEntity
  8
1
  6
Continuous
100
AcDbCircle
 10
447.533458
 20
259.2574658471938
 30
0.0
 40
0.044452
100
AcDbArc
 50
157.056
 51
270.0
  0
ARC
  5
DC33
330
DA2D
100
AcDbEntity
  8
1
  6
Continuous
100
AcDbCircle
 10
452.3621230000001
 20
257.2139438471936
 30
0.0
 40
5.288524999999999
100
AcDbArc
 50
153.986
 51
157.056
  0
LINE
  5
DC34
330
DA2D
100
AcDbEntity
  8
1
  6
Continuous
100
AcDbLine
 10
450.1796599999996
 20
256.9910968471938
 30
0.0
 11
447.0787399999998
 21
256.9910968471938
 31
0.0
  0
LINE
  5
DC35
330
DA2D
100
AcDbEntity
  8
1
  6
Continuous
100
AcDbLine
 10
452.089962
 20
299.9293098471937
 30
0.0
 11
452.089962
 21
305.7033098471937
 31
0.0
  0
LINE
  5
DC36
330
DA2D
100
AcDbEntity
  8
1
  6
Continuous
100
AcDbLine
 10
448.4434529999998
 20
300.0273928471937
 30
0.0
 11
447.092926
 21
301.3315808471939
 31
0.0
  0
ARC
  5
DC37
330
DA2D
100
AcDbEntity
  8
1
  6
Continuous
100
AcDbCircle
 10
447.0899619999998
 20
302.8163098471937
 30
0.0
 40
3.1
100
AcDbArc
 50
295.887785
 51
334.1122149999999
  0
ARC
  5
DC38
330
DA2D
100
AcDbEntity
  8
2
  6
Continuous
100
AcDbCircle
 10
447.0899619999998
 20
302.8163098471937
 30
0.0
 40
10.18799999999999
100
AcDbArc
 50
286.8615909999999
 51
73.13840899999998
  0
LINE
  5
DC39
330
DA2D
100
AcDbEntity
  8
1
  6
Continuous
100
AcDbLine
 10
464.589962
 20
312.9199398471937
 30
0.0
 11
464.589962
 21
292.7126798471937
 31
0.0
  0
ARC
  5
DC3A
330
DA2D
100
AcDbEntity
  8
1
  6
Continuous
100
AcDbCircle
 10
447.0899619999998
 20
302.8163098471937
 30
0.0
 40
11.0
100
AcDbArc
 50
297.5801989999999
 51
62.419801
  0
LINE
  5
DC3B
330
DA2D
100
AcDbEntity
  8
1
  6
Continuous
100
AcDbLine
 10
447.0899619999998
 20
282.6090508471938
 30
0.0
 11
464.589962
 21
292.7126798471937
 31
0.0
  0
LINE
  5
DC3C
330
DA2D
100
AcDbEntity
  8
1
  6
Continuous
100
AcDbLine
 10
452.089962
 20
299.9293098471937
 30
0.0
 11
447.0899619999998
 21
297.0423098471938
 31
0.0
  0
LINE
  5
DC3D
330
DA2D
100
AcDbEntity
  8
1
  6
Continuous
100
AcDbLine
 10
447.0899619999998
 20
304.3001338471936
 30
0.0
 11
447.0869969999998
 21
304.3010398471938
 31
0.0
  0
LINE
  5
DC3E
330
DA2D
100
AcDbEntity
  8
1
  6
Continuous
100
AcDbLine
 10
447.0899619999998
 20
304.3001338471936
 30
0.0
 11
447.092926
 21
304.3010398471938
 31
0.0
  0
LINE
  5
DC3F
330
DA2D
100
AcDbEntity
  8
1
  6
Continuous
100
AcDbLine
 10
447.092926
 20
304.3010398471938
 30
0.0
 11
448.4434529999998
 21
305.6052278471938
 31
0.0
  0
LINE
  5
DC40
330
DA2D
100
AcDbEntity
  8
1
  6
Continuous
100
AcDbLine
 10
448.5737849999998
 20
302.8163098471937
 30
0.0
 11
448.5746909999998
 21
302.8192748471935
 31
0.0
  0
LINE
  5
DC41
330
DA2D
100
AcDbEntity
  8
1
  6
Continuous
100
AcDbLine
 10
448.5737849999998
 20
302.8163098471937
 30
0.0
 11
448.5746909999998
 21
302.8133458471937
 31
0.0
  0
LINE
  5
DC42
330
DA2D
100
AcDbEntity
  8
1
  6
Continuous
100
AcDbLine
 10
447.0899619999998
 20
301.3324868471938
 30
0.0
 11
447.092926
 21
301.3315808471939
 31
0.0
  0
LINE
  5
DC43
330
DA2D
100
AcDbEntity
  8
1
  6
Continuous
100
AcDbLine
 10
447.0899619999998
 20
301.3324868471938
 30
0.0
 11
447.0869969999998
 21
301.3315808471939
 31
0.0
  0
LINE
  5
DC44
330
DA2D
100
AcDbEntity
  8
1
  6
Continuous
100
AcDbLine
 10
447.0899619999998
 20
308.5893098471938
 30
0.0
 11
452.089962
 21
305.7033098471937
 31
0.0
  0
LINE
  5
DC45
330
DA2D
100
AcDbEntity
  8
1
  6
Continuous
100
AcDbLine
 10
449.8788789999998
 20
301.4628188471937
 30
0.0
 11
448.5746909999998
 21
302.8133458471937
 31
0.0
  0
LINE
  5
DC46
330
DA2D
100
AcDbEntity
  8
1
  6
Continuous
100
AcDbLine
 10
448.5746909999998
 20
302.8192748471935
 30
0.0
 11
449.8788789999998
 21
304.1698008471937
 31
0.0
  0
ARC
  5
DC47
330
DA2D
100
AcDbEntity
  8
1
  6
Continuous
100
AcDbCircle
 10
447.0899619999998
 20
302.8163098471937
 30
0.0
 40
3.1
100
AcDbArc
 50
25.887785
 51
64.112215
  0
LINE
  5
DC48
330
DA2D
100
AcDbEntity
  8
2
  6
Continuous
100
AcDbLine
 10
257.133666
 20
473.1869748471939
 30
0.0
 11
240.8336659999999
 21
465.0989368471938
 31
0.0
  0
LINE
  5
DC49
330
DA2D
100
AcDbEntity
  8
2
  6
Continuous
100
AcDbLine
 10
240.8336659999999
 20
471.0892128471939
 30
0.0
 11
257.133666
 21
463.0011748471938
 31
0.0
  0
LINE
  5
DC4A
330
DA2D
100
AcDbEntity
  8
1
  6
Continuous
100
AcDbLine
 10
257.133666
 20
463.0011748471938
 30
0.0
 11
237.3336659999999
 21
463.0011748471938
 31
0.0
  0
LINE
  5
DC4B
330
DA2D
100
AcDbEntity
  8
1
  6
Continuous
100
AcDbLine
 10
257.133666
 20
473.1869748471939
 30
0.0
 11
237.3336659999999
 21
473.1869748471939
 31
0.0
  0
LINE
  5
DC4C
330
DA2D
100
AcDbEntity
  8
1
  6
Continuous
100
AcDbLine
 10
257.133666
 20
457.0940748471938
 30
0.0
 11
237.3336659999999
 21
457.0940748471938
 31
0.0
  0
LINE
  5
DC4D
330
DA2D
100
AcDbEntity
  8
1
  6
Continuous
100
AcDbLine
 10
257.133666
 20
479.0940748471938
 30
0.0
 11
237.3336659999999
 21
479.0940748471938
 31
0.0
  0
LINE
  5
DC4E
330
DA2D
100
AcDbEntity
  8
2
  6
Continuous
100
AcDbLine
 10
257.945666
 20
457.9060748471937
 30
0.0
 11
240.740091
 21
457.9060748471937
 31
0.0
  0
LINE
  5
DC4F
330
DA2D
100
AcDbEntity
  8
2
  6
Continuous
100
AcDbLine
 10
257.945666
 20
478.2820748471938
 30
0.0
 11
240.740091
 21
478.2820748471938
 31
0.0
  0
LINE
  5
DC50
330
DA2D
100
AcDbEntity
  8
4
  6
CENTER
100
AcDbLine
 10
271.683666
 20
468.0940748471939
 30
0.0
 11
182.633666
 21
468.0940748471939
 31
0.0
  0
ARC
  5
DC51
330
DA2D
100
AcDbEntity
  8
1
  6
Continuous
100
AcDbCircle
 10
41.499999
 20
326.4594908471938
 30
0.0
 40
2.0
100
AcDbArc
 50
122.3923649999999
 51
180.0
  0
ARC
  5
DC52
330
DA2D
100
AcDbEntity
  8
1
  6
Continuous
100
AcDbCircle
 10
71.499999
 20
326.4594908471938
 30
0.0
 40
2.0
100
AcDbArc
 50
0.0
 51
57.60763499999999
  0
LINE
  5
DC53
330
DA2D
100
AcDbEntity
  8
1
  6
Continuous
100
AcDbLine
 10
237.3336659999999
 20
326.8163098471938
 30
0.0
 11
240.8336659999999
 21
326.8163098471938
 31
0.0
  0
LINE
  5
DC54
330
DA2D
100
AcDbEntity
  8
1
  6
Continuous
100
AcDbLine
 10
231.333666
 20
331.7782238471938
 30
0.0
 11
231.333666
 21
327.3787078471938
 31
0.0
  0
ARC
  5
DC55
330
DA2D
100
AcDbEntity
  8
1
  6
Continuous
100
AcDbCircle
 10
232.5176899999998
 20
330.8163098471938
 30
0.0
 40
2.0
100
AcDbArc
 50
90.0
 51
151.386961
  0
LINE
  5
DC56
330
DA2D
100
AcDbEntity
  8
1
  6
Continuous
100
AcDbLine
 10
232.5176899999998
 20
332.8163098471938
 30
0.0
 11
237.3336659999999
 21
332.8163098471938
 31
0.0
  0
LINE
  5
DC57
330
DA2D
100
AcDbEntity
  8
1
  6
Continuous
100
AcDbLine
 10
221.733666
 20
454.5940748471939
 30
0.0
 11
190.5730209999999
 21
454.5940748471939
 31
0.0
  0
LINE
  5
DC58
330
DA2D
100
AcDbEntity
  8
1
  6
Continuous
100
AcDbLine
 10
221.733666
 20
481.5940748471938
 30
0.0
 11
190.5730209999999
 21
481.5940748471938
 31
0.0
  0
LINE
  5
DC59
330
DA2D
100
AcDbEntity
  8
1
  6
Continuous
100
AcDbLine
 10
188.264924
 20
460.0940748471939
 30
0.0
 11
187.7605309999998
 21
460.0940748471939
 31
0.0
  0
LINE
  5
DC5A
330
DA2D
100
AcDbEntity
  8
1
  6
Continuous
100
AcDbLine
 10
188.264924
 20
476.0940748471939
 30
0.0
 11
187.7605309999998
 21
476.0940748471939
 31
0.0
  0
LINE
  5
DC5B
330
DA2D
100
AcDbEntity
  8
1
  6
Continuous
100
AcDbLine
 10
189.3460609999999
 20
456.5940748471938
 30
0.0
 11
188.8366959999999
 21
456.5940748471938
 31
0.0
  0
LINE
  5
DC5C
330
DA2D
100
AcDbEntity
  8
1
  6
Continuous
100
AcDbLine
 10
189.3460609999999
 20
479.5940748471939
 30
0.0
 11
188.8366959999999
 21
479.5940748471939
 31
0.0
  0
LINE
  5
DC5D
330
DA2D
100
AcDbEntity
  8
1
  6
Continuous
100
AcDbLine
 10
221.783666
 20
454.5940748471939
 30
0.0
 11
231.333666
 21
451.0940748471939
 31
0.0
  0
LINE
  5
DC5E
330
DA2D
100
AcDbEntity
  8
1
  6
Continuous
100
AcDbLine
 10
231.333666
 20
440.0940748471938
 30
0.0
 11
231.333666
 21
496.0940748471939
 31
0.0
  0
LINE
  5
DC5F
330
DA2D
100
AcDbEntity
  8
1
  6
Continuous
100
AcDbLine
 10
237.3336659999999
 20
438.0940748471939
 30
0.0
 11
237.3336659999999
 21
498.0940748471938
 31
0.0
  0
LINE
  5
DC60
330
DA2D
100
AcDbEntity
  8
1
  6
Continuous
100
AcDbLine
 10
235.333666
 20
438.0940748471939
 30
0.0
 11
235.333666
 21
498.0940748471938
 31
0.0
  0
ARC
  5
DC61
330
DA2D
100
AcDbEntity
  8
1
  6
Continuous
100
AcDbCircle
 10
233.333666
 20
440.0940748471938
 30
0.0
 40
2.0
100
AcDbArc
 50
180.0
 51
270.0
  0
LINE
  5
DC62
330
DA2D
100
AcDbEntity
  8
1
  6
Continuous
100
AcDbLine
 10
237.3336659999999
 20
438.0940748471939
 30
0.0
 11
233.333666
 21
438.0940748471939
 31
0.0
  0
LINE
  5
DC63
330
DA2D
100
AcDbEntity
  8
1
  6
Continuous
100
AcDbLine
 10
221.783666
 20
481.5940748471938
 30
0.0
 11
231.333666
 21
485.094074847194
 31
0.0
  0
LINE
  5
DC64
330
DA2D
100
AcDbEntity
  8
1
  6
Continuous
100
AcDbLine
 10
221.783666
 20
454.5940748471939
 30
0.0
 11
221.783666
 21
481.5940748471938
 31
0.0
  0
LINE
  5
DC65
330
DA2D
100
AcDbEntity
  8
1
  6
Continuous
100
AcDbLine
 10
221.733666
 20
454.5940748471939
 30
0.0
 11
221.733666
 21
481.5940748471938
 31
0.0
  0
LINE
  5
DC66
330
DA2D
100
AcDbEntity
  8
1
  6
Continuous
100
AcDbLine
 10
240.740091
 20
479.0940748471938
 30
0.0
 11
240.740091
 21
473.1869748471939
 31
0.0
  0
LINE
  5
DC67
330
DA2D
100
AcDbEntity
  8
2
  6
Continuous
100
AcDbLine
 10
239.333666
 20
457.0940748471938
 30
0.0
 11
240.740091
 21
457.9060748471937
 31
0.0
  0
LINE
  5
DC68
330
DA2D
100
AcDbEntity
  8
1
  6
Continuous
100
AcDbLine
 10
237.3336659999999
 20
471.3440748471938
 30
0.0
 11
240.8336659999999
 21
471.3440748471938
 31
0.0
  0
LINE
  5
DC69
330
DA2D
100
AcDbEntity
  8
1
  6
Continuous
100
AcDbLine
 10
237.3336659999999
 20
464.8440748471939
 30
0.0
 11
240.8336659999999
 21
464.8440748471939
 31
0.0
  0
LINE
  5
DC6A
330
DA2D
100
AcDbEntity
  8
1
  6
Continuous
100
AcDbLine
 10
240.740091
 20
463.0011748471938
 30
0.0
 11
240.740091
 21
457.0940748471938
 31
0.0
  0
LINE
  5
DC6B
330
DA2D
100
AcDbEntity
  8
1
  6
Continuous
100
AcDbLine
 10
240.8336659999999
 20
471.3440748471938
 30
0.0
 11
240.8336659999999
 21
464.8440748471939
 31
0.0
  0
LINE
  5
DC6C
330
DA2D
100
AcDbEntity
  8
2
  6
Continuous
100
AcDbLine
 10
239.333666
 20
479.0940748471938
 30
0.0
 11
240.740091
 21
478.2820748471938
 31
0.0
  0
ARC
  5
DC6D
330
DA2D
100
AcDbEntity
  8
1
  6
Continuous
100
AcDbCircle
 10
233.333666
 20
496.0940748471939
 30
0.0
 40
2.0
100
AcDbArc
 50
90.0
 51
180.0
  0
LINE
  5
DC6E
330
DA2D
100
AcDbEntity
  8
1
  6
Continuous
100
AcDbLine
 10
237.3336659999999
 20
498.0940748471938
 30
0.0
 11
233.333666
 21
498.0940748471938
 31
0.0
  0
LINE
  5
DC6F
330
DA2D
100
AcDbEntity
  8
1
  6
Continuous
100
AcDbLine
 10
295.7385319999998
 20
323.0235698471937
 30
0.0
 11
291.864606
 21
323.0235698471937
 31
0.0
  0
LINE
  5
DC70
330
DA2D
100
AcDbEntity
  8
1
  6
Continuous
100
AcDbLine
 10
288.8015709999999
 20
484.0940748471939
 30
0.0
 11
288.8015709999999
 21
452.0940748471939
 31
0.0
  0
LINE
  5
DC71
330
DA2D
100
AcDbEntity
  8
1
  6
Continuous
100
AcDbLine
 10
287.1015709999999
 20
485.5940748471938
 30
0.0
 11
287.1015709999999
 21
450.5940748471939
 31
0.0
  0
LINE
  5
DC72
330
DA2D
100
AcDbEntity
  8
1
  6
Continuous
100
AcDbLine
 10
288.501571
 20
450.5940748471939
 30
0.0
 11
288.501571
 21
485.5940748471938
 31
0.0
  0
ARC
  5
DC73
330
DA2D
100
AcDbEntity
  8
1
  6
Continuous
100
AcDbCircle
 10
324.822632
 20
459.3440748471938
 30
0.0
 40
34.52106099999999
100
AcDbArc
 50
165.317147
 51
194.6828529999999
  0
ARC
  5
DC74
330
DA2D
100
AcDbEntity
  8
1
  6
Continuous
100
AcDbCircle
 10
262.7805099999998
 20
459.3440748471938
 30
0.0
 40
34.52106099999999
100
AcDbArc
 50
345.317147
 51
14.68285299999999
  0
LINE
  5
DC75
330
DA2D
100
AcDbEntity
  8
1
  6
Continuous
100
AcDbLine
 10
298.8015709999999
 20
484.0940748471939
 30
0.0
 11
298.8015709999999
 21
452.0940748471939
 31
0.0
  0
LINE
  5
DC76
330
DA2D
100
AcDbEntity
  8
1
  6
Continuous
100
AcDbLine
 10
297.3015709999999
 20
485.5940748471938
 30
0.0
 11
297.3015709999999
 21
450.5940748471939
 31
0.0
  0
LINE
  5
DC77
330
DA2D
100
AcDbEntity
  8
1
  6
Continuous
100
AcDbLine
 10
290.3015709999999
 20
485.5940748471938
 30
0.0
 11
290.3015709999999
 21
450.5940748471939
 31
0.0
  0
LINE
  5
DC78
330
DA2D
100
AcDbEntity
  8
1
  6
Continuous
100
AcDbLine
 10
287.1015709999999
 20
450.5940748471939
 30
0.0
 11
288.501571
 21
450.5940748471939
 31
0.0
  0
LINE
  5
DC79
330
DA2D
100
AcDbEntity
  8
1
  6
Continuous
100
AcDbLine
 10
290.3015709999999
 20
450.5940748471939
 30
0.0
 11
297.3015709999999
 21
450.5940748471939
 31
0.0
  0
LINE
  5
DC7A
330
DA2D
100
AcDbEntity
  8
1
  6
Continuous
100
AcDbLine
 10
288.8015709999999
 20
452.0940748471939
 30
0.0
 11
290.3015709999999
 21
452.0940748471939
 31
0.0
  0
LINE
  5
DC7B
330
DA2D
100
AcDbEntity
  8
1
  6
Continuous
100
AcDbLine
 10
298.8015709999999
 20
452.0940748471939
 30
0.0
 11
297.3015709999999
 21
452.0940748471939
 31
0.0
  0
LINE
  5
DC7C
330
DA2D
100
AcDbEntity
  8
1
  6
Continuous
100
AcDbLine
 10
287.1015709999999
 20
485.5940748471938
 30
0.0
 11
288.501571
 21
485.5940748471938
 31
0.0
  0
LINE
  5
DC7D
330
DA2D
100
AcDbEntity
  8
4
  6
CENTER
100
AcDbLine
 10
283.8015709999999
 20
468.0940748471939
 30
0.0
 11
303.8015709999999
 21
468.0940748471939
 31
0.0
  0
LINE
  5
DC7E
330
DA2D
100
AcDbEntity
  8
1
  6
Continuous
100
AcDbLine
 10
257.133666
 20
479.0940748471938
 30
0.0
 11
257.133666
 21
473.1869748471939
 31
0.0
  0
LINE
  5
DC7F
330
DA2D
100
AcDbEntity
  8
1
  6
Continuous
100
AcDbLine
 10
258.683666
 20
477.5440748471939
 30
0.0
 11
258.683666
 21
458.6440748471938
 31
0.0
  0
LINE
  5
DC80
330
DA2D
100
AcDbEntity
  8
1
  6
Continuous
100
AcDbLine
 10
266.433666
 20
474.9701678471939
 30
0.0
 11
258.733666
 21
474.9701678471939
 31
0.0
  0
ARC
  5
DC81
330
DA2D
100
AcDbEntity
  8
1
  6
Continuous
100
AcDbCircle
 10
266.433666
 20
474.6701678471938
 30
0.0
 40
0.3
100
AcDbArc
 50
0.0
 51
90.0
  0
LINE
  5
DC82
330
DA2D
100
AcDbEntity
  8
1
  6
Continuous
100
AcDbLine
 10
266.433666
 20
468.0940748471939
 30
0.0
 11
258.733666
 21
468.0940748471939
 31
0.0
  0
LINE
  5
DC83
330
DA2D
100
AcDbEntity
  8
2
  6
Continuous
100
AcDbLine
 10
266.433666
 20
474.9701678471939
 30
0.0
 11
258.733666
 21
468.0940748471939
 31
0.0
  0
LINE
  5
DC84
330
DA2D
100
AcDbEntity
  8
2
  6
Continuous
100
AcDbLine
 10
266.433666
 20
468.0940748471939
 30
0.0
 11
258.733666
 21
474.9701678471939
 31
0.0
  0
ARC
  5
DC85
330
DA2D
100
AcDbEntity
  8
1
  6
Continuous
100
AcDbCircle
 10
266.383666
 20
461.5179818471935
 30
0.0
 40
0.3
100
AcDbArc
 50
270.0
 51
0.0
  0
LINE
  5
DC86
330
DA2D
100
AcDbEntity
  8
1
  6
Continuous
100
AcDbLine
 10
266.433666
 20
461.2179818471938
 30
0.0
 11
258.733666
 21
461.2179818471938
 31
0.0
  0
LINE
  5
DC87
330
DA2D
100
AcDbEntity
  8
2
  6
Continuous
100
AcDbLine
 10
258.733666
 20
468.0940748471939
 30
0.0
 11
266.433666
 21
461.2179818471938
 31
0.0
  0
LINE
  5
DC88
330
DA2D
100
AcDbEntity
  8
2
  6
Continuous
100
AcDbLine
 10
258.733666
 20
461.2179818471938
 30
0.0
 11
266.433666
 21
468.0940748471939
 31
0.0
  0
LINE
  5
DC89
330
DA2D
100
AcDbEntity
  8
1
  6
Continuous
100
AcDbLine
 10
266.733666
 20
474.6701678471938
 30
0.0
 11
266.733666
 21
461.5179818471935
 31
0.0
  0
LINE
  5
DC8A
330
DA2D
100
AcDbEntity
  8
1
  6
Continuous
100
AcDbLine
 10
257.133666
 20
463.0011748471938
 30
0.0
 11
257.133666
 21
457.0940748471938
 31
0.0
  0
ARC
  5
DC8B
330
DA2D
100
AcDbEntity
  8
1
  6
Continuous
100
AcDbCircle
 10
246.92632
 20
468.0940748471939
 30
0.0
 40
11.407346
100
AcDbArc
 50
333.483346
 51
26.516654
  0
LINE
  5
DC8C
330
DA2D
100
AcDbEntity
  8
1
  6
Continuous
100
AcDbLine
 10
257.133666
 20
457.0940748471938
 30
0.0
 11
258.683666
 21
458.6440748471938
 31
0.0
  0
LINE
  5
DC8D
330
DA2D
100
AcDbEntity
  8
1
  6
Continuous
100
AcDbLine
 10
286.8015709999999
 20
474.8536048471938
 30
0.0
 11
287.1015709999999
 21
475.1536048471939
 31
0.0
  0
LINE
  5
DC8E
330
DA2D
100
AcDbEntity
  8
1
  6
Continuous
100
AcDbLine
 10
286.8015709999999
 20
474.8536048471938
 30
0.0
 11
287.1015709999999
 21
474.5536048471937
 31
0.0
  0
LINE
  5
DC8F
330
DA2D
100
AcDbEntity
  8
1
  6
Continuous
100
AcDbLine
 10
286.8015709999999
 20
468.1041048471938
 30
0.0
 11
287.1015709999999
 21
467.8041048471937
 31
0.0
  0
LINE
  5
DC90
330
DA2D
100
AcDbEntity
  8
1
  6
Continuous
100
AcDbLine
 10
286.8015709999999
 20
468.1041048471938
 30
0.0
 11
287.1015709999999
 21
468.4041048471939
 31
0.0
  0
LINE
  5
DC91
330
DA2D
100
AcDbEntity
  8
1
  6
Continuous
100
AcDbLine
 10
286.8015709999999
 20
461.3345648471939
 30
0.0
 11
287.1015709999999
 21
461.6345748471936
 31
0.0
  0
LINE
  5
DC92
330
DA2D
100
AcDbEntity
  8
1
  6
Continuous
100
AcDbLine
 10
286.8015709999999
 20
461.3345648471939
 30
0.0
 11
287.1015709999999
 21
461.0345648471938
 31
0.0
  0
LINE
  5
DC93
330
DA2D
100
AcDbEntity
  8
1
  6
Continuous
100
AcDbLine
 10
287.1015709999999
 20
457.1569248471939
 30
0.0
 11
286.8015709999999
 21
457.1569248471939
 31
0.0
  0
LINE
  5
DC94
330
DA2D
100
AcDbEntity
  8
1
  6
Continuous
100
AcDbLine
 10
286.8015709999999
 20
457.1569248471939
 30
0.0
 11
287.1015709999999
 21
455.9987748471939
 31
0.0
  0
LINE
  5
DC95
330
DA2D
100
AcDbEntity
  8
1
  6
Continuous
100
AcDbLine
 10
257.133666
 20
479.0940748471938
 30
0.0
 11
258.683666
 21
477.5440748471939
 31
0.0
  0
LINE
  5
DC96
330
DA2D
100
AcDbEntity
  8
1
  6
Continuous
100
AcDbLine
 10
286.8015709999999
 20
479.0312248471939
 30
0.0
 11
287.1015709999999
 21
480.1893748471938
 31
0.0
  0
LINE
  5
DC97
330
DA2D
100
AcDbEntity
  8
1
  6
Continuous
100
AcDbLine
 10
287.1015709999999
 20
479.0312248471939
 30
0.0
 11
286.8015709999999
 21
479.0312248471939
 31
0.0
  0
ARC
  5
DC98
330
DA2D
100
AcDbEntity
  8
1
  6
Continuous
100
AcDbCircle
 10
324.822632
 20
476.8440748471938
 30
0.0
 40
34.52106099999999
100
AcDbArc
 50
165.317147
 51
194.6828529999999
  0
ARC
  5
DC99
330
DA2D
100
AcDbEntity
  8
1
  6
Continuous
100
AcDbCircle
 10
262.7805099999998
 20
476.8440748471938
 30
0.0
 40
34.52106099999999
100
AcDbArc
 50
345.317147
 51
14.68285299999999
  0
LINE
  5
DC9A
330
DA2D
100
AcDbEntity
  8
1
  6
Continuous
100
AcDbLine
 10
288.501571
 20
461.0345648471938
 30
0.0
 11
288.8015709999999
 21
461.3345648471939
 31
0.0
  0
LINE
  5
DC9B
330
DA2D
100
AcDbEntity
  8
1
  6
Continuous
100
AcDbLine
 10
288.8015709999999
 20
461.3345648471939
 30
0.0
 11
288.501571
 21
461.6345748471936
 31
0.0
  0
LINE
  5
DC9C
330
DA2D
100
AcDbEntity
  8
1
  6
Continuous
100
AcDbLine
 10
288.8015709999999
 20
474.8536048471938
 30
0.0
 11
288.501571
 21
474.5536048471937
 31
0.0
  0
LINE
  5
DC9D
330
DA2D
100
AcDbEntity
  8
1
  6
Continuous
100
AcDbLine
 10
288.501571
 20
475.1536048471939
 30
0.0
 11
288.8015709999999
 21
474.8536048471938
 31
0.0
  0
LINE
  5
DC9E
330
DA2D
100
AcDbEntity
  8
1
  6
Continuous
100
AcDbLine
 10
288.501571
 20
468.3840248471939
 30
0.0
 11
288.8015709999999
 21
468.0840248471938
 31
0.0
  0
LINE
  5
DC9F
330
DA2D
100
AcDbEntity
  8
1
  6
Continuous
100
AcDbLine
 10
288.8015709999999
 20
468.0840248471938
 30
0.0
 11
288.501571
 21
467.7840248471937
 31
0.0
  0
LINE
  5
DCA0
330
DA2D
100
AcDbEntity
  8
1
  6
Continuous
100
AcDbLine
 10
288.501571
 20
457.1569248471939
 30
0.0
 11
288.8015709999999
 21
457.1569248471939
 31
0.0
  0
LINE
  5
DCA1
330
DA2D
100
AcDbEntity
  8
1
  6
Continuous
100
AcDbLine
 10
288.8015709999999
 20
457.1569248471939
 30
0.0
 11
288.501571
 21
455.9987748471939
 31
0.0
  0
LINE
  5
DCA2
330
DA2D
100
AcDbEntity
  8
1
  6
Continuous
100
AcDbLine
 10
291.4289029999997
 20
468.0940748471939
 30
0.0
 11
296.1742389999999
 21
468.0940748471939
 31
0.0
  0
LINE
  5
DCA3
330
DA2D
100
AcDbEntity
  8
1
  6
Continuous
100
AcDbLine
 10
288.8015709999999
 20
479.0312248471939
 30
0.0
 11
288.501571
 21
480.1893748471938
 31
0.0
  0
LINE
  5
DCA4
330
DA2D
100
AcDbEntity
  8
1
  6
Continuous
100
AcDbLine
 10
288.501571
 20
479.0312248471939
 30
0.0
 11
288.8015709999999
 21
479.0312248471939
 31
0.0
  0
LINE
  5
DCA5
330
DA2D
100
AcDbEntity
  8
1
  6
Continuous
100
AcDbLine
 10
290.3015709999999
 20
485.5940748471938
 30
0.0
 11
297.3015709999999
 21
485.5940748471938
 31
0.0
  0
LINE
  5
DCA6
330
DA2D
100
AcDbEntity
  8
1
  6
Continuous
100
AcDbLine
 10
288.8015709999999
 20
484.0940748471939
 30
0.0
 11
290.3015709999999
 21
484.0940748471939
 31
0.0
  0
LINE
  5
DCA7
330
DA2D
100
AcDbEntity
  8
1
  6
Continuous
100
AcDbLine
 10
298.8015709999999
 20
484.0940748471939
 30
0.0
 11
297.3015709999999
 21
484.0940748471939
 31
0.0
  0
LINE
  5
DCA8
330
DA2D
100
AcDbEntity
  8
1
  6
Continuous
100
AcDbLine
 10
334.8067349999999
 20
457.0940968471936
 30
0.0
 11
334.8067349999999
 21
479.0940968471938
 31
0.0
  0
LINE
  5
DCA9
330
DA2D
100
AcDbEntity
  8
1
  6
Continuous
100
AcDbLine
 10
331.806735
 20
457.0940968471936
 30
0.0
 11
331.806735
 21
479.0940968471938
 31
0.0
  0
LINE
  5
DCAA
330
DA2D
100
AcDbEntity
  8
1
  6
Continuous
100
AcDbLine
 10
326.07059
 20
457.0940968471936
 30
0.0
 11
326.07059
 21
479.0940968471938
 31
0.0
  0
LINE
  5
DCAB
330
DA2D
100
AcDbEntity
  8
1
  6
Continuous
100
AcDbLine
 10
328.07059
 20
457.0940968471936
 30
0.0
 11
328.07059
 21
479.0940968471938
 31
0.0
  0
LINE
  5
DCAC
330
DA2D
100
AcDbEntity
  8
4
  6
CENTER
100
AcDbLine
 10
339.806735
 20
468.0940968471936
 30
0.0
 11
321.0705899999999
 21
468.0940968471936
 31
0.0
  0
LINE
  5
DCAD
330
DA2D
100
AcDbEntity
  8
1
  6
Continuous
100
AcDbLine
 10
334.8067349999999
 20
457.0940968471936
 30
0.0
 11
331.806735
 21
457.0940968471936
 31
0.0
  0
LINE
  5
DCAE
330
DA2D
100
AcDbEntity
  8
1
  6
Continuous
100
AcDbLine
 10
328.07059
 20
457.0940968471936
 30
0.0
 11
326.07059
 21
457.0940968471936
 31
0.0
  0
LINE
  5
DCAF
330
DA2D
100
AcDbEntity
  8
1
  6
Continuous
100
AcDbLine
 10
334.8067349999999
 20
479.0940968471938
 30
0.0
 11
331.806735
 21
479.0940968471938
 31
0.0
  0
LINE
  5
DCB0
330
DA2D
100
AcDbEntity
  8
1
  6
Continuous
100
AcDbLine
 10
328.07059
 20
479.0940968471938
 30
0.0
 11
326.07059
 21
479.0940968471938
 31
0.0
  0
LINE
  5
DCB1
330
DA2D
100
AcDbEntity
  8
1
  6
Continuous
100
AcDbLine
 10
365.4771629999999
 20
476.0941178471936
 30
0.0
 11
367.0771629999999
 21
476.0941178471936
 31
0.0
  0
LINE
  5
DCB2
330
DA2D
100
AcDbEntity
  8
4
  6
CENTER
100
AcDbLine
 10
377.5771629999999
 20
468.0941178471938
 30
0.0
 11
360.4771629999997
 21
468.0941178471938
 31
0.0
  0
LINE
  5
DCB3
330
DA2D
100
AcDbEntity
  8
1
  6
Continuous
100
AcDbLine
 10
365.4771629999999
 20
460.0941178471938
 30
0.0
 11
367.0771629999999
 21
460.0941178471938
 31
0.0
  0
LINE
  5
DCB4
330
DA2D
100
AcDbEntity
  8
1
  6
Continuous
100
AcDbLine
 10
365.4771629999999
 20
476.0941178471936
 30
0.0
 11
365.4771629999999
 21
460.0941178471938
 31
0.0
  0
LINE
  5
DCB5
330
DA2D
100
AcDbEntity
  8
1
  6
Continuous
100
AcDbLine
 10
372.5771629999999
 20
473.0901608471937
 30
0.0
 11
372.5771629999999
 21
463.0901608471936
 31
0.0
  0
LINE
  5
DCB6
330
DA2D
100
AcDbEntity
  8
1
  6
Continuous
100
AcDbLine
 10
369.0234549999997
 20
468.0901608471939
 30
0.0
 11
372.130871
 21
468.0901608471939
 31
0.0
  0
ARC
  5
DCB7
330
DA2D
100
AcDbEntity
  8
1
  6
Continuous
100
AcDbCircle
 10
375.802455
 20
470.5901608471936
 30
0.0
 40
7.225291999999996
100
AcDbArc
 50
159.7567339999999
 51
200.243266
  0
ARC
  5
DCB8
330
DA2D
100
AcDbEntity
  8
1
  6
Continuous
100
AcDbCircle
 10
375.802455
 20
465.5901608471936
 30
0.0
 40
7.225291999999996
100
AcDbArc
 50
159.7567339999999
 51
200.243266
  0
LINE
  5
DCB9
330
DA2D
100
AcDbEntity
  8
1
  6
Continuous
100
AcDbLine
 10
372.5771629999999
 20
473.0901608471937
 30
0.0
 11
368.5771629999999
 21
473.0901608471937
 31
0.0
  0
LINE
  5
DCBA
330
DA2D
100
AcDbEntity
  8
1
  6
Continuous
100
AcDbLine
 10
372.5771629999999
 20
463.0901608471936
 30
0.0
 11
368.5771629999999
 21
463.0901608471936
 31
0.0
  0
ARC
  5
DCBB
330
DA2D
100
AcDbEntity
  8
1
  6
Continuous
100
AcDbCircle
 10
365.351871
 20
470.5901608471936
 30
0.0
 40
7.225291999999996
100
AcDbArc
 50
339.756734
 51
20.24326599999999
  0
ARC
  5
DCBC
330
DA2D
100
AcDbEntity
  8
1
  6
Continuous
100
AcDbCircle
 10
365.351871
 20
465.5901608471936
 30
0.0
 40
7.225291999999996
100
AcDbArc
 50
339.756734
 51
20.24326599999999
  0
LINE
  5
DCBD
330
DA2D
100
AcDbEntity
  8
1
  6
Continuous
100
AcDbLine
 10
368.5771629999999
 20
474.1941178471939
 30
0.0
 11
367.0771629999999
 21
474.1941178471939
 31
0.0
  0
LINE
  5
DCBE
330
DA2D
100
AcDbEntity
  8
1
  6
Continuous
100
AcDbLine
 10
368.5771629999999
 20
461.9941178471939
 30
0.0
 11
367.0771629999999
 21
461.9941178471939
 31
0.0
  0
LINE
  5
DCBF
330
DA2D
100
AcDbEntity
  8
1
  6
Continuous
100
AcDbLine
 10
368.5771629999999
 20
461.9941178471939
 30
0.0
 11
368.5771629999999
 21
474.1941178471939
 31
0.0
  0
LINE
  5
DCC0
330
DA2D
100
AcDbEntity
  8
1
  6
Continuous
100
AcDbLine
 10
367.0771629999999
 20
466.5901608471936
 30
0.0
 11
368.5771629999999
 21
468.0901608471939
 31
0.0
  0
LINE
  5
DCC1
330
DA2D
100
AcDbEntity
  8
1
  6
Continuous
100
AcDbLine
 10
367.0771629999999
 20
468.0941178471938
 30
0.0
 11
368.5771629999999
 21
469.5941178471938
 31
0.0
  0
LINE
  5
DCC2
330
DA2D
100
AcDbEntity
  8
1
  6
Continuous
100
AcDbLine
 10
367.0771629999999
 20
476.0941178471936
 30
0.0
 11
367.0771629999999
 21
460.0941178471938
 31
0.0
  0
LINE
  5
DCC3
330
DA2D
100
AcDbEntity
  8
4
  6
CENTER
100
AcDbLine
 10
453.829506
 20
322.8163098471938
 30
0.0
 11
441.589962
 21
322.8163098471938
 31
0.0
  0
LINE
  5
DCC4
330
DA2D
100
AcDbEntity
  8
1
  6
Continuous
100
AcDbLine
 10
603.8783550000001
 20
320.3163098471938
 30
0.0
 11
602.3153170000001
 21
323.0235698471937
 31
0.0
  0
LINE
  5
DCC5
330
DA2D
100
AcDbEntity
  8
1
  6
Continuous
100
AcDbLine
 10
596.8783550000003
 20
320.3163098471938
 30
0.0
 11
598.4413919999998
 21
323.0235698471937
 31
0.0
  0
LINE
  5
DCC6
330
DA2D
100
AcDbEntity
  8
1
  6
Continuous
100
AcDbLine
 10
521.60276
 20
307.8202678471938
 30
0.0
 11
521.60276
 21
297.8192678471939
 31
0.0
  0
ARC
  5
DCC7
330
DA2D
100
AcDbEntity
  8
1
  6
Continuous
100
AcDbCircle
 10
531.163709
 20
302.8202678471937
 30
0.0
 40
9.560949
100
AcDbArc
 50
162.4247879999998
 51
197.5752119999999
  0
ARC
  5
DCC8
330
DA2D
100
AcDbEntity
  8
1
  6
Continuous
100
AcDbCircle
 10
516.0418110000001
 20
302.8202678471937
 30
0.0
 40
9.560949
100
AcDbArc
 50
342.4247879999999
 51
17.575212
  0
LINE
  5
DCC9
330
DA2D
100
AcDbEntity
  8
1
  6
Continuous
100
AcDbLine
 10
528.70276
 20
310.8163098471937
 30
0.0
 11
528.70276
 21
294.8163098471937
 31
0.0
  0
LINE
  5
DCCA
330
DA2D
100
AcDbEntity
  8
1
  6
Continuous
100
AcDbLine
 10
527.10276
 20
310.8163098471937
 30
0.0
 11
527.10276
 21
294.8163098471937
 31
0.0
  0
LINE
  5
DCCB
330
DA2D
100
AcDbEntity
  8
1
  6
Continuous
100
AcDbLine
 10
525.60276
 20
296.7163098471938
 30
0.0
 11
525.60276
 21
308.9163098471938
 31
0.0
  0
LINE
  5
DCCC
330
DA2D
100
AcDbEntity
  8
1
  6
Continuous
100
AcDbLine
 10
525.60276
 20
297.0428068471937
 30
0.0
 11
525.60276
 21
308.5898128471938
 31
0.0
  0
LINE
  5
DCCD
330
DA2D
100
AcDbEntity
  8
1
  6
Continuous
100
AcDbLine
 10
525.60276
 20
296.7163098471938
 30
0.0
 11
527.10276
 21
296.7163098471938
 31
0.0
  0
LINE
  5
DCCE
330
DA2D
100
AcDbEntity
  8
1
  6
Continuous
100
AcDbLine
 10
522.0490519999998
 20
299.9332678471937
 30
0.0
 11
525.156469
 21
299.9332678471937
 31
0.0
  0
ARC
  5
DCCF
330
DA2D
100
AcDbEntity
  8
1
  6
Continuous
100
AcDbCircle
 10
523.0467599999998
 20
298.4902678471939
 30
0.0
 40
2.55582
100
AcDbArc
 50
325.6159999999998
 51
325.647143
  0
ARC
  5
DCD0
330
DA2D
100
AcDbEntity
  8
1
  6
Continuous
100
AcDbCircle
 10
524.1587599999998
 20
298.4902678471939
 30
0.0
 40
2.55582
100
AcDbArc
 50
214.3528569999999
 51
214.3839999999999
  0
LINE
  5
DCD1
330
DA2D
100
AcDbEntity
  8
1
  6
Continuous
100
AcDbLine
 10
522.0490519999998
 20
297.0462678471938
 30
0.0
 11
525.156469
 21
297.0462678471938
 31
0.0
  0
ARC
  5
DCD2
330
DA2D
100
AcDbEntity
  8
1
  6
Continuous
100
AcDbCircle
 10
524.1587400000002
 20
298.4892678471938
 30
0.0
 40
2.555979999999999
100
AcDbArc
 50
145.6283629999998
 51
205.6283629999998
  0
LINE
  5
DCD3
330
DA2D
100
AcDbEntity
  8
1
  6
Continuous
100
AcDbLine
 10
521.60276
 20
297.8192678471939
 30
0.0
 11
522.0490519999998
 21
297.0462678471938
 31
0.0
  0
ARC
  5
DCD4
330
DA2D
100
AcDbEntity
  8
1
  6
Continuous
100
AcDbCircle
 10
523.046781
 20
298.4892678471938
 30
0.0
 40
2.555979999999999
100
AcDbArc
 50
334.371637
 51
34.371637
  0
LINE
  5
DCD5
330
DA2D
100
AcDbEntity
  8
1
  6
Continuous
100
AcDbLine
 10
525.60276
 20
297.8192678471939
 30
0.0
 11
525.156469
 21
297.0462678471938
 31
0.0
  0
LINE
  5
DCD6
330
DA2D
100
AcDbEntity
  8
1
  6
Continuous
100
AcDbLine
 10
528.70276
 20
294.8163098471937
 30
0.0
 11
527.10276
 21
294.8163098471937
 31
0.0
  0
LINE
  5
DCD7
330
DA2D
100
AcDbEntity
  8
1
  6
Continuous
100
AcDbLine
 10
525.60276
 20
308.9163098471938
 30
0.0
 11
527.10276
 21
308.9163098471938
 31
0.0
  0
LINE
  5
DCD8
330
DA2D
100
AcDbEntity
  8
1
  6
Continuous
100
AcDbLine
 10
527.10276
 20
304.3202678471938
 30
0.0
 11
525.60276
 21
302.8202678471937
 31
0.0
  0
LINE
  5
DCD9
330
DA2D
100
AcDbEntity
  8
1
  6
Continuous
100
AcDbLine
 10
527.10276
 20
302.8163098471937
 30
0.0
 11
525.60276
 21
301.3163098471938
 31
0.0
  0
LINE
  5
DCDA
330
DA2D
100
AcDbEntity
  8
4
  6
CENTER
100
AcDbLine
 10
516.6027599999996
 20
302.8163098471937
 30
0.0
 11
533.7027599999998
 21
302.8163098471937
 31
0.0
  0
LINE
  5
DCDB
330
DA2D
100
AcDbEntity
  8
1
  6
Continuous
100
AcDbLine
 10
521.60276
 20
307.8202678471938
 30
0.0
 11
522.0490519999998
 21
308.5932678471938
 31
0.0
  0
ARC
  5
DCDC
330
DA2D
100
AcDbEntity
  8
1
  6
Continuous
100
AcDbCircle
 10
524.1587400000002
 20
307.1502678471937
 30
0.0
 40
2.555979999999999
100
AcDbArc
 50
154.371637
 51
214.371637
  0
LINE
  5
DCDD
330
DA2D
100
AcDbEntity
  8
1
  6
Continuous
100
AcDbLine
 10
522.0490519999998
 20
308.5932678471938
 30
0.0
 11
525.156469
 21
308.5932678471938
 31
0.0
  0
LINE
  5
DCDE
330
DA2D
100
AcDbEntity
  8
1
  6
Continuous
100
AcDbLine
 10
522.0490519999998
 20
305.7072678471937
 30
0.0
 11
525.156469
 21
305.7072678471937
 31
0.0
  0
LINE
  5
DCDF
330
DA2D
100
AcDbEntity
  8
1
  6
Continuous
100
AcDbLine
 10
525.60276
 20
307.8202678471938
 30
0.0
 11
525.156469
 21
308.5932678471938
 31
0.0
  0
ARC
  5
DCE0
330
DA2D
100
AcDbEntity
  8
1
  6
Continuous
100
AcDbCircle
 10
523.046781
 20
307.1502678471937
 30
0.0
 40
2.555979999999999
100
AcDbArc
 50
325.6283629999999
 51
25.628363
  0
LINE
  5
DCE1
330
DA2D
100
AcDbEntity
  8
1
  6
Continuous
100
AcDbLine
 10
528.70276
 20
310.8163098471937
 30
0.0
 11
527.10276
 21
310.8163098471937
 31
0.0
  0
LINE
  5
DCE2
330
DA2D
100
AcDbEntity
  8
1
  6
Continuous
100
AcDbLine
 10
559.3731889999998
 20
291.8163098471937
 30
0.0
 11
559.3731889999998
 21
313.8163098471938
 31
0.0
  0
LINE
  5
DCE3
330
DA2D
100
AcDbEntity
  8
1
  6
Continuous
100
AcDbLine
 10
562.3731889999998
 20
291.8163098471937
 30
0.0
 11
562.3731889999998
 21
313.8163098471938
 31
0.0
  0
LINE
  5
DCE4
330
DA2D
100
AcDbEntity
  8
1
  6
Continuous
100
AcDbLine
 10
568.109334
 20
291.8163098471937
 30
0.0
 11
568.109334
 21
313.8163098471938
 31
0.0
  0
LINE
  5
DCE5
330
DA2D
100
AcDbEntity
  8
1
  6
Continuous
100
AcDbLine
 10
566.1093339999998
 20
291.8163098471937
 30
0.0
 11
566.1093339999998
 21
313.8163098471938
 31
0.0
  0
LINE
  5
DCE6
330
DA2D
100
AcDbEntity
  8
1
  6
Continuous
100
AcDbLine
 10
559.3731889999998
 20
291.8163098471937
 30
0.0
 11
562.3731889999998
 21
291.8163098471937
 31
0.0
  0
LINE
  5
DCE7
330
DA2D
100
AcDbEntity
  8
1
  6
Continuous
100
AcDbLine
 10
566.1093339999998
 20
291.8163098471937
 30
0.0
 11
568.109334
 21
291.8163098471937
 31
0.0
  0
LINE
  5
DCE8
330
DA2D
100
AcDbEntity
  8
4
  6
CENTER
100
AcDbLine
 10
554.3731889999998
 20
302.8163098471937
 30
0.0
 11
573.109334
 21
302.8163098471937
 31
0.0
  0
LINE
  5
DCE9
330
DA2D
100
AcDbEntity
  8
1
  6
Continuous
100
AcDbLine
 10
559.3731889999998
 20
313.8163098471938
 30
0.0
 11
562.3731889999998
 21
313.8163098471938
 31
0.0
  0
LINE
  5
DCEA
330
DA2D
100
AcDbEntity
  8
1
  6
Continuous
100
AcDbLine
 10
566.1093339999998
 20
313.8163098471938
 30
0.0
 11
568.109334
 21
313.8163098471938
 31
0.0
  0
LINE
  5
DCEB
330
DA2D
100
AcDbEntity
  8
1
  6
Continuous
100
AcDbLine
 10
607.0783549999998
 20
320.3163098471938
 30
0.0
 11
605.678355
 21
320.3163098471938
 31
0.0
  0
LINE
  5
DCEC
330
DA2D
100
AcDbEntity
  8
1
  6
Continuous
100
AcDbLine
 10
607.0783549999998
 20
285.3163098471938
 30
0.0
 11
605.678355
 21
285.3163098471938
 31
0.0
  0
LINE
  5
DCED
330
DA2D
100
AcDbEntity
  8
4
  6
CENTER
100
AcDbLine
 10
611.978355
 20
302.8163098471937
 30
0.0
 11
590.3783550000001
 21
302.8163098471937
 31
0.0
  0
LINE
  5
DCEE
330
DA2D
100
AcDbEntity
  8
1
  6
Continuous
100
AcDbLine
 10
605.3783550000003
 20
318.8163098471938
 30
0.0
 11
605.3783550000003
 21
286.8163098471938
 31
0.0
  0
LINE
  5
DCEF
330
DA2D
100
AcDbEntity
  8
1
  6
Continuous
100
AcDbLine
 10
605.678355
 20
285.3163098471938
 30
0.0
 11
605.678355
 21
320.3163098471938
 31
0.0
  0
ARC
  5
DCF0
330
DA2D
100
AcDbEntity
  8
1
  6
Continuous
100
AcDbCircle
 10
558.0381599999998
 20
302.8163098471937
 30
0.0
 40
45.84019399999998
100
AcDbArc
 50
347.266894
 51
12.733106
  0
ARC
  5
DCF1
330
DA2D
100
AcDbEntity
  8
1
  6
Continuous
100
AcDbCircle
 10
642.7185490000002
 20
302.8163098471937
 30
0.0
 40
45.84019399999998
100
AcDbArc
 50
167.266894
 51
192.733106
  0
LINE
  5
DCF2
330
DA2D
100
AcDbEntity
  8
1
  6
Continuous
100
AcDbLine
 10
596.8783550000003
 20
285.3163098471938
 30
0.0
 11
596.8783550000003
 21
320.3163098471938
 31
0.0
  0
LINE
  5
DCF3
330
DA2D
100
AcDbEntity
  8
1
  6
Continuous
100
AcDbLine
 10
603.8783550000001
 20
285.3163098471938
 30
0.0
 11
603.8783550000001
 21
320.3163098471938
 31
0.0
  0
LINE
  5
DCF4
330
DA2D
100
AcDbEntity
  8
1
  6
Continuous
100
AcDbLine
 10
595.3783550000001
 20
286.8163098471938
 30
0.0
 11
595.3783550000001
 21
318.8163098471938
 31
0.0
  0
LINE
  5
DCF5
330
DA2D
100
AcDbEntity
  8
1
  6
Continuous
100
AcDbLine
 10
595.3783550000001
 20
286.8163098471938
 30
0.0
 11
596.8783550000003
 21
286.8163098471938
 31
0.0
  0
LINE
  5
DCF6
330
DA2D
100
AcDbEntity
  8
1
  6
Continuous
100
AcDbLine
 10
605.3783550000003
 20
286.8163098471938
 30
0.0
 11
603.8783550000001
 21
286.8163098471938
 31
0.0
  0
LINE
  5
DCF7
330
DA2D
100
AcDbEntity
  8
1
  6
Continuous
100
AcDbLine
 10
598.4413909999998
 20
282.6090508471938
 30
0.0
 11
602.3153179999998
 21
282.6090508471938
 31
0.0
  0
LINE
  5
DCF8
330
DA2D
100
AcDbEntity
  8
1
  6
Continuous
100
AcDbLine
 10
598.0056860000002
 20
292.7126798471937
 30
0.0
 11
602.751023
 21
292.7126798471937
 31
0.0
  0
ARC
  5
DCF9
330
DA2D
100
AcDbEntity
  8
1
  6
Continuous
100
AcDbCircle
 10
591.9955589999997
 20
287.6608658471937
 30
0.0
 40
11.882796
100
AcDbArc
 50
345.2736279999998
 51
25.159327
  0
ARC
  5
DCFA
330
DA2D
100
AcDbEntity
  8
1
  6
Continuous
100
AcDbCircle
 10
608.76115
 20
287.6608658471937
 30
0.0
 40
11.882796
100
AcDbArc
 50
154.840673
 51
194.726372
  0
LINE
  5
DCFB
330
DA2D
100
AcDbEntity
  8
1
  6
Continuous
100
AcDbLine
 10
605.3783550000003
 20
291.8791598471938
 30
0.0
 11
605.678355
 21
290.7210098471937
 31
0.0
  0
LINE
  5
DCFC
330
DA2D
100
AcDbEntity
  8
1
  6
Continuous
100
AcDbLine
 10
605.678355
 20
291.8791598471938
 30
0.0
 11
605.3783550000003
 21
291.8791598471938
 31
0.0
  0
LINE
  5
DCFD
330
DA2D
100
AcDbEntity
  8
1
  6
Continuous
100
AcDbLine
 10
605.3783550000003
 20
296.0567998471938
 30
0.0
 11
605.678355
 21
296.3568098471938
 31
0.0
  0
LINE
  5
DCFE
330
DA2D
100
AcDbEntity
  8
1
  6
Continuous
100
AcDbLine
 10
605.678355
 20
295.7567998471937
 30
0.0
 11
605.3783550000003
 21
296.0567998471938
 31
0.0
  0
LINE
  5
DCFF
330
DA2D
100
AcDbEntity
  8
1
  6
Continuous
100
AcDbLine
 10
603.8783550000001
 20
285.3163098471938
 30
0.0
 11
602.3153170000001
 21
282.6090498471939
 31
0.0
  0
LINE
  5
DD00
330
DA2D
100
AcDbEntity
  8
1
  6
Continuous
100
AcDbLine
 10
596.8783550000003
 20
285.3163098471938
 30
0.0
 11
598.4413919999998
 21
282.6090498471939
 31
0.0
  0
LINE
  5
DD01
330
DA2D
100
AcDbEntity
  8
1
  6
Continuous
100
AcDbLine
 10
595.3783550000001
 20
318.8163098471938
 30
0.0
 11
596.8783550000003
 21
318.8163098471938
 31
0.0
  0
LINE
  5
DD02
330
DA2D
100
AcDbEntity
  8
1
  6
Continuous
100
AcDbLine
 10
605.3783550000003
 20
318.8163098471938
 30
0.0
 11
603.8783550000001
 21
318.8163098471938
 31
0.0
  0
LINE
  5
DD03
330
DA2D
100
AcDbEntity
  8
1
  6
Continuous
100
AcDbLine
 10
598.0056860000002
 20
312.9199398471937
 30
0.0
 11
602.751023
 21
312.9199398471937
 31
0.0
  0
ARC
  5
DD04
330
DA2D
100
AcDbEntity
  8
1
  6
Continuous
100
AcDbCircle
 10
591.9955589999997
 20
317.9717548471939
 30
0.0
 40
11.882796
100
AcDbArc
 50
334.8406729999999
 51
14.726371
  0
ARC
  5
DD05
330
DA2D
100
AcDbEntity
  8
1
  6
Continuous
100
AcDbCircle
 10
608.76115
 20
317.9717548471939
 30
0.0
 40
11.882796
100
AcDbArc
 50
165.2736289999998
 51
205.159327
  0
LINE
  5
DD06
330
DA2D
100
AcDbEntity
  8
1
  6
Continuous
100
AcDbLine
 10
605.3783550000003
 20
302.8062598471937
 30
0.0
 11
605.678355
 21
302.5062598471937
 31
0.0
  0
LINE
  5
DD07
330
DA2D
100
AcDbEntity
  8
1
  6
Continuous
100
AcDbLine
 10
605.678355
 20
303.1062598471939
 30
0.0
 11
605.3783550000003
 21
302.8062598471937
 31
0.0
  0
LINE
  5
DD08
330
DA2D
100
AcDbEntity
  8
1
  6
Continuous
100
AcDbLine
 10
605.678355
 20
313.7534598471938
 30
0.0
 11
605.3783550000003
 21
313.7534598471938
 31
0.0
  0
LINE
  5
DD09
330
DA2D
100
AcDbEntity
  8
1
  6
Continuous
100
AcDbLine
 10
605.3783550000003
 20
313.7534598471938
 30
0.0
 11
605.678355
 21
314.9116098471937
 31
0.0
  0
LINE
  5
DD0A
330
DA2D
100
AcDbEntity
  8
1
  6
Continuous
100
AcDbLine
 10
605.678355
 20
309.8758398471937
 30
0.0
 11
605.3783550000003
 21
309.5758398471937
 31
0.0
  0
LINE
  5
DD0B
330
DA2D
100
AcDbEntity
  8
1
  6
Continuous
100
AcDbLine
 10
605.3783550000003
 20
309.5758398471937
 30
0.0
 11
605.678355
 21
309.2758398471938
 31
0.0
  0
LINE
  5
DD0C
330
DA2D
100
AcDbEntity
  8
1
  6
Continuous
100
AcDbLine
 10
607.0783549999998
 20
320.3163098471938
 30
0.0
 11
607.0783549999998
 21
285.3163098471938
 31
0.0
  0
LINE
  5
DD0D
330
DA2D
100
AcDbEntity
  8
1
  6
Continuous
100
AcDbLine
 10
607.3783550000001
 20
291.8791598471938
 30
0.0
 11
607.0783549999998
 21
290.7210098471937
 31
0.0
  0
LINE
  5
DD0E
330
DA2D
100
AcDbEntity
  8
1
  6
Continuous
100
AcDbLine
 10
607.0783549999998
 20
291.8791598471938
 30
0.0
 11
607.3783550000001
 21
291.8791598471938
 31
0.0
  0
LINE
  5
DD0F
330
DA2D
100
AcDbEntity
  8
1
  6
Continuous
100
AcDbLine
 10
607.3783550000001
 20
296.0567998471938
 30
0.0
 11
607.0783549999998
 21
295.7567998471937
 31
0.0
  0
LINE
  5
DD10
330
DA2D
100
AcDbEntity
  8
1
  6
Continuous
100
AcDbLine
 10
607.3783550000001
 20
296.0567998471938
 30
0.0
 11
607.0783549999998
 21
296.3568098471938
 31
0.0
  0
LINE
  5
DD11
330
DA2D
100
AcDbEntity
  8
1
  6
Continuous
100
AcDbLine
 10
607.3783550000001
 20
302.8263398471938
 30
0.0
 11
607.0783549999998
 21
303.1263398471937
 31
0.0
  0
LINE
  5
DD12
330
DA2D
100
AcDbEntity
  8
1
  6
Continuous
100
AcDbLine
 10
607.3783550000001
 20
302.8263398471938
 30
0.0
 11
607.0783549999998
 21
302.5263398471938
 31
0.0
  0
LINE
  5
DD13
330
DA2D
100
AcDbEntity
  8
1
  6
Continuous
100
AcDbLine
 10
607.0783549999998
 20
313.7534598471938
 30
0.0
 11
607.3783550000001
 21
313.7534598471938
 31
0.0
  0
LINE
  5
DD14
330
DA2D
100
AcDbEntity
  8
1
  6
Continuous
100
AcDbLine
 10
607.3783550000001
 20
313.7534598471938
 30
0.0
 11
607.0783549999998
 21
314.9116098471937
 31
0.0
  0
LINE
  5
DD15
330
DA2D
100
AcDbEntity
  8
1
  6
Continuous
100
AcDbLine
 10
607.3783550000001
 20
309.5758398471937
 30
0.0
 11
607.0783549999998
 21
309.2758398471938
 31
0.0
  0
LINE
  5
DD16
330
DA2D
100
AcDbEntity
  8
1
  6
Continuous
100
AcDbLine
 10
607.3783550000001
 20
309.5758398471937
 30
0.0
 11
607.0783549999998
 21
309.8758398471937
 31
0.0
  0
LINE
  5
DD17
330
DA2D
100
AcDbEntity
  8
1
  6
Continuous
100
AcDbLine
 10
598.4413919999998
 20
323.0235698471937
 30
0.0
 11
602.3153170000001
 21
323.0235698471937
 31
0.0
  0
LINE
  5
DD18
330
DA2D
100
AcDbEntity
  8
1
  6
Continuous
100
AcDbLine
 10
258.733666
 20
475.8440748471938
 30
0.0
 11
258.733666
 21
460.3440748471938
 31
0.0
  0
ARC
  5
DD19
330
DA2D
100
AcDbEntity
  8
1
  6
Continuous
100
AcDbCircle
 10
258.5336659999999
 20
475.8440748471938
 30
0.0
 40
0.2
100
AcDbArc
 50
0.0
 51
41.40962199999999
  0
ARC
  5
DD1A
330
DA2D
100
AcDbEntity
  8
1
  6
Continuous
100
AcDbCircle
 10
258.5336659999999
 20
460.3440748471938
 30
0.0
 40
0.2
100
AcDbArc
 50
318.5903779999998
 51
0.0
  0
LINE
  5
DD1B
330
DA2D
100
AcDbEntity
  8
1
  6
Continuous
100
AcDbLine
 10
258.733666
 20
309.6924028471939
 30
0.0
 11
258.733666
 21
295.9402168471939
 31
0.0
  0
ARC
  5
DD1C
330
DA2D
100
AcDbEntity
  8
1
  6
Continuous
100
AcDbCircle
 10
258.5336659999999
 20
310.5663098471937
 30
0.0
 40
0.2
100
AcDbArc
 50
0.0
 51
41.40962199999999
  0
LINE
  5
DD1D
330
DA2D
100
AcDbEntity
  8
1
  6
Continuous
100
AcDbLine
 10
258.733666
 20
310.5663098471937
 30
0.0
 11
258.733666
 21
295.0663098471938
 31
0.0
  0
ARC
  5
DD1E
330
DA2D
100
AcDbEntity
  8
1
  6
Continuous
100
AcDbCircle
 10
258.5336659999999
 20
295.0663098471938
 30
0.0
 40
0.2
100
AcDbArc
 50
318.5903779999998
 51
0.0
  0
LINE
  5
DD1F
330
DA2D
100
AcDbEntity
  8
1
  6
Continuous
100
AcDbLine
 10
258.733666
 20
74.41605929651776
 30
0.0
 11
258.733666
 21
60.66387329651775
 31
0.0
  0
ARC
  5
DD20
330
DA2D
100
AcDbEntity
  8
1
  6
Continuous
100
AcDbCircle
 10
258.5336659999999
 20
75.28996629651776
 30
0.0
 40
0.2
100
AcDbArc
 50
0.0
 51
41.40962199999999
  0
LINE
  5
DD21
330
DA2D
100
AcDbEntity
  8
1
  6
Continuous
100
AcDbLine
 10
258.733666
 20
75.28996629651776
 30
0.0
 11
258.733666
 21
59.78996629651775
 31
0.0
  0
ARC
  5
DD22
330
DA2D
100
AcDbEntity
  8
1
  6
Continuous
100
AcDbCircle
 10
258.5336659999999
 20
59.78996629651775
 30
0.0
 40
0.2
100
AcDbArc
 50
318.5903779999998
 51
0.0
  0
ARC
  5
DD23
330
DA2D
100
AcDbEntity
  8
1
  6
Continuous
100
AcDbCircle
 10
248.233666
 20
468.0940748471939
 30
0.0
 40
61.0
100
AcDbArc
 50
172.4640909999999
 51
187.535909
  0
ARC
  5
DD24
330
DA2D
100
AcDbEntity
  8
1
  6
Continuous
100
AcDbCircle
 10
248.233666
 20
468.0940748471939
 30
0.0
 40
60.5
100
AcDbArc
 50
169.042393
 51
190.957607
  0
ARC
  5
DD25
330
DA2D
100
AcDbEntity
  8
1
  6
Continuous
100
AcDbCircle
 10
248.233666
 20
468.0940748471939
 30
0.0
 40
60.0
100
AcDbArc
 50
167.7683659999999
 51
168.949935
  0
ARC
  5
DD26
330
DA2D
100
AcDbEntity
  8
1
  6
Continuous
100
AcDbCircle
 10
190.5730209999999
 20
480.5940748471939
 30
0.0
 40
1.0
100
AcDbArc
 50
90.0
 51
167.7683659999999
  0
ARC
  5
DD27
330
DA2D
100
AcDbEntity
  8
1
  6
Continuous
100
AcDbCircle
 10
190.5730209999999
 20
455.5940748471939
 30
0.0
 40
1.0
100
AcDbArc
 50
192.231634
 51
270.0
  0
ARC
  5
DD28
330
DA2D
100
AcDbEntity
  8
1
  6
Continuous
100
AcDbCircle
 10
248.233666
 20
468.0940748471939
 30
0.0
 40
60.0
100
AcDbArc
 50
191.0500649999999
 51
192.231634
  0
ARC
  5
DD29
330
DA2D
100
AcDbEntity
  8
1
  6
Continuous
100
AcDbCircle
 10
248.233666
 20
67.53996629651775
 30
0.0
 40
60.5
100
AcDbArc
 50
169.042393
 51
190.957607
  0
LINE
  5
DD2A
330
DA2D
100
AcDbEntity
  8
1
  6
Continuous
100
AcDbLine
 10
189.3460609999999
 20
56.03996629651775
 30
0.0
 11
188.8366959999999
 21
56.03996629651775
 31
0.0
  0
ARC
  5
DD2B
330
DA2D
100
AcDbEntity
  8
1
  6
Continuous
100
AcDbCircle
 10
248.233666
 20
67.53996629651775
 30
0.0
 40
61.0
100
AcDbArc
 50
172.4640909999999
 51
187.535909
  0
LINE
  5
DD2C
330
DA2D
100
AcDbEntity
  8
1
  6
Continuous
100
AcDbLine
 10
188.264924
 20
59.53996629651776
 30
0.0
 11
187.7605309999998
 21
59.53996629651776
 31
0.0
  0
LINE
  5
DD2D
330
DA2D
100
AcDbEntity
  8
1
  6
Continuous
100
AcDbLine
 10
188.264924
 20
75.53996629651773
 30
0.0
 11
187.7605309999998
 21
75.53996629651773
 31
0.0
  0
LINE
  5
DD2E
330
DA2D
100
AcDbEntity
  8
1
  6
Continuous
100
AcDbLine
 10
189.3460609999999
 20
79.03996629651776
 30
0.0
 11
188.8366959999999
 21
79.03996629651776
 31
0.0
  0
ARC
  5
DD2F
330
DA2D
100
AcDbEntity
  8
1
  6
Continuous
100
AcDbCircle
 10
256.233666
 20
67.53996629651775
 30
0.0
 40
60.0
100
AcDbArc
 50
173.0154499999999
 51
186.98455
  0
ARC
  5
DD30
330
DA2D
100
AcDbEntity
  8
1
  6
Continuous
100
AcDbCircle
 10
197.671506
 20
74.71446629651772
 30
0.0
 40
1.0
100
AcDbArc
 50
90.0
 51
173.0154499999999
  0
ARC
  5
DD31
330
DA2D
100
AcDbEntity
  8
1
  6
Continuous
100
AcDbCircle
 10
197.671506
 20
60.36546629651777
 30
0.0
 40
1.0
100
AcDbArc
 50
186.98455
 51
270.0
  0
ARC
  5
DD32
330
DA2D
100
AcDbEntity
  8
1
  6
Continuous
100
AcDbCircle
 10
248.233666
 20
67.53996629651775
 30
0.0
 40
60.0
100
AcDbArc
 50
167.7683659999999
 51
192.231634
  0
ARC
  5
DD33
330
DA2D
100
AcDbEntity
  8
1
  6
Continuous
100
AcDbCircle
 10
190.5730209999999
 20
55.03996629651775
 30
0.0
 40
1.0
100
AcDbArc
 50
192.231634
 51
270.0
  0
ARC
  5
DD34
330
DA2D
100
AcDbEntity
  8
1
  6
Continuous
100
AcDbCircle
 10
190.5730209999999
 20
80.03996629651776
 30
0.0
 40
1.0
100
AcDbArc
 50
90.0
 51
167.7683659999999
  0
LINE
  5
DD35
330
DA2D
100
AcDbEntity
  8
1
  6
Continuous
100
AcDbLine
 10
197.0087849999999
 20
75.46333229651778
 30
0.0
 11
189.945272
 21
80.81838229651777
 31
0.0
  0
LINE
  5
DD36
330
DA2D
100
AcDbEntity
  8
1
  6
Continuous
100
AcDbLine
 10
197.0087849999999
 20
59.61659929651776
 30
0.0
 11
189.945272
 21
54.26154929651777
 31
0.0
  0
LINE
  5
DD37
330
DA2D
100
AcDbEntity
  8
1
  6
Continuous
100
AcDbLine
 10
187.7336659999999
 20
300.8163098471937
 30
0.0
 11
187.2336659999999
 21
300.3163098471937
 31
0.0
  0
LINE
  5
DD38
330
DA2D
100
AcDbEntity
  8
1
  6
Continuous
100
AcDbLine
 10
188.8366959999999
 20
317.1347578471937
 30
0.0
 11
188.8366959999999
 21
285.8163098471937
 31
0.0
  0
LINE
  5
DD39
330
DA2D
100
AcDbEntity
  8
1
  6
Continuous
100
AcDbLine
 10
189.3460609999999
 20
317.1347578471937
 30
0.0
 11
189.3460609999999
 21
285.8163098471937
 31
0.0
  0
LINE
  5
DD3A
330
DA2D
100
AcDbEntity
  8
1
  6
Continuous
100
AcDbLine
 10
187.2336659999999
 20
300.3163098471937
 30
0.0
 11
187.7336659999999
 21
299.8163098471938
 31
0.0
  0
LINE
  5
DD3B
330
DA2D
100
AcDbEntity
  8
1
  6
Continuous
100
AcDbLine
 10
187.7336659999999
 20
299.8163098471938
 30
0.0
 11
187.2336659999999
 21
299.3163098471938
 31
0.0
  0
LINE
  5
DD3C
330
DA2D
100
AcDbEntity
  8
1
  6
Continuous
100
AcDbLine
 10
187.2336659999999
 20
299.3163098471938
 30
0.0
 11
187.7336659999999
 21
298.8163098471937
 31
0.0
  0
LINE
  5
DD3D
330
DA2D
100
AcDbEntity
  8
1
  6
Continuous
100
AcDbLine
 10
187.7336659999999
 20
298.8163098471937
 30
0.0
 11
187.2336659999999
 21
298.3163098471937
 31
0.0
  0
LINE
  5
DD3E
330
DA2D
100
AcDbEntity
  8
1
  6
Continuous
100
AcDbLine
 10
187.2336659999999
 20
298.3163098471937
 30
0.0
 11
187.7336659999999
 21
297.8163098471938
 31
0.0
  0
LINE
  5
DD3F
330
DA2D
100
AcDbEntity
  8
1
  6
Continuous
100
AcDbLine
 10
187.7336659999999
 20
297.8163098471938
 30
0.0
 11
187.2336659999999
 21
297.3163098471938
 31
0.0
  0
LINE
  5
DD40
330
DA2D
100
AcDbEntity
  8
1
  6
Continuous
100
AcDbLine
 10
187.2336659999999
 20
297.3163098471938
 30
0.0
 11
187.7336659999999
 21
296.8163098471937
 31
0.0
  0
LINE
  5
DD41
330
DA2D
100
AcDbEntity
  8
1
  6
Continuous
100
AcDbLine
 10
187.7336659999999
 20
296.8163098471937
 30
0.0
 11
187.2336659999999
 21
296.3163098471937
 31
0.0
  0
LINE
  5
DD42
330
DA2D
100
AcDbEntity
  8
1
  6
Continuous
100
AcDbLine
 10
187.7336659999999
 20
295.8163098471938
 30
0.0
 11
187.2336659999999
 21
295.3163098471938
 31
0.0
  0
LINE
  5
DD43
330
DA2D
100
AcDbEntity
  8
1
  6
Continuous
100
AcDbLine
 10
187.2336659999999
 20
295.3163098471938
 30
0.0
 11
187.7336659999999
 21
294.8163098471937
 31
0.0
  0
LINE
  5
DD44
330
DA2D
100
AcDbEntity
  8
1
  6
Continuous
100
AcDbLine
 10
187.7336659999999
 20
294.8163098471937
 30
0.0
 11
187.2336659999999
 21
294.3163098471937
 31
0.0
  0
LINE
  5
DD45
330
DA2D
100
AcDbEntity
  8
1
  6
Continuous
100
AcDbLine
 10
187.2336659999999
 20
294.3163098471937
 30
0.0
 11
187.7336659999999
 21
293.8163098471937
 31
0.0
  0
LINE
  5
DD46
330
DA2D
100
AcDbEntity
  8
1
  6
Continuous
100
AcDbLine
 10
187.7336659999999
 20
293.8163098471937
 30
0.0
 11
187.2336659999999
 21
293.3163098471938
 31
0.0
  0
LINE
  5
DD47
330
DA2D
100
AcDbEntity
  8
1
  6
Continuous
100
AcDbLine
 10
187.2336659999999
 20
293.3163098471938
 30
0.0
 11
187.7336659999999
 21
292.8163098471937
 31
0.0
  0
LINE
  5
DD48
330
DA2D
100
AcDbEntity
  8
1
  6
Continuous
100
AcDbLine
 10
187.7336659999999
 20
292.8163098471937
 30
0.0
 11
187.2336659999999
 21
292.3163098471937
 31
0.0
  0
LINE
  5
DD49
330
DA2D
100
AcDbEntity
  8
1
  6
Continuous
100
AcDbLine
 10
187.2336659999999
 20
292.3163098471937
 30
0.0
 11
187.7336659999999
 21
291.8163098471937
 31
0.0
  0
LINE
  5
DD4A
330
DA2D
100
AcDbEntity
  8
1
  6
Continuous
100
AcDbLine
 10
187.7336659999999
 20
291.8163098471937
 30
0.0
 11
187.2336659999999
 21
291.3163098471938
 31
0.0
  0
LINE
  5
DD4B
330
DA2D
100
AcDbEntity
  8
1
  6
Continuous
100
AcDbLine
 10
187.2336659999999
 20
291.3163098471938
 30
0.0
 11
187.7336659999999
 21
290.8163098471938
 31
0.0
  0
LINE
  5
DD4C
330
DA2D
100
AcDbEntity
  8
1
  6
Continuous
100
AcDbLine
 10
187.7336659999999
 20
290.8163098471938
 30
0.0
 11
187.2336659999999
 21
290.3163098471937
 31
0.0
  0
LINE
  5
DD4D
330
DA2D
100
AcDbEntity
  8
1
  6
Continuous
100
AcDbLine
 10
187.2336659999999
 20
290.3163098471937
 30
0.0
 11
187.7336659999999
 21
289.8163098471938
 31
0.0
  0
LINE
  5
DD4E
330
DA2D
100
AcDbEntity
  8
1
  6
Continuous
100
AcDbLine
 10
187.7336659999999
 20
289.8163098471938
 30
0.0
 11
187.2336659999999
 21
289.3163098471937
 31
0.0
  0
LINE
  5
DD4F
330
DA2D
100
AcDbEntity
  8
1
  6
Continuous
100
AcDbLine
 10
187.2336659999999
 20
289.3163098471937
 30
0.0
 11
187.7336659999999
 21
288.8163098471938
 31
0.0
  0
LINE
  5
DD50
330
DA2D
100
AcDbEntity
  8
1
  6
Continuous
100
AcDbLine
 10
187.7336659999999
 20
285.8163098471937
 30
0.0
 11
189.3460609999999
 21
285.8163098471937
 31
0.0
  0
LINE
  5
DD51
330
DA2D
100
AcDbEntity
  8
1
  6
Continuous
100
AcDbLine
 10
187.7336659999999
 20
288.8163098471938
 30
0.0
 11
187.7336659999999
 21
285.8163098471937
 31
0.0
  0
LINE
  5
DD52
330
DA2D
100
AcDbEntity
  8
1
  6
Continuous
100
AcDbLine
 10
187.2336659999999
 20
296.3163098471937
 30
0.0
 11
187.7336659999999
 21
295.8163098471938
 31
0.0
  0
ARC
  5
DD53
330
DA2D
100
AcDbEntity
  8
1
  6
Continuous
100
AcDbCircle
 10
188.7336659999999
 20
318.8163098471938
 30
0.0
 40
1.0
100
AcDbArc
 50
90.0
 51
180.0
  0
LINE
  5
DD54
330
DA2D
100
AcDbEntity
  8
1
  6
Continuous
100
AcDbLine
 10
189.3460609999999
 20
317.1347578471937
 30
0.0
 11
190.1421839999999
 21
315.9804578471938
 31
0.0
  0
ARC
  5
DD55
330
DA2D
100
AcDbEntity
  8
1
  6
Continuous
100
AcDbCircle
 10
190.7721399999998
 20
314.9030508471938
 30
0.0
 40
1.0
100
AcDbArc
 50
90.0
 51
180.0
  0
LINE
  5
DD56
330
DA2D
100
AcDbEntity
  8
1
  6
Continuous
100
AcDbLine
 10
188.8366959999999
 20
317.1347578471937
 30
0.0
 11
189.3460609999999
 21
317.1347578471937
 31
0.0
  0
LINE
  5
DD57
330
DA2D
100
AcDbEntity
  8
1
  6
Continuous
100
AcDbLine
 10
188.8366959999999
 20
317.1347578471937
 30
0.0
 11
188.4181089999999
 21
318.9509658471937
 31
0.0
  0
LINE
  5
DD58
330
DA2D
100
AcDbEntity
  8
1
  6
Continuous
100
AcDbLine
 10
187.7336659999999
 20
318.8163098471938
 30
0.0
 11
187.7336659999999
 21
300.8163098471937
 31
0.0
  0
LINE
  5
DD59
330
DA2D
100
AcDbEntity
  8
1
  6
Continuous
100
AcDbLine
 10
656.846258
 20
293.0663098471938
 30
0.0
 11
635.7962579999997
 21
293.0663098471938
 31
0.0
  0
LINE
  5
DD5A
330
DA2D
100
AcDbEntity
  8
1
  6
Continuous
100
AcDbLine
 10
656.846258
 20
312.5663098471938
 30
0.0
 11
635.7962579999997
 21
312.5663098471938
 31
0.0
  0
LINE
  5
DD5B
330
DA2D
100
AcDbEntity
  8
4
  6
CENTER
100
AcDbLine
 10
709.893552
 20
302.8163098471937
 30
0.0
 11
622.496258
 21
302.8163098471937
 31
0.0
  0
LINE
  5
DD5C
330
DA2D
100
AcDbEntity
  8
1
  6
Continuous
100
AcDbLine
 10
706.9462579999998
 20
299.3163098471938
 30
0.0
 11
706.4462579999998
 21
298.8163098471937
 31
0.0
  0
LINE
  5
DD5D
330
DA2D
100
AcDbEntity
  8
1
  6
Continuous
100
AcDbLine
 10
705.3432279999998
 20
317.1347578471937
 30
0.0
 11
705.3432279999998
 21
285.8163098471937
 31
0.0
  0
LINE
  5
DD5E
330
DA2D
100
AcDbEntity
  8
1
  6
Continuous
100
AcDbLine
 10
704.8338629999998
 20
317.1347578471937
 30
0.0
 11
704.8338629999998
 21
285.8163098471937
 31
0.0
  0
LINE
  5
DD5F
330
DA2D
100
AcDbEntity
  8
1
  6
Continuous
100
AcDbLine
 10
672.396258
 20
288.9548018471937
 30
0.0
 11
672.396258
 21
316.6881738471938
 31
0.0
  0
LINE
  5
DD60
330
DA2D
100
AcDbEntity
  8
1
  6
Continuous
100
AcDbLine
 10
672.4462579999998
 20
288.8163098471938
 30
0.0
 11
672.4462579999998
 21
316.8163098471937
 31
0.0
  0
LINE
  5
DD61
330
DA2D
100
AcDbEntity
  8
1
  6
Continuous
100
AcDbLine
 10
658.846258
 20
332.8163098471938
 30
0.0
 11
658.846258
 21
272.8163098471938
 31
0.0
  0
LINE
  5
DD62
330
DA2D
100
AcDbEntity
  8
1
  6
Continuous
100
AcDbLine
 10
656.846258
 20
332.8163098471938
 30
0.0
 11
656.846258
 21
272.8163098471938
 31
0.0
  0
LINE
  5
DD63
330
DA2D
100
AcDbEntity
  8
1
  6
Continuous
100
AcDbLine
 10
662.846258
 20
326.5267378471937
 30
0.0
 11
662.846258
 21
279.1058818471938
 31
0.0
  0
LINE
  5
DD64
330
DA2D
100
AcDbEntity
  8
1
  6
Continuous
100
AcDbLine
 10
684.9462579999998
 20
193.5026018471938
 30
0.0
 11
684.9462579999998
 21
190.8163098471938
 31
0.0
  0
LINE
  5
DD65
330
DA2D
100
AcDbEntity
  8
1
  6
Continuous
100
AcDbLine
 10
705.2342369999997
 20
268.9550668471937
 30
0.0
 11
698.101207
 21
184.6476978471938
 31
0.0
  0
ARC
  5
DD66
330
DA2D
100
AcDbEntity
  8
1
  6
Continuous
100
AcDbCircle
 10
692.9462579999998
 20
190.8163098471938
 30
0.0
 40
8.0
100
AcDbArc
 50
180.0
 51
270.0
  0
LINE
  5
DD67
330
DA2D
100
AcDbEntity
  8
1
  6
Continuous
100
AcDbLine
 10
696.1083269999996
 20
182.8163098471938
 30
0.0
 11
692.9462579999998
 21
182.8163098471938
 31
0.0
  0
ARC
  5
DD68
330
DA2D
100
AcDbEntity
  8
1
  6
Continuous
100
AcDbCircle
 10
696.1083269999996
 20
184.8163098471938
 30
0.0
 40
2.0
100
AcDbArc
 50
270.0
 51
355.1638689999998
  0
ARC
  5
DD69
330
DA2D
100
AcDbEntity
  8
1
  6
Continuous
100
AcDbCircle
 10
505.9462579999998
 20
285.8163098471937
 30
0.0
 40
200.0
100
AcDbArc
 50
355.1638689999998
 51
0.0
  0
LINE
  5
DD6A
330
DA2D
100
AcDbEntity
  8
1
  6
Continuous
100
AcDbLine
 10
706.4462579999998
 20
298.8163098471937
 30
0.0
 11
706.9462579999998
 21
298.3163098471937
 31
0.0
  0
LINE
  5
DD6B
330
DA2D
100
AcDbEntity
  8
1
  6
Continuous
100
AcDbLine
 10
706.9462579999998
 20
298.3163098471937
 30
0.0
 11
706.4462579999998
 21
297.8163098471938
 31
0.0
  0
LINE
  5
DD6C
330
DA2D
100
AcDbEntity
  8
1
  6
Continuous
100
AcDbLine
 10
706.4462579999998
 20
297.8163098471938
 30
0.0
 11
706.9462579999998
 21
297.3163098471938
 31
0.0
  0
LINE
  5
DD6D
330
DA2D
100
AcDbEntity
  8
1
  6
Continuous
100
AcDbLine
 10
706.9462579999998
 20
297.3163098471938
 30
0.0
 11
706.4462579999998
 21
296.8163098471937
 31
0.0
  0
LINE
  5
DD6E
330
DA2D
100
AcDbEntity
  8
1
  6
Continuous
100
AcDbLine
 10
706.4462579999998
 20
296.8163098471937
 30
0.0
 11
706.9462579999998
 21
296.3163098471937
 31
0.0
  0
LINE
  5
DD6F
330
DA2D
100
AcDbEntity
  8
1
  6
Continuous
100
AcDbLine
 10
706.4462579999998
 20
295.8163098471938
 30
0.0
 11
706.9462579999998
 21
295.3163098471938
 31
0.0
  0
LINE
  5
DD70
330
DA2D
100
AcDbEntity
  8
1
  6
Continuous
100
AcDbLine
 10
706.9462579999998
 20
295.3163098471938
 30
0.0
 11
706.4462579999998
 21
294.8163098471937
 31
0.0
  0
LINE
  5
DD71
330
DA2D
100
AcDbEntity
  8
1
  6
Continuous
100
AcDbLine
 10
706.4462579999998
 20
294.8163098471937
 30
0.0
 11
706.9462579999998
 21
294.3163098471937
 31
0.0
  0
LINE
  5
DD72
330
DA2D
100
AcDbEntity
  8
1
  6
Continuous
100
AcDbLine
 10
706.9462579999998
 20
294.3163098471937
 30
0.0
 11
706.4462579999998
 21
293.8163098471937
 31
0.0
  0
LINE
  5
DD73
330
DA2D
100
AcDbEntity
  8
1
  6
Continuous
100
AcDbLine
 10
706.4462579999998
 20
293.8163098471937
 30
0.0
 11
706.9462579999998
 21
293.3163098471938
 31
0.0
  0
LINE
  5
DD74
330
DA2D
100
AcDbEntity
  8
1
  6
Continuous
100
AcDbLine
 10
706.9462579999998
 20
293.3163098471938
 30
0.0
 11
706.4462579999998
 21
292.8163098471937
 31
0.0
  0
LINE
  5
DD75
330
DA2D
100
AcDbEntity
  8
1
  6
Continuous
100
AcDbLine
 10
706.4462579999998
 20
292.8163098471937
 30
0.0
 11
706.9462579999998
 21
292.3163098471937
 31
0.0
  0
LINE
  5
DD76
330
DA2D
100
AcDbEntity
  8
1
  6
Continuous
100
AcDbLine
 10
706.9462579999998
 20
292.3163098471937
 30
0.0
 11
706.4462579999998
 21
291.8163098471937
 31
0.0
  0
LINE
  5
DD77
330
DA2D
100
AcDbEntity
  8
1
  6
Continuous
100
AcDbLine
 10
706.4462579999998
 20
291.8163098471937
 30
0.0
 11
706.9462579999998
 21
291.3163098471938
 31
0.0
  0
LINE
  5
DD78
330
DA2D
100
AcDbEntity
  8
1
  6
Continuous
100
AcDbLine
 10
706.9462579999998
 20
291.3163098471938
 30
0.0
 11
706.4462579999998
 21
290.8163098471938
 31
0.0
  0
LINE
  5
DD79
330
DA2D
100
AcDbEntity
  8
1
  6
Continuous
100
AcDbLine
 10
706.4462579999998
 20
290.8163098471938
 30
0.0
 11
706.9462579999998
 21
290.3163098471937
 31
0.0
  0
LINE
  5
DD7A
330
DA2D
100
AcDbEntity
  8
1
  6
Continuous
100
AcDbLine
 10
706.9462579999998
 20
290.3163098471937
 30
0.0
 11
706.4462579999998
 21
289.8163098471938
 31
0.0
  0
LINE
  5
DD7B
330
DA2D
100
AcDbEntity
  8
1
  6
Continuous
100
AcDbLine
 10
706.4462579999998
 20
289.8163098471938
 30
0.0
 11
706.9462579999998
 21
289.3163098471937
 31
0.0
  0
LINE
  5
DD7C
330
DA2D
100
AcDbEntity
  8
1
  6
Continuous
100
AcDbLine
 10
706.9462579999998
 20
289.3163098471937
 30
0.0
 11
706.4462579999998
 21
288.8163098471938
 31
0.0
  0
LINE
  5
DD7D
330
DA2D
100
AcDbEntity
  8
1
  6
Continuous
100
AcDbLine
 10
706.4462579999998
 20
285.8163098471937
 30
0.0
 11
704.8338629999998
 21
285.8163098471937
 31
0.0
  0
LINE
  5
DD7E
330
DA2D
100
AcDbEntity
  8
1
  6
Continuous
100
AcDbLine
 10
706.4462579999998
 20
288.8163098471938
 30
0.0
 11
706.4462579999998
 21
285.8163098471937
 31
0.0
  0
LINE
  5
DD7F
330
DA2D
100
AcDbEntity
  8
1
  6
Continuous
100
AcDbLine
 10
706.9462579999998
 20
296.3163098471937
 30
0.0
 11
706.4462579999998
 21
295.8163098471938
 31
0.0
  0
LINE
  5
DD80
330
DA2D
100
AcDbEntity
  8
1
  6
Continuous
100
AcDbLine
 10
690.9462579999998
 20
285.6728958471937
 30
0.0
 11
690.9462579999998
 21
204.8873778471938
 31
0.0
  0
ARC
  5
DD81
330
DA2D
100
AcDbEntity
  8
1
  6
Continuous
100
AcDbCircle
 10
692.9462579999998
 20
193.5026018471938
 30
0.0
 40
8.0
100
AcDbArc
 50
135.0
 51
180.0
  0
LINE
  5
DD82
330
DA2D
100
AcDbEntity
  8
1
  6
Continuous
100
AcDbLine
 10
687.289404
 20
199.1594558471938
 30
0.0
 11
689.481792
 21
201.3518438471938
 31
0.0
  0
ARC
  5
DD83
330
DA2D
100
AcDbEntity
  8
1
  6
Continuous
100
AcDbCircle
 10
685.9462579999998
 20
204.8873778471938
 30
0.0
 40
5.0
100
AcDbArc
 50
315.0
 51
0.0
  0
LINE
  5
DD84
330
DA2D
100
AcDbEntity
  8
1
  6
Continuous
100
AcDbLine
 10
663.4157229999997
 20
279.1058818471938
 30
0.0
 11
672.3846299999999
 21
292.5241678471939
 31
0.0
  0
LINE
  5
DD85
330
DA2D
100
AcDbEntity
  8
1
  6
Continuous
100
AcDbLine
 10
672.3352589999998
 20
288.7154728471937
 30
0.0
 11
663.4182369999997
 21
273.8589938471938
 31
0.0
  0
ARC
  5
DD86
330
DA2D
100
AcDbEntity
  8
1
  6
Continuous
100
AcDbCircle
 10
684.9462579999998
 20
285.6728958471937
 30
0.0
 40
6.0
100
AcDbArc
 50
0.0
 51
84.88268499999998
  0
LINE
  5
DD87
330
DA2D
100
AcDbEntity
  8
1
  6
Continuous
100
AcDbLine
 10
672.4462579999998
 20
288.8163098471938
 30
0.0
 11
689.288006
 21
287.3080938471937
 31
0.0
  0
ARC
  5
DD88
330
DA2D
100
AcDbEntity
  8
1
  6
Continuous
100
AcDbCircle
 10
687.9500759999999
 20
272.3678818471938
 30
0.0
 40
15.0
100
AcDbArc
 50
79.148036
 51
84.88268499999998
  0
LINE
  5
DD89
330
DA2D
100
AcDbEntity
  8
1
  6
Continuous
100
AcDbLine
 10
672.4462579999998
 20
292.8163098471937
 30
0.0
 11
685.4814299999998
 21
291.6489808471938
 31
0.0
  0
ARC
  5
DD8A
330
DA2D
100
AcDbEntity
  8
1
  6
Continuous
100
AcDbCircle
 10
671.896258
 20
288.9548018471937
 30
0.0
 40
0.5
100
AcDbArc
 50
329.036243
 51
0.0
  0
LINE
  5
DD8B
330
DA2D
100
AcDbEntity
  8
1
  6
Continuous
100
AcDbLine
 10
672.4462579999998
 20
292.8163098471937
 30
0.0
 11
672.396258
 21
292.8163098471937
 31
0.0
  0
LINE
  5
DD8C
330
DA2D
100
AcDbEntity
  8
1
  6
Continuous
100
AcDbLine
 10
656.846258
 20
278.8163098471938
 30
0.0
 11
653.346258
 21
278.8163098471938
 31
0.0
  0
LINE
  5
DD8D
330
DA2D
100
AcDbEntity
  8
1
  6
Continuous
100
AcDbLine
 10
656.846258
 20
285.3163098471938
 30
0.0
 11
653.346258
 21
285.3163098471938
 31
0.0
  0
LINE
  5
DD8E
330
DA2D
100
AcDbEntity
  8
1
  6
Continuous
100
AcDbLine
 10
662.846258
 20
273.8543958471938
 30
0.0
 11
662.846258
 21
278.2539118471938
 31
0.0
  0
LINE
  5
DD8F
330
DA2D
100
AcDbEntity
  8
1
  6
Continuous
100
AcDbLine
 10
661.662234
 20
272.8163098471938
 30
0.0
 11
656.846258
 21
272.8163098471938
 31
0.0
  0
ARC
  5
DD90
330
DA2D
100
AcDbEntity
  8
1
  6
Continuous
100
AcDbCircle
 10
661.662234
 20
274.8163098471938
 30
0.0
 40
2.0
100
AcDbArc
 50
270.0
 51
331.402214
  0
LINE
  5
DD91
330
DA2D
100
AcDbEntity
  8
1
  6
Continuous
100
AcDbLine
 10
653.346258
 20
285.3163098471938
 30
0.0
 11
653.346258
 21
278.8163098471938
 31
0.0
  0
LINE
  5
DD92
330
DA2D
100
AcDbEntity
  8
1
  6
Continuous
100
AcDbLine
 10
703.407784
 20
315.9030508471938
 30
0.0
 11
692.903316
 21
315.9030508471938
 31
0.0
  0
LINE
  5
DD93
330
DA2D
100
AcDbEntity
  8
1
  6
Continuous
100
AcDbLine
 10
705.4462579999998
 20
319.8163098471937
 30
0.0
 11
692.903316
 21
319.8163098471937
 31
0.0
  0
LINE
  5
DD94
330
DA2D
100
AcDbEntity
  8
1
  6
Continuous
100
AcDbLine
 10
706.4462579999998
 20
300.8163098471937
 30
0.0
 11
706.9462579999998
 21
300.3163098471937
 31
0.0
  0
ARC
  5
DD95
330
DA2D
100
AcDbEntity
  8
1
  6
Continuous
100
AcDbCircle
 10
705.4462579999998
 20
318.8163098471938
 30
0.0
 40
1.0
100
AcDbArc
 50
0.0
 51
90.0
  0
LINE
  5
DD96
330
DA2D
100
AcDbEntity
  8
1
  6
Continuous
100
AcDbLine
 10
704.8338629999998
 20
317.1347578471937
 30
0.0
 11
704.0377399999997
 21
315.9804578471938
 31
0.0
  0
LINE
  5
DD97
330
DA2D
100
AcDbEntity
  8
1
  6
Continuous
100
AcDbLine
 10
705.3432279999998
 20
317.1347578471937
 30
0.0
 11
704.8338629999998
 21
317.1347578471937
 31
0.0
  0
LINE
  5
DD98
330
DA2D
100
AcDbEntity
  8
1
  6
Continuous
100
AcDbLine
 10
705.3432279999998
 20
317.1347578471937
 30
0.0
 11
705.7618149999998
 21
318.9509658471937
 31
0.0
  0
LINE
  5
DD99
330
DA2D
100
AcDbEntity
  8
1
  6
Continuous
100
AcDbLine
 10
706.4462579999998
 20
318.8163098471938
 30
0.0
 11
706.4462579999998
 21
300.8163098471937
 31
0.0
  0
LINE
  5
DD9A
330
DA2D
100
AcDbEntity
  8
1
  6
Continuous
100
AcDbLine
 10
706.4462579999998
 20
299.8163098471938
 30
0.0
 11
706.9462579999998
 21
299.3163098471938
 31
0.0
  0
LINE
  5
DD9B
330
DA2D
100
AcDbEntity
  8
1
  6
Continuous
100
AcDbLine
 10
706.9462579999998
 20
300.3163098471937
 30
0.0
 11
706.4462579999998
 21
299.8163098471938
 31
0.0
  0
ARC
  5
DD9C
330
DA2D
100
AcDbEntity
  8
1
  6
Continuous
100
AcDbCircle
 10
703.407784
 20
314.9030508471938
 30
0.0
 40
1.0
100
AcDbArc
 50
0.0
 51
90.0
  0
LINE
  5
DD9D
330
DA2D
100
AcDbEntity
  8
1
  6
Continuous
100
AcDbLine
 10
672.335195
 20
316.9276198471937
 30
0.0
 11
663.4179820000001
 21
331.7740928471938
 31
0.0
  0
LINE
  5
DD9E
330
DA2D
100
AcDbEntity
  8
1
  6
Continuous
100
AcDbLine
 10
663.4157229999997
 20
326.5267378471937
 30
0.0
 11
672.3846299999999
 21
313.1084518471938
 31
0.0
  0
LINE
  5
DD9F
330
DA2D
100
AcDbEntity
  8
1
  6
Continuous
100
AcDbLine
 10
691.397829
 20
319.7023358471937
 30
0.0
 11
672.4462579999998
 21
316.8163098471937
 31
0.0
  0
LINE
  5
DDA0
330
DA2D
100
AcDbEntity
  8
1
  6
Continuous
100
AcDbLine
 10
691.9869650000001
 20
315.8336778471938
 30
0.0
 11
673.035394
 21
312.9476518471938
 31
0.0
  0
ARC
  5
DDA1
330
DA2D
100
AcDbEntity
  8
1
  6
Continuous
100
AcDbCircle
 10
692.903316
 20
309.8163098471938
 30
0.0
 40
6.086740999999999
100
AcDbArc
 50
90.0
 51
98.65872100000002
  0
ARC
  5
DDA2
330
DA2D
100
AcDbEntity
  8
1
  6
Continuous
100
AcDbCircle
 10
692.903316
 20
309.8163098471938
 30
0.0
 40
10.0
100
AcDbArc
 50
90.0
 51
98.65872100000002
  0
ARC
  5
DDA3
330
DA2D
100
AcDbEntity
  8
1
  6
Continuous
100
AcDbCircle
 10
671.896258
 20
316.6881738471938
 30
0.0
 40
0.5
100
AcDbArc
 50
0.0
 51
28.747914
  0
LINE
  5
DDA4
330
DA2D
100
AcDbEntity
  8
1
  6
Continuous
100
AcDbLine
 10
672.4462579999998
 20
315.3163098471937
 30
0.0
 11
672.396258
 21
315.3163098471937
 31
0.0
  0
LINE
  5
DDA5
330
DA2D
100
AcDbEntity
  8
1
  6
Continuous
100
AcDbLine
 10
672.4462579999998
 20
312.4857208471938
 30
0.0
 11
672.396258
 21
312.4857208471938
 31
0.0
  0
LINE
  5
DDA6
330
DA2D
100
AcDbEntity
  8
1
  6
Continuous
100
AcDbLine
 10
653.346258
 20
326.8163098471938
 30
0.0
 11
653.346258
 21
320.3163098471938
 31
0.0
  0
LINE
  5
DDA7
330
DA2D
100
AcDbEntity
  8
1
  6
Continuous
100
AcDbLine
 10
656.846258
 20
320.3163098471938
 30
0.0
 11
653.346258
 21
320.3163098471938
 31
0.0
  0
LINE
  5
DDA8
330
DA2D
100
AcDbEntity
  8
1
  6
Continuous
100
AcDbLine
 10
656.846258
 20
326.8163098471938
 30
0.0
 11
653.346258
 21
326.8163098471938
 31
0.0
  0
LINE
  5
DDA9
330
DA2D
100
AcDbEntity
  8
1
  6
Continuous
100
AcDbLine
 10
661.662234
 20
332.8163098471938
 30
0.0
 11
656.846258
 21
332.8163098471938
 31
0.0
  0
ARC
  5
DDAA
330
DA2D
100
AcDbEntity
  8
1
  6
Continuous
100
AcDbCircle
 10
661.662234
 20
330.8163098471938
 30
0.0
 40
2.0
100
AcDbArc
 50
28.613039
 51
90.0
  0
LINE
  5
DDAB
330
DA2D
100
AcDbEntity
  8
1
  6
Continuous
100
AcDbLine
 10
662.846258
 20
331.7782238471938
 30
0.0
 11
662.846258
 21
327.3787078471938
 31
0.0
  0
LINE
  5
DDAC
330
DA2D
100
AcDbEntity
  8
1
  6
Continuous
100
AcDbLine
 10
635.4462579999998
 20
310.5663098471937
 30
0.0
 11
635.4462579999998
 21
295.0663098471938
 31
0.0
  0
LINE
  5
DDAD
330
DA2D
100
AcDbEntity
  8
1
  6
Continuous
100
AcDbLine
 10
635.4462579999998
 20
309.6924028471939
 30
0.0
 11
635.4462579999998
 21
295.9402168471939
 31
0.0
  0
LINE
  5
DDAE
330
DA2D
100
AcDbEntity
  8
1
  6
Continuous
100
AcDbLine
 10
635.496258
 20
312.2663098471939
 30
0.0
 11
635.496258
 21
293.3663098471938
 31
0.0
  0
LINE
  5
DDAF
330
DA2D
100
AcDbEntity
  8
1
  6
Continuous
100
AcDbLine
 10
627.4462579999998
 20
309.3924028471937
 30
0.0
 11
627.4462579999998
 21
296.2402168471937
 31
0.0
  0
LINE
  5
DDB0
330
DA2D
100
AcDbEntity
  8
2
  6
Continuous
100
AcDbLine
 10
635.4462579999998
 20
295.9402168471939
 30
0.0
 11
627.7462579999999
 21
302.8163098471937
 31
0.0
  0
LINE
  5
DDB1
330
DA2D
100
AcDbEntity
  8
2
  6
Continuous
100
AcDbLine
 10
635.4462579999998
 20
302.8163098471937
 30
0.0
 11
627.7462579999999
 21
295.9402168471939
 31
0.0
  0
ARC
  5
DDB2
330
DA2D
100
AcDbEntity
  8
1
  6
Continuous
100
AcDbCircle
 10
635.6462579999997
 20
295.0663098471938
 30
0.0
 40
0.2
100
AcDbArc
 50
180.0
 51
221.409622
  0
LINE
  5
DDB3
330
DA2D
100
AcDbEntity
  8
1
  6
Continuous
100
AcDbLine
 10
627.7462579999999
 20
295.9402168471939
 30
0.0
 11
635.4462579999998
 21
295.9402168471939
 31
0.0
  0
ARC
  5
DDB4
330
DA2D
100
AcDbEntity
  8
1
  6
Continuous
100
AcDbCircle
 10
627.7462579999999
 20
296.2402168471937
 30
0.0
 40
0.3
100
AcDbArc
 50
180.0
 51
270.0
  0
LINE
  5
DDB5
330
DA2D
100
AcDbEntity
  8
1
  6
Continuous
100
AcDbLine
 10
635.7962579999997
 20
293.0663098471938
 30
0.0
 11
635.496258
 21
293.3663098471938
 31
0.0
  0
ARC
  5
DDB6
330
DA2D
100
AcDbEntity
  8
1
  6
Continuous
100
AcDbCircle
 10
635.6462579999997
 20
310.5663098471937
 30
0.0
 40
0.2
100
AcDbArc
 50
138.5903779999999
 51
180.0
  0
LINE
  5
DDB7
330
DA2D
100
AcDbEntity
  8
1
  6
Continuous
100
AcDbLine
 10
627.7462579999999
 20
309.6924028471939
 30
0.0
 11
635.4462579999998
 21
309.6924028471939
 31
0.0
  0
LINE
  5
DDB8
330
DA2D
100
AcDbEntity
  8
1
  6
Continuous
100
AcDbLine
 10
627.7462579999999
 20
302.8163098471937
 30
0.0
 11
635.4462579999998
 21
302.8163098471937
 31
0.0
  0
LINE
  5
DDB9
330
DA2D
100
AcDbEntity
  8
2
  6
Continuous
100
AcDbLine
 10
627.7462579999999
 20
302.8163098471937
 30
0.0
 11
635.4462579999998
 21
309.6924028471939
 31
0.0
  0
LINE
  5
DDBA
330
DA2D
100
AcDbEntity
  8
2
  6
Continuous
100
AcDbLine
 10
627.7462579999999
 20
309.6924028471939
 30
0.0
 11
635.4462579999998
 21
302.8163098471937
 31
0.0
  0
ARC
  5
DDBB
330
DA2D
100
AcDbEntity
  8
1
  6
Continuous
100
AcDbCircle
 10
627.7462579999999
 20
309.3924028471937
 30
0.0
 40
0.3
100
AcDbArc
 50
90.0
 51
180.0
  0
LINE
  5
DDBC
330
DA2D
100
AcDbEntity
  8
1
  6
Continuous
100
AcDbLine
 10
635.7962579999997
 20
312.5663098471938
 30
0.0
 11
635.496258
 21
312.2663098471939
 31
0.0
  0
LINE
  5
DDBD
330
DA2D
100
AcDbEntity
  8
1
  6
Continuous
100
AcDbLine
 10
56.78867400000001
 20
300.3163098471937
 30
0.0
 11
56.21132399999999
 21
300.3163098471937
 31
0.0
  0
LINE
  5
DDBE
330
DA2D
100
AcDbEntity
  8
1
  6
Continuous
100
AcDbLine
 10
57.07734900000001
 20
299.8163098471938
 30
0.0
 11
55.92264899999998
 21
299.8163098471938
 31
0.0
  0
LINE
  5
DDBF
330
DA2D
100
AcDbEntity
  8
1
  6
Continuous
100
AcDbLine
 10
57.36602399999998
 20
299.3163098471938
 30
0.0
 11
55.63397400000003
 21
299.3163098471938
 31
0.0
  0
LINE
  5
DDC0
330
DA2D
100
AcDbEntity
  8
1
  6
Continuous
100
AcDbLine
 10
58.23205000000001
 20
297.8163098471938
 30
0.0
 11
54.76794799999999
 21
297.8163098471938
 31
0.0
  0
LINE
  5
DDC1
330
DA2D
100
AcDbEntity
  8
1
  6
Continuous
100
AcDbLine
 10
57.94337500000001
 20
298.3163098471937
 30
0.0
 11
55.056623
 21
298.3163098471937
 31
0.0
  0
LINE
  5
DDC2
330
DA2D
100
AcDbEntity
  8
1
  6
Continuous
100
AcDbLine
 10
57.65469999999999
 20
298.8163098471937
 30
0.0
 11
55.34529800000001
 21
298.8163098471937
 31
0.0
  0
LINE
  5
DDC3
330
DA2D
100
AcDbEntity
  8
1
  6
Continuous
100
AcDbLine
 10
58.52072499999997
 20
297.3163098471938
 30
0.0
 11
54.47927299999998
 21
297.3163098471938
 31
0.0
  0
LINE
  5
DDC4
330
DA2D
100
AcDbEntity
  8
1
  6
Continuous
100
AcDbLine
 10
58.80939999999998
 20
296.8163098471937
 30
0.0
 11
54.19059800000002
 21
296.8163098471937
 31
0.0
  0
LINE
  5
DDC5
330
DA2D
100
AcDbEntity
  8
1
  6
Continuous
100
AcDbLine
 10
59.09807499999999
 20
296.3163098471937
 30
0.0
 11
53.90192300000001
 21
296.3163098471937
 31
0.0
  0
LINE
  5
DDC6
330
DA2D
100
AcDbEntity
  8
1
  6
Continuous
100
AcDbLine
 10
60.83012599999999
 20
293.3163098471938
 30
0.0
 11
52.169872
 21
293.3163098471938
 31
0.0
  0
LINE
  5
DDC7
330
DA2D
100
AcDbEntity
  8
1
  6
Continuous
100
AcDbLine
 10
60.54145099999999
 20
293.8163098471937
 30
0.0
 11
52.45854699999995
 21
293.8163098471937
 31
0.0
  0
LINE
  5
DDC8
330
DA2D
100
AcDbEntity
  8
1
  6
Continuous
100
AcDbLine
 10
60.25277599999999
 20
294.3163098471937
 30
0.0
 11
52.74722200000002
 21
294.3163098471937
 31
0.0
  0
LINE
  5
DDC9
330
DA2D
100
AcDbEntity
  8
1
  6
Continuous
100
AcDbLine
 10
59.38674999999999
 20
295.8163098471938
 30
0.0
 11
53.613248
 21
295.8163098471938
 31
0.0
  0
LINE
  5
DDCA
330
DA2D
100
AcDbEntity
  8
1
  6
Continuous
100
AcDbLine
 10
59.67542500000002
 20
295.3163098471938
 30
0.0
 11
53.32457299999997
 21
295.3163098471938
 31
0.0
  0
LINE
  5
DDCB
330
DA2D
100
AcDbEntity
  8
1
  6
Continuous
100
AcDbLine
 10
59.96410100000002
 20
294.8163098471937
 30
0.0
 11
53.03589699999998
 21
294.8163098471937
 31
0.0
  0
LINE
  5
DDCC
330
DA2D
100
AcDbEntity
  8
1
  6
Continuous
100
AcDbLine
 10
61.11880100000002
 20
292.8163098471937
 30
0.0
 11
51.88119699999997
 21
292.8163098471937
 31
0.0
  0
LINE
  5
DDCD
330
DA2D
100
AcDbEntity
  8
1
  6
Continuous
100
AcDbLine
 10
61.40747599999997
 20
292.3163098471937
 30
0.0
 11
59.28388100000001
 21
292.3163098471937
 31
0.0
  0
LINE
  5
DDCE
330
DA2D
100
AcDbEntity
  8
1
  6
Continuous
100
AcDbLine
 10
61.69615099999997
 20
291.8163098471937
 30
0.0
 11
60.37298199999998
 21
291.8163098471937
 31
0.0
  0
LINE
  5
DDCF
330
DA2D
100
AcDbEntity
  8
1
  6
Continuous
100
AcDbLine
 10
61.984826
 20
291.3163098471938
 30
0.0
 11
61.16368899999997
 21
291.3163098471938
 31
0.0
  0
LINE
  5
DDD0
330
DA2D
100
AcDbEntity
  8
1
  6
Continuous
100
AcDbLine
 10
62.273502
 20
290.8163098471938
 30
0.0
 11
61.79150199999998
 21
290.8163098471938
 31
0.0
  0
LINE
  5
DDD1
330
DA2D
100
AcDbEntity
  8
1
  6
Continuous
100
AcDbLine
 10
62.56217700000002
 20
290.3163098471937
 30
0.0
 11
62.30947400000001
 21
290.3163098471937
 31
0.0
  0
LINE
  5
DDD2
330
DA2D
100
AcDbEntity
  8
1
  6
Continuous
100
AcDbLine
 10
62.85085200000003
 20
289.8163098471938
 30
0.0
 11
62.74499700000001
 21
289.8163098471938
 31
0.0
  0
LINE
  5
DDD3
330
DA2D
100
AcDbEntity
  8
1
  6
Continuous
100
AcDbLine
 10
63.13952699999997
 20
289.3163098471937
 30
0.0
 11
63.11437699999999
 21
289.3163098471937
 31
0.0
  0
LINE
  5
DDD4
330
DA2D
100
AcDbEntity
  8
1
  6
Continuous
100
AcDbLine
 10
53.71611699999998
 20
292.3163098471937
 30
0.0
 11
51.59252200000003
 21
292.3163098471937
 31
0.0
  0
LINE
  5
DDD5
330
DA2D
100
AcDbEntity
  8
1
  6
Continuous
100
AcDbLine
 10
52.62701599999997
 20
291.8163098471937
 30
0.0
 11
51.30384700000002
 21
291.8163098471937
 31
0.0
  0
LINE
  5
DDD6
330
DA2D
100
AcDbEntity
  8
1
  6
Continuous
100
AcDbLine
 10
49.86047100000002
 20
289.3163098471937
 30
0.0
 11
49.88562100000001
 21
289.3163098471937
 31
0.0
  0
LINE
  5
DDD7
330
DA2D
100
AcDbEntity
  8
1
  6
Continuous
100
AcDbLine
 10
50.14914599999997
 20
289.8163098471938
 30
0.0
 11
50.25500099999999
 21
289.8163098471938
 31
0.0
  0
LINE
  5
DDD8
330
DA2D
100
AcDbEntity
  8
1
  6
Continuous
100
AcDbLine
 10
50.43782099999997
 20
290.3163098471937
 30
0.0
 11
50.69052399999998
 21
290.3163098471937
 31
0.0
  0
LINE
  5
DDD9
330
DA2D
100
AcDbEntity
  8
1
  6
Continuous
100
AcDbLine
 10
50.72649699999999
 20
290.8163098471938
 30
0.0
 11
51.20849599999997
 21
290.8163098471938
 31
0.0
  0
LINE
  5
DDDA
330
DA2D
100
AcDbEntity
  8
1
  6
Continuous
100
AcDbLine
 10
51.01517199999999
 20
291.3163098471938
 30
0.0
 11
51.83630900000003
 21
291.3163098471938
 31
0.0
  0
ARC
  5
DDDB
330
DA2D
100
AcDbEntity
  8
1
  6
Continuous
100
AcDbCircle
 10
45.499999
 20
286.3163098471937
 30
0.0
 40
0.5
100
AcDbArc
 50
180.0
 51
270.0
  0
ARC
  5
DDDC
330
DA2D
100
AcDbEntity
  8
1
  6
Continuous
100
AcDbCircle
 10
67.499999
 20
286.3163098471937
 30
0.0
 40
0.5
100
AcDbArc
 50
270.0
 51
0.0
  0
ARC
  5
DDDD
330
DA2D
100
AcDbEntity
  8
1
  6
Continuous
100
AcDbCircle
 10
445.9648429999998
 20
237.4115058455933
 30
0.0
 40
0.5
100
AcDbArc
 50
270.0
 51
180.0
  0
ARC
  5
DDDE
330
DA2D
100
AcDbEntity
  8
1
  6
Continuous
100
AcDbCircle
 10
444.9648429999998
 20
237.4115058455933
 30
0.0
 40
0.5
100
AcDbArc
 50
89.99999999999998
 51
0.0
  0
ENDSEC
  0
SECTION
  2
OBJECTS
  0
DICTIONARY
  5
DA1B
330
0
100
AcDbDictionary
281
     1
  3
ACAD_CIP_PREVIOUS_PRODUCT_INFO
350
E055
  3
ACAD_COLOR
350
E037
  3
ACAD_DETAILVIEWSTYLE
350
E050
  3
ACAD_GROUP
350
DA1C
  3
ACAD_LAYOUT
350
DA28
  3
ACAD_MATERIAL
350
E005
  3
ACAD_MLEADERSTYLE
350
E04C
  3
ACAD_MLINESTYLE
350
DA25
  3
ACAD_PLOTSETTINGS
350
DA27
  3
ACAD_PLOTSTYLENAME
350
E003
  3
ACAD_SCALELIST
350
E03A
  3
ACAD_SECTIONVIEWSTYLE
350
E04E
  3
ACAD_TABLESTYLE
350
E038
  3
ACAD_VISUALSTYLE
350
E01E
  3
ACDB_RECOMPOSE_DATA
350
E073
  3
AcDbVariableDictionary
350
E066
  3
DWGPROPS
350
E074
  0
DICTIONARY
  5
E056
330
DA1F
100
AcDbDictionary
280
     1
281
     1
  3
ADSK_XREC_LAYER_RECONCILED
360
E057
  0
DICTIONARY
  5
E058
330
DA35
100
AcDbDictionary
280
     1
281
     1
  3
ADSK_XREC_LAYER_RECONCILED
360
E059
  0
DICTIONARY
  5
E05A
330
DA36
100
AcDbDictionary
280
     1
281
     1
  3
ADSK_XREC_LAYER_RECONCILED
360
E05B
  0
DICTIONARY
  5
E05C
330
DA37
100
AcDbDictionary
280
     1
281
     1
  3
ADSK_XREC_LAYER_RECONCILED
360
E05D
  0
DICTIONARY
  5
E05E
330
DA38
100
AcDbDictionary
280
     1
281
     1
  3
ADSK_XREC_LAYER_RECONCILED
360
E05F
  0
DICTIONARY
  5
E060
330
DA39
100
AcDbDictionary
280
     1
281
     1
  3
ADSK_XREC_LAYER_RECONCILED
360
E061
  0
DICTIONARY
  5
E062
330
DA3A
100
AcDbDictionary
280
     1
281
     1
  3
ADSK_XREC_LAYER_RECONCILED
360
E063
  0
DICTIONARY
  5
E064
330
DA3B
100
AcDbDictionary
280
     1
281
     1
  3
ADSK_XREC_LAYER_RECONCILED
360
E065
  0
DICTIONARY
  5
DFFE
330
DA2D
100
AcDbDictionary
281
     1
  3
ACAD_LAYOUTSELFREF
350
DFFF
  0
DICTIONARY
  5
DFFC
330
DA29
100
AcDbDictionary
281
     1
  3
ACAD_LAYOUTSELFREF
350
DFFD
  0
XRECORD
  5
E055
102
{ACAD_REACTORS
330
DA1B
102
}
330
DA1B
100
AcDbXrecord
280
     1
300
ACDLT
300
2014
300
ACDLT_F_S
  0
DICTIONARY
  5
E037
102
{ACAD_REACTORS
330
DA1B
102
}
330
DA1B
100
AcDbDictionary
281
     1
  0
DICTIONARY
  5
E050
102
{ACAD_REACTORS
330
DA1B
102
}
330
DA1B
100
AcDbDictionary
281
     1
  3
Imperial24
350
E051
  0
DICTIONARY
  5
DA1C
102
{ACAD_REACTORS
330
DA1B
102
}
330
DA1B
100
AcDbDictionary
281
     1
  0
DICTIONARY
  5
DA28
102
{ACAD_REACTORS
330
DA1B
102
}
330
DA1B
100
AcDbDictionary
281
     1
  3
Model
350
E052
  3
レイアウト1
350
E053
  0
DICTIONARY
  5
E005
102
{ACAD_REACTORS
330
DA1B
102
}
330
DA1B
100
AcDbDictionary
281
     1
  3
ByBlock
350
E00E
  3
ByLayer
350
E006
  3
Global
350
E016
  0
DICTIONARY
  5
E04C
102
{ACAD_REACTORS
330
DA1B
102
}
330
DA1B
100
AcDbDictionary
281
     1
  3
Standard
350
E04D
  0
DICTIONARY
  5
DA25
102
{ACAD_REACTORS
330
DA1B
102
}
330
DA1B
100
AcDbDictionary
281
     1
  3
STANDARD
350
DA26
  0
DICTIONARY
  5
DA27
102
{ACAD_REACTORS
330
DA1B
102
}
330
DA1B
100
AcDbDictionary
281
     1
  0
ACDBDICTIONARYWDFLT
  5
E003
102
{ACAD_REACTORS
330
DA1B
102
}
330
DA1B
100
AcDbDictionary
281
     1
  3
Normal
350
E004
100
AcDbDictionaryWithDefault
340
E004
  0
DICTIONARY
  5
E03A
102
{ACAD_REACTORS
330
DA1B
102
}
330
DA1B
100
AcDbDictionary
281
     1
  3
A0
350
E03B
  3
A1
350
E03C
  3
A2
350
E03D
  3
A3
350
E03E
  3
A4
350
E03F
  3
A5
350
E040
  3
A6
350
E041
  3
A7
350
E042
  3
A8
350
E043
  3
A9
350
E044
  3
B0
350
E045
  3
B1
350
E046
  3
B2
350
E047
  3
B3
350
E048
  3
B4
350
E049
  3
B5
350
E04A
  3
B6
350
E04B
  0
DICTIONARY
  5
E04E
102
{ACAD_REACTORS
330
DA1B
102
}
330
DA1B
100
AcDbDictionary
281
     1
  3
Imperial24
350
E04F
  0
DICTIONARY
  5
E038
102
{ACAD_REACTORS
330
DA1B
102
}
330
DA1B
100
AcDbDictionary
281
     1
  3
Standard
350
E039
  0
DICTIONARY
  5
E01E
102
{ACAD_REACTORS
330
DA1B
102
}
330
DA1B
100
AcDbDictionary
281
     1
  3
2dWireframe
350
E024
  3
Basic
350
E023
  3
Brighten
350
E02A
  3
ColorChange
350
E02E
  3
Conceptual
350
E027
  3
Dim
350
E029
  3
EdgeColorOff
350
E036
  3
Facepattern
350
E02D
  3
Flat
350
E01F
  3
FlatWithEdges
350
E020
  3
Gouraud
350
E021
  3
GouraudWithEdges
350
E022
  3
Hidden
350
E026
  3
JitterOff
350
E034
  3
Linepattern
350
E02C
  3
OverhangOff
350
E035
  3
Realistic
350
E028
  3
Shaded
350
E033
  3
Shaded with edges
350
E032
  3
Shades of Gray
350
E02F
  3
Sketchy
350
E030
  3
Thicken
350
E02B
  3
Wireframe
350
E025
  3
X-Ray
350
E031
  0
XRECORD
  5
E073
102
{ACAD_REACTORS
330
DA1B
102
}
330
DA1B
100
AcDbXrecord
280
     1
 90
        1
330
E039
  0
DICTIONARY
  5
E066
102
{ACAD_REACTORS
330
DA1B
102
}
330
DA1B
100
AcDbDictionary
281
     1
  3
CANNOSCALE
350
E06B
  3
CMLEADERSTYLE
350
E068
  3
CTABLESTYLE
350
E067
  3
CVIEWDETAILSTYLE
350
E069
  3
CVIEWSECTIONSTYLE
350
E06A
  3
DIMASSOC
350
E06E
  3
INDEXCTL
350
E06D
  3
SORTENTS
350
E06C
  3
XCLIPFRAME
350
E06F
  0
XRECORD
  5
E074
102
{ACAD_REACTORS
330
DA1B
102
}
330
DA1B
100
AcDbXrecord
280
     1
  1
DWGPROPS COOKIE
  2

  3

  4

  6

  7

  8
Yoshitsune
  9

300
=
301
=
302
=
303
=
304
=
305
=
306
=
307
=
308
=
309
=
 40
0.0084520138888889
 41
2451439.547425926
 42
2457192.641663496
  1

 90
        0
  0
XRECORD
  5
E057
102
{ACAD_REACTORS
330
E056
102
}
330
E056
100
AcDbXrecord
280
     1
290
     1
  0
XRECORD
  5
E059
102
{ACAD_REACTORS
330
E058
102
}
330
E058
100
AcDbXrecord
280
     1
290
     1
  0
XRECORD
  5
E05B
102
{ACAD_REACTORS
330
E05A
102
}
330
E05A
100
AcDbXrecord
280
     1
290
     1
  0
XRECORD
  5
E05D
102
{ACAD_REACTORS
330
E05C
102
}
330
E05C
100
AcDbXrecord
280
     1
290
     1
  0
XRECORD
  5
E05F
102
{ACAD_REACTORS
330
E05E
102
}
330
E05E
100
AcDbXrecord
280
     1
290
     1
  0
XRECORD
  5
E061
102
{ACAD_REACTORS
330
E060
102
}
330
E060
100
AcDbXrecord
280
     1
290
     1
  0
XRECORD
  5
E063
102
{ACAD_REACTORS
330
E062
102
}
330
E062
100
AcDbXrecord
280
     1
290
     1
  0
XRECORD
  5
E065
102
{ACAD_REACTORS
330
E064
102
}
330
E064
100
AcDbXrecord
280
     1
290
     1
  0
XRECORD
  5
DFFF
102
{ACAD_REACTORS
330
DFFE
102
}
330
DFFE
100
AcDbXrecord
280
     1
340
DA2D
  0
XRECORD
  5
DFFD
102
{ACAD_REACTORS
330
DFFC
102
}
330
DFFC
100
AcDbXrecord
280
     1
340
DA29
  0
ACDBDETAILVIEWSTYLE
  5
E051
102
{ACAD_XDICTIONARY
360
E0AC
102
}
102
{ACAD_REACTORS
330
E050
102
}
330
E050
100
AcDbModelDocViewStyle
 70
     0
  3
Imperial24
290
     0
100
AcDbDetailViewStyle
 70
     0
 71
     0
 90
        3
 71
     1
340
DA20
 40
0.24
340
0
 40
0.24
300

 40
0.36
280
     3
 71
     2
340
DA24
 90
       25
 71
     3
340
DA20
 40
0.24
 90
        1
 40
0.75
 90
        1
300
%<\AcVar ViewType \f "%tc1">% %<\AcVar ViewDetailId>%\PSCALE %<\AcVar ViewScale \f "%sn">%
 71
     4
340
DA24
 90
       25
340
DA24
 90
       25
280
     0
  0
LAYOUT
  5
E052
102
{ACAD_XDICTIONARY
360
E0AE
102
}
102
{ACAD_REACTORS
330
DA28
102
}
330
DA28
100
AcDbPlotSettings
  1

  2
Canon LBP9100C
  4

  6

 40
0.0
 41
0.0
 42
0.0
 43
0.0
 44
0.0
 45
0.0
 46
0.0
 47
0.0
 48
0.0
 49
0.0
140
0.0
141
0.0
142
1.0
143
1.0
 70
  1712
 72
     0
 73
     0
 74
     0
  7

 75
     0
147
1.0
148
0.0
149
0.0
100
AcDbLayout
  1
Model
 70
     1
 71
     0
 10
0.0
 20
0.0
 11
12.0
 21
9.0
 12
0.0
 22
0.0
 32
0.0
 14
0.0
 24
0.0
 34
0.0
 15
0.0
 25
0.0
 35
0.0
146
0.0
 13
0.0
 23
0.0
 33
0.0
 16
1.0
 26
0.0
 36
0.0
 17
0.0
 27
1.0
 37
0.0
 76
     0
330
DA2D
331
DFFB
  0
LAYOUT
  5
E053
102
{ACAD_XDICTIONARY
360
E0B0
102
}
102
{ACAD_REACTORS
330
DA28
102
}
330
DA28
100
AcDbPlotSettings
  1

  2
Canon LBP9100C
  4

  6

 40
0.0
 41
0.0
 42
0.0
 43
0.0
 44
0.0
 45
0.0
 46
0.0
 47
0.0
 48
0.0
 49
0.0
140
0.0
141
0.0
142
1.0
143
1.0
 70
   688
 72
     0
 73
     0
 74
     5
  7

 75
    16
147
1.0
148
0.0
149
0.0
100
AcDbLayout
  1
レイアウト1
 70
     0
 71
     1
 10
0.0
 20
0.0
 11
420.0
 21
297.0
 12
0.0
 22
0.0
 32
0.0
 14
1.000000000000000E+20
 24
1.000000000000000E+20
 34
1.000000000000000E+20
 15
-1.000000000000000E+20
 25
-1.000000000000000E+20
 35
-1.000000000000000E+20
146
0.0
 13
0.0
 23
0.0
 33
0.0
 16
1.0
 26
0.0
 36
0.0
 17
0.0
 27
1.0
 37
0.0
 76
     0
330
DA29
  0
MATERIAL
  5
E00E
102
{ACAD_XDICTIONARY
360
E00F
102
}
102
{ACAD_REACTORS
330
E005
102
}
330
E005
100
AcDbMaterial
  1
ByBlock
 72
     0
 43
0.0208333333333333
 43
0.0
 43
0.0
 43
0.0
 43
0.0
 43
0.0208333333333333
 43
0.0
 43
0.0
 43
0.0
 43
0.0
 43
1.0
 43
0.0
 43
0.0
 43
0.0
 43
0.0
 43
1.0
 77
     0
 47
0.0208333333333333
 47
0.0
 47
0.0
 47
0.0
 47
0.0
 47
0.0208333333333333
 47
0.0
 47
0.0
 47
0.0
 47
0.0
 47
1.0
 47
0.0
 47
0.0
 47
0.0
 47
0.0
 47
1.0
171
     0
 49
0.0208333333333333
 49
0.0
 49
0.0
 49
0.0
 49
0.0
 49
0.0208333333333333
 49
0.0
 49
0.0
 49
0.0
 49
0.0
 49
1.0
 49
0.0
 49
0.0
 49
0.0
 49
0.0
 49
1.0
175
     0
142
0.0208333333333333
142
0.0
142
0.0
142
0.0
142
0.0
142
0.0208333333333333
142
0.0
142
0.0
142
0.0
142
0.0
142
1.0
142
0.0
142
0.0
142
0.0
142
0.0
142
1.0
179
     0
144
0.0208333333333333
144
0.0
144
0.0
144
0.0
144
0.0
144
0.0208333333333333
144
0.0
144
0.0
144
0.0
144
0.0
144
1.0
144
0.0
144
0.0
144
0.0
144
0.0
144
1.0
147
0.0208333333333333
147
0.0
147
0.0
147
0.0
147
0.0
147
0.0208333333333333
147
0.0
147
0.0
147
0.0
147
0.0
147
1.0
147
0.0
147
0.0
147
0.0
147
0.0
147
1.0
  0
MATERIAL
  5
E006
102
{ACAD_XDICTIONARY
360
E007
102
}
102
{ACAD_REACTORS
330
E005
102
}
330
E005
100
AcDbMaterial
  1
ByLayer
 72
     0
 43
0.0208333333333333
 43
0.0
 43
0.0
 43
0.0
 43
0.0
 43
0.0208333333333333
 43
0.0
 43
0.0
 43
0.0
 43
0.0
 43
1.0
 43
0.0
 43
0.0
 43
0.0
 43
0.0
 43
1.0
 77
     0
 47
0.0208333333333333
 47
0.0
 47
0.0
 47
0.0
 47
0.0
 47
0.0208333333333333
 47
0.0
 47
0.0
 47
0.0
 47
0.0
 47
1.0
 47
0.0
 47
0.0
 47
0.0
 47
0.0
 47
1.0
171
     0
 49
0.0208333333333333
 49
0.0
 49
0.0
 49
0.0
 49
0.0
 49
0.0208333333333333
 49
0.0
 49
0.0
 49
0.0
 49
0.0
 49
1.0
 49
0.0
 49
0.0
 49
0.0
 49
0.0
 49
1.0
175
     0
142
0.0208333333333333
142
0.0
142
0.0
142
0.0
142
0.0
142
0.0208333333333333
142
0.0
142
0.0
142
0.0
142
0.0
142
1.0
142
0.0
142
0.0
142
0.0
142
0.0
142
1.0
179
     0
144
0.0208333333333333
144
0.0
144
0.0
144
0.0
144
0.0
144
0.0208333333333333
144
0.0
144
0.0
144
0.0
144
0.0
144
1.0
144
0.0
144
0.0
144
0.0
144
0.0
144
1.0
147
0.0208333333333333
147
0.0
147
0.0
147
0.0
147
0.0
147
0.0208333333333333
147
0.0
147
0.0
147
0.0
147
0.0
147
1.0
147
0.0
147
0.0
147
0.0
147
0.0
147
1.0
  0
MATERIAL
  5
E016
102
{ACAD_XDICTIONARY
360
E017
102
}
102
{ACAD_REACTORS
330
E005
102
}
330
E005
100
AcDbMaterial
  1
Global
 72
     0
 43
0.0208333333333333
 43
0.0
 43
0.0
 43
0.0
 43
0.0
 43
0.0208333333333333
 43
0.0
 43
0.0
 43
0.0
 43
0.0
 43
1.0
 43
0.0
 43
0.0
 43
0.0
 43
0.0
 43
1.0
 77
     0
 47
0.0208333333333333
 47
0.0
 47
0.0
 47
0.0
 47
0.0
 47
0.0208333333333333
 47
0.0
 47
0.0
 47
0.0
 47
0.0
 47
1.0
 47
0.0
 47
0.0
 47
0.0
 47
0.0
 47
1.0
171
     0
 49
0.0208333333333333
 49
0.0
 49
0.0
 49
0.0
 49
0.0
 49
0.0208333333333333
 49
0.0
 49
0.0
 49
0.0
 49
0.0
 49
1.0
 49
0.0
 49
0.0
 49
0.0
 49
0.0
 49
1.0
175
     0
142
0.0208333333333333
142
0.0
142
0.0
142
0.0
142
0.0
142
0.0208333333333333
142
0.0
142
0.0
142
0.0
142
0.0
142
1.0
142
0.0
142
0.0
142
0.0
142
0.0
142
1.0
179
     0
144
0.0208333333333333
144
0.0
144
0.0
144
0.0
144
0.0
144
0.0208333333333333
144
0.0
144
0.0
144
0.0
144
0.0
144
1.0
144
0.0
144
0.0
144
0.0
144
0.0
144
1.0
147
0.0208333333333333
147
0.0
147
0.0
147
0.0
147
0.0
147
0.0208333333333333
147
0.0
147
0.0
147
0.0
147
0.0
147
1.0
147
0.0
147
0.0
147
0.0
147
0.0
147
1.0
  0
MLEADERSTYLE
  5
E04D
102
{ACAD_REACTORS
330
E04C
102
}
330
E04C
100
AcDbMLeaderStyle
170
     2
171
     1
172
     0
 90
        2
 40
0.0
 41
0.0
173
     1
 91
-1056964608
340
DA22
 92
       -2
290
     1
 42
0.09
291
     1
 43
0.36
  3
Standard
 44
0.18
300

342
DA20
174
     1
178
     6
175
     1
176
     0
 93
-1056964608
 45
0.18
292
     0
297
     0
 46
0.18
 94
-1056964608
 47
1.0
 49
1.0
140
1.0
293
     1
141
0.0
294
     1
177
     0
142
1.0
295
     0
296
     0
143
0.125
1001
ACAD_MLEADERVER
1070
     2
  0
MLINESTYLE
  5
DA26
102
{ACAD_REACTORS
330
DA25
102
}
330
DA25
100
AcDbMlineStyle
  2
STANDARD
 70
     0
  3

 62
   256
 51
90.0
 52
90.0
 71
     2
 49
0.5
 62
   256
  6
BYLAYER
 49
-0.5
 62
   256
  6
BYLAYER
  0
ACDBPLACEHOLDER
  5
E004
102
{ACAD_REACTORS
330
E003
102
}
330
E003
  0
SCALE
  5
E03B
102
{ACAD_REACTORS
330
E03A
102
}
330
E03A
100
AcDbScale
 70
     0
300
1:1
140
1.0
141
1.0
290
     1
  0
SCALE
  5
E03C
102
{ACAD_REACTORS
330
E03A
102
}
330
E03A
100
AcDbScale
 70
     0
300
1/128" = 1'-0"
140
0.0078125
141
12.0
290
     0
  0
SCALE
  5
E03D
102
{ACAD_REACTORS
330
E03A
102
}
330
E03A
100
AcDbScale
 70
     0
300
1/64" = 1'-0"
140
0.015625
141
12.0
290
     0
  0
SCALE
  5
E03E
102
{ACAD_REACTORS
330
E03A
102
}
330
E03A
100
AcDbScale
 70
     0
300
1/32" = 1'-0"
140
0.03125
141
12.0
290
     0
  0
SCALE
  5
E03F
102
{ACAD_REACTORS
330
E03A
102
}
330
E03A
100
AcDbScale
 70
     0
300
1/16" = 1'-0"
140
0.0625
141
12.0
290
     0
  0
SCALE
  5
E040
102
{ACAD_REACTORS
330
E03A
102
}
330
E03A
100
AcDbScale
 70
     0
300
3/32" = 1'-0"
140
0.09375
141
12.0
290
     0
  0
SCALE
  5
E041
102
{ACAD_REACTORS
330
E03A
102
}
330
E03A
100
AcDbScale
 70
     0
300
1/8" = 1'-0"
140
0.125
141
12.0
290
     0
  0
SCALE
  5
E042
102
{ACAD_REACTORS
330
E03A
102
}
330
E03A
100
AcDbScale
 70
     0
300
3/16" = 1'-0"
140
0.1875
141
12.0
290
     0
  0
SCALE
  5
E043
102
{ACAD_REACTORS
330
E03A
102
}
330
E03A
100
AcDbScale
 70
     0
300
1/4" = 1'-0"
140
0.25
141
12.0
290
     0
  0
SCALE
  5
E044
102
{ACAD_REACTORS
330
E03A
102
}
330
E03A
100
AcDbScale
 70
     0
300
3/8" = 1'-0"
140
0.375
141
12.0
290
     0
  0
SCALE
  5
E045
102
{ACAD_REACTORS
330
E03A
102
}
330
E03A
100
AcDbScale
 70
     0
300
1/2" = 1'-0"
140
0.5
141
12.0
290
     0
  0
SCALE
  5
E046
102
{ACAD_REACTORS
330
E03A
102
}
330
E03A
100
AcDbScale
 70
     0
300
3/4" = 1'-0"
140
0.75
141
12.0
290
     0
  0
SCALE
  5
E047
102
{ACAD_REACTORS
330
E03A
102
}
330
E03A
100
AcDbScale
 70
     0
300
1" = 1'-0"
140
1.0
141
12.0
290
     0
  0
SCALE
  5
E048
102
{ACAD_REACTORS
330
E03A
102
}
330
E03A
100
AcDbScale
 70
     0
300
1-1/2" = 1'-0"
140
1.5
141
12.0
290
     0
  0
SCALE
  5
E049
102
{ACAD_REACTORS
330
E03A
102
}
330
E03A
100
AcDbScale
 70
     0
300
3" = 1'-0"
140
3.0
141
12.0
290
     0
  0
SCALE
  5
E04A
102
{ACAD_REACTORS
330
E03A
102
}
330
E03A
100
AcDbScale
 70
     0
300
6" = 1'-0"
140
6.0
141
12.0
290
     0
  0
SCALE
  5
E04B
102
{ACAD_REACTORS
330
E03A
102
}
330
E03A
100
AcDbScale
 70
     0
300
1'-0" = 1'-0"
140
12.0
141
12.0
290
     0
  0
ACDBSECTIONVIEWSTYLE
  5
E04F
102
{ACAD_XDICTIONARY
360
E0AA
102
}
102
{ACAD_REACTORS
330
E04E
102
}
330
E04E
100
AcDbModelDocViewStyle
 70
     0
  3
Imperial24
290
     0
100
AcDbSectionViewStyle
 70
     0
 71
     0
 90
       78
 71
     1
340
DA20
 40
0.24
340
0
340
0
 40
0.24
300
I, O, Q, S, X, Z
 40
0.48
 90
        3
 40
0.18
 90
        1
 71
     2
340
DA24
 90
       25
340
DA24
 90
       50
 40
0.24
 40
0.0
 40
0.24
 71
     3
340
DA20
 40
0.24
 90
        1
 40
0.75
 90
        1
300
%<\AcVar ViewType \f "%tc1">% %<\AcVar ViewSectionStartId>%-%<\AcVar ViewSectionEndId>%\PSCALE %<\AcVar ViewScale \f "%sn">%
 71
     4
300
ANSI31
 40
1.0
 90
        0
290
     0
290
     0
 90
        6
 40
0.0
 40
1.570796326794896
 40
0.2617993877991494
 40
1.308996938995747
 40
-0.2617993877991494
 40
1.832595714594046
  0
TABLESTYLE
  5
E039
102
{ACAD_XDICTIONARY
360
E071
102
}
102
{ACAD_REACTORS
330
E038
102
}
330
E038
100
AcDbTableStyle
  3
Standard
 70
     0
 71
     0
 40
0.06
 41
0.06
280
     0
281
     0
  7
STANDARD
140
0.18
170
     2
 62
     0
 63
     7
283
     0
274
    -2
284
     1
 64
     0
275
    -2
285
     1
 65
     0
276
    -2
286
     1
 66
     0
277
    -2
287
     1
 67
     0
278
    -2
288
     1
 68
     0
279
    -2
289
     1
 69
     0
  7
STANDARD
140
0.25
170
     5
 62
     0
 63
     7
283
     0
274
    -2
284
     1
 64
     0
275
    -2
285
     1
 65
     0
276
    -2
286
     1
 66
     0
277
    -2
287
     1
 67
     0
278
    -2
288
     1
 68
     0
279
    -2
289
     1
 69
     0
  7
STANDARD
140
0.18
170
     5
 62
     0
 63
     7
283
     0
274
    -2
284
     1
 64
     0
275
    -2
285
     1
 65
     0
276
    -2
286
     1
 66
     0
277
    -2
287
     1
 67
     0
278
    -2
288
     1
 68
     0
279
    -2
289
     1
 69
     0
  0
VISUALSTYLE
  5
E024
102
{ACAD_XDICTIONARY
360
E082
102
}
102
{ACAD_REACTORS
330
E01E
102
}
330
E01E
100
AcDbVisualStyle
  2
2dWireframe
 70
     4
 71
     0
 72
     2
 73
     0
 90
        0
 40
-0.6
 41
-30.0
 62
     5
 63
     7
 74
     1
 91
        4
 64
     7
 65
   257
 75
     1
175
     1
 42
1.0
 92
        0
 66
   257
 43
1.0
 76
     1
 77
     6
 78
     2
 67
     7
 79
     5
170
     0
171
     0
290
     0
174
     0
 93
        1
 44
0.0
173
     0
291
     0
 45
0.0
1001
ACAD
1000
AcDbSavedByObjectVersion
1070
     0
  0
VISUALSTYLE
  5
E023
102
{ACAD_XDICTIONARY
360
E080
102
}
102
{ACAD_REACTORS
330
E01E
102
}
330
E01E
100
AcDbVisualStyle
  2
Basic
 70
     7
 71
     1
 72
     0
 73
     1
 90
        0
 40
-0.6
 41
-30.0
 62
     5
 63
     7
 74
     0
 91
        4
 64
     7
 65
   257
 75
     1
175
     1
 42
1.0
 92
        8
 66
     7
 43
1.0
 76
     1
 77
     6
 78
     2
 67
     7
 79
     5
170
     0
171
     0
290
     0
174
     0
 93
        1
 44
0.0
173
     0
291
     1
 45
0.0
1001
ACAD
1000
AcDbSavedByObjectVersion
1070
     0
  0
VISUALSTYLE
  5
E02A
102
{ACAD_XDICTIONARY
360
E08E
102
}
102
{ACAD_REACTORS
330
E01E
102
}
330
E01E
100
AcDbVisualStyle
  2
Brighten
 70
    12
 71
     2
 72
     2
 73
     0
 90
        0
 40
-0.6
 41
-30.0
 62
     5
 63
     7
 74
     1
 91
        4
 64
     7
 65
   257
 75
     1
175
     1
 42
1.0
 92
        8
 66
     7
 43
1.0
 76
     1
 77
     6
 78
     2
 67
     7
 79
     5
170
     0
171
     0
290
     0
174
     0
 93
        1
 44
50.0
173
     0
291
     1
 45
0.0
1001
ACAD
1000
AcDbSavedByObjectVersion
1070
     0
  0
VISUALSTYLE
  5
E02E
102
{ACAD_XDICTIONARY
360
E096
102
}
102
{ACAD_REACTORS
330
E01E
102
}
330
E01E
100
AcDbVisualStyle
  2
ColorChange
 70
    16
 71
     2
 72
     2
 73
     3
 90
        0
 40
-0.6
 41
-30.0
 62
     5
 63
     8
 74
     1
 91
        4
 64
     7
 65
   257
 75
     1
175
     1
 42
1.0
 92
        8
 66
     8
 43
1.0
 76
     1
 77
     6
 78
     2
 67
     7
 79
     5
170
     0
171
     0
290
     0
174
     0
 93
        1
 44
0.0
173
     0
291
     1
 45
0.0
1001
ACAD
1000
AcDbSavedByObjectVersion
1070
     0
  0
VISUALSTYLE
  5
E027
102
{ACAD_XDICTIONARY
360
E088
102
}
102
{ACAD_REACTORS
330
E01E
102
}
330
E01E
100
AcDbVisualStyle
  2
Conceptual
 70
     9
 71
     3
 72
     2
 73
     0
 90
        0
 40
-0.6
 41
-30.0
 62
     5
 63
     7
 74
     2
 91
        2
 64
     7
 65
   257
 75
     1
175
     1
 42
179.0
 92
        8
 66
     7
 43
1.0
 76
     1
 77
     6
 78
     2
 67
     7
 79
     3
170
     0
171
     0
290
     0
174
     0
 93
        1
 44
0.0
173
     0
291
     0
 45
0.0
1001
ACAD
1000
AcDbSavedByObjectVersion
1070
     0
  0
VISUALSTYLE
  5
E029
102
{ACAD_XDICTIONARY
360
E08C
102
}
102
{ACAD_REACTORS
330
E01E
102
}
330
E01E
100
AcDbVisualStyle
  2
Dim
 70
    11
 71
     2
 72
     2
 73
     0
 90
        0
 40
-0.6
 41
-30.0
 62
     5
 63
     7
 74
     1
 91
        4
 64
     7
 65
   257
 75
     1
175
     1
 42
1.0
 92
        8
 66
     7
 43
1.0
 76
     1
 77
     6
 78
     2
 67
     7
 79
     5
170
     0
171
     0
290
     0
174
     0
 93
        1
 44
-50.0
173
     0
291
     1
 45
0.0
1001
ACAD
1000
AcDbSavedByObjectVersion
1070
     0
  0
VISUALSTYLE
  5
E036
102
{ACAD_XDICTIONARY
360
E0A6
102
}
102
{ACAD_REACTORS
330
E01E
102
}
330
E01E
100
AcDbVisualStyle
  2
EdgeColorOff
 70
    22
 71
     2
 72
     2
 73
     0
 90
        0
 40
-0.6
 41
-30.0
 62
     5
 63
     7
 74
     1
 91
        4
 64
     7
 65
   257
 75
     1
175
     1
 42
1.0
 92
        8
 66
     7
 43
1.0
 76
     1
 77
     6
 78
     2
 67
     7
 79
     5
170
     0
171
     0
290
     0
174
     0
 93
        1
 44
0.0
173
     0
291
     1
 45
0.0
1001
ACAD
1000
AcDbSavedByObjectVersion
1070
     0
  0
VISUALSTYLE
  5
E02D
102
{ACAD_XDICTIONARY
360
E094
102
}
102
{ACAD_REACTORS
330
E01E
102
}
330
E01E
100
AcDbVisualStyle
  2
Facepattern
 70
    15
 71
     2
 72
     2
 73
     0
 90
        0
 40
-0.6
 41
-30.0
 62
     5
 63
     7
 74
     1
 91
        4
 64
     7
 65
   257
 75
     1
175
     1
 42
1.0
 92
        8
 66
     7
 43
1.0
 76
     1
 77
     6
 78
     2
 67
     7
 79
     5
170
     0
171
     0
290
     0
174
     0
 93
        1
 44
0.0
173
     0
291
     1
 45
0.0
1001
ACAD
1000
AcDbSavedByObjectVersion
1070
     0
  0
VISUALSTYLE
  5
E01F
102
{ACAD_XDICTIONARY
360
E078
102
}
102
{ACAD_REACTORS
330
E01E
102
}
330
E01E
100
AcDbVisualStyle
  2
Flat
 70
     0
 71
     2
 72
     1
 73
     1
 90
        2
 40
-0.6
 41
30.0
 62
     5
 63
     7
 74
     0
 91
        0
 64
     7
 65
   257
 75
     1
175
     1
 42
1.0
 92
        8
 66
     7
 43
1.0
 76
     1
 77
     6
 78
     2
 67
     7
 79
     5
170
     0
171
     0
290
     0
174
     0
 93
       13
 44
0.0
173
     0
291
     1
 45
0.0
1001
ACAD
1000
AcDbSavedByObjectVersion
1070
     0
  0
VISUALSTYLE
  5
E020
102
{ACAD_XDICTIONARY
360
E07A
102
}
102
{ACAD_REACTORS
330
E01E
102
}
330
E01E
100
AcDbVisualStyle
  2
FlatWithEdges
 70
     1
 71
     2
 72
     1
 73
     1
 90
        2
 40
-0.6
 41
30.0
 62
     5
 63
     7
 74
     1
 91
        0
 64
     7
 65
   257
 75
     1
175
     1
 42
1.0
 92
        0
 66
   257
 43
1.0
 76
     1
 77
     6
 78
     2
 67
     7
 79
     5
170
     0
171
     0
290
     0
174
     0
 93
       13
 44
0.0
173
     0
291
     1
 45
0.0
1001
ACAD
1000
AcDbSavedByObjectVersion
1070
     0
  0
VISUALSTYLE
  5
E021
102
{ACAD_XDICTIONARY
360
E07C
102
}
102
{ACAD_REACTORS
330
E01E
102
}
330
E01E
100
AcDbVisualStyle
  2
Gouraud
 70
     2
 71
     2
 72
     2
 73
     1
 90
        2
 40
-0.6
 41
30.0
 62
     5
 63
     7
 74
     0
 91
        0
 64
     7
 65
   257
 75
     1
175
     1
 42
1.0
 92
        0
 66
     7
 43
1.0
 76
     1
 77
     6
 78
     2
 67
     7
 79
     5
170
     0
171
     0
290
     0
174
     0
 93
       13
 44
0.0
173
     0
291
     1
 45
0.0
1001
ACAD
1000
AcDbSavedByObjectVersion
1070
     0
  0
VISUALSTYLE
  5
E022
102
{ACAD_XDICTIONARY
360
E07E
102
}
102
{ACAD_REACTORS
330
E01E
102
}
330
E01E
100
AcDbVisualStyle
  2
GouraudWithEdges
 70
     3
 71
     2
 72
     2
 73
     1
 90
        2
 40
-0.6
 41
30.0
 62
     5
 63
     7
 74
     1
 91
        0
 64
     7
 65
   257
 75
     1
175
     1
 42
1.0
 92
        0
 66
   257
 43
1.0
 76
     1
 77
     6
 78
     2
 67
     7
 79
     5
170
     0
171
     0
290
     0
174
     0
 93
       13
 44
0.0
173
     0
291
     1
 45
0.0
1001
ACAD
1000
AcDbSavedByObjectVersion
1070
     0
  0
VISUALSTYLE
  5
E026
102
{ACAD_XDICTIONARY
360
E086
102
}
102
{ACAD_REACTORS
330
E01E
102
}
330
E01E
100
AcDbVisualStyle
  2
Hidden
 70
     6
 71
     1
 72
     2
 73
     2
 90
        0
 40
-0.6
 41
-30.0
 62
     5
 63
     7
 74
     2
 91
        2
 64
     7
 65
   257
 75
     2
175
     1
 42
40.0
 92
        0
 66
   257
 43
1.0
 76
     1
 77
     6
 78
     2
 67
     7
 79
     3
170
     0
171
     0
290
     0
174
     0
 93
        1
 44
0.0
173
     0
291
     0
 45
0.0
1001
ACAD
1000
AcDbSavedByObjectVersion
1070
     0
  0
VISUALSTYLE
  5
E034
102
{ACAD_XDICTIONARY
360
E0A2
102
}
102
{ACAD_REACTORS
330
E01E
102
}
330
E01E
100
AcDbVisualStyle
  2
JitterOff
 70
    20
 71
     2
 72
     2
 73
     0
 90
        0
 40
-0.6
 41
-30.0
 62
     5
 63
     7
 74
     1
 91
        4
 64
     7
 65
   257
 75
     1
175
     1
 42
1.0
 92
       10
 66
     7
 43
1.0
 76
     1
 77
     6
 78
     2
 67
     7
 79
     5
170
     0
171
     0
290
     0
174
     0
 93
        1
 44
0.0
173
     0
291
     1
 45
0.0
1001
ACAD
1000
AcDbSavedByObjectVersion
1070
     0
  0
VISUALSTYLE
  5
E02C
102
{ACAD_XDICTIONARY
360
E092
102
}
102
{ACAD_REACTORS
330
E01E
102
}
330
E01E
100
AcDbVisualStyle
  2
Linepattern
 70
    14
 71
     2
 72
     2
 73
     0
 90
        0
 40
-0.6
 41
-30.0
 62
     5
 63
     7
 74
     1
 91
        4
 64
     7
 65
   257
 75
     7
175
     7
 42
1.0
 92
        8
 66
     7
 43
1.0
 76
     1
 77
     6
 78
     2
 67
     7
 79
     5
170
     0
171
     0
290
     0
174
     0
 93
        1
 44
0.0
173
     0
291
     1
 45
0.0
1001
ACAD
1000
AcDbSavedByObjectVersion
1070
     0
  0
VISUALSTYLE
  5
E035
102
{ACAD_XDICTIONARY
360
E0A4
102
}
102
{ACAD_REACTORS
330
E01E
102
}
330
E01E
100
AcDbVisualStyle
  2
OverhangOff
 70
    21
 71
     2
 72
     2
 73
     0
 90
        0
 40
-0.6
 41
-30.0
 62
     5
 63
     7
 74
     1
 91
        4
 64
     7
 65
   257
 75
     1
175
     1
 42
1.0
 92
        9
 66
     7
 43
1.0
 76
     1
 77
     6
 78
     2
 67
     7
 79
     5
170
     0
171
     0
290
     0
174
     0
 93
        1
 44
0.0
173
     0
291
     1
 45
0.0
1001
ACAD
1000
AcDbSavedByObjectVersion
1070
     0
  0
VISUALSTYLE
  5
E028
102
{ACAD_XDICTIONARY
360
E08A
102
}
102
{ACAD_REACTORS
330
E01E
102
}
330
E01E
100
AcDbVisualStyle
  2
Realistic
 70
     8
 71
     2
 72
     3
 73
     0
 90
        2
 40
-0.6
 41
30.0
 62
     5
 63
     7
 74
     0
 91
        0
 64
     7
 65
   257
 75
     1
175
     1
 42
1.0
 92
        8
 66
   257
 43
1.0
 76
     1
 77
     6
 78
     2
 67
     7
 79
     3
170
     0
171
     0
290
     0
174
     0
 93
       13
 44
0.0
173
     0
291
     0
 45
0.0
1001
ACAD
1000
AcDbSavedByObjectVersion
1070
     0
  0
VISUALSTYLE
  5
E033
102
{ACAD_XDICTIONARY
360
E0A0
102
}
102
{ACAD_REACTORS
330
E01E
102
}
330
E01E
100
AcDbVisualStyle
  2
Shaded
 70
    27
 71
     2
 72
     2
 73
     1
 90
        2
 40
-0.6
 41
30.0
 62
     5
 63
     7
 74
     0
 91
        4
 64
     7
 65
   257
 75
     1
175
     1
 42
1.0
 92
        8
 66
   257
 43
1.0
 76
     1
 77
     6
 78
     2
 67
     8
 79
     3
170
     0
171
     0
290
     0
174
     0
 93
        5
 44
0.0
173
     0
291
     0
 45
0.0
1001
ACAD
1000
AcDbSavedByObjectVersion
1070
     0
  0
VISUALSTYLE
  5
E032
102
{ACAD_XDICTIONARY
360
E09E
102
}
102
{ACAD_REACTORS
330
E01E
102
}
330
E01E
100
AcDbVisualStyle
  2
Shaded with edges
 70
    26
 71
     2
 72
     2
 73
     1
 90
        2
 40
-0.6
 41
30.0
 62
     5
 63
     7
 74
     1
 91
       10
 64
     7
 65
   257
 75
     2
175
     1
 42
1.0
 92
        8
 66
   257
 43
1.0
 76
     1
 77
     6
 78
     2
 67
     7
 79
     3
170
     0
171
     0
290
     0
174
     0
 93
        5
 44
0.0
173
     0
291
     0
 45
0.0
1001
ACAD
1000
AcDbSavedByObjectVersion
1070
     0
  0
VISUALSTYLE
  5
E02F
102
{ACAD_XDICTIONARY
360
E098
102
}
102
{ACAD_REACTORS
330
E01E
102
}
330
E01E
100
AcDbVisualStyle
  2
Shades of Gray
 70
    23
 71
     2
 72
     2
 73
     3
 90
        0
 40
-0.6
 41
-30.0
 62
     5
 63
     7
 74
     2
 91
        2
 64
     7
 65
     7
 75
     1
175
     1
 42
40.0
 92
        8
 66
     7
 43
1.0
 76
     1
 77
     6
 78
     2
 67
     7
 79
     3
170
     0
171
     0
290
     0
174
     0
 93
        1
 44
0.0
173
     0
291
     0
 45
0.0
1001
ACAD
1000
AcDbSavedByObjectVersion
1070
     0
  0
VISUALSTYLE
  5
E030
102
{ACAD_XDICTIONARY
360
E09A
102
}
102
{ACAD_REACTORS
330
E01E
102
}
330
E01E
100
AcDbVisualStyle
  2
Sketchy
 70
    24
 71
     1
 72
     2
 73
     2
 90
        0
 40
-0.6
 41
-30.0
 62
     5
 63
     7
 74
     2
 91
        2
 64
     7
 65
     7
 75
     1
175
     1
 42
40.0
 92
       11
 66
     7
 43
1.0
 76
     1
 77
     6
 78
     2
 67
     7
 79
     6
170
     0
171
     0
290
     0
174
     0
 93
        1
 44
0.0
173
     0
291
     0
 45
0.0
1001
ACAD
1000
AcDbSavedByObjectVersion
1070
     0
  0
VISUALSTYLE
  5
E02B
102
{ACAD_XDICTIONARY
360
E090
102
}
102
{ACAD_REACTORS
330
E01E
102
}
330
E01E
100
AcDbVisualStyle
  2
Thicken
 70
    13
 71
     2
 72
     2
 73
     0
 90
        0
 40
-0.6
 41
-30.0
 62
     5
 63
     7
 74
     1
 91
        4
 64
     7
 65
   257
 75
     1
175
     1
 42
1.0
 92
       12
 66
     7
 43
1.0
 76
     1
 77
     6
 78
     2
 67
     7
 79
     5
170
     0
171
     0
290
     0
174
     0
 93
        1
 44
0.0
173
     0
291
     1
 45
0.0
1001
ACAD
1000
AcDbSavedByObjectVersion
1070
     0
  0
VISUALSTYLE
  5
E025
102
{ACAD_XDICTIONARY
360
E084
102
}
102
{ACAD_REACTORS
330
E01E
102
}
330
E01E
100
AcDbVisualStyle
  2
Wireframe
 70
     5
 71
     0
 72
     2
 73
     0
 90
        0
 40
-0.6
 41
-30.0
 62
     5
 63
     7
 74
     1
 91
        4
 64
     7
 65
   257
 75
     1
175
     1
 42
1.0
 92
        0
 66
   257
 43
1.0
 76
     1
 77
     6
 78
     2
 67
     7
 79
     3
170
     0
171
     0
290
     0
174
     0
 93
        1
 44
0.0
173
     0
291
     0
 45
0.0
1001
ACAD
1000
AcDbSavedByObjectVersion
1070
     0
  0
VISUALSTYLE
  5
E031
102
{ACAD_XDICTIONARY
360
E09C
102
}
102
{ACAD_REACTORS
330
E01E
102
}
330
E01E
100
AcDbVisualStyle
  2
X-Ray
 70
    25
 71
     2
 72
     2
 73
     1
 90
        1
 40
0.5
 41
-30.0
 62
     5
 63
     7
 74
     1
 91
        0
 64
     7
 65
   257
 75
     1
175
     1
 42
1.0
 92
        8
 66
     7
 43
1.0
 76
     1
 77
     6
 78
     2
 67
     7
 79
     3
170
     0
171
     0
290
     0
174
     0
 93
       13
 44
0.0
173
     0
291
     0
 45
0.0
1001
ACAD
1000
AcDbSavedByObjectVersion
1070
     0
  0
DICTIONARYVAR
  5
E06B
102
{ACAD_REACTORS
330
E066
102
}
330
E066
100
DictionaryVariables
280
     0
  1
1:1
  0
DICTIONARYVAR
  5
E068
102
{ACAD_REACTORS
330
E066
102
}
330
E066
100
DictionaryVariables
280
     0
  1
STANDARD
  0
DICTIONARYVAR
  5
E067
102
{ACAD_REACTORS
330
E066
102
}
330
E066
100
DictionaryVariables
280
     0
  1
STANDARD
  0
DICTIONARYVAR
  5
E069
102
{ACAD_REACTORS
330
E066
102
}
330
E066
100
DictionaryVariables
280
     0
  1
Imperial24
  0
DICTIONARYVAR
  5
E06A
102
{ACAD_REACTORS
330
E066
102
}
330
E066
100
DictionaryVariables
280
     0
  1
Imperial24
  0
DICTIONARYVAR
  5
E06E
102
{ACAD_REACTORS
330
E066
102
}
330
E066
100
DictionaryVariables
280
     0
  1
1
  0
DICTIONARYVAR
  5
E06D
102
{ACAD_REACTORS
330
E066
102
}
330
E066
100
DictionaryVariables
280
     0
  1
0
  0
DICTIONARYVAR
  5
E06C
102
{ACAD_REACTORS
330
E066
102
}
330
E066
100
DictionaryVariables
280
     0
  1
127
  0
DICTIONARYVAR
  5
E06F
102
{ACAD_REACTORS
330
E066
102
}
330
E066
100
DictionaryVariables
280
     0
  1
2
  0
DICTIONARY
  5
E0AC
330
E051
100
AcDbDictionary
280
     1
281
     1
  3
ACAD_XREC_ROUNDTRIP
360
E0AD
  0
DICTIONARY
  5
E0AE
330
E052
100
AcDbDictionary
280
     1
281
     1
  3
ACAD_XREC_ROUNDTRIP
360
E0AF
  0
DICTIONARY
  5
E0B0
330
E053
100
AcDbDictionary
280
     1
281
     1
  3
ACAD_XREC_ROUNDTRIP
360
E0B1
  0
DICTIONARY
  5
E00F
330
E00E
100
AcDbDictionary
280
     1
281
     1
  3
ACAD_XREC_ROUNDTRIP
360
E076
  3
BUMPTILE
360
E011
  3
DIFFUSETILE
360
E010
  3
OPACITYTILE
360
E014
  3
REFLECTIONTILE
360
E013
  3
REFRACTIONTILE
360
E015
  3
SPECULARTILE
360
E012
  0
DICTIONARY
  5
E007
330
E006
100
AcDbDictionary
280
     1
281
     1
  3
ACAD_XREC_ROUNDTRIP
360
E075
  3
BUMPTILE
360
E009
  3
DIFFUSETILE
360
E008
  3
OPACITYTILE
360
E00C
  3
REFLECTIONTILE
360
E00B
  3
REFRACTIONTILE
360
E00D
  3
SPECULARTILE
360
E00A
  0
DICTIONARY
  5
E017
330
E016
100
AcDbDictionary
280
     1
281
     1
  3
ACAD_XREC_ROUNDTRIP
360
E077
  3
BUMPTILE
360
E019
  3
DIFFUSETILE
360
E018
  3
OPACITYTILE
360
E01C
  3
REFLECTIONTILE
360
E01B
  3
REFRACTIONTILE
360
E01D
  3
SPECULARTILE
360
E01A
  0
DICTIONARY
  5
E0AA
330
E04F
100
AcDbDictionary
280
     1
281
     1
  3
ACAD_XREC_ROUNDTRIP
360
E0AB
  0
DICTIONARY
  5
E071
330
E039
100
AcDbDictionary
280
     1
281
     1
  3
ACAD_ROUNDTRIP_2008_TABLESTYLE_CELLSTYLEMAP
360
E072
  3
ACAD_XREC_ROUNDTRIP
360
E0A8
  0
DICTIONARY
  5
E082
330
E024
100
AcDbDictionary
280
     1
281
     1
  3
ACAD_XREC_ROUNDTRIP
360
E083
  0
DICTIONARY
  5
E080
330
E023
100
AcDbDictionary
280
     1
281
     1
  3
ACAD_XREC_ROUNDTRIP
360
E081
  0
DICTIONARY
  5
E08E
330
E02A
100
AcDbDictionary
280
     1
281
     1
  3
ACAD_XREC_ROUNDTRIP
360
E08F
  0
DICTIONARY
  5
E096
330
E02E
100
AcDbDictionary
280
     1
281
     1
  3
ACAD_XREC_ROUNDTRIP
360
E097
  0
DICTIONARY
  5
E088
330
E027
100
AcDbDictionary
280
     1
281
     1
  3
ACAD_XREC_ROUNDTRIP
360
E089
  0
DICTIONARY
  5
E08C
330
E029
100
AcDbDictionary
280
     1
281
     1
  3
ACAD_XREC_ROUNDTRIP
360
E08D
  0
DICTIONARY
  5
E0A6
330
E036
100
AcDbDictionary
280
     1
281
     1
  3
ACAD_XREC_ROUNDTRIP
360
E0A7
  0
DICTIONARY
  5
E094
330
E02D
100
AcDbDictionary
280
     1
281
     1
  3
ACAD_XREC_ROUNDTRIP
360
E095
  0
DICTIONARY
  5
E078
330
E01F
100
AcDbDictionary
280
     1
281
     1
  3
ACAD_XREC_ROUNDTRIP
360
E079
  0
DICTIONARY
  5
E07A
330
E020
100
AcDbDictionary
280
     1
281
     1
  3
ACAD_XREC_ROUNDTRIP
360
E07B
  0
DICTIONARY
  5
E07C
330
E021
100
AcDbDictionary
280
     1
281
     1
  3
ACAD_XREC_ROUNDTRIP
360
E07D
  0
DICTIONARY
  5
E07E
330
E022
100
AcDbDictionary
280
     1
281
     1
  3
ACAD_XREC_ROUNDTRIP
360
E07F
  0
DICTIONARY
  5
E086
330
E026
100
AcDbDictionary
280
     1
281
     1
  3
ACAD_XREC_ROUNDTRIP
360
E087
  0
DICTIONARY
  5
E0A2
330
E034
100
AcDbDictionary
280
     1
281
     1
  3
ACAD_XREC_ROUNDTRIP
360
E0A3
  0
DICTIONARY
  5
E092
330
E02C
100
AcDbDictionary
280
     1
281
     1
  3
ACAD_XREC_ROUNDTRIP
360
E093
  0
DICTIONARY
  5
E0A4
330
E035
100
AcDbDictionary
280
     1
281
     1
  3
ACAD_XREC_ROUNDTRIP
360
E0A5
  0
DICTIONARY
  5
E08A
330
E028
100
AcDbDictionary
280
     1
281
     1
  3
ACAD_XREC_ROUNDTRIP
360
E08B
  0
DICTIONARY
  5
E0A0
330
E033
100
AcDbDictionary
280
     1
281
     1
  3
ACAD_XREC_ROUNDTRIP
360
E0A1
  0
DICTIONARY
  5
E09E
330
E032
100
AcDbDictionary
280
     1
281
     1
  3
ACAD_XREC_ROUNDTRIP
360
E09F
  0
DICTIONARY
  5
E098
330
E02F
100
AcDbDictionary
280
     1
281
     1
  3
ACAD_XREC_ROUNDTRIP
360
E099
  0
DICTIONARY
  5
E09A
330
E030
100
AcDbDictionary
280
     1
281
     1
  3
ACAD_XREC_ROUNDTRIP
360
E09B
  0
DICTIONARY
  5
E090
330
E02B
100
AcDbDictionary
280
     1
281
     1
  3
ACAD_XREC_ROUNDTRIP
360
E091
  0
DICTIONARY
  5
E084
330
E025
100
AcDbDictionary
280
     1
281
     1
  3
ACAD_XREC_ROUNDTRIP
360
E085
  0
DICTIONARY
  5
E09C
330
E031
100
AcDbDictionary
280
     1
281
     1
  3
ACAD_XREC_ROUNDTRIP
360
E09D
  0
XRECORD
  5
E0AD
102
{ACAD_REACTORS
330
E0AC
102
}
330
E0AC
100
AcDbXrecord
280
     1
102
DISPLAYNAME
  1
Imperial24
102
FLAGS
 90
        0
  0
XRECORD
  5
E0AF
102
{ACAD_REACTORS
330
E0AE
102
}
330
E0AE
100
AcDbXrecord
280
     1
102
SHADEPLOT
 70
     0
102
SHADEPLOTRESLEVEL
 70
     2
102
SHADEPLOTCUSTOMDPI
 70
   300
  0
XRECORD
  5
E0B1
102
{ACAD_REACTORS
330
E0B0
102
}
330
E0B0
100
AcDbXrecord
280
     1
102
SHADEPLOT
 70
     0
102
SHADEPLOTRESLEVEL
 70
     2
102
SHADEPLOTCUSTOMDPI
 70
   300
  0
XRECORD
  5
E076
102
{ACAD_REACTORS
330
E00F
102
}
330
E00F
100
AcDbXrecord
280
     1
102
MATERIAL
148
0.0
149
0.0
149
0.0
 93
        0
 94
      127
282
     0
 72
     0
 77
     0
171
     0
175
     0
179
     0
273
     0
  0
XRECORD
  5
E011
102
{ACAD_REACTORS
330
E00F
102
}
330
E00F
100
AcDbXrecord
280
     1
270
     1
271
     1
  0
XRECORD
  5
E010
102
{ACAD_REACTORS
330
E00F
102
}
330
E00F
100
AcDbXrecord
280
     1
270
     1
271
     1
  0
XRECORD
  5
E014
102
{ACAD_REACTORS
330
E00F
102
}
330
E00F
100
AcDbXrecord
280
     1
270
     1
271
     1
  0
XRECORD
  5
E013
102
{ACAD_REACTORS
330
E00F
102
}
330
E00F
100
AcDbXrecord
280
     1
270
     1
271
     1
  0
XRECORD
  5
E015
102
{ACAD_REACTORS
330
E00F
102
}
330
E00F
100
AcDbXrecord
280
     1
270
     1
271
     1
  0
XRECORD
  5
E012
102
{ACAD_REACTORS
330
E00F
102
}
330
E00F
100
AcDbXrecord
280
     1
270
     1
271
     1
  0
XRECORD
  5
E075
102
{ACAD_REACTORS
330
E007
102
}
330
E007
100
AcDbXrecord
280
     1
102
MATERIAL
148
0.0
149
0.0
149
0.0
 93
        0
 94
      127
282
     0
 72
     0
 77
     0
171
     0
175
     0
179
     0
273
     0
  0
XRECORD
  5
E009
102
{ACAD_REACTORS
330
E007
102
}
330
E007
100
AcDbXrecord
280
     1
270
     1
271
     1
  0
XRECORD
  5
E008
102
{ACAD_REACTORS
330
E007
102
}
330
E007
100
AcDbXrecord
280
     1
270
     1
271
     1
  0
XRECORD
  5
E00C
102
{ACAD_REACTORS
330
E007
102
}
330
E007
100
AcDbXrecord
280
     1
270
     1
271
     1
  0
XRECORD
  5
E00B
102
{ACAD_REACTORS
330
E007
102
}
330
E007
100
AcDbXrecord
280
     1
270
     1
271
     1
  0
XRECORD
  5
E00D
102
{ACAD_REACTORS
330
E007
102
}
330
E007
100
AcDbXrecord
280
     1
270
     1
271
     1
  0
XRECORD
  5
E00A
102
{ACAD_REACTORS
330
E007
102
}
330
E007
100
AcDbXrecord
280
     1
270
     1
271
     1
  0
XRECORD
  5
E077
102
{ACAD_REACTORS
330
E017
102
}
330
E017
100
AcDbXrecord
280
     1
102
MATERIAL
148
0.0
149
0.0
149
0.0
 93
        0
 94
      127
282
     0
 72
     0
 77
     0
171
     0
175
     0
179
     0
273
     0
  0
XRECORD
  5
E019
102
{ACAD_REACTORS
330
E017
102
}
330
E017
100
AcDbXrecord
280
     1
270
     1
271
     1
  0
XRECORD
  5
E018
102
{ACAD_REACTORS
330
E017
102
}
330
E017
100
AcDbXrecord
280
     1
270
     1
271
     1
  0
XRECORD
  5
E01C
102
{ACAD_REACTORS
330
E017
102
}
330
E017
100
AcDbXrecord
280
     1
270
     1
271
     1
  0
XRECORD
  5
E01B
102
{ACAD_REACTORS
330
E017
102
}
330
E017
100
AcDbXrecord
280
     1
270
     1
271
     1
  0
XRECORD
  5
E01D
102
{ACAD_REACTORS
330
E017
102
}
330
E017
100
AcDbXrecord
280
     1
270
     1
271
     1
  0
XRECORD
  5
E01A
102
{ACAD_REACTORS
330
E017
102
}
330
E017
100
AcDbXrecord
280
     1
270
     1
271
     1
  0
XRECORD
  5
E0AB
102
{ACAD_REACTORS
330
E0AA
102
}
330
E0AA
100
AcDbXrecord
280
     1
102
DISPLAYNAME
  1
Imperial24
102
FLAGS
 90
        0
  0
CELLSTYLEMAP
  5
E072
102
{ACAD_REACTORS
330
E071
102
}
330
E071
100
AcDbCellStyleMap
 90
        3
300
CELLSTYLE
  1
TABLEFORMAT_BEGIN
 90
        5
170
     1
 91
        0
 92
    32768
 62
   257
 93
        1
300
CONTENTFORMAT
  1
CONTENTFORMAT_BEGIN
 90
        0
 91
        0
 92
      512
 93
        0
300

 40
0.0
140
1.0
 94
        5
 62
     0
340
DA20
144
0.25
309
CONTENTFORMAT_END
171
     0
 94
        0
309
TABLEFORMAT_END
  1
CELLSTYLE_BEGIN
 90
        1
 91
        1
300
_TITLE
309
CELLSTYLE_END
300
CELLSTYLE
  1
TABLEFORMAT_BEGIN
 90
        5
170
     1
 91
        0
 92
        0
 62
   257
 93
        1
300
CONTENTFORMAT
  1
CONTENTFORMAT_BEGIN
 90
        0
 91
        0
 92
      512
 93
        0
300

 40
0.0
140
1.0
 94
        5
 62
     0
340
DA20
144
0.18
309
CONTENTFORMAT_END
171
     0
 94
        0
309
TABLEFORMAT_END
  1
CELLSTYLE_BEGIN
 90
        2
 91
        1
300
_HEADER
309
CELLSTYLE_END
300
CELLSTYLE
  1
TABLEFORMAT_BEGIN
 90
        5
170
     1
 91
        0
 92
        0
 62
   257
 93
        1
300
CONTENTFORMAT
  1
CONTENTFORMAT_BEGIN
 90
        0
 91
        0
 92
      512
 93
        0
300

 40
0.0
140
1.0
 94
        2
 62
     0
340
DA20
144
0.18
309
CONTENTFORMAT_END
171
     0
 94
        0
309
TABLEFORMAT_END
  1
CELLSTYLE_BEGIN
 90
        3
 91
        2
300
_DATA
309
CELLSTYLE_END
  0
XRECORD
  5
E0A8
102
{ACAD_REACTORS
330
E071
102
}
330
E071
100
AcDbXrecord
280
     1
102
ACAD_ROUNDTRIP_PRE2007_TABLESTYLE
 90
      512
 91
        0
  1

 92
      512
 93
        0
  2

 94
      512
 95
        0
  3

  0
XRECORD
  5
E083
102
{ACAD_REACTORS
330
E082
102
}
330
E082
100
AcDbXrecord
280
     1
102
RTVSPost2010Prop28
280
     1
102
RTVSPost2010PropOp28
 70
     1
102
RTVSPost2010Prop29
280
     1
102
RTVSPost2010PropOp29
 70
     1
102
RTVSPost2010Prop30
280
     0
102
RTVSPost2010PropOp30
 70
     1
102
RTVSPost2010Prop31
280
     0
102
RTVSPost2010PropOp31
 70
     1
102
RTVSPost2010Prop32
280
     0
102
RTVSPost2010PropOp32
 70
     1
102
RTVSPost2010Prop33
280
     0
102
RTVSPost2010PropOp33
 70
     1
102
RTVSPost2010Prop34
280
     0
102
RTVSPost2010PropOp34
 70
     1
102
RTVSPost2010Prop35
280
     0
102
RTVSPost2010PropOp35
 70
     1
102
RTVSPost2010Prop36
280
     0
102
RTVSPost2010PropOp36
 70
     1
102
RTVSPost2010Prop37
 90
       50
102
RTVSPost2010PropOp37
 70
     1
102
RTVSPost2010Prop38
140
0.0
102
RTVSPost2010PropOp38
 70
     1
102
RTVSPost2010Prop39
140
1.0
102
RTVSPost2010PropOp39
 70
     1
102
RTVSPost2010Prop40
 90
        0
102
RTVSPost2010PropOp40
 70
     1
102
RTVSPost2010Prop41ColorIndex
 90
       18
102
RTVSPost2010Prop41ColorRGB
 90
        0
102
RTVSPost2010PropOp41
 70
     1
102
RTVSPost2010Prop42
 90
       50
102
RTVSPost2010PropOp42
 70
     1
102
RTVSPost2010Prop43
 90
        3
102
RTVSPost2010PropOp43
 70
     1
102
RTVSPost2010Prop44ColorIndex
 90
        5
102
RTVSPost2010Prop44ColorRGB
 90
      255
102
RTVSPost2010PropOp44
 70
     1
102
RTVSPost2010Prop45
280
     0
102
RTVSPost2010PropOp45
 70
     1
102
RTVSPost2010Prop46
 90
       50
102
RTVSPost2010PropOp46
 70
     1
102
RTVSPost2010Prop47
 90
       50
102
RTVSPost2010PropOp47
 70
     1
102
RTVSPost2010Prop48
 90
       50
102
RTVSPost2010PropOp48
 70
     1
102
RTVSPost2010Prop49
280
     0
102
RTVSPost2010PropOp49
 70
     1
102
RTVSPost2010Prop50
 90
       50
102
RTVSPost2010PropOp50
 70
     1
102
RTVSPost2010Prop51ColorIndex
 90
      256
102
RTVSPost2010Prop51ColorRGB
 90
-16777216
102
RTVSPost2010PropOp51
 70
     0
102
RTVSPost2010Prop52
140
1.0
102
RTVSPost2010PropOp52
 70
     0
102
RTVSPost2010Prop53
 90
        2
102
RTVSPost2010PropOp53
 70
     1
102
RTVSPost2010Prop54
  1
strokes_ogs.tif
102
RTVSPost2010PropOp54
 70
     1
102
RTVSPost2010Prop55
280
     0
102
RTVSPost2010PropOp55
 70
     1
102
RTVSPost2010Prop56
140
1.0
102
RTVSPost2010PropOp56
 70
     1
102
RTVSPost2010Prop57
140
1.0
102
RTVSPost2010PropOp57
 70
     1
102
RTVSPropertyOp0
 70
     1
102
RTVSPropertyOp1
 70
     1
102
RTVSPropertyOp2
 70
     1
102
RTVSPropertyOp3
 70
     1
102
RTVSPropertyOp4
 70
     1
102
RTVSPropertyOp5
 70
     1
102
RTVSPropertyOp6
 70
     1
102
RTVSPropertyOp7
 70
     1
102
RTVSPropertyOp8
 70
     1
102
RTVSPropertyOp9
 70
     1
102
RTVSPropertyOp10
 70
     1
102
RTVSPropertyOp11
 70
     1
102
RTVSPropertyOp12
 70
     1
102
RTVSPropertyOp13
 70
     1
102
RTVSPropertyOp14
 70
     1
102
RTVSPropertyOp15
 70
     1
102
RTVSPropertyOp16
 70
     1
102
RTVSPropertyOp17
 70
     1
102
RTVSPropertyOp18
 70
     1
102
RTVSPropertyOp19
 70
     1
102
RTVSPropertyOp20
 70
     1
102
RTVSPropertyOp21
 70
     1
102
RTVSPropertyOp22
 70
     1
102
RTVSPropertyOp23
 70
     1
102
RTVSPropertyOp24
 70
     1
102
RTVSPropertyOp25
 70
     1
102
RTVSPropertyOp26
 70
     1
102
RTVSPropertyOp27
 70
     1
102
RTVSPropertyOp28
 70
     1
102
RTVSPropertyOp29
 70
     1
102
RTVSPropertyOp30
 70
     1
102
RTVSPropertyOp31
 70
     1
102
RTVSPropertyOp32
 70
     1
102
RTVSPropertyOp33
 70
     1
102
RTVSPropertyOp34
 70
     1
102
RTVSPropertyOp35
 70
     1
102
RTVSPropertyOp36
 70
     1
102
RTVSPropertyOp37
 70
     1
102
RTVSPropertyOp38
 70
     1
102
RTVSPropertyOp39
 70
     1
102
RTVSPropertyOp40
 70
     1
102
RTVSPropertyOp41
 70
     1
102
RTVSPropertyOp42
 70
     1
102
RTVSPropertyOp43
 70
     1
102
RTVSPropertyOp44
 70
     1
102
RTVSPropertyOp45
 70
     1
102
RTVSPropertyOp46
 70
     1
102
RTVSPropertyOp47
 70
     1
102
RTVSPropertyOp48
 70
     1
102
RTVSPropertyOp49
 70
     1
102
RTVSPropertyOp50
 70
     1
102
RTVSPropertyOp51
 70
     0
102
RTVSPropertyOp52
 70
     0
102
RTVSPropertyOp53
 70
     1
102
RTVSPropertyOp54
 70
     1
102
RTVSPropertyOp55
 70
     1
102
RTVSPropertyOp56
 70
     1
102
RTVSPropertyOp57
 70
     1
102
RTVSPropertyOp58
 70
     1
102
RTVSPropertyOp59
 70
     1
102
RTVSPropertyOp60
 70
     1
102
RTVSPropertyOp61
 70
     1
102
RTVSPropertyOp62
 70
     1
  0
XRECORD
  5
E081
102
{ACAD_REACTORS
330
E080
102
}
330
E080
100
AcDbXrecord
280
     1
102
RTVSPost2010Prop28
280
     0
102
RTVSPost2010PropOp28
 70
     1
102
RTVSPost2010Prop29
280
     1
102
RTVSPost2010PropOp29
 70
     1
102
RTVSPost2010Prop30
280
     1
102
RTVSPost2010PropOp30
 70
     1
102
RTVSPost2010Prop31
280
     0
102
RTVSPost2010PropOp31
 70
     1
102
RTVSPost2010Prop32
280
     0
102
RTVSPost2010PropOp32
 70
     1
102
RTVSPost2010Prop33
280
     0
102
RTVSPost2010PropOp33
 70
     1
102
RTVSPost2010Prop34
280
     0
102
RTVSPost2010PropOp34
 70
     1
102
RTVSPost2010Prop35
280
     0
102
RTVSPost2010PropOp35
 70
     1
102
RTVSPost2010Prop36
280
     0
102
RTVSPost2010PropOp36
 70
     1
102
RTVSPost2010Prop37
 90
       50
102
RTVSPost2010PropOp37
 70
     1
102
RTVSPost2010Prop38
140
0.0
102
RTVSPost2010PropOp38
 70
     1
102
RTVSPost2010Prop39
140
1.0
102
RTVSPost2010PropOp39
 70
     1
102
RTVSPost2010Prop40
 90
        0
102
RTVSPost2010PropOp40
 70
     1
102
RTVSPost2010Prop41ColorIndex
 90
       18
102
RTVSPost2010Prop41ColorRGB
 90
        0
102
RTVSPost2010PropOp41
 70
     1
102
RTVSPost2010Prop42
 90
       50
102
RTVSPost2010PropOp42
 70
     1
102
RTVSPost2010Prop43
 90
        3
102
RTVSPost2010PropOp43
 70
     1
102
RTVSPost2010Prop44ColorIndex
 90
        5
102
RTVSPost2010Prop44ColorRGB
 90
      255
102
RTVSPost2010PropOp44
 70
     1
102
RTVSPost2010Prop45
280
     0
102
RTVSPost2010PropOp45
 70
     1
102
RTVSPost2010Prop46
 90
       50
102
RTVSPost2010PropOp46
 70
     1
102
RTVSPost2010Prop47
 90
       50
102
RTVSPost2010PropOp47
 70
     1
102
RTVSPost2010Prop48
 90
       50
102
RTVSPost2010PropOp48
 70
     1
102
RTVSPost2010Prop49
280
     0
102
RTVSPost2010PropOp49
 70
     1
102
RTVSPost2010Prop50
 90
       50
102
RTVSPost2010PropOp50
 70
     1
102
RTVSPost2010Prop51ColorIndex
 90
      256
102
RTVSPost2010Prop51ColorRGB
 90
-16777216
102
RTVSPost2010PropOp51
 70
     0
102
RTVSPost2010Prop52
140
1.0
102
RTVSPost2010PropOp52
 70
     0
102
RTVSPost2010Prop53
 90
        2
102
RTVSPost2010PropOp53
 70
     1
102
RTVSPost2010Prop54
  1
strokes_ogs.tif
102
RTVSPost2010PropOp54
 70
     1
102
RTVSPost2010Prop55
280
     0
102
RTVSPost2010PropOp55
 70
     1
102
RTVSPost2010Prop56
140
1.0
102
RTVSPost2010PropOp56
 70
     1
102
RTVSPost2010Prop57
140
1.0
102
RTVSPost2010PropOp57
 70
     1
102
RTVSPropertyOp0
 70
     1
102
RTVSPropertyOp1
 70
     1
102
RTVSPropertyOp2
 70
     1
102
RTVSPropertyOp3
 70
     1
102
RTVSPropertyOp4
 70
     1
102
RTVSPropertyOp5
 70
     1
102
RTVSPropertyOp6
 70
     1
102
RTVSPropertyOp7
 70
     1
102
RTVSPropertyOp8
 70
     1
102
RTVSPropertyOp9
 70
     1
102
RTVSPropertyOp10
 70
     1
102
RTVSPropertyOp11
 70
     1
102
RTVSPropertyOp12
 70
     1
102
RTVSPropertyOp13
 70
     1
102
RTVSPropertyOp14
 70
     1
102
RTVSPropertyOp15
 70
     1
102
RTVSPropertyOp16
 70
     1
102
RTVSPropertyOp17
 70
     1
102
RTVSPropertyOp18
 70
     1
102
RTVSPropertyOp19
 70
     1
102
RTVSPropertyOp20
 70
     1
102
RTVSPropertyOp21
 70
     1
102
RTVSPropertyOp22
 70
     1
102
RTVSPropertyOp23
 70
     1
102
RTVSPropertyOp24
 70
     1
102
RTVSPropertyOp25
 70
     1
102
RTVSPropertyOp26
 70
     1
102
RTVSPropertyOp27
 70
     1
102
RTVSPropertyOp28
 70
     1
102
RTVSPropertyOp29
 70
     1
102
RTVSPropertyOp30
 70
     1
102
RTVSPropertyOp31
 70
     1
102
RTVSPropertyOp32
 70
     1
102
RTVSPropertyOp33
 70
     1
102
RTVSPropertyOp34
 70
     1
102
RTVSPropertyOp35
 70
     1
102
RTVSPropertyOp36
 70
     1
102
RTVSPropertyOp37
 70
     1
102
RTVSPropertyOp38
 70
     1
102
RTVSPropertyOp39
 70
     1
102
RTVSPropertyOp40
 70
     1
102
RTVSPropertyOp41
 70
     1
102
RTVSPropertyOp42
 70
     1
102
RTVSPropertyOp43
 70
     1
102
RTVSPropertyOp44
 70
     1
102
RTVSPropertyOp45
 70
     1
102
RTVSPropertyOp46
 70
     1
102
RTVSPropertyOp47
 70
     1
102
RTVSPropertyOp48
 70
     1
102
RTVSPropertyOp49
 70
     1
102
RTVSPropertyOp50
 70
     1
102
RTVSPropertyOp51
 70
     0
102
RTVSPropertyOp52
 70
     0
102
RTVSPropertyOp53
 70
     1
102
RTVSPropertyOp54
 70
     1
102
RTVSPropertyOp55
 70
     1
102
RTVSPropertyOp56
 70
     1
102
RTVSPropertyOp57
 70
     1
102
RTVSPropertyOp58
 70
     1
102
RTVSPropertyOp59
 70
     1
102
RTVSPropertyOp60
 70
     1
102
RTVSPropertyOp61
 70
     1
102
RTVSPropertyOp62
 70
     1
  0
XRECORD
  5
E08F
102
{ACAD_REACTORS
330
E08E
102
}
330
E08E
100
AcDbXrecord
280
     1
102
RTVSPost2010Prop28
280
     0
102
RTVSPost2010PropOp28
 70
     1
102
RTVSPost2010Prop29
280
     1
102
RTVSPost2010PropOp29
 70
     1
102
RTVSPost2010Prop30
280
     1
102
RTVSPost2010PropOp30
 70
     1
102
RTVSPost2010Prop31
280
     0
102
RTVSPost2010PropOp31
 70
     1
102
RTVSPost2010Prop32
280
     0
102
RTVSPost2010PropOp32
 70
     1
102
RTVSPost2010Prop33
280
     0
102
RTVSPost2010PropOp33
 70
     1
102
RTVSPost2010Prop34
280
     0
102
RTVSPost2010PropOp34
 70
     1
102
RTVSPost2010Prop35
280
     0
102
RTVSPost2010PropOp35
 70
     1
102
RTVSPost2010Prop36
280
     0
102
RTVSPost2010PropOp36
 70
     1
102
RTVSPost2010Prop37
 90
       50
102
RTVSPost2010PropOp37
 70
     1
102
RTVSPost2010Prop38
140
0.0
102
RTVSPost2010PropOp38
 70
     1
102
RTVSPost2010Prop39
140
1.0
102
RTVSPost2010PropOp39
 70
     1
102
RTVSPost2010Prop40
 90
        0
102
RTVSPost2010PropOp40
 70
     1
102
RTVSPost2010Prop41ColorIndex
 90
       18
102
RTVSPost2010Prop41ColorRGB
 90
        0
102
RTVSPost2010PropOp41
 70
     1
102
RTVSPost2010Prop42
 90
       50
102
RTVSPost2010PropOp42
 70
     1
102
RTVSPost2010Prop43
 90
        3
102
RTVSPost2010PropOp43
 70
     1
102
RTVSPost2010Prop44ColorIndex
 90
        5
102
RTVSPost2010Prop44ColorRGB
 90
      255
102
RTVSPost2010PropOp44
 70
     1
102
RTVSPost2010Prop45
280
     0
102
RTVSPost2010PropOp45
 70
     1
102
RTVSPost2010Prop46
 90
       50
102
RTVSPost2010PropOp46
 70
     1
102
RTVSPost2010Prop47
 90
       50
102
RTVSPost2010PropOp47
 70
     1
102
RTVSPost2010Prop48
 90
       50
102
RTVSPost2010PropOp48
 70
     1
102
RTVSPost2010Prop49
280
     0
102
RTVSPost2010PropOp49
 70
     1
102
RTVSPost2010Prop50
 90
       50
102
RTVSPost2010PropOp50
 70
     1
102
RTVSPost2010Prop51ColorIndex
 90
      256
102
RTVSPost2010Prop51ColorRGB
 90
-16777216
102
RTVSPost2010PropOp51
 70
     0
102
RTVSPost2010Prop52
140
1.0
102
RTVSPost2010PropOp52
 70
     0
102
RTVSPost2010Prop53
 90
        2
102
RTVSPost2010PropOp53
 70
     1
102
RTVSPost2010Prop54
  1
strokes_ogs.tif
102
RTVSPost2010PropOp54
 70
     1
102
RTVSPost2010Prop55
280
     0
102
RTVSPost2010PropOp55
 70
     1
102
RTVSPost2010Prop56
140
1.0
102
RTVSPost2010PropOp56
 70
     1
102
RTVSPost2010Prop57
140
1.0
102
RTVSPost2010PropOp57
 70
     1
102
RTVSPropertyOp0
 70
     1
102
RTVSPropertyOp1
 70
     1
102
RTVSPropertyOp2
 70
     1
102
RTVSPropertyOp3
 70
     1
102
RTVSPropertyOp4
 70
     1
102
RTVSPropertyOp5
 70
     1
102
RTVSPropertyOp6
 70
     1
102
RTVSPropertyOp7
 70
     1
102
RTVSPropertyOp8
 70
     1
102
RTVSPropertyOp9
 70
     1
102
RTVSPropertyOp10
 70
     1
102
RTVSPropertyOp11
 70
     1
102
RTVSPropertyOp12
 70
     1
102
RTVSPropertyOp13
 70
     1
102
RTVSPropertyOp14
 70
     1
102
RTVSPropertyOp15
 70
     1
102
RTVSPropertyOp16
 70
     1
102
RTVSPropertyOp17
 70
     1
102
RTVSPropertyOp18
 70
     1
102
RTVSPropertyOp19
 70
     1
102
RTVSPropertyOp20
 70
     1
102
RTVSPropertyOp21
 70
     1
102
RTVSPropertyOp22
 70
     1
102
RTVSPropertyOp23
 70
     1
102
RTVSPropertyOp24
 70
     1
102
RTVSPropertyOp25
 70
     1
102
RTVSPropertyOp26
 70
     1
102
RTVSPropertyOp27
 70
     1
102
RTVSPropertyOp28
 70
     1
102
RTVSPropertyOp29
 70
     1
102
RTVSPropertyOp30
 70
     1
102
RTVSPropertyOp31
 70
     1
102
RTVSPropertyOp32
 70
     1
102
RTVSPropertyOp33
 70
     1
102
RTVSPropertyOp34
 70
     1
102
RTVSPropertyOp35
 70
     1
102
RTVSPropertyOp36
 70
     1
102
RTVSPropertyOp37
 70
     1
102
RTVSPropertyOp38
 70
     1
102
RTVSPropertyOp39
 70
     1
102
RTVSPropertyOp40
 70
     1
102
RTVSPropertyOp41
 70
     1
102
RTVSPropertyOp42
 70
     1
102
RTVSPropertyOp43
 70
     1
102
RTVSPropertyOp44
 70
     1
102
RTVSPropertyOp45
 70
     1
102
RTVSPropertyOp46
 70
     1
102
RTVSPropertyOp47
 70
     1
102
RTVSPropertyOp48
 70
     1
102
RTVSPropertyOp49
 70
     1
102
RTVSPropertyOp50
 70
     1
102
RTVSPropertyOp51
 70
     0
102
RTVSPropertyOp52
 70
     0
102
RTVSPropertyOp53
 70
     1
102
RTVSPropertyOp54
 70
     1
102
RTVSPropertyOp55
 70
     1
102
RTVSPropertyOp56
 70
     1
102
RTVSPropertyOp57
 70
     1
102
RTVSPropertyOp58
 70
     1
102
RTVSPropertyOp59
 70
     1
102
RTVSPropertyOp60
 70
     1
102
RTVSPropertyOp61
 70
     1
102
RTVSPropertyOp62
 70
     1
  0
XRECORD
  5
E097
102
{ACAD_REACTORS
330
E096
102
}
330
E096
100
AcDbXrecord
280
     1
102
RTVSPost2010Prop28
280
     0
102
RTVSPost2010PropOp28
 70
     1
102
RTVSPost2010Prop29
280
     1
102
RTVSPost2010PropOp29
 70
     1
102
RTVSPost2010Prop30
280
     1
102
RTVSPost2010PropOp30
 70
     1
102
RTVSPost2010Prop31
280
     0
102
RTVSPost2010PropOp31
 70
     1
102
RTVSPost2010Prop32
280
     0
102
RTVSPost2010PropOp32
 70
     1
102
RTVSPost2010Prop33
280
     0
102
RTVSPost2010PropOp33
 70
     1
102
RTVSPost2010Prop34
280
     0
102
RTVSPost2010PropOp34
 70
     1
102
RTVSPost2010Prop35
280
     0
102
RTVSPost2010PropOp35
 70
     1
102
RTVSPost2010Prop36
280
     0
102
RTVSPost2010PropOp36
 70
     1
102
RTVSPost2010Prop37
 90
       50
102
RTVSPost2010PropOp37
 70
     1
102
RTVSPost2010Prop38
140
0.0
102
RTVSPost2010PropOp38
 70
     1
102
RTVSPost2010Prop39
140
1.0
102
RTVSPost2010PropOp39
 70
     1
102
RTVSPost2010Prop40
 90
        0
102
RTVSPost2010PropOp40
 70
     1
102
RTVSPost2010Prop41ColorIndex
 90
       18
102
RTVSPost2010Prop41ColorRGB
 90
        0
102
RTVSPost2010PropOp41
 70
     1
102
RTVSPost2010Prop42
 90
       50
102
RTVSPost2010PropOp42
 70
     1
102
RTVSPost2010Prop43
 90
        3
102
RTVSPost2010PropOp43
 70
     1
102
RTVSPost2010Prop44ColorIndex
 90
        5
102
RTVSPost2010Prop44ColorRGB
 90
      255
102
RTVSPost2010PropOp44
 70
     1
102
RTVSPost2010Prop45
280
     0
102
RTVSPost2010PropOp45
 70
     1
102
RTVSPost2010Prop46
 90
       50
102
RTVSPost2010PropOp46
 70
     1
102
RTVSPost2010Prop47
 90
       50
102
RTVSPost2010PropOp47
 70
     1
102
RTVSPost2010Prop48
 90
       50
102
RTVSPost2010PropOp48
 70
     1
102
RTVSPost2010Prop49
280
     0
102
RTVSPost2010PropOp49
 70
     1
102
RTVSPost2010Prop50
 90
       50
102
RTVSPost2010PropOp50
 70
     1
102
RTVSPost2010Prop51ColorIndex
 90
      256
102
RTVSPost2010Prop51ColorRGB
 90
-16777216
102
RTVSPost2010PropOp51
 70
     0
102
RTVSPost2010Prop52
140
1.0
102
RTVSPost2010PropOp52
 70
     0
102
RTVSPost2010Prop53
 90
        2
102
RTVSPost2010PropOp53
 70
     1
102
RTVSPost2010Prop54
  1
strokes_ogs.tif
102
RTVSPost2010PropOp54
 70
     1
102
RTVSPost2010Prop55
280
     0
102
RTVSPost2010PropOp55
 70
     1
102
RTVSPost2010Prop56
140
1.0
102
RTVSPost2010PropOp56
 70
     1
102
RTVSPost2010Prop57
140
1.0
102
RTVSPost2010PropOp57
 70
     1
102
RTVSPropertyOp0
 70
     1
102
RTVSPropertyOp1
 70
     1
102
RTVSPropertyOp2
 70
     1
102
RTVSPropertyOp3
 70
     1
102
RTVSPropertyOp4
 70
     1
102
RTVSPropertyOp5
 70
     1
102
RTVSPropertyOp6
 70
     1
102
RTVSPropertyOp7
 70
     1
102
RTVSPropertyOp8
 70
     1
102
RTVSPropertyOp9
 70
     1
102
RTVSPropertyOp10
 70
     1
102
RTVSPropertyOp11
 70
     1
102
RTVSPropertyOp12
 70
     1
102
RTVSPropertyOp13
 70
     1
102
RTVSPropertyOp14
 70
     1
102
RTVSPropertyOp15
 70
     1
102
RTVSPropertyOp16
 70
     1
102
RTVSPropertyOp17
 70
     1
102
RTVSPropertyOp18
 70
     1
102
RTVSPropertyOp19
 70
     1
102
RTVSPropertyOp20
 70
     1
102
RTVSPropertyOp21
 70
     1
102
RTVSPropertyOp22
 70
     1
102
RTVSPropertyOp23
 70
     1
102
RTVSPropertyOp24
 70
     1
102
RTVSPropertyOp25
 70
     1
102
RTVSPropertyOp26
 70
     1
102
RTVSPropertyOp27
 70
     1
102
RTVSPropertyOp28
 70
     1
102
RTVSPropertyOp29
 70
     1
102
RTVSPropertyOp30
 70
     1
102
RTVSPropertyOp31
 70
     1
102
RTVSPropertyOp32
 70
     1
102
RTVSPropertyOp33
 70
     1
102
RTVSPropertyOp34
 70
     1
102
RTVSPropertyOp35
 70
     1
102
RTVSPropertyOp36
 70
     1
102
RTVSPropertyOp37
 70
     1
102
RTVSPropertyOp38
 70
     1
102
RTVSPropertyOp39
 70
     1
102
RTVSPropertyOp40
 70
     1
102
RTVSPropertyOp41
 70
     1
102
RTVSPropertyOp42
 70
     1
102
RTVSPropertyOp43
 70
     1
102
RTVSPropertyOp44
 70
     1
102
RTVSPropertyOp45
 70
     1
102
RTVSPropertyOp46
 70
     1
102
RTVSPropertyOp47
 70
     1
102
RTVSPropertyOp48
 70
     1
102
RTVSPropertyOp49
 70
     1
102
RTVSPropertyOp50
 70
     1
102
RTVSPropertyOp51
 70
     0
102
RTVSPropertyOp52
 70
     0
102
RTVSPropertyOp53
 70
     1
102
RTVSPropertyOp54
 70
     1
102
RTVSPropertyOp55
 70
     1
102
RTVSPropertyOp56
 70
     1
102
RTVSPropertyOp57
 70
     1
102
RTVSPropertyOp58
 70
     1
102
RTVSPropertyOp59
 70
     1
102
RTVSPropertyOp60
 70
     1
102
RTVSPropertyOp61
 70
     1
102
RTVSPropertyOp62
 70
     1
  0
XRECORD
  5
E089
102
{ACAD_REACTORS
330
E088
102
}
330
E088
100
AcDbXrecord
280
     1
102
RTVSPost2010Prop28
280
     0
102
RTVSPost2010PropOp28
 70
     1
102
RTVSPost2010Prop29
280
     1
102
RTVSPost2010PropOp29
 70
     1
102
RTVSPost2010Prop30
280
     1
102
RTVSPost2010PropOp30
 70
     1
102
RTVSPost2010Prop31
280
     0
102
RTVSPost2010PropOp31
 70
     1
102
RTVSPost2010Prop32
280
     0
102
RTVSPost2010PropOp32
 70
     1
102
RTVSPost2010Prop33
280
     0
102
RTVSPost2010PropOp33
 70
     1
102
RTVSPost2010Prop34
280
     0
102
RTVSPost2010PropOp34
 70
     1
102
RTVSPost2010Prop35
280
     0
102
RTVSPost2010PropOp35
 70
     1
102
RTVSPost2010Prop36
280
     0
102
RTVSPost2010PropOp36
 70
     1
102
RTVSPost2010Prop37
 90
       50
102
RTVSPost2010PropOp37
 70
     1
102
RTVSPost2010Prop38
140
0.0
102
RTVSPost2010PropOp38
 70
     1
102
RTVSPost2010Prop39
140
1.0
102
RTVSPost2010PropOp39
 70
     1
102
RTVSPost2010Prop40
 90
        0
102
RTVSPost2010PropOp40
 70
     1
102
RTVSPost2010Prop41ColorIndex
 90
       18
102
RTVSPost2010Prop41ColorRGB
 90
        0
102
RTVSPost2010PropOp41
 70
     1
102
RTVSPost2010Prop42
 90
       50
102
RTVSPost2010PropOp42
 70
     1
102
RTVSPost2010Prop43
 90
        3
102
RTVSPost2010PropOp43
 70
     1
102
RTVSPost2010Prop44ColorIndex
 90
        5
102
RTVSPost2010Prop44ColorRGB
 90
      255
102
RTVSPost2010PropOp44
 70
     1
102
RTVSPost2010Prop45
280
     0
102
RTVSPost2010PropOp45
 70
     1
102
RTVSPost2010Prop46
 90
       50
102
RTVSPost2010PropOp46
 70
     1
102
RTVSPost2010Prop47
 90
       50
102
RTVSPost2010PropOp47
 70
     1
102
RTVSPost2010Prop48
 90
       50
102
RTVSPost2010PropOp48
 70
     1
102
RTVSPost2010Prop49
280
     0
102
RTVSPost2010PropOp49
 70
     1
102
RTVSPost2010Prop50
 90
       50
102
RTVSPost2010PropOp50
 70
     1
102
RTVSPost2010Prop51ColorIndex
 90
      256
102
RTVSPost2010Prop51ColorRGB
 90
-16777216
102
RTVSPost2010PropOp51
 70
     0
102
RTVSPost2010Prop52
140
1.0
102
RTVSPost2010PropOp52
 70
     0
102
RTVSPost2010Prop53
 90
        2
102
RTVSPost2010PropOp53
 70
     1
102
RTVSPost2010Prop54
  1
strokes_ogs.tif
102
RTVSPost2010PropOp54
 70
     1
102
RTVSPost2010Prop55
280
     0
102
RTVSPost2010PropOp55
 70
     1
102
RTVSPost2010Prop56
140
1.0
102
RTVSPost2010PropOp56
 70
     1
102
RTVSPost2010Prop57
140
1.0
102
RTVSPost2010PropOp57
 70
     1
102
RTVSPropertyOp0
 70
     1
102
RTVSPropertyOp1
 70
     1
102
RTVSPropertyOp2
 70
     1
102
RTVSPropertyOp3
 70
     1
102
RTVSPropertyOp4
 70
     1
102
RTVSPropertyOp5
 70
     1
102
RTVSPropertyOp6
 70
     1
102
RTVSPropertyOp7
 70
     1
102
RTVSPropertyOp8
 70
     1
102
RTVSPropertyOp9
 70
     1
102
RTVSPropertyOp10
 70
     1
102
RTVSPropertyOp11
 70
     1
102
RTVSPropertyOp12
 70
     1
102
RTVSPropertyOp13
 70
     1
102
RTVSPropertyOp14
 70
     1
102
RTVSPropertyOp15
 70
     1
102
RTVSPropertyOp16
 70
     1
102
RTVSPropertyOp17
 70
     1
102
RTVSPropertyOp18
 70
     1
102
RTVSPropertyOp19
 70
     1
102
RTVSPropertyOp20
 70
     1
102
RTVSPropertyOp21
 70
     1
102
RTVSPropertyOp22
 70
     1
102
RTVSPropertyOp23
 70
     1
102
RTVSPropertyOp24
 70
     1
102
RTVSPropertyOp25
 70
     1
102
RTVSPropertyOp26
 70
     1
102
RTVSPropertyOp27
 70
     1
102
RTVSPropertyOp28
 70
     1
102
RTVSPropertyOp29
 70
     1
102
RTVSPropertyOp30
 70
     1
102
RTVSPropertyOp31
 70
     1
102
RTVSPropertyOp32
 70
     1
102
RTVSPropertyOp33
 70
     1
102
RTVSPropertyOp34
 70
     1
102
RTVSPropertyOp35
 70
     1
102
RTVSPropertyOp36
 70
     1
102
RTVSPropertyOp37
 70
     1
102
RTVSPropertyOp38
 70
     1
102
RTVSPropertyOp39
 70
     1
102
RTVSPropertyOp40
 70
     1
102
RTVSPropertyOp41
 70
     1
102
RTVSPropertyOp42
 70
     1
102
RTVSPropertyOp43
 70
     1
102
RTVSPropertyOp44
 70
     1
102
RTVSPropertyOp45
 70
     1
102
RTVSPropertyOp46
 70
     1
102
RTVSPropertyOp47
 70
     1
102
RTVSPropertyOp48
 70
     1
102
RTVSPropertyOp49
 70
     1
102
RTVSPropertyOp50
 70
     1
102
RTVSPropertyOp51
 70
     0
102
RTVSPropertyOp52
 70
     0
102
RTVSPropertyOp53
 70
     1
102
RTVSPropertyOp54
 70
     1
102
RTVSPropertyOp55
 70
     1
102
RTVSPropertyOp56
 70
     1
102
RTVSPropertyOp57
 70
     1
102
RTVSPropertyOp58
 70
     1
102
RTVSPropertyOp59
 70
     1
102
RTVSPropertyOp60
 70
     1
102
RTVSPropertyOp61
 70
     1
102
RTVSPropertyOp62
 70
     1
  0
XRECORD
  5
E08D
102
{ACAD_REACTORS
330
E08C
102
}
330
E08C
100
AcDbXrecord
280
     1
102
RTVSPost2010Prop28
280
     0
102
RTVSPost2010PropOp28
 70
     1
102
RTVSPost2010Prop29
280
     1
102
RTVSPost2010PropOp29
 70
     1
102
RTVSPost2010Prop30
280
     1
102
RTVSPost2010PropOp30
 70
     1
102
RTVSPost2010Prop31
280
     0
102
RTVSPost2010PropOp31
 70
     1
102
RTVSPost2010Prop32
280
     0
102
RTVSPost2010PropOp32
 70
     1
102
RTVSPost2010Prop33
280
     0
102
RTVSPost2010PropOp33
 70
     1
102
RTVSPost2010Prop34
280
     0
102
RTVSPost2010PropOp34
 70
     1
102
RTVSPost2010Prop35
280
     0
102
RTVSPost2010PropOp35
 70
     1
102
RTVSPost2010Prop36
280
     0
102
RTVSPost2010PropOp36
 70
     1
102
RTVSPost2010Prop37
 90
       50
102
RTVSPost2010PropOp37
 70
     1
102
RTVSPost2010Prop38
140
0.0
102
RTVSPost2010PropOp38
 70
     1
102
RTVSPost2010Prop39
140
1.0
102
RTVSPost2010PropOp39
 70
     1
102
RTVSPost2010Prop40
 90
        0
102
RTVSPost2010PropOp40
 70
     1
102
RTVSPost2010Prop41ColorIndex
 90
       18
102
RTVSPost2010Prop41ColorRGB
 90
        0
102
RTVSPost2010PropOp41
 70
     1
102
RTVSPost2010Prop42
 90
       50
102
RTVSPost2010PropOp42
 70
     1
102
RTVSPost2010Prop43
 90
        3
102
RTVSPost2010PropOp43
 70
     1
102
RTVSPost2010Prop44ColorIndex
 90
        5
102
RTVSPost2010Prop44ColorRGB
 90
      255
102
RTVSPost2010PropOp44
 70
     1
102
RTVSPost2010Prop45
280
     0
102
RTVSPost2010PropOp45
 70
     1
102
RTVSPost2010Prop46
 90
       50
102
RTVSPost2010PropOp46
 70
     1
102
RTVSPost2010Prop47
 90
       50
102
RTVSPost2010PropOp47
 70
     1
102
RTVSPost2010Prop48
 90
       50
102
RTVSPost2010PropOp48
 70
     1
102
RTVSPost2010Prop49
280
     0
102
RTVSPost2010PropOp49
 70
     1
102
RTVSPost2010Prop50
 90
       50
102
RTVSPost2010PropOp50
 70
     1
102
RTVSPost2010Prop51ColorIndex
 90
      256
102
RTVSPost2010Prop51ColorRGB
 90
-16777216
102
RTVSPost2010PropOp51
 70
     0
102
RTVSPost2010Prop52
140
1.0
102
RTVSPost2010PropOp52
 70
     0
102
RTVSPost2010Prop53
 90
        2
102
RTVSPost2010PropOp53
 70
     1
102
RTVSPost2010Prop54
  1
strokes_ogs.tif
102
RTVSPost2010PropOp54
 70
     1
102
RTVSPost2010Prop55
280
     0
102
RTVSPost2010PropOp55
 70
     1
102
RTVSPost2010Prop56
140
1.0
102
RTVSPost2010PropOp56
 70
     1
102
RTVSPost2010Prop57
140
1.0
102
RTVSPost2010PropOp57
 70
     1
102
RTVSPropertyOp0
 70
     1
102
RTVSPropertyOp1
 70
     1
102
RTVSPropertyOp2
 70
     1
102
RTVSPropertyOp3
 70
     1
102
RTVSPropertyOp4
 70
     1
102
RTVSPropertyOp5
 70
     1
102
RTVSPropertyOp6
 70
     1
102
RTVSPropertyOp7
 70
     1
102
RTVSPropertyOp8
 70
     1
102
RTVSPropertyOp9
 70
     1
102
RTVSPropertyOp10
 70
     1
102
RTVSPropertyOp11
 70
     1
102
RTVSPropertyOp12
 70
     1
102
RTVSPropertyOp13
 70
     1
102
RTVSPropertyOp14
 70
     1
102
RTVSPropertyOp15
 70
     1
102
RTVSPropertyOp16
 70
     1
102
RTVSPropertyOp17
 70
     1
102
RTVSPropertyOp18
 70
     1
102
RTVSPropertyOp19
 70
     1
102
RTVSPropertyOp20
 70
     1
102
RTVSPropertyOp21
 70
     1
102
RTVSPropertyOp22
 70
     1
102
RTVSPropertyOp23
 70
     1
102
RTVSPropertyOp24
 70
     1
102
RTVSPropertyOp25
 70
     1
102
RTVSPropertyOp26
 70
     1
102
RTVSPropertyOp27
 70
     1
102
RTVSPropertyOp28
 70
     1
102
RTVSPropertyOp29
 70
     1
102
RTVSPropertyOp30
 70
     1
102
RTVSPropertyOp31
 70
     1
102
RTVSPropertyOp32
 70
     1
102
RTVSPropertyOp33
 70
     1
102
RTVSPropertyOp34
 70
     1
102
RTVSPropertyOp35
 70
     1
102
RTVSPropertyOp36
 70
     1
102
RTVSPropertyOp37
 70
     1
102
RTVSPropertyOp38
 70
     1
102
RTVSPropertyOp39
 70
     1
102
RTVSPropertyOp40
 70
     1
102
RTVSPropertyOp41
 70
     1
102
RTVSPropertyOp42
 70
     1
102
RTVSPropertyOp43
 70
     1
102
RTVSPropertyOp44
 70
     1
102
RTVSPropertyOp45
 70
     1
102
RTVSPropertyOp46
 70
     1
102
RTVSPropertyOp47
 70
     1
102
RTVSPropertyOp48
 70
     1
102
RTVSPropertyOp49
 70
     1
102
RTVSPropertyOp50
 70
     1
102
RTVSPropertyOp51
 70
     0
102
RTVSPropertyOp52
 70
     0
102
RTVSPropertyOp53
 70
     1
102
RTVSPropertyOp54
 70
     1
102
RTVSPropertyOp55
 70
     1
102
RTVSPropertyOp56
 70
     1
102
RTVSPropertyOp57
 70
     1
102
RTVSPropertyOp58
 70
     1
102
RTVSPropertyOp59
 70
     1
102
RTVSPropertyOp60
 70
     1
102
RTVSPropertyOp61
 70
     1
102
RTVSPropertyOp62
 70
     1
  0
XRECORD
  5
E0A7
102
{ACAD_REACTORS
330
E0A6
102
}
330
E0A6
100
AcDbXrecord
280
     1
102
RTVSPost2010Prop28
280
     0
102
RTVSPost2010PropOp28
 70
     1
102
RTVSPost2010Prop29
280
     1
102
RTVSPost2010PropOp29
 70
     1
102
RTVSPost2010Prop30
280
     1
102
RTVSPost2010PropOp30
 70
     1
102
RTVSPost2010Prop31
280
     0
102
RTVSPost2010PropOp31
 70
     1
102
RTVSPost2010Prop32
280
     0
102
RTVSPost2010PropOp32
 70
     1
102
RTVSPost2010Prop33
280
     0
102
RTVSPost2010PropOp33
 70
     1
102
RTVSPost2010Prop34
280
     0
102
RTVSPost2010PropOp34
 70
     1
102
RTVSPost2010Prop35
280
     0
102
RTVSPost2010PropOp35
 70
     1
102
RTVSPost2010Prop36
280
     0
102
RTVSPost2010PropOp36
 70
     1
102
RTVSPost2010Prop37
 90
       50
102
RTVSPost2010PropOp37
 70
     0
102
RTVSPost2010Prop38
140
0.0
102
RTVSPost2010PropOp38
 70
     0
102
RTVSPost2010Prop39
140
1.0
102
RTVSPost2010PropOp39
 70
     0
102
RTVSPost2010Prop40
 90
        0
102
RTVSPost2010PropOp40
 70
     0
102
RTVSPost2010Prop41ColorIndex
 90
       18
102
RTVSPost2010Prop41ColorRGB
 90
        0
102
RTVSPost2010PropOp41
 70
     0
102
RTVSPost2010Prop42
 90
       50
102
RTVSPost2010PropOp42
 70
     0
102
RTVSPost2010Prop43
 90
        3
102
RTVSPost2010PropOp43
 70
     0
102
RTVSPost2010Prop44ColorIndex
 90
        5
102
RTVSPost2010Prop44ColorRGB
 90
      255
102
RTVSPost2010PropOp44
 70
     0
102
RTVSPost2010Prop45
280
     0
102
RTVSPost2010PropOp45
 70
     1
102
RTVSPost2010Prop46
 90
       50
102
RTVSPost2010PropOp46
 70
     0
102
RTVSPost2010Prop47
 90
       50
102
RTVSPost2010PropOp47
 70
     0
102
RTVSPost2010Prop48
 90
       50
102
RTVSPost2010PropOp48
 70
     0
102
RTVSPost2010Prop49
280
     0
102
RTVSPost2010PropOp49
 70
     1
102
RTVSPost2010Prop50
 90
       50
102
RTVSPost2010PropOp50
 70
     0
102
RTVSPost2010Prop51ColorIndex
 90
      256
102
RTVSPost2010Prop51ColorRGB
 90
-16777216
102
RTVSPost2010PropOp51
 70
     0
102
RTVSPost2010Prop52
140
1.0
102
RTVSPost2010PropOp52
 70
     0
102
RTVSPost2010Prop53
 90
        2
102
RTVSPost2010PropOp53
 70
     0
102
RTVSPost2010Prop54
  1
strokes_ogs.tif
102
RTVSPost2010PropOp54
 70
     0
102
RTVSPost2010Prop55
280
     0
102
RTVSPost2010PropOp55
 70
     1
102
RTVSPost2010Prop56
140
1.0
102
RTVSPost2010PropOp56
 70
     0
102
RTVSPost2010Prop57
140
1.0
102
RTVSPost2010PropOp57
 70
     0
102
RTVSPropertyOp0
 70
     0
102
RTVSPropertyOp1
 70
     0
102
RTVSPropertyOp2
 70
     0
102
RTVSPropertyOp3
 70
     0
102
RTVSPropertyOp4
 70
     0
102
RTVSPropertyOp5
 70
     0
102
RTVSPropertyOp6
 70
     0
102
RTVSPropertyOp7
 70
     0
102
RTVSPropertyOp8
 70
     0
102
RTVSPropertyOp9
 70
     0
102
RTVSPropertyOp10
 70
     0
102
RTVSPropertyOp11
 70
     0
102
RTVSPropertyOp12
 70
     0
102
RTVSPropertyOp13
 70
     0
102
RTVSPropertyOp14
 70
     2
102
RTVSPropertyOp15
 70
     0
102
RTVSPropertyOp16
 70
     0
102
RTVSPropertyOp17
 70
     0
102
RTVSPropertyOp18
 70
     0
102
RTVSPropertyOp19
 70
     0
102
RTVSPropertyOp20
 70
     0
102
RTVSPropertyOp21
 70
     0
102
RTVSPropertyOp22
 70
     0
102
RTVSPropertyOp23
 70
     0
102
RTVSPropertyOp24
 70
     0
102
RTVSPropertyOp25
 70
     0
102
RTVSPropertyOp26
 70
     0
102
RTVSPropertyOp27
 70
     0
102
RTVSPropertyOp28
 70
     1
102
RTVSPropertyOp29
 70
     1
102
RTVSPropertyOp30
 70
     1
102
RTVSPropertyOp31
 70
     1
102
RTVSPropertyOp32
 70
     1
102
RTVSPropertyOp33
 70
     1
102
RTVSPropertyOp34
 70
     1
102
RTVSPropertyOp35
 70
     1
102
RTVSPropertyOp36
 70
     1
102
RTVSPropertyOp37
 70
     0
102
RTVSPropertyOp38
 70
     0
102
RTVSPropertyOp39
 70
     0
102
RTVSPropertyOp40
 70
     0
102
RTVSPropertyOp41
 70
     0
102
RTVSPropertyOp42
 70
     0
102
RTVSPropertyOp43
 70
     0
102
RTVSPropertyOp44
 70
     0
102
RTVSPropertyOp45
 70
     1
102
RTVSPropertyOp46
 70
     0
102
RTVSPropertyOp47
 70
     0
102
RTVSPropertyOp48
 70
     0
102
RTVSPropertyOp49
 70
     1
102
RTVSPropertyOp50
 70
     0
102
RTVSPropertyOp51
 70
     0
102
RTVSPropertyOp52
 70
     0
102
RTVSPropertyOp53
 70
     0
102
RTVSPropertyOp54
 70
     0
102
RTVSPropertyOp55
 70
     1
102
RTVSPropertyOp56
 70
     0
102
RTVSPropertyOp57
 70
     0
102
RTVSPropertyOp58
 70
     0
102
RTVSPropertyOp59
 70
     0
102
RTVSPropertyOp60
 70
     0
102
RTVSPropertyOp61
 70
     0
102
RTVSPropertyOp62
 70
     0
  0
XRECORD
  5
E095
102
{ACAD_REACTORS
330
E094
102
}
330
E094
100
AcDbXrecord
280
     1
102
RTVSPost2010Prop28
280
     0
102
RTVSPost2010PropOp28
 70
     1
102
RTVSPost2010Prop29
280
     1
102
RTVSPost2010PropOp29
 70
     1
102
RTVSPost2010Prop30
280
     1
102
RTVSPost2010PropOp30
 70
     1
102
RTVSPost2010Prop31
280
     0
102
RTVSPost2010PropOp31
 70
     1
102
RTVSPost2010Prop32
280
     0
102
RTVSPost2010PropOp32
 70
     1
102
RTVSPost2010Prop33
280
     0
102
RTVSPost2010PropOp33
 70
     1
102
RTVSPost2010Prop34
280
     0
102
RTVSPost2010PropOp34
 70
     1
102
RTVSPost2010Prop35
280
     0
102
RTVSPost2010PropOp35
 70
     1
102
RTVSPost2010Prop36
280
     0
102
RTVSPost2010PropOp36
 70
     1
102
RTVSPost2010Prop37
 90
       50
102
RTVSPost2010PropOp37
 70
     1
102
RTVSPost2010Prop38
140
0.0
102
RTVSPost2010PropOp38
 70
     1
102
RTVSPost2010Prop39
140
1.0
102
RTVSPost2010PropOp39
 70
     1
102
RTVSPost2010Prop40
 90
        0
102
RTVSPost2010PropOp40
 70
     1
102
RTVSPost2010Prop41ColorIndex
 90
       18
102
RTVSPost2010Prop41ColorRGB
 90
        0
102
RTVSPost2010PropOp41
 70
     1
102
RTVSPost2010Prop42
 90
       50
102
RTVSPost2010PropOp42
 70
     1
102
RTVSPost2010Prop43
 90
        3
102
RTVSPost2010PropOp43
 70
     1
102
RTVSPost2010Prop44ColorIndex
 90
        5
102
RTVSPost2010Prop44ColorRGB
 90
      255
102
RTVSPost2010PropOp44
 70
     1
102
RTVSPost2010Prop45
280
     0
102
RTVSPost2010PropOp45
 70
     1
102
RTVSPost2010Prop46
 90
       50
102
RTVSPost2010PropOp46
 70
     1
102
RTVSPost2010Prop47
 90
       50
102
RTVSPost2010PropOp47
 70
     1
102
RTVSPost2010Prop48
 90
       50
102
RTVSPost2010PropOp48
 70
     1
102
RTVSPost2010Prop49
280
     0
102
RTVSPost2010PropOp49
 70
     1
102
RTVSPost2010Prop50
 90
       50
102
RTVSPost2010PropOp50
 70
     1
102
RTVSPost2010Prop51ColorIndex
 90
      256
102
RTVSPost2010Prop51ColorRGB
 90
-16777216
102
RTVSPost2010PropOp51
 70
     0
102
RTVSPost2010Prop52
140
1.0
102
RTVSPost2010PropOp52
 70
     0
102
RTVSPost2010Prop53
 90
        2
102
RTVSPost2010PropOp53
 70
     1
102
RTVSPost2010Prop54
  1
strokes_ogs.tif
102
RTVSPost2010PropOp54
 70
     1
102
RTVSPost2010Prop55
280
     0
102
RTVSPost2010PropOp55
 70
     1
102
RTVSPost2010Prop56
140
1.0
102
RTVSPost2010PropOp56
 70
     1
102
RTVSPost2010Prop57
140
1.0
102
RTVSPost2010PropOp57
 70
     1
102
RTVSPropertyOp0
 70
     1
102
RTVSPropertyOp1
 70
     1
102
RTVSPropertyOp2
 70
     1
102
RTVSPropertyOp3
 70
     1
102
RTVSPropertyOp4
 70
     1
102
RTVSPropertyOp5
 70
     1
102
RTVSPropertyOp6
 70
     1
102
RTVSPropertyOp7
 70
     1
102
RTVSPropertyOp8
 70
     1
102
RTVSPropertyOp9
 70
     1
102
RTVSPropertyOp10
 70
     1
102
RTVSPropertyOp11
 70
     1
102
RTVSPropertyOp12
 70
     1
102
RTVSPropertyOp13
 70
     1
102
RTVSPropertyOp14
 70
     1
102
RTVSPropertyOp15
 70
     1
102
RTVSPropertyOp16
 70
     1
102
RTVSPropertyOp17
 70
     1
102
RTVSPropertyOp18
 70
     1
102
RTVSPropertyOp19
 70
     1
102
RTVSPropertyOp20
 70
     1
102
RTVSPropertyOp21
 70
     1
102
RTVSPropertyOp22
 70
     1
102
RTVSPropertyOp23
 70
     1
102
RTVSPropertyOp24
 70
     1
102
RTVSPropertyOp25
 70
     1
102
RTVSPropertyOp26
 70
     1
102
RTVSPropertyOp27
 70
     1
102
RTVSPropertyOp28
 70
     1
102
RTVSPropertyOp29
 70
     1
102
RTVSPropertyOp30
 70
     1
102
RTVSPropertyOp31
 70
     1
102
RTVSPropertyOp32
 70
     1
102
RTVSPropertyOp33
 70
     1
102
RTVSPropertyOp34
 70
     1
102
RTVSPropertyOp35
 70
     1
102
RTVSPropertyOp36
 70
     1
102
RTVSPropertyOp37
 70
     1
102
RTVSPropertyOp38
 70
     1
102
RTVSPropertyOp39
 70
     1
102
RTVSPropertyOp40
 70
     1
102
RTVSPropertyOp41
 70
     1
102
RTVSPropertyOp42
 70
     1
102
RTVSPropertyOp43
 70
     1
102
RTVSPropertyOp44
 70
     1
102
RTVSPropertyOp45
 70
     1
102
RTVSPropertyOp46
 70
     1
102
RTVSPropertyOp47
 70
     1
102
RTVSPropertyOp48
 70
     1
102
RTVSPropertyOp49
 70
     1
102
RTVSPropertyOp50
 70
     1
102
RTVSPropertyOp51
 70
     0
102
RTVSPropertyOp52
 70
     0
102
RTVSPropertyOp53
 70
     1
102
RTVSPropertyOp54
 70
     1
102
RTVSPropertyOp55
 70
     1
102
RTVSPropertyOp56
 70
     1
102
RTVSPropertyOp57
 70
     1
102
RTVSPropertyOp58
 70
     1
102
RTVSPropertyOp59
 70
     1
102
RTVSPropertyOp60
 70
     1
102
RTVSPropertyOp61
 70
     1
102
RTVSPropertyOp62
 70
     1
  0
XRECORD
  5
E079
102
{ACAD_REACTORS
330
E078
102
}
330
E078
100
AcDbXrecord
280
     1
102
RTVSPost2010Prop28
280
     0
102
RTVSPost2010PropOp28
 70
     1
102
RTVSPost2010Prop29
280
     1
102
RTVSPost2010PropOp29
 70
     1
102
RTVSPost2010Prop30
280
     1
102
RTVSPost2010PropOp30
 70
     1
102
RTVSPost2010Prop31
280
     0
102
RTVSPost2010PropOp31
 70
     1
102
RTVSPost2010Prop32
280
     0
102
RTVSPost2010PropOp32
 70
     1
102
RTVSPost2010Prop33
280
     0
102
RTVSPost2010PropOp33
 70
     1
102
RTVSPost2010Prop34
280
     0
102
RTVSPost2010PropOp34
 70
     1
102
RTVSPost2010Prop35
280
     0
102
RTVSPost2010PropOp35
 70
     1
102
RTVSPost2010Prop36
280
     0
102
RTVSPost2010PropOp36
 70
     1
102
RTVSPost2010Prop37
 90
       50
102
RTVSPost2010PropOp37
 70
     1
102
RTVSPost2010Prop38
140
0.0
102
RTVSPost2010PropOp38
 70
     1
102
RTVSPost2010Prop39
140
1.0
102
RTVSPost2010PropOp39
 70
     1
102
RTVSPost2010Prop40
 90
        0
102
RTVSPost2010PropOp40
 70
     1
102
RTVSPost2010Prop41ColorIndex
 90
       18
102
RTVSPost2010Prop41ColorRGB
 90
        0
102
RTVSPost2010PropOp41
 70
     1
102
RTVSPost2010Prop42
 90
       50
102
RTVSPost2010PropOp42
 70
     1
102
RTVSPost2010Prop43
 90
        3
102
RTVSPost2010PropOp43
 70
     1
102
RTVSPost2010Prop44ColorIndex
 90
        5
102
RTVSPost2010Prop44ColorRGB
 90
      255
102
RTVSPost2010PropOp44
 70
     1
102
RTVSPost2010Prop45
280
     0
102
RTVSPost2010PropOp45
 70
     1
102
RTVSPost2010Prop46
 90
       50
102
RTVSPost2010PropOp46
 70
     1
102
RTVSPost2010Prop47
 90
       50
102
RTVSPost2010PropOp47
 70
     1
102
RTVSPost2010Prop48
 90
       50
102
RTVSPost2010PropOp48
 70
     1
102
RTVSPost2010Prop49
280
     0
102
RTVSPost2010PropOp49
 70
     1
102
RTVSPost2010Prop50
 90
       50
102
RTVSPost2010PropOp50
 70
     1
102
RTVSPost2010Prop51ColorIndex
 90
      256
102
RTVSPost2010Prop51ColorRGB
 90
-16777216
102
RTVSPost2010PropOp51
 70
     0
102
RTVSPost2010Prop52
140
1.0
102
RTVSPost2010PropOp52
 70
     0
102
RTVSPost2010Prop53
 90
        2
102
RTVSPost2010PropOp53
 70
     1
102
RTVSPost2010Prop54
  1
strokes_ogs.tif
102
RTVSPost2010PropOp54
 70
     1
102
RTVSPost2010Prop55
280
     0
102
RTVSPost2010PropOp55
 70
     1
102
RTVSPost2010Prop56
140
1.0
102
RTVSPost2010PropOp56
 70
     1
102
RTVSPost2010Prop57
140
1.0
102
RTVSPost2010PropOp57
 70
     1
102
RTVSPropertyOp0
 70
     1
102
RTVSPropertyOp1
 70
     1
102
RTVSPropertyOp2
 70
     1
102
RTVSPropertyOp3
 70
     1
102
RTVSPropertyOp4
 70
     1
102
RTVSPropertyOp5
 70
     1
102
RTVSPropertyOp6
 70
     1
102
RTVSPropertyOp7
 70
     1
102
RTVSPropertyOp8
 70
     1
102
RTVSPropertyOp9
 70
     1
102
RTVSPropertyOp10
 70
     1
102
RTVSPropertyOp11
 70
     1
102
RTVSPropertyOp12
 70
     1
102
RTVSPropertyOp13
 70
     1
102
RTVSPropertyOp14
 70
     1
102
RTVSPropertyOp15
 70
     1
102
RTVSPropertyOp16
 70
     1
102
RTVSPropertyOp17
 70
     1
102
RTVSPropertyOp18
 70
     1
102
RTVSPropertyOp19
 70
     1
102
RTVSPropertyOp20
 70
     1
102
RTVSPropertyOp21
 70
     1
102
RTVSPropertyOp22
 70
     1
102
RTVSPropertyOp23
 70
     1
102
RTVSPropertyOp24
 70
     1
102
RTVSPropertyOp25
 70
     1
102
RTVSPropertyOp26
 70
     1
102
RTVSPropertyOp27
 70
     1
102
RTVSPropertyOp28
 70
     1
102
RTVSPropertyOp29
 70
     1
102
RTVSPropertyOp30
 70
     1
102
RTVSPropertyOp31
 70
     1
102
RTVSPropertyOp32
 70
     1
102
RTVSPropertyOp33
 70
     1
102
RTVSPropertyOp34
 70
     1
102
RTVSPropertyOp35
 70
     1
102
RTVSPropertyOp36
 70
     1
102
RTVSPropertyOp37
 70
     1
102
RTVSPropertyOp38
 70
     1
102
RTVSPropertyOp39
 70
     1
102
RTVSPropertyOp40
 70
     1
102
RTVSPropertyOp41
 70
     1
102
RTVSPropertyOp42
 70
     1
102
RTVSPropertyOp43
 70
     1
102
RTVSPropertyOp44
 70
     1
102
RTVSPropertyOp45
 70
     1
102
RTVSPropertyOp46
 70
     1
102
RTVSPropertyOp47
 70
     1
102
RTVSPropertyOp48
 70
     1
102
RTVSPropertyOp49
 70
     1
102
RTVSPropertyOp50
 70
     1
102
RTVSPropertyOp51
 70
     0
102
RTVSPropertyOp52
 70
     0
102
RTVSPropertyOp53
 70
     1
102
RTVSPropertyOp54
 70
     1
102
RTVSPropertyOp55
 70
     1
102
RTVSPropertyOp56
 70
     1
102
RTVSPropertyOp57
 70
     1
102
RTVSPropertyOp58
 70
     1
102
RTVSPropertyOp59
 70
     1
102
RTVSPropertyOp60
 70
     1
102
RTVSPropertyOp61
 70
     1
102
RTVSPropertyOp62
 70
     1
  0
XRECORD
  5
E07B
102
{ACAD_REACTORS
330
E07A
102
}
330
E07A
100
AcDbXrecord
280
     1
102
RTVSPost2010Prop28
280
     0
102
RTVSPost2010PropOp28
 70
     1
102
RTVSPost2010Prop29
280
     1
102
RTVSPost2010PropOp29
 70
     1
102
RTVSPost2010Prop30
280
     1
102
RTVSPost2010PropOp30
 70
     1
102
RTVSPost2010Prop31
280
     0
102
RTVSPost2010PropOp31
 70
     1
102
RTVSPost2010Prop32
280
     0
102
RTVSPost2010PropOp32
 70
     1
102
RTVSPost2010Prop33
280
     0
102
RTVSPost2010PropOp33
 70
     1
102
RTVSPost2010Prop34
280
     0
102
RTVSPost2010PropOp34
 70
     1
102
RTVSPost2010Prop35
280
     0
102
RTVSPost2010PropOp35
 70
     1
102
RTVSPost2010Prop36
280
     0
102
RTVSPost2010PropOp36
 70
     1
102
RTVSPost2010Prop37
 90
       50
102
RTVSPost2010PropOp37
 70
     1
102
RTVSPost2010Prop38
140
0.0
102
RTVSPost2010PropOp38
 70
     1
102
RTVSPost2010Prop39
140
1.0
102
RTVSPost2010PropOp39
 70
     1
102
RTVSPost2010Prop40
 90
        0
102
RTVSPost2010PropOp40
 70
     1
102
RTVSPost2010Prop41ColorIndex
 90
       18
102
RTVSPost2010Prop41ColorRGB
 90
        0
102
RTVSPost2010PropOp41
 70
     1
102
RTVSPost2010Prop42
 90
       50
102
RTVSPost2010PropOp42
 70
     1
102
RTVSPost2010Prop43
 90
        3
102
RTVSPost2010PropOp43
 70
     1
102
RTVSPost2010Prop44ColorIndex
 90
        5
102
RTVSPost2010Prop44ColorRGB
 90
      255
102
RTVSPost2010PropOp44
 70
     1
102
RTVSPost2010Prop45
280
     0
102
RTVSPost2010PropOp45
 70
     1
102
RTVSPost2010Prop46
 90
       50
102
RTVSPost2010PropOp46
 70
     1
102
RTVSPost2010Prop47
 90
       50
102
RTVSPost2010PropOp47
 70
     1
102
RTVSPost2010Prop48
 90
       50
102
RTVSPost2010PropOp48
 70
     1
102
RTVSPost2010Prop49
280
     0
102
RTVSPost2010PropOp49
 70
     1
102
RTVSPost2010Prop50
 90
       50
102
RTVSPost2010PropOp50
 70
     1
102
RTVSPost2010Prop51ColorIndex
 90
      256
102
RTVSPost2010Prop51ColorRGB
 90
-16777216
102
RTVSPost2010PropOp51
 70
     0
102
RTVSPost2010Prop52
140
1.0
102
RTVSPost2010PropOp52
 70
     0
102
RTVSPost2010Prop53
 90
        2
102
RTVSPost2010PropOp53
 70
     1
102
RTVSPost2010Prop54
  1
strokes_ogs.tif
102
RTVSPost2010PropOp54
 70
     1
102
RTVSPost2010Prop55
280
     0
102
RTVSPost2010PropOp55
 70
     1
102
RTVSPost2010Prop56
140
1.0
102
RTVSPost2010PropOp56
 70
     1
102
RTVSPost2010Prop57
140
1.0
102
RTVSPost2010PropOp57
 70
     1
102
RTVSPropertyOp0
 70
     1
102
RTVSPropertyOp1
 70
     1
102
RTVSPropertyOp2
 70
     1
102
RTVSPropertyOp3
 70
     1
102
RTVSPropertyOp4
 70
     1
102
RTVSPropertyOp5
 70
     1
102
RTVSPropertyOp6
 70
     1
102
RTVSPropertyOp7
 70
     1
102
RTVSPropertyOp8
 70
     1
102
RTVSPropertyOp9
 70
     1
102
RTVSPropertyOp10
 70
     1
102
RTVSPropertyOp11
 70
     1
102
RTVSPropertyOp12
 70
     1
102
RTVSPropertyOp13
 70
     1
102
RTVSPropertyOp14
 70
     1
102
RTVSPropertyOp15
 70
     1
102
RTVSPropertyOp16
 70
     1
102
RTVSPropertyOp17
 70
     1
102
RTVSPropertyOp18
 70
     1
102
RTVSPropertyOp19
 70
     1
102
RTVSPropertyOp20
 70
     1
102
RTVSPropertyOp21
 70
     1
102
RTVSPropertyOp22
 70
     1
102
RTVSPropertyOp23
 70
     1
102
RTVSPropertyOp24
 70
     1
102
RTVSPropertyOp25
 70
     1
102
RTVSPropertyOp26
 70
     1
102
RTVSPropertyOp27
 70
     1
102
RTVSPropertyOp28
 70
     1
102
RTVSPropertyOp29
 70
     1
102
RTVSPropertyOp30
 70
     1
102
RTVSPropertyOp31
 70
     1
102
RTVSPropertyOp32
 70
     1
102
RTVSPropertyOp33
 70
     1
102
RTVSPropertyOp34
 70
     1
102
RTVSPropertyOp35
 70
     1
102
RTVSPropertyOp36
 70
     1
102
RTVSPropertyOp37
 70
     1
102
RTVSPropertyOp38
 70
     1
102
RTVSPropertyOp39
 70
     1
102
RTVSPropertyOp40
 70
     1
102
RTVSPropertyOp41
 70
     1
102
RTVSPropertyOp42
 70
     1
102
RTVSPropertyOp43
 70
     1
102
RTVSPropertyOp44
 70
     1
102
RTVSPropertyOp45
 70
     1
102
RTVSPropertyOp46
 70
     1
102
RTVSPropertyOp47
 70
     1
102
RTVSPropertyOp48
 70
     1
102
RTVSPropertyOp49
 70
     1
102
RTVSPropertyOp50
 70
     1
102
RTVSPropertyOp51
 70
     0
102
RTVSPropertyOp52
 70
     0
102
RTVSPropertyOp53
 70
     1
102
RTVSPropertyOp54
 70
     1
102
RTVSPropertyOp55
 70
     1
102
RTVSPropertyOp56
 70
     1
102
RTVSPropertyOp57
 70
     1
102
RTVSPropertyOp58
 70
     1
102
RTVSPropertyOp59
 70
     1
102
RTVSPropertyOp60
 70
     1
102
RTVSPropertyOp61
 70
     1
102
RTVSPropertyOp62
 70
     1
  0
XRECORD
  5
E07D
102
{ACAD_REACTORS
330
E07C
102
}
330
E07C
100
AcDbXrecord
280
     1
102
RTVSPost2010Prop28
280
     0
102
RTVSPost2010PropOp28
 70
     1
102
RTVSPost2010Prop29
280
     1
102
RTVSPost2010PropOp29
 70
     1
102
RTVSPost2010Prop30
280
     1
102
RTVSPost2010PropOp30
 70
     1
102
RTVSPost2010Prop31
280
     0
102
RTVSPost2010PropOp31
 70
     1
102
RTVSPost2010Prop32
280
     0
102
RTVSPost2010PropOp32
 70
     1
102
RTVSPost2010Prop33
280
     0
102
RTVSPost2010PropOp33
 70
     1
102
RTVSPost2010Prop34
280
     0
102
RTVSPost2010PropOp34
 70
     1
102
RTVSPost2010Prop35
280
     0
102
RTVSPost2010PropOp35
 70
     1
102
RTVSPost2010Prop36
280
     0
102
RTVSPost2010PropOp36
 70
     1
102
RTVSPost2010Prop37
 90
       50
102
RTVSPost2010PropOp37
 70
     1
102
RTVSPost2010Prop38
140
0.0
102
RTVSPost2010PropOp38
 70
     1
102
RTVSPost2010Prop39
140
1.0
102
RTVSPost2010PropOp39
 70
     1
102
RTVSPost2010Prop40
 90
        0
102
RTVSPost2010PropOp40
 70
     1
102
RTVSPost2010Prop41ColorIndex
 90
       18
102
RTVSPost2010Prop41ColorRGB
 90
        0
102
RTVSPost2010PropOp41
 70
     1
102
RTVSPost2010Prop42
 90
       50
102
RTVSPost2010PropOp42
 70
     1
102
RTVSPost2010Prop43
 90
        3
102
RTVSPost2010PropOp43
 70
     1
102
RTVSPost2010Prop44ColorIndex
 90
        5
102
RTVSPost2010Prop44ColorRGB
 90
      255
102
RTVSPost2010PropOp44
 70
     1
102
RTVSPost2010Prop45
280
     0
102
RTVSPost2010PropOp45
 70
     1
102
RTVSPost2010Prop46
 90
       50
102
RTVSPost2010PropOp46
 70
     1
102
RTVSPost2010Prop47
 90
       50
102
RTVSPost2010PropOp47
 70
     1
102
RTVSPost2010Prop48
 90
       50
102
RTVSPost2010PropOp48
 70
     1
102
RTVSPost2010Prop49
280
     0
102
RTVSPost2010PropOp49
 70
     1
102
RTVSPost2010Prop50
 90
       50
102
RTVSPost2010PropOp50
 70
     1
102
RTVSPost2010Prop51ColorIndex
 90
      256
102
RTVSPost2010Prop51ColorRGB
 90
-16777216
102
RTVSPost2010PropOp51
 70
     0
102
RTVSPost2010Prop52
140
1.0
102
RTVSPost2010PropOp52
 70
     0
102
RTVSPost2010Prop53
 90
        2
102
RTVSPost2010PropOp53
 70
     1
102
RTVSPost2010Prop54
  1
strokes_ogs.tif
102
RTVSPost2010PropOp54
 70
     1
102
RTVSPost2010Prop55
280
     0
102
RTVSPost2010PropOp55
 70
     1
102
RTVSPost2010Prop56
140
1.0
102
RTVSPost2010PropOp56
 70
     1
102
RTVSPost2010Prop57
140
1.0
102
RTVSPost2010PropOp57
 70
     1
102
RTVSPropertyOp0
 70
     1
102
RTVSPropertyOp1
 70
     1
102
RTVSPropertyOp2
 70
     1
102
RTVSPropertyOp3
 70
     1
102
RTVSPropertyOp4
 70
     1
102
RTVSPropertyOp5
 70
     1
102
RTVSPropertyOp6
 70
     1
102
RTVSPropertyOp7
 70
     1
102
RTVSPropertyOp8
 70
     1
102
RTVSPropertyOp9
 70
     1
102
RTVSPropertyOp10
 70
     1
102
RTVSPropertyOp11
 70
     1
102
RTVSPropertyOp12
 70
     1
102
RTVSPropertyOp13
 70
     1
102
RTVSPropertyOp14
 70
     1
102
RTVSPropertyOp15
 70
     1
102
RTVSPropertyOp16
 70
     1
102
RTVSPropertyOp17
 70
     1
102
RTVSPropertyOp18
 70
     1
102
RTVSPropertyOp19
 70
     1
102
RTVSPropertyOp20
 70
     1
102
RTVSPropertyOp21
 70
     1
102
RTVSPropertyOp22
 70
     1
102
RTVSPropertyOp23
 70
     1
102
RTVSPropertyOp24
 70
     1
102
RTVSPropertyOp25
 70
     1
102
RTVSPropertyOp26
 70
     1
102
RTVSPropertyOp27
 70
     1
102
RTVSPropertyOp28
 70
     1
102
RTVSPropertyOp29
 70
     1
102
RTVSPropertyOp30
 70
     1
102
RTVSPropertyOp31
 70
     1
102
RTVSPropertyOp32
 70
     1
102
RTVSPropertyOp33
 70
     1
102
RTVSPropertyOp34
 70
     1
102
RTVSPropertyOp35
 70
     1
102
RTVSPropertyOp36
 70
     1
102
RTVSPropertyOp37
 70
     1
102
RTVSPropertyOp38
 70
     1
102
RTVSPropertyOp39
 70
     1
102
RTVSPropertyOp40
 70
     1
102
RTVSPropertyOp41
 70
     1
102
RTVSPropertyOp42
 70
     1
102
RTVSPropertyOp43
 70
     1
102
RTVSPropertyOp44
 70
     1
102
RTVSPropertyOp45
 70
     1
102
RTVSPropertyOp46
 70
     1
102
RTVSPropertyOp47
 70
     1
102
RTVSPropertyOp48
 70
     1
102
RTVSPropertyOp49
 70
     1
102
RTVSPropertyOp50
 70
     1
102
RTVSPropertyOp51
 70
     0
102
RTVSPropertyOp52
 70
     0
102
RTVSPropertyOp53
 70
     1
102
RTVSPropertyOp54
 70
     1
102
RTVSPropertyOp55
 70
     1
102
RTVSPropertyOp56
 70
     1
102
RTVSPropertyOp57
 70
     1
102
RTVSPropertyOp58
 70
     1
102
RTVSPropertyOp59
 70
     1
102
RTVSPropertyOp60
 70
     1
102
RTVSPropertyOp61
 70
     1
102
RTVSPropertyOp62
 70
     1
  0
XRECORD
  5
E07F
102
{ACAD_REACTORS
330
E07E
102
}
330
E07E
100
AcDbXrecord
280
     1
102
RTVSPost2010Prop28
280
     0
102
RTVSPost2010PropOp28
 70
     1
102
RTVSPost2010Prop29
280
     1
102
RTVSPost2010PropOp29
 70
     1
102
RTVSPost2010Prop30
280
     1
102
RTVSPost2010PropOp30
 70
     1
102
RTVSPost2010Prop31
280
     0
102
RTVSPost2010PropOp31
 70
     1
102
RTVSPost2010Prop32
280
     0
102
RTVSPost2010PropOp32
 70
     1
102
RTVSPost2010Prop33
280
     0
102
RTVSPost2010PropOp33
 70
     1
102
RTVSPost2010Prop34
280
     0
102
RTVSPost2010PropOp34
 70
     1
102
RTVSPost2010Prop35
280
     0
102
RTVSPost2010PropOp35
 70
     1
102
RTVSPost2010Prop36
280
     0
102
RTVSPost2010PropOp36
 70
     1
102
RTVSPost2010Prop37
 90
       50
102
RTVSPost2010PropOp37
 70
     1
102
RTVSPost2010Prop38
140
0.0
102
RTVSPost2010PropOp38
 70
     1
102
RTVSPost2010Prop39
140
1.0
102
RTVSPost2010PropOp39
 70
     1
102
RTVSPost2010Prop40
 90
        0
102
RTVSPost2010PropOp40
 70
     1
102
RTVSPost2010Prop41ColorIndex
 90
       18
102
RTVSPost2010Prop41ColorRGB
 90
        0
102
RTVSPost2010PropOp41
 70
     1
102
RTVSPost2010Prop42
 90
       50
102
RTVSPost2010PropOp42
 70
     1
102
RTVSPost2010Prop43
 90
        3
102
RTVSPost2010PropOp43
 70
     1
102
RTVSPost2010Prop44ColorIndex
 90
        5
102
RTVSPost2010Prop44ColorRGB
 90
      255
102
RTVSPost2010PropOp44
 70
     1
102
RTVSPost2010Prop45
280
     0
102
RTVSPost2010PropOp45
 70
     1
102
RTVSPost2010Prop46
 90
       50
102
RTVSPost2010PropOp46
 70
     1
102
RTVSPost2010Prop47
 90
       50
102
RTVSPost2010PropOp47
 70
     1
102
RTVSPost2010Prop48
 90
       50
102
RTVSPost2010PropOp48
 70
     1
102
RTVSPost2010Prop49
280
     0
102
RTVSPost2010PropOp49
 70
     1
102
RTVSPost2010Prop50
 90
       50
102
RTVSPost2010PropOp50
 70
     1
102
RTVSPost2010Prop51ColorIndex
 90
      256
102
RTVSPost2010Prop51ColorRGB
 90
-16777216
102
RTVSPost2010PropOp51
 70
     0
102
RTVSPost2010Prop52
140
1.0
102
RTVSPost2010PropOp52
 70
     0
102
RTVSPost2010Prop53
 90
        2
102
RTVSPost2010PropOp53
 70
     1
102
RTVSPost2010Prop54
  1
strokes_ogs.tif
102
RTVSPost2010PropOp54
 70
     1
102
RTVSPost2010Prop55
280
     0
102
RTVSPost2010PropOp55
 70
     1
102
RTVSPost2010Prop56
140
1.0
102
RTVSPost2010PropOp56
 70
     1
102
RTVSPost2010Prop57
140
1.0
102
RTVSPost2010PropOp57
 70
     1
102
RTVSPropertyOp0
 70
     1
102
RTVSPropertyOp1
 70
     1
102
RTVSPropertyOp2
 70
     1
102
RTVSPropertyOp3
 70
     1
102
RTVSPropertyOp4
 70
     1
102
RTVSPropertyOp5
 70
     1
102
RTVSPropertyOp6
 70
     1
102
RTVSPropertyOp7
 70
     1
102
RTVSPropertyOp8
 70
     1
102
RTVSPropertyOp9
 70
     1
102
RTVSPropertyOp10
 70
     1
102
RTVSPropertyOp11
 70
     1
102
RTVSPropertyOp12
 70
     1
102
RTVSPropertyOp13
 70
     1
102
RTVSPropertyOp14
 70
     1
102
RTVSPropertyOp15
 70
     1
102
RTVSPropertyOp16
 70
     1
102
RTVSPropertyOp17
 70
     1
102
RTVSPropertyOp18
 70
     1
102
RTVSPropertyOp19
 70
     1
102
RTVSPropertyOp20
 70
     1
102
RTVSPropertyOp21
 70
     1
102
RTVSPropertyOp22
 70
     1
102
RTVSPropertyOp23
 70
     1
102
RTVSPropertyOp24
 70
     1
102
RTVSPropertyOp25
 70
     1
102
RTVSPropertyOp26
 70
     1
102
RTVSPropertyOp27
 70
     1
102
RTVSPropertyOp28
 70
     1
102
RTVSPropertyOp29
 70
     1
102
RTVSPropertyOp30
 70
     1
102
RTVSPropertyOp31
 70
     1
102
RTVSPropertyOp32
 70
     1
102
RTVSPropertyOp33
 70
     1
102
RTVSPropertyOp34
 70
     1
102
RTVSPropertyOp35
 70
     1
102
RTVSPropertyOp36
 70
     1
102
RTVSPropertyOp37
 70
     1
102
RTVSPropertyOp38
 70
     1
102
RTVSPropertyOp39
 70
     1
102
RTVSPropertyOp40
 70
     1
102
RTVSPropertyOp41
 70
     1
102
RTVSPropertyOp42
 70
     1
102
RTVSPropertyOp43
 70
     1
102
RTVSPropertyOp44
 70
     1
102
RTVSPropertyOp45
 70
     1
102
RTVSPropertyOp46
 70
     1
102
RTVSPropertyOp47
 70
     1
102
RTVSPropertyOp48
 70
     1
102
RTVSPropertyOp49
 70
     1
102
RTVSPropertyOp50
 70
     1
102
RTVSPropertyOp51
 70
     0
102
RTVSPropertyOp52
 70
     0
102
RTVSPropertyOp53
 70
     1
102
RTVSPropertyOp54
 70
     1
102
RTVSPropertyOp55
 70
     1
102
RTVSPropertyOp56
 70
     1
102
RTVSPropertyOp57
 70
     1
102
RTVSPropertyOp58
 70
     1
102
RTVSPropertyOp59
 70
     1
102
RTVSPropertyOp60
 70
     1
102
RTVSPropertyOp61
 70
     1
102
RTVSPropertyOp62
 70
     1
  0
XRECORD
  5
E087
102
{ACAD_REACTORS
330
E086
102
}
330
E086
100
AcDbXrecord
280
     1
102
RTVSPost2010Prop28
280
     0
102
RTVSPost2010PropOp28
 70
     1
102
RTVSPost2010Prop29
280
     1
102
RTVSPost2010PropOp29
 70
     1
102
RTVSPost2010Prop30
280
     1
102
RTVSPost2010PropOp30
 70
     1
102
RTVSPost2010Prop31
280
     0
102
RTVSPost2010PropOp31
 70
     1
102
RTVSPost2010Prop32
280
     0
102
RTVSPost2010PropOp32
 70
     1
102
RTVSPost2010Prop33
280
     0
102
RTVSPost2010PropOp33
 70
     1
102
RTVSPost2010Prop34
280
     0
102
RTVSPost2010PropOp34
 70
     1
102
RTVSPost2010Prop35
280
     0
102
RTVSPost2010PropOp35
 70
     1
102
RTVSPost2010Prop36
280
     0
102
RTVSPost2010PropOp36
 70
     1
102
RTVSPost2010Prop37
 90
       50
102
RTVSPost2010PropOp37
 70
     1
102
RTVSPost2010Prop38
140
0.0
102
RTVSPost2010PropOp38
 70
     1
102
RTVSPost2010Prop39
140
1.0
102
RTVSPost2010PropOp39
 70
     1
102
RTVSPost2010Prop40
 90
        0
102
RTVSPost2010PropOp40
 70
     1
102
RTVSPost2010Prop41ColorIndex
 90
       18
102
RTVSPost2010Prop41ColorRGB
 90
        0
102
RTVSPost2010PropOp41
 70
     1
102
RTVSPost2010Prop42
 90
       50
102
RTVSPost2010PropOp42
 70
     1
102
RTVSPost2010Prop43
 90
        3
102
RTVSPost2010PropOp43
 70
     1
102
RTVSPost2010Prop44ColorIndex
 90
        5
102
RTVSPost2010Prop44ColorRGB
 90
      255
102
RTVSPost2010PropOp44
 70
     1
102
RTVSPost2010Prop45
280
     0
102
RTVSPost2010PropOp45
 70
     1
102
RTVSPost2010Prop46
 90
       50
102
RTVSPost2010PropOp46
 70
     1
102
RTVSPost2010Prop47
 90
       50
102
RTVSPost2010PropOp47
 70
     1
102
RTVSPost2010Prop48
 90
       50
102
RTVSPost2010PropOp48
 70
     1
102
RTVSPost2010Prop49
280
     0
102
RTVSPost2010PropOp49
 70
     1
102
RTVSPost2010Prop50
 90
       50
102
RTVSPost2010PropOp50
 70
     1
102
RTVSPost2010Prop51ColorIndex
 90
      256
102
RTVSPost2010Prop51ColorRGB
 90
-16777216
102
RTVSPost2010PropOp51
 70
     0
102
RTVSPost2010Prop52
140
1.0
102
RTVSPost2010PropOp52
 70
     0
102
RTVSPost2010Prop53
 90
        2
102
RTVSPost2010PropOp53
 70
     1
102
RTVSPost2010Prop54
  1
strokes_ogs.tif
102
RTVSPost2010PropOp54
 70
     1
102
RTVSPost2010Prop55
280
     0
102
RTVSPost2010PropOp55
 70
     1
102
RTVSPost2010Prop56
140
1.0
102
RTVSPost2010PropOp56
 70
     1
102
RTVSPost2010Prop57
140
1.0
102
RTVSPost2010PropOp57
 70
     1
102
RTVSPropertyOp0
 70
     1
102
RTVSPropertyOp1
 70
     1
102
RTVSPropertyOp2
 70
     1
102
RTVSPropertyOp3
 70
     1
102
RTVSPropertyOp4
 70
     1
102
RTVSPropertyOp5
 70
     1
102
RTVSPropertyOp6
 70
     1
102
RTVSPropertyOp7
 70
     1
102
RTVSPropertyOp8
 70
     1
102
RTVSPropertyOp9
 70
     1
102
RTVSPropertyOp10
 70
     1
102
RTVSPropertyOp11
 70
     1
102
RTVSPropertyOp12
 70
     1
102
RTVSPropertyOp13
 70
     1
102
RTVSPropertyOp14
 70
     1
102
RTVSPropertyOp15
 70
     1
102
RTVSPropertyOp16
 70
     1
102
RTVSPropertyOp17
 70
     1
102
RTVSPropertyOp18
 70
     1
102
RTVSPropertyOp19
 70
     1
102
RTVSPropertyOp20
 70
     1
102
RTVSPropertyOp21
 70
     1
102
RTVSPropertyOp22
 70
     1
102
RTVSPropertyOp23
 70
     1
102
RTVSPropertyOp24
 70
     1
102
RTVSPropertyOp25
 70
     1
102
RTVSPropertyOp26
 70
     1
102
RTVSPropertyOp27
 70
     1
102
RTVSPropertyOp28
 70
     1
102
RTVSPropertyOp29
 70
     1
102
RTVSPropertyOp30
 70
     1
102
RTVSPropertyOp31
 70
     1
102
RTVSPropertyOp32
 70
     1
102
RTVSPropertyOp33
 70
     1
102
RTVSPropertyOp34
 70
     1
102
RTVSPropertyOp35
 70
     1
102
RTVSPropertyOp36
 70
     1
102
RTVSPropertyOp37
 70
     1
102
RTVSPropertyOp38
 70
     1
102
RTVSPropertyOp39
 70
     1
102
RTVSPropertyOp40
 70
     1
102
RTVSPropertyOp41
 70
     1
102
RTVSPropertyOp42
 70
     1
102
RTVSPropertyOp43
 70
     1
102
RTVSPropertyOp44
 70
     1
102
RTVSPropertyOp45
 70
     1
102
RTVSPropertyOp46
 70
     1
102
RTVSPropertyOp47
 70
     1
102
RTVSPropertyOp48
 70
     1
102
RTVSPropertyOp49
 70
     1
102
RTVSPropertyOp50
 70
     1
102
RTVSPropertyOp51
 70
     0
102
RTVSPropertyOp52
 70
     0
102
RTVSPropertyOp53
 70
     1
102
RTVSPropertyOp54
 70
     1
102
RTVSPropertyOp55
 70
     1
102
RTVSPropertyOp56
 70
     1
102
RTVSPropertyOp57
 70
     1
102
RTVSPropertyOp58
 70
     1
102
RTVSPropertyOp59
 70
     1
102
RTVSPropertyOp60
 70
     1
102
RTVSPropertyOp61
 70
     1
102
RTVSPropertyOp62
 70
     1
  0
XRECORD
  5
E0A3
102
{ACAD_REACTORS
330
E0A2
102
}
330
E0A2
100
AcDbXrecord
280
     1
102
RTVSPost2010Prop28
280
     0
102
RTVSPost2010PropOp28
 70
     1
102
RTVSPost2010Prop29
280
     1
102
RTVSPost2010PropOp29
 70
     1
102
RTVSPost2010Prop30
280
     1
102
RTVSPost2010PropOp30
 70
     1
102
RTVSPost2010Prop31
280
     0
102
RTVSPost2010PropOp31
 70
     1
102
RTVSPost2010Prop32
280
     0
102
RTVSPost2010PropOp32
 70
     1
102
RTVSPost2010Prop33
280
     0
102
RTVSPost2010PropOp33
 70
     1
102
RTVSPost2010Prop34
280
     0
102
RTVSPost2010PropOp34
 70
     1
102
RTVSPost2010Prop35
280
     0
102
RTVSPost2010PropOp35
 70
     1
102
RTVSPost2010Prop36
280
     0
102
RTVSPost2010PropOp36
 70
     1
102
RTVSPost2010Prop37
 90
       50
102
RTVSPost2010PropOp37
 70
     0
102
RTVSPost2010Prop38
140
0.0
102
RTVSPost2010PropOp38
 70
     0
102
RTVSPost2010Prop39
140
1.0
102
RTVSPost2010PropOp39
 70
     0
102
RTVSPost2010Prop40
 90
        0
102
RTVSPost2010PropOp40
 70
     0
102
RTVSPost2010Prop41ColorIndex
 90
       18
102
RTVSPost2010Prop41ColorRGB
 90
        0
102
RTVSPost2010PropOp41
 70
     0
102
RTVSPost2010Prop42
 90
       50
102
RTVSPost2010PropOp42
 70
     0
102
RTVSPost2010Prop43
 90
        3
102
RTVSPost2010PropOp43
 70
     0
102
RTVSPost2010Prop44ColorIndex
 90
        5
102
RTVSPost2010Prop44ColorRGB
 90
      255
102
RTVSPost2010PropOp44
 70
     0
102
RTVSPost2010Prop45
280
     0
102
RTVSPost2010PropOp45
 70
     1
102
RTVSPost2010Prop46
 90
       50
102
RTVSPost2010PropOp46
 70
     0
102
RTVSPost2010Prop47
 90
       50
102
RTVSPost2010PropOp47
 70
     0
102
RTVSPost2010Prop48
 90
       50
102
RTVSPost2010PropOp48
 70
     0
102
RTVSPost2010Prop49
280
     0
102
RTVSPost2010PropOp49
 70
     1
102
RTVSPost2010Prop50
 90
       50
102
RTVSPost2010PropOp50
 70
     0
102
RTVSPost2010Prop51ColorIndex
 90
      256
102
RTVSPost2010Prop51ColorRGB
 90
-16777216
102
RTVSPost2010PropOp51
 70
     0
102
RTVSPost2010Prop52
140
1.0
102
RTVSPost2010PropOp52
 70
     0
102
RTVSPost2010Prop53
 90
        2
102
RTVSPost2010PropOp53
 70
     0
102
RTVSPost2010Prop54
  1
strokes_ogs.tif
102
RTVSPost2010PropOp54
 70
     0
102
RTVSPost2010Prop55
280
     0
102
RTVSPost2010PropOp55
 70
     1
102
RTVSPost2010Prop56
140
1.0
102
RTVSPost2010PropOp56
 70
     0
102
RTVSPost2010Prop57
140
1.0
102
RTVSPost2010PropOp57
 70
     0
102
RTVSPropertyOp0
 70
     0
102
RTVSPropertyOp1
 70
     0
102
RTVSPropertyOp2
 70
     0
102
RTVSPropertyOp3
 70
     0
102
RTVSPropertyOp4
 70
     0
102
RTVSPropertyOp5
 70
     0
102
RTVSPropertyOp6
 70
     0
102
RTVSPropertyOp7
 70
     0
102
RTVSPropertyOp8
 70
     0
102
RTVSPropertyOp9
 70
     0
102
RTVSPropertyOp10
 70
     0
102
RTVSPropertyOp11
 70
     0
102
RTVSPropertyOp12
 70
     0
102
RTVSPropertyOp13
 70
     0
102
RTVSPropertyOp14
 70
     2
102
RTVSPropertyOp15
 70
     0
102
RTVSPropertyOp16
 70
     0
102
RTVSPropertyOp17
 70
     0
102
RTVSPropertyOp18
 70
     0
102
RTVSPropertyOp19
 70
     0
102
RTVSPropertyOp20
 70
     0
102
RTVSPropertyOp21
 70
     0
102
RTVSPropertyOp22
 70
     0
102
RTVSPropertyOp23
 70
     0
102
RTVSPropertyOp24
 70
     0
102
RTVSPropertyOp25
 70
     0
102
RTVSPropertyOp26
 70
     0
102
RTVSPropertyOp27
 70
     0
102
RTVSPropertyOp28
 70
     1
102
RTVSPropertyOp29
 70
     1
102
RTVSPropertyOp30
 70
     1
102
RTVSPropertyOp31
 70
     1
102
RTVSPropertyOp32
 70
     1
102
RTVSPropertyOp33
 70
     1
102
RTVSPropertyOp34
 70
     1
102
RTVSPropertyOp35
 70
     1
102
RTVSPropertyOp36
 70
     1
102
RTVSPropertyOp37
 70
     0
102
RTVSPropertyOp38
 70
     0
102
RTVSPropertyOp39
 70
     0
102
RTVSPropertyOp40
 70
     0
102
RTVSPropertyOp41
 70
     0
102
RTVSPropertyOp42
 70
     0
102
RTVSPropertyOp43
 70
     0
102
RTVSPropertyOp44
 70
     0
102
RTVSPropertyOp45
 70
     1
102
RTVSPropertyOp46
 70
     0
102
RTVSPropertyOp47
 70
     0
102
RTVSPropertyOp48
 70
     0
102
RTVSPropertyOp49
 70
     1
102
RTVSPropertyOp50
 70
     0
102
RTVSPropertyOp51
 70
     0
102
RTVSPropertyOp52
 70
     0
102
RTVSPropertyOp53
 70
     0
102
RTVSPropertyOp54
 70
     0
102
RTVSPropertyOp55
 70
     1
102
RTVSPropertyOp56
 70
     0
102
RTVSPropertyOp57
 70
     0
102
RTVSPropertyOp58
 70
     0
102
RTVSPropertyOp59
 70
     0
102
RTVSPropertyOp60
 70
     0
102
RTVSPropertyOp61
 70
     0
102
RTVSPropertyOp62
 70
     0
  0
XRECORD
  5
E093
102
{ACAD_REACTORS
330
E092
102
}
330
E092
100
AcDbXrecord
280
     1
102
RTVSPost2010Prop28
280
     0
102
RTVSPost2010PropOp28
 70
     1
102
RTVSPost2010Prop29
280
     1
102
RTVSPost2010PropOp29
 70
     1
102
RTVSPost2010Prop30
280
     1
102
RTVSPost2010PropOp30
 70
     1
102
RTVSPost2010Prop31
280
     0
102
RTVSPost2010PropOp31
 70
     1
102
RTVSPost2010Prop32
280
     0
102
RTVSPost2010PropOp32
 70
     1
102
RTVSPost2010Prop33
280
     0
102
RTVSPost2010PropOp33
 70
     1
102
RTVSPost2010Prop34
280
     0
102
RTVSPost2010PropOp34
 70
     1
102
RTVSPost2010Prop35
280
     0
102
RTVSPost2010PropOp35
 70
     1
102
RTVSPost2010Prop36
280
     0
102
RTVSPost2010PropOp36
 70
     1
102
RTVSPost2010Prop37
 90
       50
102
RTVSPost2010PropOp37
 70
     1
102
RTVSPost2010Prop38
140
0.0
102
RTVSPost2010PropOp38
 70
     1
102
RTVSPost2010Prop39
140
1.0
102
RTVSPost2010PropOp39
 70
     1
102
RTVSPost2010Prop40
 90
        0
102
RTVSPost2010PropOp40
 70
     1
102
RTVSPost2010Prop41ColorIndex
 90
       18
102
RTVSPost2010Prop41ColorRGB
 90
        0
102
RTVSPost2010PropOp41
 70
     1
102
RTVSPost2010Prop42
 90
       50
102
RTVSPost2010PropOp42
 70
     1
102
RTVSPost2010Prop43
 90
        3
102
RTVSPost2010PropOp43
 70
     1
102
RTVSPost2010Prop44ColorIndex
 90
        5
102
RTVSPost2010Prop44ColorRGB
 90
      255
102
RTVSPost2010PropOp44
 70
     1
102
RTVSPost2010Prop45
280
     0
102
RTVSPost2010PropOp45
 70
     1
102
RTVSPost2010Prop46
 90
       50
102
RTVSPost2010PropOp46
 70
     1
102
RTVSPost2010Prop47
 90
       50
102
RTVSPost2010PropOp47
 70
     1
102
RTVSPost2010Prop48
 90
       50
102
RTVSPost2010PropOp48
 70
     1
102
RTVSPost2010Prop49
280
     0
102
RTVSPost2010PropOp49
 70
     1
102
RTVSPost2010Prop50
 90
       50
102
RTVSPost2010PropOp50
 70
     1
102
RTVSPost2010Prop51ColorIndex
 90
      256
102
RTVSPost2010Prop51ColorRGB
 90
-16777216
102
RTVSPost2010PropOp51
 70
     0
102
RTVSPost2010Prop52
140
1.0
102
RTVSPost2010PropOp52
 70
     0
102
RTVSPost2010Prop53
 90
        2
102
RTVSPost2010PropOp53
 70
     1
102
RTVSPost2010Prop54
  1
strokes_ogs.tif
102
RTVSPost2010PropOp54
 70
     1
102
RTVSPost2010Prop55
280
     0
102
RTVSPost2010PropOp55
 70
     1
102
RTVSPost2010Prop56
140
1.0
102
RTVSPost2010PropOp56
 70
     1
102
RTVSPost2010Prop57
140
1.0
102
RTVSPost2010PropOp57
 70
     1
102
RTVSPropertyOp0
 70
     1
102
RTVSPropertyOp1
 70
     1
102
RTVSPropertyOp2
 70
     1
102
RTVSPropertyOp3
 70
     1
102
RTVSPropertyOp4
 70
     1
102
RTVSPropertyOp5
 70
     1
102
RTVSPropertyOp6
 70
     1
102
RTVSPropertyOp7
 70
     1
102
RTVSPropertyOp8
 70
     1
102
RTVSPropertyOp9
 70
     1
102
RTVSPropertyOp10
 70
     1
102
RTVSPropertyOp11
 70
     1
102
RTVSPropertyOp12
 70
     1
102
RTVSPropertyOp13
 70
     1
102
RTVSPropertyOp14
 70
     1
102
RTVSPropertyOp15
 70
     1
102
RTVSPropertyOp16
 70
     1
102
RTVSPropertyOp17
 70
     1
102
RTVSPropertyOp18
 70
     1
102
RTVSPropertyOp19
 70
     1
102
RTVSPropertyOp20
 70
     1
102
RTVSPropertyOp21
 70
     1
102
RTVSPropertyOp22
 70
     1
102
RTVSPropertyOp23
 70
     1
102
RTVSPropertyOp24
 70
     1
102
RTVSPropertyOp25
 70
     1
102
RTVSPropertyOp26
 70
     1
102
RTVSPropertyOp27
 70
     1
102
RTVSPropertyOp28
 70
     1
102
RTVSPropertyOp29
 70
     1
102
RTVSPropertyOp30
 70
     1
102
RTVSPropertyOp31
 70
     1
102
RTVSPropertyOp32
 70
     1
102
RTVSPropertyOp33
 70
     1
102
RTVSPropertyOp34
 70
     1
102
RTVSPropertyOp35
 70
     1
102
RTVSPropertyOp36
 70
     1
102
RTVSPropertyOp37
 70
     1
102
RTVSPropertyOp38
 70
     1
102
RTVSPropertyOp39
 70
     1
102
RTVSPropertyOp40
 70
     1
102
RTVSPropertyOp41
 70
     1
102
RTVSPropertyOp42
 70
     1
102
RTVSPropertyOp43
 70
     1
102
RTVSPropertyOp44
 70
     1
102
RTVSPropertyOp45
 70
     1
102
RTVSPropertyOp46
 70
     1
102
RTVSPropertyOp47
 70
     1
102
RTVSPropertyOp48
 70
     1
102
RTVSPropertyOp49
 70
     1
102
RTVSPropertyOp50
 70
     1
102
RTVSPropertyOp51
 70
     0
102
RTVSPropertyOp52
 70
     0
102
RTVSPropertyOp53
 70
     1
102
RTVSPropertyOp54
 70
     1
102
RTVSPropertyOp55
 70
     1
102
RTVSPropertyOp56
 70
     1
102
RTVSPropertyOp57
 70
     1
102
RTVSPropertyOp58
 70
     1
102
RTVSPropertyOp59
 70
     1
102
RTVSPropertyOp60
 70
     1
102
RTVSPropertyOp61
 70
     1
102
RTVSPropertyOp62
 70
     1
  0
XRECORD
  5
E0A5
102
{ACAD_REACTORS
330
E0A4
102
}
330
E0A4
100
AcDbXrecord
280
     1
102
RTVSPost2010Prop28
280
     0
102
RTVSPost2010PropOp28
 70
     1
102
RTVSPost2010Prop29
280
     1
102
RTVSPost2010PropOp29
 70
     1
102
RTVSPost2010Prop30
280
     1
102
RTVSPost2010PropOp30
 70
     1
102
RTVSPost2010Prop31
280
     0
102
RTVSPost2010PropOp31
 70
     1
102
RTVSPost2010Prop32
280
     0
102
RTVSPost2010PropOp32
 70
     1
102
RTVSPost2010Prop33
280
     0
102
RTVSPost2010PropOp33
 70
     1
102
RTVSPost2010Prop34
280
     0
102
RTVSPost2010PropOp34
 70
     1
102
RTVSPost2010Prop35
280
     0
102
RTVSPost2010PropOp35
 70
     1
102
RTVSPost2010Prop36
280
     0
102
RTVSPost2010PropOp36
 70
     1
102
RTVSPost2010Prop37
 90
       50
102
RTVSPost2010PropOp37
 70
     0
102
RTVSPost2010Prop38
140
0.0
102
RTVSPost2010PropOp38
 70
     0
102
RTVSPost2010Prop39
140
1.0
102
RTVSPost2010PropOp39
 70
     0
102
RTVSPost2010Prop40
 90
        0
102
RTVSPost2010PropOp40
 70
     0
102
RTVSPost2010Prop41ColorIndex
 90
       18
102
RTVSPost2010Prop41ColorRGB
 90
        0
102
RTVSPost2010PropOp41
 70
     0
102
RTVSPost2010Prop42
 90
       50
102
RTVSPost2010PropOp42
 70
     0
102
RTVSPost2010Prop43
 90
        3
102
RTVSPost2010PropOp43
 70
     0
102
RTVSPost2010Prop44ColorIndex
 90
        5
102
RTVSPost2010Prop44ColorRGB
 90
      255
102
RTVSPost2010PropOp44
 70
     0
102
RTVSPost2010Prop45
280
     0
102
RTVSPost2010PropOp45
 70
     1
102
RTVSPost2010Prop46
 90
       50
102
RTVSPost2010PropOp46
 70
     0
102
RTVSPost2010Prop47
 90
       50
102
RTVSPost2010PropOp47
 70
     0
102
RTVSPost2010Prop48
 90
       50
102
RTVSPost2010PropOp48
 70
     0
102
RTVSPost2010Prop49
280
     0
102
RTVSPost2010PropOp49
 70
     1
102
RTVSPost2010Prop50
 90
       50
102
RTVSPost2010PropOp50
 70
     0
102
RTVSPost2010Prop51ColorIndex
 90
      256
102
RTVSPost2010Prop51ColorRGB
 90
-16777216
102
RTVSPost2010PropOp51
 70
     0
102
RTVSPost2010Prop52
140
1.0
102
RTVSPost2010PropOp52
 70
     0
102
RTVSPost2010Prop53
 90
        2
102
RTVSPost2010PropOp53
 70
     0
102
RTVSPost2010Prop54
  1
strokes_ogs.tif
102
RTVSPost2010PropOp54
 70
     0
102
RTVSPost2010Prop55
280
     0
102
RTVSPost2010PropOp55
 70
     1
102
RTVSPost2010Prop56
140
1.0
102
RTVSPost2010PropOp56
 70
     0
102
RTVSPost2010Prop57
140
1.0
102
RTVSPost2010PropOp57
 70
     0
102
RTVSPropertyOp0
 70
     0
102
RTVSPropertyOp1
 70
     0
102
RTVSPropertyOp2
 70
     0
102
RTVSPropertyOp3
 70
     0
102
RTVSPropertyOp4
 70
     0
102
RTVSPropertyOp5
 70
     0
102
RTVSPropertyOp6
 70
     0
102
RTVSPropertyOp7
 70
     0
102
RTVSPropertyOp8
 70
     0
102
RTVSPropertyOp9
 70
     0
102
RTVSPropertyOp10
 70
     0
102
RTVSPropertyOp11
 70
     0
102
RTVSPropertyOp12
 70
     0
102
RTVSPropertyOp13
 70
     0
102
RTVSPropertyOp14
 70
     2
102
RTVSPropertyOp15
 70
     0
102
RTVSPropertyOp16
 70
     0
102
RTVSPropertyOp17
 70
     0
102
RTVSPropertyOp18
 70
     0
102
RTVSPropertyOp19
 70
     0
102
RTVSPropertyOp20
 70
     0
102
RTVSPropertyOp21
 70
     0
102
RTVSPropertyOp22
 70
     0
102
RTVSPropertyOp23
 70
     0
102
RTVSPropertyOp24
 70
     0
102
RTVSPropertyOp25
 70
     0
102
RTVSPropertyOp26
 70
     0
102
RTVSPropertyOp27
 70
     0
102
RTVSPropertyOp28
 70
     1
102
RTVSPropertyOp29
 70
     1
102
RTVSPropertyOp30
 70
     1
102
RTVSPropertyOp31
 70
     1
102
RTVSPropertyOp32
 70
     1
102
RTVSPropertyOp33
 70
     1
102
RTVSPropertyOp34
 70
     1
102
RTVSPropertyOp35
 70
     1
102
RTVSPropertyOp36
 70
     1
102
RTVSPropertyOp37
 70
     0
102
RTVSPropertyOp38
 70
     0
102
RTVSPropertyOp39
 70
     0
102
RTVSPropertyOp40
 70
     0
102
RTVSPropertyOp41
 70
     0
102
RTVSPropertyOp42
 70
     0
102
RTVSPropertyOp43
 70
     0
102
RTVSPropertyOp44
 70
     0
102
RTVSPropertyOp45
 70
     1
102
RTVSPropertyOp46
 70
     0
102
RTVSPropertyOp47
 70
     0
102
RTVSPropertyOp48
 70
     0
102
RTVSPropertyOp49
 70
     1
102
RTVSPropertyOp50
 70
     0
102
RTVSPropertyOp51
 70
     0
102
RTVSPropertyOp52
 70
     0
102
RTVSPropertyOp53
 70
     0
102
RTVSPropertyOp54
 70
     0
102
RTVSPropertyOp55
 70
     1
102
RTVSPropertyOp56
 70
     0
102
RTVSPropertyOp57
 70
     0
102
RTVSPropertyOp58
 70
     0
102
RTVSPropertyOp59
 70
     0
102
RTVSPropertyOp60
 70
     0
102
RTVSPropertyOp61
 70
     0
102
RTVSPropertyOp62
 70
     0
  0
XRECORD
  5
E08B
102
{ACAD_REACTORS
330
E08A
102
}
330
E08A
100
AcDbXrecord
280
     1
102
RTVSPost2010Prop28
280
     0
102
RTVSPost2010PropOp28
 70
     1
102
RTVSPost2010Prop29
280
     1
102
RTVSPost2010PropOp29
 70
     1
102
RTVSPost2010Prop30
280
     1
102
RTVSPost2010PropOp30
 70
     1
102
RTVSPost2010Prop31
280
     0
102
RTVSPost2010PropOp31
 70
     1
102
RTVSPost2010Prop32
280
     0
102
RTVSPost2010PropOp32
 70
     1
102
RTVSPost2010Prop33
280
     0
102
RTVSPost2010PropOp33
 70
     1
102
RTVSPost2010Prop34
280
     0
102
RTVSPost2010PropOp34
 70
     1
102
RTVSPost2010Prop35
280
     0
102
RTVSPost2010PropOp35
 70
     1
102
RTVSPost2010Prop36
280
     0
102
RTVSPost2010PropOp36
 70
     1
102
RTVSPost2010Prop37
 90
       50
102
RTVSPost2010PropOp37
 70
     1
102
RTVSPost2010Prop38
140
0.0
102
RTVSPost2010PropOp38
 70
     1
102
RTVSPost2010Prop39
140
1.0
102
RTVSPost2010PropOp39
 70
     1
102
RTVSPost2010Prop40
 90
        0
102
RTVSPost2010PropOp40
 70
     1
102
RTVSPost2010Prop41ColorIndex
 90
       18
102
RTVSPost2010Prop41ColorRGB
 90
        0
102
RTVSPost2010PropOp41
 70
     1
102
RTVSPost2010Prop42
 90
       50
102
RTVSPost2010PropOp42
 70
     1
102
RTVSPost2010Prop43
 90
        3
102
RTVSPost2010PropOp43
 70
     1
102
RTVSPost2010Prop44ColorIndex
 90
        5
102
RTVSPost2010Prop44ColorRGB
 90
      255
102
RTVSPost2010PropOp44
 70
     1
102
RTVSPost2010Prop45
280
     0
102
RTVSPost2010PropOp45
 70
     1
102
RTVSPost2010Prop46
 90
       50
102
RTVSPost2010PropOp46
 70
     1
102
RTVSPost2010Prop47
 90
       50
102
RTVSPost2010PropOp47
 70
     1
102
RTVSPost2010Prop48
 90
       50
102
RTVSPost2010PropOp48
 70
     1
102
RTVSPost2010Prop49
280
     0
102
RTVSPost2010PropOp49
 70
     1
102
RTVSPost2010Prop50
 90
       50
102
RTVSPost2010PropOp50
 70
     1
102
RTVSPost2010Prop51ColorIndex
 90
      256
102
RTVSPost2010Prop51ColorRGB
 90
-16777216
102
RTVSPost2010PropOp51
 70
     0
102
RTVSPost2010Prop52
140
1.0
102
RTVSPost2010PropOp52
 70
     0
102
RTVSPost2010Prop53
 90
        2
102
RTVSPost2010PropOp53
 70
     1
102
RTVSPost2010Prop54
  1
strokes_ogs.tif
102
RTVSPost2010PropOp54
 70
     1
102
RTVSPost2010Prop55
280
     0
102
RTVSPost2010PropOp55
 70
     1
102
RTVSPost2010Prop56
140
1.0
102
RTVSPost2010PropOp56
 70
     1
102
RTVSPost2010Prop57
140
1.0
102
RTVSPost2010PropOp57
 70
     1
102
RTVSPropertyOp0
 70
     1
102
RTVSPropertyOp1
 70
     1
102
RTVSPropertyOp2
 70
     1
102
RTVSPropertyOp3
 70
     1
102
RTVSPropertyOp4
 70
     1
102
RTVSPropertyOp5
 70
     1
102
RTVSPropertyOp6
 70
     1
102
RTVSPropertyOp7
 70
     1
102
RTVSPropertyOp8
 70
     1
102
RTVSPropertyOp9
 70
     1
102
RTVSPropertyOp10
 70
     1
102
RTVSPropertyOp11
 70
     1
102
RTVSPropertyOp12
 70
     1
102
RTVSPropertyOp13
 70
     1
102
RTVSPropertyOp14
 70
     1
102
RTVSPropertyOp15
 70
     1
102
RTVSPropertyOp16
 70
     1
102
RTVSPropertyOp17
 70
     1
102
RTVSPropertyOp18
 70
     1
102
RTVSPropertyOp19
 70
     1
102
RTVSPropertyOp20
 70
     1
102
RTVSPropertyOp21
 70
     1
102
RTVSPropertyOp22
 70
     1
102
RTVSPropertyOp23
 70
     1
102
RTVSPropertyOp24
 70
     1
102
RTVSPropertyOp25
 70
     1
102
RTVSPropertyOp26
 70
     1
102
RTVSPropertyOp27
 70
     1
102
RTVSPropertyOp28
 70
     1
102
RTVSPropertyOp29
 70
     1
102
RTVSPropertyOp30
 70
     1
102
RTVSPropertyOp31
 70
     1
102
RTVSPropertyOp32
 70
     1
102
RTVSPropertyOp33
 70
     1
102
RTVSPropertyOp34
 70
     1
102
RTVSPropertyOp35
 70
     1
102
RTVSPropertyOp36
 70
     1
102
RTVSPropertyOp37
 70
     1
102
RTVSPropertyOp38
 70
     1
102
RTVSPropertyOp39
 70
     1
102
RTVSPropertyOp40
 70
     1
102
RTVSPropertyOp41
 70
     1
102
RTVSPropertyOp42
 70
     1
102
RTVSPropertyOp43
 70
     1
102
RTVSPropertyOp44
 70
     1
102
RTVSPropertyOp45
 70
     1
102
RTVSPropertyOp46
 70
     1
102
RTVSPropertyOp47
 70
     1
102
RTVSPropertyOp48
 70
     1
102
RTVSPropertyOp49
 70
     1
102
RTVSPropertyOp50
 70
     1
102
RTVSPropertyOp51
 70
     0
102
RTVSPropertyOp52
 70
     0
102
RTVSPropertyOp53
 70
     1
102
RTVSPropertyOp54
 70
     1
102
RTVSPropertyOp55
 70
     1
102
RTVSPropertyOp56
 70
     1
102
RTVSPropertyOp57
 70
     1
102
RTVSPropertyOp58
 70
     1
102
RTVSPropertyOp59
 70
     1
102
RTVSPropertyOp60
 70
     1
102
RTVSPropertyOp61
 70
     1
102
RTVSPropertyOp62
 70
     1
  0
XRECORD
  5
E0A1
102
{ACAD_REACTORS
330
E0A0
102
}
330
E0A0
100
AcDbXrecord
280
     1
102
RTVSPost2010Prop28
280
     0
102
RTVSPost2010PropOp28
 70
     1
102
RTVSPost2010Prop29
280
     1
102
RTVSPost2010PropOp29
 70
     1
102
RTVSPost2010Prop30
280
     1
102
RTVSPost2010PropOp30
 70
     1
102
RTVSPost2010Prop31
280
     0
102
RTVSPost2010PropOp31
 70
     1
102
RTVSPost2010Prop32
280
     0
102
RTVSPost2010PropOp32
 70
     1
102
RTVSPost2010Prop33
280
     0
102
RTVSPost2010PropOp33
 70
     1
102
RTVSPost2010Prop34
280
     0
102
RTVSPost2010PropOp34
 70
     1
102
RTVSPost2010Prop35
280
     0
102
RTVSPost2010PropOp35
 70
     1
102
RTVSPost2010Prop36
280
     0
102
RTVSPost2010PropOp36
 70
     1
102
RTVSPost2010Prop37
 90
       50
102
RTVSPost2010PropOp37
 70
     1
102
RTVSPost2010Prop38
140
0.0
102
RTVSPost2010PropOp38
 70
     1
102
RTVSPost2010Prop39
140
1.0
102
RTVSPost2010PropOp39
 70
     1
102
RTVSPost2010Prop40
 90
        0
102
RTVSPost2010PropOp40
 70
     1
102
RTVSPost2010Prop41ColorIndex
 90
       18
102
RTVSPost2010Prop41ColorRGB
 90
        0
102
RTVSPost2010PropOp41
 70
     1
102
RTVSPost2010Prop42
 90
       50
102
RTVSPost2010PropOp42
 70
     1
102
RTVSPost2010Prop43
 90
        3
102
RTVSPost2010PropOp43
 70
     1
102
RTVSPost2010Prop44ColorIndex
 90
        5
102
RTVSPost2010Prop44ColorRGB
 90
      255
102
RTVSPost2010PropOp44
 70
     1
102
RTVSPost2010Prop45
280
     0
102
RTVSPost2010PropOp45
 70
     1
102
RTVSPost2010Prop46
 90
       50
102
RTVSPost2010PropOp46
 70
     1
102
RTVSPost2010Prop47
 90
       50
102
RTVSPost2010PropOp47
 70
     1
102
RTVSPost2010Prop48
 90
       50
102
RTVSPost2010PropOp48
 70
     1
102
RTVSPost2010Prop49
280
     0
102
RTVSPost2010PropOp49
 70
     1
102
RTVSPost2010Prop50
 90
       50
102
RTVSPost2010PropOp50
 70
     1
102
RTVSPost2010Prop51ColorIndex
 90
      256
102
RTVSPost2010Prop51ColorRGB
 90
-16777216
102
RTVSPost2010PropOp51
 70
     0
102
RTVSPost2010Prop52
140
1.0
102
RTVSPost2010PropOp52
 70
     0
102
RTVSPost2010Prop53
 90
        2
102
RTVSPost2010PropOp53
 70
     1
102
RTVSPost2010Prop54
  1
strokes_ogs.tif
102
RTVSPost2010PropOp54
 70
     1
102
RTVSPost2010Prop55
280
     0
102
RTVSPost2010PropOp55
 70
     1
102
RTVSPost2010Prop56
140
1.0
102
RTVSPost2010PropOp56
 70
     1
102
RTVSPost2010Prop57
140
1.0
102
RTVSPost2010PropOp57
 70
     1
102
RTVSPropertyOp0
 70
     1
102
RTVSPropertyOp1
 70
     1
102
RTVSPropertyOp2
 70
     1
102
RTVSPropertyOp3
 70
     1
102
RTVSPropertyOp4
 70
     1
102
RTVSPropertyOp5
 70
     1
102
RTVSPropertyOp6
 70
     1
102
RTVSPropertyOp7
 70
     1
102
RTVSPropertyOp8
 70
     1
102
RTVSPropertyOp9
 70
     1
102
RTVSPropertyOp10
 70
     1
102
RTVSPropertyOp11
 70
     1
102
RTVSPropertyOp12
 70
     1
102
RTVSPropertyOp13
 70
     1
102
RTVSPropertyOp14
 70
     1
102
RTVSPropertyOp15
 70
     1
102
RTVSPropertyOp16
 70
     1
102
RTVSPropertyOp17
 70
     1
102
RTVSPropertyOp18
 70
     1
102
RTVSPropertyOp19
 70
     1
102
RTVSPropertyOp20
 70
     1
102
RTVSPropertyOp21
 70
     1
102
RTVSPropertyOp22
 70
     1
102
RTVSPropertyOp23
 70
     1
102
RTVSPropertyOp24
 70
     1
102
RTVSPropertyOp25
 70
     1
102
RTVSPropertyOp26
 70
     1
102
RTVSPropertyOp27
 70
     1
102
RTVSPropertyOp28
 70
     1
102
RTVSPropertyOp29
 70
     1
102
RTVSPropertyOp30
 70
     1
102
RTVSPropertyOp31
 70
     1
102
RTVSPropertyOp32
 70
     1
102
RTVSPropertyOp33
 70
     1
102
RTVSPropertyOp34
 70
     1
102
RTVSPropertyOp35
 70
     1
102
RTVSPropertyOp36
 70
     1
102
RTVSPropertyOp37
 70
     1
102
RTVSPropertyOp38
 70
     1
102
RTVSPropertyOp39
 70
     1
102
RTVSPropertyOp40
 70
     1
102
RTVSPropertyOp41
 70
     1
102
RTVSPropertyOp42
 70
     1
102
RTVSPropertyOp43
 70
     1
102
RTVSPropertyOp44
 70
     1
102
RTVSPropertyOp45
 70
     1
102
RTVSPropertyOp46
 70
     1
102
RTVSPropertyOp47
 70
     1
102
RTVSPropertyOp48
 70
     1
102
RTVSPropertyOp49
 70
     1
102
RTVSPropertyOp50
 70
     1
102
RTVSPropertyOp51
 70
     0
102
RTVSPropertyOp52
 70
     0
102
RTVSPropertyOp53
 70
     1
102
RTVSPropertyOp54
 70
     1
102
RTVSPropertyOp55
 70
     1
102
RTVSPropertyOp56
 70
     1
102
RTVSPropertyOp57
 70
     1
102
RTVSPropertyOp58
 70
     1
102
RTVSPropertyOp59
 70
     1
102
RTVSPropertyOp60
 70
     1
102
RTVSPropertyOp61
 70
     1
102
RTVSPropertyOp62
 70
     1
  0
XRECORD
  5
E09F
102
{ACAD_REACTORS
330
E09E
102
}
330
E09E
100
AcDbXrecord
280
     1
102
RTVSPost2010Prop28
280
     0
102
RTVSPost2010PropOp28
 70
     1
102
RTVSPost2010Prop29
280
     1
102
RTVSPost2010PropOp29
 70
     1
102
RTVSPost2010Prop30
280
     1
102
RTVSPost2010PropOp30
 70
     1
102
RTVSPost2010Prop31
280
     0
102
RTVSPost2010PropOp31
 70
     1
102
RTVSPost2010Prop32
280
     0
102
RTVSPost2010PropOp32
 70
     1
102
RTVSPost2010Prop33
280
     0
102
RTVSPost2010PropOp33
 70
     1
102
RTVSPost2010Prop34
280
     0
102
RTVSPost2010PropOp34
 70
     1
102
RTVSPost2010Prop35
280
     0
102
RTVSPost2010PropOp35
 70
     1
102
RTVSPost2010Prop36
280
     0
102
RTVSPost2010PropOp36
 70
     1
102
RTVSPost2010Prop37
 90
       50
102
RTVSPost2010PropOp37
 70
     1
102
RTVSPost2010Prop38
140
0.0
102
RTVSPost2010PropOp38
 70
     1
102
RTVSPost2010Prop39
140
1.0
102
RTVSPost2010PropOp39
 70
     1
102
RTVSPost2010Prop40
 90
        0
102
RTVSPost2010PropOp40
 70
     1
102
RTVSPost2010Prop41ColorIndex
 90
       18
102
RTVSPost2010Prop41ColorRGB
 90
        0
102
RTVSPost2010PropOp41
 70
     1
102
RTVSPost2010Prop42
 90
       50
102
RTVSPost2010PropOp42
 70
     1
102
RTVSPost2010Prop43
 90
        3
102
RTVSPost2010PropOp43
 70
     1
102
RTVSPost2010Prop44ColorIndex
 90
        5
102
RTVSPost2010Prop44ColorRGB
 90
      255
102
RTVSPost2010PropOp44
 70
     1
102
RTVSPost2010Prop45
280
     0
102
RTVSPost2010PropOp45
 70
     1
102
RTVSPost2010Prop46
 90
       50
102
RTVSPost2010PropOp46
 70
     1
102
RTVSPost2010Prop47
 90
       50
102
RTVSPost2010PropOp47
 70
     1
102
RTVSPost2010Prop48
 90
       50
102
RTVSPost2010PropOp48
 70
     1
102
RTVSPost2010Prop49
280
     0
102
RTVSPost2010PropOp49
 70
     1
102
RTVSPost2010Prop50
 90
       50
102
RTVSPost2010PropOp50
 70
     1
102
RTVSPost2010Prop51ColorIndex
 90
      256
102
RTVSPost2010Prop51ColorRGB
 90
-16777216
102
RTVSPost2010PropOp51
 70
     0
102
RTVSPost2010Prop52
140
1.0
102
RTVSPost2010PropOp52
 70
     0
102
RTVSPost2010Prop53
 90
        2
102
RTVSPost2010PropOp53
 70
     1
102
RTVSPost2010Prop54
  1
strokes_ogs.tif
102
RTVSPost2010PropOp54
 70
     1
102
RTVSPost2010Prop55
280
     0
102
RTVSPost2010PropOp55
 70
     1
102
RTVSPost2010Prop56
140
1.0
102
RTVSPost2010PropOp56
 70
     1
102
RTVSPost2010Prop57
140
1.0
102
RTVSPost2010PropOp57
 70
     1
102
RTVSPropertyOp0
 70
     1
102
RTVSPropertyOp1
 70
     1
102
RTVSPropertyOp2
 70
     1
102
RTVSPropertyOp3
 70
     1
102
RTVSPropertyOp4
 70
     1
102
RTVSPropertyOp5
 70
     1
102
RTVSPropertyOp6
 70
     1
102
RTVSPropertyOp7
 70
     1
102
RTVSPropertyOp8
 70
     1
102
RTVSPropertyOp9
 70
     1
102
RTVSPropertyOp10
 70
     1
102
RTVSPropertyOp11
 70
     1
102
RTVSPropertyOp12
 70
     1
102
RTVSPropertyOp13
 70
     1
102
RTVSPropertyOp14
 70
     1
102
RTVSPropertyOp15
 70
     1
102
RTVSPropertyOp16
 70
     1
102
RTVSPropertyOp17
 70
     1
102
RTVSPropertyOp18
 70
     1
102
RTVSPropertyOp19
 70
     1
102
RTVSPropertyOp20
 70
     1
102
RTVSPropertyOp21
 70
     1
102
RTVSPropertyOp22
 70
     1
102
RTVSPropertyOp23
 70
     1
102
RTVSPropertyOp24
 70
     1
102
RTVSPropertyOp25
 70
     1
102
RTVSPropertyOp26
 70
     1
102
RTVSPropertyOp27
 70
     1
102
RTVSPropertyOp28
 70
     1
102
RTVSPropertyOp29
 70
     1
102
RTVSPropertyOp30
 70
     1
102
RTVSPropertyOp31
 70
     1
102
RTVSPropertyOp32
 70
     1
102
RTVSPropertyOp33
 70
     1
102
RTVSPropertyOp34
 70
     1
102
RTVSPropertyOp35
 70
     1
102
RTVSPropertyOp36
 70
     1
102
RTVSPropertyOp37
 70
     1
102
RTVSPropertyOp38
 70
     1
102
RTVSPropertyOp39
 70
     1
102
RTVSPropertyOp40
 70
     1
102
RTVSPropertyOp41
 70
     1
102
RTVSPropertyOp42
 70
     1
102
RTVSPropertyOp43
 70
     1
102
RTVSPropertyOp44
 70
     1
102
RTVSPropertyOp45
 70
     1
102
RTVSPropertyOp46
 70
     1
102
RTVSPropertyOp47
 70
     1
102
RTVSPropertyOp48
 70
     1
102
RTVSPropertyOp49
 70
     1
102
RTVSPropertyOp50
 70
     1
102
RTVSPropertyOp51
 70
     0
102
RTVSPropertyOp52
 70
     0
102
RTVSPropertyOp53
 70
     1
102
RTVSPropertyOp54
 70
     1
102
RTVSPropertyOp55
 70
     1
102
RTVSPropertyOp56
 70
     1
102
RTVSPropertyOp57
 70
     1
102
RTVSPropertyOp58
 70
     1
102
RTVSPropertyOp59
 70
     1
102
RTVSPropertyOp60
 70
     1
102
RTVSPropertyOp61
 70
     1
102
RTVSPropertyOp62
 70
     1
  0
XRECORD
  5
E099
102
{ACAD_REACTORS
330
E098
102
}
330
E098
100
AcDbXrecord
280
     1
102
RTVSPost2010Prop28
280
     0
102
RTVSPost2010PropOp28
 70
     1
102
RTVSPost2010Prop29
280
     1
102
RTVSPost2010PropOp29
 70
     1
102
RTVSPost2010Prop30
280
     1
102
RTVSPost2010PropOp30
 70
     1
102
RTVSPost2010Prop31
280
     0
102
RTVSPost2010PropOp31
 70
     1
102
RTVSPost2010Prop32
280
     0
102
RTVSPost2010PropOp32
 70
     1
102
RTVSPost2010Prop33
280
     0
102
RTVSPost2010PropOp33
 70
     1
102
RTVSPost2010Prop34
280
     0
102
RTVSPost2010PropOp34
 70
     1
102
RTVSPost2010Prop35
280
     0
102
RTVSPost2010PropOp35
 70
     1
102
RTVSPost2010Prop36
280
     0
102
RTVSPost2010PropOp36
 70
     1
102
RTVSPost2010Prop37
 90
       50
102
RTVSPost2010PropOp37
 70
     1
102
RTVSPost2010Prop38
140
0.0
102
RTVSPost2010PropOp38
 70
     1
102
RTVSPost2010Prop39
140
1.0
102
RTVSPost2010PropOp39
 70
     1
102
RTVSPost2010Prop40
 90
        0
102
RTVSPost2010PropOp40
 70
     1
102
RTVSPost2010Prop41ColorIndex
 90
       18
102
RTVSPost2010Prop41ColorRGB
 90
        0
102
RTVSPost2010PropOp41
 70
     1
102
RTVSPost2010Prop42
 90
       50
102
RTVSPost2010PropOp42
 70
     1
102
RTVSPost2010Prop43
 90
        3
102
RTVSPost2010PropOp43
 70
     1
102
RTVSPost2010Prop44ColorIndex
 90
        5
102
RTVSPost2010Prop44ColorRGB
 90
      255
102
RTVSPost2010PropOp44
 70
     1
102
RTVSPost2010Prop45
280
     0
102
RTVSPost2010PropOp45
 70
     1
102
RTVSPost2010Prop46
 90
       50
102
RTVSPost2010PropOp46
 70
     1
102
RTVSPost2010Prop47
 90
       50
102
RTVSPost2010PropOp47
 70
     1
102
RTVSPost2010Prop48
 90
       50
102
RTVSPost2010PropOp48
 70
     1
102
RTVSPost2010Prop49
280
     0
102
RTVSPost2010PropOp49
 70
     1
102
RTVSPost2010Prop50
 90
       50
102
RTVSPost2010PropOp50
 70
     1
102
RTVSPost2010Prop51ColorIndex
 90
      256
102
RTVSPost2010Prop51ColorRGB
 90
-16777216
102
RTVSPost2010PropOp51
 70
     0
102
RTVSPost2010Prop52
140
1.0
102
RTVSPost2010PropOp52
 70
     0
102
RTVSPost2010Prop53
 90
        2
102
RTVSPost2010PropOp53
 70
     1
102
RTVSPost2010Prop54
  1
strokes_ogs.tif
102
RTVSPost2010PropOp54
 70
     1
102
RTVSPost2010Prop55
280
     0
102
RTVSPost2010PropOp55
 70
     1
102
RTVSPost2010Prop56
140
1.0
102
RTVSPost2010PropOp56
 70
     1
102
RTVSPost2010Prop57
140
1.0
102
RTVSPost2010PropOp57
 70
     1
102
RTVSPropertyOp0
 70
     1
102
RTVSPropertyOp1
 70
     1
102
RTVSPropertyOp2
 70
     1
102
RTVSPropertyOp3
 70
     1
102
RTVSPropertyOp4
 70
     1
102
RTVSPropertyOp5
 70
     1
102
RTVSPropertyOp6
 70
     1
102
RTVSPropertyOp7
 70
     1
102
RTVSPropertyOp8
 70
     1
102
RTVSPropertyOp9
 70
     1
102
RTVSPropertyOp10
 70
     1
102
RTVSPropertyOp11
 70
     1
102
RTVSPropertyOp12
 70
     1
102
RTVSPropertyOp13
 70
     1
102
RTVSPropertyOp14
 70
     1
102
RTVSPropertyOp15
 70
     1
102
RTVSPropertyOp16
 70
     1
102
RTVSPropertyOp17
 70
     1
102
RTVSPropertyOp18
 70
     1
102
RTVSPropertyOp19
 70
     1
102
RTVSPropertyOp20
 70
     1
102
RTVSPropertyOp21
 70
     1
102
RTVSPropertyOp22
 70
     1
102
RTVSPropertyOp23
 70
     1
102
RTVSPropertyOp24
 70
     1
102
RTVSPropertyOp25
 70
     1
102
RTVSPropertyOp26
 70
     1
102
RTVSPropertyOp27
 70
     1
102
RTVSPropertyOp28
 70
     1
102
RTVSPropertyOp29
 70
     1
102
RTVSPropertyOp30
 70
     1
102
RTVSPropertyOp31
 70
     1
102
RTVSPropertyOp32
 70
     1
102
RTVSPropertyOp33
 70
     1
102
RTVSPropertyOp34
 70
     1
102
RTVSPropertyOp35
 70
     1
102
RTVSPropertyOp36
 70
     1
102
RTVSPropertyOp37
 70
     1
102
RTVSPropertyOp38
 70
     1
102
RTVSPropertyOp39
 70
     1
102
RTVSPropertyOp40
 70
     1
102
RTVSPropertyOp41
 70
     1
102
RTVSPropertyOp42
 70
     1
102
RTVSPropertyOp43
 70
     1
102
RTVSPropertyOp44
 70
     1
102
RTVSPropertyOp45
 70
     1
102
RTVSPropertyOp46
 70
     1
102
RTVSPropertyOp47
 70
     1
102
RTVSPropertyOp48
 70
     1
102
RTVSPropertyOp49
 70
     1
102
RTVSPropertyOp50
 70
     1
102
RTVSPropertyOp51
 70
     0
102
RTVSPropertyOp52
 70
     0
102
RTVSPropertyOp53
 70
     1
102
RTVSPropertyOp54
 70
     1
102
RTVSPropertyOp55
 70
     1
102
RTVSPropertyOp56
 70
     1
102
RTVSPropertyOp57
 70
     1
102
RTVSPropertyOp58
 70
     1
102
RTVSPropertyOp59
 70
     1
102
RTVSPropertyOp60
 70
     1
102
RTVSPropertyOp61
 70
     1
102
RTVSPropertyOp62
 70
     1
  0
XRECORD
  5
E09B
102
{ACAD_REACTORS
330
E09A
102
}
330
E09A
100
AcDbXrecord
280
     1
102
RTVSPost2010Prop28
280
     0
102
RTVSPost2010PropOp28
 70
     1
102
RTVSPost2010Prop29
280
     1
102
RTVSPost2010PropOp29
 70
     1
102
RTVSPost2010Prop30
280
     1
102
RTVSPost2010PropOp30
 70
     1
102
RTVSPost2010Prop31
280
     0
102
RTVSPost2010PropOp31
 70
     1
102
RTVSPost2010Prop32
280
     0
102
RTVSPost2010PropOp32
 70
     1
102
RTVSPost2010Prop33
280
     0
102
RTVSPost2010PropOp33
 70
     1
102
RTVSPost2010Prop34
280
     0
102
RTVSPost2010PropOp34
 70
     1
102
RTVSPost2010Prop35
280
     0
102
RTVSPost2010PropOp35
 70
     1
102
RTVSPost2010Prop36
280
     0
102
RTVSPost2010PropOp36
 70
     1
102
RTVSPost2010Prop37
 90
       50
102
RTVSPost2010PropOp37
 70
     1
102
RTVSPost2010Prop38
140
0.0
102
RTVSPost2010PropOp38
 70
     1
102
RTVSPost2010Prop39
140
1.0
102
RTVSPost2010PropOp39
 70
     1
102
RTVSPost2010Prop40
 90
        0
102
RTVSPost2010PropOp40
 70
     1
102
RTVSPost2010Prop41ColorIndex
 90
       18
102
RTVSPost2010Prop41ColorRGB
 90
        0
102
RTVSPost2010PropOp41
 70
     1
102
RTVSPost2010Prop42
 90
       50
102
RTVSPost2010PropOp42
 70
     1
102
RTVSPost2010Prop43
 90
        3
102
RTVSPost2010PropOp43
 70
     1
102
RTVSPost2010Prop44ColorIndex
 90
        5
102
RTVSPost2010Prop44ColorRGB
 90
      255
102
RTVSPost2010PropOp44
 70
     1
102
RTVSPost2010Prop45
280
     0
102
RTVSPost2010PropOp45
 70
     1
102
RTVSPost2010Prop46
 90
       50
102
RTVSPost2010PropOp46
 70
     1
102
RTVSPost2010Prop47
 90
       50
102
RTVSPost2010PropOp47
 70
     1
102
RTVSPost2010Prop48
 90
       50
102
RTVSPost2010PropOp48
 70
     1
102
RTVSPost2010Prop49
280
     0
102
RTVSPost2010PropOp49
 70
     1
102
RTVSPost2010Prop50
 90
       50
102
RTVSPost2010PropOp50
 70
     1
102
RTVSPost2010Prop51ColorIndex
 90
      256
102
RTVSPost2010Prop51ColorRGB
 90
-16777216
102
RTVSPost2010PropOp51
 70
     0
102
RTVSPost2010Prop52
140
1.0
102
RTVSPost2010PropOp52
 70
     0
102
RTVSPost2010Prop53
 90
        2
102
RTVSPost2010PropOp53
 70
     1
102
RTVSPost2010Prop54
  1
strokes_ogs.tif
102
RTVSPost2010PropOp54
 70
     1
102
RTVSPost2010Prop55
280
     0
102
RTVSPost2010PropOp55
 70
     1
102
RTVSPost2010Prop56
140
1.0
102
RTVSPost2010PropOp56
 70
     1
102
RTVSPost2010Prop57
140
1.0
102
RTVSPost2010PropOp57
 70
     1
102
RTVSPropertyOp0
 70
     1
102
RTVSPropertyOp1
 70
     1
102
RTVSPropertyOp2
 70
     1
102
RTVSPropertyOp3
 70
     1
102
RTVSPropertyOp4
 70
     1
102
RTVSPropertyOp5
 70
     1
102
RTVSPropertyOp6
 70
     1
102
RTVSPropertyOp7
 70
     1
102
RTVSPropertyOp8
 70
     1
102
RTVSPropertyOp9
 70
     1
102
RTVSPropertyOp10
 70
     1
102
RTVSPropertyOp11
 70
     1
102
RTVSPropertyOp12
 70
     1
102
RTVSPropertyOp13
 70
     1
102
RTVSPropertyOp14
 70
     1
102
RTVSPropertyOp15
 70
     1
102
RTVSPropertyOp16
 70
     1
102
RTVSPropertyOp17
 70
     1
102
RTVSPropertyOp18
 70
     1
102
RTVSPropertyOp19
 70
     1
102
RTVSPropertyOp20
 70
     1
102
RTVSPropertyOp21
 70
     1
102
RTVSPropertyOp22
 70
     1
102
RTVSPropertyOp23
 70
     1
102
RTVSPropertyOp24
 70
     1
102
RTVSPropertyOp25
 70
     1
102
RTVSPropertyOp26
 70
     1
102
RTVSPropertyOp27
 70
     1
102
RTVSPropertyOp28
 70
     1
102
RTVSPropertyOp29
 70
     1
102
RTVSPropertyOp30
 70
     1
102
RTVSPropertyOp31
 70
     1
102
RTVSPropertyOp32
 70
     1
102
RTVSPropertyOp33
 70
     1
102
RTVSPropertyOp34
 70
     1
102
RTVSPropertyOp35
 70
     1
102
RTVSPropertyOp36
 70
     1
102
RTVSPropertyOp37
 70
     1
102
RTVSPropertyOp38
 70
     1
102
RTVSPropertyOp39
 70
     1
102
RTVSPropertyOp40
 70
     1
102
RTVSPropertyOp41
 70
     1
102
RTVSPropertyOp42
 70
     1
102
RTVSPropertyOp43
 70
     1
102
RTVSPropertyOp44
 70
     1
102
RTVSPropertyOp45
 70
     1
102
RTVSPropertyOp46
 70
     1
102
RTVSPropertyOp47
 70
     1
102
RTVSPropertyOp48
 70
     1
102
RTVSPropertyOp49
 70
     1
102
RTVSPropertyOp50
 70
     1
102
RTVSPropertyOp51
 70
     0
102
RTVSPropertyOp52
 70
     0
102
RTVSPropertyOp53
 70
     1
102
RTVSPropertyOp54
 70
     1
102
RTVSPropertyOp55
 70
     1
102
RTVSPropertyOp56
 70
     1
102
RTVSPropertyOp57
 70
     1
102
RTVSPropertyOp58
 70
     1
102
RTVSPropertyOp59
 70
     1
102
RTVSPropertyOp60
 70
     1
102
RTVSPropertyOp61
 70
     1
102
RTVSPropertyOp62
 70
     1
  0
XRECORD
  5
E091
102
{ACAD_REACTORS
330
E090
102
}
330
E090
100
AcDbXrecord
280
     1
102
RTVSPost2010Prop28
280
     0
102
RTVSPost2010PropOp28
 70
     1
102
RTVSPost2010Prop29
280
     1
102
RTVSPost2010PropOp29
 70
     1
102
RTVSPost2010Prop30
280
     1
102
RTVSPost2010PropOp30
 70
     1
102
RTVSPost2010Prop31
280
     0
102
RTVSPost2010PropOp31
 70
     1
102
RTVSPost2010Prop32
280
     0
102
RTVSPost2010PropOp32
 70
     1
102
RTVSPost2010Prop33
280
     0
102
RTVSPost2010PropOp33
 70
     1
102
RTVSPost2010Prop34
280
     0
102
RTVSPost2010PropOp34
 70
     1
102
RTVSPost2010Prop35
280
     0
102
RTVSPost2010PropOp35
 70
     1
102
RTVSPost2010Prop36
280
     0
102
RTVSPost2010PropOp36
 70
     1
102
RTVSPost2010Prop37
 90
       50
102
RTVSPost2010PropOp37
 70
     1
102
RTVSPost2010Prop38
140
0.0
102
RTVSPost2010PropOp38
 70
     1
102
RTVSPost2010Prop39
140
1.0
102
RTVSPost2010PropOp39
 70
     1
102
RTVSPost2010Prop40
 90
        0
102
RTVSPost2010PropOp40
 70
     1
102
RTVSPost2010Prop41ColorIndex
 90
       18
102
RTVSPost2010Prop41ColorRGB
 90
        0
102
RTVSPost2010PropOp41
 70
     1
102
RTVSPost2010Prop42
 90
       50
102
RTVSPost2010PropOp42
 70
     1
102
RTVSPost2010Prop43
 90
        3
102
RTVSPost2010PropOp43
 70
     1
102
RTVSPost2010Prop44ColorIndex
 90
        5
102
RTVSPost2010Prop44ColorRGB
 90
      255
102
RTVSPost2010PropOp44
 70
     1
102
RTVSPost2010Prop45
280
     0
102
RTVSPost2010PropOp45
 70
     1
102
RTVSPost2010Prop46
 90
       50
102
RTVSPost2010PropOp46
 70
     1
102
RTVSPost2010Prop47
 90
       50
102
RTVSPost2010PropOp47
 70
     1
102
RTVSPost2010Prop48
 90
       50
102
RTVSPost2010PropOp48
 70
     1
102
RTVSPost2010Prop49
280
     0
102
RTVSPost2010PropOp49
 70
     1
102
RTVSPost2010Prop50
 90
       50
102
RTVSPost2010PropOp50
 70
     1
102
RTVSPost2010Prop51ColorIndex
 90
      256
102
RTVSPost2010Prop51ColorRGB
 90
-16777216
102
RTVSPost2010PropOp51
 70
     0
102
RTVSPost2010Prop52
140
1.0
102
RTVSPost2010PropOp52
 70
     0
102
RTVSPost2010Prop53
 90
        2
102
RTVSPost2010PropOp53
 70
     1
102
RTVSPost2010Prop54
  1
strokes_ogs.tif
102
RTVSPost2010PropOp54
 70
     1
102
RTVSPost2010Prop55
280
     0
102
RTVSPost2010PropOp55
 70
     1
102
RTVSPost2010Prop56
140
1.0
102
RTVSPost2010PropOp56
 70
     1
102
RTVSPost2010Prop57
140
1.0
102
RTVSPost2010PropOp57
 70
     1
102
RTVSPropertyOp0
 70
     1
102
RTVSPropertyOp1
 70
     1
102
RTVSPropertyOp2
 70
     1
102
RTVSPropertyOp3
 70
     1
102
RTVSPropertyOp4
 70
     1
102
RTVSPropertyOp5
 70
     1
102
RTVSPropertyOp6
 70
     1
102
RTVSPropertyOp7
 70
     1
102
RTVSPropertyOp8
 70
     1
102
RTVSPropertyOp9
 70
     1
102
RTVSPropertyOp10
 70
     1
102
RTVSPropertyOp11
 70
     1
102
RTVSPropertyOp12
 70
     1
102
RTVSPropertyOp13
 70
     1
102
RTVSPropertyOp14
 70
     1
102
RTVSPropertyOp15
 70
     1
102
RTVSPropertyOp16
 70
     1
102
RTVSPropertyOp17
 70
     1
102
RTVSPropertyOp18
 70
     1
102
RTVSPropertyOp19
 70
     1
102
RTVSPropertyOp20
 70
     1
102
RTVSPropertyOp21
 70
     1
102
RTVSPropertyOp22
 70
     1
102
RTVSPropertyOp23
 70
     1
102
RTVSPropertyOp24
 70
     1
102
RTVSPropertyOp25
 70
     1
102
RTVSPropertyOp26
 70
     1
102
RTVSPropertyOp27
 70
     1
102
RTVSPropertyOp28
 70
     1
102
RTVSPropertyOp29
 70
     1
102
RTVSPropertyOp30
 70
     1
102
RTVSPropertyOp31
 70
     1
102
RTVSPropertyOp32
 70
     1
102
RTVSPropertyOp33
 70
     1
102
RTVSPropertyOp34
 70
     1
102
RTVSPropertyOp35
 70
     1
102
RTVSPropertyOp36
 70
     1
102
RTVSPropertyOp37
 70
     1
102
RTVSPropertyOp38
 70
     1
102
RTVSPropertyOp39
 70
     1
102
RTVSPropertyOp40
 70
     1
102
RTVSPropertyOp41
 70
     1
102
RTVSPropertyOp42
 70
     1
102
RTVSPropertyOp43
 70
     1
102
RTVSPropertyOp44
 70
     1
102
RTVSPropertyOp45
 70
     1
102
RTVSPropertyOp46
 70
     1
102
RTVSPropertyOp47
 70
     1
102
RTVSPropertyOp48
 70
     1
102
RTVSPropertyOp49
 70
     1
102
RTVSPropertyOp50
 70
     1
102
RTVSPropertyOp51
 70
     0
102
RTVSPropertyOp52
 70
     0
102
RTVSPropertyOp53
 70
     1
102
RTVSPropertyOp54
 70
     1
102
RTVSPropertyOp55
 70
     1
102
RTVSPropertyOp56
 70
     1
102
RTVSPropertyOp57
 70
     1
102
RTVSPropertyOp58
 70
     1
102
RTVSPropertyOp59
 70
     1
102
RTVSPropertyOp60
 70
     1
102
RTVSPropertyOp61
 70
     1
102
RTVSPropertyOp62
 70
     1
  0
XRECORD
  5
E085
102
{ACAD_REACTORS
330
E084
102
}
330
E084
100
AcDbXrecord
280
     1
102
RTVSPost2010Prop28
280
     0
102
RTVSPost2010PropOp28
 70
     1
102
RTVSPost2010Prop29
280
     1
102
RTVSPost2010PropOp29
 70
     1
102
RTVSPost2010Prop30
280
     1
102
RTVSPost2010PropOp30
 70
     1
102
RTVSPost2010Prop31
280
     0
102
RTVSPost2010PropOp31
 70
     1
102
RTVSPost2010Prop32
280
     0
102
RTVSPost2010PropOp32
 70
     1
102
RTVSPost2010Prop33
280
     0
102
RTVSPost2010PropOp33
 70
     1
102
RTVSPost2010Prop34
280
     0
102
RTVSPost2010PropOp34
 70
     1
102
RTVSPost2010Prop35
280
     0
102
RTVSPost2010PropOp35
 70
     1
102
RTVSPost2010Prop36
280
     0
102
RTVSPost2010PropOp36
 70
     1
102
RTVSPost2010Prop37
 90
       50
102
RTVSPost2010PropOp37
 70
     1
102
RTVSPost2010Prop38
140
0.0
102
RTVSPost2010PropOp38
 70
     1
102
RTVSPost2010Prop39
140
1.0
102
RTVSPost2010PropOp39
 70
     1
102
RTVSPost2010Prop40
 90
        0
102
RTVSPost2010PropOp40
 70
     1
102
RTVSPost2010Prop41ColorIndex
 90
       18
102
RTVSPost2010Prop41ColorRGB
 90
        0
102
RTVSPost2010PropOp41
 70
     1
102
RTVSPost2010Prop42
 90
       50
102
RTVSPost2010PropOp42
 70
     1
102
RTVSPost2010Prop43
 90
        3
102
RTVSPost2010PropOp43
 70
     1
102
RTVSPost2010Prop44ColorIndex
 90
        5
102
RTVSPost2010Prop44ColorRGB
 90
      255
102
RTVSPost2010PropOp44
 70
     1
102
RTVSPost2010Prop45
280
     0
102
RTVSPost2010PropOp45
 70
     1
102
RTVSPost2010Prop46
 90
       50
102
RTVSPost2010PropOp46
 70
     1
102
RTVSPost2010Prop47
 90
       50
102
RTVSPost2010PropOp47
 70
     1
102
RTVSPost2010Prop48
 90
       50
102
RTVSPost2010PropOp48
 70
     1
102
RTVSPost2010Prop49
280
     0
102
RTVSPost2010PropOp49
 70
     1
102
RTVSPost2010Prop50
 90
       50
102
RTVSPost2010PropOp50
 70
     1
102
RTVSPost2010Prop51ColorIndex
 90
      256
102
RTVSPost2010Prop51ColorRGB
 90
-16777216
102
RTVSPost2010PropOp51
 70
     0
102
RTVSPost2010Prop52
140
1.0
102
RTVSPost2010PropOp52
 70
     0
102
RTVSPost2010Prop53
 90
        2
102
RTVSPost2010PropOp53
 70
     1
102
RTVSPost2010Prop54
  1
strokes_ogs.tif
102
RTVSPost2010PropOp54
 70
     1
102
RTVSPost2010Prop55
280
     0
102
RTVSPost2010PropOp55
 70
     1
102
RTVSPost2010Prop56
140
1.0
102
RTVSPost2010PropOp56
 70
     1
102
RTVSPost2010Prop57
140
1.0
102
RTVSPost2010PropOp57
 70
     1
102
RTVSPropertyOp0
 70
     1
102
RTVSPropertyOp1
 70
     1
102
RTVSPropertyOp2
 70
     1
102
RTVSPropertyOp3
 70
     1
102
RTVSPropertyOp4
 70
     1
102
RTVSPropertyOp5
 70
     1
102
RTVSPropertyOp6
 70
     1
102
RTVSPropertyOp7
 70
     1
102
RTVSPropertyOp8
 70
     1
102
RTVSPropertyOp9
 70
     1
102
RTVSPropertyOp10
 70
     1
102
RTVSPropertyOp11
 70
     1
102
RTVSPropertyOp12
 70
     1
102
RTVSPropertyOp13
 70
     1
102
RTVSPropertyOp14
 70
     1
102
RTVSPropertyOp15
 70
     1
102
RTVSPropertyOp16
 70
     1
102
RTVSPropertyOp17
 70
     1
102
RTVSPropertyOp18
 70
     1
102
RTVSPropertyOp19
 70
     1
102
RTVSPropertyOp20
 70
     1
102
RTVSPropertyOp21
 70
     1
102
RTVSPropertyOp22
 70
     1
102
RTVSPropertyOp23
 70
     1
102
RTVSPropertyOp24
 70
     1
102
RTVSPropertyOp25
 70
     1
102
RTVSPropertyOp26
 70
     1
102
RTVSPropertyOp27
 70
     1
102
RTVSPropertyOp28
 70
     1
102
RTVSPropertyOp29
 70
     1
102
RTVSPropertyOp30
 70
     1
102
RTVSPropertyOp31
 70
     1
102
RTVSPropertyOp32
 70
     1
102
RTVSPropertyOp33
 70
     1
102
RTVSPropertyOp34
 70
     1
102
RTVSPropertyOp35
 70
     1
102
RTVSPropertyOp36
 70
     1
102
RTVSPropertyOp37
 70
     1
102
RTVSPropertyOp38
 70
     1
102
RTVSPropertyOp39
 70
     1
102
RTVSPropertyOp40
 70
     1
102
RTVSPropertyOp41
 70
     1
102
RTVSPropertyOp42
 70
     1
102
RTVSPropertyOp43
 70
     1
102
RTVSPropertyOp44
 70
     1
102
RTVSPropertyOp45
 70
     1
102
RTVSPropertyOp46
 70
     1
102
RTVSPropertyOp47
 70
     1
102
RTVSPropertyOp48
 70
     1
102
RTVSPropertyOp49
 70
     1
102
RTVSPropertyOp50
 70
     1
102
RTVSPropertyOp51
 70
     0
102
RTVSPropertyOp52
 70
     0
102
RTVSPropertyOp53
 70
     1
102
RTVSPropertyOp54
 70
     1
102
RTVSPropertyOp55
 70
     1
102
RTVSPropertyOp56
 70
     1
102
RTVSPropertyOp57
 70
     1
102
RTVSPropertyOp58
 70
     1
102
RTVSPropertyOp59
 70
     1
102
RTVSPropertyOp60
 70
     1
102
RTVSPropertyOp61
 70
     1
102
RTVSPropertyOp62
 70
     1
  0
XRECORD
  5
E09D
102
{ACAD_REACTORS
330
E09C
102
}
330
E09C
100
AcDbXrecord
280
     1
102
RTVSPost2010Prop28
280
     0
102
RTVSPost2010PropOp28
 70
     1
102
RTVSPost2010Prop29
280
     1
102
RTVSPost2010PropOp29
 70
     1
102
RTVSPost2010Prop30
280
     1
102
RTVSPost2010PropOp30
 70
     1
102
RTVSPost2010Prop31
280
     0
102
RTVSPost2010PropOp31
 70
     1
102
RTVSPost2010Prop32
280
     0
102
RTVSPost2010PropOp32
 70
     1
102
RTVSPost2010Prop33
280
     0
102
RTVSPost2010PropOp33
 70
     1
102
RTVSPost2010Prop34
280
     0
102
RTVSPost2010PropOp34
 70
     1
102
RTVSPost2010Prop35
280
     0
102
RTVSPost2010PropOp35
 70
     1
102
RTVSPost2010Prop36
280
     0
102
RTVSPost2010PropOp36
 70
     1
102
RTVSPost2010Prop37
 90
       50
102
RTVSPost2010PropOp37
 70
     1
102
RTVSPost2010Prop38
140
0.0
102
RTVSPost2010PropOp38
 70
     1
102
RTVSPost2010Prop39
140
1.0
102
RTVSPost2010PropOp39
 70
     1
102
RTVSPost2010Prop40
 90
        0
102
RTVSPost2010PropOp40
 70
     1
102
RTVSPost2010Prop41ColorIndex
 90
       18
102
RTVSPost2010Prop41ColorRGB
 90
        0
102
RTVSPost2010PropOp41
 70
     1
102
RTVSPost2010Prop42
 90
       50
102
RTVSPost2010PropOp42
 70
     1
102
RTVSPost2010Prop43
 90
        3
102
RTVSPost2010PropOp43
 70
     1
102
RTVSPost2010Prop44ColorIndex
 90
        5
102
RTVSPost2010Prop44ColorRGB
 90
      255
102
RTVSPost2010PropOp44
 70
     1
102
RTVSPost2010Prop45
280
     0
102
RTVSPost2010PropOp45
 70
     1
102
RTVSPost2010Prop46
 90
       50
102
RTVSPost2010PropOp46
 70
     1
102
RTVSPost2010Prop47
 90
       50
102
RTVSPost2010PropOp47
 70
     1
102
RTVSPost2010Prop48
 90
       50
102
RTVSPost2010PropOp48
 70
     1
102
RTVSPost2010Prop49
280
     0
102
RTVSPost2010PropOp49
 70
     1
102
RTVSPost2010Prop50
 90
       50
102
RTVSPost2010PropOp50
 70
     1
102
RTVSPost2010Prop51ColorIndex
 90
      256
102
RTVSPost2010Prop51ColorRGB
 90
-16777216
102
RTVSPost2010PropOp51
 70
     0
102
RTVSPost2010Prop52
140
1.0
102
RTVSPost2010PropOp52
 70
     0
102
RTVSPost2010Prop53
 90
        2
102
RTVSPost2010PropOp53
 70
     1
102
RTVSPost2010Prop54
  1
strokes_ogs.tif
102
RTVSPost2010PropOp54
 70
     1
102
RTVSPost2010Prop55
280
     0
102
RTVSPost2010PropOp55
 70
     1
102
RTVSPost2010Prop56
140
1.0
102
RTVSPost2010PropOp56
 70
     1
102
RTVSPost2010Prop57
140
1.0
102
RTVSPost2010PropOp57
 70
     1
102
RTVSPropertyOp0
 70
     1
102
RTVSPropertyOp1
 70
     1
102
RTVSPropertyOp2
 70
     1
102
RTVSPropertyOp3
 70
     1
102
RTVSPropertyOp4
 70
     1
102
RTVSPropertyOp5
 70
     1
102
RTVSPropertyOp6
 70
     1
102
RTVSPropertyOp7
 70
     1
102
RTVSPropertyOp8
 70
     1
102
RTVSPropertyOp9
 70
     1
102
RTVSPropertyOp10
 70
     1
102
RTVSPropertyOp11
 70
     1
102
RTVSPropertyOp12
 70
     1
102
RTVSPropertyOp13
 70
     1
102
RTVSPropertyOp14
 70
     1
102
RTVSPropertyOp15
 70
     1
102
RTVSPropertyOp16
 70
     1
102
RTVSPropertyOp17
 70
     1
102
RTVSPropertyOp18
 70
     1
102
RTVSPropertyOp19
 70
     1
102
RTVSPropertyOp20
 70
     1
102
RTVSPropertyOp21
 70
     1
102
RTVSPropertyOp22
 70
     1
102
RTVSPropertyOp23
 70
     1
102
RTVSPropertyOp24
 70
     1
102
RTVSPropertyOp25
 70
     1
102
RTVSPropertyOp26
 70
     1
102
RTVSPropertyOp27
 70
     1
102
RTVSPropertyOp28
 70
     1
102
RTVSPropertyOp29
 70
     1
102
RTVSPropertyOp30
 70
     1
102
RTVSPropertyOp31
 70
     1
102
RTVSPropertyOp32
 70
     1
102
RTVSPropertyOp33
 70
     1
102
RTVSPropertyOp34
 70
     1
102
RTVSPropertyOp35
 70
     1
102
RTVSPropertyOp36
 70
     1
102
RTVSPropertyOp37
 70
     1
102
RTVSPropertyOp38
 70
     1
102
RTVSPropertyOp39
 70
     1
102
RTVSPropertyOp40
 70
     1
102
RTVSPropertyOp41
 70
     1
102
RTVSPropertyOp42
 70
     1
102
RTVSPropertyOp43
 70
     1
102
RTVSPropertyOp44
 70
     1
102
RTVSPropertyOp45
 70
     1
102
RTVSPropertyOp46
 70
     1
102
RTVSPropertyOp47
 70
     1
102
RTVSPropertyOp48
 70
     1
102
RTVSPropertyOp49
 70
     1
102
RTVSPropertyOp50
 70
     1
102
RTVSPropertyOp51
 70
     0
102
RTVSPropertyOp52
 70
     0
102
RTVSPropertyOp53
 70
     1
102
RTVSPropertyOp54
 70
     1
102
RTVSPropertyOp55
 70
     1
102
RTVSPropertyOp56
 70
     1
102
RTVSPropertyOp57
 70
     1
102
RTVSPropertyOp58
 70
     1
102
RTVSPropertyOp59
 70
     1
102
RTVSPropertyOp60
 70
     1
102
RTVSPropertyOp61
 70
     1
102
RTVSPropertyOp62
 70
     1
  0
ENDSEC
  0
EOF
